  0
SECTION
  2
HEADER
  9
$ACADVER
  1
AC1027
  9
$DWGCODEPAGE
  3
ANSI_932
  9
$LTSCALE
 40
20.0
  9
$FILLMODE
 70
     1
  9
$CLAYER
  8
0
  9
$PDMODE
 70
     0
  9
$SPLFRAME
 70
     0
  9
$SPLINETYPE
 70
     6
  9
$SPLINESEGS
 70
     8
  9
$DIMASZ
 40
2.000000
  9
$DIMEXE
 40
1.500000
  9
$DIMEXO
 40
0.800000
  9
$DIMTAD
 70
     1
  9
$DIMTIH
 70
     0
  9
$DIMTOH
 70
     0
  9
$DIMTVP
 40
0.500000
  9
$DIMTXT
 40
3.100000
  9
$EXTMIN
 10
0.000000
 20
0.000000
 30
0.000000
  9
$EXTMAX
 10
297.000000
 20
420.000000
 30
0.000000
  9
$MEASUREMENT
 70
  1
  9
$LIMMIN
 10
0.000000
 20
0.000000
  9
$LIMMAX
 10
297.000000
 20
420.000000
  9
$HANDSEED
  5
325
  9
$LWDISPLAY
290
     0
  9
$DIMBLK
  1
_OPEN
  9
$DIMDEC
 70
     2
  9
$DIMADEC
 70
     2
  9
$DIMAUNIT
 70
     0
  9
$DIMZIN
 70
     8
  9
$DIMAZIN
 70
     2
  9
$DIMTOFL
 70
     1
  0
ENDSEC
  0
SECTION
  2
CLASSES
  0
ENDSEC
  0
SECTION
  2
TABLES
  0
TABLE
  2
VPORT
  5
2F4
100
AcDbSymbolTable
 70
     1
  0
VPORT
  5
2F5
100
AcDbSymbolTableRecord
100
AcDbViewportTableRecord
  2
*ACTIVE
 70
     0
 12
244.645810
 22
155.568089
 40
275.136179
 41
1.705670
  0
ENDTAB
  0
TABLE
  2
LTYPE
  5
2F6
100
AcDbSymbolTable
 70
     3
  0
LTYPE
  5
2F7
100
AcDbSymbolTableRecord
100
AcDbLinetypeTableRecord
  2
BYBLOCK
 70
     0
  3

 72
    65
 73
     0
 40
0.0
  0
LTYPE
  5
2F8
100
AcDbSymbolTableRecord
100
AcDbLinetypeTableRecord
  2
BYLAYER
 70
     0
  3

 72
    65
 73
     0
 40
0.0
  0
LTYPE
  5
2F9
100
AcDbSymbolTableRecord
100
AcDbLinetypeTableRecord
  2
CONTINUOUS
 70
     0
  3
Solid line (NEC CAE2D for Win R17.0 : 2022.11.25)
 72
    65
 73
     0
 40
0.0
  0
LTYPE
  5
2FA
100
AcDbSymbolTableRecord
100
AcDbLinetypeTableRecord
  2
CENTER
 70
     0
  3
____ _ ____ _ ____ _ ____ _ ____ _ ____
 72
    65
 73
     4
 40
2.0
 49
1.25
 74
     0
 49
-0.25
 74
     0
 49
0.25
 74
     0
 49
-0.25
 74
     0
  0
LTYPE
  5
2FB
100
AcDbSymbolTableRecord
100
AcDbLinetypeTableRecord
  2
PHANTOM
 70
     0
  3
______  __  __  ______  __  __  ______ 
 72
    65
 73
     6
 40
2.5
 49
1.25
 74
     0
 49
-0.25
 74
     0
 49
0.25
 74
     0
 49
-0.25
 74
     0
 49
0.25
 74
     0
 49
-0.25
 74
     0
  0
ENDTAB
  0
TABLE
  2
LAYER
  5
2FC
100
AcDbSymbolTable
 70
    10
  0
LAYER
  5
2FD
100
AcDbSymbolTableRecord
100
AcDbLayerTableRecord
  2
0
 70
     0
 62
     7
  6
CONTINUOUS
370
    -3
390

  0
LAYER
  5
2FE
100
AcDbSymbolTableRecord
100
AcDbLayerTableRecord
  2
DXF0
 70
     0
 62
     7
  6
CONTINUOUS
370
    -3
390

  0
LAYER
  5
2FF
100
AcDbSymbolTableRecord
100
AcDbLayerTableRecord
  2
4
 70
     0
 62
     1
  6
CONTINUOUS
370
    -3
390

  0
LAYER
  5
300
100
AcDbSymbolTableRecord
100
AcDbLayerTableRecord
  2
5
 70
     0
 62
     6
  6
CONTINUOUS
370
    -3
390

  0
LAYER
  5
301
100
AcDbSymbolTableRecord
100
AcDbLayerTableRecord
  2
1
 70
     0
 62
     7
  6
CONTINUOUS
370
    -3
390

  0
LAYER
  5
302
100
AcDbSymbolTableRecord
100
AcDbLayerTableRecord
  2
2
 70
     0
 62
     4
  6
CONTINUOUS
370
    -3
390

  0
LAYER
  5
303
100
AcDbSymbolTableRecord
100
AcDbLayerTableRecord
  2
3
 70
     0
 62
     2
  6
CONTINUOUS
370
    -3
390

  0
LAYER
  5
304
100
AcDbSymbolTableRecord
100
AcDbLayerTableRecord
  2
6
 70
     0
 62
     5
  6
CONTINUOUS
370
    -3
390

  0
LAYER
  5
305
100
AcDbSymbolTableRecord
100
AcDbLayerTableRecord
  2
7
 70
     0
 62
     3
  6
CONTINUOUS
370
    -3
390

  0
LAYER
  5
306
100
AcDbSymbolTableRecord
100
AcDbLayerTableRecord
  2
DXF1023
 70
     0
 62
    16
  6
CONTINUOUS
370
    -3
390

  0
ENDTAB
  0
TABLE
  2
STYLE
  5
307
100
AcDbSymbolTable
 70
     4
  0
STYLE
  5
308
100
AcDbSymbolTableRecord
100
AcDbTextStyleTableRecord
  2
STANDARD
 70
    64
 40
0.0
 41
1.0
 50
0.0
 71
     0
 42
3.000000000000000
  3
TXT
  4

  0
STYLE
  5
309
100
AcDbSymbolTableRecord
100
AcDbTextStyleTableRecord
  2
ANKTATE
 70
    68
 40
0.0
 41
1.0
 50
0.0
 71
     0
 42
3.000000000000000
  3
TXT
  4

  0
STYLE
  5
30A
100
AcDbSymbolTableRecord
100
AcDbTextStyleTableRecord
  2
KNJYOKO
 70
    64
 40
0.0
 41
1.0
 50
0.0
 71
     0
 42
3.000000000000000
  3
TXT
  4
BIGFONT
  0
STYLE
  5
30B
100
AcDbSymbolTableRecord
100
AcDbTextStyleTableRecord
  2
KNJTATE
 70
    68
 40
0.0
 41
1.0
 50
0.0
 71
     0
 42
3.000000000000000
  3
TXT
  4
BIGFONT
  0
ENDTAB
  0
TABLE
  2
VIEW
  5
30C
100
AcDbSymbolTable
 70
     0
  0
ENDTAB
  0
TABLE
  2
UCS
  5
30D
100
AcDbSymbolTable
 70
     0
  0
ENDTAB
  0
TABLE
  2
APPID
  5
30E
100
AcDbSymbolTable
 70
     1
  0
APPID
  5
30F
100
AcDbSymbolTableRecord
100
AcDbRegAppTableRecord
  2
ACAD
 70
     0
  0
ENDTAB
  0
TABLE
  2
DIMSTYLE
  5
310
100
AcDbSymbolTable
 70
     2
100
AcDbDimStyleTable
  0
DIMSTYLE
105
311
100
AcDbSymbolTableRecord
100
AcDbDimStyleTableRecord
  2
STANDARD
 70
     0
 41
2.000000
 44
1.500000
 42
0.800000
145
0.661290
140
3.100000
144
1.000000
146
0.645161
340
308
  0
DIMSTYLE
105
312
100
AcDbSymbolTableRecord
100
AcDbDimStyleTableRecord
  2
DXF001
 70
     0
 41
2.000000
 44
1.500000
 42
0.800000
145
0.661290
140
3.100000
144
1.000000
146
0.645161
 77
     1
 73
     0
 74
     0
271
     2
179
     2
275
     0
 78
     8
 79
     2
172
     1
340
308
  0
ENDTAB
  0
TABLE
  2
BLOCK_RECORD
  5
313
100
AcDbSymbolTable
 70
    12
  0
BLOCK_RECORD
  5
314
100
AcDbSymbolTableRecord
100
AcDbBlockTableRecord
  2
*MODEL_SPACE
  0
BLOCK_RECORD
  5
315
100
AcDbSymbolTableRecord
100
AcDbBlockTableRecord
  2
*PAPER_SPACE
  0
BLOCK_RECORD
  5
316
100
AcDbSymbolTableRecord
100
AcDbBlockTableRecord
  2
*PAPER_SPACE0
  0
BLOCK_RECORD
  5
1
100
AcDbSymbolTableRecord
100
AcDbBlockTableRecord
  2
_NONE
  0
BLOCK_RECORD
  5
4
100
AcDbSymbolTableRecord
100
AcDbBlockTableRecord
  2
_CLOSED
  0
BLOCK_RECORD
  5
B
100
AcDbSymbolTableRecord
100
AcDbBlockTableRecord
  2
_DOT
  0
BLOCK_RECORD
  5
13
100
AcDbSymbolTableRecord
100
AcDbBlockTableRecord
  2
_OPEN
  0
BLOCK_RECORD
  5
19
100
AcDbSymbolTableRecord
100
AcDbBlockTableRecord
  2
_ORIGIN
  0
BLOCK_RECORD
  5
1E
100
AcDbSymbolTableRecord
100
AcDbBlockTableRecord
  2
_OPEN30
  0
BLOCK_RECORD
  5
24
100
AcDbSymbolTableRecord
100
AcDbBlockTableRecord
  2
_BOXFILLED
  0
BLOCK_RECORD
  5
29
100
AcDbSymbolTableRecord
100
AcDbBlockTableRecord
  2
_BOXBLANK
  0
BLOCK_RECORD
  5
31
100
AcDbSymbolTableRecord
100
AcDbBlockTableRecord
  2
_OBLIQUE
  0
BLOCK_RECORD
  5
35
100
AcDbSymbolTableRecord
100
AcDbBlockTableRecord
  2
_OPEN90
  0
BLOCK_RECORD
  5
3B
100
AcDbSymbolTableRecord
100
AcDbBlockTableRecord
  2
_CLOSEDBLANK
  0
BLOCK_RECORD
  5
41
100
AcDbSymbolTableRecord
100
AcDbBlockTableRecord
  2
_DOTBLANK
  0
ENDTAB
  0
ENDSEC
  0
SECTION
  2
BLOCKS
  0
BLOCK
  5
317
100
AcDbEntity
  8
0
100
AcDbBlockBegin
  2
*MODEL_SPACE
 70
     0
 10
0.0
 20
0.0
 30
0.0
  3
*MODEL_SPACE
  1

  0
ENDBLK
  5
318
100
AcDbEntity
  8
0
100
AcDbBlockEnd
  0
BLOCK
  5
319
100
AcDbEntity
  8
0
100
AcDbBlockBegin
  2
*PAPER_SPACE
 70
     0
 10
0.0
 20
0.0
 30
0.0
  3
*PAPER_SPACE
  1

  0
ENDBLK
  5
31A
100
AcDbEntity
  8
0
100
AcDbBlockEnd
  0
BLOCK
  5
31B
100
AcDbEntity
  8
0
100
AcDbBlockBegin
  2
*PAPER_SPACE0
 70
     0
 10
0.0
 20
0.0
 30
0.0
  3
*PAPER_SPACE0
  1

  0
ENDBLK
  5
31C
100
AcDbEntity
  8
0
100
AcDbBlockEnd
  0
BLOCK
  5
2
330
1
100
AcDbEntity
  8
0
100
AcDbBlockBegin
  2
_NONE
 70
     0
 10
0.0
 20
0.0
 30
0.0
  3
_NONE
  1

  0
ENDBLK
  5
3
330
1
100
AcDbEntity
  8
0
100
AcDbBlockEnd
  0
BLOCK
  5
5
330
4
100
AcDbEntity
  8
0
100
AcDbBlockBegin
  2
_CLOSED
 70
     0
 10
0.0
 20
0.0
 30
0.0
  3
_CLOSED
  1

  0
LINE
  5
6
330
4
100
AcDbEntity
  8
0
  6
BYBLOCK
 62
     0
370
    -2
100
AcDbLine
 10
-1.0
 20
0.166667
 30
0.0
 11
0.0
 21
0.0
 31
0.0
  0
LINE
  5
7
330
4
100
AcDbEntity
  8
0
  6
BYBLOCK
 62
     0
370
    -2
100
AcDbLine
 10
0.0
 20
0.0
 30
0.0
 11
-1.0
 21
-0.166667
 31
0.0
  0
LINE
  5
8
330
4
100
AcDbEntity
  8
0
  6
BYBLOCK
 62
     0
370
    -2
100
AcDbLine
 10
-1.0
 20
0.166667
 30
0.0
 11
-1.0
 21
-0.166667
 31
0.0
  0
LINE
  5
9
330
4
100
AcDbEntity
  8
0
  6
BYBLOCK
 62
     0
370
    -2
100
AcDbLine
 10
0.0
 20
0.0
 30
0.0
 11
-1.0
 21
0.0
 31
0.0
  0
ENDBLK
  5
A
330
4
100
AcDbEntity
  8
0
100
AcDbBlockEnd
  0
BLOCK
  5
C
330
B
100
AcDbEntity
  8
0
100
AcDbBlockBegin
  2
_DOT
 70
     0
 10
0.0
 20
0.0
 30
0.0
  3
_DOT
  1

  0
POLYLINE
  5
D
330
B
100
AcDbEntity
  8
0
  6
BYBLOCK
 62
     0
370
    -2
100
AcDb2dPolyline
 66
     1
 10
0.0
 20
0.0
 30
0.0
 70
     1
 40
0.5
 41
0.5
  0
VERTEX
  5
E
330
B
100
AcDbEntity
  8
0
  6
BYBLOCK
 62
     0
370
    -2
100
AcDbVertex
100
AcDb2dVertex
 10
-0.25
 20
0.0
 30
0.0
 42
1.0
  0
VERTEX
  5
F
330
B
100
AcDbEntity
  8
0
  6
BYBLOCK
 62
     0
370
    -2
100
AcDbVertex
100
AcDb2dVertex
 10
0.25
 20
0.0
 30
0.0
 42
1.0
  0
SEQEND
  5
10
330
B
100
AcDbEntity
  8
0
  6
BYBLOCK
 62
     0
370
    -2
  0
LINE
  5
11
330
B
100
AcDbEntity
  8
0
  6
BYBLOCK
 62
     0
370
    -2
100
AcDbLine
 10
-0.5
 20
0.0
 30
0.0
 11
-1.0
 21
0.0
 31
0.0
  0
ENDBLK
  5
12
330
B
100
AcDbEntity
  8
0
100
AcDbBlockEnd
  0
BLOCK
  5
14
330
13
100
AcDbEntity
  8
0
100
AcDbBlockBegin
  2
_OPEN
 70
     0
 10
0.0
 20
0.0
 30
0.0
  3
_OPEN
  1

  0
LINE
  5
15
330
13
100
AcDbEntity
  8
0
  6
BYBLOCK
 62
     0
370
    -2
100
AcDbLine
 10
-1.0
 20
0.166667
 30
0.0
 11
0.0
 21
0.0
 31
0.0
  0
LINE
  5
16
330
13
100
AcDbEntity
  8
0
  6
BYBLOCK
 62
     0
370
    -2
100
AcDbLine
 10
0.0
 20
0.0
 30
0.0
 11
-1.0
 21
-0.166667
 31
0.0
  0
LINE
  5
17
330
13
100
AcDbEntity
  8
0
  6
BYBLOCK
 62
     0
370
    -2
100
AcDbLine
 10
0.0
 20
0.0
 30
0.0
 11
-1.0
 21
0.0
 31
0.0
  0
ENDBLK
  5
18
330
13
100
AcDbEntity
  8
0
100
AcDbBlockEnd
  0
BLOCK
  5
1A
330
19
100
AcDbEntity
  8
0
100
AcDbBlockBegin
  2
_ORIGIN
 70
     0
 10
0.0
 20
0.0
 30
0.0
  3
_ORIGIN
  1

  0
CIRCLE
  5
1B
330
19
100
AcDbEntity
  8
0
  6
BYBLOCK
 62
     0
370
    -2
100
AcDbCircle
 10
0.0
 20
0.0
 30
0.0
 40
0.5
  0
LINE
  5
1C
330
19
100
AcDbEntity
  8
0
  6
BYBLOCK
 62
     0
370
    -2
100
AcDbLine
 10
0.0
 20
0.0
 30
0.0
 11
-1.0
 21
0.0
 31
0.0
  0
ENDBLK
  5
1D
330
19
100
AcDbEntity
  8
0
100
AcDbBlockEnd
  0
BLOCK
  5
1F
330
1E
100
AcDbEntity
  8
0
100
AcDbBlockBegin
  2
_OPEN30
 70
     0
 10
0.0
 20
0.0
 30
0.0
  3
_OPEN30
  1

  0
LINE
  5
20
330
1E
100
AcDbEntity
  8
0
  6
BYBLOCK
 62
     0
370
    -2
100
AcDbLine
 10
-1.0
 20
0.267949
 30
0.0
 11
0.0
 21
0.0
 31
0.0
  0
LINE
  5
21
330
1E
100
AcDbEntity
  8
0
  6
BYBLOCK
 62
     0
370
    -2
100
AcDbLine
 10
0.0
 20
0.0
 30
0.0
 11
-1.0
 21
-0.267949
 31
0.0
  0
LINE
  5
22
330
1E
100
AcDbEntity
  8
0
  6
BYBLOCK
 62
     0
370
    -2
100
AcDbLine
 10
0.0
 20
0.0
 30
0.0
 11
-1.0
 21
0.0
 31
0.0
  0
ENDBLK
  5
23
330
1E
100
AcDbEntity
  8
0
100
AcDbBlockEnd
  0
BLOCK
  5
25
330
24
100
AcDbEntity
  8
0
100
AcDbBlockBegin
  2
_BOXFILLED
 70
     0
 10
0.0
 20
0.0
 30
0.0
  3
_BOXFILLED
  1

  0
SOLID
  5
26
330
24
100
AcDbEntity
  8
0
  6
BYBLOCK
 62
     0
370
    -2
100
AcDbTrace
 10
-0.5
 20
0.5
 30
0.0
 11
0.5
 21
0.5
 31
0.0
 12
-0.5
 22
-0.5
 32
0.0
 13
0.5
 23
-0.5
 33
0.0
  0
LINE
  5
27
330
24
100
AcDbEntity
  8
0
  6
BYBLOCK
 62
     0
370
    -2
100
AcDbLine
 10
-0.5
 20
0.0
 30
0.0
 11
-1.0
 21
0.0
 31
0.0
  0
ENDBLK
  5
28
330
24
100
AcDbEntity
  8
0
100
AcDbBlockEnd
  0
BLOCK
  5
2A
330
29
100
AcDbEntity
  8
0
100
AcDbBlockBegin
  2
_BOXBLANK
 70
     0
 10
0.0
 20
0.0
 30
0.0
  3
_BOXBLANK
  1

  0
LINE
  5
2B
330
29
100
AcDbEntity
  8
0
  6
BYBLOCK
 62
     0
370
    -2
100
AcDbLine
 10
-0.5
 20
-0.5
 30
0.0
 11
0.5
 21
-0.5
 31
0.0
  0
LINE
  5
2C
330
29
100
AcDbEntity
  8
0
  6
BYBLOCK
 62
     0
370
    -2
100
AcDbLine
 10
0.5
 20
-0.5
 30
0.0
 11
0.5
 21
0.5
 31
0.0
  0
LINE
  5
2D
330
29
100
AcDbEntity
  8
0
  6
BYBLOCK
 62
     0
370
    -2
100
AcDbLine
 10
0.5
 20
0.5
 30
0.0
 11
-0.5
 21
0.5
 31
0.0
  0
LINE
  5
2E
330
29
100
AcDbEntity
  8
0
  6
BYBLOCK
 62
     0
370
    -2
100
AcDbLine
 10
-0.5
 20
0.5
 30
0.0
 11
-0.5
 21
-0.5
 31
0.0
  0
LINE
  5
2F
330
29
100
AcDbEntity
  8
0
  6
BYBLOCK
 62
     0
370
    -2
100
AcDbLine
 10
-0.5
 20
0.0
 30
0.0
 11
-1.0
 21
0.0
 31
0.0
  0
ENDBLK
  5
30
330
29
100
AcDbEntity
  8
0
100
AcDbBlockEnd
  0
BLOCK
  5
32
330
31
100
AcDbEntity
  8
0
100
AcDbBlockBegin
  2
_OBLIQUE
 70
     0
 10
0.0
 20
0.0
 30
0.0
  3
_OBLIQUE
  1

  0
LINE
  5
33
330
31
100
AcDbEntity
  8
0
  6
BYBLOCK
 62
     0
370
    -2
100
AcDbLine
 10
-0.5
 20
-0.5
 30
0.0
 11
0.5
 21
0.5
 31
0.0
  0
ENDBLK
  5
34
330
31
100
AcDbEntity
  8
0
100
AcDbBlockEnd
  0
BLOCK
  5
36
330
35
100
AcDbEntity
  8
0
100
AcDbBlockBegin
  2
_OPEN90
 70
     0
 10
0.0
 20
0.0
 30
0.0
  3
_OPEN90
  1

  0
LINE
  5
37
330
35
100
AcDbEntity
  8
0
  6
BYBLOCK
 62
     0
370
    -2
100
AcDbLine
 10
-0.5
 20
0.5
 30
0.0
 11
0.0
 21
0.0
 31
0.0
  0
LINE
  5
38
330
35
100
AcDbEntity
  8
0
  6
BYBLOCK
 62
     0
370
    -2
100
AcDbLine
 10
0.0
 20
0.0
 30
0.0
 11
-0.5
 21
-0.5
 31
0.0
  0
LINE
  5
39
330
35
100
AcDbEntity
  8
0
  6
BYBLOCK
 62
     0
370
    -2
100
AcDbLine
 10
0.0
 20
0.0
 30
0.0
 11
-1.0
 21
0.0
 31
0.0
  0
ENDBLK
  5
3A
330
35
100
AcDbEntity
  8
0
100
AcDbBlockEnd
  0
BLOCK
  5
3C
330
3B
100
AcDbEntity
  8
0
100
AcDbBlockBegin
  2
_CLOSEDBLANK
 70
     0
 10
0.0
 20
0.0
 30
0.0
  3
_CLOSEDBLANK
  1

  0
LINE
  5
3D
330
3B
100
AcDbEntity
  8
0
  6
BYBLOCK
 62
     0
370
    -2
100
AcDbLine
 10
-1.0
 20
0.1666666666666666
 30
0.0
 11
0.0
 21
0.0
 31
0.0
  0
LINE
  5
3E
330
3B
100
AcDbEntity
  8
0
  6
BYBLOCK
 62
     0
370
    -2
100
AcDbLine
 10
0.0
 20
0.0
 30
0.0
 11
-1.0
 21
-0.1666666666666666
 31
0.0
  0
LINE
  5
3F
330
3B
100
AcDbEntity
  8
0
  6
BYBLOCK
 62
     0
370
    -2
100
AcDbLine
 10
-1.0
 20
0.1666666666666666
 30
0.0
 11
-1.0
 21
-0.1666666666666666
 31
0.0
  0
ENDBLK
  5
40
330
3B
100
AcDbEntity
  8
0
100
AcDbBlockEnd
  0
BLOCK
  5
42
330
41
100
AcDbEntity
  8
0
100
AcDbBlockBegin
  2
_DOTBLANK
 70
     0
 10
0.0
 20
0.0
 30
0.0
  3
_DOTBLANK
  1

  0
CIRCLE
  5
43
330
41
100
AcDbEntity
  8
0
  6
BYBLOCK
 62
     0
370
    -2
100
AcDbCircle
 10
0.0
 20
0.0
 30
0.0
 40
0.5
  0
LINE
  5
44
330
41
100
AcDbEntity
  8
0
  6
BYBLOCK
 62
     0
370
    -2
100
AcDbLine
 10
-0.5
 20
0.0
 30
0.0
 11
-1.0
 21
0.0
 31
0.0
  0
ENDBLK
  5
45
330
41
100
AcDbEntity
  8
0
100
AcDbBlockEnd
  0
ENDSEC
  0
SECTION
  2
ENTITIES
  0
LINE
  5
46
100
AcDbEntity
  8
1
  6
CONTINUOUS
 62
7
100
AcDbLine
 10
246.7697186706444
 20
65.79127857330823
 30
0.000000000000000
 11
254.4697186706445
 21
65.79127857330823
 31
0.000000000000000
  0
LINE
  5
47
100
AcDbEntity
  8
1
  6
CONTINUOUS
 62
7
100
AcDbLine
 10
246.7697186706444
 20
63.79127857330821
 30
0.000000000000000
 11
254.4697186706445
 21
63.79127857330821
 31
0.000000000000000
  0
LINE
  5
48
100
AcDbEntity
  8
1
  6
CONTINUOUS
 62
7
100
AcDbLine
 10
246.7697186706444
 20
40.29127857330840
 30
0.000000000000000
 11
254.4697186706445
 21
40.29127857330840
 31
0.000000000000000
  0
LINE
  5
49
100
AcDbEntity
  8
1
  6
CONTINUOUS
 62
7
100
AcDbLine
 10
246.7697186706444
 20
38.29127857330840
 30
0.000000000000000
 11
254.4697186706445
 21
38.29127857330840
 31
0.000000000000000
  0
LINE
  5
4A
100
AcDbEntity
  8
1
  6
CONTINUOUS
 62
7
100
AcDbLine
 10
246.7697186706444
 20
287.1361785733082
 30
0.000000000000000
 11
254.4697186706445
 21
287.1361785733082
 31
0.000000000000000
  0
LINE
  5
4B
100
AcDbEntity
  8
1
  6
CONTINUOUS
 62
7
100
AcDbLine
 10
246.7697186706444
 20
289.1361785733080
 30
0.000000000000000
 11
254.4697186706445
 21
289.1361785733080
 31
0.000000000000000
  0
LINE
  5
4C
100
AcDbEntity
  8
1
  6
CONTINUOUS
 62
7
100
AcDbLine
 10
246.7697186706444
 20
261.6361785733083
 30
0.000000000000000
 11
254.4697186706445
 21
261.6361785733083
 31
0.000000000000000
  0
LINE
  5
4D
100
AcDbEntity
  8
1
  6
CONTINUOUS
 62
7
100
AcDbLine
 10
246.7697186706444
 20
263.6361785733083
 30
0.000000000000000
 11
254.4697186706445
 21
263.6361785733083
 31
0.000000000000000
  0
LINE
  5
4E
100
AcDbEntity
  8
1
  6
CONTINUOUS
 62
7
100
AcDbLine
 10
244.7697186706444
 20
186.9237785733083
 30
0.000000000000000
 11
256.4697186706445
 21
186.9237785733083
 31
0.000000000000000
  0
LINE
  5
4F
100
AcDbEntity
  8
1
  6
CONTINUOUS
 62
7
100
AcDbLine
 10
244.7697186706444
 20
124.9237785733083
 30
0.000000000000000
 11
252.4697186706445
 21
124.9237785733083
 31
0.000000000000000
  0
LINE
  5
50
100
AcDbEntity
  8
1
  6
CONTINUOUS
 62
7
100
AcDbLine
 10
246.7697186706444
 20
186.9237785733083
 30
0.000000000000000
 11
246.7697186706444
 21
124.9237785733083
 31
0.000000000000000
  0
LINE
  5
51
100
AcDbEntity
  8
1
  6
CONTINUOUS
 62
7
100
AcDbLine
 10
244.7697186706444
 20
186.9237785733083
 30
0.000000000000000
 11
244.7697186706444
 21
124.9237785733083
 31
0.000000000000000
  0
LINE
  5
52
100
AcDbEntity
  8
1
  6
CONTINUOUS
 62
7
100
AcDbLine
 10
176.5058186706444
 20
175.4237785733083
 30
0.000000000000000
 11
176.5058186706444
 21
166.4237785733083
 31
0.000000000000000
  0
LINE
  5
53
100
AcDbEntity
  8
1
  6
CONTINUOUS
 62
7
100
AcDbLine
 10
176.0058186706444
 20
187.4358885733083
 30
0.000000000000000
 11
176.0058186706444
 21
154.4116785733083
 31
0.000000000000000
  0
LINE
  5
54
100
AcDbEntity
  8
1
  6
CONTINUOUS
 62
7
100
AcDbLine
 10
166.5058186706445
 20
220.4237785733083
 30
0.000000000000000
 11
166.5058186706445
 21
106.4237785733083
 31
0.000000000000000
  0
LINE
  5
55
100
AcDbEntity
  8
1
  6
CONTINUOUS
 62
7
100
AcDbLine
 10
164.0058186706444
 20
220.4237785733083
 30
0.000000000000000
 11
164.0058186706444
 21
106.4237785733083
 31
0.000000000000000
  0
LINE
  5
56
100
AcDbEntity
  8
1
  6
CONTINUOUS
 62
7
100
AcDbLine
 10
165.5058186706445
 20
220.4237785733083
 30
0.000000000000000
 11
165.5058186706445
 21
106.4237785733083
 31
0.000000000000000
  0
LINE
  5
57
100
AcDbEntity
  8
1
  6
CONTINUOUS
 62
7
100
AcDbLine
 10
162.5058186706445
 20
217.4237785733082
 30
0.000000000000000
 11
162.5058186706445
 21
109.4237785733082
 31
0.000000000000000
  0
LINE
  5
58
100
AcDbEntity
  8
1
  6
CONTINUOUS
 62
7
100
AcDbLine
 10
162.0058186706445
 20
192.9934185733080
 30
0.000000000000000
 11
162.0058186706445
 21
137.9237785733083
 31
0.000000000000000
  0
LINE
  5
59
100
AcDbEntity
  8
1
  6
CONTINUOUS
 62
7
100
AcDbLine
 10
49.40581867064452
 20
199.0589785733082
 30
0.000000000000000
 11
49.40581867064452
 21
137.9237785733083
 31
0.000000000000000
  0
LINE
  5
5A
100
AcDbEntity
  8
1
  6
CONTINUOUS
 62
7
100
AcDbLine
 10
49.50581867064454
 20
199.4237785733083
 30
0.000000000000000
 11
49.50581867064454
 21
127.4237785733083
 31
0.000000000000000
  0
LINE
  5
5B
100
AcDbEntity
  8
1
  6
CONTINUOUS
 62
7
100
AcDbLine
 10
50.85581867064445
 20
215.4237785733082
 30
0.000000000000000
 11
50.85581867064445
 21
111.4237785733082
 31
0.000000000000000
  0
LINE
  5
5C
100
AcDbEntity
  8
1
  6
CONTINUOUS
 62
7
100
AcDbLine
 10
53.85581867064445
 20
215.4237785733082
 30
0.000000000000000
 11
53.85581867064445
 21
111.4237785733082
 31
0.000000000000000
  0
LINE
  5
5D
100
AcDbEntity
  8
1
  6
CONTINUOUS
 62
7
100
AcDbLine
 10
30.30581867064450
 20
199.0589785733082
 30
0.000000000000000
 11
30.30581867064450
 21
137.9237785733083
 31
0.000000000000000
  0
LINE
  5
5E
100
AcDbEntity
  8
1
  6
CONTINUOUS
 62
7
100
AcDbLine
 10
30.20581867064447
 20
199.4237785733083
 30
0.000000000000000
 11
30.20581867064447
 21
127.4237785733083
 31
0.000000000000000
  0
LINE
  5
5F
100
AcDbEntity
  8
1
  6
CONTINUOUS
 62
7
100
AcDbLine
 10
28.85581867064445
 20
215.4237785733082
 30
0.000000000000000
 11
28.85581867064445
 21
111.4237785733082
 31
0.000000000000000
  0
LINE
  5
60
100
AcDbEntity
  8
1
  6
CONTINUOUS
 62
7
100
AcDbLine
 10
25.85581867064445
 20
215.4237785733082
 30
0.000000000000000
 11
25.85581867064445
 21
111.4237785733082
 31
0.000000000000000
  0
LINE
  5
61
100
AcDbEntity
  8
4
  6
CENTER
 62
1
100
AcDbLine
 10
39.85581867064445
 20
226.3750785733082
 30
0.000000000000000
 11
39.85581867064445
 21
101.0523785733083
 31
0.000000000000000
  0
LINE
  5
62
100
AcDbEntity
  8
5
  6
PHANTOM
 62
6
100
AcDbLine
 10
158.7769186706442
 20
198.0587785733082
 30
0.000000000000000
 11
119.8368186706444
 21
159.1186785733081
 31
0.000000000000000
  0
LINE
  5
63
100
AcDbEntity
  8
5
  6
PHANTOM
 62
6
100
AcDbLine
 10
156.9558186706443
 20
189.8737785733083
 30
0.000000000000000
 11
131.8576186706444
 21
164.7755785733083
 31
0.000000000000000
  0
MTEXT
  5
64
100
AcDbEntity
  8
7
  6
CONTINUOUS
 62
3
100
AcDbMText
 10
10.00000153760811
 20
17.99999980684674
 30
0.000000000000000
 40
3.000000000000000
 41
0.000000000000000
 44
0.6739999771118164
 71
     7
 72
     1
  1
{\H0.94x;{TYPE No.THA-405-2K(No.200)}}
 11
1.000000000000000
 21
0.000000000000000
 31
0.000000000000000
  7
STANDARD
  0
ARC
  5
65
100
AcDbEntity
  8
1
  6
CONTINUOUS
 62
7
100
AcDbCircle
 10
48.85581867064445
 20
111.4237785733082
 30
0.000000000000000
 40
5.000000000000000
100
AcDbArc
 50
270.0000000000000
 51
360.0000000000000
  0
LINE
  5
66
100
AcDbEntity
  8
1
  6
CONTINUOUS
 62
7
100
AcDbLine
 10
30.85581867064445
 20
109.4237785733082
 30
0.000000000000000
 11
48.85581867064445
 21
109.4237785733082
 31
0.000000000000000
  0
LINE
  5
67
100
AcDbEntity
  8
1
  6
CONTINUOUS
 62
7
100
AcDbLine
 10
30.85581867064445
 20
106.4237785733083
 30
0.000000000000000
 11
48.85581867064445
 21
106.4237785733083
 31
0.000000000000000
  0
ARC
  5
68
100
AcDbEntity
  8
1
  6
CONTINUOUS
 62
7
100
AcDbCircle
 10
30.85581867064445
 20
111.4237785733082
 30
0.000000000000000
 40
5.000000000000000
100
AcDbArc
 50
180.0000000000000
 51
270.0000000000000
  0
ARC
  5
69
100
AcDbEntity
  8
1
  6
CONTINUOUS
 62
7
100
AcDbCircle
 10
30.85581867064445
 20
111.4237785733082
 30
0.000000000000000
 40
2.000000000000000
100
AcDbArc
 50
180.0000000000000
 51
270.0000000000000
  0
ARC
  5
6A
100
AcDbEntity
  8
1
  6
CONTINUOUS
 62
7
100
AcDbCircle
 10
48.85581867064445
 20
111.4237785733082
 30
0.000000000000000
 40
2.000000000000000
100
AcDbArc
 50
270.0000000000000
 51
360.0000000000000
  0
CIRCLE
  5
6B
100
AcDbEntity
  8
1
  6
CONTINUOUS
 62
7
100
AcDbCircle
 10
39.85581867064445
 20
127.0237785733082
 30
0.000000000000000
 40
7.650000000000000
  0
ARC
  5
6C
100
AcDbEntity
  8
1
  6
CONTINUOUS
 62
7
100
AcDbCircle
 10
39.85581867064445
 20
127.4237785733083
 30
0.000000000000000
 40
9.650000000000000
100
AcDbArc
 50
180.0000000000000
 51
360.0000000000000
  0
LINE
  5
6D
100
AcDbEntity
  8
4
  6
CENTER
 62
1
100
AcDbLine
 10
31.20581867064447
 20
127.4237785733083
 30
0.000000000000000
 11
48.44381867064453
 21
127.4237785733083
 31
0.000000000000000
  0
LINE
  5
6E
100
AcDbEntity
  8
1
  6
CONTINUOUS
 62
7
100
AcDbLine
 10
30.20581867064447
 20
136.4237785733083
 30
0.000000000000000
 11
49.50581867064454
 21
136.4237785733083
 31
0.000000000000000
  0
LINE
  5
6F
100
AcDbEntity
  8
1
  6
CONTINUOUS
 62
7
100
AcDbLine
 10
31.30581867064449
 20
136.9237785733083
 30
0.000000000000000
 11
48.40581867064452
 21
136.9237785733083
 31
0.000000000000000
  0
ARC
  5
70
100
AcDbEntity
  8
1
  6
CONTINUOUS
 62
7
100
AcDbCircle
 10
31.30581867064449
 20
137.9237785733083
 30
0.000000000000000
 40
1.000000000000000
100
AcDbArc
 50
180.0000000000000
 51
270.0000000000000
  0
LINE
  5
71
100
AcDbEntity
  8
1
  6
CONTINUOUS
 62
7
100
AcDbLine
 10
40.90581867064452
 20
130.5237785733082
 30
0.000000000000000
 11
40.90581867064452
 21
123.5237785733082
 31
0.000000000000000
  0
LINE
  5
72
100
AcDbEntity
  8
1
  6
CONTINUOUS
 62
7
100
AcDbLine
 10
38.80581867064449
 20
130.5237785733082
 30
0.000000000000000
 11
38.80581867064449
 21
123.5237785733082
 31
0.000000000000000
  0
LINE
  5
73
100
AcDbEntity
  8
1
  6
CONTINUOUS
 62
7
100
AcDbLine
 10
38.80581867064449
 20
123.5237785733082
 30
0.000000000000000
 11
40.90581867064452
 21
123.5237785733082
 31
0.000000000000000
  0
LINE
  5
74
100
AcDbEntity
  8
1
  6
CONTINUOUS
 62
7
100
AcDbLine
 10
38.80581867064449
 20
130.5237785733082
 30
0.000000000000000
 11
40.90581867064452
 21
130.5237785733082
 31
0.000000000000000
  0
ARC
  5
75
100
AcDbEntity
  8
1
  6
CONTINUOUS
 62
7
100
AcDbCircle
 10
48.40581867064452
 20
137.9237785733083
 30
0.000000000000000
 40
1.000000000000000
100
AcDbArc
 50
270.0000000000000
 51
360.0000000000000
  0
ARC
  5
76
100
AcDbEntity
  8
1
  6
CONTINUOUS
 62
7
100
AcDbCircle
 10
246.7697186706444
 20
65.79127857330823
 30
0.000000000000000
 40
2.000000000000000
100
AcDbArc
 50
180.0000000000000
 51
270.0000000000000
  0
LINE
  5
77
100
AcDbEntity
  8
1
  6
CONTINUOUS
 62
7
100
AcDbLine
 10
162.5058186706445
 20
63.04127857330833
 30
0.000000000000000
 11
164.0058186706444
 21
66.04127857330825
 31
0.000000000000000
  0
LINE
  5
78
100
AcDbEntity
  8
1
  6
CONTINUOUS
 62
7
100
AcDbLine
 10
164.0058186706444
 20
38.04127857330849
 30
0.000000000000000
 11
164.0058186706444
 21
66.04127857330825
 31
0.000000000000000
  0
LINE
  5
79
100
AcDbEntity
  8
1
  6
CONTINUOUS
 62
7
100
AcDbLine
 10
165.5058186706445
 20
38.04127857330842
 30
0.000000000000000
 11
165.5058186706445
 21
66.04127857330825
 31
0.000000000000000
  0
LINE
  5
7A
100
AcDbEntity
  8
1
  6
CONTINUOUS
 62
7
100
AcDbLine
 10
166.5058186706445
 20
38.04127857330842
 30
0.000000000000000
 11
166.5058186706445
 21
66.04127857330825
 31
0.000000000000000
  0
LINE
  5
7B
100
AcDbEntity
  8
1
  6
CONTINUOUS
 62
7
100
AcDbLine
 10
166.5058186706445
 20
63.51527857330827
 30
0.000000000000000
 11
189.5318065503841
 21
62.91667979746187
 31
0.000000000000000
  0
LINE
  5
7C
100
AcDbEntity
  8
1
  6
CONTINUOUS
 62
7
100
AcDbLine
 10
166.5058186706445
 20
40.56767857330823
 30
0.000000000000000
 11
189.5317845229451
 21
41.16576905963342
 31
0.000000000000000
  0
LINE
  5
7D
100
AcDbEntity
  8
4
  6
CENTER
 62
1
100
AcDbLine
 10
152.0414186706444
 20
52.04127857330832
 30
0.000000000000000
 11
199.3184006706444
 21
52.04127857330832
 31
0.000000000000000
  0
ARC
  5
7E
100
AcDbEntity
  8
1
  6
CONTINUOUS
 62
7
100
AcDbCircle
 10
190.5658186706444
 20
52.04127857330832
 30
0.000000000000000
 40
28.55999999999999
100
AcDbArc
 50
169.2630934325142
 51
190.7369065674856
  0
ARC
  5
7F
100
AcDbEntity
  8
1
  6
CONTINUOUS
 62
7
100
AcDbCircle
 10
166.3879186706443
 20
52.04127857330832
 30
0.000000000000000
 40
9.614850000000001
100
AcDbArc
 50
113.8134989999997
 51
246.1865010000002
  0
LINE
  5
80
100
AcDbEntity
  8
1
  6
CONTINUOUS
 62
7
100
AcDbLine
 10
162.5058186706445
 20
41.04127857330832
 30
0.000000000000000
 11
162.5058186706445
 21
63.04127857330833
 31
0.000000000000000
  0
LINE
  5
81
100
AcDbEntity
  8
1
  6
CONTINUOUS
 62
7
100
AcDbLine
 10
164.0058186706444
 20
38.04127857330842
 30
0.000000000000000
 11
166.5058186706445
 21
38.04127857330842
 31
0.000000000000000
  0
LINE
  5
82
100
AcDbEntity
  8
1
  6
CONTINUOUS
 62
7
100
AcDbLine
 10
162.5058186706445
 20
41.04127857330833
 30
0.000000000000000
 11
164.0058186706444
 21
38.04127857330851
 31
0.000000000000000
  0
LINE
  5
83
100
AcDbEntity
  8
1
  6
CONTINUOUS
 62
7
100
AcDbLine
 10
195.2058186706443
 20
47.04127857330820
 30
0.000000000000000
 11
195.2058186706443
 21
57.04127857330821
 31
0.000000000000000
  0
LINE
  5
84
100
AcDbEntity
  8
2
  6
CONTINUOUS
 62
4
100
AcDbLine
 10
192.2058186706443
 20
47.04127857330822
 30
0.000000000000000
 11
195.2058186706443
 21
51.38447857330837
 31
0.000000000000000
  0
LINE
  5
85
100
AcDbEntity
  8
2
  6
CONTINUOUS
 62
4
100
AcDbLine
 10
195.2058186706444
 20
47.04127857330820
 30
0.000000000000000
 11
192.2058186706444
 21
51.38447857330835
 31
0.000000000000000
  0
LINE
  5
86
100
AcDbEntity
  8
1
  6
CONTINUOUS
 62
7
100
AcDbLine
 10
192.2058186706443
 20
40.79167857330821
 30
0.000000000000000
 11
192.2058186706443
 21
61.78407857330817
 31
0.000000000000000
  0
LINE
  5
87
100
AcDbEntity
  8
1
  6
CONTINUOUS
 62
7
100
AcDbLine
 10
190.5058186706445
 20
61.91701753944334
 30
0.000000000000000
 11
190.5058186706445
 21
42.16543189004890
 31
0.000000000000000
  0
LINE
  5
88
100
AcDbEntity
  8
1
  6
CONTINUOUS
 62
7
100
AcDbLine
 10
190.2058186706443
 20
40.79167857330821
 30
0.000000000000000
 11
190.2058186706443
 21
41.45128904719446
 31
0.000000000000000
  0
LINE
  5
89
100
AcDbEntity
  8
1
  6
CONTINUOUS
 62
7
100
AcDbLine
 10
190.2058186706443
 20
40.79167857330821
 30
0.000000000000000
 11
192.2058186706443
 21
40.79167857330821
 31
0.000000000000000
  0
ARC
  5
8A
100
AcDbEntity
  8
1
  6
CONTINUOUS
 62
7
100
AcDbCircle
 10
189.5058186706445
 20
42.16543189004890
 30
0.000000000000000
 40
1.000000000000000
100
AcDbArc
 50
271.4879009770414
 51
360.0000000000000
  0
LINE
  5
8B
100
AcDbEntity
  8
1
  6
CONTINUOUS
 62
7
100
AcDbLine
 10
192.2058186706443
 20
47.04127857330820
 30
0.000000000000000
 11
195.2058186706443
 21
47.04127857330820
 31
0.000000000000000
  0
LINE
  5
8C
100
AcDbEntity
  8
2
  6
CONTINUOUS
 62
4
100
AcDbLine
 10
195.2058186706443
 20
52.69817857330821
 30
0.000000000000000
 11
192.2058186706443
 21
57.04127857330823
 31
0.000000000000000
  0
LINE
  5
8D
100
AcDbEntity
  8
2
  6
CONTINUOUS
 62
4
100
AcDbLine
 10
192.2058186706443
 20
52.69817857330821
 30
0.000000000000000
 11
195.2058186706443
 21
57.04127857330820
 31
0.000000000000000
  0
LINE
  5
8E
100
AcDbEntity
  8
1
  6
CONTINUOUS
 62
7
100
AcDbLine
 10
192.2058186706443
 20
52.69817857330821
 30
0.000000000000000
 11
195.2058186706443
 21
52.69817857330821
 31
0.000000000000000
  0
LINE
  5
8F
100
AcDbEntity
  8
1
  6
CONTINUOUS
 62
7
100
AcDbLine
 10
192.2058186706443
 20
57.04127857330821
 30
0.000000000000000
 11
195.2058186706443
 21
57.04127857330821
 31
0.000000000000000
  0
LINE
  5
90
100
AcDbEntity
  8
1
  6
CONTINUOUS
 62
7
100
AcDbLine
 10
192.2058186706443
 20
51.38447857330834
 30
0.000000000000000
 11
195.2058186706443
 21
51.38447857330834
 31
0.000000000000000
  0
LINE
  5
91
100
AcDbEntity
  8
1
  6
CONTINUOUS
 62
7
100
AcDbLine
 10
190.5058186706445
 20
61.78407857330817
 30
0.000000000000000
 11
192.2058186706443
 21
61.78407857330817
 31
0.000000000000000
  0
ARC
  5
92
100
AcDbEntity
  8
1
  6
CONTINUOUS
 62
7
100
AcDbCircle
 10
189.5058186706445
 20
61.91701753944334
 30
0.000000000000000
 40
1.000000000000000
100
AcDbArc
 50
0.000000000000000
 51
88.51083651763388
  0
LINE
  5
93
100
AcDbEntity
  8
1
  6
CONTINUOUS
 62
7
100
AcDbLine
 10
246.7697186706444
 20
38.29127857330840
 30
0.000000000000000
 11
246.7697186706444
 21
34.29127857330835
 31
0.000000000000000
  0
LINE
  5
94
100
AcDbEntity
  8
1
  6
CONTINUOUS
 62
7
100
AcDbLine
 10
244.7697186706444
 20
38.29127857330840
 30
0.000000000000000
 11
244.7697186706444
 21
34.29127857330835
 31
0.000000000000000
  0
LINE
  5
95
100
AcDbEntity
  8
1
  6
CONTINUOUS
 62
7
100
AcDbLine
 10
244.7697186706444
 20
34.29127857330835
 30
0.000000000000000
 11
246.7697186706444
 21
34.29127857330835
 31
0.000000000000000
  0
ARC
  5
96
100
AcDbEntity
  8
1
  6
CONTINUOUS
 62
7
100
AcDbCircle
 10
222.6749186706441
 20
54.04127857330832
 30
0.000000000000000
 40
5.776709999999997
100
AcDbArc
 50
339.7437999999977
 51
380.2559999999981
  0
LINE
  5
97
100
AcDbEntity
  8
1
  6
CONTINUOUS
 62
7
100
AcDbLine
 10
224.9516186706443
 20
56.04127857330833
 30
0.000000000000000
 11
228.4516186706442
 21
56.04127857330833
 31
0.000000000000000
  0
LINE
  5
98
100
AcDbEntity
  8
1
  6
CONTINUOUS
 62
7
100
AcDbLine
 10
224.9516186706443
 20
48.04127857330833
 30
0.000000000000000
 11
228.4516186706442
 21
48.04127857330833
 31
0.000000000000000
  0
ARC
  5
99
100
AcDbEntity
  8
1
  6
CONTINUOUS
 62
7
100
AcDbCircle
 10
222.6749186706441
 20
50.04127857330832
 30
0.000000000000000
 40
5.776709999999997
100
AcDbArc
 50
339.7437999999977
 51
380.2559999999981
  0
LINE
  5
9A
100
AcDbEntity
  8
4
  6
CENTER
 62
1
100
AcDbLine
 10
231.9809646706445
 20
52.04127857330832
 30
0.000000000000000
 11
209.3154245026140
 21
52.04127857330832
 31
0.000000000000000
  0
LINE
  5
9B
100
AcDbEntity
  8
1
  6
CONTINUOUS
 62
7
100
AcDbLine
 10
222.8516186706443
 20
46.04127857330833
 30
0.000000000000000
 11
222.8516186706443
 21
58.04127857330843
 31
0.000000000000000
  0
LINE
  5
9C
100
AcDbEntity
  8
1
  6
CONTINUOUS
 62
7
100
AcDbLine
 10
223.6516186706445
 20
46.04127857330833
 30
0.000000000000000
 11
223.6516186706445
 21
58.04127857330843
 31
0.000000000000000
  0
LINE
  5
9D
100
AcDbEntity
  8
1
  6
CONTINUOUS
 62
7
100
AcDbLine
 10
224.9516186706443
 20
47.44127857330829
 30
0.000000000000000
 11
224.9516186706443
 21
56.64127857330846
 31
0.000000000000000
  0
LINE
  5
9E
100
AcDbEntity
  8
1
  6
CONTINUOUS
 62
7
100
AcDbLine
 10
213.5218186706445
 20
43.04127857330843
 30
0.000000000000000
 11
213.5218186706445
 21
61.04127857330843
 31
0.000000000000000
  0
LINE
  5
9F
100
AcDbEntity
  8
1
  6
CONTINUOUS
 62
7
100
AcDbLine
 10
216.7218186706444
 20
43.04127857330843
 30
0.000000000000000
 11
216.7218186706444
 21
61.04127857330843
 31
0.000000000000000
  0
LINE
  5
A0
100
AcDbEntity
  8
1
  6
CONTINUOUS
 62
7
100
AcDbLine
 10
215.1218186706443
 20
43.04127857330843
 30
0.000000000000000
 11
215.1218186706443
 21
61.04127857330843
 31
0.000000000000000
  0
LINE
  5
A1
100
AcDbEntity
  8
1
  6
CONTINUOUS
 62
7
100
AcDbLine
 10
213.5218186706445
 20
43.04127857330843
 30
0.000000000000000
 11
215.1218186706443
 21
43.04127857330843
 31
0.000000000000000
  0
LINE
  5
A2
100
AcDbEntity
  8
1
  6
CONTINUOUS
 62
7
100
AcDbLine
 10
215.1218186706443
 20
43.04127857330843
 30
0.000000000000000
 11
216.7218186706444
 21
43.04127857330843
 31
0.000000000000000
  0
LINE
  5
A3
100
AcDbEntity
  8
1
  6
CONTINUOUS
 62
7
100
AcDbLine
 10
223.6516186706445
 20
46.04127857330833
 30
0.000000000000000
 11
222.8516186706443
 21
46.04127857330833
 31
0.000000000000000
  0
LINE
  5
A4
100
AcDbEntity
  8
1
  6
CONTINUOUS
 62
7
100
AcDbLine
 10
224.9516186706443
 20
47.44127857330829
 30
0.000000000000000
 11
223.6516186706445
 21
47.44127857330829
 31
0.000000000000000
  0
LINE
  5
A5
100
AcDbEntity
  8
1
  6
CONTINUOUS
 62
7
100
AcDbLine
 10
213.5218186706445
 20
61.04127857330843
 30
0.000000000000000
 11
215.1218186706443
 21
61.04127857330843
 31
0.000000000000000
  0
LINE
  5
A6
100
AcDbEntity
  8
1
  6
CONTINUOUS
 62
7
100
AcDbLine
 10
215.1218186706443
 20
61.04127857330843
 30
0.000000000000000
 11
216.7218186706444
 21
61.04127857330843
 31
0.000000000000000
  0
LINE
  5
A7
100
AcDbEntity
  8
1
  6
CONTINUOUS
 62
7
100
AcDbLine
 10
224.9516186706442
 20
52.15137857330829
 30
0.000000000000000
 11
223.6516186706444
 21
50.85137857330822
 31
0.000000000000000
  0
LINE
  5
A8
100
AcDbEntity
  8
1
  6
CONTINUOUS
 62
7
100
AcDbLine
 10
224.9516186706443
 20
53.14137857330832
 30
0.000000000000000
 11
223.6516186706445
 21
51.84137857330833
 31
0.000000000000000
  0
LINE
  5
A9
100
AcDbEntity
  8
1
  6
CONTINUOUS
 62
7
100
AcDbLine
 10
224.9516186706443
 20
56.64127857330846
 30
0.000000000000000
 11
223.6516186706445
 21
56.64127857330846
 31
0.000000000000000
  0
LINE
  5
AA
100
AcDbEntity
  8
1
  6
CONTINUOUS
 62
7
100
AcDbLine
 10
224.9516186706443
 20
52.04127857330832
 30
0.000000000000000
 11
228.0944186706443
 21
52.04127857330832
 31
0.000000000000000
  0
LINE
  5
AB
100
AcDbEntity
  8
1
  6
CONTINUOUS
 62
7
100
AcDbLine
 10
223.6516186706445
 20
58.04127857330843
 30
0.000000000000000
 11
222.8516186706446
 21
58.04127857330833
 31
0.000000000000000
  0
LINE
  5
AC
100
AcDbEntity
  8
1
  6
CONTINUOUS
 62
7
100
AcDbLine
 10
228.4516186706442
 20
56.04127857330833
 30
0.000000000000000
 11
228.4516186706442
 21
48.04127857330833
 31
0.000000000000000
  0
ARC
  5
AD
100
AcDbEntity
  8
1
  6
CONTINUOUS
 62
7
100
AcDbCircle
 10
246.7697186706444
 20
38.29127857330840
 30
0.000000000000000
 40
2.000000000000000
100
AcDbArc
 50
90.00000000000000
 51
180.0000000000000
  0
LINE
  5
AE
100
AcDbEntity
  8
1
  6
CONTINUOUS
 62
7
100
AcDbLine
 10
166.5058186706445
 20
115.9482785733083
 30
0.000000000000000
 11
189.5303186706444
 21
116.5130785733082
 31
0.000000000000000
  0
LINE
  5
AF
100
AcDbEntity
  8
1
  6
CONTINUOUS
 62
7
100
AcDbLine
 10
167.5058186706445
 20
126.7481785733083
 30
0.000000000000000
 11
167.5058186706445
 21
116.9485785733082
 31
0.000000000000000
  0
LINE
  5
B0
100
AcDbEntity
  8
1
  6
CONTINUOUS
 62
7
100
AcDbLine
 10
164.0058186706444
 20
66.04127857330825
 30
0.000000000000000
 11
166.5058186706445
 21
66.04127857330825
 31
0.000000000000000
  0
LINE
  5
B1
100
AcDbEntity
  8
1
  6
CONTINUOUS
 62
7
100
AcDbLine
 10
164.0058186706444
 20
106.4237785733083
 30
0.000000000000000
 11
166.5058186706445
 21
106.4237785733083
 31
0.000000000000000
  0
LINE
  5
B2
100
AcDbEntity
  8
1
  6
CONTINUOUS
 62
7
100
AcDbLine
 10
162.5058186706445
 20
109.4237785733082
 30
0.000000000000000
 11
164.0058186706444
 21
106.4237785733083
 31
0.000000000000000
  0
ARC
  5
B3
100
AcDbEntity
  8
1
  6
CONTINUOUS
 62
7
100
AcDbCircle
 10
166.5058186706445
 20
116.9485785733082
 30
0.000000000000000
 40
1.000000000000000
100
AcDbArc
 50
270.0000000000000
 51
360.0000000000000
  0
ARC
  5
B4
100
AcDbEntity
  8
5
  6
PHANTOM
 62
6
100
AcDbCircle
 10
134.6860186706445
 20
161.9470785733082
 30
0.000000000000000
 40
4.000000000000000
100
AcDbArc
 50
135.0000000000002
 51
224.9999999999997
  0
LINE
  5
B5
100
AcDbEntity
  8
5
  6
PHANTOM
 62
6
100
AcDbLine
 10
121.8384186706443
 20
155.8631785733083
 30
0.000000000000000
 11
133.9789186706443
 21
152.0475785733082
 31
0.000000000000000
  0
LINE
  5
B6
100
AcDbEntity
  8
5
  6
PHANTOM
 62
6
100
AcDbLine
 10
119.8368186706444
 20
157.7044785733082
 30
0.000000000000000
 11
121.4311186706445
 21
156.1100785733082
 31
0.000000000000000
  0
ARC
  5
B7
100
AcDbEntity
  8
5
  6
PHANTOM
 62
6
100
AcDbCircle
 10
122.1383186706443
 20
156.8171785733083
 30
0.000000000000000
 40
1.000000000000000
100
AcDbArc
 50
224.9999999999997
 51
252.5529999999992
  0
ARC
  5
B8
100
AcDbEntity
  8
5
  6
PHANTOM
 62
6
100
AcDbCircle
 10
120.5439186706445
 20
158.4115785733083
 30
0.000000000000000
 40
1.000000000000000
100
AcDbArc
 50
135.0000000000002
 51
224.9999999999997
  0
ARC
  5
B9
100
AcDbEntity
  8
1
  6
CONTINUOUS
 62
7
100
AcDbCircle
 10
163.0058186706444
 20
137.9237785733083
 30
0.000000000000000
 40
1.000000000000000
100
AcDbArc
 50
180.0000000000000
 51
240.0000000000000
  0
LINE
  5
BA
100
AcDbEntity
  8
5
  6
PHANTOM
 62
6
100
AcDbLine
 10
131.8576186706444
 20
159.1186785733082
 30
0.000000000000000
 11
137.5144186706444
 21
153.4618785733083
 31
0.000000000000000
  0
LINE
  5
BB
100
AcDbEntity
  8
5
  6
PHANTOM
 62
6
100
AcDbLine
 10
137.5144186706444
 20
150.6333785733082
 30
0.000000000000000
 11
136.1002186706443
 21
149.2191785733083
 31
0.000000000000000
  0
LINE
  5
BC
100
AcDbEntity
  8
5
  6
PHANTOM
 62
6
100
AcDbLine
 10
133.9789186706443
 20
152.0475785733082
 30
0.000000000000000
 11
133.9789186706443
 21
149.2191785733083
 31
0.000000000000000
  0
ARC
  5
BD
100
AcDbEntity
  8
5
  6
PHANTOM
 62
6
100
AcDbCircle
 10
135.0395186706443
 20
150.2798785733083
 30
0.000000000000000
 40
1.500000000000000
100
AcDbArc
 50
224.9999999999997
 51
315.0000000000003
  0
ARC
  5
BE
100
AcDbEntity
  8
5
  6
PHANTOM
 62
6
100
AcDbCircle
 10
136.1002186706443
 20
152.0475785733082
 30
0.000000000000000
 40
2.000000000000000
100
AcDbArc
 50
315.0000000000003
 51
404.9999999999998
  0
ARC
  5
BF
100
AcDbEntity
  8
1
  6
CONTINUOUS
 62
7
100
AcDbCircle
 10
189.5058186706445
 20
117.5127785733083
 30
0.000000000000000
 40
1.000000000000000
100
AcDbArc
 50
271.4050000000016
 51
360.0000000000000
  0
LINE
  5
C0
100
AcDbEntity
  8
1
  6
CONTINUOUS
 62
7
100
AcDbLine
 10
244.7697186706444
 20
65.79127857330823
 30
0.000000000000000
 11
244.7697186706444
 21
69.79127857330828
 31
0.000000000000000
  0
LINE
  5
C1
100
AcDbEntity
  8
1
  6
CONTINUOUS
 62
7
100
AcDbLine
 10
246.7697186706444
 20
65.79127857330823
 30
0.000000000000000
 11
246.7697186706444
 21
69.79127857330828
 31
0.000000000000000
  0
LINE
  5
C2
100
AcDbEntity
  8
1
  6
CONTINUOUS
 62
7
100
AcDbLine
 10
244.7697186706444
 20
69.79127857330828
 30
0.000000000000000
 11
246.7697186706444
 21
69.79127857330828
 31
0.000000000000000
  0
LINE
  5
C3
100
AcDbEntity
  8
1
  6
CONTINUOUS
 62
7
100
AcDbLine
 10
190.5058186706445
 20
152.5923785733082
 30
0.000000000000000
 11
190.5058186706445
 21
117.5127785733083
 31
0.000000000000000
  0
LINE
  5
C4
100
AcDbEntity
  8
1
  6
CONTINUOUS
 62
7
100
AcDbLine
 10
176.4935586706444
 20
153.9117785733083
 30
0.000000000000000
 11
189.5303186706444
 21
153.5920785733083
 31
0.000000000000000
  0
ARC
  5
C5
100
AcDbEntity
  8
1
  6
CONTINUOUS
 62
7
100
AcDbCircle
 10
176.5058186706444
 20
154.4116785733083
 30
0.000000000000000
 40
0.5000000000000000
100
AcDbArc
 50
180.0000000000000
 51
268.5949999999983
  0
LINE
  5
C6
100
AcDbEntity
  8
1
  6
CONTINUOUS
 62
7
100
AcDbLine
 10
176.0058186706444
 20
166.4237785733083
 30
0.000000000000000
 11
176.5058186706444
 21
166.4237785733083
 31
0.000000000000000
  0
ARC
  5
C7
100
AcDbEntity
  8
1
  6
CONTINUOUS
 62
7
100
AcDbCircle
 10
189.5058186706445
 20
152.5923785733082
 30
0.000000000000000
 40
1.000000000000000
100
AcDbArc
 50
0.000000000000000
 51
88.59490000000211
  0
LINE
  5
C8
100
AcDbEntity
  8
5
  6
PHANTOM
 62
6
100
AcDbLine
 10
40.22081867064446
 20
189.8737785733083
 30
0.000000000000000
 11
101.3558186706444
 21
189.8737785733083
 31
0.000000000000000
  0
LINE
  5
C9
100
AcDbEntity
  8
5
  6
PHANTOM
 62
6
100
AcDbLine
 10
40.22081867064446
 20
208.9737785733082
 30
0.000000000000000
 11
101.3558186706444
 21
208.9737785733082
 31
0.000000000000000
  0
LINE
  5
CA
100
AcDbEntity
  8
4
  6
CENTER
 62
1
100
AcDbLine
 10
22.38097767064448
 20
199.4237785733083
 30
0.000000000000000
 11
107.5464186706443
 21
199.4237785733083
 31
0.000000000000000
  0
LINE
  5
CB
100
AcDbEntity
  8
1
  6
CONTINUOUS
 62
7
100
AcDbLine
 10
20.91048567064456
 20
279.2809025733082
 30
0.000000000000000
 11
20.91048567064456
 21
271.4914545733082
 31
0.000000000000000
  0
LINE
  5
CC
100
AcDbEntity
  8
1
  6
CONTINUOUS
 62
7
100
AcDbLine
 10
23.91048567064456
 20
278.8864545733080
 30
0.000000000000000
 11
23.91048567064456
 21
271.8864545733081
 31
0.000000000000000
  0
LINE
  5
CD
100
AcDbEntity
  8
1
  6
CONTINUOUS
 62
7
100
AcDbLine
 10
26.41048567064456
 20
278.8864545733080
 30
0.000000000000000
 11
26.41048567064456
 21
271.8864545733081
 31
0.000000000000000
  0
LINE
  5
CE
100
AcDbEntity
  8
1
  6
CONTINUOUS
 62
7
100
AcDbLine
 10
21.91048567064456
 20
279.2806785733081
 30
0.000000000000000
 11
21.91048567064456
 21
271.4914545733082
 31
0.000000000000000
  0
ARC
  5
CF
100
AcDbEntity
  8
1
  6
CONTINUOUS
 62
7
100
AcDbCircle
 10
26.31118567064447
 20
275.3864545733082
 30
0.000000000000000
 40
8.599269999999997
100
AcDbArc
 50
324.4620000000010
 51
395.5379999999988
  0
ARC
  5
D0
100
AcDbEntity
  8
1
  6
CONTINUOUS
 62
7
100
AcDbCircle
 10
37.50978567064441
 20
275.3864545733082
 30
0.000000000000000
 40
8.599269999999997
100
AcDbArc
 50
144.4620000000011
 51
215.5379999999988
  0
LINE
  5
D1
100
AcDbEntity
  8
1
  6
CONTINUOUS
 62
7
100
AcDbLine
 10
41.91048567064456
 20
278.6364545733080
 30
0.000000000000000
 11
41.91048567064456
 21
272.1364545733080
 31
0.000000000000000
  0
LINE
  5
D2
100
AcDbEntity
  8
1
  6
CONTINUOUS
 62
7
100
AcDbLine
 10
65.41048567064456
 20
278.4864545733081
 30
0.000000000000000
 11
68.75248567064443
 21
275.3504545733081
 31
0.000000000000000
  0
LINE
  5
D3
100
AcDbEntity
  8
1
  6
CONTINUOUS
 62
7
100
AcDbLine
 10
45.41048567064456
 20
278.7864545733081
 30
0.000000000000000
 11
45.41048567064456
 21
276.2864545733081
 31
0.000000000000000
  0
ARC
  5
D4
100
AcDbEntity
  8
1
  6
CONTINUOUS
 62
7
100
AcDbCircle
 10
48.85581867064445
 20
215.4237785733082
 30
0.000000000000000
 40
5.000000000000000
100
AcDbArc
 50
0.000000000000000
 51
90.00000000000000
  0
ARC
  5
D5
100
AcDbEntity
  8
5
  6
PHANTOM
 62
6
100
AcDbCircle
 10
40.22081867064446
 20
199.4237785733083
 30
0.000000000000000
 40
9.550000000000001
100
AcDbArc
 50
90.00000000000000
 51
270.0000000000000
  0
ARC
  5
D6
100
AcDbEntity
  8
1
  6
CONTINUOUS
 62
7
100
AcDbCircle
 10
39.85581867064445
 20
199.0589785733082
 30
0.000000000000000
 40
9.550000000000001
100
AcDbArc
 50
0.000000000000000
 51
180.0000000000000
  0
ARC
  5
D7
100
AcDbEntity
  8
1
  6
CONTINUOUS
 62
7
100
AcDbCircle
 10
39.85581867064445
 20
187.5263385733083
 30
0.000000000000000
 40
15.25619999999999
100
AcDbArc
 50
106.9890000000006
 51
126.6839999999977
  0
ARC
  5
D8
100
AcDbEntity
  8
1
  6
CONTINUOUS
 62
7
100
AcDbCircle
 10
39.85581867064445
 20
199.4237785733083
 30
0.000000000000000
 40
9.650000000000000
100
AcDbArc
 50
0.000000000000000
 51
180.0000000000000
  0
LINE
  5
D9
100
AcDbEntity
  8
1
  6
CONTINUOUS
 62
7
100
AcDbLine
 10
30.85581867064445
 20
217.4237785733082
 30
0.000000000000000
 11
48.85581867064445
 21
217.4237785733082
 31
0.000000000000000
  0
LINE
  5
DA
100
AcDbEntity
  8
1
  6
CONTINUOUS
 62
7
100
AcDbLine
 10
30.85581867064445
 20
220.4237785733083
 30
0.000000000000000
 11
48.85581867064445
 21
220.4237785733083
 31
0.000000000000000
  0
ARC
  5
DB
100
AcDbEntity
  8
1
  6
CONTINUOUS
 62
7
100
AcDbCircle
 10
30.85581867064445
 20
215.4237785733082
 30
0.000000000000000
 40
5.000000000000000
100
AcDbArc
 50
90.00000000000000
 51
180.0000000000000
  0
ARC
  5
DC
100
AcDbEntity
  8
1
  6
CONTINUOUS
 62
7
100
AcDbCircle
 10
30.85581867064445
 20
215.4237785733082
 30
0.000000000000000
 40
2.000000000000000
100
AcDbArc
 50
90.00000000000000
 51
180.0000000000000
  0
ARC
  5
DD
100
AcDbEntity
  8
1
  6
CONTINUOUS
 62
7
100
AcDbCircle
 10
39.85581867064445
 20
187.5263385733083
 30
0.000000000000000
 40
15.25619999999999
100
AcDbArc
 50
54.82669999999906
 51
75.07080000000288
  0
ARC
  5
DE
100
AcDbEntity
  8
1
  6
CONTINUOUS
 62
7
100
AcDbCircle
 10
39.85581867064445
 20
187.5263385733083
 30
0.000000000000000
 40
15.25619999999999
100
AcDbArc
 50
79.51989999999691
 51
102.3140000000012
  0
ARC
  5
DF
100
AcDbEntity
  8
1
  6
CONTINUOUS
 62
7
100
AcDbCircle
 10
48.85581867064445
 20
215.4237785733082
 30
0.000000000000000
 40
2.000000000000000
100
AcDbArc
 50
0.000000000000000
 51
90.00000000000000
  0
LINE
  5
E0
100
AcDbEntity
  8
4
  6
CENTER
 62
1
100
AcDbLine
 10
16.70807767064445
 20
275.3861785733081
 30
0.000000000000000
 11
72.86216467064446
 21
275.3861785733081
 31
0.000000000000000
  0
LINE
  5
E1
100
AcDbEntity
  8
1
  6
CONTINUOUS
 62
7
100
AcDbLine
 10
48.91048567064456
 20
272.2864545733081
 30
0.000000000000000
 11
66.41048567064456
 21
272.2864545733081
 31
0.000000000000000
  0
LINE
  5
E2
100
AcDbEntity
  8
1
  6
CONTINUOUS
 62
7
100
AcDbLine
 10
45.41048567064456
 20
272.9864545733082
 30
0.000000000000000
 11
67.11248567064456
 21
272.9864545733082
 31
0.000000000000000
  0
LINE
  5
E3
100
AcDbEntity
  8
1
  6
CONTINUOUS
 62
7
100
AcDbLine
 10
45.41048567064456
 20
274.1864545733082
 30
0.000000000000000
 11
68.31648567064451
 21
274.1864545733082
 31
0.000000000000000
  0
LINE
  5
E4
100
AcDbEntity
  8
1
  6
CONTINUOUS
 62
7
100
AcDbLine
 10
45.41048567064456
 20
276.2864545733082
 30
0.000000000000000
 11
67.74627467064455
 21
276.2946425733084
 31
0.000000000000000
  0
LINE
  5
E5
100
AcDbEntity
  8
1
  6
CONTINUOUS
 62
7
100
AcDbLine
 10
32.44348567064448
 20
263.7864545733083
 30
0.000000000000000
 11
41.91048567064458
 21
270.8864545733082
 31
0.000000000000000
  0
LINE
  5
E6
100
AcDbEntity
  8
1
  6
CONTINUOUS
 62
7
100
AcDbLine
 10
31.84348567064443
 20
264.5864545733080
 30
0.000000000000000
 11
41.91048567064455
 21
272.1364545733080
 31
0.000000000000000
  0
ARC
  5
E7
100
AcDbEntity
  8
1
  6
CONTINUOUS
 62
7
100
AcDbCircle
 10
26.98048567064450
 20
265.3864545733083
 30
0.000000000000000
 40
2.000000000000000
100
AcDbArc
 50
213.6900000000005
 51
270.0000000000000
  0
LINE
  5
E8
100
AcDbEntity
  8
1
  6
CONTINUOUS
 62
7
100
AcDbLine
 10
26.98048567064450
 20
263.3864545733083
 30
0.000000000000000
 11
31.24348567064441
 21
263.3864545733083
 31
0.000000000000000
  0
ARC
  5
E9
100
AcDbEntity
  8
1
  6
CONTINUOUS
 62
7
100
AcDbCircle
 10
31.24348567064441
 20
265.3864545733083
 30
0.000000000000000
 40
2.000000000000000
100
AcDbArc
 50
270.0000000000000
 51
306.8700000000018
  0
LINE
  5
EA
100
AcDbEntity
  8
1
  6
CONTINUOUS
 62
7
100
AcDbLine
 10
24.41048567064456
 20
271.3864545733082
 30
0.000000000000000
 11
25.91048567064456
 21
271.3864545733082
 31
0.000000000000000
  0
LINE
  5
EB
100
AcDbEntity
  8
1
  6
CONTINUOUS
 62
7
100
AcDbLine
 10
21.24648567064445
 20
270.3824545733081
 30
0.000000000000000
 11
25.31648567064451
 21
264.2764545733081
 31
0.000000000000000
  0
LINE
  5
EC
100
AcDbEntity
  8
1
  6
CONTINUOUS
 62
7
100
AcDbLine
 10
22.07848567064445
 20
270.9374545733081
 30
0.000000000000000
 11
26.14848567064450
 21
264.8314545733082
 31
0.000000000000000
  0
ARC
  5
ED
100
AcDbEntity
  8
1
  6
CONTINUOUS
 62
7
100
AcDbCircle
 10
22.91048567064456
 20
271.4914545733082
 30
0.000000000000000
 40
2.000000000000000
100
AcDbArc
 50
180.0000000000000
 51
213.6900000000005
  0
ARC
  5
EE
100
AcDbEntity
  8
1
  6
CONTINUOUS
 62
7
100
AcDbCircle
 10
24.41048567064456
 20
271.8864545733081
 30
0.000000000000000
 40
0.5000000000000000
100
AcDbArc
 50
180.0000000000000
 51
270.0000000000000
  0
ARC
  5
EF
100
AcDbEntity
  8
1
  6
CONTINUOUS
 62
7
100
AcDbCircle
 10
22.91048567064456
 20
271.4914545733082
 30
0.000000000000000
 40
1.000000000000000
100
AcDbArc
 50
180.0000000000000
 51
213.6900000000005
  0
LINE
  5
F0
100
AcDbEntity
  8
1
  6
CONTINUOUS
 62
7
100
AcDbLine
 10
26.98048567064450
 20
264.3864545733083
 30
0.000000000000000
 11
31.24348567064441
 21
264.3864545733083
 31
0.000000000000000
  0
ARC
  5
F1
100
AcDbEntity
  8
1
  6
CONTINUOUS
 62
7
100
AcDbCircle
 10
26.98048567064450
 20
265.3864545733083
 30
0.000000000000000
 40
1.000000000000000
100
AcDbArc
 50
213.6900000000005
 51
270.0000000000000
  0
ARC
  5
F2
100
AcDbEntity
  8
1
  6
CONTINUOUS
 62
7
100
AcDbCircle
 10
31.24348567064441
 20
265.3864545733083
 30
0.000000000000000
 40
1.000000000000000
100
AcDbArc
 50
270.0000000000000
 51
306.8700000000018
  0
ARC
  5
F3
100
AcDbEntity
  8
1
  6
CONTINUOUS
 62
7
100
AcDbCircle
 10
31.90978567064452
 20
271.3874555733081
 30
0.000000000000000
 40
1.717879999999999
100
AcDbArc
 50
215.5309999999997
 51
324.4620000000010
  0
ARC
  5
F4
100
AcDbEntity
  8
1
  6
CONTINUOUS
 62
7
100
AcDbCircle
 10
30.17888567064449
 20
273.3876455733082
 30
0.000000000000000
 40
0.3334530000000000
100
AcDbArc
 50
195.2580000000003
 51
270.0000000000000
  0
LINE
  5
F5
100
AcDbEntity
  8
1
  6
CONTINUOUS
 62
7
100
AcDbLine
 10
31.10998567064450
 20
273.7205555733082
 30
0.000000000000000
 11
29.83788567064448
 21
273.7205555733082
 31
0.000000000000000
  0
LINE
  5
F6
100
AcDbEntity
  8
1
  6
CONTINUOUS
 62
7
100
AcDbLine
 10
29.58478567064446
 20
275.0535395733082
 30
0.000000000000000
 11
34.23608567064445
 21
275.0535395733082
 31
0.000000000000000
  0
LINE
  5
F7
100
AcDbEntity
  8
1
  6
CONTINUOUS
 62
7
100
AcDbLine
 10
29.64028567064451
 20
274.3863455733082
 30
0.000000000000000
 11
34.18058567064452
 21
274.3863455733082
 31
0.000000000000000
  0
ARC
  5
F8
100
AcDbEntity
  8
1
  6
CONTINUOUS
 62
7
100
AcDbCircle
 10
30.02868567064445
 20
276.7194355733082
 30
0.000000000000000
 40
0.3334530000000000
100
AcDbArc
 50
90.00000000000000
 51
169.8960000000000
  0
LINE
  5
F9
100
AcDbEntity
  8
1
  6
CONTINUOUS
 62
7
100
AcDbLine
 10
29.58478567064446
 20
275.7207315733082
 30
0.000000000000000
 11
34.23608567064445
 21
275.7207315733082
 31
0.000000000000000
  0
LINE
  5
FA
100
AcDbEntity
  8
1
  6
CONTINUOUS
 62
7
100
AcDbLine
 10
29.71608567064447
 20
276.3865205733081
 30
0.000000000000000
 11
34.10488567064442
 21
276.3865205733081
 31
0.000000000000000
  0
ARC
  5
FB
100
AcDbEntity
  8
1
  6
CONTINUOUS
 62
7
100
AcDbCircle
 10
37.50978567064441
 20
275.3864545733082
 30
0.000000000000000
 40
7.932639999999997
100
AcDbArc
 50
193.2679999999995
 51
195.2580000000003
  0
ARC
  5
FC
100
AcDbEntity
  8
1
  6
CONTINUOUS
 62
7
100
AcDbCircle
 10
29.83788567064448
 20
273.6528655733082
 30
0.000000000000000
 40
0.06671800000000000
100
AcDbArc
 50
90.00000000000000
 51
192.7289999999999
  0
ARC
  5
FD
100
AcDbEntity
  8
1
  6
CONTINUOUS
 62
7
100
AcDbCircle
 10
37.50978567064441
 20
275.3864545733082
 30
0.000000000000000
 40
7.932639999999997
100
AcDbArc
 50
192.7289999999999
 51
193.2679999999995
  0
ARC
  5
FE
100
AcDbEntity
  8
1
  6
CONTINUOUS
 62
7
100
AcDbCircle
 10
25.91048567064456
 20
271.8864545733081
 30
0.000000000000000
 40
0.5000000000000000
100
AcDbArc
 50
270.0000000000000
 51
360.0000000000000
  0
ARC
  5
FF
100
AcDbEntity
  8
1
  6
CONTINUOUS
 62
7
100
AcDbCircle
 10
37.50978567064441
 20
275.3864545733082
 30
0.000000000000000
 40
7.932639999999997
100
AcDbArc
 50
169.8960000000000
 51
172.2069999999997
  0
ARC
  5
100
100
AcDbEntity
  8
1
  6
CONTINUOUS
 62
7
100
AcDbCircle
 10
29.71608567064447
 20
276.4528455733081
 30
0.000000000000000
 40
0.06671800000000000
100
AcDbArc
 50
172.2069999999997
 51
270.0000000000000
  0
ARC
  5
101
100
AcDbEntity
  8
1
  6
CONTINUOUS
 62
7
100
AcDbCircle
 10
26.31118567064447
 20
275.3864545733082
 30
0.000000000000000
 40
7.932639999999997
100
AcDbArc
 50
333.9859999999998
 51
337.0560000000009
  0
ARC
  5
102
100
AcDbEntity
  8
1
  6
CONTINUOUS
 62
7
100
AcDbCircle
 10
26.31118567064447
 20
275.3864545733082
 30
0.000000000000000
 40
7.932639999999997
100
AcDbArc
 50
333.9859999999998
 51
334.7720000000003
  0
ARC
  5
103
100
AcDbEntity
  8
1
  6
CONTINUOUS
 62
7
100
AcDbCircle
 10
33.13998567064448
 20
272.0532555733082
 30
0.000000000000000
 40
0.3334530000000000
100
AcDbArc
 50
270.0000000000000
 51
333.9859999999998
  0
LINE
  5
104
100
AcDbEntity
  8
1
  6
CONTINUOUS
 62
7
100
AcDbLine
 10
33.98308567064442
 20
273.7205555733082
 30
0.000000000000000
 11
32.70958567064452
 21
273.7205555733082
 31
0.000000000000000
  0
ARC
  5
105
100
AcDbEntity
  8
1
  6
CONTINUOUS
 62
7
100
AcDbCircle
 10
33.55408567064444
 20
272.3198855733082
 30
0.000000000000000
 40
0.06671800000000000
100
AcDbArc
 50
337.0560000000009
 51
450.0000000000000
  0
ARC
  5
106
100
AcDbEntity
  8
1
  6
CONTINUOUS
 62
7
100
AcDbCircle
 10
26.31118567064447
 20
275.3864545733082
 30
0.000000000000000
 40
7.932639999999997
100
AcDbArc
 50
344.7940000000004
 51
347.2709999999998
  0
ARC
  5
107
100
AcDbEntity
  8
1
  6
CONTINUOUS
 62
7
100
AcDbCircle
 10
33.64198567064443
 20
273.3876455733082
 30
0.000000000000000
 40
0.3334530000000000
100
AcDbArc
 50
270.0000000000000
 51
344.7419999999994
  0
ARC
  5
108
100
AcDbEntity
  8
1
  6
CONTINUOUS
 62
7
100
AcDbCircle
 10
26.31118567064447
 20
275.3864545733082
 30
0.000000000000000
 40
7.932639999999997
100
AcDbArc
 50
344.7419999999994
 51
344.7940000000004
  0
ARC
  5
109
100
AcDbEntity
  8
1
  6
CONTINUOUS
 62
7
100
AcDbCircle
 10
33.98308567064442
 20
273.6528655733082
 30
0.000000000000000
 40
0.06671800000000000
100
AcDbArc
 50
347.2709999999998
 51
450.0000000000000
  0
ARC
  5
10A
100
AcDbEntity
  8
1
  6
CONTINUOUS
 62
7
100
AcDbCircle
 10
37.50978567064441
 20
275.3864545733082
 30
0.000000000000000
 40
7.932639999999997
100
AcDbArc
 50
202.9439999999988
 51
206.0140000000000
  0
ARC
  5
10B
100
AcDbEntity
  8
1
  6
CONTINUOUS
 62
7
100
AcDbCircle
 10
30.68098567064442
 20
272.0532555733082
 30
0.000000000000000
 40
0.3334530000000000
100
AcDbArc
 50
206.0140000000000
 51
270.0000000000000
  0
ARC
  5
10C
100
AcDbEntity
  8
1
  6
CONTINUOUS
 62
7
100
AcDbCircle
 10
30.26548567064446
 20
272.3198855733082
 30
0.000000000000000
 40
0.06671800000000000
100
AcDbArc
 50
90.00000000000000
 51
202.9439999999988
  0
LINE
  5
10D
100
AcDbEntity
  8
1
  6
CONTINUOUS
 62
7
100
AcDbLine
 10
31.90978567064452
 20
275.0535395733082
 30
0.000000000000000
 11
31.90978567064452
 21
274.3863455733082
 31
0.000000000000000
  0
LINE
  5
10E
100
AcDbEntity
  8
1
  6
CONTINUOUS
 62
7
100
AcDbLine
 10
30.17888567064449
 20
273.0533655733081
 30
0.000000000000000
 11
33.64198567064443
 21
273.0533655733081
 31
0.000000000000000
  0
LINE
  5
10F
100
AcDbEntity
  8
1
  6
CONTINUOUS
 62
7
100
AcDbLine
 10
30.26548567064446
 20
272.3875355733080
 30
0.000000000000000
 11
33.55408567064444
 21
272.3875355733080
 31
0.000000000000000
  0
LINE
  5
110
100
AcDbEntity
  8
1
  6
CONTINUOUS
 62
7
100
AcDbLine
 10
33.13998567064448
 20
271.7203655733082
 30
0.000000000000000
 11
30.68098567064442
 21
271.7203655733082
 31
0.000000000000000
  0
LINE
  5
111
100
AcDbEntity
  8
1
  6
CONTINUOUS
 62
7
100
AcDbLine
 10
30.08148567064449
 20
271.0531955733083
 30
0.000000000000000
 11
32.95588567064454
 21
271.0531955733083
 31
0.000000000000000
  0
ARC
  5
112
100
AcDbEntity
  8
1
  6
CONTINUOUS
 62
7
100
AcDbCircle
 10
26.31118567064447
 20
275.3864545733082
 30
0.000000000000000
 40
7.932639999999997
100
AcDbArc
 50
7.793000000000218
 51
10.10399999999994
  0
ARC
  5
113
100
AcDbEntity
  8
1
  6
CONTINUOUS
 62
7
100
AcDbCircle
 10
34.10488567064442
 20
276.4528455733081
 30
0.000000000000000
 40
0.06671800000000000
100
AcDbArc
 50
270.0000000000000
 51
367.7930000000002
  0
ARC
  5
114
100
AcDbEntity
  8
1
  6
CONTINUOUS
 62
7
100
AcDbCircle
 10
33.79218567064447
 20
276.7194355733082
 30
0.000000000000000
 40
0.3334530000000000
100
AcDbArc
 50
10.10399999999994
 51
90.00000000000000
  0
LINE
  5
115
100
AcDbEntity
  8
1
  6
CONTINUOUS
 62
7
100
AcDbLine
 10
31.90978567064452
 20
277.0537155733082
 30
0.000000000000000
 11
31.90978567064452
 21
276.7194355733082
 31
0.000000000000000
  0
LINE
  5
116
100
AcDbEntity
  8
1
  6
CONTINUOUS
 62
7
100
AcDbLine
 10
31.10998567064450
 20
277.0537155733082
 30
0.000000000000000
 11
30.02868567064445
 21
277.0537155733082
 31
0.000000000000000
  0
LINE
  5
117
100
AcDbEntity
  8
1
  6
CONTINUOUS
 62
7
100
AcDbLine
 10
33.79218567064447
 20
277.0537155733082
 30
0.000000000000000
 11
31.90978567064452
 21
277.0537155733082
 31
0.000000000000000
  0
LINE
  5
118
100
AcDbEntity
  8
1
  6
CONTINUOUS
 62
7
100
AcDbLine
 10
41.91048567064456
 20
270.8864545733082
 30
0.000000000000000
 11
48.91048567064456
 21
270.8864545733082
 31
0.000000000000000
  0
LINE
  5
119
100
AcDbEntity
  8
1
  6
CONTINUOUS
 62
7
100
AcDbLine
 10
48.91048567064456
 20
272.2864545733081
 30
0.000000000000000
 11
48.91048567064456
 21
270.8864545733082
 31
0.000000000000000
  0
LINE
  5
11A
100
AcDbEntity
  8
1
  6
CONTINUOUS
 62
7
100
AcDbLine
 10
45.41048567064456
 20
274.1864545733082
 30
0.000000000000000
 11
45.41048567064456
 21
272.9864545733082
 31
0.000000000000000
  0
LINE
  5
11B
100
AcDbEntity
  8
1
  6
CONTINUOUS
 62
7
100
AcDbLine
 10
66.41048567064455
 20
272.2864545733081
 30
0.000000000000000
 11
68.76348567064439
 21
274.6324545733081
 31
0.000000000000000
  0
ARC
  5
11C
100
AcDbEntity
  8
1
  6
CONTINUOUS
 62
7
100
AcDbCircle
 10
68.41048567064456
 20
274.9864545733081
 30
0.000000000000000
 40
0.5000000000000000
100
AcDbArc
 50
314.9129999999992
 51
406.8280999999981
  0
LINE
  5
11D
100
AcDbEntity
  8
1
  6
CONTINUOUS
 62
7
100
AcDbLine
 10
48.91048567064456
 20
278.4864545733081
 30
0.000000000000000
 11
65.41048567064456
 21
278.4864545733081
 31
0.000000000000000
  0
LINE
  5
11E
100
AcDbEntity
  8
1
  6
CONTINUOUS
 62
7
100
AcDbLine
 10
32.44348567064449
 20
286.9864545733082
 30
0.000000000000000
 11
41.91048567064460
 21
279.8864545733082
 31
0.000000000000000
  0
LINE
  5
11F
100
AcDbEntity
  8
1
  6
CONTINUOUS
 62
7
100
AcDbLine
 10
41.91048567064458
 20
278.6364545733081
 30
0.000000000000000
 11
31.84348567064445
 21
286.1864545733083
 31
0.000000000000000
  0
LINE
  5
120
100
AcDbEntity
  8
1
  6
CONTINUOUS
 62
7
100
AcDbLine
 10
24.41048567064456
 20
279.3864545733082
 30
0.000000000000000
 11
25.91048567064456
 21
279.3864545733082
 31
0.000000000000000
  0
LINE
  5
121
100
AcDbEntity
  8
1
  6
CONTINUOUS
 62
7
100
AcDbLine
 10
21.24638467064447
 20
280.3903035733081
 30
0.000000000000000
 11
25.31648567064450
 21
286.4954545733082
 31
0.000000000000000
  0
LINE
  5
122
100
AcDbEntity
  8
1
  6
CONTINUOUS
 62
7
100
AcDbLine
 10
26.14848567064449
 20
285.9404545733081
 30
0.000000000000000
 11
22.07843467064446
 21
279.8353785733082
 31
0.000000000000000
  0
ARC
  5
123
100
AcDbEntity
  8
1
  6
CONTINUOUS
 62
7
100
AcDbCircle
 10
24.41048567064456
 20
278.8864545733080
 30
0.000000000000000
 40
0.5000000000000000
100
AcDbArc
 50
90.00000000000000
 51
180.0000000000000
  0
ARC
  5
124
100
AcDbEntity
  8
1
  6
CONTINUOUS
 62
7
100
AcDbCircle
 10
22.91048567064456
 20
279.2809025733082
 30
0.000000000000000
 40
2.000000000000000
100
AcDbArc
 50
146.3099320000011
 51
180.0000000000000
  0
ARC
  5
125
100
AcDbEntity
  8
1
  6
CONTINUOUS
 62
7
100
AcDbCircle
 10
22.91048567064456
 20
279.2806785733081
 30
0.000000000000000
 40
1.000000000000000
100
AcDbArc
 50
146.3099320000011
 51
180.0000000000000
  0
LINE
  5
126
100
AcDbEntity
  8
1
  6
CONTINUOUS
 62
7
100
AcDbLine
 10
29.71878567064448
 20
277.7195455733082
 30
0.000000000000000
 11
33.89238567064456
 21
277.7195455733082
 31
0.000000000000000
  0
ARC
  5
127
100
AcDbEntity
  8
1
  6
CONTINUOUS
 62
7
100
AcDbCircle
 10
25.91048567064456
 20
278.8864545733080
 30
0.000000000000000
 40
0.5000000000000000
100
AcDbArc
 50
0.000000000000000
 51
90.00000000000000
  0
LINE
  5
128
100
AcDbEntity
  8
1
  6
CONTINUOUS
 62
7
100
AcDbLine
 10
31.57688567064451
 20
279.0525255733082
 30
0.000000000000000
 11
30.15318567064446
 21
279.0525255733082
 31
0.000000000000000
  0
LINE
  5
129
100
AcDbEntity
  8
1
  6
CONTINUOUS
 62
7
100
AcDbLine
 10
30.03278567064444
 20
278.3867355733083
 30
0.000000000000000
 11
31.57688567064451
 21
278.3867355733083
 31
0.000000000000000
  0
ARC
  5
12A
100
AcDbEntity
  8
1
  6
CONTINUOUS
 62
7
100
AcDbCircle
 10
31.57688567064451
 20
278.7196455733082
 30
0.000000000000000
 40
0.3334530000000000
100
AcDbArc
 50
270.0000000000000
 51
450.0000000000000
  0
LINE
  5
12B
100
AcDbEntity
  8
1
  6
CONTINUOUS
 62
7
100
AcDbLine
 10
31.90978567064452
 20
281.1041555733082
 30
0.000000000000000
 11
31.90978567064452
 21
279.7264855733082
 31
0.000000000000000
  0
ARC
  5
12C
100
AcDbEntity
  8
1
  6
CONTINUOUS
 62
7
100
AcDbCircle
 10
31.90978567064452
 20
279.3867955733082
 30
0.000000000000000
 40
1.718009999999995
100
AcDbArc
 50
35.54699999999906
 51
144.4620000000011
  0
LINE
  5
12D
100
AcDbEntity
  8
1
  6
CONTINUOUS
 62
7
100
AcDbLine
 10
33.15758567064447
 20
279.3922255733083
 30
0.000000000000000
 11
30.34808567064441
 21
280.1460155733082
 31
0.000000000000000
  0
LINE
  5
12E
100
AcDbEntity
  8
1
  6
CONTINUOUS
 62
7
100
AcDbLine
 10
31.90978567064452
 20
278.7196455733082
 30
0.000000000000000
 11
33.50938567064452
 21
278.7196455733082
 31
0.000000000000000
  0
LINE
  5
12F
100
AcDbEntity
  8
1
  6
CONTINUOUS
 62
7
100
AcDbLine
 10
26.98048567064450
 20
287.3864545733082
 30
0.000000000000000
 11
31.24348567064441
 21
287.3864545733082
 31
0.000000000000000
  0
LINE
  5
130
100
AcDbEntity
  8
1
  6
CONTINUOUS
 62
7
100
AcDbLine
 10
31.24348567064441
 20
286.3864545733079
 30
0.000000000000000
 11
26.98048567064450
 21
286.3864545733079
 31
0.000000000000000
  0
ARC
  5
131
100
AcDbEntity
  8
1
  6
CONTINUOUS
 62
7
100
AcDbCircle
 10
26.98048567064450
 20
285.3864545733082
 30
0.000000000000000
 40
2.000000000000000
100
AcDbArc
 50
90.00000000000000
 51
146.3099999999994
  0
ARC
  5
132
100
AcDbEntity
  8
1
  6
CONTINUOUS
 62
7
100
AcDbCircle
 10
26.98048567064450
 20
285.3864545733082
 30
0.000000000000000
 40
1.000000000000000
100
AcDbArc
 50
90.00000000000000
 51
146.3099999999994
  0
ARC
  5
133
100
AcDbEntity
  8
1
  6
CONTINUOUS
 62
7
100
AcDbCircle
 10
31.24348567064441
 20
285.3864545733082
 30
0.000000000000000
 40
1.000000000000000
100
AcDbArc
 50
53.13010000000153
 51
90.00000000000000
  0
ARC
  5
134
100
AcDbEntity
  8
1
  6
CONTINUOUS
 62
7
100
AcDbCircle
 10
31.24348567064441
 20
285.3864545733082
 30
0.000000000000000
 40
2.000000000000000
100
AcDbArc
 50
53.13010000000153
 51
90.00000000000000
  0
LINE
  5
135
100
AcDbEntity
  8
1
  6
CONTINUOUS
 62
7
100
AcDbLine
 10
41.91048567064456
 20
279.8864545733082
 30
0.000000000000000
 11
48.91048567064456
 21
279.8864545733082
 31
0.000000000000000
  0
LINE
  5
136
100
AcDbEntity
  8
1
  6
CONTINUOUS
 62
7
100
AcDbLine
 10
48.91048567064456
 20
279.8864545733082
 30
0.000000000000000
 11
48.91048567064456
 21
278.4864545733081
 31
0.000000000000000
  0
LINE
  5
137
100
AcDbEntity
  8
1
  6
CONTINUOUS
 62
7
100
AcDbLine
 10
45.41048567064456
 20
278.7864545733081
 30
0.000000000000000
 11
48.91048567064456
 21
278.7864545733081
 31
0.000000000000000
  0
ARC
  5
138
100
AcDbEntity
  8
1
  6
CONTINUOUS
 62
7
100
AcDbCircle
 10
222.6749186706441
 20
277.3861785733081
 30
0.000000000000000
 40
5.776709999999997
100
AcDbArc
 50
339.7440000000017
 51
380.2562000000023
  0
LINE
  5
139
100
AcDbEntity
  8
2
  6
CONTINUOUS
 62
4
100
AcDbLine
 10
192.2058186706442
 20
280.3861785733083
 30
0.000000000000000
 11
195.2058186706442
 21
276.0429785733081
 31
0.000000000000000
  0
LINE
  5
13A
100
AcDbEntity
  8
2
  6
CONTINUOUS
 62
4
100
AcDbLine
 10
195.2058186706442
 20
280.3861785733083
 30
0.000000000000000
 11
192.2058186706443
 21
276.0429785733081
 31
0.000000000000000
  0
ARC
  5
13B
100
AcDbEntity
  8
1
  6
CONTINUOUS
 62
7
100
AcDbCircle
 10
166.3879186706443
 20
275.3861785733081
 30
0.000000000000000
 40
9.614850000000001
100
AcDbArc
 50
113.8134989999997
 51
246.1865010000002
  0
LINE
  5
13C
100
AcDbEntity
  8
1
  6
CONTINUOUS
 62
7
100
AcDbLine
 10
166.5058186706445
 20
289.3861785733081
 30
0.000000000000000
 11
166.5058186706445
 21
261.3861785733083
 31
0.000000000000000
  0
LINE
  5
13D
100
AcDbEntity
  8
1
  6
CONTINUOUS
 62
7
100
AcDbLine
 10
192.2058186706443
 20
286.6357785733083
 30
0.000000000000000
 11
192.2058186706443
 21
265.6433785733083
 31
0.000000000000000
  0
LINE
  5
13E
100
AcDbEntity
  8
1
  6
CONTINUOUS
 62
7
100
AcDbLine
 10
191.9558186706443
 20
281.6511138022620
 30
0.000000000000000
 11
191.9558186706443
 21
269.1212433443542
 31
0.000000000000000
  0
LINE
  5
13F
100
AcDbEntity
  8
1
  6
CONTINUOUS
 62
7
100
AcDbLine
 10
165.5058186706445
 20
289.3861785733081
 30
0.000000000000000
 11
165.5058186706445
 21
261.3861785733083
 31
0.000000000000000
  0
LINE
  5
140
100
AcDbEntity
  8
1
  6
CONTINUOUS
 62
7
100
AcDbLine
 10
164.0058186706444
 20
289.3861785733080
 30
0.000000000000000
 11
164.0058186706444
 21
261.3861785733083
 31
0.000000000000000
  0
LINE
  5
141
100
AcDbEntity
  8
1
  6
CONTINUOUS
 62
7
100
AcDbLine
 10
162.5058186706445
 20
286.3861785733082
 30
0.000000000000000
 11
162.5058186706445
 21
264.3861785733082
 31
0.000000000000000
  0
LINE
  5
142
100
AcDbEntity
  8
1
  6
CONTINUOUS
 62
7
100
AcDbLine
 10
195.2058186706443
 20
280.3861785733083
 30
0.000000000000000
 11
195.2058186706443
 21
270.3861785733083
 31
0.000000000000000
  0
LINE
  5
143
100
AcDbEntity
  8
1
  6
CONTINUOUS
 62
7
100
AcDbLine
 10
213.5218186706445
 20
284.3861785733080
 30
0.000000000000000
 11
213.5218186706445
 21
266.3861785733081
 31
0.000000000000000
  0
LINE
  5
144
100
AcDbEntity
  8
1
  6
CONTINUOUS
 62
7
100
AcDbLine
 10
222.8516186706443
 20
281.3861785733082
 30
0.000000000000000
 11
222.8516186706443
 21
269.3861785733081
 31
0.000000000000000
  0
LINE
  5
145
100
AcDbEntity
  8
1
  6
CONTINUOUS
 62
7
100
AcDbLine
 10
223.6516186706445
 20
281.3861785733082
 30
0.000000000000000
 11
223.6516186706445
 21
269.3861785733081
 31
0.000000000000000
  0
LINE
  5
146
100
AcDbEntity
  8
1
  6
CONTINUOUS
 62
7
100
AcDbLine
 10
216.7218186706444
 20
284.3861785733080
 30
0.000000000000000
 11
216.7218186706444
 21
266.3861785733081
 31
0.000000000000000
  0
LINE
  5
147
100
AcDbEntity
  8
1
  6
CONTINUOUS
 62
7
100
AcDbLine
 10
215.1218186706443
 20
284.3861785733080
 30
0.000000000000000
 11
215.1218186706443
 21
266.3861785733081
 31
0.000000000000000
  0
LINE
  5
148
100
AcDbEntity
  8
1
  6
CONTINUOUS
 62
7
100
AcDbLine
 10
224.9516186706443
 20
279.9861785733082
 30
0.000000000000000
 11
224.9516186706443
 21
270.7861785733080
 31
0.000000000000000
  0
LINE
  5
149
100
AcDbEntity
  8
1
  6
CONTINUOUS
 62
7
100
AcDbLine
 10
228.4516186706442
 20
271.3861785733082
 30
0.000000000000000
 11
228.4516186706442
 21
279.3861785733082
 31
0.000000000000000
  0
LINE
  5
14A
100
AcDbEntity
  8
4
  6
CENTER
 62
1
100
AcDbLine
 10
152.0414186706444
 20
275.3861785733081
 30
0.000000000000000
 11
199.3184006706444
 21
275.3861785733081
 31
0.000000000000000
  0
LINE
  5
14B
100
AcDbEntity
  8
1
  6
CONTINUOUS
 62
7
100
AcDbLine
 10
166.5058186706445
 20
263.9121785733084
 30
0.000000000000000
 11
189.5317845229451
 21
264.5106690596335
 31
0.000000000000000
  0
LINE
  5
14C
100
AcDbEntity
  8
1
  6
CONTINUOUS
 62
7
100
AcDbLine
 10
166.5058186706445
 20
210.8992785733081
 30
0.000000000000000
 11
191.9558186706443
 21
210.2749785733082
 31
0.000000000000000
  0
LINE
  5
14D
100
AcDbEntity
  8
1
  6
CONTINUOUS
 62
7
100
AcDbLine
 10
167.5023186706445
 20
209.9828785733082
 30
0.000000000000000
 11
189.1803398339208
 21
209.4511778843769
 31
0.000000000000000
  0
LINE
  5
14E
100
AcDbEntity
  8
4
  6
CENTER
 62
1
100
AcDbLine
 10
155.0200186706443
 20
199.4237785733083
 30
0.000000000000000
 11
199.3214186706444
 21
199.4237785733083
 31
0.000000000000000
  0
LINE
  5
14F
100
AcDbEntity
  8
5
  6
PHANTOM
 62
6
100
AcDbLine
 10
102.3558186706444
 20
190.8737785733083
 30
0.000000000000000
 11
102.3558186706444
 21
207.9737785733082
 31
0.000000000000000
  0
ARC
  5
150
100
AcDbEntity
  8
5
  6
PHANTOM
 62
6
100
AcDbCircle
 10
101.3558186706444
 20
190.8737785733083
 30
0.000000000000000
 40
1.000000000000000
100
AcDbArc
 50
270.0000000000000
 51
360.0000000000000
  0
ARC
  5
151
100
AcDbEntity
  8
5
  6
PHANTOM
 62
6
100
AcDbCircle
 10
101.3558186706444
 20
207.9737785733082
 30
0.000000000000000
 40
1.000000000000000
100
AcDbArc
 50
0.000000000000000
 51
90.00000000000000
  0
ARC
  5
152
100
AcDbEntity
  8
1
  6
CONTINUOUS
 62
7
100
AcDbCircle
 10
152.0058186706445
 20
192.9934185733080
 30
0.000000000000000
 40
10.00000000000000
100
AcDbArc
 50
0.000000000000000
 51
44.99999999999976
  0
LINE
  5
153
100
AcDbEntity
  8
5
  6
PHANTOM
 62
6
100
AcDbLine
 10
156.9558186706443
 20
189.8737785733083
 30
0.000000000000000
 11
162.5058186706445
 21
189.8737785733083
 31
0.000000000000000
  0
ARC
  5
154
100
AcDbEntity
  8
1
  6
CONTINUOUS
 62
7
100
AcDbCircle
 10
166.5058186706445
 20
209.8989785733081
 30
0.000000000000000
 40
1.000000000000000
100
AcDbArc
 50
0.000000000000000
 51
88.59490000000211
  0
ARC
  5
155
100
AcDbEntity
  8
1
  6
CONTINUOUS
 62
7
100
AcDbCircle
 10
166.0626186706443
 20
199.2089785733083
 30
0.000000000000000
 40
9.400000000000000
100
AcDbArc
 50
112.2335569999991
 51
132.1629999999995
  0
ARC
  5
156
100
AcDbEntity
  8
5
  6
PHANTOM
 62
6
100
AcDbCircle
 10
151.7058186706443
 20
205.1298785733083
 30
0.000000000000000
 40
10.00000000000000
100
AcDbArc
 50
315.0000000000003
 51
360.0000000000000
  0
LINE
  5
157
100
AcDbEntity
  8
1
  6
CONTINUOUS
 62
7
100
AcDbLine
 10
157.0659186706444
 20
203.4896785733082
 30
0.000000000000000
 11
159.7529186706443
 21
206.1766785733080
 31
0.000000000000000
  0
LINE
  5
158
100
AcDbEntity
  8
1
  6
CONTINUOUS
 62
7
100
AcDbLine
 10
157.0659186706444
 20
202.0753785733083
 30
0.000000000000000
 11
159.0769186706444
 21
200.0644785733083
 31
0.000000000000000
  0
ARC
  5
159
100
AcDbEntity
  8
1
  6
CONTINUOUS
 62
7
100
AcDbCircle
 10
157.7730186706443
 20
202.7825785733083
 30
0.000000000000000
 40
1.000000000000000
100
AcDbArc
 50
135.0000000000002
 51
224.9999999999997
  0
LINE
  5
15A
100
AcDbEntity
  8
1
  6
CONTINUOUS
 62
7
100
AcDbLine
 10
167.5058186706445
 20
209.8989785733081
 30
0.000000000000000
 11
167.5058186706445
 21
199.4237785733083
 31
0.000000000000000
  0
LINE
  5
15B
100
AcDbEntity
  8
5
  6
PHANTOM
 62
6
100
AcDbLine
 10
161.7058186706443
 20
207.9737785733082
 30
0.000000000000000
 11
161.7058186706443
 21
205.1298785733083
 31
0.000000000000000
  0
ARC
  5
15C
100
AcDbEntity
  8
5
  6
PHANTOM
 62
6
100
AcDbCircle
 10
162.7058186706443
 20
207.9737785733082
 30
0.000000000000000
 40
1.000000000000000
100
AcDbArc
 50
101.5369590000031
 51
180.0000000000000
  0
LINE
  5
15D
100
AcDbEntity
  8
1
  6
CONTINUOUS
 62
7
100
AcDbLine
 10
164.0058186706444
 20
220.4237785733083
 30
0.000000000000000
 11
166.5058186706445
 21
220.4237785733083
 31
0.000000000000000
  0
LINE
  5
15E
100
AcDbEntity
  8
1
  6
CONTINUOUS
 62
7
100
AcDbLine
 10
164.0058186706444
 20
220.4237785733083
 30
0.000000000000000
 11
162.5058186706445
 21
217.4237785733081
 31
0.000000000000000
  0
LINE
  5
15F
100
AcDbEntity
  8
1
  6
CONTINUOUS
 62
7
100
AcDbLine
 10
162.5058186706445
 20
264.3861785733082
 30
0.000000000000000
 11
164.0058186706444
 21
261.3861785733083
 31
0.000000000000000
  0
LINE
  5
160
100
AcDbEntity
  8
1
  6
CONTINUOUS
 62
7
100
AcDbLine
 10
164.0058186706444
 20
261.3861785733083
 30
0.000000000000000
 11
166.5058186706445
 21
261.3861785733083
 31
0.000000000000000
  0
LINE
  5
161
100
AcDbEntity
  8
1
  6
CONTINUOUS
 62
7
100
AcDbLine
 10
190.1558186706441
 20
189.2466275733083
 30
0.000000000000000
 11
190.1558186706441
 21
208.4514785733080
 31
0.000000000000000
  0
LINE
  5
162
100
AcDbEntity
  8
1
  6
CONTINUOUS
 62
7
100
AcDbLine
 10
195.2058186706443
 20
204.4237785733082
 30
0.000000000000000
 11
195.2058186706443
 21
194.4237785733081
 31
0.000000000000000
  0
LINE
  5
163
100
AcDbEntity
  8
2
  6
CONTINUOUS
 62
4
100
AcDbLine
 10
195.2058186706443
 20
198.7668785733083
 30
0.000000000000000
 11
192.2058186706443
 21
194.4237785733081
 31
0.000000000000000
  0
LINE
  5
164
100
AcDbEntity
  8
2
  6
CONTINUOUS
 62
4
100
AcDbLine
 10
192.2058186706443
 20
198.7668785733083
 30
0.000000000000000
 11
195.2058186706443
 21
194.4237785733081
 31
0.000000000000000
  0
LINE
  5
165
100
AcDbEntity
  8
1
  6
CONTINUOUS
 62
7
100
AcDbLine
 10
190.2058186706443
 20
206.8715785733082
 30
0.000000000000000
 11
190.2058186706443
 21
188.1737785733081
 31
0.000000000000000
  0
LINE
  5
166
100
AcDbEntity
  8
1
  6
CONTINUOUS
 62
7
100
AcDbLine
 10
192.2058186706443
 20
209.1665643658832
 30
0.000000000000000
 11
192.2058186706443
 21
188.1737785733081
 31
0.000000000000000
  0
LINE
  5
167
100
AcDbEntity
  8
1
  6
CONTINUOUS
 62
7
100
AcDbLine
 10
178.5058186706444
 20
199.4237785733083
 30
0.000000000000000
 11
178.5058186706444
 21
188.9608685733083
 31
0.000000000000000
  0
ARC
  5
168
100
AcDbEntity
  8
1
  6
CONTINUOUS
 62
7
100
AcDbCircle
 10
189.1558186706441
 20
189.2466275733083
 30
0.000000000000000
 40
1.000000000000000
100
AcDbArc
 50
271.4051079999979
 51
360.0000000000000
  0
LINE
  5
169
100
AcDbEntity
  8
4
  6
CENTER
 62
1
100
AcDbLine
 10
172.1094286706444
 20
170.9237785733083
 30
0.000000000000000
 11
179.7938646706444
 21
170.9237785733083
 31
0.000000000000000
  0
LINE
  5
16A
100
AcDbEntity
  8
1
  6
CONTINUOUS
 62
7
100
AcDbLine
 10
176.0058186706444
 20
175.4237785733083
 30
0.000000000000000
 11
176.5058186706444
 21
175.4237785733083
 31
0.000000000000000
  0
LINE
  5
16B
100
AcDbEntity
  8
1
  6
CONTINUOUS
 62
7
100
AcDbLine
 10
176.4935586706444
 20
187.9357385733079
 30
0.000000000000000
 11
189.1803396706443
 21
188.2469285733081
 31
0.000000000000000
  0
ARC
  5
16C
100
AcDbEntity
  8
1
  6
CONTINUOUS
 62
7
100
AcDbCircle
 10
177.5058186706444
 20
188.9608685733083
 30
0.000000000000000
 40
1.000000000000000
100
AcDbArc
 50
271.4051079999979
 51
360.0000000000000
  0
ARC
  5
16D
100
AcDbEntity
  8
1
  6
CONTINUOUS
 62
7
100
AcDbCircle
 10
176.5058186706444
 20
187.4358885733083
 30
0.000000000000000
 40
0.5000000000000000
100
AcDbArc
 50
91.40509999999790
 51
180.0000000000000
  0
LINE
  5
16E
100
AcDbEntity
  8
1
  6
CONTINUOUS
 62
7
100
AcDbLine
 10
190.2058186706443
 20
188.1737785733081
 30
0.000000000000000
 11
192.2058186706443
 21
188.1737785733081
 31
0.000000000000000
  0
LINE
  5
16F
100
AcDbEntity
  8
1
  6
CONTINUOUS
 62
7
100
AcDbLine
 10
192.2058186706443
 20
194.4237785733081
 30
0.000000000000000
 11
195.2058186706443
 21
194.4237785733081
 31
0.000000000000000
  0
LINE
  5
170
100
AcDbEntity
  8
1
  6
CONTINUOUS
 62
7
100
AcDbLine
 10
190.2058186706443
 20
193.7987785733082
 30
0.000000000000000
 11
192.2058186706443
 21
193.7987785733082
 31
0.000000000000000
  0
LINE
  5
171
100
AcDbEntity
  8
1
  6
CONTINUOUS
 62
7
100
AcDbLine
 10
190.2058186706443
 20
195.2737785733082
 30
0.000000000000000
 11
192.2058186706443
 21
195.2737785733082
 31
0.000000000000000
  0
ARC
  5
172
100
AcDbEntity
  8
1
  6
CONTINUOUS
 62
7
100
AcDbCircle
 10
189.1558186706441
 20
208.4514785733080
 30
0.000000000000000
 40
1.000000000000000
100
AcDbArc
 50
0.000000000000000
 51
88.59490000000211
  0
LINE
  5
173
100
AcDbEntity
  8
2
  6
CONTINUOUS
 62
4
100
AcDbLine
 10
195.2058186706443
 20
204.4237785733082
 30
0.000000000000000
 11
192.2058186706443
 21
200.0806785733082
 31
0.000000000000000
  0
LINE
  5
174
100
AcDbEntity
  8
2
  6
CONTINUOUS
 62
4
100
AcDbLine
 10
192.2058186706443
 20
204.4237785733082
 30
0.000000000000000
 11
195.2058186706443
 21
200.0806785733082
 31
0.000000000000000
  0
LINE
  5
175
100
AcDbEntity
  8
1
  6
CONTINUOUS
 62
7
100
AcDbLine
 10
192.2058186706443
 20
200.0806785733082
 30
0.000000000000000
 11
195.2058186706443
 21
200.0806785733082
 31
0.000000000000000
  0
LINE
  5
176
100
AcDbEntity
  8
1
  6
CONTINUOUS
 62
7
100
AcDbLine
 10
192.2058186706443
 20
198.7668785733083
 30
0.000000000000000
 11
195.2058186706443
 21
198.7668785733083
 31
0.000000000000000
  0
LINE
  5
177
100
AcDbEntity
  8
1
  6
CONTINUOUS
 62
7
100
AcDbLine
 10
192.2058186706443
 20
204.4237785733082
 30
0.000000000000000
 11
195.2058186706443
 21
204.4237785733082
 31
0.000000000000000
  0
LINE
  5
178
100
AcDbEntity
  8
1
  6
CONTINUOUS
 62
7
100
AcDbLine
 10
191.9558186706443
 20
209.1665643658832
 30
0.000000000000000
 11
192.2058186706443
 21
209.1665643658832
 31
0.000000000000000
  0
LINE
  5
179
100
AcDbEntity
  8
1
  6
CONTINUOUS
 62
7
100
AcDbLine
 10
190.1558186706441
 20
206.8715785733082
 30
0.000000000000000
 11
191.9558186706443
 21
206.8715785733082
 31
0.000000000000000
  0
LINE
  5
17A
100
AcDbEntity
  8
1
  6
CONTINUOUS
 62
7
100
AcDbLine
 10
191.9558186706443
 20
210.2749785733082
 30
0.000000000000000
 11
191.9558186706443
 21
206.8715785733082
 31
0.000000000000000
  0
LINE
  5
17B
100
AcDbEntity
  8
1
  6
CONTINUOUS
 62
7
100
AcDbLine
 10
222.8516186706443
 20
205.4237785733081
 30
0.000000000000000
 11
222.8516186706443
 21
193.4237785733081
 31
0.000000000000000
  0
LINE
  5
17C
100
AcDbEntity
  8
1
  6
CONTINUOUS
 62
7
100
AcDbLine
 10
223.6516186706445
 20
205.4237785733081
 30
0.000000000000000
 11
223.6516186706445
 21
193.4237785733081
 31
0.000000000000000
  0
LINE
  5
17D
100
AcDbEntity
  8
1
  6
CONTINUOUS
 62
7
100
AcDbLine
 10
224.9516186706443
 20
204.0425785733083
 30
0.000000000000000
 11
224.9516186706443
 21
194.8049785733083
 31
0.000000000000000
  0
ARC
  5
17E
100
AcDbEntity
  8
1
  6
CONTINUOUS
 62
7
100
AcDbCircle
 10
220.8089186706442
 20
199.4237785733083
 30
0.000000000000000
 40
7.642730000000000
100
AcDbArc
 50
342.4119999999996
 51
377.5880000000004
  0
LINE
  5
17F
100
AcDbEntity
  8
1
  6
CONTINUOUS
 62
7
100
AcDbLine
 10
228.4516186706442
 20
195.4237785733081
 30
0.000000000000000
 11
228.4516186706442
 21
203.4237785733083
 31
0.000000000000000
  0
LINE
  5
180
100
AcDbEntity
  8
1
  6
CONTINUOUS
 62
7
100
AcDbLine
 10
213.5218186706445
 20
208.4237785733082
 30
0.000000000000000
 11
213.5218186706445
 21
190.4237785733081
 31
0.000000000000000
  0
LINE
  5
181
100
AcDbEntity
  8
1
  6
CONTINUOUS
 62
7
100
AcDbLine
 10
216.7218186706444
 20
208.4237785733082
 30
0.000000000000000
 11
216.7218186706444
 21
190.4237785733081
 31
0.000000000000000
  0
LINE
  5
182
100
AcDbEntity
  8
1
  6
CONTINUOUS
 62
7
100
AcDbLine
 10
215.1218186706443
 20
208.4237785733082
 30
0.000000000000000
 11
215.1218186706443
 21
190.4237785733081
 31
0.000000000000000
  0
ARC
  5
183
100
AcDbEntity
  8
1
  6
CONTINUOUS
 62
7
100
AcDbCircle
 10
226.4070186706444
 20
195.9596785733080
 30
0.000000000000000
 40
2.044659999999999
100
AcDbArc
 50
325.6160000000007
 51
394.3841999999983
  0
LINE
  5
184
100
AcDbEntity
  8
1
  6
CONTINUOUS
 62
7
100
AcDbLine
 10
228.4516186706442
 20
195.4237785733081
 30
0.000000000000000
 11
228.0944186706443
 21
194.8049785733083
 31
0.000000000000000
  0
LINE
  5
185
100
AcDbEntity
  8
1
  6
CONTINUOUS
 62
7
100
AcDbLine
 10
213.5218186706445
 20
190.4237785733081
 30
0.000000000000000
 11
215.1218186706443
 21
190.4237785733081
 31
0.000000000000000
  0
LINE
  5
186
100
AcDbEntity
  8
1
  6
CONTINUOUS
 62
7
100
AcDbLine
 10
215.1218186706443
 20
190.4237785733081
 30
0.000000000000000
 11
216.7218186706444
 21
190.4237785733081
 31
0.000000000000000
  0
LINE
  5
187
100
AcDbEntity
  8
1
  6
CONTINUOUS
 62
7
100
AcDbLine
 10
223.6516186706445
 20
193.4237785733081
 30
0.000000000000000
 11
222.8516186706446
 21
193.4237785733081
 31
0.000000000000000
  0
LINE
  5
188
100
AcDbEntity
  8
1
  6
CONTINUOUS
 62
7
100
AcDbLine
 10
224.9516186706443
 20
194.8237785733081
 30
0.000000000000000
 11
223.6516186706445
 21
194.8237785733081
 31
0.000000000000000
  0
LINE
  5
189
100
AcDbEntity
  8
1
  6
CONTINUOUS
 62
7
100
AcDbLine
 10
228.0944186706443
 20
194.8049785733083
 30
0.000000000000000
 11
224.9516186706443
 21
194.8049785733083
 31
0.000000000000000
  0
LINE
  5
18A
100
AcDbEntity
  8
1
  6
CONTINUOUS
 62
7
100
AcDbLine
 10
228.0944186706443
 20
197.1143785733083
 30
0.000000000000000
 11
224.9516186706443
 21
197.1143785733083
 31
0.000000000000000
  0
ARC
  5
18B
100
AcDbEntity
  8
1
  6
CONTINUOUS
 62
7
100
AcDbCircle
 10
226.4070186706444
 20
202.8878785733082
 30
0.000000000000000
 40
2.044659999999999
100
AcDbArc
 50
325.6160000000007
 51
394.3841999999983
  0
LINE
  5
18C
100
AcDbEntity
  8
1
  6
CONTINUOUS
 62
7
100
AcDbLine
 10
228.4516186706442
 20
203.4237785733083
 30
0.000000000000000
 11
228.0944186706443
 21
204.0425785733083
 31
0.000000000000000
  0
LINE
  5
18D
100
AcDbEntity
  8
4
  6
CENTER
 62
1
100
AcDbLine
 10
231.9809646706445
 20
199.4237785733083
 30
0.000000000000000
 11
209.3154245026140
 21
199.4237785733083
 31
0.000000000000000
  0
LINE
  5
18E
100
AcDbEntity
  8
1
  6
CONTINUOUS
 62
7
100
AcDbLine
 10
213.5218186706445
 20
208.4237785733082
 30
0.000000000000000
 11
215.1218186706443
 21
208.4237785733082
 31
0.000000000000000
  0
LINE
  5
18F
100
AcDbEntity
  8
1
  6
CONTINUOUS
 62
7
100
AcDbLine
 10
215.1218186706443
 20
208.4237785733082
 30
0.000000000000000
 11
216.7218186706444
 21
208.4237785733082
 31
0.000000000000000
  0
LINE
  5
190
100
AcDbEntity
  8
1
  6
CONTINUOUS
 62
7
100
AcDbLine
 10
224.9516186706444
 20
200.5238785733083
 30
0.000000000000000
 11
223.6516186706445
 21
199.2238785733083
 31
0.000000000000000
  0
LINE
  5
191
100
AcDbEntity
  8
1
  6
CONTINUOUS
 62
7
100
AcDbLine
 10
228.0944186706443
 20
201.7331785733080
 30
0.000000000000000
 11
224.9516186706443
 21
201.7331785733080
 31
0.000000000000000
  0
LINE
  5
192
100
AcDbEntity
  8
1
  6
CONTINUOUS
 62
7
100
AcDbLine
 10
224.9516186706443
 20
199.5338785733083
 30
0.000000000000000
 11
223.6516186706445
 21
198.2338785733082
 31
0.000000000000000
  0
LINE
  5
193
100
AcDbEntity
  8
1
  6
CONTINUOUS
 62
7
100
AcDbLine
 10
223.6516186706445
 20
205.4237785733081
 30
0.000000000000000
 11
222.8516186706443
 21
205.4237785733081
 31
0.000000000000000
  0
LINE
  5
194
100
AcDbEntity
  8
1
  6
CONTINUOUS
 62
7
100
AcDbLine
 10
224.9516186706443
 20
204.0237785733082
 30
0.000000000000000
 11
223.6516186706445
 21
204.0237785733082
 31
0.000000000000000
  0
LINE
  5
195
100
AcDbEntity
  8
1
  6
CONTINUOUS
 62
7
100
AcDbLine
 10
228.0944186706443
 20
204.0425785733083
 30
0.000000000000000
 11
224.9516186706443
 21
204.0425785733083
 31
0.000000000000000
  0
ARC
  5
196
100
AcDbEntity
  8
1
  6
CONTINUOUS
 62
7
100
AcDbCircle
 10
189.1558186706441
 20
265.5013785733083
 30
0.000000000000000
 40
1.000000000000000
100
AcDbArc
 50
271.4890000000025
 51
360.0000000000000
  0
LINE
  5
197
100
AcDbEntity
  8
2
  6
CONTINUOUS
 62
4
100
AcDbLine
 10
195.2058186706443
 20
274.7292785733084
 30
0.000000000000000
 11
192.2058186706443
 21
270.3861785733084
 31
0.000000000000000
  0
LINE
  5
198
100
AcDbEntity
  8
2
  6
CONTINUOUS
 62
4
100
AcDbLine
 10
192.2058186706444
 20
274.7292785733084
 30
0.000000000000000
 11
195.2058186706444
 21
270.3861785733084
 31
0.000000000000000
  0
LINE
  5
199
100
AcDbEntity
  8
1
  6
CONTINUOUS
 62
7
100
AcDbLine
 10
192.2058186706443
 20
270.3861785733083
 30
0.000000000000000
 11
195.2058186706443
 21
270.3861785733083
 31
0.000000000000000
  0
LINE
  5
19A
100
AcDbEntity
  8
1
  6
CONTINUOUS
 62
7
100
AcDbLine
 10
190.2058186706443
 20
267.0861785733083
 30
0.000000000000000
 11
192.2058186706443
 21
267.0861785733083
 31
0.000000000000000
  0
LINE
  5
19B
100
AcDbEntity
  8
1
  6
CONTINUOUS
 62
7
100
AcDbLine
 10
190.2058186706443
 20
265.6433785733083
 30
0.000000000000000
 11
192.2058186706443
 21
265.6433785733083
 31
0.000000000000000
  0
LINE
  5
19C
100
AcDbEntity
  8
1
  6
CONTINUOUS
 62
7
100
AcDbLine
 10
190.2058186706443
 20
269.0944327484249
 30
0.000000000000000
 11
190.2058186706443
 21
265.6433785733083
 31
0.000000000000000
  0
LINE
  5
19D
100
AcDbEntity
  8
1
  6
CONTINUOUS
 62
7
100
AcDbLine
 10
190.1558186706441
 20
269.0936667313983
 30
0.000000000000000
 11
190.1558186706441
 21
265.5013785733083
 31
0.000000000000000
  0
LINE
  5
19E
100
AcDbEntity
  8
1
  6
CONTINUOUS
 62
7
100
AcDbLine
 10
190.5058186706445
 20
265.6433785733083
 30
0.000000000000000
 11
190.5058186706445
 21
265.5103318900488
 31
0.000000000000000
  0
ARC
  5
19F
100
AcDbEntity
  8
1
  6
CONTINUOUS
 62
7
100
AcDbCircle
 10
189.5058186706445
 20
265.5103318900488
 30
0.000000000000000
 40
1.000000000000000
100
AcDbArc
 50
271.4879009770414
 51
360.0000000000000
  0
LINE
  5
1A0
100
AcDbEntity
  8
1
  6
CONTINUOUS
 62
7
100
AcDbLine
 10
192.2058186706443
 20
274.7292785733083
 30
0.000000000000000
 11
195.2058186706443
 21
274.7292785733083
 31
0.000000000000000
  0
LINE
  5
1A1
100
AcDbEntity
  8
1
  6
CONTINUOUS
 62
7
100
AcDbLine
 10
192.2058186706443
 20
276.0429785733082
 30
0.000000000000000
 11
195.2058186706443
 21
276.0429785733082
 31
0.000000000000000
  0
LINE
  5
1A2
100
AcDbEntity
  8
4
  6
CENTER
 62
1
100
AcDbLine
 10
231.9809646706445
 20
275.3861785733081
 30
0.000000000000000
 11
209.3154245026140
 21
275.3861785733081
 31
0.000000000000000
  0
LINE
  5
1A3
100
AcDbEntity
  8
1
  6
CONTINUOUS
 62
7
100
AcDbLine
 10
224.9516186706443
 20
271.3861785733082
 30
0.000000000000000
 11
228.4516186706442
 21
271.3861785733082
 31
0.000000000000000
  0
ARC
  5
1A4
100
AcDbEntity
  8
1
  6
CONTINUOUS
 62
7
100
AcDbCircle
 10
222.6749186706441
 20
273.3861785733081
 30
0.000000000000000
 40
5.776709999999997
100
AcDbArc
 50
339.7440000000017
 51
380.2562000000023
  0
LINE
  5
1A5
100
AcDbEntity
  8
1
  6
CONTINUOUS
 62
7
100
AcDbLine
 10
213.5218186706445
 20
266.3861785733081
 30
0.000000000000000
 11
215.1218186706443
 21
266.3861785733081
 31
0.000000000000000
  0
LINE
  5
1A6
100
AcDbEntity
  8
1
  6
CONTINUOUS
 62
7
100
AcDbLine
 10
215.1218186706443
 20
266.3861785733081
 30
0.000000000000000
 11
216.7218186706444
 21
266.3861785733081
 31
0.000000000000000
  0
LINE
  5
1A7
100
AcDbEntity
  8
1
  6
CONTINUOUS
 62
7
100
AcDbLine
 10
223.6516186706445
 20
269.3861785733081
 30
0.000000000000000
 11
222.8516186706446
 21
269.3861785733082
 31
0.000000000000000
  0
LINE
  5
1A8
100
AcDbEntity
  8
1
  6
CONTINUOUS
 62
7
100
AcDbLine
 10
224.9516186706443
 20
275.4962785733081
 30
0.000000000000000
 11
223.6516186706445
 21
274.1962785733081
 31
0.000000000000000
  0
LINE
  5
1A9
100
AcDbEntity
  8
1
  6
CONTINUOUS
 62
7
100
AcDbLine
 10
224.9516186706443
 20
276.4862785733082
 30
0.000000000000000
 11
223.6516186706445
 21
275.1862785733082
 31
0.000000000000000
  0
LINE
  5
1AA
100
AcDbEntity
  8
1
  6
CONTINUOUS
 62
7
100
AcDbLine
 10
224.9516186706443
 20
275.3861785733081
 30
0.000000000000000
 11
228.0944186706443
 21
275.3861785733081
 31
0.000000000000000
  0
LINE
  5
1AB
100
AcDbEntity
  8
1
  6
CONTINUOUS
 62
7
100
AcDbLine
 10
224.9516186706443
 20
270.7861785733080
 30
0.000000000000000
 11
223.6516186706445
 21
270.7861785733080
 31
0.000000000000000
  0
ARC
  5
1AC
100
AcDbEntity
  8
1
  6
CONTINUOUS
 62
7
100
AcDbCircle
 10
246.7697186706444
 20
261.6361785733083
 30
0.000000000000000
 40
2.000000000000000
100
AcDbArc
 50
90.00000000000000
 51
180.0000000000000
  0
LINE
  5
1AD
100
AcDbEntity
  8
1
  6
CONTINUOUS
 62
7
100
AcDbLine
 10
244.7697186706444
 20
261.6361785733083
 30
0.000000000000000
 11
244.7697186706444
 21
257.6361785733082
 31
0.000000000000000
  0
LINE
  5
1AE
100
AcDbEntity
  8
1
  6
CONTINUOUS
 62
7
100
AcDbLine
 10
246.7697186706444
 20
261.6361785733083
 30
0.000000000000000
 11
246.7697186706444
 21
257.6361785733082
 31
0.000000000000000
  0
LINE
  5
1AF
100
AcDbEntity
  8
1
  6
CONTINUOUS
 62
7
100
AcDbLine
 10
244.7697186706444
 20
257.6361785733082
 30
0.000000000000000
 11
246.7697186706444
 21
257.6361785733082
 31
0.000000000000000
  0
LINE
  5
1B0
100
AcDbEntity
  8
1
  6
CONTINUOUS
 62
7
100
AcDbLine
 10
166.5058186706445
 20
286.8597785733082
 30
0.000000000000000
 11
189.5318065503841
 21
286.2615797974618
 31
0.000000000000000
  0
LINE
  5
1B1
100
AcDbEntity
  8
1
  6
CONTINUOUS
 62
7
100
AcDbLine
 10
164.0058186706444
 20
289.3861785733081
 30
0.000000000000000
 11
166.5058186706445
 21
289.3861785733081
 31
0.000000000000000
  0
LINE
  5
1B2
100
AcDbEntity
  8
1
  6
CONTINUOUS
 62
7
100
AcDbLine
 10
162.5058186706445
 20
286.3861785733081
 30
0.000000000000000
 11
164.0058186706444
 21
289.3861785733080
 31
0.000000000000000
  0
ARC
  5
1B3
100
AcDbEntity
  8
1
  6
CONTINUOUS
 62
7
100
AcDbCircle
 10
189.1558186706441
 20
285.2707785733080
 30
0.000000000000000
 40
1.000000000000000
100
AcDbArc
 50
0.000000000000000
 51
88.51060000000145
  0
LINE
  5
1B4
100
AcDbEntity
  8
1
  6
CONTINUOUS
 62
7
100
AcDbLine
 10
190.2058186706443
 20
286.6357785733083
 30
0.000000000000000
 11
190.2058186706443
 21
281.6779243981914
 31
0.000000000000000
  0
LINE
  5
1B5
100
AcDbEntity
  8
1
  6
CONTINUOUS
 62
7
100
AcDbLine
 10
190.1558186706441
 20
285.2707785733080
 30
0.000000000000000
 11
190.1558186706441
 21
281.6786904152179
 31
0.000000000000000
  0
LINE
  5
1B6
100
AcDbEntity
  8
1
  6
CONTINUOUS
 62
7
100
AcDbLine
 10
192.2058186706443
 20
280.3861785733083
 30
0.000000000000000
 11
195.2058186706443
 21
280.3861785733083
 31
0.000000000000000
  0
LINE
  5
1B7
100
AcDbEntity
  8
1
  6
CONTINUOUS
 62
7
100
AcDbLine
 10
191.9558186706443
 20
281.0111785733082
 30
0.000000000000000
 11
192.2058186706443
 21
281.0111785733082
 31
0.000000000000000
  0
LINE
  5
1B8
100
AcDbEntity
  8
1
  6
CONTINUOUS
 62
7
100
AcDbLine
 10
190.2058186706443
 20
286.6357785733083
 30
0.000000000000000
 11
192.2058186706443
 21
286.6357785733083
 31
0.000000000000000
  0
ARC
  5
1B9
100
AcDbEntity
  8
1
  6
CONTINUOUS
 62
7
100
AcDbCircle
 10
189.5058186706445
 20
285.2619175394432
 30
0.000000000000000
 40
1.000000000000000
100
AcDbArc
 50
45.57299599920678
 51
88.51083651763388
  0
LINE
  5
1BA
100
AcDbEntity
  8
1
  6
CONTINUOUS
 62
7
100
AcDbLine
 10
224.9516186706443
 20
279.3861785733082
 30
0.000000000000000
 11
228.4516186706442
 21
279.3861785733082
 31
0.000000000000000
  0
LINE
  5
1BB
100
AcDbEntity
  8
1
  6
CONTINUOUS
 62
7
100
AcDbLine
 10
213.5218186706445
 20
284.3861785733080
 30
0.000000000000000
 11
215.1218186706443
 21
284.3861785733080
 31
0.000000000000000
  0
LINE
  5
1BC
100
AcDbEntity
  8
1
  6
CONTINUOUS
 62
7
100
AcDbLine
 10
215.1218186706443
 20
284.3861785733080
 30
0.000000000000000
 11
216.7218186706444
 21
284.3861785733080
 31
0.000000000000000
  0
LINE
  5
1BD
100
AcDbEntity
  8
1
  6
CONTINUOUS
 62
7
100
AcDbLine
 10
223.6516186706445
 20
281.3861785733082
 30
0.000000000000000
 11
222.8516186706443
 21
281.3861785733082
 31
0.000000000000000
  0
LINE
  5
1BE
100
AcDbEntity
  8
1
  6
CONTINUOUS
 62
7
100
AcDbLine
 10
224.9516186706443
 20
279.9861785733082
 30
0.000000000000000
 11
223.6516186706445
 21
279.9861785733082
 31
0.000000000000000
  0
LINE
  5
1BF
100
AcDbEntity
  8
1
  6
CONTINUOUS
 62
7
100
AcDbLine
 10
246.7697186706444
 20
289.1361785733080
 30
0.000000000000000
 11
246.7697186706444
 21
293.1361785733082
 31
0.000000000000000
  0
LINE
  5
1C0
100
AcDbEntity
  8
1
  6
CONTINUOUS
 62
7
100
AcDbLine
 10
244.7697186706444
 20
289.1361785733080
 30
0.000000000000000
 11
244.7697186706444
 21
293.1361785733082
 31
0.000000000000000
  0
ARC
  5
1C1
100
AcDbEntity
  8
1
  6
CONTINUOUS
 62
7
100
AcDbCircle
 10
246.7697186706444
 20
289.1361785733080
 30
0.000000000000000
 40
2.000000000000000
100
AcDbArc
 50
180.0000000000000
 51
270.0000000000000
  0
LINE
  5
1C2
100
AcDbEntity
  8
1
  6
CONTINUOUS
 62
7
100
AcDbLine
 10
244.7697186706444
 20
293.1361785733082
 30
0.000000000000000
 11
246.7697186706444
 21
293.1361785733082
 31
0.000000000000000
  0
LINE
  5
1C3
100
AcDbEntity
  8
1
  6
CONTINUOUS
 62
7
100
AcDbLine
 10
457.8058186706441
 20
175.4237785733083
 30
0.000000000000000
 11
457.8058186706441
 21
166.4237785733083
 31
0.000000000000000
  0
LINE
  5
1C4
100
AcDbEntity
  8
1
  6
CONTINUOUS
 62
7
100
AcDbLine
 10
458.3058186706441
 20
187.4358885733083
 30
0.000000000000000
 11
458.3058186706441
 21
154.4116785733083
 31
0.000000000000000
  0
LINE
  5
1C5
100
AcDbEntity
  8
1
  6
CONTINUOUS
 62
7
100
AcDbLine
 10
471.8058186706441
 20
217.4237785733082
 30
0.000000000000000
 11
471.8058186706441
 21
109.4237785733082
 31
0.000000000000000
  0
LINE
  5
1C6
100
AcDbEntity
  8
1
  6
CONTINUOUS
 62
7
100
AcDbLine
 10
468.8058186706443
 20
220.4237785733083
 30
0.000000000000000
 11
468.8058186706443
 21
106.4237785733083
 31
0.000000000000000
  0
LINE
  5
1C7
100
AcDbEntity
  8
1
  6
CONTINUOUS
 62
7
100
AcDbLine
 10
470.3058186706441
 20
220.4237785733083
 30
0.000000000000000
 11
470.3058186706441
 21
106.4237785733083
 31
0.000000000000000
  0
LINE
  5
1C8
100
AcDbEntity
  8
1
  6
CONTINUOUS
 62
7
100
AcDbLine
 10
467.8058186706443
 20
220.4237785733083
 30
0.000000000000000
 11
467.8058186706443
 21
106.4237785733083
 31
0.000000000000000
  0
LINE
  5
1C9
100
AcDbEntity
  8
1
  6
CONTINUOUS
 62
7
100
AcDbLine
 10
472.3058186706443
 20
192.9934185733080
 30
0.000000000000000
 11
472.3058186706443
 21
137.9237785733083
 31
0.000000000000000
  0
LINE
  5
1CA
100
AcDbEntity
  8
1
  6
CONTINUOUS
 62
7
100
AcDbLine
 10
376.5418186706444
 20
175.5237685733083
 30
0.000000000000000
 11
376.5418186706444
 21
166.3237785733083
 31
0.000000000000000
  0
ARC
  5
1CB
100
AcDbEntity
  8
1
  6
CONTINUOUS
 62
7
100
AcDbCircle
 10
385.2418186706444
 20
170.9237785733083
 30
0.000000000000000
 40
12.00000000000000
100
AcDbArc
 50
164.5059999999994
 51
195.4940000000005
  0
LINE
  5
1CC
100
AcDbEntity
  8
1
  6
CONTINUOUS
 62
7
100
AcDbLine
 10
377.8417186706442
 20
170.7479785733083
 30
0.000000000000000
 11
376.5418186706443
 21
170.3995785733083
 31
0.000000000000000
  0
LINE
  5
1CD
100
AcDbEntity
  8
1
  6
CONTINUOUS
 62
7
100
AcDbLine
 10
377.8419186706443
 20
186.9237785733083
 30
0.000000000000000
 11
377.8419186706443
 21
154.9237785733083
 31
0.000000000000000
  0
LINE
  5
1CE
100
AcDbEntity
  8
1
  6
CONTINUOUS
 62
7
100
AcDbLine
 10
389.5419186706443
 20
186.9237785733083
 30
0.000000000000000
 11
389.5419186706443
 21
124.9237785733083
 31
0.000000000000000
  0
LINE
  5
1CF
100
AcDbEntity
  8
1
  6
CONTINUOUS
 62
7
100
AcDbLine
 10
387.5419186706443
 20
186.9237785733083
 30
0.000000000000000
 11
387.5419186706443
 21
124.9237785733083
 31
0.000000000000000
  0
ARC
  5
1D0
100
AcDbEntity
  8
1
  6
CONTINUOUS
 62
7
100
AcDbCircle
 10
317.1558186706443
 20
170.9237785733083
 30
0.000000000000000
 40
2.450000000000000
100
AcDbArc
 50
35.12899999999824
 51
54.87088999999906
  0
ARC
  5
1D1
100
AcDbEntity
  8
1
  6
CONTINUOUS
 62
7
100
AcDbCircle
 10
317.1558186706443
 20
170.9237785733083
 30
0.000000000000000
 40
2.450000000000000
100
AcDbArc
 50
215.1289999999998
 51
234.8710000000002
  0
CIRCLE
  5
1D2
100
AcDbEntity
  8
1
  6
CONTINUOUS
 62
7
100
AcDbCircle
 10
317.1558186706444
 20
170.9237785733083
 30
0.000000000000000
 40
4.500000000000000
  0
LINE
  5
1D3
100
AcDbEntity
  8
1
  6
CONTINUOUS
 62
7
100
AcDbLine
 10
303.4058186706444
 20
186.9237785733083
 30
0.000000000000000
 11
303.4058186706444
 21
124.9237785733083
 31
0.000000000000000
  0
LINE
  5
1D4
100
AcDbEntity
  8
1
  6
CONTINUOUS
 62
7
100
AcDbLine
 10
299.4058186706443
 20
184.9237785733081
 30
0.000000000000000
 11
299.4058186706443
 21
126.9237785733083
 31
0.000000000000000
  0
LINE
  5
1D5
100
AcDbEntity
  8
1
  6
CONTINUOUS
 62
7
100
AcDbLine
 10
330.9058186706443
 20
186.9237785733083
 30
0.000000000000000
 11
330.9058186706443
 21
124.9237785733083
 31
0.000000000000000
  0
LINE
  5
1D6
100
AcDbEntity
  8
1
  6
CONTINUOUS
 62
7
100
AcDbLine
 10
334.9058186706443
 20
184.9237785733081
 30
0.000000000000000
 11
334.9058186706443
 21
126.9237785733083
 31
0.000000000000000
  0
LINE
  5
1D7
100
AcDbEntity
  8
1
  6
CONTINUOUS
 62
7
100
AcDbLine
 10
256.4698186706441
 20
170.3995785733082
 30
0.000000000000000
 11
257.7698186706443
 21
170.7479785733083
 31
0.000000000000000
  0
ARC
  5
1D8
100
AcDbEntity
  8
1
  6
CONTINUOUS
 62
7
100
AcDbCircle
 10
249.0698186706444
 20
170.9237785733083
 30
0.000000000000000
 40
12.00000000000000
100
AcDbArc
 50
344.5059999999992
 51
375.4940000000005
  0
LINE
  5
1D9
100
AcDbEntity
  8
1
  6
CONTINUOUS
 62
7
100
AcDbLine
 10
257.7698186706444
 20
175.5237685733083
 30
0.000000000000000
 11
257.7698186706444
 21
166.3237785733083
 31
0.000000000000000
  0
LINE
  5
1DA
100
AcDbEntity
  8
1
  6
CONTINUOUS
 62
7
100
AcDbLine
 10
256.4697186706445
 20
186.9237785733083
 30
0.000000000000000
 11
256.4697186706445
 21
154.9237785733083
 31
0.000000000000000
  0
LINE
  5
1DB
100
AcDbEntity
  8
4
  6
CENTER
 62
1
100
AcDbLine
 10
317.1558186706444
 20
226.3750785733082
 30
0.000000000000000
 11
317.1558186706444
 21
101.0523785733083
 31
0.000000000000000
  0
ARC
  5
1DC
100
AcDbEntity
  8
1
  6
CONTINUOUS
 62
7
100
AcDbCircle
 10
254.4697186706445
 20
63.79127857330821
 30
0.000000000000000
 40
2.000000000000000
100
AcDbArc
 50
0.000000000000000
 51
90.00000000000000
  0
ARC
  5
1DD
100
AcDbEntity
  8
1
  6
CONTINUOUS
 62
7
100
AcDbCircle
 10
249.0698186706444
 20
52.04127857330832
 30
0.000000000000000
 40
12.00000000000000
100
AcDbArc
 50
344.5059999999992
 51
375.4940000000005
  0
LINE
  5
1DE
100
AcDbEntity
  8
1
  6
CONTINUOUS
 62
7
100
AcDbLine
 10
257.7698186706444
 20
47.44137857330827
 30
0.000000000000000
 11
257.7698186706444
 21
56.64127857330822
 31
0.000000000000000
  0
LINE
  5
1DF
100
AcDbEntity
  8
1
  6
CONTINUOUS
 62
7
100
AcDbLine
 10
254.4697186706445
 20
40.29127857330840
 30
0.000000000000000
 11
254.4697186706445
 21
63.79127857330821
 31
0.000000000000000
  0
LINE
  5
1E0
100
AcDbEntity
  8
1
  6
CONTINUOUS
 62
7
100
AcDbLine
 10
256.4697186706445
 20
40.29127857330840
 30
0.000000000000000
 11
256.4697186706445
 21
63.79127857330821
 31
0.000000000000000
  0
LINE
  5
1E1
100
AcDbEntity
  8
1
  6
CONTINUOUS
 62
7
100
AcDbLine
 10
256.4697186706445
 20
47.44137857330827
 30
0.000000000000000
 11
257.7698186706444
 21
47.44137857330827
 31
0.000000000000000
  0
ARC
  5
1E2
100
AcDbEntity
  8
1
  6
CONTINUOUS
 62
7
100
AcDbCircle
 10
254.4697186706445
 20
40.29127857330840
 30
0.000000000000000
 40
2.000000000000000
100
AcDbArc
 50
270.0000000000000
 51
360.0000000000000
  0
ARC
  5
1E3
100
AcDbEntity
  8
1
  6
CONTINUOUS
 62
7
100
AcDbCircle
 10
259.0918186706445
 20
49.26307857330822
 30
0.000000000000000
 40
1.600000000000000
100
AcDbArc
 50
275.0000999999997
 51
344.5059999999992
  0
LINE
  5
1E4
100
AcDbEntity
  8
1
  6
CONTINUOUS
 62
7
100
AcDbLine
 10
259.2313186706445
 20
47.66917857330827
 30
0.000000000000000
 11
257.7698186706444
 21
47.54127857330831
 31
0.000000000000000
  0
LINE
  5
1E5
100
AcDbEntity
  8
1
  6
CONTINUOUS
 62
7
100
AcDbLine
 10
256.4697186706445
 20
56.64127857330822
 30
0.000000000000000
 11
257.7698186706444
 21
56.64127857330822
 31
0.000000000000000
  0
LINE
  5
1E6
100
AcDbEntity
  8
1
  6
CONTINUOUS
 62
7
100
AcDbLine
 10
256.4698186706443
 20
51.51707857330838
 30
0.000000000000000
 11
257.7698186706444
 21
51.86537857330843
 31
0.000000000000000
  0
LINE
  5
1E7
100
AcDbEntity
  8
1
  6
CONTINUOUS
 62
7
100
AcDbLine
 10
256.4699186706445
 20
52.21707857330842
 30
0.000000000000000
 11
257.7698186706444
 21
52.56537857330841
 31
0.000000000000000
  0
LINE
  5
1E8
100
AcDbEntity
  8
4
  6
CENTER
 62
1
100
AcDbLine
 10
251.3921186706444
 20
52.04127857330832
 30
0.000000000000000
 11
263.8367186706444
 21
52.04127857330832
 31
0.000000000000000
  0
ARC
  5
1E9
100
AcDbEntity
  8
1
  6
CONTINUOUS
 62
7
100
AcDbCircle
 10
259.0918186706445
 20
54.81947857330824
 30
0.000000000000000
 40
1.600000000000000
100
AcDbArc
 50
15.49400000000056
 51
85.00000000000018
  0
LINE
  5
1EA
100
AcDbEntity
  8
1
  6
CONTINUOUS
 62
7
100
AcDbLine
 10
259.2313186706446
 20
56.41337857330825
 30
0.000000000000000
 11
257.7698186706444
 21
56.54127857330832
 31
0.000000000000000
  0
LINE
  5
1EB
100
AcDbEntity
  8
1
  6
CONTINUOUS
 62
7
100
AcDbLine
 10
303.4058186706444
 20
154.9237785733083
 30
0.000000000000000
 11
330.9058186706443
 21
154.9237785733083
 31
0.000000000000000
  0
LINE
  5
1EC
100
AcDbEntity
  8
1
  6
CONTINUOUS
 62
7
100
AcDbLine
 10
306.6558186706444
 20
153.9237785733083
 30
0.000000000000000
 11
327.6558186706444
 21
153.9237785733083
 31
0.000000000000000
  0
LINE
  5
1ED
100
AcDbEntity
  8
1
  6
CONTINUOUS
 62
7
100
AcDbLine
 10
324.1809868770317
 20
139.2817112309220
 30
0.000000000000000
 11
324.3975736841090
 21
139.4908027061187
 31
0.000000000000000
  0
LINE
  5
1EE
100
AcDbEntity
  8
1
  6
CONTINUOUS
 62
7
100
AcDbLine
 10
324.5137513282581
 20
138.9489467796956
 30
0.000000000000000
 11
324.7228428034548
 21
139.1655335867730
 31
0.000000000000000
  0
CIRCLE
  5
1EF
100
AcDbEntity
  8
1
  6
CONTINUOUS
 62
7
100
AcDbCircle
 10
323.6558186706444
 20
138.4237785733082
 30
0.000000000000000
 40
2.600000000000000
  0
LINE
  5
1F0
100
AcDbEntity
  8
4
  6
CENTER
 62
1
100
AcDbLine
 10
319.6558186706444
 20
138.4237785733082
 30
0.000000000000000
 11
327.6558186706444
 21
138.4237785733082
 31
0.000000000000000
  0
ARC
  5
1F1
100
AcDbEntity
  8
1
  6
CONTINUOUS
 62
7
100
AcDbCircle
 10
317.1558186706444
 20
127.4237785733083
 30
0.000000000000000
 40
11.50000000000000
100
AcDbArc
 50
180.0000000000000
 51
360.0000000000000
  0
LINE
  5
1F2
100
AcDbEntity
  8
1
  6
CONTINUOUS
 62
7
100
AcDbLine
 10
325.6558186706444
 20
115.9237785733083
 30
0.000000000000000
 11
308.6558186706444
 21
115.9237785733083
 31
0.000000000000000
  0
LINE
  5
1F3
100
AcDbEntity
  8
1
  6
CONTINUOUS
 62
7
100
AcDbLine
 10
326.1558186706444
 20
106.4237785733083
 30
0.000000000000000
 11
308.1558186706443
 21
106.4237785733083
 31
0.000000000000000
  0
ARC
  5
1F4
100
AcDbEntity
  8
1
  6
CONTINUOUS
 62
7
100
AcDbCircle
 10
308.6558186706444
 20
118.9237785733083
 30
0.000000000000000
 40
3.000000000000000
100
AcDbArc
 50
180.0000000000000
 51
270.0000000000000
  0
LINE
  5
1F5
100
AcDbEntity
  8
1
  6
CONTINUOUS
 62
7
100
AcDbLine
 10
303.1558186706444
 20
124.9237785733083
 30
0.000000000000000
 11
303.1558186706444
 21
111.4237785733082
 31
0.000000000000000
  0
ARC
  5
1F6
100
AcDbEntity
  8
1
  6
CONTINUOUS
 62
7
100
AcDbCircle
 10
308.1558186706443
 20
111.4237785733082
 30
0.000000000000000
 40
5.000000000000000
100
AcDbArc
 50
180.0000000000000
 51
270.0000000000000
  0
LINE
  5
1F7
100
AcDbEntity
  8
1
  6
CONTINUOUS
 62
7
100
AcDbLine
 10
254.4697186706445
 20
154.9237785733083
 30
0.000000000000000
 11
254.4697186706445
 21
126.9237785733083
 31
0.000000000000000
  0
ARC
  5
1F8
100
AcDbEntity
  8
1
  6
CONTINUOUS
 62
7
100
AcDbCircle
 10
252.4697186706445
 20
126.9237785733083
 30
0.000000000000000
 40
2.000000000000000
100
AcDbArc
 50
270.0000000000000
 51
360.0000000000000
  0
LINE
  5
1F9
100
AcDbEntity
  8
1
  6
CONTINUOUS
 62
7
100
AcDbLine
 10
254.4697186706445
 20
154.9237785733083
 30
0.000000000000000
 11
256.4697186706445
 21
154.9237785733083
 31
0.000000000000000
  0
LINE
  5
1FA
100
AcDbEntity
  8
1
  6
CONTINUOUS
 62
7
100
AcDbLine
 10
256.4697186706445
 20
166.3237785733083
 30
0.000000000000000
 11
257.7698186706444
 21
166.3237785733083
 31
0.000000000000000
  0
ARC
  5
1FB
100
AcDbEntity
  8
1
  6
CONTINUOUS
 62
7
100
AcDbCircle
 10
259.0918186706445
 20
168.1455785733082
 30
0.000000000000000
 40
1.600000000000000
100
AcDbArc
 50
274.9999999999998
 51
344.5059999999992
  0
LINE
  5
1FC
100
AcDbEntity
  8
1
  6
CONTINUOUS
 62
7
100
AcDbLine
 10
259.2313186706446
 20
166.5516785733082
 30
0.000000000000000
 11
257.7698186706444
 21
166.4237785733083
 31
0.000000000000000
  0
LINE
  5
1FD
100
AcDbEntity
  8
1
  6
CONTINUOUS
 62
7
100
AcDbLine
 10
305.6558186706443
 20
154.9237785733083
 30
0.000000000000000
 11
305.6558186706443
 21
118.9237785733083
 31
0.000000000000000
  0
LINE
  5
1FE
100
AcDbEntity
  8
1
  6
CONTINUOUS
 62
7
100
AcDbLine
 10
305.4058186706444
 20
154.9237785733083
 30
0.000000000000000
 11
305.4058186706444
 21
124.9237785733083
 31
0.000000000000000
  0
ARC
  5
1FF
100
AcDbEntity
  8
1
  6
CONTINUOUS
 62
7
100
AcDbCircle
 10
301.4058186706443
 20
126.9237785733083
 30
0.000000000000000
 40
2.000000000000000
100
AcDbArc
 50
180.0000000000000
 51
270.0000000000000
  0
LINE
  5
200
100
AcDbEntity
  8
1
  6
CONTINUOUS
 62
7
100
AcDbLine
 10
301.4058186706443
 20
124.9237785733083
 30
0.000000000000000
 11
305.4058186706444
 21
124.9237785733083
 31
0.000000000000000
  0
LINE
  5
201
100
AcDbEntity
  8
4
  6
CENTER
 62
1
100
AcDbLine
 10
310.6558186706444
 20
142.4237785733083
 30
0.000000000000000
 11
310.6558186706444
 21
134.4237785733083
 31
0.000000000000000
  0
LINE
  5
202
100
AcDbEntity
  8
1
  6
CONTINUOUS
 62
7
100
AcDbLine
 10
311.5133977748673
 20
137.8985396562429
 30
0.000000000000000
 11
311.7231963568455
 21
137.6816700064530
 31
0.000000000000000
  0
LINE
  5
203
100
AcDbEntity
  8
1
  6
CONTINUOUS
 62
7
100
AcDbLine
 10
311.1810575877095
 20
137.5661994690852
 30
0.000000000000000
 11
311.3979272374996
 21
137.3564008871072
 31
0.000000000000000
  0
CIRCLE
  5
204
100
AcDbEntity
  8
1
  6
CONTINUOUS
 62
7
100
AcDbCircle
 10
310.6558186706444
 20
138.4237785733082
 30
0.000000000000000
 40
2.600000000000000
  0
ARC
  5
205
100
AcDbEntity
  8
1
  6
CONTINUOUS
 62
7
100
AcDbCircle
 10
310.6558186706444
 20
138.4237785733082
 30
0.000000000000000
 40
1.300000000000000
100
AcDbArc
 50
304.8090000000029
 51
325.1909999999970
  0
LINE
  5
206
100
AcDbEntity
  8
1
  6
CONTINUOUS
 62
7
100
AcDbLine
 10
310.6558186706444
 20
137.7675834803672
 30
0.000000000000000
 11
311.1810575877096
 21
137.5661994690852
 31
0.000000000000000
  0
LINE
  5
207
100
AcDbEntity
  8
1
  6
CONTINUOUS
 62
7
100
AcDbLine
 10
309.9996235777031
 20
138.4237785733084
 30
0.000000000000000
 11
309.7982395664212
 21
138.9490174903735
 31
0.000000000000000
  0
LINE
  5
208
100
AcDbEntity
  8
4
  6
CENTER
 62
1
100
AcDbLine
 10
306.6558186706444
 20
138.4237785733082
 30
0.000000000000000
 11
314.6558186706443
 21
138.4237785733082
 31
0.000000000000000
  0
ARC
  5
209
100
AcDbEntity
  8
1
  6
CONTINUOUS
 62
7
100
AcDbCircle
 10
310.6558186706444
 20
138.4237785733082
 30
0.000000000000000
 40
1.300000000000000
100
AcDbArc
 50
214.8089999999996
 51
235.1910000000002
  0
LINE
  5
20A
100
AcDbEntity
  8
1
  6
CONTINUOUS
 62
7
100
AcDbLine
 10
309.9996235777031
 20
138.4237785733084
 30
0.000000000000000
 11
309.7978860130307
 21
137.8986103669211
 31
0.000000000000000
  0
LINE
  5
20B
100
AcDbEntity
  8
1
  6
CONTINUOUS
 62
7
100
AcDbLine
 10
309.7978860130308
 20
137.8986103669211
 30
0.000000000000000
 11
309.5887945378339
 21
137.6820235598436
 31
0.000000000000000
  0
LINE
  5
20C
100
AcDbEntity
  8
1
  6
CONTINUOUS
 62
7
100
AcDbLine
 10
310.6558186706444
 20
137.7675834803672
 30
0.000000000000000
 11
310.1306504642571
 21
137.5658459156948
 31
0.000000000000000
  0
LINE
  5
20D
100
AcDbEntity
  8
1
  6
CONTINUOUS
 62
7
100
AcDbLine
 10
310.1306504642573
 20
137.5658459156948
 30
0.000000000000000
 11
309.9140636571798
 21
137.3567544404978
 31
0.000000000000000
  0
ARC
  5
20E
100
AcDbEntity
  8
1
  6
CONTINUOUS
 62
7
100
AcDbCircle
 10
310.6558186706444
 20
138.4237785733082
 30
0.000000000000000
 40
1.300000000000000
100
AcDbArc
 50
34.80899999999966
 51
55.19059999999914
  0
LINE
  5
20F
100
AcDbEntity
  8
1
  6
CONTINUOUS
 62
7
100
AcDbLine
 10
311.3120137635854
 20
138.4237785733082
 30
0.000000000000000
 11
311.5133977748673
 21
137.8985396562429
 31
0.000000000000000
  0
LINE
  5
210
100
AcDbEntity
  8
1
  6
CONTINUOUS
 62
7
100
AcDbLine
 10
310.6558186706444
 20
139.0799736662494
 30
0.000000000000000
 11
310.1305797535791
 21
139.2813576775312
 31
0.000000000000000
  0
LINE
  5
211
100
AcDbEntity
  8
1
  6
CONTINUOUS
 62
7
100
AcDbLine
 10
310.1305797535790
 20
139.2813576775312
 30
0.000000000000000
 11
309.9137101037891
 21
139.4911562595094
 31
0.000000000000000
  0
LINE
  5
212
100
AcDbEntity
  8
1
  6
CONTINUOUS
 62
7
100
AcDbLine
 10
311.1809868770317
 20
139.2817112309220
 30
0.000000000000000
 11
311.3982807908904
 21
139.4915098129001
 31
0.000000000000000
  0
LINE
  5
213
100
AcDbEntity
  8
1
  6
CONTINUOUS
 62
7
100
AcDbLine
 10
310.6558186706442
 20
139.0799736662493
 30
0.000000000000000
 11
311.1809868770316
 21
139.2817112309220
 31
0.000000000000000
  0
LINE
  5
214
100
AcDbEntity
  8
1
  6
CONTINUOUS
 62
7
100
AcDbLine
 10
311.5137513282580
 20
138.9489467796956
 30
0.000000000000000
 11
311.7228428034549
 21
139.1655335867730
 31
0.000000000000000
  0
LINE
  5
215
100
AcDbEntity
  8
1
  6
CONTINUOUS
 62
7
100
AcDbLine
 10
311.3120137635854
 20
138.4237785733082
 30
0.000000000000000
 11
311.5137513282580
 21
138.9489467796956
 31
0.000000000000000
  0
LINE
  5
216
100
AcDbEntity
  8
1
  6
CONTINUOUS
 62
7
100
AcDbLine
 10
309.7982395664213
 20
138.9490174903735
 30
0.000000000000000
 11
309.5884409844433
 21
139.1658871401636
 31
0.000000000000000
  0
ARC
  5
217
100
AcDbEntity
  8
1
  6
CONTINUOUS
 62
7
100
AcDbCircle
 10
310.6558186706444
 20
138.4237785733082
 30
0.000000000000000
 40
1.300000000000000
100
AcDbArc
 50
124.8094000000023
 51
145.1909999999970
  0
LINE
  5
218
100
AcDbEntity
  8
4
  6
CENTER
 62
1
100
AcDbLine
 10
323.6558186706444
 20
142.4237785733083
 30
0.000000000000000
 11
323.6558186706444
 21
134.4237785733083
 31
0.000000000000000
  0
LINE
  5
219
100
AcDbEntity
  8
1
  6
CONTINUOUS
 62
7
100
AcDbLine
 10
324.1810575877097
 20
137.5661994690851
 30
0.000000000000000
 11
324.3979272374996
 21
137.3564008871072
 31
0.000000000000000
  0
LINE
  5
21A
100
AcDbEntity
  8
1
  6
CONTINUOUS
 62
7
100
AcDbLine
 10
324.5133977748673
 20
137.8985396562428
 30
0.000000000000000
 11
324.7231963568454
 21
137.6816700064530
 31
0.000000000000000
  0
ARC
  5
21B
100
AcDbEntity
  8
1
  6
CONTINUOUS
 62
7
100
AcDbCircle
 10
323.6558186706444
 20
138.4237785733082
 30
0.000000000000000
 40
1.300000000000000
100
AcDbArc
 50
304.8090000000029
 51
325.1909999999970
  0
LINE
  5
21C
100
AcDbEntity
  8
1
  6
CONTINUOUS
 62
7
100
AcDbLine
 10
323.6558186706445
 20
139.0799736662494
 30
0.000000000000000
 11
324.1809868770318
 21
139.2817112309220
 31
0.000000000000000
  0
LINE
  5
21D
100
AcDbEntity
  8
1
  6
CONTINUOUS
 62
7
100
AcDbLine
 10
324.3120137635855
 20
138.4237785733082
 30
0.000000000000000
 11
324.5137513282581
 21
138.9489467796956
 31
0.000000000000000
  0
ARC
  5
21E
100
AcDbEntity
  8
1
  6
CONTINUOUS
 62
7
100
AcDbCircle
 10
323.6558186706444
 20
138.4237785733082
 30
0.000000000000000
 40
1.300000000000000
100
AcDbArc
 50
214.8089999999996
 51
235.1910000000002
  0
ARC
  5
21F
100
AcDbEntity
  8
1
  6
CONTINUOUS
 62
7
100
AcDbCircle
 10
323.6558186706444
 20
138.4237785733082
 30
0.000000000000000
 40
1.300000000000000
100
AcDbArc
 50
124.8094000000023
 51
145.1909999999970
  0
LINE
  5
220
100
AcDbEntity
  8
1
  6
CONTINUOUS
 62
7
100
AcDbLine
 10
323.6558186706445
 20
137.7675834803672
 30
0.000000000000000
 11
324.1810575877096
 21
137.5661994690851
 31
0.000000000000000
  0
LINE
  5
221
100
AcDbEntity
  8
1
  6
CONTINUOUS
 62
7
100
AcDbLine
 10
324.3120137635855
 20
138.4237785733082
 30
0.000000000000000
 11
324.5133977748674
 21
137.8985396562428
 31
0.000000000000000
  0
LINE
  5
222
100
AcDbEntity
  8
1
  6
CONTINUOUS
 62
7
100
AcDbLine
 10
322.9996235777032
 20
138.4237785733082
 30
0.000000000000000
 11
322.7978860130307
 21
137.8986103669211
 31
0.000000000000000
  0
LINE
  5
223
100
AcDbEntity
  8
1
  6
CONTINUOUS
 62
7
100
AcDbLine
 10
322.7978860130307
 20
137.8986103669211
 30
0.000000000000000
 11
322.5887945378337
 21
137.6820235598436
 31
0.000000000000000
  0
LINE
  5
224
100
AcDbEntity
  8
1
  6
CONTINUOUS
 62
7
100
AcDbLine
 10
323.6558186706444
 20
137.7675834803672
 30
0.000000000000000
 11
323.1306504642573
 21
137.5658459156947
 31
0.000000000000000
  0
LINE
  5
225
100
AcDbEntity
  8
1
  6
CONTINUOUS
 62
7
100
AcDbLine
 10
323.1306504642573
 20
137.5658459156947
 30
0.000000000000000
 11
322.9140636571797
 21
137.3567544404978
 31
0.000000000000000
  0
LINE
  5
226
100
AcDbEntity
  8
1
  6
CONTINUOUS
 62
7
100
AcDbLine
 10
323.6558186706444
 20
139.0799736662494
 30
0.000000000000000
 11
323.1305797535790
 21
139.2813576775312
 31
0.000000000000000
  0
LINE
  5
227
100
AcDbEntity
  8
1
  6
CONTINUOUS
 62
7
100
AcDbLine
 10
323.1305797535791
 20
139.2813576775312
 30
0.000000000000000
 11
322.9137101037892
 21
139.4911562595094
 31
0.000000000000000
  0
LINE
  5
228
100
AcDbEntity
  8
1
  6
CONTINUOUS
 62
7
100
AcDbLine
 10
322.9996235777033
 20
138.4237785733082
 30
0.000000000000000
 11
322.7982395664213
 21
138.9490174903735
 31
0.000000000000000
  0
LINE
  5
229
100
AcDbEntity
  8
1
  6
CONTINUOUS
 62
7
100
AcDbLine
 10
322.7982395664213
 20
138.9490174903735
 30
0.000000000000000
 11
322.5884409844434
 21
139.1658871401636
 31
0.000000000000000
  0
ARC
  5
22A
100
AcDbEntity
  8
1
  6
CONTINUOUS
 62
7
100
AcDbCircle
 10
306.6558186706444
 20
152.9237785733083
 30
0.000000000000000
 40
1.000000000000000
100
AcDbArc
 50
90.00000000000000
 51
180.0000000000000
  0
LINE
  5
22B
100
AcDbEntity
  8
1
  6
CONTINUOUS
 62
7
100
AcDbLine
 10
316.5272007421697
 20
169.6743208909515
 30
0.000000000000000
 11
315.7458477489582
 21
168.9198379554255
 31
0.000000000000000
  0
LINE
  5
22C
100
AcDbEntity
  8
1
  6
CONTINUOUS
 62
7
100
AcDbLine
 10
318.4052763530011
 20
171.5523965017830
 30
0.000000000000000
 11
319.1597592885272
 21
172.3337494949944
 31
0.000000000000000
  0
ARC
  5
22D
100
AcDbEntity
  8
1
  6
CONTINUOUS
 62
7
100
AcDbCircle
 10
317.1558186706443
 20
170.9237785733083
 30
0.000000000000000
 40
2.450000000000000
100
AcDbArc
 50
305.1290000000001
 51
324.8709999999996
  0
LINE
  5
22E
100
AcDbEntity
  8
1
  6
CONTINUOUS
 62
7
100
AcDbLine
 10
317.7842951777632
 20
169.6744623123080
 30
0.000000000000000
 11
318.5655774602961
 21
168.9200500874601
 31
0.000000000000000
  0
LINE
  5
22F
100
AcDbEntity
  8
1
  6
CONTINUOUS
 62
7
100
AcDbLine
 10
317.1555358279318
 20
169.9029992239871
 30
0.000000000000000
 11
317.7842951777631
 21
169.6744623123080
 31
0.000000000000000
  0
LINE
  5
230
100
AcDbEntity
  8
1
  6
CONTINUOUS
 62
7
100
AcDbLine
 10
317.1555358279318
 20
169.9029992239871
 30
0.000000000000000
 11
316.5272007421698
 21
169.6743208909515
 31
0.000000000000000
  0
LINE
  5
231
100
AcDbEntity
  8
1
  6
CONTINUOUS
 62
7
100
AcDbLine
 10
318.4051349316446
 20
170.2953020661895
 30
0.000000000000000
 11
319.1595471564926
 21
169.5140197836567
 31
0.000000000000000
  0
LINE
  5
232
100
AcDbEntity
  8
1
  6
CONTINUOUS
 62
7
100
AcDbLine
 10
318.1765980199653
 20
170.9240614160209
 30
0.000000000000000
 11
318.4051349316447
 21
170.2953020661895
 31
0.000000000000000
  0
LINE
  5
233
100
AcDbEntity
  8
1
  6
CONTINUOUS
 62
7
100
AcDbLine
 10
318.1765980199653
 20
170.9240614160209
 30
0.000000000000000
 11
318.4052056423228
 21
171.5524672124612
 31
0.000000000000000
  0
ARC
  5
234
100
AcDbEntity
  8
1
  6
CONTINUOUS
 62
7
100
AcDbCircle
 10
325.6558186706444
 20
118.9237785733083
 30
0.000000000000000
 40
3.000000000000000
100
AcDbArc
 50
270.0000000000000
 51
360.0000000000000
  0
LINE
  5
235
100
AcDbEntity
  8
1
  6
CONTINUOUS
 62
7
100
AcDbLine
 10
331.1558186706443
 20
124.9237785733083
 30
0.000000000000000
 11
331.1558186706443
 21
111.4237785733082
 31
0.000000000000000
  0
ARC
  5
236
100
AcDbEntity
  8
1
  6
CONTINUOUS
 62
7
100
AcDbCircle
 10
326.1558186706444
 20
111.4237785733082
 30
0.000000000000000
 40
5.000000000000000
100
AcDbArc
 50
270.0000000000000
 51
360.0000000000000
  0
LINE
  5
237
100
AcDbEntity
  8
1
  6
CONTINUOUS
 62
7
100
AcDbLine
 10
328.6558186706443
 20
154.9237785733083
 30
0.000000000000000
 11
328.6558186706443
 21
118.9237785733083
 31
0.000000000000000
  0
LINE
  5
238
100
AcDbEntity
  8
1
  6
CONTINUOUS
 62
7
100
AcDbLine
 10
328.9058186706443
 20
154.9237785733083
 30
0.000000000000000
 11
328.9058186706443
 21
124.9237785733083
 31
0.000000000000000
  0
ARC
  5
239
100
AcDbEntity
  8
1
  6
CONTINUOUS
 62
7
100
AcDbCircle
 10
332.9058186706443
 20
126.9237785733083
 30
0.000000000000000
 40
2.000000000000000
100
AcDbArc
 50
270.0000000000000
 51
360.0000000000000
  0
LINE
  5
23A
100
AcDbEntity
  8
1
  6
CONTINUOUS
 62
7
100
AcDbLine
 10
328.9058186706443
 20
124.9237785733083
 30
0.000000000000000
 11
332.9058186706443
 21
124.9237785733083
 31
0.000000000000000
  0
ARC
  5
23B
100
AcDbEntity
  8
1
  6
CONTINUOUS
 62
7
100
AcDbCircle
 10
323.6558186706444
 20
138.4237785733082
 30
0.000000000000000
 40
1.300000000000000
100
AcDbArc
 50
34.80899999999966
 51
55.19059999999914
  0
ARC
  5
23C
100
AcDbEntity
  8
1
  6
CONTINUOUS
 62
7
100
AcDbCircle
 10
327.6558186706444
 20
152.9237785733083
 30
0.000000000000000
 40
1.000000000000000
100
AcDbArc
 50
0.000000000000000
 51
90.00000000000000
  0
LINE
  5
23D
100
AcDbEntity
  8
1
  6
CONTINUOUS
 62
7
100
AcDbLine
 10
379.8419186706443
 20
154.9237785733083
 30
0.000000000000000
 11
379.8419186706443
 21
126.9237785733083
 31
0.000000000000000
  0
LINE
  5
23E
100
AcDbEntity
  8
1
  6
CONTINUOUS
 62
7
100
AcDbLine
 10
389.5419186706443
 20
124.9237785733083
 30
0.000000000000000
 11
381.8419186706443
 21
124.9237785733083
 31
0.000000000000000
  0
ARC
  5
23F
100
AcDbEntity
  8
1
  6
CONTINUOUS
 62
7
100
AcDbCircle
 10
381.8419186706443
 20
126.9237785733083
 30
0.000000000000000
 40
2.000000000000000
100
AcDbArc
 50
180.0000000000000
 51
270.0000000000000
  0
LINE
  5
240
100
AcDbEntity
  8
1
  6
CONTINUOUS
 62
7
100
AcDbLine
 10
379.8419186706443
 20
154.9237785733083
 30
0.000000000000000
 11
377.8419186706443
 21
154.9237785733083
 31
0.000000000000000
  0
LINE
  5
241
100
AcDbEntity
  8
1
  6
CONTINUOUS
 62
7
100
AcDbLine
 10
375.0803186706441
 20
166.5516785733082
 30
0.000000000000000
 11
376.5418186706443
 21
166.4237785733083
 31
0.000000000000000
  0
ARC
  5
242
100
AcDbEntity
  8
1
  6
CONTINUOUS
 62
7
100
AcDbCircle
 10
375.2198186706441
 20
168.1455785733082
 30
0.000000000000000
 40
1.600000000000000
100
AcDbArc
 50
195.4940000000005
 51
265.0000000000002
  0
LINE
  5
243
100
AcDbEntity
  8
1
  6
CONTINUOUS
 62
7
100
AcDbLine
 10
377.8419186706443
 20
166.3237785733083
 30
0.000000000000000
 11
376.5418186706444
 21
166.3237785733083
 31
0.000000000000000
  0
LINE
  5
244
100
AcDbEntity
  8
1
  6
CONTINUOUS
 62
7
100
AcDbLine
 10
466.8058186706441
 20
126.7481785733083
 30
0.000000000000000
 11
466.8058186706441
 21
116.9485785733082
 31
0.000000000000000
  0
ARC
  5
245
100
AcDbEntity
  8
1
  6
CONTINUOUS
 62
7
100
AcDbCircle
 10
444.8058186706441
 20
117.5127785733083
 30
0.000000000000000
 40
1.000000000000000
100
AcDbArc
 50
180.0000000000000
 51
268.5949999999983
  0
LINE
  5
246
100
AcDbEntity
  8
1
  6
CONTINUOUS
 62
7
100
AcDbLine
 10
467.8058186706444
 20
115.9482785733083
 30
0.000000000000000
 11
444.7813186706445
 21
116.5130785733082
 31
0.000000000000000
  0
LINE
  5
247
100
AcDbEntity
  8
1
  6
CONTINUOUS
 62
7
100
AcDbLine
 10
470.3058186706441
 20
106.4237785733083
 30
0.000000000000000
 11
467.8058186706443
 21
106.4237785733083
 31
0.000000000000000
  0
ARC
  5
248
100
AcDbEntity
  8
1
  6
CONTINUOUS
 62
7
100
AcDbCircle
 10
467.8058186706443
 20
116.9485785733082
 30
0.000000000000000
 40
1.000000000000000
100
AcDbArc
 50
180.0000000000000
 51
270.0000000000000
  0
LINE
  5
249
100
AcDbEntity
  8
1
  6
CONTINUOUS
 62
7
100
AcDbLine
 10
471.8058186706442
 20
109.4237785733082
 30
0.000000000000000
 11
470.3058186706442
 21
106.4237785733084
 31
0.000000000000000
  0
LINE
  5
24A
100
AcDbEntity
  8
1
  6
CONTINUOUS
 62
7
100
AcDbLine
 10
443.8058186706443
 20
152.5923785733082
 30
0.000000000000000
 11
443.8058186706443
 21
117.5127785733083
 31
0.000000000000000
  0
ARC
  5
24B
100
AcDbEntity
  8
1
  6
CONTINUOUS
 62
7
100
AcDbCircle
 10
471.3058186706441
 20
137.9237785733083
 30
0.000000000000000
 40
1.000000000000000
100
AcDbArc
 50
299.9999999999998
 51
360.0000000000000
  0
LINE
  5
24C
100
AcDbEntity
  8
1
  6
CONTINUOUS
 62
7
100
AcDbLine
 10
457.8180786706442
 20
153.9117785733083
 30
0.000000000000000
 11
444.7813186706445
 21
153.5920785733083
 31
0.000000000000000
  0
ARC
  5
24D
100
AcDbEntity
  8
1
  6
CONTINUOUS
 62
7
100
AcDbCircle
 10
444.8058186706441
 20
152.5923785733082
 30
0.000000000000000
 40
1.000000000000000
100
AcDbArc
 50
91.40509999999790
 51
180.0000000000000
  0
ARC
  5
24E
100
AcDbEntity
  8
1
  6
CONTINUOUS
 62
7
100
AcDbCircle
 10
457.8058186706441
 20
154.4116785733083
 30
0.000000000000000
 40
0.5000000000000000
100
AcDbArc
 50
271.4050000000016
 51
360.0000000000000
  0
LINE
  5
24F
100
AcDbEntity
  8
1
  6
CONTINUOUS
 62
7
100
AcDbLine
 10
458.3058186706441
 20
166.4237785733083
 30
0.000000000000000
 11
457.8058186706441
 21
166.4237785733083
 31
0.000000000000000
  0
LINE
  5
250
100
AcDbEntity
  8
1
  6
CONTINUOUS
 62
7
100
AcDbLine
 10
254.4697186706445
 20
287.1361785733082
 30
0.000000000000000
 11
254.4697186706445
 21
263.6361785733083
 31
0.000000000000000
  0
LINE
  5
251
100
AcDbEntity
  8
1
  6
CONTINUOUS
 62
7
100
AcDbLine
 10
256.4697186706445
 20
287.1361785733082
 30
0.000000000000000
 11
256.4697186706445
 21
263.6361785733083
 31
0.000000000000000
  0
ARC
  5
252
100
AcDbEntity
  8
1
  6
CONTINUOUS
 62
7
100
AcDbCircle
 10
249.0698186706444
 20
275.3861785733081
 30
0.000000000000000
 40
12.00000000000000
100
AcDbArc
 50
344.5059999999992
 51
375.4940000000005
  0
LINE
  5
253
100
AcDbEntity
  8
1
  6
CONTINUOUS
 62
7
100
AcDbLine
 10
257.7698186706444
 20
279.9860785733082
 30
0.000000000000000
 11
257.7698186706444
 21
270.7861785733083
 31
0.000000000000000
  0
ARC
  5
254
100
AcDbEntity
  8
1
  6
CONTINUOUS
 62
7
100
AcDbCircle
 10
317.1558186706444
 20
199.4237785733083
 30
0.000000000000000
 40
11.25000000000000
100
AcDbArc
 50
210.0000000000008
 51
420.0000000000000
  0
ARC
  5
255
100
AcDbEntity
  8
1
  6
CONTINUOUS
 62
7
100
AcDbCircle
 10
317.1558186706444
 20
199.4237785733083
 30
0.000000000000000
 40
11.50000000000000
100
AcDbArc
 50
119.9999999999999
 51
420.0000000000000
  0
LINE
  5
256
100
AcDbEntity
  8
1
  6
CONTINUOUS
 62
7
100
AcDbLine
 10
308.6558186706444
 20
187.9237785733083
 30
0.000000000000000
 11
325.6558186706444
 21
187.9237785733083
 31
0.000000000000000
  0
CIRCLE
  5
257
100
AcDbEntity
  8
1
  6
CONTINUOUS
 62
7
100
AcDbCircle
 10
317.1558186706444
 20
199.4237785733083
 30
0.000000000000000
 40
9.000000000000000
  0
LINE
  5
258
100
AcDbEntity
  8
1
  6
CONTINUOUS
 62
7
100
AcDbLine
 10
325.6558186706444
 20
210.9237785733083
 30
0.000000000000000
 11
308.6558186706444
 21
210.9237785733083
 31
0.000000000000000
  0
LINE
  5
259
100
AcDbEntity
  8
4
  6
CENTER
 62
1
100
AcDbLine
 10
335.2098186706445
 20
199.4237785733083
 30
0.000000000000000
 11
300.4158186706446
 21
199.4237785733083
 31
0.000000000000000
  0
LINE
  5
25A
100
AcDbEntity
  8
1
  6
CONTINUOUS
 62
7
100
AcDbLine
 10
326.1558186706444
 20
220.4237785733083
 30
0.000000000000000
 11
308.1558186706443
 21
220.4237785733083
 31
0.000000000000000
  0
LINE
  5
25B
100
AcDbEntity
  8
1
  6
CONTINUOUS
 62
7
100
AcDbLine
 10
301.4058186706443
 20
186.9237785733083
 30
0.000000000000000
 11
332.9058186706443
 21
186.9237785733083
 31
0.000000000000000
  0
LINE
  5
25C
100
AcDbEntity
  8
4
  6
CENTER
 62
1
100
AcDbLine
 10
310.0088186706444
 20
170.9237785733083
 30
0.000000000000000
 11
325.3778186706446
 21
170.9237785733083
 31
0.000000000000000
  0
LINE
  5
25D
100
AcDbEntity
  8
1
  6
CONTINUOUS
 62
7
100
AcDbLine
 10
256.4699186706444
 20
171.0995785733081
 30
0.000000000000000
 11
257.7698186706444
 21
171.4479785733082
 31
0.000000000000000
  0
LINE
  5
25E
100
AcDbEntity
  8
1
  6
CONTINUOUS
 62
7
100
AcDbLine
 10
256.4697186706445
 20
175.5237685733083
 30
0.000000000000000
 11
257.7698186706444
 21
175.5237685733083
 31
0.000000000000000
  0
LINE
  5
25F
100
AcDbEntity
  8
4
  6
CENTER
 62
1
100
AcDbLine
 10
252.5514186706444
 20
170.9237785733083
 30
0.000000000000000
 11
264.4257186706441
 21
170.9237785733083
 31
0.000000000000000
  0
ARC
  5
260
100
AcDbEntity
  8
1
  6
CONTINUOUS
 62
7
100
AcDbCircle
 10
259.0918186706445
 20
173.7019785733083
 30
0.000000000000000
 40
1.600000000000000
100
AcDbArc
 50
15.49400000000056
 51
84.99990000000015
  0
LINE
  5
261
100
AcDbEntity
  8
1
  6
CONTINUOUS
 62
7
100
AcDbLine
 10
259.2313186706446
 20
175.2959285733083
 30
0.000000000000000
 11
257.7698186706444
 21
175.4237985733082
 31
0.000000000000000
  0
LINE
  5
262
100
AcDbEntity
  8
1
  6
CONTINUOUS
 62
7
100
AcDbLine
 10
316.7168186706444
 20
198.0960785733082
 30
0.000000000000000
 11
316.7358186706444
 21
197.0100785733082
 31
0.000000000000000
  0
LINE
  5
263
100
AcDbEntity
  8
1
  6
CONTINUOUS
 62
7
100
AcDbLine
 10
317.5948186706443
 20
198.0960785733083
 30
0.000000000000000
 11
317.5758186706445
 21
197.0100785733083
 31
0.000000000000000
  0
CIRCLE
  5
264
100
AcDbEntity
  8
1
  6
CONTINUOUS
 62
7
100
AcDbCircle
 10
317.1558186706444
 20
199.4237785733083
 30
0.000000000000000
 40
6.000000000000000
  0
CIRCLE
  5
265
100
AcDbEntity
  8
1
  6
CONTINUOUS
 62
7
100
AcDbCircle
 10
317.1558186706444
 20
199.4237785733083
 30
0.000000000000000
 40
4.000000000000000
  0
ARC
  5
266
100
AcDbEntity
  8
1
  6
CONTINUOUS
 62
7
100
AcDbCircle
 10
317.1558186706444
 20
199.4237785733083
 30
0.000000000000000
 40
4.599999999999996
100
AcDbArc
 50
150.4080000000017
 51
209.5919999999981
  0
LINE
  5
267
100
AcDbEntity
  8
1
  6
CONTINUOUS
 62
7
100
AcDbLine
 10
313.1558186706444
 20
197.1143785733083
 30
0.000000000000000
 11
313.1558186706444
 21
201.7331785733084
 31
0.000000000000000
  0
ARC
  5
268
100
AcDbEntity
  8
1
  6
CONTINUOUS
 62
7
100
AcDbCircle
 10
317.1558186706444
 20
199.4237785733083
 30
0.000000000000000
 40
4.599999999999996
100
AcDbArc
 50
330.4080000000017
 51
389.5917999999996
  0
LINE
  5
269
100
AcDbEntity
  8
1
  6
CONTINUOUS
 62
7
100
AcDbLine
 10
321.1558186706444
 20
197.1143785733083
 30
0.000000000000000
 11
321.1558186706444
 21
201.7331785733084
 31
0.000000000000000
  0
LINE
  5
26A
100
AcDbEntity
  8
1
  6
CONTINUOUS
 62
7
100
AcDbLine
 10
305.6558186706443
 20
207.9237785733083
 30
0.000000000000000
 11
305.6558186706443
 21
186.9237785733083
 31
0.000000000000000
  0
LINE
  5
26B
100
AcDbEntity
  8
1
  6
CONTINUOUS
 62
7
100
AcDbLine
 10
303.1558186706444
 20
215.4237785733082
 30
0.000000000000000
 11
303.1558186706444
 21
186.9237785733083
 31
0.000000000000000
  0
ARC
  5
26C
100
AcDbEntity
  8
1
  6
CONTINUOUS
 62
7
100
AcDbCircle
 10
308.6558186706444
 20
190.9237785733083
 30
0.000000000000000
 40
3.000000000000000
100
AcDbArc
 50
180.0000000000000
 51
270.0000000000000
  0
ARC
  5
26D
100
AcDbEntity
  8
1
  6
CONTINUOUS
 62
7
100
AcDbCircle
 10
301.4058186706443
 20
184.9237785733081
 30
0.000000000000000
 40
2.000000000000000
100
AcDbArc
 50
90.00000000000000
 51
180.0000000000000
  0
LINE
  5
26E
100
AcDbEntity
  8
1
  6
CONTINUOUS
 62
7
100
AcDbLine
 10
315.9063609882879
 20
170.2951606448333
 30
0.000000000000000
 11
315.1518780527617
 21
169.5138076516223
 31
0.000000000000000
  0
LINE
  5
26F
100
AcDbEntity
  8
1
  6
CONTINUOUS
 62
7
100
AcDbLine
 10
317.7844365991193
 20
172.1732362556648
 30
0.000000000000000
 11
318.5657895923306
 21
172.9277191911909
 31
0.000000000000000
  0
ARC
  5
270
100
AcDbEntity
  8
1
  6
CONTINUOUS
 62
7
100
AcDbCircle
 10
317.1558186706443
 20
170.9237785733083
 30
0.000000000000000
 40
2.450000000000000
100
AcDbArc
 50
125.1291000000003
 51
144.8708999999996
  0
LINE
  5
271
100
AcDbEntity
  8
1
  6
CONTINUOUS
 62
7
100
AcDbLine
 10
316.1350393213233
 20
170.9234957305954
 30
0.000000000000000
 11
315.9063609882878
 21
170.2951606448333
 31
0.000000000000000
  0
LINE
  5
272
100
AcDbEntity
  8
1
  6
CONTINUOUS
 62
7
100
AcDbLine
 10
315.9065024096442
 20
171.5522550804269
 30
0.000000000000000
 11
315.1520901847964
 21
172.3335373629600
 31
0.000000000000000
  0
LINE
  5
273
100
AcDbEntity
  8
1
  6
CONTINUOUS
 62
7
100
AcDbLine
 10
316.1350393213234
 20
170.9234957305955
 30
0.000000000000000
 11
315.9065024096442
 21
171.5522550804269
 31
0.000000000000000
  0
LINE
  5
274
100
AcDbEntity
  8
1
  6
CONTINUOUS
 62
7
100
AcDbLine
 10
317.1561015133570
 20
171.9445579226291
 30
0.000000000000000
 11
316.5273421635256
 21
172.1730948343083
 31
0.000000000000000
  0
LINE
  5
275
100
AcDbEntity
  8
1
  6
CONTINUOUS
 62
7
100
AcDbLine
 10
316.5273421635258
 20
172.1730948343084
 30
0.000000000000000
 11
315.7460598809930
 21
172.9275070591566
 31
0.000000000000000
  0
LINE
  5
276
100
AcDbEntity
  8
1
  6
CONTINUOUS
 62
7
100
AcDbLine
 10
317.1561015133570
 20
171.9445579226292
 30
0.000000000000000
 11
317.7844365991193
 21
172.1732362556648
 31
0.000000000000000
  0
ARC
  5
277
100
AcDbEntity
  8
1
  6
CONTINUOUS
 62
7
100
AcDbCircle
 10
317.1558186706444
 20
199.4237785733083
 30
0.000000000000000
 40
4.599999999999996
100
AcDbArc
 50
210.4080000000013
 51
269.5920000000025
  0
LINE
  5
278
100
AcDbEntity
  8
1
  6
CONTINUOUS
 62
7
100
AcDbLine
 10
313.1558186706444
 20
197.1143785733083
 30
0.000000000000000
 11
317.1558186706444
 21
194.8049785733083
 31
0.000000000000000
  0
LINE
  5
279
100
AcDbEntity
  8
1
  6
CONTINUOUS
 62
7
100
AcDbLine
 10
309.3615793992138
 20
194.9237969978248
 30
0.000000000000000
 11
307.4128186706444
 21
193.7987785733082
 31
0.000000000000000
  0
ARC
  5
27A
100
AcDbEntity
  8
1
  6
CONTINUOUS
 62
7
100
AcDbCircle
 10
317.1558186706444
 20
199.4237785733083
 30
0.000000000000000
 40
4.599999999999996
100
AcDbArc
 50
270.4079999999974
 51
329.5919999999985
  0
LINE
  5
27B
100
AcDbEntity
  8
1
  6
CONTINUOUS
 62
7
100
AcDbLine
 10
317.1558186706444
 20
194.8049785733083
 30
0.000000000000000
 11
321.1558186706444
 21
197.1143785733083
 31
0.000000000000000
  0
ARC
  5
27C
100
AcDbEntity
  8
1
  6
CONTINUOUS
 62
7
100
AcDbCircle
 10
317.1558186706444
 20
199.4237785733083
 30
0.000000000000000
 40
2.450000000000000
100
AcDbArc
 50
260.1290000000002
 51
279.8709999999998
  0
ARC
  5
27D
100
AcDbEntity
  8
1
  6
CONTINUOUS
 62
7
100
AcDbCircle
 10
308.1558186706443
 20
215.4237785733082
 30
0.000000000000000
 40
5.000000000000000
100
AcDbArc
 50
90.00000000000000
 51
180.0000000000000
  0
ARC
  5
27E
100
AcDbEntity
  8
1
  6
CONTINUOUS
 62
7
100
AcDbCircle
 10
308.6558186706444
 20
207.9237785733083
 30
0.000000000000000
 40
3.000000000000000
100
AcDbArc
 50
90.00000000000000
 51
180.0000000000000
  0
ARC
  5
27F
100
AcDbEntity
  8
1
  6
CONTINUOUS
 62
7
100
AcDbCircle
 10
317.1558186706444
 20
199.4237785733083
 30
0.000000000000000
 40
4.599999999999996
100
AcDbArc
 50
90.40819999999708
 51
149.5919999999984
  0
LINE
  5
280
100
AcDbEntity
  8
1
  6
CONTINUOUS
 62
7
100
AcDbLine
 10
313.1558186706444
 20
201.7331785733084
 30
0.000000000000000
 11
317.1558186706444
 21
204.0425785733083
 31
0.000000000000000
  0
LINE
  5
281
100
AcDbEntity
  8
1
  6
CONTINUOUS
 62
7
100
AcDbLine
 10
315.8278186706445
 20
198.9848785733084
 30
0.000000000000000
 11
314.7418186706445
 21
199.0037785733084
 31
0.000000000000000
  0
LINE
  5
282
100
AcDbEntity
  8
1
  6
CONTINUOUS
 62
7
100
AcDbLine
 10
315.8278186706444
 20
199.8627785733084
 30
0.000000000000000
 11
314.7418186706445
 21
199.8437785733084
 31
0.000000000000000
  0
ARC
  5
283
100
AcDbEntity
  8
1
  6
CONTINUOUS
 62
7
100
AcDbCircle
 10
317.1558186706444
 20
199.4237785733083
 30
0.000000000000000
 40
2.450000000000000
100
AcDbArc
 50
170.1289999999998
 51
189.8710000000002
  0
ARC
  5
284
100
AcDbEntity
  8
1
  6
CONTINUOUS
 62
7
100
AcDbCircle
 10
313.0458186706444
 20
207.5426785733082
 30
0.000000000000000
 40
0.5000000000000000
100
AcDbArc
 50
210.0000000000008
 51
219.9246944252426
  0
LINE
  5
285
100
AcDbEntity
  8
1
  6
CONTINUOUS
 62
7
100
AcDbLine
 10
312.6128186706446
 20
207.2926785733082
 30
0.000000000000000
 11
310.5162162500550
 21
210.9237785733083
 31
0.000000000000000
  0
ARC
  5
286
100
AcDbEntity
  8
1
  6
CONTINUOUS
 62
7
100
AcDbCircle
 10
317.1558186706444
 20
199.4237785733083
 30
0.000000000000000
 40
4.599999999999996
100
AcDbArc
 50
30.40819999999804
 51
89.59180000000293
  0
LINE
  5
287
100
AcDbEntity
  8
1
  6
CONTINUOUS
 62
7
100
AcDbLine
 10
317.1558186706444
 20
204.0425785733084
 30
0.000000000000000
 11
321.1558186706444
 21
201.7331785733084
 31
0.000000000000000
  0
ARC
  5
288
100
AcDbEntity
  8
1
  6
CONTINUOUS
 62
7
100
AcDbCircle
 10
317.1558186706444
 20
199.4237785733083
 30
0.000000000000000
 40
2.450000000000000
100
AcDbArc
 50
350.1289999999981
 51
369.8708899999991
  0
LINE
  5
289
100
AcDbEntity
  8
1
  6
CONTINUOUS
 62
7
100
AcDbLine
 10
318.4838186706443
 20
199.8627785733084
 30
0.000000000000000
 11
319.5698186706446
 21
199.8437785733084
 31
0.000000000000000
  0
LINE
  5
28A
100
AcDbEntity
  8
1
  6
CONTINUOUS
 62
7
100
AcDbLine
 10
318.4838186706444
 20
198.9848785733083
 30
0.000000000000000
 11
319.5698186706446
 21
199.0037785733083
 31
0.000000000000000
  0
ARC
  5
28B
100
AcDbEntity
  8
1
  6
CONTINUOUS
 62
7
100
AcDbCircle
 10
317.1558186706444
 20
199.4237785733083
 30
0.000000000000000
 40
2.450000000000000
100
AcDbArc
 50
80.12910000000038
 51
99.87089999999962
  0
LINE
  5
28C
100
AcDbEntity
  8
1
  6
CONTINUOUS
 62
7
100
AcDbLine
 10
316.4338186706442
 20
198.7021785733081
 30
0.000000000000000
 11
315.8278186706444
 21
198.9848785733083
 31
0.000000000000000
  0
LINE
  5
28D
100
AcDbEntity
  8
1
  6
CONTINUOUS
 62
7
100
AcDbLine
 10
316.4338186706442
 20
200.1454785733083
 30
0.000000000000000
 11
315.8278186706444
 21
199.8627785733084
 31
0.000000000000000
  0
LINE
  5
28E
100
AcDbEntity
  8
1
  6
CONTINUOUS
 62
7
100
AcDbLine
 10
316.7168186706444
 20
200.7515785733082
 30
0.000000000000000
 11
316.7358186706444
 21
201.8375785733082
 31
0.000000000000000
  0
LINE
  5
28F
100
AcDbEntity
  8
1
  6
CONTINUOUS
 62
7
100
AcDbLine
 10
316.4338186706442
 20
200.1454785733083
 30
0.000000000000000
 11
316.7168186706446
 21
200.7515785733083
 31
0.000000000000000
  0
LINE
  5
290
100
AcDbEntity
  8
1
  6
CONTINUOUS
 62
7
100
AcDbLine
 10
317.8778186706446
 20
200.1454785733083
 30
0.000000000000000
 11
317.5948186706441
 21
200.7515785733083
 31
0.000000000000000
  0
LINE
  5
291
100
AcDbEntity
  8
1
  6
CONTINUOUS
 62
7
100
AcDbLine
 10
317.5948186706443
 20
200.7515785733083
 30
0.000000000000000
 11
317.5758186706445
 21
201.8375785733083
 31
0.000000000000000
  0
LINE
  5
292
100
AcDbEntity
  8
1
  6
CONTINUOUS
 62
7
100
AcDbLine
 10
317.8778186706446
 20
200.1453785733082
 30
0.000000000000000
 11
318.4838186706443
 21
199.8627785733084
 31
0.000000000000000
  0
LINE
  5
293
100
AcDbEntity
  8
1
  6
CONTINUOUS
 62
7
100
AcDbLine
 10
317.8778186706446
 20
198.7021785733081
 30
0.000000000000000
 11
318.4838186706443
 21
198.9848785733083
 31
0.000000000000000
  0
LINE
  5
294
100
AcDbEntity
  8
1
  6
CONTINUOUS
 62
7
100
AcDbLine
 10
316.4338186706443
 20
198.7021785733081
 30
0.000000000000000
 11
316.7168186706446
 21
198.0960785733083
 31
0.000000000000000
  0
LINE
  5
295
100
AcDbEntity
  8
1
  6
CONTINUOUS
 62
7
100
AcDbLine
 10
317.8778186706446
 20
198.7021785733080
 30
0.000000000000000
 11
317.5948186706441
 21
198.0960785733083
 31
0.000000000000000
  0
ARC
  5
296
100
AcDbEntity
  8
1
  6
CONTINUOUS
 62
7
100
AcDbCircle
 10
317.1558186706444
 20
199.4237785733083
 30
0.000000000000000
 40
4.599999999999996
100
AcDbArc
 50
27.46509999999826
 51
27.53069999999841
  0
ARC
  5
297
100
AcDbEntity
  8
1
  6
CONTINUOUS
 62
7
100
AcDbCircle
 10
317.1558186706444
 20
199.4237785733083
 30
0.000000000000000
 40
4.599999999999996
100
AcDbArc
 50
26.29189999999990
 51
26.40619999999791
  0
ARC
  5
298
100
AcDbEntity
  8
1
  6
CONTINUOUS
 62
7
100
AcDbCircle
 10
321.2658186706442
 20
207.5426785733082
 30
0.000000000000000
 40
0.5000000000000000
100
AcDbArc
 50
320.0753055747572
 51
329.9999999999990
  0
LINE
  5
299
100
AcDbEntity
  8
1
  6
CONTINUOUS
 62
7
100
AcDbLine
 10
321.6558215973881
 20
207.2180055176112
 30
0.000000000000000
 11
323.7953362255824
 21
210.9237785733083
 31
0.000000000000000
  0
ARC
  5
29A
100
AcDbEntity
  8
1
  6
CONTINUOUS
 62
7
100
AcDbCircle
 10
254.4697186706445
 20
263.6361785733083
 30
0.000000000000000
 40
2.000000000000000
100
AcDbArc
 50
270.0000000000000
 51
360.0000000000000
  0
LINE
  5
29B
100
AcDbEntity
  8
1
  6
CONTINUOUS
 62
7
100
AcDbLine
 10
256.4698186706442
 20
274.8619785733081
 30
0.000000000000000
 11
257.7698186706443
 21
275.2102785733082
 31
0.000000000000000
  0
LINE
  5
29C
100
AcDbEntity
  8
1
  6
CONTINUOUS
 62
7
100
AcDbLine
 10
256.4699186706444
 20
275.5619785733083
 30
0.000000000000000
 11
257.7698186706444
 21
275.9102785733083
 31
0.000000000000000
  0
LINE
  5
29D
100
AcDbEntity
  8
4
  6
CENTER
 62
1
100
AcDbLine
 10
251.3921186706444
 20
275.3861785733081
 30
0.000000000000000
 11
263.8367186706444
 21
275.3861785733081
 31
0.000000000000000
  0
LINE
  5
29E
100
AcDbEntity
  8
1
  6
CONTINUOUS
 62
7
100
AcDbLine
 10
256.4697186706445
 20
270.7861785733083
 30
0.000000000000000
 11
257.7698186706444
 21
270.7861785733083
 31
0.000000000000000
  0
ARC
  5
29F
100
AcDbEntity
  8
1
  6
CONTINUOUS
 62
7
100
AcDbCircle
 10
259.0918186706445
 20
272.6079785733083
 30
0.000000000000000
 40
1.600000000000000
100
AcDbArc
 50
274.9999999999998
 51
344.5059999999992
  0
LINE
  5
2A0
100
AcDbEntity
  8
1
  6
CONTINUOUS
 62
7
100
AcDbLine
 10
259.2313186706445
 20
271.0140785733083
 30
0.000000000000000
 11
257.7698186706444
 21
270.8861785733083
 31
0.000000000000000
  0
LINE
  5
2A1
100
AcDbEntity
  8
1
  6
CONTINUOUS
 62
7
100
AcDbLine
 10
328.6558186706443
 20
207.9237785733083
 30
0.000000000000000
 11
328.6558186706443
 21
186.9237785733083
 31
0.000000000000000
  0
LINE
  5
2A2
100
AcDbEntity
  8
1
  6
CONTINUOUS
 62
7
100
AcDbLine
 10
331.1558186706443
 20
215.4237785733082
 30
0.000000000000000
 11
331.1558186706443
 21
186.9237785733083
 31
0.000000000000000
  0
ARC
  5
2A3
100
AcDbEntity
  8
1
  6
CONTINUOUS
 62
7
100
AcDbCircle
 10
332.9058186706443
 20
184.9237785733081
 30
0.000000000000000
 40
2.000000000000000
100
AcDbArc
 50
0.000000000000000
 51
90.00000000000000
  0
ARC
  5
2A4
100
AcDbEntity
  8
1
  6
CONTINUOUS
 62
7
100
AcDbCircle
 10
325.6558186706444
 20
190.9237785733083
 30
0.000000000000000
 40
3.000000000000000
100
AcDbArc
 50
270.0000000000000
 51
360.0000000000000
  0
ARC
  5
2A5
100
AcDbEntity
  8
1
  6
CONTINUOUS
 62
7
100
AcDbCircle
 10
325.6558186706444
 20
207.9237785733083
 30
0.000000000000000
 40
3.000000000000000
100
AcDbArc
 50
0.000000000000000
 51
90.00000000000000
  0
ARC
  5
2A6
100
AcDbEntity
  8
1
  6
CONTINUOUS
 62
7
100
AcDbCircle
 10
326.1558186706444
 20
215.4237785733082
 30
0.000000000000000
 40
5.000000000000000
100
AcDbArc
 50
0.000000000000000
 51
90.00000000000000
  0
LINE
  5
2A7
100
AcDbEntity
  8
1
  6
CONTINUOUS
 62
7
100
AcDbLine
 10
389.5419186706443
 20
186.9237785733083
 30
0.000000000000000
 11
377.8419186706443
 21
186.9237785733083
 31
0.000000000000000
  0
LINE
  5
2A8
100
AcDbEntity
  8
4
  6
CENTER
 62
1
100
AcDbLine
 10
381.7602186706443
 20
170.9237785733083
 30
0.000000000000000
 11
369.8859186706442
 21
170.9237785733083
 31
0.000000000000000
  0
LINE
  5
2A9
100
AcDbEntity
  8
1
  6
CONTINUOUS
 62
7
100
AcDbLine
 10
377.8418186706446
 20
171.4479785733084
 30
0.000000000000000
 11
376.5418186706443
 21
171.0995785733081
 31
0.000000000000000
  0
LINE
  5
2AA
100
AcDbEntity
  8
1
  6
CONTINUOUS
 62
7
100
AcDbLine
 10
375.0803186706443
 20
175.2959285733083
 30
0.000000000000000
 11
376.5418186706444
 21
175.4237985733083
 31
0.000000000000000
  0
ARC
  5
2AB
100
AcDbEntity
  8
1
  6
CONTINUOUS
 62
7
100
AcDbCircle
 10
375.2198186706441
 20
173.7019785733083
 30
0.000000000000000
 40
1.600000000000000
100
AcDbArc
 50
95.00009999999980
 51
164.5059999999994
  0
LINE
  5
2AC
100
AcDbEntity
  8
1
  6
CONTINUOUS
 62
7
100
AcDbLine
 10
377.8419186706443
 20
175.5237685733083
 30
0.000000000000000
 11
376.5418186706444
 21
175.5237685733083
 31
0.000000000000000
  0
LINE
  5
2AD
100
AcDbEntity
  8
1
  6
CONTINUOUS
 62
7
100
AcDbLine
 10
256.4697186706445
 20
279.9860785733082
 30
0.000000000000000
 11
257.7698186706444
 21
279.9860785733082
 31
0.000000000000000
  0
ARC
  5
2AE
100
AcDbEntity
  8
1
  6
CONTINUOUS
 62
7
100
AcDbCircle
 10
254.4697186706445
 20
287.1361785733082
 30
0.000000000000000
 40
2.000000000000000
100
AcDbArc
 50
0.000000000000000
 51
90.00000000000000
  0
ARC
  5
2AF
100
AcDbEntity
  8
1
  6
CONTINUOUS
 62
7
100
AcDbCircle
 10
259.0918186706445
 20
278.1643785733083
 30
0.000000000000000
 40
1.600000000000000
100
AcDbArc
 50
15.49400000000056
 51
84.99990000000015
  0
LINE
  5
2B0
100
AcDbEntity
  8
1
  6
CONTINUOUS
 62
7
100
AcDbLine
 10
259.2313186706446
 20
279.7582785733082
 30
0.000000000000000
 11
257.7698186706444
 21
279.8861785733083
 31
0.000000000000000
  0
LINE
  5
2B1
100
AcDbEntity
  8
1
  6
CONTINUOUS
 62
7
100
AcDbLine
 10
442.1058186706444
 20
204.4237785733082
 30
0.000000000000000
 11
439.1058186706444
 21
204.4237785733082
 31
0.000000000000000
  0
LINE
  5
2B2
100
AcDbEntity
  8
1
  6
CONTINUOUS
 62
7
100
AcDbLine
 10
442.1058186706444
 20
198.7668785733083
 30
0.000000000000000
 11
439.1058186706444
 21
198.7668785733083
 31
0.000000000000000
  0
LINE
  5
2B3
100
AcDbEntity
  8
1
  6
CONTINUOUS
 62
7
100
AcDbLine
 10
442.1058186706444
 20
200.0806785733082
 30
0.000000000000000
 11
439.1058186706444
 21
200.0806785733082
 31
0.000000000000000
  0
LINE
  5
2B4
100
AcDbEntity
  8
2
  6
CONTINUOUS
 62
4
100
AcDbLine
 10
442.1058186706445
 20
204.4237785733083
 30
0.000000000000000
 11
439.1058186706445
 21
200.0806785733082
 31
0.000000000000000
  0
LINE
  5
2B5
100
AcDbEntity
  8
2
  6
CONTINUOUS
 62
4
100
AcDbLine
 10
439.1058186706445
 20
204.4237785733082
 30
0.000000000000000
 11
442.1058186706445
 21
200.0806785733082
 31
0.000000000000000
  0
LINE
  5
2B6
100
AcDbEntity
  8
1
  6
CONTINUOUS
 62
7
100
AcDbLine
 10
442.1058186706444
 20
194.4237785733081
 30
0.000000000000000
 11
439.1058186706444
 21
194.4237785733081
 31
0.000000000000000
  0
LINE
  5
2B7
100
AcDbEntity
  8
2
  6
CONTINUOUS
 62
4
100
AcDbLine
 10
442.1058186706443
 20
198.7668785733083
 30
0.000000000000000
 11
439.1058186706443
 21
194.4237785733081
 31
0.000000000000000
  0
LINE
  5
2B8
100
AcDbEntity
  8
2
  6
CONTINUOUS
 62
4
100
AcDbLine
 10
439.1058186706443
 20
198.7668785733082
 30
0.000000000000000
 11
442.1058186706443
 21
194.4237785733081
 31
0.000000000000000
  0
LINE
  5
2B9
100
AcDbEntity
  8
4
  6
CENTER
 62
1
100
AcDbLine
 10
479.2916186706444
 20
199.4237785733083
 30
0.000000000000000
 11
434.9902186706443
 21
199.4237785733083
 31
0.000000000000000
  0
LINE
  5
2BA
100
AcDbEntity
  8
1
  6
CONTINUOUS
 62
7
100
AcDbLine
 10
439.1058186706444
 20
204.4237785733082
 30
0.000000000000000
 11
439.1058186706444
 21
194.4237785733081
 31
0.000000000000000
  0
LINE
  5
2BB
100
AcDbEntity
  8
1
  6
CONTINUOUS
 62
7
100
AcDbLine
 10
420.7898186706441
 20
208.4237785733082
 30
0.000000000000000
 11
420.7898186706441
 21
190.4237785733081
 31
0.000000000000000
  0
LINE
  5
2BC
100
AcDbEntity
  8
1
  6
CONTINUOUS
 62
7
100
AcDbLine
 10
419.1898186706445
 20
208.4237785733082
 30
0.000000000000000
 11
419.1898186706445
 21
190.4237785733081
 31
0.000000000000000
  0
LINE
  5
2BD
100
AcDbEntity
  8
1
  6
CONTINUOUS
 62
7
100
AcDbLine
 10
405.8600186706445
 20
195.4237785733081
 30
0.000000000000000
 11
405.8600186706445
 21
203.4237785733083
 31
0.000000000000000
  0
LINE
  5
2BE
100
AcDbEntity
  8
1
  6
CONTINUOUS
 62
7
100
AcDbLine
 10
417.5898186706444
 20
208.4237785733082
 30
0.000000000000000
 11
417.5898186706444
 21
190.4237785733081
 31
0.000000000000000
  0
LINE
  5
2BF
100
AcDbEntity
  8
1
  6
CONTINUOUS
 62
7
100
AcDbLine
 10
409.3600186706445
 20
204.0425785733083
 30
0.000000000000000
 11
409.3600186706445
 21
194.8049785733083
 31
0.000000000000000
  0
LINE
  5
2C0
100
AcDbEntity
  8
1
  6
CONTINUOUS
 62
7
100
AcDbLine
 10
410.6600186706441
 20
205.4237785733081
 30
0.000000000000000
 11
410.6600186706441
 21
193.4237785733081
 31
0.000000000000000
  0
LINE
  5
2C1
100
AcDbEntity
  8
1
  6
CONTINUOUS
 62
7
100
AcDbLine
 10
411.4600186706444
 20
205.4237785733081
 30
0.000000000000000
 11
411.4600186706444
 21
193.4237785733081
 31
0.000000000000000
  0
ARC
  5
2C2
100
AcDbEntity
  8
1
  6
CONTINUOUS
 62
7
100
AcDbCircle
 10
413.5027186706443
 20
199.4237785733083
 30
0.000000000000000
 40
7.642730000000000
100
AcDbArc
 50
162.4119999999996
 51
197.5880000000002
  0
LINE
  5
2C3
100
AcDbEntity
  8
1
  6
CONTINUOUS
 62
7
100
AcDbLine
 10
406.2172186706444
 20
194.8049785733083
 30
0.000000000000000
 11
409.3600186706445
 21
194.8049785733083
 31
0.000000000000000
  0
LINE
  5
2C4
100
AcDbEntity
  8
1
  6
CONTINUOUS
 62
7
100
AcDbLine
 10
406.2172186706444
 20
197.1143785733083
 30
0.000000000000000
 11
409.3600186706445
 21
197.1143785733083
 31
0.000000000000000
  0
ARC
  5
2C5
100
AcDbEntity
  8
1
  6
CONTINUOUS
 62
7
100
AcDbCircle
 10
407.9046186706441
 20
195.9596785733080
 30
0.000000000000000
 40
2.044659999999999
100
AcDbArc
 50
145.6158000000016
 51
214.3839999999991
  0
LINE
  5
2C6
100
AcDbEntity
  8
1
  6
CONTINUOUS
 62
7
100
AcDbLine
 10
405.8600186706444
 20
195.4237785733081
 30
0.000000000000000
 11
406.2172186706443
 21
194.8049785733083
 31
0.000000000000000
  0
LINE
  5
2C7
100
AcDbEntity
  8
1
  6
CONTINUOUS
 62
7
100
AcDbLine
 10
409.3600186706445
 20
194.8237785733081
 30
0.000000000000000
 11
410.6600186706441
 21
194.8237785733081
 31
0.000000000000000
  0
LINE
  5
2C8
100
AcDbEntity
  8
1
  6
CONTINUOUS
 62
7
100
AcDbLine
 10
410.6600186706441
 20
193.4237785733081
 30
0.000000000000000
 11
411.4600186706438
 21
193.4237785733081
 31
0.000000000000000
  0
LINE
  5
2C9
100
AcDbEntity
  8
1
  6
CONTINUOUS
 62
7
100
AcDbLine
 10
420.7898186706441
 20
190.4237785733081
 30
0.000000000000000
 11
419.1898186706445
 21
190.4237785733081
 31
0.000000000000000
  0
LINE
  5
2CA
100
AcDbEntity
  8
1
  6
CONTINUOUS
 62
7
100
AcDbLine
 10
419.1898186706445
 20
190.4237785733081
 30
0.000000000000000
 11
417.5898186706444
 21
190.4237785733081
 31
0.000000000000000
  0
LINE
  5
2CB
100
AcDbEntity
  8
4
  6
CENTER
 62
1
100
AcDbLine
 10
402.3306726706441
 20
199.4237785733083
 30
0.000000000000000
 11
424.9962128386746
 21
199.4237785733083
 31
0.000000000000000
  0
LINE
  5
2CC
100
AcDbEntity
  8
1
  6
CONTINUOUS
 62
7
100
AcDbLine
 10
405.8600186706444
 20
203.4237785733083
 30
0.000000000000000
 11
406.2172186706443
 21
204.0425785733083
 31
0.000000000000000
  0
ARC
  5
2CD
100
AcDbEntity
  8
1
  6
CONTINUOUS
 62
7
100
AcDbCircle
 10
407.9046186706441
 20
202.8878785733082
 30
0.000000000000000
 40
2.044659999999999
100
AcDbArc
 50
145.6158000000016
 51
214.3839999999991
  0
LINE
  5
2CE
100
AcDbEntity
  8
1
  6
CONTINUOUS
 62
7
100
AcDbLine
 10
406.2172186706444
 20
201.7331785733080
 30
0.000000000000000
 11
409.3600186706445
 21
201.7331785733080
 31
0.000000000000000
  0
LINE
  5
2CF
100
AcDbEntity
  8
1
  6
CONTINUOUS
 62
7
100
AcDbLine
 10
409.3600186706445
 20
198.3236785733082
 30
0.000000000000000
 11
410.6600186706441
 21
199.6236785733082
 31
0.000000000000000
  0
LINE
  5
2D0
100
AcDbEntity
  8
1
  6
CONTINUOUS
 62
7
100
AcDbLine
 10
409.3600186706445
 20
199.3136785733082
 30
0.000000000000000
 11
410.6600186706440
 21
200.6136785733084
 31
0.000000000000000
  0
LINE
  5
2D1
100
AcDbEntity
  8
1
  6
CONTINUOUS
 62
7
100
AcDbLine
 10
406.2172186706444
 20
204.0425785733083
 30
0.000000000000000
 11
409.3600186706445
 21
204.0425785733083
 31
0.000000000000000
  0
LINE
  5
2D2
100
AcDbEntity
  8
1
  6
CONTINUOUS
 62
7
100
AcDbLine
 10
409.3600186706445
 20
204.0237785733082
 30
0.000000000000000
 11
410.6600186706441
 21
204.0237785733082
 31
0.000000000000000
  0
LINE
  5
2D3
100
AcDbEntity
  8
1
  6
CONTINUOUS
 62
7
100
AcDbLine
 10
410.6600186706441
 20
205.4237785733081
 30
0.000000000000000
 11
411.4600186706444
 21
205.4237785733081
 31
0.000000000000000
  0
LINE
  5
2D4
100
AcDbEntity
  8
1
  6
CONTINUOUS
 62
7
100
AcDbLine
 10
420.7898186706441
 20
208.4237785733082
 30
0.000000000000000
 11
419.1898186706445
 21
208.4237785733082
 31
0.000000000000000
  0
LINE
  5
2D5
100
AcDbEntity
  8
1
  6
CONTINUOUS
 62
7
100
AcDbLine
 10
419.1898186706445
 20
208.4237785733082
 30
0.000000000000000
 11
417.5898186706444
 21
208.4237785733082
 31
0.000000000000000
  0
ARC
  5
2D6
100
AcDbEntity
  8
1
  6
CONTINUOUS
 62
7
100
AcDbCircle
 10
482.3058186706441
 20
192.9934185733080
 30
0.000000000000000
 40
10.00000000000000
100
AcDbArc
 50
135.0000000000002
 51
180.0000000000000
  0
LINE
  5
2D7
100
AcDbEntity
  8
1
  6
CONTINUOUS
 62
7
100
AcDbLine
 10
455.8058186706444
 20
199.4237785733083
 30
0.000000000000000
 11
455.8058186706444
 21
188.9608685733083
 31
0.000000000000000
  0
LINE
  5
2D8
100
AcDbEntity
  8
1
  6
CONTINUOUS
 62
7
100
AcDbLine
 10
444.1558186706442
 20
189.2466275733083
 30
0.000000000000000
 11
444.1558186706442
 21
208.4514785733080
 31
0.000000000000000
  0
LINE
  5
2D9
100
AcDbEntity
  8
1
  6
CONTINUOUS
 62
7
100
AcDbLine
 10
444.1058186706441
 20
209.1665643658832
 30
0.000000000000000
 11
444.1058186706444
 21
188.1737785733081
 31
0.000000000000000
  0
LINE
  5
2DA
100
AcDbEntity
  8
1
  6
CONTINUOUS
 62
7
100
AcDbLine
 10
442.1058186706444
 20
209.1665643658834
 30
0.000000000000000
 11
442.1058186706444
 21
188.1737785733081
 31
0.000000000000000
  0
LINE
  5
2DB
100
AcDbEntity
  8
4
  6
CENTER
 62
1
100
AcDbLine
 10
462.2022086706444
 20
170.9237785733083
 30
0.000000000000000
 11
454.5177726706444
 21
170.9237785733083
 31
0.000000000000000
  0
LINE
  5
2DC
100
AcDbEntity
  8
1
  6
CONTINUOUS
 62
7
100
AcDbLine
 10
458.3058186706441
 20
175.4237785733083
 30
0.000000000000000
 11
457.8058186706441
 21
175.4237785733083
 31
0.000000000000000
  0
LINE
  5
2DD
100
AcDbEntity
  8
1
  6
CONTINUOUS
 62
7
100
AcDbLine
 10
457.8180786706442
 20
187.9357385733080
 30
0.000000000000000
 11
445.1312976706444
 21
188.2469285733082
 31
0.000000000000000
  0
ARC
  5
2DE
100
AcDbEntity
  8
1
  6
CONTINUOUS
 62
7
100
AcDbCircle
 10
445.1558186706443
 20
189.2466275733083
 30
0.000000000000000
 40
1.000000000000000
100
AcDbArc
 50
180.0000000000000
 51
268.5948920000019
  0
LINE
  5
2DF
100
AcDbEntity
  8
1
  6
CONTINUOUS
 62
7
100
AcDbLine
 10
444.1058186706444
 20
188.1737785733081
 30
0.000000000000000
 11
442.1058186706444
 21
188.1737785733081
 31
0.000000000000000
  0
ARC
  5
2E0
100
AcDbEntity
  8
1
  6
CONTINUOUS
 62
7
100
AcDbCircle
 10
456.8058186706442
 20
188.9608685733083
 30
0.000000000000000
 40
1.000000000000000
100
AcDbArc
 50
180.0000000000000
 51
268.5948920000019
  0
ARC
  5
2E1
100
AcDbEntity
  8
1
  6
CONTINUOUS
 62
7
100
AcDbCircle
 10
457.8058186706441
 20
187.4358885733083
 30
0.000000000000000
 40
0.5000000000000000
100
AcDbArc
 50
0.000000000000000
 51
88.59490000000211
  0
LINE
  5
2E2
100
AcDbEntity
  8
1
  6
CONTINUOUS
 62
7
100
AcDbLine
 10
467.8058186706444
 20
210.8992785733081
 30
0.000000000000000
 11
442.3558186706443
 21
210.2749785733082
 31
0.000000000000000
  0
LINE
  5
2E3
100
AcDbEntity
  8
1
  6
CONTINUOUS
 62
7
100
AcDbLine
 10
466.8093186706443
 20
209.9828785733082
 30
0.000000000000000
 11
445.1312975073678
 21
209.4511778843769
 31
0.000000000000000
  0
LINE
  5
2E4
100
AcDbEntity
  8
1
  6
CONTINUOUS
 62
7
100
AcDbLine
 10
442.3558186706442
 20
210.2749785733082
 30
0.000000000000000
 11
442.3558186706442
 21
209.1665643658832
 31
0.000000000000000
  0
LINE
  5
2E5
100
AcDbEntity
  8
1
  6
CONTINUOUS
 62
7
100
AcDbLine
 10
444.1058186706441
 20
209.1665643658832
 30
0.000000000000000
 11
442.1058186706444
 21
209.1665643658834
 31
0.000000000000000
  0
LINE
  5
2E6
100
AcDbEntity
  8
1
  6
CONTINUOUS
 62
7
100
AcDbLine
 10
444.1558186706442
 20
206.8715785733082
 30
0.000000000000000
 11
444.1058186706444
 21
206.8715785733082
 31
0.000000000000000
  0
ARC
  5
2E7
100
AcDbEntity
  8
1
  6
CONTINUOUS
 62
7
100
AcDbCircle
 10
445.1558186706443
 20
208.4514785733080
 30
0.000000000000000
 40
1.000000000000000
100
AcDbArc
 50
91.40509999999790
 51
180.0000000000000
  0
ARC
  5
2E8
100
AcDbEntity
  8
1
  6
CONTINUOUS
 62
7
100
AcDbCircle
 10
467.8058186706443
 20
209.8989785733081
 30
0.000000000000000
 40
1.000000000000000
100
AcDbArc
 50
91.40509999999790
 51
180.0000000000000
  0
LINE
  5
2E9
100
AcDbEntity
  8
1
  6
CONTINUOUS
 62
7
100
AcDbLine
 10
466.8058186706441
 20
209.8989785733081
 30
0.000000000000000
 11
466.8058186706441
 21
199.4237785733083
 31
0.000000000000000
  0
LINE
  5
2EA
100
AcDbEntity
  8
1
  6
CONTINUOUS
 62
7
100
AcDbLine
 10
477.2457186706444
 20
203.4896785733081
 30
0.000000000000000
 11
474.5587186706443
 21
206.1766785733080
 31
0.000000000000000
  0
ARC
  5
2EB
100
AcDbEntity
  8
1
  6
CONTINUOUS
 62
7
100
AcDbCircle
 10
476.5386186706445
 20
202.7825785733083
 30
0.000000000000000
 40
1.000000000000000
100
AcDbArc
 50
315.0000000000003
 51
404.9999999999998
  0
LINE
  5
2EC
100
AcDbEntity
  8
1
  6
CONTINUOUS
 62
7
100
AcDbLine
 10
477.2457186706442
 20
202.0753785733083
 30
0.000000000000000
 11
475.2347186706443
 21
200.0644785733082
 31
0.000000000000000
  0
ARC
  5
2ED
100
AcDbEntity
  8
1
  6
CONTINUOUS
 62
7
100
AcDbCircle
 10
468.2490186706441
 20
199.2089785733083
 30
0.000000000000000
 40
9.400000000000000
100
AcDbArc
 50
47.83700000000039
 51
67.76644300000083
  0
LINE
  5
2EE
100
AcDbEntity
  8
1
  6
CONTINUOUS
 62
7
100
AcDbLine
 10
470.3058186706441
 20
220.4237785733083
 30
0.000000000000000
 11
467.8058186706443
 21
220.4237785733083
 31
0.000000000000000
  0
LINE
  5
2EF
100
AcDbEntity
  8
1
  6
CONTINUOUS
 62
7
100
AcDbLine
 10
470.3058186706440
 20
220.4237785733083
 30
0.000000000000000
 11
471.8058186706440
 21
217.4237785733082
 31
0.000000000000000
  0
LINE
  5
2F0
100
AcDbEntity
  8
1
  6
CONTINUOUS
 62
7
100
AcDbLine
 10
167.5058186706445
 20
282.0256961282463
 30
0.000000000000000
 11
191.9558186706443
 21
281.6511138022620
 31
0.000000000000000
  0
LINE
  5
2F1
100
AcDbEntity
  8
1
  6
CONTINUOUS
 62
7
100
AcDbLine
 10
167.5058186706445
 20
286.8337785733082
 30
0.000000000000000
 11
167.5058186706445
 21
282.0256961282463
 31
0.000000000000000
  0
LINE
  5
2F2
100
AcDbEntity
  8
1
  6
CONTINUOUS
 62
7
100
AcDbLine
 10
167.5058186706445
 20
268.7466610183700
 30
0.000000000000000
 11
191.9558186706444
 21
269.1212433443542
 31
0.000000000000000
  0
LINE
  5
2F3
100
AcDbEntity
  8
1
  6
CONTINUOUS
 62
7
100
AcDbLine
 10
167.5058186706445
 20
268.7466610183700
 30
0.000000000000000
 11
167.5058186706445
 21
263.9381785733081
 31
0.000000000000000
  0
ENDSEC
  0
SECTION
  2
OBJECTS
  0
DICTIONARY
  5
31D
100
AcDbDictionary
  3
ACAD_GROUP
350
31E
  3
ACAD_LAYOUT
350
31F
  3
ACAD_MLINESTYLE
350
320
  0
DICTIONARY
  5
31E
102
{ACAD_REACTORS
330
31D
102
}
330
31D
100
AcDbDictionary
  0
DICTIONARY
  5
31F
102
{ACAD_REACTORS
330
31D
102
}
330
31D
100
AcDbDictionary
  3
Model
350
321
  3
ﾚｲｱｳﾄ1
350
322
  3
ﾚｲｱｳﾄ2
350
323
  0
DICTIONARY
  5
320
102
{ACAD_REACTORS
330
31D
102
}
330
31D
100
AcDbDictionary
  3
STANDARD
350
324
  0
LAYOUT
  5
321
102
{ACAD_REACTORS
330
31F
102
}
330
31F
100
AcDbPlotSettings
 70
11952
  4
A3
 44
297.000000
 45
420.000000
 73
  1
 72
  1
100
AcDbLayout
  1
Model
 71
0
330
314
  0
LAYOUT
  5
322
102
{ACAD_REACTORS
330
31F
102
}
330
31F
100
AcDbPlotSettings
100
AcDbLayout
  1
ﾚｲｱｳﾄ1
 71
1
330
315
  0
LAYOUT
  5
323
102
{ACAD_REACTORS
330
31F
102
}
330
31F
100
AcDbPlotSettings
100
AcDbLayout
  1
ﾚｲｱｳﾄ2
 71
2
330
316
  0
MLINESTYLE
  5
324
102
{ACAD_REACTORS
330
320
102
}
330
320
100
AcDbMlineStyle
  2
STANDARD
 70
     0
  3

 62
   256
 51
90.00
 52
90.00
 71
     2
 49
0.50
 62
   256
  6
BYLAYER
 49
-0.50
 62
   256
  6
BYLAYER
  0
ENDSEC
  0
EOF
