  0
SECTION
  2
HEADER
  9
$ACADVER
  1
AC1027
  9
$DWGCODEPAGE
  3
ANSI_932
  9
$LTSCALE
 40
20.0
  9
$FILLMODE
 70
     1
  9
$CLAYER
  8
0
  9
$PDMODE
 70
     0
  9
$SPLFRAME
 70
     0
  9
$SPLINETYPE
 70
     6
  9
$SPLINESEGS
 70
     8
  9
$DIMASZ
 40
2.000000
  9
$DIMEXE
 40
1.500000
  9
$DIMEXO
 40
0.800000
  9
$DIMTAD
 70
     1
  9
$DIMTIH
 70
     0
  9
$DIMTOH
 70
     0
  9
$DIMTVP
 40
0.500000
  9
$DIMTXT
 40
3.100000
  9
$EXTMIN
 10
0.000000
 20
0.000000
 30
0.000000
  9
$EXTMAX
 10
297.000000
 20
420.000000
 30
0.000000
  9
$MEASUREMENT
 70
  1
  9
$LIMMIN
 10
0.000000
 20
0.000000
  9
$LIMMAX
 10
297.000000
 20
420.000000
  9
$HANDSEED
  5
364
  9
$LWDISPLAY
290
     0
  9
$DIMBLK
  1
_OPEN
  9
$DIMDEC
 70
     2
  9
$DIMADEC
 70
     2
  9
$DIMAUNIT
 70
     0
  9
$DIMZIN
 70
     8
  9
$DIMAZIN
 70
     2
  9
$DIMTOFL
 70
     1
  0
ENDSEC
  0
SECTION
  2
CLASSES
  0
ENDSEC
  0
SECTION
  2
TABLES
  0
TABLE
  2
VPORT
  5
333
100
AcDbSymbolTable
 70
     1
  0
VPORT
  5
334
100
AcDbSymbolTableRecord
100
AcDbViewportTableRecord
  2
*ACTIVE
 70
     0
 12
279.770344
 22
169.590289
 40
319.180579
 41
1.690393
  0
ENDTAB
  0
TABLE
  2
LTYPE
  5
335
100
AcDbSymbolTable
 70
     3
  0
LTYPE
  5
336
100
AcDbSymbolTableRecord
100
AcDbLinetypeTableRecord
  2
BYBLOCK
 70
     0
  3

 72
    65
 73
     0
 40
0.0
  0
LTYPE
  5
337
100
AcDbSymbolTableRecord
100
AcDbLinetypeTableRecord
  2
BYLAYER
 70
     0
  3

 72
    65
 73
     0
 40
0.0
  0
LTYPE
  5
338
100
AcDbSymbolTableRecord
100
AcDbLinetypeTableRecord
  2
CONTINUOUS
 70
     0
  3
Solid line (NEC CAE2D for Win R17.0 : 2022.11.25)
 72
    65
 73
     0
 40
0.0
  0
LTYPE
  5
339
100
AcDbSymbolTableRecord
100
AcDbLinetypeTableRecord
  2
CENTER
 70
     0
  3
____ _ ____ _ ____ _ ____ _ ____ _ ____
 72
    65
 73
     4
 40
2.0
 49
1.25
 74
     0
 49
-0.25
 74
     0
 49
0.25
 74
     0
 49
-0.25
 74
     0
  0
LTYPE
  5
33A
100
AcDbSymbolTableRecord
100
AcDbLinetypeTableRecord
  2
PHANTOM
 70
     0
  3
______  __  __  ______  __  __  ______ 
 72
    65
 73
     6
 40
2.5
 49
1.25
 74
     0
 49
-0.25
 74
     0
 49
0.25
 74
     0
 49
-0.25
 74
     0
 49
0.25
 74
     0
 49
-0.25
 74
     0
  0
ENDTAB
  0
TABLE
  2
LAYER
  5
33B
100
AcDbSymbolTable
 70
    10
  0
LAYER
  5
33C
100
AcDbSymbolTableRecord
100
AcDbLayerTableRecord
  2
0
 70
     0
 62
     7
  6
CONTINUOUS
370
    -3
390

  0
LAYER
  5
33D
100
AcDbSymbolTableRecord
100
AcDbLayerTableRecord
  2
DXF0
 70
     0
 62
     7
  6
CONTINUOUS
370
    -3
390

  0
LAYER
  5
33E
100
AcDbSymbolTableRecord
100
AcDbLayerTableRecord
  2
4
 70
     0
 62
     1
  6
CONTINUOUS
370
    -3
390

  0
LAYER
  5
33F
100
AcDbSymbolTableRecord
100
AcDbLayerTableRecord
  2
5
 70
     0
 62
     6
  6
CONTINUOUS
370
    -3
390

  0
LAYER
  5
340
100
AcDbSymbolTableRecord
100
AcDbLayerTableRecord
  2
1
 70
     0
 62
     7
  6
CONTINUOUS
370
    -3
390

  0
LAYER
  5
341
100
AcDbSymbolTableRecord
100
AcDbLayerTableRecord
  2
2
 70
     0
 62
     4
  6
CONTINUOUS
370
    -3
390

  0
LAYER
  5
342
100
AcDbSymbolTableRecord
100
AcDbLayerTableRecord
  2
3
 70
     0
 62
     2
  6
CONTINUOUS
370
    -3
390

  0
LAYER
  5
343
100
AcDbSymbolTableRecord
100
AcDbLayerTableRecord
  2
6
 70
     0
 62
     5
  6
CONTINUOUS
370
    -3
390

  0
LAYER
  5
344
100
AcDbSymbolTableRecord
100
AcDbLayerTableRecord
  2
7
 70
     0
 62
     3
  6
CONTINUOUS
370
    -3
390

  0
LAYER
  5
345
100
AcDbSymbolTableRecord
100
AcDbLayerTableRecord
  2
DXF1023
 70
     0
 62
    16
  6
CONTINUOUS
370
    -3
390

  0
ENDTAB
  0
TABLE
  2
STYLE
  5
346
100
AcDbSymbolTable
 70
     4
  0
STYLE
  5
347
100
AcDbSymbolTableRecord
100
AcDbTextStyleTableRecord
  2
STANDARD
 70
    64
 40
0.0
 41
1.0
 50
0.0
 71
     0
 42
3.000000000000000
  3
TXT
  4

  0
STYLE
  5
348
100
AcDbSymbolTableRecord
100
AcDbTextStyleTableRecord
  2
ANKTATE
 70
    68
 40
0.0
 41
1.0
 50
0.0
 71
     0
 42
3.000000000000000
  3
TXT
  4

  0
STYLE
  5
349
100
AcDbSymbolTableRecord
100
AcDbTextStyleTableRecord
  2
KNJYOKO
 70
    64
 40
0.0
 41
1.0
 50
0.0
 71
     0
 42
3.000000000000000
  3
TXT
  4
BIGFONT
  0
STYLE
  5
34A
100
AcDbSymbolTableRecord
100
AcDbTextStyleTableRecord
  2
KNJTATE
 70
    68
 40
0.0
 41
1.0
 50
0.0
 71
     0
 42
3.000000000000000
  3
TXT
  4
BIGFONT
  0
ENDTAB
  0
TABLE
  2
VIEW
  5
34B
100
AcDbSymbolTable
 70
     0
  0
ENDTAB
  0
TABLE
  2
UCS
  5
34C
100
AcDbSymbolTable
 70
     0
  0
ENDTAB
  0
TABLE
  2
APPID
  5
34D
100
AcDbSymbolTable
 70
     1
  0
APPID
  5
34E
100
AcDbSymbolTableRecord
100
AcDbRegAppTableRecord
  2
ACAD
 70
     0
  0
ENDTAB
  0
TABLE
  2
DIMSTYLE
  5
34F
100
AcDbSymbolTable
 70
     2
100
AcDbDimStyleTable
  0
DIMSTYLE
105
350
100
AcDbSymbolTableRecord
100
AcDbDimStyleTableRecord
  2
STANDARD
 70
     0
 41
2.000000
 44
1.500000
 42
0.800000
145
0.661290
140
3.100000
144
1.000000
146
0.645161
340
347
  0
DIMSTYLE
105
351
100
AcDbSymbolTableRecord
100
AcDbDimStyleTableRecord
  2
DXF001
 70
     0
 41
2.000000
 44
1.500000
 42
0.800000
145
0.661290
140
3.100000
144
1.000000
146
0.645161
 77
     1
 73
     0
 74
     0
271
     2
179
     2
275
     0
 78
     8
 79
     2
172
     1
340
347
  0
ENDTAB
  0
TABLE
  2
BLOCK_RECORD
  5
352
100
AcDbSymbolTable
 70
    12
  0
BLOCK_RECORD
  5
353
100
AcDbSymbolTableRecord
100
AcDbBlockTableRecord
  2
*MODEL_SPACE
  0
BLOCK_RECORD
  5
354
100
AcDbSymbolTableRecord
100
AcDbBlockTableRecord
  2
*PAPER_SPACE
  0
BLOCK_RECORD
  5
355
100
AcDbSymbolTableRecord
100
AcDbBlockTableRecord
  2
*PAPER_SPACE0
  0
BLOCK_RECORD
  5
1
100
AcDbSymbolTableRecord
100
AcDbBlockTableRecord
  2
_NONE
  0
BLOCK_RECORD
  5
4
100
AcDbSymbolTableRecord
100
AcDbBlockTableRecord
  2
_CLOSED
  0
BLOCK_RECORD
  5
B
100
AcDbSymbolTableRecord
100
AcDbBlockTableRecord
  2
_DOT
  0
BLOCK_RECORD
  5
13
100
AcDbSymbolTableRecord
100
AcDbBlockTableRecord
  2
_OPEN
  0
BLOCK_RECORD
  5
19
100
AcDbSymbolTableRecord
100
AcDbBlockTableRecord
  2
_ORIGIN
  0
BLOCK_RECORD
  5
1E
100
AcDbSymbolTableRecord
100
AcDbBlockTableRecord
  2
_OPEN30
  0
BLOCK_RECORD
  5
24
100
AcDbSymbolTableRecord
100
AcDbBlockTableRecord
  2
_BOXFILLED
  0
BLOCK_RECORD
  5
29
100
AcDbSymbolTableRecord
100
AcDbBlockTableRecord
  2
_BOXBLANK
  0
BLOCK_RECORD
  5
31
100
AcDbSymbolTableRecord
100
AcDbBlockTableRecord
  2
_OBLIQUE
  0
BLOCK_RECORD
  5
35
100
AcDbSymbolTableRecord
100
AcDbBlockTableRecord
  2
_OPEN90
  0
BLOCK_RECORD
  5
3B
100
AcDbSymbolTableRecord
100
AcDbBlockTableRecord
  2
_CLOSEDBLANK
  0
BLOCK_RECORD
  5
41
100
AcDbSymbolTableRecord
100
AcDbBlockTableRecord
  2
_DOTBLANK
  0
ENDTAB
  0
ENDSEC
  0
SECTION
  2
BLOCKS
  0
BLOCK
  5
356
100
AcDbEntity
  8
0
100
AcDbBlockBegin
  2
*MODEL_SPACE
 70
     0
 10
0.0
 20
0.0
 30
0.0
  3
*MODEL_SPACE
  1

  0
ENDBLK
  5
357
100
AcDbEntity
  8
0
100
AcDbBlockEnd
  0
BLOCK
  5
358
100
AcDbEntity
  8
0
100
AcDbBlockBegin
  2
*PAPER_SPACE
 70
     0
 10
0.0
 20
0.0
 30
0.0
  3
*PAPER_SPACE
  1

  0
ENDBLK
  5
359
100
AcDbEntity
  8
0
100
AcDbBlockEnd
  0
BLOCK
  5
35A
100
AcDbEntity
  8
0
100
AcDbBlockBegin
  2
*PAPER_SPACE0
 70
     0
 10
0.0
 20
0.0
 30
0.0
  3
*PAPER_SPACE0
  1

  0
ENDBLK
  5
35B
100
AcDbEntity
  8
0
100
AcDbBlockEnd
  0
BLOCK
  5
2
330
1
100
AcDbEntity
  8
0
100
AcDbBlockBegin
  2
_NONE
 70
     0
 10
0.0
 20
0.0
 30
0.0
  3
_NONE
  1

  0
ENDBLK
  5
3
330
1
100
AcDbEntity
  8
0
100
AcDbBlockEnd
  0
BLOCK
  5
5
330
4
100
AcDbEntity
  8
0
100
AcDbBlockBegin
  2
_CLOSED
 70
     0
 10
0.0
 20
0.0
 30
0.0
  3
_CLOSED
  1

  0
LINE
  5
6
330
4
100
AcDbEntity
  8
0
  6
BYBLOCK
 62
     0
370
    -2
100
AcDbLine
 10
-1.0
 20
0.166667
 30
0.0
 11
0.0
 21
0.0
 31
0.0
  0
LINE
  5
7
330
4
100
AcDbEntity
  8
0
  6
BYBLOCK
 62
     0
370
    -2
100
AcDbLine
 10
0.0
 20
0.0
 30
0.0
 11
-1.0
 21
-0.166667
 31
0.0
  0
LINE
  5
8
330
4
100
AcDbEntity
  8
0
  6
BYBLOCK
 62
     0
370
    -2
100
AcDbLine
 10
-1.0
 20
0.166667
 30
0.0
 11
-1.0
 21
-0.166667
 31
0.0
  0
LINE
  5
9
330
4
100
AcDbEntity
  8
0
  6
BYBLOCK
 62
     0
370
    -2
100
AcDbLine
 10
0.0
 20
0.0
 30
0.0
 11
-1.0
 21
0.0
 31
0.0
  0
ENDBLK
  5
A
330
4
100
AcDbEntity
  8
0
100
AcDbBlockEnd
  0
BLOCK
  5
C
330
B
100
AcDbEntity
  8
0
100
AcDbBlockBegin
  2
_DOT
 70
     0
 10
0.0
 20
0.0
 30
0.0
  3
_DOT
  1

  0
POLYLINE
  5
D
330
B
100
AcDbEntity
  8
0
  6
BYBLOCK
 62
     0
370
    -2
100
AcDb2dPolyline
 66
     1
 10
0.0
 20
0.0
 30
0.0
 70
     1
 40
0.5
 41
0.5
  0
VERTEX
  5
E
330
B
100
AcDbEntity
  8
0
  6
BYBLOCK
 62
     0
370
    -2
100
AcDbVertex
100
AcDb2dVertex
 10
-0.25
 20
0.0
 30
0.0
 42
1.0
  0
VERTEX
  5
F
330
B
100
AcDbEntity
  8
0
  6
BYBLOCK
 62
     0
370
    -2
100
AcDbVertex
100
AcDb2dVertex
 10
0.25
 20
0.0
 30
0.0
 42
1.0
  0
SEQEND
  5
10
330
B
100
AcDbEntity
  8
0
  6
BYBLOCK
 62
     0
370
    -2
  0
LINE
  5
11
330
B
100
AcDbEntity
  8
0
  6
BYBLOCK
 62
     0
370
    -2
100
AcDbLine
 10
-0.5
 20
0.0
 30
0.0
 11
-1.0
 21
0.0
 31
0.0
  0
ENDBLK
  5
12
330
B
100
AcDbEntity
  8
0
100
AcDbBlockEnd
  0
BLOCK
  5
14
330
13
100
AcDbEntity
  8
0
100
AcDbBlockBegin
  2
_OPEN
 70
     0
 10
0.0
 20
0.0
 30
0.0
  3
_OPEN
  1

  0
LINE
  5
15
330
13
100
AcDbEntity
  8
0
  6
BYBLOCK
 62
     0
370
    -2
100
AcDbLine
 10
-1.0
 20
0.166667
 30
0.0
 11
0.0
 21
0.0
 31
0.0
  0
LINE
  5
16
330
13
100
AcDbEntity
  8
0
  6
BYBLOCK
 62
     0
370
    -2
100
AcDbLine
 10
0.0
 20
0.0
 30
0.0
 11
-1.0
 21
-0.166667
 31
0.0
  0
LINE
  5
17
330
13
100
AcDbEntity
  8
0
  6
BYBLOCK
 62
     0
370
    -2
100
AcDbLine
 10
0.0
 20
0.0
 30
0.0
 11
-1.0
 21
0.0
 31
0.0
  0
ENDBLK
  5
18
330
13
100
AcDbEntity
  8
0
100
AcDbBlockEnd
  0
BLOCK
  5
1A
330
19
100
AcDbEntity
  8
0
100
AcDbBlockBegin
  2
_ORIGIN
 70
     0
 10
0.0
 20
0.0
 30
0.0
  3
_ORIGIN
  1

  0
CIRCLE
  5
1B
330
19
100
AcDbEntity
  8
0
  6
BYBLOCK
 62
     0
370
    -2
100
AcDbCircle
 10
0.0
 20
0.0
 30
0.0
 40
0.5
  0
LINE
  5
1C
330
19
100
AcDbEntity
  8
0
  6
BYBLOCK
 62
     0
370
    -2
100
AcDbLine
 10
0.0
 20
0.0
 30
0.0
 11
-1.0
 21
0.0
 31
0.0
  0
ENDBLK
  5
1D
330
19
100
AcDbEntity
  8
0
100
AcDbBlockEnd
  0
BLOCK
  5
1F
330
1E
100
AcDbEntity
  8
0
100
AcDbBlockBegin
  2
_OPEN30
 70
     0
 10
0.0
 20
0.0
 30
0.0
  3
_OPEN30
  1

  0
LINE
  5
20
330
1E
100
AcDbEntity
  8
0
  6
BYBLOCK
 62
     0
370
    -2
100
AcDbLine
 10
-1.0
 20
0.267949
 30
0.0
 11
0.0
 21
0.0
 31
0.0
  0
LINE
  5
21
330
1E
100
AcDbEntity
  8
0
  6
BYBLOCK
 62
     0
370
    -2
100
AcDbLine
 10
0.0
 20
0.0
 30
0.0
 11
-1.0
 21
-0.267949
 31
0.0
  0
LINE
  5
22
330
1E
100
AcDbEntity
  8
0
  6
BYBLOCK
 62
     0
370
    -2
100
AcDbLine
 10
0.0
 20
0.0
 30
0.0
 11
-1.0
 21
0.0
 31
0.0
  0
ENDBLK
  5
23
330
1E
100
AcDbEntity
  8
0
100
AcDbBlockEnd
  0
BLOCK
  5
25
330
24
100
AcDbEntity
  8
0
100
AcDbBlockBegin
  2
_BOXFILLED
 70
     0
 10
0.0
 20
0.0
 30
0.0
  3
_BOXFILLED
  1

  0
SOLID
  5
26
330
24
100
AcDbEntity
  8
0
  6
BYBLOCK
 62
     0
370
    -2
100
AcDbTrace
 10
-0.5
 20
0.5
 30
0.0
 11
0.5
 21
0.5
 31
0.0
 12
-0.5
 22
-0.5
 32
0.0
 13
0.5
 23
-0.5
 33
0.0
  0
LINE
  5
27
330
24
100
AcDbEntity
  8
0
  6
BYBLOCK
 62
     0
370
    -2
100
AcDbLine
 10
-0.5
 20
0.0
 30
0.0
 11
-1.0
 21
0.0
 31
0.0
  0
ENDBLK
  5
28
330
24
100
AcDbEntity
  8
0
100
AcDbBlockEnd
  0
BLOCK
  5
2A
330
29
100
AcDbEntity
  8
0
100
AcDbBlockBegin
  2
_BOXBLANK
 70
     0
 10
0.0
 20
0.0
 30
0.0
  3
_BOXBLANK
  1

  0
LINE
  5
2B
330
29
100
AcDbEntity
  8
0
  6
BYBLOCK
 62
     0
370
    -2
100
AcDbLine
 10
-0.5
 20
-0.5
 30
0.0
 11
0.5
 21
-0.5
 31
0.0
  0
LINE
  5
2C
330
29
100
AcDbEntity
  8
0
  6
BYBLOCK
 62
     0
370
    -2
100
AcDbLine
 10
0.5
 20
-0.5
 30
0.0
 11
0.5
 21
0.5
 31
0.0
  0
LINE
  5
2D
330
29
100
AcDbEntity
  8
0
  6
BYBLOCK
 62
     0
370
    -2
100
AcDbLine
 10
0.5
 20
0.5
 30
0.0
 11
-0.5
 21
0.5
 31
0.0
  0
LINE
  5
2E
330
29
100
AcDbEntity
  8
0
  6
BYBLOCK
 62
     0
370
    -2
100
AcDbLine
 10
-0.5
 20
0.5
 30
0.0
 11
-0.5
 21
-0.5
 31
0.0
  0
LINE
  5
2F
330
29
100
AcDbEntity
  8
0
  6
BYBLOCK
 62
     0
370
    -2
100
AcDbLine
 10
-0.5
 20
0.0
 30
0.0
 11
-1.0
 21
0.0
 31
0.0
  0
ENDBLK
  5
30
330
29
100
AcDbEntity
  8
0
100
AcDbBlockEnd
  0
BLOCK
  5
32
330
31
100
AcDbEntity
  8
0
100
AcDbBlockBegin
  2
_OBLIQUE
 70
     0
 10
0.0
 20
0.0
 30
0.0
  3
_OBLIQUE
  1

  0
LINE
  5
33
330
31
100
AcDbEntity
  8
0
  6
BYBLOCK
 62
     0
370
    -2
100
AcDbLine
 10
-0.5
 20
-0.5
 30
0.0
 11
0.5
 21
0.5
 31
0.0
  0
ENDBLK
  5
34
330
31
100
AcDbEntity
  8
0
100
AcDbBlockEnd
  0
BLOCK
  5
36
330
35
100
AcDbEntity
  8
0
100
AcDbBlockBegin
  2
_OPEN90
 70
     0
 10
0.0
 20
0.0
 30
0.0
  3
_OPEN90
  1

  0
LINE
  5
37
330
35
100
AcDbEntity
  8
0
  6
BYBLOCK
 62
     0
370
    -2
100
AcDbLine
 10
-0.5
 20
0.5
 30
0.0
 11
0.0
 21
0.0
 31
0.0
  0
LINE
  5
38
330
35
100
AcDbEntity
  8
0
  6
BYBLOCK
 62
     0
370
    -2
100
AcDbLine
 10
0.0
 20
0.0
 30
0.0
 11
-0.5
 21
-0.5
 31
0.0
  0
LINE
  5
39
330
35
100
AcDbEntity
  8
0
  6
BYBLOCK
 62
     0
370
    -2
100
AcDbLine
 10
0.0
 20
0.0
 30
0.0
 11
-1.0
 21
0.0
 31
0.0
  0
ENDBLK
  5
3A
330
35
100
AcDbEntity
  8
0
100
AcDbBlockEnd
  0
BLOCK
  5
3C
330
3B
100
AcDbEntity
  8
0
100
AcDbBlockBegin
  2
_CLOSEDBLANK
 70
     0
 10
0.0
 20
0.0
 30
0.0
  3
_CLOSEDBLANK
  1

  0
LINE
  5
3D
330
3B
100
AcDbEntity
  8
0
  6
BYBLOCK
 62
     0
370
    -2
100
AcDbLine
 10
-1.0
 20
0.1666666666666666
 30
0.0
 11
0.0
 21
0.0
 31
0.0
  0
LINE
  5
3E
330
3B
100
AcDbEntity
  8
0
  6
BYBLOCK
 62
     0
370
    -2
100
AcDbLine
 10
0.0
 20
0.0
 30
0.0
 11
-1.0
 21
-0.1666666666666666
 31
0.0
  0
LINE
  5
3F
330
3B
100
AcDbEntity
  8
0
  6
BYBLOCK
 62
     0
370
    -2
100
AcDbLine
 10
-1.0
 20
0.1666666666666666
 30
0.0
 11
-1.0
 21
-0.1666666666666666
 31
0.0
  0
ENDBLK
  5
40
330
3B
100
AcDbEntity
  8
0
100
AcDbBlockEnd
  0
BLOCK
  5
42
330
41
100
AcDbEntity
  8
0
100
AcDbBlockBegin
  2
_DOTBLANK
 70
     0
 10
0.0
 20
0.0
 30
0.0
  3
_DOTBLANK
  1

  0
CIRCLE
  5
43
330
41
100
AcDbEntity
  8
0
  6
BYBLOCK
 62
     0
370
    -2
100
AcDbCircle
 10
0.0
 20
0.0
 30
0.0
 40
0.5
  0
LINE
  5
44
330
41
100
AcDbEntity
  8
0
  6
BYBLOCK
 62
     0
370
    -2
100
AcDbLine
 10
-0.5
 20
0.0
 30
0.0
 11
-1.0
 21
0.0
 31
0.0
  0
ENDBLK
  5
45
330
41
100
AcDbEntity
  8
0
100
AcDbBlockEnd
  0
ENDSEC
  0
SECTION
  2
ENTITIES
  0
LINE
  5
46
100
AcDbEntity
  8
1
  6
CONTINUOUS
 62
7
100
AcDbLine
 10
39.00000153760811
 20
282.9604858068466
 30
0.000000000000000
 11
39.00000153760811
 21
271.9604858068467
 31
0.000000000000000
  0
ARC
  5
47
100
AcDbEntity
  8
1
  6
CONTINUOUS
 62
7
100
AcDbCircle
 10
26.90000153760811
 20
273.2104858068467
 30
0.000000000000000
 40
0.5000000000000000
100
AcDbArc
 50
180.0000000000000
 51
292.6198649999999
  0
LINE
  5
48
100
AcDbEntity
  8
1
  6
CONTINUOUS
 62
7
100
AcDbLine
 10
25.00000153760811
 20
282.9604858068466
 30
0.000000000000000
 11
25.00000153760811
 21
271.9604858068467
 31
0.000000000000000
  0
LINE
  5
49
100
AcDbEntity
  8
1
  6
CONTINUOUS
 62
7
100
AcDbLine
 10
27.09230953760812
 20
272.7489468068467
 30
0.000000000000000
 11
37.29230953760809
 21
276.9989468068467
 31
0.000000000000000
  0
ARC
  5
4A
100
AcDbEntity
  8
5
  6
PHANTOM
 62
6
100
AcDbCircle
 10
154.1944975376080
 20
187.8472208068466
 30
0.000000000000000
 40
6.000000000000000
100
AcDbArc
 50
135.0000000000000
 51
225.0000000000000
  0
LINE
  5
4B
100
AcDbEntity
  8
5
  6
PHANTOM
 62
6
100
AcDbLine
 10
154.9508465376080
 20
204.1599188068466
 30
0.000000000000000
 11
127.3244395376080
 21
176.5335118068467
 31
0.000000000000000
  0
LINE
  5
4C
100
AcDbEntity
  8
5
  6
PHANTOM
 62
6
100
AcDbLine
 10
157.0229245376080
 20
173.7050848068465
 30
0.000000000000000
 11
146.5379755376080
 21
163.2201358068467
 31
0.000000000000000
  0
MTEXT
  5
4D
100
AcDbEntity
  8
7
  6
CONTINUOUS
 62
3
100
AcDbMText
 10
10.00000153760811
 20
17.99999980684674
 30
0.000000000000000
 40
3.000000000000000
 41
0.000000000000000
 44
0.6739999771118164
 71
     7
 72
     1
  1
{\H0.94x;{TYPE No.THA-405-3K(No.200)}}
 11
1.000000000000000
 21
0.000000000000000
 31
0.000000000000000
  7
STANDARD
  0
ARC
  5
4E
100
AcDbEntity
  8
1
  6
CONTINUOUS
 62
7
100
AcDbCircle
 10
30.00000153760811
 20
223.5248898068467
 30
0.000000000000000
 40
5.000000000000000
100
AcDbArc
 50
90.00000000000000
 51
180.0000000000000
  0
ARC
  5
4F
100
AcDbEntity
  8
1
  6
CONTINUOUS
 62
7
100
AcDbCircle
 10
30.00000153760811
 20
149.5248898068466
 30
0.000000000000000
 40
5.000000000000000
100
AcDbArc
 50
180.0000000000000
 51
270.0000000000000
  0
LINE
  5
50
100
AcDbEntity
  8
1
  6
CONTINUOUS
 62
7
100
AcDbLine
 10
25.00000153760811
 20
223.5248898068467
 30
0.000000000000000
 11
25.00000153760811
 21
149.5248898068466
 31
0.000000000000000
  0
LINE
  5
51
100
AcDbEntity
  8
1
  6
CONTINUOUS
 62
7
100
AcDbLine
 10
53.00000153760810
 20
223.5248898068467
 30
0.000000000000000
 11
53.00000153760810
 21
149.5248898068466
 31
0.000000000000000
  0
LINE
  5
52
100
AcDbEntity
  8
1
  6
CONTINUOUS
 62
7
100
AcDbLine
 10
50.00000153760812
 20
149.5248898068466
 30
0.000000000000000
 11
50.00000153760812
 21
223.5248898068467
 31
0.000000000000000
  0
LINE
  5
53
100
AcDbEntity
  8
1
  6
CONTINUOUS
 62
7
100
AcDbLine
 10
28.00000153760811
 20
223.5248898068467
 30
0.000000000000000
 11
28.00000153760811
 21
149.5248898068466
 31
0.000000000000000
  0
LINE
  5
54
100
AcDbEntity
  8
1
  6
CONTINUOUS
 62
7
100
AcDbLine
 10
29.25000153760811
 20
160.0248898068466
 30
0.000000000000000
 11
29.25000153760811
 21
205.5248898068467
 31
0.000000000000000
  0
LINE
  5
55
100
AcDbEntity
  8
1
  6
CONTINUOUS
 62
7
100
AcDbLine
 10
48.75000153760812
 20
160.0248898068466
 30
0.000000000000000
 11
48.75000153760812
 21
205.5248898068467
 31
0.000000000000000
  0
LINE
  5
56
100
AcDbEntity
  8
4
  6
CENTER
 62
1
100
AcDbLine
 10
39.00000153760811
 20
231.5248898068466
 30
0.000000000000000
 11
39.00000153760811
 21
141.5248898068466
 31
0.000000000000000
  0
LINE
  5
57
100
AcDbEntity
  8
1
  6
CONTINUOUS
 62
7
100
AcDbLine
 10
29.50000153760811
 20
205.4248898068467
 30
0.000000000000000
 11
29.50000153760811
 21
160.5248898068467
 31
0.000000000000000
  0
LINE
  5
58
100
AcDbEntity
  8
1
  6
CONTINUOUS
 62
7
100
AcDbLine
 10
48.50000153760809
 20
205.4248898068467
 30
0.000000000000000
 11
48.50000153760809
 21
160.5248898068467
 31
0.000000000000000
  0
ARC
  5
59
100
AcDbEntity
  8
1
  6
CONTINUOUS
 62
7
100
AcDbCircle
 10
48.00000153760810
 20
149.5248898068466
 30
0.000000000000000
 40
5.000000000000000
100
AcDbArc
 50
270.0000000000000
 51
360.0000000000000
  0
LINE
  5
5A
100
AcDbEntity
  8
1
  6
CONTINUOUS
 62
7
100
AcDbLine
 10
48.00000153760810
 20
144.5248898068466
 30
0.000000000000000
 11
30.00000153760811
 21
144.5248898068466
 31
0.000000000000000
  0
LINE
  5
5B
100
AcDbEntity
  8
1
  6
CONTINUOUS
 62
7
100
AcDbLine
 10
38.00000153760811
 20
165.3748898068467
 30
0.000000000000000
 11
38.00000153760811
 21
172.3748898068465
 31
0.000000000000000
  0
LINE
  5
5C
100
AcDbEntity
  8
1
  6
CONTINUOUS
 62
7
100
AcDbLine
 10
40.00000153760811
 20
165.3748898068467
 30
0.000000000000000
 11
40.00000153760811
 21
172.3748898068465
 31
0.000000000000000
  0
CIRCLE
  5
5D
100
AcDbEntity
  8
1
  6
CONTINUOUS
 62
7
100
AcDbCircle
 10
39.00000153760811
 20
169.0248898068467
 30
0.000000000000000
 40
7.799999999999998
  0
CIRCLE
  5
5E
100
AcDbEntity
  8
1
  6
CONTINUOUS
 62
7
100
AcDbCircle
 10
39.00000153760811
 20
169.0248898068467
 30
0.000000000000000
 40
7.650000000000000
  0
LINE
  5
5F
100
AcDbEntity
  8
1
  6
CONTINUOUS
 62
7
100
AcDbLine
 10
30.00000153760811
 20
147.5248898068466
 30
0.000000000000000
 11
48.00000153760810
 21
147.5248898068466
 31
0.000000000000000
  0
LINE
  5
60
100
AcDbEntity
  8
1
  6
CONTINUOUS
 62
7
100
AcDbLine
 10
46.75000153760810
 20
158.0248898068466
 30
0.000000000000000
 11
31.25000153760811
 21
158.0248898068466
 31
0.000000000000000
  0
LINE
  5
61
100
AcDbEntity
  8
1
  6
CONTINUOUS
 62
7
100
AcDbLine
 10
31.50000153760811
 20
158.5248898068467
 30
0.000000000000000
 11
46.50000153760809
 21
158.5248898068467
 31
0.000000000000000
  0
ARC
  5
62
100
AcDbEntity
  8
1
  6
CONTINUOUS
 62
7
100
AcDbCircle
 10
30.00000153760811
 20
149.5248898068466
 30
0.000000000000000
 40
2.000000000000000
100
AcDbArc
 50
180.0000000000000
 51
270.0000000000000
  0
ARC
  5
63
100
AcDbEntity
  8
1
  6
CONTINUOUS
 62
7
100
AcDbCircle
 10
31.25000153760811
 20
160.0248898068466
 30
0.000000000000000
 40
2.000000000000000
100
AcDbArc
 50
180.0000000000000
 51
270.0000000000000
  0
ARC
  5
64
100
AcDbEntity
  8
1
  6
CONTINUOUS
 62
7
100
AcDbCircle
 10
31.50000153760811
 20
160.5248898068467
 30
0.000000000000000
 40
2.000000000000000
100
AcDbArc
 50
180.0000000000000
 51
270.0000000000000
  0
LINE
  5
65
100
AcDbEntity
  8
1
  6
CONTINUOUS
 62
7
100
AcDbLine
 10
36.60000153760810
 20
161.7611098068464
 30
0.000000000000000
 11
36.60000153760810
 21
161.6032998068466
 31
0.000000000000000
  0
LINE
  5
66
100
AcDbEntity
  8
1
  6
CONTINUOUS
 62
7
100
AcDbLine
 10
38.00000153760811
 20
165.3748898068467
 30
0.000000000000000
 11
40.00000153760811
 21
165.3748898068467
 31
0.000000000000000
  0
CIRCLE
  5
67
100
AcDbEntity
  8
1
  6
CONTINUOUS
 62
7
100
AcDbCircle
 10
39.00000153760811
 20
163.8748898068466
 30
0.000000000000000
 40
0.7500000000000000
  0
ARC
  5
68
100
AcDbEntity
  8
1
  6
CONTINUOUS
 62
7
100
AcDbCircle
 10
48.00000153760810
 20
149.5248898068466
 30
0.000000000000000
 40
2.000000000000000
100
AcDbArc
 50
270.0000000000000
 51
360.0000000000000
  0
ARC
  5
69
100
AcDbEntity
  8
1
  6
CONTINUOUS
 62
7
100
AcDbCircle
 10
46.75000153760810
 20
160.0248898068466
 30
0.000000000000000
 40
2.000000000000000
100
AcDbArc
 50
270.0000000000000
 51
360.0000000000000
  0
ARC
  5
6A
100
AcDbEntity
  8
1
  6
CONTINUOUS
 62
7
100
AcDbCircle
 10
46.50000153760809
 20
160.5248898068467
 30
0.000000000000000
 40
2.000000000000000
100
AcDbArc
 50
270.0000000000000
 51
360.0000000000000
  0
LINE
  5
6B
100
AcDbEntity
  8
1
  6
CONTINUOUS
 62
7
100
AcDbLine
 10
41.40000153760809
 20
161.7611098068464
 30
0.000000000000000
 11
41.40000153760809
 21
161.6032998068466
 31
0.000000000000000
  0
LINE
  5
6C
100
AcDbEntity
  8
1
  6
CONTINUOUS
 62
7
100
AcDbLine
 10
31.73622153760810
 20
171.4248898068467
 30
0.000000000000000
 11
31.57841153760811
 21
171.4248898068467
 31
0.000000000000000
  0
LINE
  5
6D
100
AcDbEntity
  8
1
  6
CONTINUOUS
 62
7
100
AcDbLine
 10
31.73622153760810
 20
166.6248898068467
 30
0.000000000000000
 11
31.57841153760811
 21
166.6248898068467
 31
0.000000000000000
  0
LINE
  5
6E
100
AcDbEntity
  8
1
  6
CONTINUOUS
 62
7
100
AcDbLine
 10
36.60000153760810
 20
176.4464798068467
 30
0.000000000000000
 11
36.60000153760810
 21
176.2886698068465
 31
0.000000000000000
  0
LINE
  5
6F
100
AcDbEntity
  8
1
  6
CONTINUOUS
 62
7
100
AcDbLine
 10
38.00000153760811
 20
172.3748898068465
 30
0.000000000000000
 11
40.00000153760811
 21
172.3748898068465
 31
0.000000000000000
  0
ARC
  5
70
100
AcDbEntity
  8
1
  6
CONTINUOUS
 62
7
100
AcDbCircle
 10
30.25000153760811
 20
181.0248898068465
 30
0.000000000000000
 40
1.000000000000000
100
AcDbArc
 50
138.5903779999999
 51
180.0000000000000
  0
LINE
  5
71
100
AcDbEntity
  8
1
  6
CONTINUOUS
 62
7
100
AcDbLine
 10
41.40000153760809
 20
176.4464798068467
 30
0.000000000000000
 11
41.40000153760809
 21
176.2886698068465
 31
0.000000000000000
  0
LINE
  5
72
100
AcDbEntity
  8
1
  6
CONTINUOUS
 62
7
100
AcDbLine
 10
46.42159253760810
 20
171.4248898068467
 30
0.000000000000000
 11
46.26378153760810
 21
171.4248898068467
 31
0.000000000000000
  0
LINE
  5
73
100
AcDbEntity
  8
1
  6
CONTINUOUS
 62
7
100
AcDbLine
 10
46.42159253760810
 20
166.6248898068467
 30
0.000000000000000
 11
46.26378153760810
 21
166.6248898068467
 31
0.000000000000000
  0
ARC
  5
74
100
AcDbEntity
  8
1
  6
CONTINUOUS
 62
7
100
AcDbCircle
 10
47.75000153760809
 20
181.0248898068465
 30
0.000000000000000
 40
1.000000000000000
100
AcDbArc
 50
0.000000000000000
 51
41.40962199999999
  0
ARC
  5
75
100
AcDbEntity
  8
5
  6
PHANTOM
 62
6
100
AcDbCircle
 10
162.6797785376081
 20
205.5248898068467
 30
0.000000000000000
 40
46.50000000000000
100
AcDbArc
 50
230.5232859999999
 51
246.7641319999999
  0
ARC
  5
76
100
AcDbEntity
  8
5
  6
PHANTOM
 62
6
100
AcDbCircle
 10
145.1237615376079
 20
164.6343498068467
 30
0.000000000000000
 40
2.000000000000000
100
AcDbArc
 50
246.7641319999999
 51
315.0000000000000
  0
LINE
  5
77
100
AcDbEntity
  8
5
  6
PHANTOM
 62
6
100
AcDbLine
 10
127.4314525376080
 20
174.3150268068466
 30
0.000000000000000
 11
133.1167265376080
 21
169.6323288068467
 31
0.000000000000000
  0
ARC
  5
78
100
AcDbEntity
  8
5
  6
PHANTOM
 62
6
100
AcDbCircle
 10
128.3850995376080
 20
175.4728518068467
 30
0.000000000000000
 40
1.500000000000000
100
AcDbArc
 50
135.0000000000000
 51
230.5232859999999
  0
LINE
  5
79
100
AcDbEntity
  8
4
  6
CENTER
 62
1
100
AcDbLine
 10
84.89054253760808
 20
205.5248898068467
 30
0.000000000000000
 11
26.29852553760811
 21
205.5248898068467
 31
0.000000000000000
  0
LINE
  5
7A
100
AcDbEntity
  8
5
  6
PHANTOM
 62
6
100
AcDbLine
 10
45.68456253760809
 20
196.0248898068467
 30
0.000000000000000
 11
79.89054253760811
 21
196.0248898068467
 31
0.000000000000000
  0
LINE
  5
7B
100
AcDbEntity
  8
5
  6
PHANTOM
 62
6
100
AcDbLine
 10
45.68456253760809
 20
215.0248898068467
 30
0.000000000000000
 11
79.89054253760811
 21
215.0248898068467
 31
0.000000000000000
  0
ARC
  5
7C
100
AcDbEntity
  8
1
  6
CONTINUOUS
 62
7
100
AcDbCircle
 10
39.00000153760811
 20
205.5248898068467
 30
0.000000000000000
 40
9.750000000000000
100
AcDbArc
 50
346.9971760000000
 51
553.0028240000001
  0
ARC
  5
7D
100
AcDbEntity
  8
1
  6
CONTINUOUS
 62
7
100
AcDbCircle
 10
39.00000153760811
 20
205.4248898068467
 30
0.000000000000000
 40
9.500000000000000
100
AcDbArc
 50
0.000000000000000
 51
180.0000000000000
  0
ARC
  5
7E
100
AcDbEntity
  8
1
  6
CONTINUOUS
 62
7
100
AcDbCircle
 10
39.00000153760811
 20
199.3482918068466
 30
0.000000000000000
 40
9.500000000000000
100
AcDbArc
 50
0.000000000000000
 51
180.0000000000000
  0
LINE
  5
7F
100
AcDbEntity
  8
1
  6
CONTINUOUS
 62
7
100
AcDbLine
 10
48.00000153760810
 20
228.5248898068467
 30
0.000000000000000
 11
30.00000153760811
 21
228.5248898068467
 31
0.000000000000000
  0
LINE
  5
80
100
AcDbEntity
  8
1
  6
CONTINUOUS
 62
7
100
AcDbLine
 10
48.00000153760810
 20
225.5248898068467
 30
0.000000000000000
 11
30.00000153760811
 21
225.5248898068467
 31
0.000000000000000
  0
ARC
  5
81
100
AcDbEntity
  8
1
  6
CONTINUOUS
 62
7
100
AcDbCircle
 10
30.00000153760811
 20
223.5248898068467
 30
0.000000000000000
 40
2.000000000000000
100
AcDbArc
 50
90.00000000000000
 51
180.0000000000000
  0
ARC
  5
82
100
AcDbEntity
  8
1
  6
CONTINUOUS
 62
7
100
AcDbCircle
 10
48.00000153760810
 20
223.5248898068467
 30
0.000000000000000
 40
5.000000000000000
100
AcDbArc
 50
0.000000000000000
 51
90.00000000000000
  0
ARC
  5
83
100
AcDbEntity
  8
1
  6
CONTINUOUS
 62
7
100
AcDbCircle
 10
48.00000153760810
 20
223.5248898068467
 30
0.000000000000000
 40
2.000000000000000
100
AcDbArc
 50
0.000000000000000
 51
90.00000000000000
  0
LINE
  5
84
100
AcDbEntity
  8
5
  6
PHANTOM
 62
6
100
AcDbLine
 10
81.89054253760808
 20
213.0248898068467
 30
0.000000000000000
 11
81.89054253760808
 21
198.0248898068467
 31
0.000000000000000
  0
ARC
  5
85
100
AcDbEntity
  8
5
  6
PHANTOM
 62
6
100
AcDbCircle
 10
79.89054253760811
 20
198.0248898068467
 30
0.000000000000000
 40
2.000000000000000
100
AcDbArc
 50
270.0000000000000
 51
360.0000000000000
  0
ARC
  5
86
100
AcDbEntity
  8
5
  6
PHANTOM
 62
6
100
AcDbCircle
 10
79.89054253760811
 20
213.0248898068467
 30
0.000000000000000
 40
2.000000000000000
100
AcDbArc
 50
0.000000000000000
 51
90.00000000000000
  0
LINE
  5
87
100
AcDbEntity
  8
1
  6
CONTINUOUS
 62
7
100
AcDbLine
 10
38.50000153760811
 20
271.4604858068467
 30
0.000000000000000
 11
25.50000153760811
 21
271.4604858068467
 31
0.000000000000000
  0
ARC
  5
88
100
AcDbEntity
  8
1
  6
CONTINUOUS
 62
7
100
AcDbCircle
 10
25.50000153760811
 20
271.9604858068467
 30
0.000000000000000
 40
0.5000000000000000
100
AcDbArc
 50
180.0000000000000
 51
270.0000000000000
  0
ARC
  5
89
100
AcDbEntity
  8
1
  6
CONTINUOUS
 62
7
100
AcDbCircle
 10
38.50000153760811
 20
271.9604858068467
 30
0.000000000000000
 40
0.5000000000000000
100
AcDbArc
 50
270.0000000000000
 51
360.0000000000000
  0
LINE
  5
8A
100
AcDbEntity
  8
1
  6
CONTINUOUS
 62
7
100
AcDbLine
 10
191.3797785376081
 20
63.64535980684674
 30
0.000000000000000
 11
191.3797785376081
 21
53.64535980684674
 31
0.000000000000000
  0
LINE
  5
8B
100
AcDbEntity
  8
1
  6
CONTINUOUS
 62
7
100
AcDbLine
 10
166.6797785376081
 20
61.64535980684674
 30
0.000000000000000
 11
166.6797785376081
 21
55.64535980684674
 31
0.000000000000000
  0
LINE
  5
8C
100
AcDbEntity
  8
1
  6
CONTINUOUS
 62
7
100
AcDbLine
 10
166.1797785376078
 20
62.14535980684671
 30
0.000000000000000
 11
166.1797785376078
 21
55.14535980684672
 31
0.000000000000000
  0
LINE
  5
8D
100
AcDbEntity
  8
1
  6
CONTINUOUS
 62
7
100
AcDbLine
 10
160.1797785376081
 20
44.64535980684671
 30
0.000000000000000
 11
160.1797785376081
 21
72.64535980684671
 31
0.000000000000000
  0
LINE
  5
8E
100
AcDbEntity
  8
1
  6
CONTINUOUS
 62
7
100
AcDbLine
 10
161.6797785376079
 20
44.64535980684671
 30
0.000000000000000
 11
161.6797785376079
 21
72.64535980684671
 31
0.000000000000000
  0
LINE
  5
8F
100
AcDbEntity
  8
1
  6
CONTINUOUS
 62
7
100
AcDbLine
 10
162.6797785376081
 20
44.64535980684671
 30
0.000000000000000
 11
162.6797785376081
 21
72.64535980684671
 31
0.000000000000000
  0
LINE
  5
90
100
AcDbEntity
  8
1
  6
CONTINUOUS
 62
7
100
AcDbLine
 10
188.3797785376080
 20
68.38885980684674
 30
0.000000000000000
 11
188.3797785376080
 21
47.39535980684672
 31
0.000000000000000
  0
LINE
  5
91
100
AcDbEntity
  8
1
  6
CONTINUOUS
 62
7
100
AcDbLine
 10
185.8797785376080
 20
48.14535980684674
 30
0.000000000000000
 11
185.8797785376080
 21
69.14535980684674
 31
0.000000000000000
  0
LINE
  5
92
100
AcDbEntity
  8
1
  6
CONTINUOUS
 62
7
100
AcDbLine
 10
186.2797785376081
 20
67.30561380684675
 30
0.000000000000000
 11
186.2797785376081
 21
48.89535980684672
 31
0.000000000000000
  0
LINE
  5
93
100
AcDbEntity
  8
1
  6
CONTINUOUS
 62
7
100
AcDbLine
 10
186.3797785376080
 20
68.38885980684674
 30
0.000000000000000
 11
186.3797785376080
 21
47.39535980684672
 31
0.000000000000000
  0
LINE
  5
94
100
AcDbEntity
  8
1
  6
CONTINUOUS
 62
7
100
AcDbLine
 10
183.1797785376081
 20
70.14535980684674
 30
0.000000000000000
 11
183.1797785376081
 21
47.14535980684671
 31
0.000000000000000
  0
LINE
  5
95
100
AcDbEntity
  8
1
  6
CONTINUOUS
 62
7
100
AcDbLine
 10
158.6797785376077
 20
47.64535980684671
 30
0.000000000000000
 11
158.6797785376077
 21
69.64535980684674
 31
0.000000000000000
  0
LINE
  5
96
100
AcDbEntity
  8
1
  6
CONTINUOUS
 62
7
100
AcDbLine
 10
158.1797785376081
 20
49.14535980684674
 30
0.000000000000000
 11
158.1797785376081
 21
68.14535980684674
 31
0.000000000000000
  0
ARC
  5
97
100
AcDbEntity
  8
1
  6
CONTINUOUS
 62
7
100
AcDbCircle
 10
164.9374235376081
 20
58.64535980684674
 30
0.000000000000000
 40
11.95505800000000
100
AcDbArc
 50
127.3784749999999
 51
232.6215250000000
  0
LINE
  5
98
100
AcDbEntity
  8
1
  6
CONTINUOUS
 62
7
100
AcDbLine
 10
184.8797785376081
 20
47.14535980684671
 30
0.000000000000000
 11
162.6797785376081
 21
47.14535980684671
 31
0.000000000000000
  0
LINE
  5
99
100
AcDbEntity
  8
4
  6
CENTER
 62
1
100
AcDbLine
 10
194.3797785376080
 20
58.64535980684674
 30
0.000000000000000
 11
149.9823655376080
 21
58.64535980684674
 31
0.000000000000000
  0
LINE
  5
9A
100
AcDbEntity
  8
1
  6
CONTINUOUS
 62
7
100
AcDbLine
 10
162.6797785376081
 20
55.14535980684672
 30
0.000000000000000
 11
166.1797785376078
 21
55.14535980684672
 31
0.000000000000000
  0
LINE
  5
9B
100
AcDbEntity
  8
1
  6
CONTINUOUS
 62
7
100
AcDbLine
 10
162.6797785376081
 20
44.64535980684671
 30
0.000000000000000
 11
160.1797785376081
 21
44.64535980684671
 31
0.000000000000000
  0
LINE
  5
9C
100
AcDbEntity
  8
1
  6
CONTINUOUS
 62
7
100
AcDbLine
 10
158.6797785376077
 20
47.64535980684672
 30
0.000000000000000
 11
160.1797785376081
 21
44.64535980684673
 31
0.000000000000000
  0
LINE
  5
9D
100
AcDbEntity
  8
1
  6
CONTINUOUS
 62
7
100
AcDbLine
 10
158.6797785376077
 20
49.14535980684674
 30
0.000000000000000
 11
157.6797785376077
 21
49.14535980684674
 31
0.000000000000000
  0
LINE
  5
9E
100
AcDbEntity
  8
1
  6
CONTINUOUS
 62
7
100
AcDbLine
 10
166.1797785376078
 20
55.14535980684672
 30
0.000000000000000
 11
166.6797785376081
 21
55.64535980684675
 31
0.000000000000000
  0
LINE
  5
9F
100
AcDbEntity
  8
1
  6
CONTINUOUS
 62
7
100
AcDbLine
 10
188.3797785376080
 20
47.39535980684672
 30
0.000000000000000
 11
186.3797785376080
 21
47.39535980684672
 31
0.000000000000000
  0
ARC
  5
A0
100
AcDbEntity
  8
1
  6
CONTINUOUS
 62
7
100
AcDbCircle
 10
184.8797785376081
 20
48.14535980684674
 30
0.000000000000000
 40
1.000000000000000
100
AcDbArc
 50
270.0000000000000
 51
360.0000000000000
  0
LINE
  5
A1
100
AcDbEntity
  8
1
  6
CONTINUOUS
 62
7
100
AcDbLine
 10
186.0797785376078
 20
48.64535980684674
 30
0.000000000000000
 11
185.8797785376080
 21
48.64535980684674
 31
0.000000000000000
  0
ARC
  5
A2
100
AcDbEntity
  8
1
  6
CONTINUOUS
 62
7
100
AcDbCircle
 10
186.0235285376081
 20
48.89535980684672
 30
0.000000000000000
 40
0.2562500000000000
100
AcDbArc
 50
282.6803829999999
 51
360.0000000000000
  0
LINE
  5
A3
100
AcDbEntity
  8
1
  6
CONTINUOUS
 62
7
100
AcDbLine
 10
186.2797785376081
 20
52.74535980684674
 30
0.000000000000000
 11
186.3797785376080
 21
52.74535980684674
 31
0.000000000000000
  0
LINE
  5
A4
100
AcDbEntity
  8
1
  6
CONTINUOUS
 62
7
100
AcDbLine
 10
191.3797785376081
 20
53.64535980684674
 30
0.000000000000000
 11
188.3797785376080
 21
53.64535980684674
 31
0.000000000000000
  0
LINE
  5
A5
100
AcDbEntity
  8
1
  6
CONTINUOUS
 62
7
100
AcDbLine
 10
191.3797785376081
 20
57.98850580684675
 30
0.000000000000000
 11
188.3797785376080
 21
57.98850580684675
 31
0.000000000000000
  0
LINE
  5
A6
100
AcDbEntity
  8
1
  6
CONTINUOUS
 62
7
100
AcDbLine
 10
191.3797785376081
 20
59.30221380684674
 30
0.000000000000000
 11
188.3797785376080
 21
59.30221380684674
 31
0.000000000000000
  0
LINE
  5
A7
100
AcDbEntity
  8
1
  6
CONTINUOUS
 62
7
100
AcDbLine
 10
184.8797785376081
 20
70.14535980684674
 30
0.000000000000000
 11
162.6797785376081
 21
70.14535980684674
 31
0.000000000000000
  0
LINE
  5
A8
100
AcDbEntity
  8
1
  6
CONTINUOUS
 62
7
100
AcDbLine
 10
162.6797785376081
 20
62.14535980684671
 30
0.000000000000000
 11
166.1797785376078
 21
62.14535980684671
 31
0.000000000000000
  0
LINE
  5
A9
100
AcDbEntity
  8
1
  6
CONTINUOUS
 62
7
100
AcDbLine
 10
158.6797785376077
 20
69.64535980684673
 30
0.000000000000000
 11
160.1797785376081
 21
72.64535980684673
 31
0.000000000000000
  0
LINE
  5
AA
100
AcDbEntity
  8
1
  6
CONTINUOUS
 62
7
100
AcDbLine
 10
158.6797785376077
 20
68.14535980684674
 30
0.000000000000000
 11
157.6797785376077
 21
68.14535980684674
 31
0.000000000000000
  0
LINE
  5
AB
100
AcDbEntity
  8
1
  6
CONTINUOUS
 62
7
100
AcDbLine
 10
162.6797785376081
 20
72.64535980684671
 30
0.000000000000000
 11
160.1797785376081
 21
72.64535980684671
 31
0.000000000000000
  0
LINE
  5
AC
100
AcDbEntity
  8
1
  6
CONTINUOUS
 62
7
100
AcDbLine
 10
166.1797785376078
 20
62.14535980684673
 30
0.000000000000000
 11
166.6797785376081
 21
61.64535980684676
 31
0.000000000000000
  0
LINE
  5
AD
100
AcDbEntity
  8
1
  6
CONTINUOUS
 62
7
100
AcDbLine
 10
188.3797785376080
 20
68.38885980684674
 30
0.000000000000000
 11
186.3797785376080
 21
68.38885980684674
 31
0.000000000000000
  0
ARC
  5
AE
100
AcDbEntity
  8
1
  6
CONTINUOUS
 62
7
100
AcDbCircle
 10
184.8797785376081
 20
69.14535980684674
 30
0.000000000000000
 40
1.000000000000000
100
AcDbArc
 50
0.000000000000000
 51
90.00000000000000
  0
LINE
  5
AF
100
AcDbEntity
  8
1
  6
CONTINUOUS
 62
7
100
AcDbLine
 10
186.2797785376081
 20
67.30561380684675
 30
0.000000000000000
 11
185.8797785376080
 21
67.30561380684675
 31
0.000000000000000
  0
LINE
  5
B0
100
AcDbEntity
  8
1
  6
CONTINUOUS
 62
7
100
AcDbLine
 10
186.2797785376081
 20
64.54535980684672
 30
0.000000000000000
 11
186.3797785376080
 21
64.54535980684672
 31
0.000000000000000
  0
LINE
  5
B1
100
AcDbEntity
  8
1
  6
CONTINUOUS
 62
7
100
AcDbLine
 10
191.3797785376081
 20
63.64535980684674
 30
0.000000000000000
 11
188.3797785376080
 21
63.64535980684674
 31
0.000000000000000
  0
LINE
  5
B2
100
AcDbEntity
  8
1
  6
CONTINUOUS
 62
7
100
AcDbLine
 10
237.1188055376081
 20
67.64535980684674
 30
0.000000000000000
 11
237.1188055376081
 21
49.64535980684671
 31
0.000000000000000
  0
LINE
  5
B3
100
AcDbEntity
  8
1
  6
CONTINUOUS
 62
7
100
AcDbLine
 10
240.8188055376078
 20
63.24535980684674
 30
0.000000000000000
 11
240.8188055376078
 21
54.04535980684674
 31
0.000000000000000
  0
LINE
  5
B4
100
AcDbEntity
  8
1
  6
CONTINUOUS
 62
7
100
AcDbLine
 10
240.8188055376078
 20
63.26416180684674
 30
0.000000000000000
 11
240.8188055376078
 21
54.02655780684671
 31
0.000000000000000
  0
LINE
  5
B5
100
AcDbEntity
  8
1
  6
CONTINUOUS
 62
7
100
AcDbLine
 10
239.5188055376080
 20
64.64535980684674
 30
0.000000000000000
 11
239.5188055376080
 21
52.64535980684672
 31
0.000000000000000
  0
LINE
  5
B6
100
AcDbEntity
  8
1
  6
CONTINUOUS
 62
7
100
AcDbLine
 10
240.8188055376078
 20
59.94535980684672
 30
0.000000000000000
 11
239.5188055376080
 21
58.64535980684671
 31
0.000000000000000
  0
ARC
  5
B7
100
AcDbEntity
  8
1
  6
CONTINUOUS
 62
7
100
AcDbCircle
 10
238.5438295376080
 20
60.64535980684674
 30
0.000000000000000
 40
5.774976999999998
100
AcDbArc
 50
339.7375000000001
 51
380.2625000000000
  0
ARC
  5
B8
100
AcDbEntity
  8
1
  6
CONTINUOUS
 62
7
100
AcDbCircle
 10
246.5937825376080
 20
60.64535980684674
 30
0.000000000000000
 40
5.774976999999998
100
AcDbArc
 50
159.7375000000000
 51
200.2625000000000
  0
LINE
  5
B9
100
AcDbEntity
  8
1
  6
CONTINUOUS
 62
7
100
AcDbLine
 10
244.3188055376079
 20
62.64535980684672
 30
0.000000000000000
 11
244.3188055376079
 21
54.64535980684671
 31
0.000000000000000
  0
ARC
  5
BA
100
AcDbEntity
  8
1
  6
CONTINUOUS
 62
7
100
AcDbCircle
 10
209.0649065376080
 20
58.64353080684674
 30
0.000000000000000
 40
9.000000000000000
100
AcDbArc
 50
344.1353700000000
 51
375.8973700000000
  0
LINE
  5
BB
100
AcDbEntity
  8
1
  6
CONTINUOUS
 62
7
100
AcDbLine
 10
215.4649055376080
 20
62.44535980684674
 30
0.000000000000000
 11
215.4649055376080
 21
54.84535980684674
 31
0.000000000000000
  0
LINE
  5
BC
100
AcDbEntity
  8
1
  6
CONTINUOUS
 62
7
100
AcDbLine
 10
214.4649055376081
 20
65.14535980684674
 30
0.000000000000000
 11
214.4649055376081
 21
52.14535980684671
 31
0.000000000000000
  0
LINE
  5
BD
100
AcDbEntity
  8
1
  6
CONTINUOUS
 62
7
100
AcDbLine
 10
238.7188055376080
 20
67.64535980684674
 30
0.000000000000000
 11
238.7188055376080
 21
49.64535980684671
 31
0.000000000000000
  0
LINE
  5
BE
100
AcDbEntity
  8
1
  6
CONTINUOUS
 62
7
100
AcDbLine
 10
235.5188055376081
 20
67.64535980684674
 30
0.000000000000000
 11
235.5188055376081
 21
49.64535980684671
 31
0.000000000000000
  0
LINE
  5
BF
100
AcDbEntity
  8
1
  6
CONTINUOUS
 62
7
100
AcDbLine
 10
209.4649055376080
 20
65.64535980684674
 30
0.000000000000000
 11
209.4649055376080
 21
51.64535980684674
 31
0.000000000000000
  0
LINE
  5
C0
100
AcDbEntity
  8
1
  6
CONTINUOUS
 62
7
100
AcDbLine
 10
216.6003875376080
 20
55.24495180684676
 30
0.000000000000000
 11
215.4649055376080
 21
55.14535980684673
 31
0.000000000000000
  0
LINE
  5
C1
100
AcDbEntity
  8
4
  6
CENTER
 62
1
100
AcDbLine
 10
221.0649055376081
 20
58.64535980684674
 30
0.000000000000000
 11
206.4649055376081
 21
58.64535980684674
 31
0.000000000000000
  0
LINE
  5
C2
100
AcDbEntity
  8
1
  6
CONTINUOUS
 62
7
100
AcDbLine
 10
215.4649055376080
 20
54.84535980684674
 30
0.000000000000000
 11
214.4649055376081
 21
54.84535980684674
 31
0.000000000000000
  0
ARC
  5
C3
100
AcDbEntity
  8
1
  6
CONTINUOUS
 62
7
100
AcDbCircle
 10
213.9649055376080
 20
52.14535980684671
 30
0.000000000000000
 40
0.5000000000000000
100
AcDbArc
 50
270.0000000000000
 51
360.0000000000000
  0
LINE
  5
C4
100
AcDbEntity
  8
1
  6
CONTINUOUS
 62
7
100
AcDbLine
 10
215.4649055376080
 20
59.64535980684671
 30
0.000000000000000
 11
214.4649055376081
 21
58.64535980684674
 31
0.000000000000000
  0
LINE
  5
C5
100
AcDbEntity
  8
1
  6
CONTINUOUS
 62
7
100
AcDbLine
 10
215.4649055376080
 20
58.64535980684674
 30
0.000000000000000
 11
214.4649055376081
 21
57.64535980684671
 31
0.000000000000000
  0
LINE
  5
C6
100
AcDbEntity
  8
1
  6
CONTINUOUS
 62
7
100
AcDbLine
 10
213.9649055376080
 20
51.64535980684674
 30
0.000000000000000
 11
209.4649055376080
 21
51.64535980684674
 31
0.000000000000000
  0
ARC
  5
C7
100
AcDbEntity
  8
1
  6
CONTINUOUS
 62
7
100
AcDbCircle
 10
216.4725075376080
 20
56.53864780684674
 30
0.000000000000000
 40
1.300000000000000
100
AcDbArc
 50
275.0163699999998
 51
344.1353700000000
  0
LINE
  5
C8
100
AcDbEntity
  8
4
  6
CENTER
 62
1
100
AcDbLine
 10
247.3188055376080
 20
58.64535980684674
 30
0.000000000000000
 11
232.5188055376081
 21
58.64535980684674
 31
0.000000000000000
  0
LINE
  5
C9
100
AcDbEntity
  8
1
  6
CONTINUOUS
 62
7
100
AcDbLine
 10
239.5188055376080
 20
52.64535980684672
 30
0.000000000000000
 11
238.7188055376080
 21
52.64535980684672
 31
0.000000000000000
  0
LINE
  5
CA
100
AcDbEntity
  8
1
  6
CONTINUOUS
 62
7
100
AcDbLine
 10
235.5188055376081
 20
49.64535980684671
 30
0.000000000000000
 11
238.7188055376080
 21
49.64535980684671
 31
0.000000000000000
  0
LINE
  5
CB
100
AcDbEntity
  8
1
  6
CONTINUOUS
 62
7
100
AcDbLine
 10
240.8188055376078
 20
54.04535980684674
 30
0.000000000000000
 11
239.5188055376080
 21
54.04535980684674
 31
0.000000000000000
  0
LINE
  5
CC
100
AcDbEntity
  8
1
  6
CONTINUOUS
 62
7
100
AcDbLine
 10
240.8188055376077
 20
58.64535980684673
 30
0.000000000000000
 11
239.5188055376080
 21
57.34535980684672
 31
0.000000000000000
  0
LINE
  5
CD
100
AcDbEntity
  8
1
  6
CONTINUOUS
 62
7
100
AcDbLine
 10
241.1761855376078
 20
58.64535980684674
 30
0.000000000000000
 11
243.9614265376080
 21
58.64535980684674
 31
0.000000000000000
  0
LINE
  5
CE
100
AcDbEntity
  8
1
  6
CONTINUOUS
 62
7
100
AcDbLine
 10
244.3188055376079
 20
54.64535980684671
 30
0.000000000000000
 11
240.8188055376078
 21
54.64535980684671
 31
0.000000000000000
  0
ARC
  5
CF
100
AcDbEntity
  8
1
  6
CONTINUOUS
 62
7
100
AcDbCircle
 10
246.5937825376080
 20
56.64535980684674
 30
0.000000000000000
 40
5.774976999999998
100
AcDbArc
 50
159.7375000000000
 51
200.2625000000000
  0
ARC
  5
D0
100
AcDbEntity
  8
1
  6
CONTINUOUS
 62
7
100
AcDbCircle
 10
238.5438295376080
 20
56.64535980684674
 30
0.000000000000000
 40
5.774976999999998
100
AcDbArc
 50
339.7375000000001
 51
380.2625000000000
  0
LINE
  5
D1
100
AcDbEntity
  8
1
  6
CONTINUOUS
 62
7
100
AcDbLine
 10
216.5839335376079
 20
62.04767980684674
 30
0.000000000000000
 11
215.4639055376080
 21
62.14535980684671
 31
0.000000000000000
  0
LINE
  5
D2
100
AcDbEntity
  8
1
  6
CONTINUOUS
 62
7
100
AcDbLine
 10
215.4649055376080
 20
62.44535980684674
 30
0.000000000000000
 11
214.4649055376081
 21
62.44535980684674
 31
0.000000000000000
  0
ARC
  5
D3
100
AcDbEntity
  8
1
  6
CONTINUOUS
 62
7
100
AcDbCircle
 10
213.9649055376080
 20
65.14535980684674
 30
0.000000000000000
 40
0.5000000000000000
100
AcDbArc
 50
0.000000000000000
 51
90.00000000000000
  0
LINE
  5
D4
100
AcDbEntity
  8
1
  6
CONTINUOUS
 62
7
100
AcDbLine
 10
213.9649055376080
 20
65.64535980684674
 30
0.000000000000000
 11
209.4649055376080
 21
65.64535980684674
 31
0.000000000000000
  0
ARC
  5
D5
100
AcDbEntity
  8
1
  6
CONTINUOUS
 62
7
100
AcDbCircle
 10
216.4713035376081
 20
60.75264680684672
 30
0.000000000000000
 40
1.300000000000000
100
AcDbArc
 50
15.89737000000000
 51
85.01636999999998
  0
LINE
  5
D6
100
AcDbEntity
  8
1
  6
CONTINUOUS
 62
7
100
AcDbLine
 10
239.5188055376080
 20
64.64535980684674
 30
0.000000000000000
 11
238.7188055376080
 21
64.64535980684674
 31
0.000000000000000
  0
LINE
  5
D7
100
AcDbEntity
  8
1
  6
CONTINUOUS
 62
7
100
AcDbLine
 10
235.5188055376081
 20
67.64535980684674
 30
0.000000000000000
 11
238.7188055376080
 21
67.64535980684674
 31
0.000000000000000
  0
LINE
  5
D8
100
AcDbEntity
  8
1
  6
CONTINUOUS
 62
7
100
AcDbLine
 10
240.8188055376078
 20
63.24535980684674
 30
0.000000000000000
 11
239.5188055376080
 21
63.24535980684674
 31
0.000000000000000
  0
LINE
  5
D9
100
AcDbEntity
  8
1
  6
CONTINUOUS
 62
7
100
AcDbLine
 10
244.3188055376079
 20
62.64535980684672
 30
0.000000000000000
 11
240.8188055376078
 21
62.64535980684672
 31
0.000000000000000
  0
LINE
  5
DA
100
AcDbEntity
  8
1
  6
CONTINUOUS
 62
7
100
AcDbLine
 10
171.6797785376081
 20
181.0248898068465
 30
0.000000000000000
 11
171.6797785376081
 21
197.0248898068465
 31
0.000000000000000
  0
LINE
  5
DB
100
AcDbEntity
  8
1
  6
CONTINUOUS
 62
7
100
AcDbLine
 10
158.1797785376081
 20
199.0945288068465
 30
0.000000000000000
 11
158.1797785376081
 21
160.0248898068466
 31
0.000000000000000
  0
LINE
  5
DC
100
AcDbEntity
  8
1
  6
CONTINUOUS
 62
7
100
AcDbLine
 10
158.6797785376077
 20
225.5248898068467
 30
0.000000000000000
 11
158.6797785376077
 21
147.5248898068466
 31
0.000000000000000
  0
LINE
  5
DD
100
AcDbEntity
  8
1
  6
CONTINUOUS
 62
7
100
AcDbLine
 10
161.6797785376079
 20
144.5248898068466
 30
0.000000000000000
 11
161.6797785376079
 21
228.5248898068467
 31
0.000000000000000
  0
LINE
  5
DE
100
AcDbEntity
  8
1
  6
CONTINUOUS
 62
7
100
AcDbLine
 10
160.1797785376081
 20
144.5248898068466
 30
0.000000000000000
 11
160.1797785376081
 21
228.5248898068467
 31
0.000000000000000
  0
LINE
  5
DF
100
AcDbEntity
  8
1
  6
CONTINUOUS
 62
7
100
AcDbLine
 10
162.6797785376081
 20
144.5248898068466
 30
0.000000000000000
 11
162.6797785376081
 21
228.5248898068467
 31
0.000000000000000
  0
LINE
  5
E0
100
AcDbEntity
  8
1
  6
CONTINUOUS
 62
7
100
AcDbLine
 10
158.6797785376077
 20
147.5248898068466
 30
0.000000000000000
 11
160.1797785376081
 21
144.5248898068466
 31
0.000000000000000
  0
LINE
  5
E1
100
AcDbEntity
  8
1
  6
CONTINUOUS
 62
7
100
AcDbLine
 10
160.1797785376081
 20
144.5248898068466
 30
0.000000000000000
 11
162.6797785376081
 21
144.5248898068466
 31
0.000000000000000
  0
LINE
  5
E2
100
AcDbEntity
  8
1
  6
CONTINUOUS
 62
7
100
AcDbLine
 10
172.1797785376081
 20
184.0248898068465
 30
0.000000000000000
 11
182.1797785376081
 21
184.0248898068465
 31
0.000000000000000
  0
ARC
  5
E3
100
AcDbEntity
  8
1
  6
CONTINUOUS
 62
7
100
AcDbCircle
 10
162.6797785376081
 20
205.5248898068467
 30
0.000000000000000
 40
49.50000000000000
100
AcDbArc
 50
270.0000000000000
 51
291.2622540000000
  0
LINE
  5
E4
100
AcDbEntity
  8
1
  6
CONTINUOUS
 62
7
100
AcDbLine
 10
162.6797785376081
 20
154.0248898068466
 30
0.000000000000000
 11
166.1797785376078
 21
154.0248898068466
 31
0.000000000000000
  0
LINE
  5
E5
100
AcDbEntity
  8
4
  6
CENTER
 62
1
100
AcDbLine
 10
160.7931965376081
 20
150.5248898068466
 30
0.000000000000000
 11
169.6797785376081
 21
150.5248898068466
 31
0.000000000000000
  0
LINE
  5
E6
100
AcDbEntity
  8
1
  6
CONTINUOUS
 62
7
100
AcDbLine
 10
162.6797785376081
 20
147.0248898068467
 30
0.000000000000000
 11
166.1797785376078
 21
147.0248898068467
 31
0.000000000000000
  0
ARC
  5
E7
100
AcDbEntity
  8
1
  6
CONTINUOUS
 62
7
100
AcDbCircle
 10
159.6797785376081
 20
160.0248898068466
 30
0.000000000000000
 40
1.500000000000000
100
AcDbArc
 50
180.0000000000000
 51
228.1896849999998
  0
LINE
  5
E8
100
AcDbEntity
  8
1
  6
CONTINUOUS
 62
7
100
AcDbLine
 10
166.6797785376081
 20
153.5248898068467
 30
0.000000000000000
 11
166.6797785376081
 21
147.5248898068466
 31
0.000000000000000
  0
LINE
  5
E9
100
AcDbEntity
  8
1
  6
CONTINUOUS
 62
7
100
AcDbLine
 10
166.1797785376078
 20
147.0248898068467
 30
0.000000000000000
 11
166.6797785376081
 21
147.5248898068466
 31
0.000000000000000
  0
LINE
  5
EA
100
AcDbEntity
  8
1
  6
CONTINUOUS
 62
7
100
AcDbLine
 10
166.1797785376078
 20
154.0248898068466
 30
0.000000000000000
 11
166.1797785376078
 21
147.0248898068467
 31
0.000000000000000
  0
LINE
  5
EB
100
AcDbEntity
  8
1
  6
CONTINUOUS
 62
7
100
AcDbLine
 10
166.1797785376078
 20
154.0248898068466
 30
0.000000000000000
 11
166.6797785376081
 21
153.5248898068467
 31
0.000000000000000
  0
LINE
  5
EC
100
AcDbEntity
  8
5
  6
PHANTOM
 62
6
100
AcDbLine
 10
149.9518565376080
 20
183.6045798068465
 30
0.000000000000000
 11
157.0229245376080
 21
176.5335118068467
 31
0.000000000000000
  0
ARC
  5
ED
100
AcDbEntity
  8
5
  6
PHANTOM
 62
6
100
AcDbCircle
 10
155.6087105376081
 20
175.1192988068467
 30
0.000000000000000
 40
2.000000000000000
100
AcDbArc
 50
315.0000000000000
 51
404.9999999999999
  0
ARC
  5
EE
100
AcDbEntity
  8
1
  6
CONTINUOUS
 62
7
100
AcDbCircle
 10
172.1797785376081
 20
184.5248898068465
 30
0.000000000000000
 40
0.5000000000000000
100
AcDbArc
 50
180.0000000000000
 51
270.0000000000000
  0
LINE
  5
EF
100
AcDbEntity
  8
1
  6
CONTINUOUS
 62
7
100
AcDbLine
 10
183.1797785376081
 20
163.1220598068464
 30
0.000000000000000
 11
183.1797785376081
 21
183.0248898068465
 31
0.000000000000000
  0
ARC
  5
F0
100
AcDbEntity
  8
1
  6
CONTINUOUS
 62
7
100
AcDbCircle
 10
179.1797785376081
 20
163.1220598068464
 30
0.000000000000000
 40
4.000000000000000
100
AcDbArc
 50
291.2622540000000
 51
360.0000000000000
  0
ARC
  5
F1
100
AcDbEntity
  8
1
  6
CONTINUOUS
 62
7
100
AcDbCircle
 10
182.1797785376081
 20
183.0248898068465
 30
0.000000000000000
 40
1.000000000000000
100
AcDbArc
 50
0.000000000000000
 51
90.00000000000000
  0
LINE
  5
F2
100
AcDbEntity
  8
1
  6
CONTINUOUS
 62
7
100
AcDbLine
 10
216.6004165376081
 20
147.1244828068467
 30
0.000000000000000
 11
215.4649355376078
 21
147.0248898068467
 31
0.000000000000000
  0
LINE
  5
F3
100
AcDbEntity
  8
1
  6
CONTINUOUS
 62
7
100
AcDbLine
 10
216.5839635376081
 20
153.9272098068464
 30
0.000000000000000
 11
215.4639355376080
 21
154.0248898068466
 31
0.000000000000000
  0
LINE
  5
F4
100
AcDbEntity
  8
4
  6
CENTER
 62
1
100
AcDbLine
 10
221.0649355376080
 20
150.5248898068466
 30
0.000000000000000
 11
206.4649355376080
 21
150.5248898068466
 31
0.000000000000000
  0
ARC
  5
F5
100
AcDbEntity
  8
1
  6
CONTINUOUS
 62
7
100
AcDbCircle
 10
213.9649355376078
 20
154.0248898068466
 30
0.000000000000000
 40
0.5000000000000000
100
AcDbArc
 50
0.000000000000000
 51
90.00000000000000
  0
LINE
  5
F6
100
AcDbEntity
  8
1
  6
CONTINUOUS
 62
7
100
AcDbLine
 10
215.4649355376079
 20
154.3248898068465
 30
0.000000000000000
 11
214.4649355376079
 21
154.3248898068465
 31
0.000000000000000
  0
ARC
  5
F7
100
AcDbEntity
  8
1
  6
CONTINUOUS
 62
7
100
AcDbCircle
 10
213.9649355376078
 20
146.0248898068467
 30
0.000000000000000
 40
0.5000000000000000
100
AcDbArc
 50
270.0000000000000
 51
360.0000000000000
  0
LINE
  5
F8
100
AcDbEntity
  8
1
  6
CONTINUOUS
 62
7
100
AcDbLine
 10
215.4649355376079
 20
150.5248898068466
 30
0.000000000000000
 11
214.4649355376079
 21
149.5248898068466
 31
0.000000000000000
  0
LINE
  5
F9
100
AcDbEntity
  8
1
  6
CONTINUOUS
 62
7
100
AcDbLine
 10
215.4649355376079
 20
151.5248898068467
 30
0.000000000000000
 11
214.4649355376079
 21
150.5248898068466
 31
0.000000000000000
  0
LINE
  5
FA
100
AcDbEntity
  8
1
  6
CONTINUOUS
 62
7
100
AcDbLine
 10
215.4649355376079
 20
146.7248898068466
 30
0.000000000000000
 11
214.4649355376079
 21
146.7248898068466
 31
0.000000000000000
  0
LINE
  5
FB
100
AcDbEntity
  8
1
  6
CONTINUOUS
 62
7
100
AcDbLine
 10
214.4649355376079
 20
146.0248898068467
 30
0.000000000000000
 11
214.4649355376079
 21
154.3248898068465
 31
0.000000000000000
  0
LINE
  5
FC
100
AcDbEntity
  8
1
  6
CONTINUOUS
 62
7
100
AcDbLine
 10
215.4649355376079
 20
154.3248898068465
 30
0.000000000000000
 11
215.4649355376079
 21
146.7248898068466
 31
0.000000000000000
  0
LINE
  5
FD
100
AcDbEntity
  8
1
  6
CONTINUOUS
 62
7
100
AcDbLine
 10
209.4649355376079
 20
145.5248898068466
 30
0.000000000000000
 11
209.4649355376079
 21
154.5248898068466
 31
0.000000000000000
  0
LINE
  5
FE
100
AcDbEntity
  8
1
  6
CONTINUOUS
 62
7
100
AcDbLine
 10
213.9649355376078
 20
145.5248898068466
 30
0.000000000000000
 11
209.4649355376079
 21
145.5248898068466
 31
0.000000000000000
  0
LINE
  5
FF
100
AcDbEntity
  8
1
  6
CONTINUOUS
 62
7
100
AcDbLine
 10
213.9649355376078
 20
154.5248898068466
 30
0.000000000000000
 11
209.4649355376079
 21
154.5248898068466
 31
0.000000000000000
  0
ARC
  5
100
100
AcDbEntity
  8
1
  6
CONTINUOUS
 62
7
100
AcDbCircle
 10
209.0649355376080
 20
150.5230618068467
 30
0.000000000000000
 40
9.000000000000000
100
AcDbArc
 50
344.1353700000000
 51
375.8973700000000
  0
ARC
  5
101
100
AcDbEntity
  8
1
  6
CONTINUOUS
 62
7
100
AcDbCircle
 10
216.4725375376080
 20
148.4181778068467
 30
0.000000000000000
 40
1.300000000000000
100
AcDbArc
 50
275.0163699999998
 51
344.1353700000000
  0
ARC
  5
102
100
AcDbEntity
  8
1
  6
CONTINUOUS
 62
7
100
AcDbCircle
 10
216.4713335376081
 20
152.6321778068467
 30
0.000000000000000
 40
1.300000000000000
100
AcDbArc
 50
15.89737000000000
 51
85.01636999999998
  0
LINE
  5
103
100
AcDbEntity
  8
1
  6
CONTINUOUS
 62
7
100
AcDbLine
 10
162.6797785376081
 20
217.0248898068467
 30
0.000000000000000
 11
187.7797785376080
 21
217.0248898068467
 31
0.000000000000000
  0
LINE
  5
104
100
AcDbEntity
  8
1
  6
CONTINUOUS
 62
7
100
AcDbLine
 10
184.8797785376081
 20
215.4841818068464
 30
0.000000000000000
 11
163.6797785376081
 21
215.4841818068464
 31
0.000000000000000
  0
LINE
  5
105
100
AcDbEntity
  8
1
  6
CONTINUOUS
 62
7
100
AcDbLine
 10
172.1797785376081
 20
194.0248898068467
 30
0.000000000000000
 11
184.9797785376081
 21
194.0248898068467
 31
0.000000000000000
  0
LINE
  5
106
100
AcDbEntity
  8
4
  6
CENTER
 62
1
100
AcDbLine
 10
156.4241915376079
 20
205.5248898068467
 30
0.000000000000000
 11
194.3797785376080
 21
205.5248898068467
 31
0.000000000000000
  0
LINE
  5
107
100
AcDbEntity
  8
1
  6
CONTINUOUS
 62
7
100
AcDbLine
 10
163.6797785376081
 20
205.5248898068467
 30
0.000000000000000
 11
163.6797785376081
 21
216.0248898068467
 31
0.000000000000000
  0
ARC
  5
108
100
AcDbEntity
  8
1
  6
CONTINUOUS
 62
7
100
AcDbCircle
 10
153.9823655376080
 20
208.8482918068466
 30
0.000000000000000
 40
1.000000000000000
100
AcDbArc
 50
133.5340060000000
 51
225.0000000000000
  0
LINE
  5
109
100
AcDbEntity
  8
5
  6
PHANTOM
 62
6
100
AcDbLine
 10
156.9403115376081
 20
195.9749278068467
 30
0.000000000000000
 11
153.7554145376079
 21
195.8934198068467
 31
0.000000000000000
  0
LINE
  5
10A
100
AcDbEntity
  8
5
  6
PHANTOM
 62
6
100
AcDbLine
 10
153.7554145376079
 20
195.8934198068467
 30
0.000000000000000
 11
149.9518565376080
 21
192.0898608068467
 31
0.000000000000000
  0
ARC
  5
10B
100
AcDbEntity
  8
1
  6
CONTINUOUS
 62
7
100
AcDbCircle
 10
148.1797785376081
 20
199.0945288068465
 30
0.000000000000000
 40
10.00000000000000
100
AcDbArc
 50
0.000000000000000
 51
45.00000000000000
  0
LINE
  5
10C
100
AcDbEntity
  8
1
  6
CONTINUOUS
 62
7
100
AcDbLine
 10
153.2752585376081
 20
208.1411848068467
 30
0.000000000000000
 11
155.2508465376080
 21
206.1655968068466
 31
0.000000000000000
  0
ARC
  5
10D
100
AcDbEntity
  8
5
  6
PHANTOM
 62
6
100
AcDbCircle
 10
147.8797785376080
 20
211.2309868068466
 30
0.000000000000000
 40
10.00000000000000
100
AcDbArc
 50
315.0000000000000
 51
319.2061049999999
  0
LINE
  5
10E
100
AcDbEntity
  8
1
  6
CONTINUOUS
 62
7
100
AcDbLine
 10
174.6797785376081
 20
195.0248898068467
 30
0.000000000000000
 11
174.6797785376081
 21
205.5248898068467
 31
0.000000000000000
  0
ARC
  5
10F
100
AcDbEntity
  8
1
  6
CONTINUOUS
 62
7
100
AcDbCircle
 10
172.1797785376081
 20
193.5248898068465
 30
0.000000000000000
 40
0.5000000000000000
100
AcDbArc
 50
90.00000000000000
 51
180.0000000000000
  0
ARC
  5
110
100
AcDbEntity
  8
1
  6
CONTINUOUS
 62
7
100
AcDbCircle
 10
173.6797785376081
 20
195.0248898068467
 30
0.000000000000000
 40
1.000000000000000
100
AcDbArc
 50
270.0000000000000
 51
360.0000000000000
  0
LINE
  5
111
100
AcDbEntity
  8
4
  6
CENTER
 62
1
100
AcDbLine
 10
160.7931965376081
 20
222.5248898068466
 30
0.000000000000000
 11
169.6797785376081
 21
222.5248898068466
 31
0.000000000000000
  0
LINE
  5
112
100
AcDbEntity
  8
1
  6
CONTINUOUS
 62
7
100
AcDbLine
 10
162.6797785376081
 20
226.0248898068467
 30
0.000000000000000
 11
166.1797785376078
 21
226.0248898068467
 31
0.000000000000000
  0
LINE
  5
113
100
AcDbEntity
  8
1
  6
CONTINUOUS
 62
7
100
AcDbLine
 10
162.6797785376081
 20
219.0248898068466
 30
0.000000000000000
 11
166.1797785376078
 21
219.0248898068466
 31
0.000000000000000
  0
ARC
  5
114
100
AcDbEntity
  8
1
  6
CONTINUOUS
 62
7
100
AcDbCircle
 10
162.6797785376081
 20
205.5248898068467
 30
0.000000000000000
 40
9.400000000000000
100
AcDbArc
 50
115.1843370000000
 51
133.5340060000000
  0
LINE
  5
115
100
AcDbEntity
  8
1
  6
CONTINUOUS
 62
7
100
AcDbLine
 10
156.2051995376080
 20
212.3395678068467
 30
0.000000000000000
 11
153.2935805376080
 21
209.5732578068466
 31
0.000000000000000
  0
ARC
  5
116
100
AcDbEntity
  8
1
  6
CONTINUOUS
 62
7
100
AcDbCircle
 10
162.6797785376081
 20
216.0248898068467
 30
0.000000000000000
 40
1.000000000000000
100
AcDbArc
 50
0.000000000000000
 51
90.00000000000000
  0
LINE
  5
117
100
AcDbEntity
  8
1
  6
CONTINUOUS
 62
7
100
AcDbLine
 10
160.1797785376081
 20
228.5248898068467
 30
0.000000000000000
 11
162.6797785376081
 21
228.5248898068467
 31
0.000000000000000
  0
LINE
  5
118
100
AcDbEntity
  8
1
  6
CONTINUOUS
 62
7
100
AcDbLine
 10
160.1797785376081
 20
228.5248898068467
 30
0.000000000000000
 11
158.6797785376077
 21
225.5248898068467
 31
0.000000000000000
  0
LINE
  5
119
100
AcDbEntity
  8
1
  6
CONTINUOUS
 62
7
100
AcDbLine
 10
166.1797785376078
 20
226.0248898068467
 30
0.000000000000000
 11
166.1797785376078
 21
219.0248898068466
 31
0.000000000000000
  0
LINE
  5
11A
100
AcDbEntity
  8
1
  6
CONTINUOUS
 62
7
100
AcDbLine
 10
166.6797785376081
 20
225.5248898068467
 30
0.000000000000000
 11
166.6797785376081
 21
219.5248898068467
 31
0.000000000000000
  0
LINE
  5
11B
100
AcDbEntity
  8
1
  6
CONTINUOUS
 62
7
100
AcDbLine
 10
166.1797785376078
 20
219.0248898068466
 30
0.000000000000000
 11
166.6797785376081
 21
219.5248898068467
 31
0.000000000000000
  0
LINE
  5
11C
100
AcDbEntity
  8
1
  6
CONTINUOUS
 62
7
100
AcDbLine
 10
166.1797785376078
 20
226.0248898068467
 30
0.000000000000000
 11
166.6797785376081
 21
225.5248898068467
 31
0.000000000000000
  0
LINE
  5
11D
100
AcDbEntity
  8
1
  6
CONTINUOUS
 62
7
100
AcDbLine
 10
191.3797785376081
 20
210.5248898068464
 30
0.000000000000000
 11
191.3797785376081
 21
200.5248898068467
 31
0.000000000000000
  0
LINE
  5
11E
100
AcDbEntity
  8
1
  6
CONTINUOUS
 62
7
100
AcDbLine
 10
186.3797785376080
 20
213.1438158068467
 30
0.000000000000000
 11
186.3797785376080
 21
194.2748898068465
 31
0.000000000000000
  0
LINE
  5
11F
100
AcDbEntity
  8
1
  6
CONTINUOUS
 62
7
100
AcDbLine
 10
188.3797785376080
 20
215.2676758068466
 30
0.000000000000000
 11
188.3797785376080
 21
194.2748898068465
 31
0.000000000000000
  0
LINE
  5
120
100
AcDbEntity
  8
1
  6
CONTINUOUS
 62
7
100
AcDbLine
 10
186.2797785376081
 20
214.1851438068466
 30
0.000000000000000
 11
186.2797785376081
 21
195.7748898068467
 31
0.000000000000000
  0
LINE
  5
121
100
AcDbEntity
  8
1
  6
CONTINUOUS
 62
7
100
AcDbLine
 10
185.8797785376080
 20
214.4841818068466
 30
0.000000000000000
 11
185.8797785376080
 21
195.0248898068467
 31
0.000000000000000
  0
LINE
  5
122
100
AcDbEntity
  8
1
  6
CONTINUOUS
 62
7
100
AcDbLine
 10
188.3797785376080
 20
194.2748898068465
 30
0.000000000000000
 11
186.3797785376080
 21
194.2748898068465
 31
0.000000000000000
  0
ARC
  5
123
100
AcDbEntity
  8
1
  6
CONTINUOUS
 62
7
100
AcDbCircle
 10
184.8797785376081
 20
195.0248898068467
 30
0.000000000000000
 40
1.000000000000000
100
AcDbArc
 50
270.0000000000000
 51
360.0000000000000
  0
ARC
  5
124
100
AcDbEntity
  8
1
  6
CONTINUOUS
 62
7
100
AcDbCircle
 10
186.0235285376081
 20
195.7748898068467
 30
0.000000000000000
 40
0.2562500000000000
100
AcDbArc
 50
282.6803829999999
 51
360.0000000000000
  0
LINE
  5
125
100
AcDbEntity
  8
1
  6
CONTINUOUS
 62
7
100
AcDbLine
 10
186.0797785376078
 20
195.5248898068465
 30
0.000000000000000
 11
185.8797785376080
 21
195.5248898068465
 31
0.000000000000000
  0
LINE
  5
126
100
AcDbEntity
  8
1
  6
CONTINUOUS
 62
7
100
AcDbLine
 10
188.3797785376080
 20
199.8998898068467
 30
0.000000000000000
 11
186.3797785376080
 21
199.8998898068467
 31
0.000000000000000
  0
LINE
  5
127
100
AcDbEntity
  8
1
  6
CONTINUOUS
 62
7
100
AcDbLine
 10
188.3797785376080
 20
201.3748898068466
 30
0.000000000000000
 11
186.3797785376080
 21
201.3748898068466
 31
0.000000000000000
  0
LINE
  5
128
100
AcDbEntity
  8
1
  6
CONTINUOUS
 62
7
100
AcDbLine
 10
186.2797785376081
 20
199.6248898068465
 30
0.000000000000000
 11
186.3797785376080
 21
199.6248898068465
 31
0.000000000000000
  0
LINE
  5
129
100
AcDbEntity
  8
1
  6
CONTINUOUS
 62
7
100
AcDbLine
 10
191.3797785376081
 20
206.1817438068467
 30
0.000000000000000
 11
188.3797785376080
 21
206.1817438068467
 31
0.000000000000000
  0
LINE
  5
12A
100
AcDbEntity
  8
1
  6
CONTINUOUS
 62
7
100
AcDbLine
 10
191.3797785376081
 20
204.8680358068467
 30
0.000000000000000
 11
188.3797785376080
 21
204.8680358068467
 31
0.000000000000000
  0
LINE
  5
12B
100
AcDbEntity
  8
1
  6
CONTINUOUS
 62
7
100
AcDbLine
 10
191.3797785376081
 20
200.5248898068467
 30
0.000000000000000
 11
188.3797785376080
 21
200.5248898068467
 31
0.000000000000000
  0
LINE
  5
12C
100
AcDbEntity
  8
1
  6
CONTINUOUS
 62
7
100
AcDbLine
 10
187.7797785376080
 20
213.1438158068467
 30
0.000000000000000
 11
186.2797785376081
 21
213.1438158068467
 31
0.000000000000000
  0
ARC
  5
12D
100
AcDbEntity
  8
1
  6
CONTINUOUS
 62
7
100
AcDbCircle
 10
184.8797785376081
 20
214.4841818068466
 30
0.000000000000000
 40
1.000000000000000
100
AcDbArc
 50
0.000000000000000
 51
90.00000000000000
  0
LINE
  5
12E
100
AcDbEntity
  8
1
  6
CONTINUOUS
 62
7
100
AcDbLine
 10
186.2797785376081
 20
214.1851438068466
 30
0.000000000000000
 11
185.8797785376080
 21
214.1851438068466
 31
0.000000000000000
  0
LINE
  5
12F
100
AcDbEntity
  8
1
  6
CONTINUOUS
 62
7
100
AcDbLine
 10
186.2797785376081
 20
211.4248898068467
 30
0.000000000000000
 11
186.3797785376080
 21
211.4248898068467
 31
0.000000000000000
  0
LINE
  5
130
100
AcDbEntity
  8
1
  6
CONTINUOUS
 62
7
100
AcDbLine
 10
191.3797785376081
 20
210.5248898068464
 30
0.000000000000000
 11
188.3797785376080
 21
210.5248898068464
 31
0.000000000000000
  0
LINE
  5
131
100
AcDbEntity
  8
1
  6
CONTINUOUS
 62
7
100
AcDbLine
 10
188.3797785376080
 20
213.8248898068466
 30
0.000000000000000
 11
187.9797785376081
 21
213.8248898068466
 31
0.000000000000000
  0
LINE
  5
132
100
AcDbEntity
  8
1
  6
CONTINUOUS
 62
7
100
AcDbLine
 10
188.3797785376080
 20
215.2676758068466
 30
0.000000000000000
 11
187.9797785376081
 21
215.2676758068466
 31
0.000000000000000
  0
LINE
  5
133
100
AcDbEntity
  8
1
  6
CONTINUOUS
 62
7
100
AcDbLine
 10
187.9797785376081
 20
216.8248898068467
 30
0.000000000000000
 11
187.9797785376081
 21
213.3438158068467
 31
0.000000000000000
  0
ARC
  5
134
100
AcDbEntity
  8
1
  6
CONTINUOUS
 62
7
100
AcDbCircle
 10
187.7797785376080
 20
216.8248898068467
 30
0.000000000000000
 40
0.2000000000000000
100
AcDbArc
 50
0.000000000000000
 51
90.00000000000000
  0
ARC
  5
135
100
AcDbEntity
  8
1
  6
CONTINUOUS
 62
7
100
AcDbCircle
 10
187.7797785376080
 20
213.3438158068467
 30
0.000000000000000
 40
0.2000000000000000
100
AcDbArc
 50
270.0000000000000
 51
360.0000000000000
  0
LINE
  5
136
100
AcDbEntity
  8
1
  6
CONTINUOUS
 62
7
100
AcDbLine
 10
216.5839335376080
 20
225.9272098068466
 30
0.000000000000000
 11
215.4639055376080
 21
226.0248898068466
 31
0.000000000000000
  0
LINE
  5
137
100
AcDbEntity
  8
4
  6
CENTER
 62
1
100
AcDbLine
 10
221.0649055376081
 20
222.5248898068466
 30
0.000000000000000
 11
206.4649055376081
 21
222.5248898068466
 31
0.000000000000000
  0
LINE
  5
138
100
AcDbEntity
  8
1
  6
CONTINUOUS
 62
7
100
AcDbLine
 10
216.6003875376080
 20
219.1244828068467
 30
0.000000000000000
 11
215.4649055376080
 21
219.0248898068467
 31
0.000000000000000
  0
LINE
  5
139
100
AcDbEntity
  8
1
  6
CONTINUOUS
 62
7
100
AcDbLine
 10
209.4649055376080
 20
227.5248898068467
 30
0.000000000000000
 11
209.4649055376080
 21
218.5248898068466
 31
0.000000000000000
  0
LINE
  5
13A
100
AcDbEntity
  8
1
  6
CONTINUOUS
 62
7
100
AcDbLine
 10
215.4649055376080
 20
226.3248898068466
 30
0.000000000000000
 11
215.4649055376080
 21
218.7248898068467
 31
0.000000000000000
  0
LINE
  5
13B
100
AcDbEntity
  8
1
  6
CONTINUOUS
 62
7
100
AcDbLine
 10
214.4649055376081
 20
227.0248898068466
 30
0.000000000000000
 11
214.4649055376081
 21
218.7248898068467
 31
0.000000000000000
  0
ARC
  5
13C
100
AcDbEntity
  8
1
  6
CONTINUOUS
 62
7
100
AcDbCircle
 10
213.9649055376080
 20
219.0248898068466
 30
0.000000000000000
 40
0.5000000000000000
100
AcDbArc
 50
270.0000000000000
 51
360.0000000000000
  0
LINE
  5
13D
100
AcDbEntity
  8
1
  6
CONTINUOUS
 62
7
100
AcDbLine
 10
215.4649055376080
 20
218.7248898068467
 30
0.000000000000000
 11
214.4649055376081
 21
218.7248898068467
 31
0.000000000000000
  0
LINE
  5
13E
100
AcDbEntity
  8
1
  6
CONTINUOUS
 62
7
100
AcDbLine
 10
213.9649055376080
 20
218.5248898068466
 30
0.000000000000000
 11
209.4649055376080
 21
218.5248898068466
 31
0.000000000000000
  0
ARC
  5
13F
100
AcDbEntity
  8
1
  6
CONTINUOUS
 62
7
100
AcDbCircle
 10
213.9649055376080
 20
227.0248898068466
 30
0.000000000000000
 40
0.5000000000000000
100
AcDbArc
 50
0.000000000000000
 51
90.00000000000000
  0
LINE
  5
140
100
AcDbEntity
  8
1
  6
CONTINUOUS
 62
7
100
AcDbLine
 10
215.4649055376080
 20
226.3248898068466
 30
0.000000000000000
 11
214.4649055376081
 21
226.3248898068466
 31
0.000000000000000
  0
LINE
  5
141
100
AcDbEntity
  8
1
  6
CONTINUOUS
 62
7
100
AcDbLine
 10
215.4649055376080
 20
222.5248898068466
 30
0.000000000000000
 11
214.4649055376081
 21
221.5248898068467
 31
0.000000000000000
  0
LINE
  5
142
100
AcDbEntity
  8
1
  6
CONTINUOUS
 62
7
100
AcDbLine
 10
215.4649055376080
 20
223.5248898068467
 30
0.000000000000000
 11
214.4649055376081
 21
222.5248898068466
 31
0.000000000000000
  0
LINE
  5
143
100
AcDbEntity
  8
1
  6
CONTINUOUS
 62
7
100
AcDbLine
 10
213.9649055376080
 20
227.5248898068467
 30
0.000000000000000
 11
209.4649055376080
 21
227.5248898068467
 31
0.000000000000000
  0
ARC
  5
144
100
AcDbEntity
  8
1
  6
CONTINUOUS
 62
7
100
AcDbCircle
 10
216.4725075376080
 20
220.4181778068466
 30
0.000000000000000
 40
1.300000000000000
100
AcDbArc
 50
275.0163699999998
 51
344.1353700000000
  0
ARC
  5
145
100
AcDbEntity
  8
1
  6
CONTINUOUS
 62
7
100
AcDbCircle
 10
209.0649065376080
 20
222.5230618068467
 30
0.000000000000000
 40
9.000000000000000
100
AcDbArc
 50
344.1353700000000
 51
375.8973700000000
  0
ARC
  5
146
100
AcDbEntity
  8
1
  6
CONTINUOUS
 62
7
100
AcDbCircle
 10
216.4713035376081
 20
224.6321778068466
 30
0.000000000000000
 40
1.300000000000000
100
AcDbArc
 50
15.89737000000000
 51
85.01636999999998
  0
LINE
  5
147
100
AcDbEntity
  8
1
  6
CONTINUOUS
 62
7
100
AcDbLine
 10
237.1188055376081
 20
214.5248898068466
 30
0.000000000000000
 11
237.1188055376081
 21
196.5248898068465
 31
0.000000000000000
  0
LINE
  5
148
100
AcDbEntity
  8
1
  6
CONTINUOUS
 62
7
100
AcDbLine
 10
240.8188055376078
 20
210.1248898068466
 30
0.000000000000000
 11
240.8188055376078
 21
200.9248898068467
 31
0.000000000000000
  0
LINE
  5
149
100
AcDbEntity
  8
1
  6
CONTINUOUS
 62
7
100
AcDbLine
 10
240.8188055376078
 20
210.1436918068466
 30
0.000000000000000
 11
240.8188055376078
 21
200.9060878068466
 31
0.000000000000000
  0
LINE
  5
14A
100
AcDbEntity
  8
1
  6
CONTINUOUS
 62
7
100
AcDbLine
 10
239.5188055376080
 20
211.5248898068467
 30
0.000000000000000
 11
239.5188055376080
 21
199.5248898068465
 31
0.000000000000000
  0
LINE
  5
14B
100
AcDbEntity
  8
1
  6
CONTINUOUS
 62
7
100
AcDbLine
 10
244.3188055376079
 20
209.5248898068467
 30
0.000000000000000
 11
244.3188055376079
 21
201.5248898068467
 31
0.000000000000000
  0
ARC
  5
14C
100
AcDbEntity
  8
1
  6
CONTINUOUS
 62
7
100
AcDbCircle
 10
242.8638925376081
 20
208.9888898068467
 30
0.000000000000000
 40
2.045087000000000
100
AcDbArc
 50
154.3862009999998
 51
214.3862009999998
  0
ARC
  5
14D
100
AcDbEntity
  8
1
  6
CONTINUOUS
 62
7
100
AcDbCircle
 10
242.2737195376081
 20
208.9888898068467
 30
0.000000000000000
 40
2.045087000000000
100
AcDbArc
 50
325.6137989999999
 51
385.6137990000000
  0
LINE
  5
14E
100
AcDbEntity
  8
1
  6
CONTINUOUS
 62
7
100
AcDbLine
 10
238.7188055376080
 20
214.5248898068466
 30
0.000000000000000
 11
238.7188055376080
 21
196.5248898068465
 31
0.000000000000000
  0
LINE
  5
14F
100
AcDbEntity
  8
1
  6
CONTINUOUS
 62
7
100
AcDbLine
 10
235.5188055376080
 20
214.5248898068466
 30
0.000000000000000
 11
235.5188055376080
 21
196.5248898068465
 31
0.000000000000000
  0
LINE
  5
150
100
AcDbEntity
  8
4
  6
CENTER
 62
1
100
AcDbLine
 10
247.3188055376080
 20
205.5248898068467
 30
0.000000000000000
 11
232.5188055376081
 21
205.5248898068467
 31
0.000000000000000
  0
LINE
  5
151
100
AcDbEntity
  8
1
  6
CONTINUOUS
 62
7
100
AcDbLine
 10
235.5188055376080
 20
196.5248898068465
 30
0.000000000000000
 11
238.7188055376080
 21
196.5248898068465
 31
0.000000000000000
  0
LINE
  5
152
100
AcDbEntity
  8
1
  6
CONTINUOUS
 62
7
100
AcDbLine
 10
239.5188055376080
 20
199.5248898068465
 30
0.000000000000000
 11
238.7188055376080
 21
199.5248898068465
 31
0.000000000000000
  0
LINE
  5
153
100
AcDbEntity
  8
1
  6
CONTINUOUS
 62
7
100
AcDbLine
 10
240.8188055376078
 20
200.9248898068467
 30
0.000000000000000
 11
239.5188055376080
 21
200.9248898068467
 31
0.000000000000000
  0
LINE
  5
154
100
AcDbEntity
  8
1
  6
CONTINUOUS
 62
7
100
AcDbLine
 10
240.8188055376078
 20
206.8248898068466
 30
0.000000000000000
 11
239.5188055376080
 21
205.5248898068467
 31
0.000000000000000
  0
LINE
  5
155
100
AcDbEntity
  8
1
  6
CONTINUOUS
 62
7
100
AcDbLine
 10
240.8188055376078
 20
205.5248898068467
 30
0.000000000000000
 11
239.5188055376080
 21
204.2248898068466
 31
0.000000000000000
  0
LINE
  5
156
100
AcDbEntity
  8
1
  6
CONTINUOUS
 62
7
100
AcDbLine
 10
241.1761855376078
 20
207.8338898068464
 30
0.000000000000000
 11
243.9614265376080
 21
207.8338898068464
 31
0.000000000000000
  0
ARC
  5
157
100
AcDbEntity
  8
1
  6
CONTINUOUS
 62
7
100
AcDbCircle
 10
242.8638925376081
 20
202.0608898068467
 30
0.000000000000000
 40
2.045087000000000
100
AcDbArc
 50
145.6137990000000
 51
205.6137989999999
  0
LINE
  5
158
100
AcDbEntity
  8
1
  6
CONTINUOUS
 62
7
100
AcDbLine
 10
241.1761855376078
 20
203.2148898068467
 30
0.000000000000000
 11
243.9614265376080
 21
203.2148898068467
 31
0.000000000000000
  0
LINE
  5
159
100
AcDbEntity
  8
1
  6
CONTINUOUS
 62
7
100
AcDbLine
 10
241.1761855376078
 20
200.9058898068464
 30
0.000000000000000
 11
243.9614265376080
 21
200.9058898068464
 31
0.000000000000000
  0
LINE
  5
15A
100
AcDbEntity
  8
1
  6
CONTINUOUS
 62
7
100
AcDbLine
 10
240.8188055376078
 20
201.5248898068467
 30
0.000000000000000
 11
241.1761855376078
 21
200.9058898068464
 31
0.000000000000000
  0
LINE
  5
15B
100
AcDbEntity
  8
1
  6
CONTINUOUS
 62
7
100
AcDbLine
 10
244.3188055376079
 20
201.5248898068467
 30
0.000000000000000
 11
243.9614265376080
 21
200.9058898068464
 31
0.000000000000000
  0
ARC
  5
15C
100
AcDbEntity
  8
1
  6
CONTINUOUS
 62
7
100
AcDbCircle
 10
242.2737195376081
 20
202.0608898068467
 30
0.000000000000000
 40
2.045087000000000
100
AcDbArc
 50
334.3862009999999
 51
394.3862010000001
  0
ARC
  5
15D
100
AcDbEntity
  8
1
  6
CONTINUOUS
 62
7
100
AcDbCircle
 10
248.4598515376081
 20
205.5243898068466
 30
0.000000000000000
 40
7.641045000000000
100
AcDbArc
 50
162.4072530000000
 51
197.5927470000000
  0
ARC
  5
15E
100
AcDbEntity
  8
1
  6
CONTINUOUS
 62
7
100
AcDbCircle
 10
236.6777605376080
 20
205.5243898068466
 30
0.000000000000000
 40
7.641045000000000
100
AcDbArc
 50
342.4072529999999
 51
377.5927470000000
  0
LINE
  5
15F
100
AcDbEntity
  8
1
  6
CONTINUOUS
 62
7
100
AcDbLine
 10
239.5188055376080
 20
211.5248898068467
 30
0.000000000000000
 11
238.7188055376080
 21
211.5248898068467
 31
0.000000000000000
  0
LINE
  5
160
100
AcDbEntity
  8
1
  6
CONTINUOUS
 62
7
100
AcDbLine
 10
235.5188055376080
 20
214.5248898068466
 30
0.000000000000000
 11
238.7188055376080
 21
214.5248898068466
 31
0.000000000000000
  0
LINE
  5
161
100
AcDbEntity
  8
1
  6
CONTINUOUS
 62
7
100
AcDbLine
 10
240.8188055376078
 20
210.1248898068466
 30
0.000000000000000
 11
239.5188055376080
 21
210.1248898068466
 31
0.000000000000000
  0
LINE
  5
162
100
AcDbEntity
  8
1
  6
CONTINUOUS
 62
7
100
AcDbLine
 10
240.8188055376078
 20
209.5248898068467
 30
0.000000000000000
 11
241.1761855376078
 21
210.1438898068466
 31
0.000000000000000
  0
LINE
  5
163
100
AcDbEntity
  8
1
  6
CONTINUOUS
 62
7
100
AcDbLine
 10
241.1761855376078
 20
210.1438898068467
 30
0.000000000000000
 11
243.9614265376080
 21
210.1438898068467
 31
0.000000000000000
  0
LINE
  5
164
100
AcDbEntity
  8
1
  6
CONTINUOUS
 62
7
100
AcDbLine
 10
244.3188055376079
 20
209.5248898068467
 30
0.000000000000000
 11
243.9614265376080
 21
210.1438898068467
 31
0.000000000000000
  0
LINE
  5
165
100
AcDbEntity
  8
4
  6
CENTER
 62
1
100
AcDbLine
 10
338.2128925376081
 20
231.5248898068466
 30
0.000000000000000
 11
338.2128925376081
 21
141.5248898068466
 31
0.000000000000000
  0
LINE
  5
166
100
AcDbEntity
  8
1
  6
CONTINUOUS
 62
7
100
AcDbLine
 10
326.7128925376081
 20
214.0248898068467
 30
0.000000000000000
 11
326.7128925376081
 21
159.0248898068466
 31
0.000000000000000
  0
LINE
  5
167
100
AcDbEntity
  8
1
  6
CONTINUOUS
 62
7
100
AcDbLine
 10
349.7128925376081
 20
214.0248898068467
 30
0.000000000000000
 11
349.7128925376081
 21
159.0248898068466
 31
0.000000000000000
  0
LINE
  5
168
100
AcDbEntity
  8
1
  6
CONTINUOUS
 62
7
100
AcDbLine
 10
324.2128925376081
 20
223.5248898068467
 30
0.000000000000000
 11
324.2128925376081
 21
149.5248898068466
 31
0.000000000000000
  0
LINE
  5
169
100
AcDbEntity
  8
1
  6
CONTINUOUS
 62
7
100
AcDbLine
 10
352.2128925376079
 20
223.5248898068467
 30
0.000000000000000
 11
352.2128925376079
 21
149.5248898068466
 31
0.000000000000000
  0
ARC
  5
16A
100
AcDbEntity
  8
1
  6
CONTINUOUS
 62
7
100
AcDbCircle
 10
329.2128925376081
 20
149.5248898068466
 30
0.000000000000000
 40
5.000000000000000
100
AcDbArc
 50
180.0000000000000
 51
270.0000000000000
  0
ARC
  5
16B
100
AcDbEntity
  8
1
  6
CONTINUOUS
 62
7
100
AcDbCircle
 10
347.2128925376081
 20
149.5248898068466
 30
0.000000000000000
 40
5.000000000000000
100
AcDbArc
 50
270.0000000000000
 51
360.0000000000000
  0
LINE
  5
16C
100
AcDbEntity
  8
1
  6
CONTINUOUS
 62
7
100
AcDbLine
 10
347.2128925376081
 20
144.5248898068466
 30
0.000000000000000
 11
329.2128925376081
 21
144.5248898068466
 31
0.000000000000000
  0
LINE
  5
16D
100
AcDbEntity
  8
1
  6
CONTINUOUS
 62
7
100
AcDbLine
 10
329.7128925376081
 20
184.0248898068465
 30
0.000000000000000
 11
346.7128925376081
 21
184.0248898068465
 31
0.000000000000000
  0
LINE
  5
16E
100
AcDbEntity
  8
1
  6
CONTINUOUS
 62
7
100
AcDbLine
 10
329.7128925376081
 20
156.0248898068466
 30
0.000000000000000
 11
346.7128925376081
 21
156.0248898068466
 31
0.000000000000000
  0
LINE
  5
16F
100
AcDbEntity
  8
1
  6
CONTINUOUS
 62
7
100
AcDbLine
 10
329.7128925376081
 20
160.4693688068464
 30
0.000000000000000
 11
346.7128925376081
 21
160.4693688068464
 31
0.000000000000000
  0
LINE
  5
170
100
AcDbEntity
  8
1
  6
CONTINUOUS
 62
7
100
AcDbLine
 10
342.4128925376081
 20
154.5248898068466
 30
0.000000000000000
 11
334.3399095376081
 21
154.5248898068466
 31
0.000000000000000
  0
LINE
  5
171
100
AcDbEntity
  8
4
  6
CENTER
 62
1
100
AcDbLine
 10
331.2128925376081
 20
150.5248898068466
 30
0.000000000000000
 11
345.2128925376081
 21
150.5248898068466
 31
0.000000000000000
  0
ARC
  5
172
100
AcDbEntity
  8
1
  6
CONTINUOUS
 62
7
100
AcDbCircle
 10
338.2128925376081
 20
153.5248898068467
 30
0.000000000000000
 40
8.000000000000000
100
AcDbArc
 50
216.8698980000000
 51
323.1301020000000
  0
CIRCLE
  5
173
100
AcDbEntity
  8
1
  6
CONTINUOUS
 62
7
100
AcDbCircle
 10
338.2128925376081
 20
150.5248898068466
 30
0.000000000000000
 40
3.500000000000000
  0
CIRCLE
  5
174
100
AcDbEntity
  8
1
  6
CONTINUOUS
 62
7
100
AcDbCircle
 10
338.2128925376081
 20
150.5248898068466
 30
0.000000000000000
 40
3.799999999999998
  0
ARC
  5
175
100
AcDbEntity
  8
1
  6
CONTINUOUS
 62
7
100
AcDbCircle
 10
329.7128925376081
 20
159.0248898068466
 30
0.000000000000000
 40
3.000000000000000
100
AcDbArc
 50
180.0000000000000
 51
270.0000000000000
  0
ARC
  5
176
100
AcDbEntity
  8
1
  6
CONTINUOUS
 62
7
100
AcDbCircle
 10
334.2128925376081
 20
150.5248898068466
 30
0.000000000000000
 40
3.000000000000000
100
AcDbArc
 50
143.1301020000000
 51
216.8698980000000
  0
ARC
  5
177
100
AcDbEntity
  8
1
  6
CONTINUOUS
 62
7
100
AcDbCircle
 10
338.2128925376081
 20
147.5248898068466
 30
0.000000000000000
 40
8.000000000000000
100
AcDbArc
 50
118.9550239999999
 51
143.1301020000000
  0
ARC
  5
178
100
AcDbEntity
  8
1
  6
CONTINUOUS
 62
7
100
AcDbCircle
 10
329.7128925376081
 20
163.4693688068464
 30
0.000000000000000
 40
3.000000000000000
100
AcDbArc
 50
180.0000000000000
 51
270.0000000000000
  0
ARC
  5
179
100
AcDbEntity
  8
1
  6
CONTINUOUS
 62
7
100
AcDbCircle
 10
329.7128925376081
 20
181.0248898068465
 30
0.000000000000000
 40
3.000000000000000
100
AcDbArc
 50
90.00000000000000
 51
180.0000000000000
  0
ARC
  5
17A
100
AcDbEntity
  8
1
  6
CONTINUOUS
 62
7
100
AcDbCircle
 10
346.7128925376081
 20
159.0248898068466
 30
0.000000000000000
 40
3.000000000000000
100
AcDbArc
 50
270.0000000000000
 51
360.0000000000000
  0
ARC
  5
17B
100
AcDbEntity
  8
1
  6
CONTINUOUS
 62
7
100
AcDbCircle
 10
338.2128925376081
 20
147.5248898068466
 30
0.000000000000000
 40
8.000000000000000
100
AcDbArc
 50
36.86989799999999
 51
61.04497600000000
  0
LINE
  5
17C
100
AcDbEntity
  8
1
  6
CONTINUOUS
 62
7
100
AcDbLine
 10
339.1622445376079
 20
150.5248898068466
 30
0.000000000000000
 11
339.3531625376079
 21
151.0509778068466
 31
0.000000000000000
  0
LINE
  5
17D
100
AcDbEntity
  8
1
  6
CONTINUOUS
 62
7
100
AcDbLine
 10
339.3531625376079
 20
151.0509778068466
 30
0.000000000000000
 11
339.9641035376081
 21
151.6831308068467
 31
0.000000000000000
  0
LINE
  5
17E
100
AcDbEntity
  8
1
  6
CONTINUOUS
 62
7
100
AcDbLine
 10
338.7379805376081
 20
151.6661608068465
 30
0.000000000000000
 11
339.3701335376079
 21
152.2771008068466
 31
0.000000000000000
  0
LINE
  5
17F
100
AcDbEntity
  8
1
  6
CONTINUOUS
 62
7
100
AcDbLine
 10
338.2118925376078
 20
151.4752418068464
 30
0.000000000000000
 11
338.7379805376080
 21
151.6661608068465
 31
0.000000000000000
  0
LINE
  5
180
100
AcDbEntity
  8
1
  6
CONTINUOUS
 62
7
100
AcDbLine
 10
337.2622485376081
 20
150.5255968068467
 30
0.000000000000000
 11
337.0713295376082
 21
151.0502708068467
 31
0.000000000000000
  0
LINE
  5
181
100
AcDbEntity
  8
1
  6
CONTINUOUS
 62
7
100
AcDbLine
 10
337.6872195376080
 20
151.6661608068465
 30
0.000000000000000
 11
337.0543585376080
 21
152.2763938068466
 31
0.000000000000000
  0
LINE
  5
182
100
AcDbEntity
  8
1
  6
CONTINUOUS
 62
7
100
AcDbLine
 10
338.2118925376080
 20
151.4752418068465
 30
0.000000000000000
 11
337.6872195376079
 21
151.6661608068465
 31
0.000000000000000
  0
LINE
  5
183
100
AcDbEntity
  8
1
  6
CONTINUOUS
 62
7
100
AcDbLine
 10
338.2125995376081
 20
149.5752458068467
 30
0.000000000000000
 11
337.6865125376081
 21
149.3843268068467
 31
0.000000000000000
  0
LINE
  5
184
100
AcDbEntity
  8
1
  6
CONTINUOUS
 62
7
100
AcDbLine
 10
337.6865125376082
 20
149.3843268068467
 30
0.000000000000000
 11
337.0543585376080
 21
148.7733868068467
 31
0.000000000000000
  0
LINE
  5
185
100
AcDbEntity
  8
1
  6
CONTINUOUS
 62
7
100
AcDbLine
 10
337.2622485376079
 20
150.5255968068467
 30
0.000000000000000
 11
337.0713295376081
 21
149.9995098068466
 31
0.000000000000000
  0
LINE
  5
186
100
AcDbEntity
  8
1
  6
CONTINUOUS
 62
7
100
AcDbLine
 10
339.1622445376079
 20
150.5248898068466
 30
0.000000000000000
 11
339.3531625376079
 21
150.0002168068466
 31
0.000000000000000
  0
LINE
  5
187
100
AcDbEntity
  8
1
  6
CONTINUOUS
 62
7
100
AcDbLine
 10
339.3531625376079
 20
150.0002168068466
 30
0.000000000000000
 11
339.9641035376081
 21
149.3666488068467
 31
0.000000000000000
  0
LINE
  5
188
100
AcDbEntity
  8
1
  6
CONTINUOUS
 62
7
100
AcDbLine
 10
338.7372725376081
 20
149.3843268068467
 30
0.000000000000000
 11
339.3708405376079
 21
148.7733868068467
 31
0.000000000000000
  0
LINE
  5
189
100
AcDbEntity
  8
1
  6
CONTINUOUS
 62
7
100
AcDbLine
 10
338.2125995376081
 20
149.5752458068467
 30
0.000000000000000
 11
338.7372725376081
 21
149.3843268068467
 31
0.000000000000000
  0
ARC
  5
18A
100
AcDbEntity
  8
1
  6
CONTINUOUS
 62
7
100
AcDbCircle
 10
338.2118925376080
 20
150.5248898068466
 30
0.000000000000000
 40
2.100000000000000
100
AcDbArc
 50
33.46300000000000
 51
56.53699999999999
  0
ARC
  5
18B
100
AcDbEntity
  8
1
  6
CONTINUOUS
 62
7
100
AcDbCircle
 10
338.2118925376080
 20
150.5248898068466
 30
0.000000000000000
 40
2.100000000000000
100
AcDbArc
 50
303.4629999999999
 51
326.5369999999998
  0
LINE
  5
18C
100
AcDbEntity
  8
1
  6
CONTINUOUS
 62
7
100
AcDbLine
 10
337.0713295376081
 20
151.0502708068467
 30
0.000000000000000
 11
336.4603895376080
 21
151.6824238068467
 31
0.000000000000000
  0
LINE
  5
18D
100
AcDbEntity
  8
1
  6
CONTINUOUS
 62
7
100
AcDbLine
 10
337.0713295376081
 20
149.9995098068466
 30
0.000000000000000
 11
336.4603895376080
 21
149.3673568068467
 31
0.000000000000000
  0
ARC
  5
18E
100
AcDbEntity
  8
1
  6
CONTINUOUS
 62
7
100
AcDbCircle
 10
338.2118925376080
 20
150.5248898068466
 30
0.000000000000000
 40
2.100000000000000
100
AcDbArc
 50
123.4629999999998
 51
146.5370000000000
  0
ARC
  5
18F
100
AcDbEntity
  8
1
  6
CONTINUOUS
 62
7
100
AcDbCircle
 10
338.2118925376080
 20
150.5248898068466
 30
0.000000000000000
 40
2.100000000000000
100
AcDbArc
 50
213.4630000000000
 51
236.5369999999999
  0
ARC
  5
190
100
AcDbEntity
  8
1
  6
CONTINUOUS
 62
7
100
AcDbCircle
 10
342.2128925376081
 20
150.5248898068466
 30
0.000000000000000
 40
3.000000000000000
100
AcDbArc
 50
323.1301020000000
 51
396.8698980000000
  0
ARC
  5
191
100
AcDbEntity
  8
1
  6
CONTINUOUS
 62
7
100
AcDbCircle
 10
346.7128925376081
 20
163.4693688068464
 30
0.000000000000000
 40
3.000000000000000
100
AcDbArc
 50
270.0000000000000
 51
360.0000000000000
  0
ARC
  5
192
100
AcDbEntity
  8
1
  6
CONTINUOUS
 62
7
100
AcDbCircle
 10
346.7128925376081
 20
181.0248898068465
 30
0.000000000000000
 40
3.000000000000000
100
AcDbArc
 50
0.000000000000000
 51
90.00000000000000
  0
LINE
  5
193
100
AcDbEntity
  8
4
  6
CENTER
 62
1
100
AcDbLine
 10
351.2128925376081
 20
205.5248898068467
 30
0.000000000000000
 11
292.3223515376080
 21
205.5248898068467
 31
0.000000000000000
  0
LINE
  5
194
100
AcDbEntity
  8
5
  6
PHANTOM
 62
6
100
AcDbLine
 10
324.2128925376081
 20
215.0248898068467
 30
0.000000000000000
 11
297.3223515376080
 21
215.0248898068467
 31
0.000000000000000
  0
LINE
  5
195
100
AcDbEntity
  8
5
  6
PHANTOM
 62
6
100
AcDbLine
 10
324.2128925376081
 20
196.0248898068467
 30
0.000000000000000
 11
297.3223515376080
 21
196.0248898068467
 31
0.000000000000000
  0
LINE
  5
196
100
AcDbEntity
  8
5
  6
PHANTOM
 62
6
100
AcDbLine
 10
295.3223515376080
 20
213.0248898068467
 30
0.000000000000000
 11
295.3223515376080
 21
198.0248898068467
 31
0.000000000000000
  0
ARC
  5
197
100
AcDbEntity
  8
5
  6
PHANTOM
 62
6
100
AcDbCircle
 10
297.3223515376080
 20
198.0248898068467
 30
0.000000000000000
 40
2.000000000000000
100
AcDbArc
 50
180.0000000000000
 51
270.0000000000000
  0
ARC
  5
198
100
AcDbEntity
  8
5
  6
PHANTOM
 62
6
100
AcDbCircle
 10
297.3223515376080
 20
213.0248898068467
 30
0.000000000000000
 40
2.000000000000000
100
AcDbArc
 50
90.00000000000000
 51
180.0000000000000
  0
LINE
  5
199
100
AcDbEntity
  8
1
  6
CONTINUOUS
 62
7
100
AcDbLine
 10
347.2128925376081
 20
228.5248898068467
 30
0.000000000000000
 11
329.2128925376081
 21
228.5248898068467
 31
0.000000000000000
  0
LINE
  5
19A
100
AcDbEntity
  8
4
  6
CENTER
 62
1
100
AcDbLine
 10
331.2128925376081
 20
222.5248898068466
 30
0.000000000000000
 11
345.2128925376081
 21
222.5248898068466
 31
0.000000000000000
  0
ARC
  5
19B
100
AcDbEntity
  8
1
  6
CONTINUOUS
 62
7
100
AcDbCircle
 10
338.2128925376081
 20
219.5248898068467
 30
0.000000000000000
 40
8.000000000000000
100
AcDbArc
 50
36.86989799999999
 51
143.1301020000000
  0
LINE
  5
19C
100
AcDbEntity
  8
1
  6
CONTINUOUS
 62
7
100
AcDbLine
 10
346.7128925376081
 20
217.0248898068467
 30
0.000000000000000
 11
329.7128925376081
 21
217.0248898068467
 31
0.000000000000000
  0
CIRCLE
  5
19D
100
AcDbEntity
  8
1
  6
CONTINUOUS
 62
7
100
AcDbCircle
 10
338.2128925376081
 20
205.5248898068467
 30
0.000000000000000
 40
6.000000000000000
  0
LINE
  5
19E
100
AcDbEntity
  8
1
  6
CONTINUOUS
 62
7
100
AcDbLine
 10
342.4128925376081
 20
218.5248898068466
 30
0.000000000000000
 11
334.3399095376081
 21
218.5248898068466
 31
0.000000000000000
  0
CIRCLE
  5
19F
100
AcDbEntity
  8
1
  6
CONTINUOUS
 62
7
100
AcDbCircle
 10
338.2128925376081
 20
205.5248898068467
 30
0.000000000000000
 40
4.000000000000000
  0
LINE
  5
1A0
100
AcDbEntity
  8
1
  6
CONTINUOUS
 62
7
100
AcDbLine
 10
334.2128925376081
 20
203.2148898068467
 30
0.000000000000000
 11
338.2128925376081
 21
200.9058898068464
 31
0.000000000000000
  0
LINE
  5
1A1
100
AcDbEntity
  8
1
  6
CONTINUOUS
 62
7
100
AcDbLine
 10
338.2128925376082
 20
210.1438898068467
 30
0.000000000000000
 11
334.2128925376082
 21
207.8338898068464
 31
0.000000000000000
  0
LINE
  5
1A2
100
AcDbEntity
  8
1
  6
CONTINUOUS
 62
7
100
AcDbLine
 10
346.7128925376081
 20
194.0248898068467
 30
0.000000000000000
 11
329.7128925376081
 21
194.0248898068467
 31
0.000000000000000
  0
ARC
  5
1A3
100
AcDbEntity
  8
1
  6
CONTINUOUS
 62
7
100
AcDbCircle
 10
338.2128925376081
 20
205.5248898068467
 30
0.000000000000000
 40
11.50000000000000
100
AcDbArc
 50
119.9999999999999
 51
420.0000000000000
  0
ARC
  5
1A4
100
AcDbEntity
  8
1
  6
CONTINUOUS
 62
7
100
AcDbCircle
 10
338.2128925376081
 20
205.5248898068467
 30
0.000000000000000
 40
11.25000000000000
100
AcDbArc
 50
210.0000000000000
 51
420.0000000000000
  0
CIRCLE
  5
1A5
100
AcDbEntity
  8
1
  6
CONTINUOUS
 62
7
100
AcDbCircle
 10
338.2128925376081
 20
205.5248898068467
 30
0.000000000000000
 40
9.000000000000000
  0
CIRCLE
  5
1A6
100
AcDbEntity
  8
1
  6
CONTINUOUS
 62
7
100
AcDbCircle
 10
338.2128925376081
 20
222.5248898068466
 30
0.000000000000000
 40
3.500000000000000
  0
CIRCLE
  5
1A7
100
AcDbEntity
  8
1
  6
CONTINUOUS
 62
7
100
AcDbCircle
 10
338.2128925376081
 20
222.5248898068466
 30
0.000000000000000
 40
3.799999999999998
  0
ARC
  5
1A8
100
AcDbEntity
  8
1
  6
CONTINUOUS
 62
7
100
AcDbCircle
 10
338.2128925376081
 20
205.5248898068467
 30
0.000000000000000
 40
10.00000000000000
100
AcDbArc
 50
119.9999999999999
 51
210.0000000000000
  0
ARC
  5
1A9
100
AcDbEntity
  8
1
  6
CONTINUOUS
 62
7
100
AcDbCircle
 10
338.2128925376081
 20
205.5248898068467
 30
0.000000000000000
 40
9.500000000000000
100
AcDbArc
 50
119.9999999999999
 51
210.0000000000000
  0
ARC
  5
1AA
100
AcDbEntity
  8
1
  6
CONTINUOUS
 62
7
100
AcDbCircle
 10
329.7128925376081
 20
197.0248898068465
 30
0.000000000000000
 40
3.000000000000000
100
AcDbArc
 50
180.0000000000000
 51
270.0000000000000
  0
LINE
  5
1AB
100
AcDbEntity
  8
1
  6
CONTINUOUS
 62
7
100
AcDbLine
 10
330.4186635376081
 20
201.0248898068467
 30
0.000000000000000
 11
328.4701065376081
 21
199.8998898068467
 31
0.000000000000000
  0
LINE
  5
1AC
100
AcDbEntity
  8
1
  6
CONTINUOUS
 62
7
100
AcDbLine
 10
334.2128925376081
 20
203.2148898068467
 30
0.000000000000000
 11
334.2128925376081
 21
207.8338898068464
 31
0.000000000000000
  0
ARC
  5
1AD
100
AcDbEntity
  8
1
  6
CONTINUOUS
 62
7
100
AcDbCircle
 10
338.2128925376081
 20
225.5248898068467
 30
0.000000000000000
 40
8.000000000000000
100
AcDbArc
 50
216.8698980000000
 51
241.0449760000000
  0
ARC
  5
1AE
100
AcDbEntity
  8
1
  6
CONTINUOUS
 62
7
100
AcDbCircle
 10
329.7128925376081
 20
214.0248898068467
 30
0.000000000000000
 40
3.000000000000000
100
AcDbArc
 50
90.00000000000000
 51
180.0000000000000
  0
ARC
  5
1AF
100
AcDbEntity
  8
1
  6
CONTINUOUS
 62
7
100
AcDbCircle
 10
334.1027785376079
 20
213.6438158068466
 30
0.000000000000000
 40
0.5000000000000000
100
AcDbArc
 50
210.0000000000000
 51
219.9339380000000
  0
LINE
  5
1B0
100
AcDbEntity
  8
1
  6
CONTINUOUS
 62
7
100
AcDbLine
 10
332.4628925376081
 20
215.4841818068464
 30
0.000000000000000
 11
332.4628925376081
 21
217.0248898068467
 31
0.000000000000000
  0
LINE
  5
1B1
100
AcDbEntity
  8
1
  6
CONTINUOUS
 62
7
100
AcDbLine
 10
333.6697655376080
 20
213.3938158068467
 30
0.000000000000000
 11
332.4628925376081
 21
215.4841818068464
 31
0.000000000000000
  0
ARC
  5
1B2
100
AcDbEntity
  8
1
  6
CONTINUOUS
 62
7
100
AcDbCircle
 10
329.2128925376081
 20
223.5248898068467
 30
0.000000000000000
 40
5.000000000000000
100
AcDbArc
 50
90.00000000000000
 51
180.0000000000000
  0
ARC
  5
1B3
100
AcDbEntity
  8
1
  6
CONTINUOUS
 62
7
100
AcDbCircle
 10
334.2128925376081
 20
222.5248898068466
 30
0.000000000000000
 40
3.000000000000000
100
AcDbArc
 50
143.1301020000000
 51
216.8698980000000
  0
LINE
  5
1B4
100
AcDbEntity
  8
1
  6
CONTINUOUS
 62
7
100
AcDbLine
 10
338.2128925376082
 20
210.1438898068467
 30
0.000000000000000
 11
342.2128925376082
 21
207.8338898068464
 31
0.000000000000000
  0
ARC
  5
1B5
100
AcDbEntity
  8
1
  6
CONTINUOUS
 62
7
100
AcDbCircle
 10
346.7128925376081
 20
197.0248898068465
 30
0.000000000000000
 40
3.000000000000000
100
AcDbArc
 50
270.0000000000000
 51
360.0000000000000
  0
LINE
  5
1B6
100
AcDbEntity
  8
1
  6
CONTINUOUS
 62
7
100
AcDbLine
 10
340.1807455376082
 20
206.8987738068464
 30
0.000000000000000
 11
339.4234885376081
 21
206.1146108068467
 31
0.000000000000000
  0
LINE
  5
1B7
100
AcDbEntity
  8
1
  6
CONTINUOUS
 62
7
100
AcDbLine
 10
339.5867755376080
 20
207.4927428068465
 30
0.000000000000000
 11
338.8026135376079
 21
206.7354868068466
 31
0.000000000000000
  0
LINE
  5
1B8
100
AcDbEntity
  8
1
  6
CONTINUOUS
 62
7
100
AcDbLine
 10
342.2128925376081
 20
203.2148898068467
 30
0.000000000000000
 11
342.2128925376081
 21
207.8338898068464
 31
0.000000000000000
  0
ARC
  5
1B9
100
AcDbEntity
  8
1
  6
CONTINUOUS
 62
7
100
AcDbCircle
 10
338.2128925376081
 20
205.5248898068467
 30
0.000000000000000
 40
2.399999999999999
100
AcDbArc
 50
304.9213420000000
 51
325.0786580000000
  0
LINE
  5
1BA
100
AcDbEntity
  8
1
  6
CONTINUOUS
 62
7
100
AcDbLine
 10
340.1807455376082
 20
204.1510068068467
 30
0.000000000000000
 11
339.4234885376081
 21
204.9351688068466
 31
0.000000000000000
  0
LINE
  5
1BB
100
AcDbEntity
  8
1
  6
CONTINUOUS
 62
7
100
AcDbLine
 10
342.2128925376082
 20
203.2158898068467
 30
0.000000000000000
 11
338.2128925376082
 21
200.9058898068464
 31
0.000000000000000
  0
LINE
  5
1BC
100
AcDbEntity
  8
1
  6
CONTINUOUS
 62
7
100
AcDbLine
 10
338.2128925376081
 20
206.5208458068467
 30
0.000000000000000
 11
337.6231715376081
 21
206.7354868068466
 31
0.000000000000000
  0
LINE
  5
1BD
100
AcDbEntity
  8
1
  6
CONTINUOUS
 62
7
100
AcDbLine
 10
338.2128925376082
 20
204.5289348068467
 30
0.000000000000000
 11
337.6231715376081
 21
204.3142938068467
 31
0.000000000000000
  0
LINE
  5
1BE
100
AcDbEntity
  8
1
  6
CONTINUOUS
 62
7
100
AcDbLine
 10
338.2128925376082
 20
204.5289348068468
 30
0.000000000000000
 11
338.8026135376080
 21
204.3142938068468
 31
0.000000000000000
  0
LINE
  5
1BF
100
AcDbEntity
  8
1
  6
CONTINUOUS
 62
7
100
AcDbLine
 10
338.2128925376081
 20
206.5208458068467
 30
0.000000000000000
 11
338.8026135376078
 21
206.7354868068466
 31
0.000000000000000
  0
LINE
  5
1C0
100
AcDbEntity
  8
1
  6
CONTINUOUS
 62
7
100
AcDbLine
 10
339.2088475376079
 20
205.5248898068467
 30
0.000000000000000
 11
339.4234885376081
 21
204.9351688068466
 31
0.000000000000000
  0
LINE
  5
1C1
100
AcDbEntity
  8
1
  6
CONTINUOUS
 62
7
100
AcDbLine
 10
339.5867755376081
 20
203.5570368068467
 30
0.000000000000000
 11
338.8026135376080
 21
204.3142938068467
 31
0.000000000000000
  0
LINE
  5
1C2
100
AcDbEntity
  8
1
  6
CONTINUOUS
 62
7
100
AcDbLine
 10
339.2088475376079
 20
205.5248898068467
 30
0.000000000000000
 11
339.4234885376081
 21
206.1146108068467
 31
0.000000000000000
  0
ARC
  5
1C3
100
AcDbEntity
  8
1
  6
CONTINUOUS
 62
7
100
AcDbCircle
 10
338.2128925376081
 20
205.5248898068467
 30
0.000000000000000
 40
2.399999999999999
100
AcDbArc
 50
34.92134199999999
 51
55.07865800000000
  0
LINE
  5
1C4
100
AcDbEntity
  8
1
  6
CONTINUOUS
 62
7
100
AcDbLine
 10
336.2450395376080
 20
206.8987738068464
 30
0.000000000000000
 11
337.0022965376079
 21
206.1146108068467
 31
0.000000000000000
  0
ARC
  5
1C5
100
AcDbEntity
  8
1
  6
CONTINUOUS
 62
7
100
AcDbCircle
 10
338.2128925376081
 20
205.5248898068467
 30
0.000000000000000
 40
2.399999999999999
100
AcDbArc
 50
214.9213419999999
 51
235.0786579999997
  0
LINE
  5
1C6
100
AcDbEntity
  8
1
  6
CONTINUOUS
 62
7
100
AcDbLine
 10
336.2450395376080
 20
204.1510068068467
 30
0.000000000000000
 11
337.0022965376079
 21
204.9351688068466
 31
0.000000000000000
  0
ARC
  5
1C7
100
AcDbEntity
  8
1
  6
CONTINUOUS
 62
7
100
AcDbCircle
 10
338.2128925376081
 20
205.5248898068467
 30
0.000000000000000
 40
2.399999999999999
100
AcDbArc
 50
124.9213420000000
 51
145.0786579999999
  0
LINE
  5
1C8
100
AcDbEntity
  8
1
  6
CONTINUOUS
 62
7
100
AcDbLine
 10
336.8390095376080
 20
207.4927428068466
 30
0.000000000000000
 11
337.6231715376081
 21
206.7354868068466
 31
0.000000000000000
  0
CIRCLE
  5
1C9
100
AcDbEntity
  8
1
  6
CONTINUOUS
 62
7
100
AcDbCircle
 10
338.2128925376081
 20
205.5248898068467
 30
0.000000000000000
 40
3.100000000000000
  0
LINE
  5
1CA
100
AcDbEntity
  8
1
  6
CONTINUOUS
 62
7
100
AcDbLine
 10
337.2169375376080
 20
205.5248898068467
 30
0.000000000000000
 11
337.0022965376079
 21
204.9351688068466
 31
0.000000000000000
  0
LINE
  5
1CB
100
AcDbEntity
  8
1
  6
CONTINUOUS
 62
7
100
AcDbLine
 10
337.2169375376080
 20
205.5248898068467
 30
0.000000000000000
 11
337.0022965376079
 21
206.1146108068467
 31
0.000000000000000
  0
LINE
  5
1CC
100
AcDbEntity
  8
1
  6
CONTINUOUS
 62
7
100
AcDbLine
 10
336.8390095376080
 20
203.5570368068467
 30
0.000000000000000
 11
337.6231715376081
 21
204.3142938068467
 31
0.000000000000000
  0
ARC
  5
1CD
100
AcDbEntity
  8
1
  6
CONTINUOUS
 62
7
100
AcDbCircle
 10
347.2128925376081
 20
223.5248898068467
 30
0.000000000000000
 40
5.000000000000000
100
AcDbArc
 50
0.000000000000000
 51
90.00000000000000
  0
ARC
  5
1CE
100
AcDbEntity
  8
1
  6
CONTINUOUS
 62
7
100
AcDbCircle
 10
338.2128925376081
 20
225.5248898068467
 30
0.000000000000000
 40
8.000000000000000
100
AcDbArc
 50
298.9550239999999
 51
323.1301020000000
  0
LINE
  5
1CF
100
AcDbEntity
  8
1
  6
CONTINUOUS
 62
7
100
AcDbLine
 10
342.7128925376081
 20
213.3191188068467
 30
0.000000000000000
 11
343.9628925376081
 21
215.4841818068464
 31
0.000000000000000
  0
ARC
  5
1D0
100
AcDbEntity
  8
1
  6
CONTINUOUS
 62
7
100
AcDbCircle
 10
342.3230065376080
 20
213.6438158068466
 30
0.000000000000000
 40
0.5000000000000000
100
AcDbArc
 50
320.0660619999998
 51
329.9999999999999
  0
ARC
  5
1D1
100
AcDbEntity
  8
1
  6
CONTINUOUS
 62
7
100
AcDbCircle
 10
346.7128925376081
 20
214.0248898068467
 30
0.000000000000000
 40
3.000000000000000
100
AcDbArc
 50
0.000000000000000
 51
90.00000000000000
  0
LINE
  5
1D2
100
AcDbEntity
  8
1
  6
CONTINUOUS
 62
7
100
AcDbLine
 10
343.9628925376081
 20
215.4841818068464
 30
0.000000000000000
 11
343.9628925376081
 21
217.0248898068467
 31
0.000000000000000
  0
LINE
  5
1D3
100
AcDbEntity
  8
1
  6
CONTINUOUS
 62
7
100
AcDbLine
 10
339.1622445376079
 20
222.5248898068466
 30
0.000000000000000
 11
339.3531625376079
 21
223.0509778068466
 31
0.000000000000000
  0
LINE
  5
1D4
100
AcDbEntity
  8
1
  6
CONTINUOUS
 62
7
100
AcDbLine
 10
339.3531625376079
 20
223.0509778068466
 30
0.000000000000000
 11
339.9641035376081
 21
223.6831308068466
 31
0.000000000000000
  0
LINE
  5
1D5
100
AcDbEntity
  8
1
  6
CONTINUOUS
 62
7
100
AcDbLine
 10
338.7379805376081
 20
223.6661608068467
 30
0.000000000000000
 11
339.3701335376079
 21
224.2771008068466
 31
0.000000000000000
  0
LINE
  5
1D6
100
AcDbEntity
  8
1
  6
CONTINUOUS
 62
7
100
AcDbLine
 10
338.2118925376080
 20
223.4752418068467
 30
0.000000000000000
 11
338.7379805376082
 21
223.6661608068468
 31
0.000000000000000
  0
LINE
  5
1D7
100
AcDbEntity
  8
1
  6
CONTINUOUS
 62
7
100
AcDbLine
 10
337.2622485376080
 20
222.5255968068467
 30
0.000000000000000
 11
337.0713295376081
 21
223.0502708068468
 31
0.000000000000000
  0
LINE
  5
1D8
100
AcDbEntity
  8
1
  6
CONTINUOUS
 62
7
100
AcDbLine
 10
337.6872195376079
 20
223.6661608068466
 30
0.000000000000000
 11
337.0543585376079
 21
224.2763938068465
 31
0.000000000000000
  0
LINE
  5
1D9
100
AcDbEntity
  8
1
  6
CONTINUOUS
 62
7
100
AcDbLine
 10
338.2118925376079
 20
223.4752418068466
 30
0.000000000000000
 11
337.6872195376079
 21
223.6661608068467
 31
0.000000000000000
  0
LINE
  5
1DA
100
AcDbEntity
  8
1
  6
CONTINUOUS
 62
7
100
AcDbLine
 10
338.2125995376081
 20
221.5752458068467
 30
0.000000000000000
 11
337.6865125376082
 21
221.3843268068467
 31
0.000000000000000
  0
LINE
  5
1DB
100
AcDbEntity
  8
1
  6
CONTINUOUS
 62
7
100
AcDbLine
 10
337.6865125376082
 20
221.3843268068467
 30
0.000000000000000
 11
337.0543585376080
 21
220.7733868068467
 31
0.000000000000000
  0
LINE
  5
1DC
100
AcDbEntity
  8
1
  6
CONTINUOUS
 62
7
100
AcDbLine
 10
337.2622485376079
 20
222.5255968068467
 30
0.000000000000000
 11
337.0713295376081
 21
221.9995098068466
 31
0.000000000000000
  0
LINE
  5
1DD
100
AcDbEntity
  8
1
  6
CONTINUOUS
 62
7
100
AcDbLine
 10
339.1622445376078
 20
222.5248898068466
 30
0.000000000000000
 11
339.3531625376078
 21
222.0002168068466
 31
0.000000000000000
  0
LINE
  5
1DE
100
AcDbEntity
  8
1
  6
CONTINUOUS
 62
7
100
AcDbLine
 10
339.3531625376079
 20
222.0002168068466
 30
0.000000000000000
 11
339.9641035376081
 21
221.3666488068467
 31
0.000000000000000
  0
LINE
  5
1DF
100
AcDbEntity
  8
1
  6
CONTINUOUS
 62
7
100
AcDbLine
 10
338.7372725376081
 20
221.3843268068467
 30
0.000000000000000
 11
339.3708405376079
 21
220.7733868068467
 31
0.000000000000000
  0
LINE
  5
1E0
100
AcDbEntity
  8
1
  6
CONTINUOUS
 62
7
100
AcDbLine
 10
338.2125995376081
 20
221.5752458068467
 30
0.000000000000000
 11
338.7372725376081
 21
221.3843268068466
 31
0.000000000000000
  0
ARC
  5
1E1
100
AcDbEntity
  8
1
  6
CONTINUOUS
 62
7
100
AcDbCircle
 10
338.2118925376080
 20
222.5248898068466
 30
0.000000000000000
 40
2.100000000000000
100
AcDbArc
 50
33.46300000000000
 51
56.53699999999999
  0
ARC
  5
1E2
100
AcDbEntity
  8
1
  6
CONTINUOUS
 62
7
100
AcDbCircle
 10
338.2118925376080
 20
222.5248898068466
 30
0.000000000000000
 40
2.100000000000000
100
AcDbArc
 50
303.4629999999999
 51
326.5369999999998
  0
LINE
  5
1E3
100
AcDbEntity
  8
1
  6
CONTINUOUS
 62
7
100
AcDbLine
 10
337.0713295376081
 20
223.0502708068467
 30
0.000000000000000
 11
336.4603895376080
 21
223.6824238068467
 31
0.000000000000000
  0
LINE
  5
1E4
100
AcDbEntity
  8
1
  6
CONTINUOUS
 62
7
100
AcDbLine
 10
337.0713295376081
 20
221.9995098068466
 30
0.000000000000000
 11
336.4603895376080
 21
221.3673568068466
 31
0.000000000000000
  0
ARC
  5
1E5
100
AcDbEntity
  8
1
  6
CONTINUOUS
 62
7
100
AcDbCircle
 10
338.2118925376080
 20
222.5248898068466
 30
0.000000000000000
 40
2.100000000000000
100
AcDbArc
 50
123.4629999999998
 51
146.5370000000000
  0
ARC
  5
1E6
100
AcDbEntity
  8
1
  6
CONTINUOUS
 62
7
100
AcDbCircle
 10
338.2118925376080
 20
222.5248898068466
 30
0.000000000000000
 40
2.100000000000000
100
AcDbArc
 50
213.4630000000000
 51
236.5369999999999
  0
ARC
  5
1E7
100
AcDbEntity
  8
1
  6
CONTINUOUS
 62
7
100
AcDbCircle
 10
342.2128925376081
 20
222.5248898068466
 30
0.000000000000000
 40
3.000000000000000
100
AcDbArc
 50
323.1301020000000
 51
396.8698980000000
  0
LINE
  5
1E8
100
AcDbEntity
  8
4
  6
CENTER
 62
1
100
AcDbLine
 10
23.25448853760811
 20
315.1806228068467
 30
0.000000000000000
 11
74.28890953760809
 21
315.1806228068467
 31
0.000000000000000
  0
ARC
  5
1E9
100
AcDbEntity
  8
1
  6
CONTINUOUS
 62
7
100
AcDbCircle
 10
72.50000153760811
 20
315.5806228068467
 30
0.000000000000000
 40
0.5000000000000000
100
AcDbArc
 50
313.1718549999998
 51
405.0866460000000
  0
LINE
  5
1EA
100
AcDbEntity
  8
1
  6
CONTINUOUS
 62
7
100
AcDbLine
 10
49.50000153760810
 20
315.8806228068467
 30
0.000000000000000
 11
49.50000153760810
 21
314.6806228068468
 31
0.000000000000000
  0
ARC
  5
1EB
100
AcDbEntity
  8
1
  6
CONTINUOUS
 62
7
100
AcDbCircle
 10
42.53261653760811
 20
315.1806228068467
 30
0.000000000000000
 40
10.03262800000000
100
AcDbArc
 50
144.4620000000000
 51
215.5377000000000
  0
ARC
  5
1EC
100
AcDbEntity
  8
1
  6
CONTINUOUS
 62
7
100
AcDbCircle
 10
29.46738653760811
 20
315.1806228068467
 30
0.000000000000000
 40
10.03262800000000
100
AcDbArc
 50
324.4619999999998
 51
395.5380000000000
  0
LINE
  5
1ED
100
AcDbEntity
  8
1
  6
CONTINUOUS
 62
7
100
AcDbLine
 10
46.00000153760809
 20
311.9306228068467
 30
0.000000000000000
 11
46.00000153760809
 21
318.4306228068467
 31
0.000000000000000
  0
LINE
  5
1EE
100
AcDbEntity
  8
1
  6
CONTINUOUS
 62
7
100
AcDbLine
 10
25.00000153760811
 20
319.0750718068467
 30
0.000000000000000
 11
25.00000153760811
 21
311.2861738068467
 31
0.000000000000000
  0
LINE
  5
1EF
100
AcDbEntity
  8
1
  6
CONTINUOUS
 62
7
100
AcDbLine
 10
27.00000153760811
 20
318.6806228068468
 30
0.000000000000000
 11
27.00000153760811
 21
311.6806228068467
 31
0.000000000000000
  0
LINE
  5
1F0
100
AcDbEntity
  8
1
  6
CONTINUOUS
 62
7
100
AcDbLine
 10
31.00000153760811
 20
318.6806228068468
 30
0.000000000000000
 11
31.00000153760811
 21
311.6806228068467
 31
0.000000000000000
  0
LINE
  5
1F1
100
AcDbEntity
  8
1
  6
CONTINUOUS
 62
7
100
AcDbLine
 10
26.00000153760811
 20
311.2861738068467
 30
0.000000000000000
 11
26.00000153760811
 21
319.0750718068467
 31
0.000000000000000
  0
LINE
  5
1F2
100
AcDbEntity
  8
1
  6
CONTINUOUS
 62
7
100
AcDbLine
 10
53.00000153760810
 20
312.0806228068466
 30
0.000000000000000
 11
69.50000153760811
 21
312.0806228068466
 31
0.000000000000000
  0
LINE
  5
1F3
100
AcDbEntity
  8
1
  6
CONTINUOUS
 62
7
100
AcDbLine
 10
49.50000153760810
 20
314.6806228068468
 30
0.000000000000000
 11
72.27144753760808
 21
314.6806228068468
 31
0.000000000000000
  0
LINE
  5
1F4
100
AcDbEntity
  8
1
  6
CONTINUOUS
 62
7
100
AcDbLine
 10
27.09230953760813
 20
282.1720238068467
 30
0.000000000000000
 11
37.29230953760811
 21
277.9220238068467
 31
0.000000000000000
  0
LINE
  5
1F5
100
AcDbEntity
  8
1
  6
CONTINUOUS
 62
7
100
AcDbLine
 10
38.50000153760811
 20
283.4604858068467
 30
0.000000000000000
 11
25.50000153760811
 21
283.4604858068467
 31
0.000000000000000
  0
ARC
  5
1F6
100
AcDbEntity
  8
1
  6
CONTINUOUS
 62
7
100
AcDbCircle
 10
26.90000153760811
 20
281.7104858068467
 30
0.000000000000000
 40
0.5000000000000000
100
AcDbArc
 50
67.38013500000000
 51
180.0000000000000
  0
LINE
  5
1F7
100
AcDbEntity
  8
1
  6
CONTINUOUS
 62
7
100
AcDbLine
 10
26.40000153760811
 20
273.2104858068467
 30
0.000000000000000
 11
26.40000153760811
 21
281.7104858068467
 31
0.000000000000000
  0
ARC
  5
1F8
100
AcDbEntity
  8
1
  6
CONTINUOUS
 62
7
100
AcDbCircle
 10
25.50000153760811
 20
282.9604858068466
 30
0.000000000000000
 40
0.5000000000000000
100
AcDbArc
 50
90.00000000000000
 51
180.0000000000000
  0
ARC
  5
1F9
100
AcDbEntity
  8
1
  6
CONTINUOUS
 62
7
100
AcDbCircle
 10
37.10000153760810
 20
277.4604858068467
 30
0.000000000000000
 40
0.5000000000000000
100
AcDbArc
 50
292.6198649999999
 51
427.3801350000000
  0
ARC
  5
1FA
100
AcDbEntity
  8
1
  6
CONTINUOUS
 62
7
100
AcDbCircle
 10
38.50000153760811
 20
282.9604858068466
 30
0.000000000000000
 40
0.5000000000000000
100
AcDbArc
 50
0.000000000000000
 51
90.00000000000000
  0
LINE
  5
1FB
100
AcDbEntity
  8
1
  6
CONTINUOUS
 62
7
100
AcDbLine
 10
36.53333453760808
 20
303.5806228068465
 30
0.000000000000000
 11
46.00000153760806
 21
310.6806228068467
 31
0.000000000000000
  0
LINE
  5
1FC
100
AcDbEntity
  8
1
  6
CONTINUOUS
 62
7
100
AcDbLine
 10
46.00000153760809
 20
311.9306228068467
 30
0.000000000000000
 11
35.93333453760809
 21
304.3806228068466
 31
0.000000000000000
  0
LINE
  5
1FD
100
AcDbEntity
  8
1
  6
CONTINUOUS
 62
7
100
AcDbLine
 10
25.33590053760813
 20
310.1767738068467
 30
0.000000000000000
 11
29.40626853760813
 21
304.0712228068467
 31
0.000000000000000
  0
LINE
  5
1FE
100
AcDbEntity
  8
1
  6
CONTINUOUS
 62
7
100
AcDbLine
 10
30.23831853760811
 20
304.6259228068466
 30
0.000000000000000
 11
26.16795153760810
 21
310.7314738068467
 31
0.000000000000000
  0
LINE
  5
1FF
100
AcDbEntity
  8
1
  6
CONTINUOUS
 62
7
100
AcDbLine
 10
31.07036853760811
 20
303.1806228068467
 30
0.000000000000000
 11
35.33333453760812
 21
303.1806228068467
 31
0.000000000000000
  0
LINE
  5
200
100
AcDbEntity
  8
1
  6
CONTINUOUS
 62
7
100
AcDbLine
 10
35.33333453760812
 20
304.1806228068468
 30
0.000000000000000
 11
31.07036853760811
 21
304.1806228068468
 31
0.000000000000000
  0
ARC
  5
201
100
AcDbEntity
  8
1
  6
CONTINUOUS
 62
7
100
AcDbCircle
 10
31.07036853760811
 20
305.1806228068467
 30
0.000000000000000
 40
2.000000000000000
100
AcDbArc
 50
213.6900680000000
 51
270.0000000000000
  0
ARC
  5
202
100
AcDbEntity
  8
1
  6
CONTINUOUS
 62
7
100
AcDbCircle
 10
31.07036853760811
 20
305.1806228068467
 30
0.000000000000000
 40
1.000000000000000
100
AcDbArc
 50
213.6900680000000
 51
270.0000000000000
  0
ARC
  5
203
100
AcDbEntity
  8
1
  6
CONTINUOUS
 62
7
100
AcDbCircle
 10
35.33333453760812
 20
305.1806228068467
 30
0.000000000000000
 40
2.000000000000000
100
AcDbArc
 50
270.0000000000000
 51
306.8698979999997
  0
ARC
  5
204
100
AcDbEntity
  8
1
  6
CONTINUOUS
 62
7
100
AcDbCircle
 10
35.33333453760812
 20
305.1806228068467
 30
0.000000000000000
 40
1.000000000000000
100
AcDbArc
 50
270.0000000000000
 51
306.8698979999997
  0
LINE
  5
205
100
AcDbEntity
  8
1
  6
CONTINUOUS
 62
7
100
AcDbLine
 10
27.50000153760811
 20
311.1806228068467
 30
0.000000000000000
 11
30.50000153760811
 21
311.1806228068467
 31
0.000000000000000
  0
ARC
  5
206
100
AcDbEntity
  8
1
  6
CONTINUOUS
 62
7
100
AcDbCircle
 10
27.50000153760811
 20
311.6806228068467
 30
0.000000000000000
 40
0.5000000000000000
100
AcDbArc
 50
180.0000000000000
 51
270.0000000000000
  0
ARC
  5
207
100
AcDbEntity
  8
1
  6
CONTINUOUS
 62
7
100
AcDbCircle
 10
30.50000153760811
 20
311.6806228068467
 30
0.000000000000000
 40
0.5000000000000000
100
AcDbArc
 50
270.0000000000000
 51
360.0000000000000
  0
ARC
  5
208
100
AcDbEntity
  8
1
  6
CONTINUOUS
 62
7
100
AcDbCircle
 10
27.00000153760811
 20
311.2861738068467
 30
0.000000000000000
 40
2.000000000000000
100
AcDbArc
 50
180.0000000000000
 51
213.6900680000000
  0
ARC
  5
209
100
AcDbEntity
  8
1
  6
CONTINUOUS
 62
7
100
AcDbCircle
 10
27.00000153760811
 20
311.2861738068467
 30
0.000000000000000
 40
1.000000000000000
100
AcDbArc
 50
180.0000000000000
 51
213.6900680000000
  0
ARC
  5
20A
100
AcDbEntity
  8
1
  6
CONTINUOUS
 62
7
100
AcDbCircle
 10
35.99921253760810
 20
310.5150338068465
 30
0.000000000000000
 40
2.004309000000000
100
AcDbArc
 50
215.5377000000000
 51
256.5374000000000
  0
ARC
  5
20B
100
AcDbEntity
  8
1
  6
CONTINUOUS
 62
7
100
AcDbCircle
 10
29.46738653760811
 20
315.1806228068467
 30
0.000000000000000
 40
9.254918999999999
100
AcDbArc
 50
333.9859999999998
 51
337.0559999999998
  0
ARC
  5
20C
100
AcDbEntity
  8
1
  6
CONTINUOUS
 62
7
100
AcDbCircle
 10
37.91755053760810
 20
311.6044608068467
 30
0.000000000000000
 40
0.07779100000000000
100
AcDbArc
 50
337.0559999999998
 51
450.0000000000000
  0
LINE
  5
20D
100
AcDbEntity
  8
1
  6
CONTINUOUS
 62
7
100
AcDbLine
 10
33.28669653760811
 20
314.7922188068467
 30
0.000000000000000
 11
38.71330653760811
 21
314.7922188068467
 31
0.000000000000000
  0
LINE
  5
20E
100
AcDbEntity
  8
1
  6
CONTINUOUS
 62
7
100
AcDbLine
 10
33.35143053760810
 20
314.0154098068465
 30
0.000000000000000
 11
38.64857253760812
 21
314.0154098068465
 31
0.000000000000000
  0
LINE
  5
20F
100
AcDbEntity
  8
1
  6
CONTINUOUS
 62
7
100
AcDbLine
 10
38.41805553760811
 20
313.2370218068467
 30
0.000000000000000
 11
36.93232953760812
 21
313.2370218068467
 31
0.000000000000000
  0
LINE
  5
210
100
AcDbEntity
  8
1
  6
CONTINUOUS
 62
7
100
AcDbLine
 10
33.97982453760809
 20
312.4586348068467
 30
0.000000000000000
 11
38.02017853760812
 21
312.4586348068467
 31
0.000000000000000
  0
ARC
  5
211
100
AcDbEntity
  8
1
  6
CONTINUOUS
 62
7
100
AcDbCircle
 10
38.41805553760811
 20
313.1596568068465
 30
0.000000000000000
 40
0.07779100000000000
100
AcDbArc
 50
347.2709999999998
 51
450.0000000000000
  0
ARC
  5
212
100
AcDbEntity
  8
1
  6
CONTINUOUS
 62
7
100
AcDbCircle
 10
29.46738653760811
 20
315.1806228068467
 30
0.000000000000000
 40
9.254918999999999
100
AcDbArc
 50
344.7940000000000
 51
347.2709999999998
  0
ARC
  5
213
100
AcDbEntity
  8
1
  6
CONTINUOUS
 62
7
100
AcDbCircle
 10
29.46738653760811
 20
315.1806228068467
 30
0.000000000000000
 40
9.254918999999999
100
AcDbArc
 50
344.7419999999998
 51
344.7940000000000
  0
ARC
  5
214
100
AcDbEntity
  8
1
  6
CONTINUOUS
 62
7
100
AcDbCircle
 10
38.02017853760812
 20
312.8486178068466
 30
0.000000000000000
 40
0.3889570000000000
100
AcDbArc
 50
270.0000000000000
 51
344.7419999999998
  0
ARC
  5
215
100
AcDbEntity
  8
1
  6
CONTINUOUS
 62
7
100
AcDbCircle
 10
33.97982453760809
 20
312.8486178068466
 30
0.000000000000000
 40
0.3889570000000000
100
AcDbArc
 50
195.2574999999999
 51
270.0000000000000
  0
ARC
  5
216
100
AcDbEntity
  8
1
  6
CONTINUOUS
 62
7
100
AcDbCircle
 10
42.53261653760811
 20
315.1806228068467
 30
0.000000000000000
 40
9.254918999999999
100
AcDbArc
 50
193.2680999999999
 51
195.2574999999999
  0
ARC
  5
217
100
AcDbEntity
  8
1
  6
CONTINUOUS
 62
7
100
AcDbCircle
 10
42.53261653760811
 20
315.1806228068467
 30
0.000000000000000
 40
9.254918999999999
100
AcDbArc
 50
192.7289000000000
 51
193.2680999999999
  0
ARC
  5
218
100
AcDbEntity
  8
1
  6
CONTINUOUS
 62
7
100
AcDbCircle
 10
33.58194753760811
 20
313.1596568068465
 30
0.000000000000000
 40
0.07779100000000000
100
AcDbArc
 50
90.00000000000000
 51
192.7289000000000
  0
ARC
  5
219
100
AcDbEntity
  8
1
  6
CONTINUOUS
 62
7
100
AcDbCircle
 10
37.43441353760810
 20
311.2934208068467
 30
0.000000000000000
 40
0.3889570000000000
100
AcDbArc
 50
270.0000000000000
 51
333.9859999999998
  0
ARC
  5
21A
100
AcDbEntity
  8
1
  6
CONTINUOUS
 62
7
100
AcDbCircle
 10
34.08087353760811
 20
311.6044608068467
 30
0.000000000000000
 40
0.07779100000000000
100
AcDbArc
 50
90.00000000000000
 51
202.9440000000000
  0
ARC
  5
21B
100
AcDbEntity
  8
1
  6
CONTINUOUS
 62
7
100
AcDbCircle
 10
42.53261653760811
 20
315.1806228068467
 30
0.000000000000000
 40
9.254918999999999
100
AcDbArc
 50
202.9440000000000
 51
206.0144000000000
  0
ARC
  5
21C
100
AcDbEntity
  8
1
  6
CONTINUOUS
 62
7
100
AcDbCircle
 10
34.56558953760810
 20
311.2934208068467
 30
0.000000000000000
 40
0.3889570000000000
100
AcDbArc
 50
206.0144000000000
 51
270.0000000000000
  0
LINE
  5
21D
100
AcDbEntity
  8
1
  6
CONTINUOUS
 62
7
100
AcDbLine
 10
35.99921253760810
 20
314.7922188068467
 30
0.000000000000000
 11
35.99921253760810
 21
314.0154098068465
 31
0.000000000000000
  0
LINE
  5
21E
100
AcDbEntity
  8
1
  6
CONTINUOUS
 62
7
100
AcDbLine
 10
35.06609453760811
 20
313.2370218068467
 30
0.000000000000000
 11
33.58194753760811
 21
313.2370218068467
 31
0.000000000000000
  0
LINE
  5
21F
100
AcDbEntity
  8
1
  6
CONTINUOUS
 62
7
100
AcDbLine
 10
34.08087353760811
 20
311.6818258068467
 30
0.000000000000000
 11
37.91755053760810
 21
311.6818258068467
 31
0.000000000000000
  0
LINE
  5
220
100
AcDbEntity
  8
1
  6
CONTINUOUS
 62
7
100
AcDbLine
 10
37.43441353760810
 20
310.9034378068467
 30
0.000000000000000
 11
34.56558953760810
 21
310.9034378068467
 31
0.000000000000000
  0
LINE
  5
221
100
AcDbEntity
  8
1
  6
CONTINUOUS
 62
7
100
AcDbLine
 10
33.86614553760811
 20
310.1266288068465
 30
0.000000000000000
 11
37.21968653760811
 21
310.1266288068465
 31
0.000000000000000
  0
LINE
  5
222
100
AcDbEntity
  8
1
  6
CONTINUOUS
 62
7
100
AcDbLine
 10
33.28669653760811
 20
315.5706058068466
 30
0.000000000000000
 11
38.71330653760811
 21
315.5706058068466
 31
0.000000000000000
  0
ARC
  5
223
100
AcDbEntity
  8
1
  6
CONTINUOUS
 62
7
100
AcDbCircle
 10
35.99921253760810
 20
310.5150338068465
 30
0.000000000000000
 40
2.004309000000000
100
AcDbArc
 50
270.0000000000000
 51
324.4619999999998
  0
LINE
  5
224
100
AcDbEntity
  8
1
  6
CONTINUOUS
 62
7
100
AcDbLine
 10
46.00000153760809
 20
310.6806228068468
 30
0.000000000000000
 11
52.70000153760810
 21
310.6806228068468
 31
0.000000000000000
  0
LINE
  5
225
100
AcDbEntity
  8
1
  6
CONTINUOUS
 62
7
100
AcDbLine
 10
53.00000153760810
 20
312.0806228068466
 30
0.000000000000000
 11
53.00000153760810
 21
310.9806228068465
 31
0.000000000000000
  0
ARC
  5
226
100
AcDbEntity
  8
1
  6
CONTINUOUS
 62
7
100
AcDbCircle
 10
52.70000153760810
 20
310.9806228068465
 30
0.000000000000000
 40
0.3000000000000000
100
AcDbArc
 50
270.0000000000000
 51
360.0000000000000
  0
LINE
  5
227
100
AcDbEntity
  8
1
  6
CONTINUOUS
 62
7
100
AcDbLine
 10
69.50000153760811
 20
312.0806228068466
 30
0.000000000000000
 11
72.84209553760809
 21
315.2159698068467
 31
0.000000000000000
  0
LINE
  5
228
100
AcDbEntity
  8
1
  6
CONTINUOUS
 62
7
100
AcDbLine
 10
53.00000153760810
 20
318.2806228068467
 30
0.000000000000000
 11
70.50000153760811
 21
318.2806228068467
 31
0.000000000000000
  0
LINE
  5
229
100
AcDbEntity
  8
1
  6
CONTINUOUS
 62
7
100
AcDbLine
 10
49.50000153760810
 20
315.8806228068467
 30
0.000000000000000
 11
72.90727153760810
 21
315.8806228068467
 31
0.000000000000000
  0
LINE
  5
22A
100
AcDbEntity
  8
1
  6
CONTINUOUS
 62
7
100
AcDbLine
 10
36.53333453760808
 20
326.7806228068466
 30
0.000000000000000
 11
46.00000153760809
 21
319.6806228068467
 31
0.000000000000000
  0
LINE
  5
22B
100
AcDbEntity
  8
1
  6
CONTINUOUS
 62
7
100
AcDbLine
 10
35.93333453760812
 20
325.9806228068465
 30
0.000000000000000
 11
46.00000153760809
 21
318.4306228068467
 31
0.000000000000000
  0
ARC
  5
22C
100
AcDbEntity
  8
1
  6
CONTINUOUS
 62
7
100
AcDbCircle
 10
31.07036853760811
 20
325.1806228068468
 30
0.000000000000000
 40
2.000000000000000
100
AcDbArc
 50
90.00000000000000
 51
146.3099319999996
  0
LINE
  5
22D
100
AcDbEntity
  8
1
  6
CONTINUOUS
 62
7
100
AcDbLine
 10
31.07036853760811
 20
326.1806228068467
 30
0.000000000000000
 11
35.33333453760812
 21
326.1806228068467
 31
0.000000000000000
  0
LINE
  5
22E
100
AcDbEntity
  8
1
  6
CONTINUOUS
 62
7
100
AcDbLine
 10
25.33590053760810
 20
320.1844718068467
 30
0.000000000000000
 11
29.40626853760810
 21
326.2900228068467
 31
0.000000000000000
  0
LINE
  5
22F
100
AcDbEntity
  8
1
  6
CONTINUOUS
 62
7
100
AcDbLine
 10
30.23831853760811
 20
325.7353228068466
 30
0.000000000000000
 11
26.16795153760810
 21
319.6297718068466
 31
0.000000000000000
  0
LINE
  5
230
100
AcDbEntity
  8
1
  6
CONTINUOUS
 62
7
100
AcDbLine
 10
27.50000153760811
 20
319.1806228068467
 30
0.000000000000000
 11
30.50000153760811
 21
319.1806228068467
 31
0.000000000000000
  0
ARC
  5
231
100
AcDbEntity
  8
1
  6
CONTINUOUS
 62
7
100
AcDbCircle
 10
30.50000153760811
 20
318.6806228068468
 30
0.000000000000000
 40
0.5000000000000000
100
AcDbArc
 50
0.000000000000000
 51
90.00000000000000
  0
ARC
  5
232
100
AcDbEntity
  8
1
  6
CONTINUOUS
 62
7
100
AcDbCircle
 10
27.00000153760811
 20
319.0750718068467
 30
0.000000000000000
 40
2.000000000000000
100
AcDbArc
 50
146.3099319999996
 51
180.0000000000000
  0
ARC
  5
233
100
AcDbEntity
  8
1
  6
CONTINUOUS
 62
7
100
AcDbCircle
 10
27.50000153760811
 20
318.6806228068468
 30
0.000000000000000
 40
0.5000000000000000
100
AcDbArc
 50
90.00000000000000
 51
180.0000000000000
  0
ARC
  5
234
100
AcDbEntity
  8
1
  6
CONTINUOUS
 62
7
100
AcDbCircle
 10
27.00000153760811
 20
319.0750718068467
 30
0.000000000000000
 40
1.000000000000000
100
AcDbArc
 50
146.3099319999996
 51
180.0000000000000
  0
ARC
  5
235
100
AcDbEntity
  8
1
  6
CONTINUOUS
 62
7
100
AcDbCircle
 10
31.07036853760811
 20
325.1806228068468
 30
0.000000000000000
 40
1.000000000000000
100
AcDbArc
 50
90.00000000000000
 51
146.3099319999996
  0
LINE
  5
236
100
AcDbEntity
  8
1
  6
CONTINUOUS
 62
7
100
AcDbLine
 10
33.44300553760809
 20
317.9026118068465
 30
0.000000000000000
 11
38.31227053760811
 21
317.9026118068465
 31
0.000000000000000
  0
LINE
  5
237
100
AcDbEntity
  8
1
  6
CONTINUOUS
 62
7
100
AcDbLine
 10
38.19543353760812
 20
317.1258028068466
 30
0.000000000000000
 11
35.99921253760810
 21
317.1258028068466
 31
0.000000000000000
  0
LINE
  5
238
100
AcDbEntity
  8
1
  6
CONTINUOUS
 62
7
100
AcDbLine
 10
33.43984753760811
 20
316.3474148068467
 30
0.000000000000000
 11
38.56015553760811
 21
316.3474148068467
 31
0.000000000000000
  0
ARC
  5
239
100
AcDbEntity
  8
1
  6
CONTINUOUS
 62
7
100
AcDbCircle
 10
29.46738653760811
 20
315.1806228068467
 30
0.000000000000000
 40
9.254918999999999
100
AcDbArc
 50
7.792999999999998
 51
10.10399999999999
  0
ARC
  5
23A
100
AcDbEntity
  8
1
  6
CONTINUOUS
 62
7
100
AcDbCircle
 10
38.56015553760811
 20
316.4263588068467
 30
0.000000000000000
 40
0.07779100000000000
100
AcDbArc
 50
270.0000000000000
 51
367.7930000000000
  0
ARC
  5
23B
100
AcDbEntity
  8
1
  6
CONTINUOUS
 62
7
100
AcDbCircle
 10
38.19543353760812
 20
316.7373988068465
 30
0.000000000000000
 40
0.3889570000000000
100
AcDbArc
 50
10.10399999999999
 51
90.00000000000000
  0
ARC
  5
23C
100
AcDbEntity
  8
1
  6
CONTINUOUS
 62
7
100
AcDbCircle
 10
33.43984753760811
 20
316.4263588068467
 30
0.000000000000000
 40
0.07779100000000000
100
AcDbArc
 50
172.2069999999999
 51
270.0000000000000
  0
ARC
  5
23D
100
AcDbEntity
  8
1
  6
CONTINUOUS
 62
7
100
AcDbCircle
 10
42.53261653760811
 20
315.1806228068467
 30
0.000000000000000
 40
9.254918999999999
100
AcDbArc
 50
169.8960000000000
 51
172.2069999999999
  0
ARC
  5
23E
100
AcDbEntity
  8
1
  6
CONTINUOUS
 62
7
100
AcDbCircle
 10
33.80456953760810
 20
316.7373988068465
 30
0.000000000000000
 40
0.3889570000000000
100
AcDbArc
 50
90.00000000000000
 51
169.8960000000000
  0
ARC
  5
23F
100
AcDbEntity
  8
1
  6
CONTINUOUS
 62
7
100
AcDbCircle
 10
35.99921253760810
 20
319.8477918068466
 30
0.000000000000000
 40
2.004309000000000
100
AcDbArc
 50
35.53799999999996
 51
45.69899999999998
  0
ARC
  5
240
100
AcDbEntity
  8
1
  6
CONTINUOUS
 62
7
100
AcDbCircle
 10
35.99921253760810
 20
319.8477918068466
 30
0.000000000000000
 40
2.004309000000000
100
AcDbArc
 50
62.25000000000000
 51
144.4620000000000
  0
ARC
  5
241
100
AcDbEntity
  8
1
  6
CONTINUOUS
 62
7
100
AcDbCircle
 10
35.61080753760811
 20
319.0694038068467
 30
0.000000000000000
 40
0.3889570000000000
100
AcDbArc
 50
270.0000000000000
 51
450.0000000000000
  0
LINE
  5
242
100
AcDbEntity
  8
1
  6
CONTINUOUS
 62
7
100
AcDbLine
 10
35.99921253760810
 20
321.8513898068467
 30
0.000000000000000
 11
35.99921253760810
 21
320.2440908068467
 31
0.000000000000000
  0
LINE
  5
243
100
AcDbEntity
  8
1
  6
CONTINUOUS
 62
7
100
AcDbLine
 10
37.45493953760811
 20
319.8541068068467
 30
0.000000000000000
 11
34.17718453760813
 21
320.7335428068467
 31
0.000000000000000
  0
LINE
  5
244
100
AcDbEntity
  8
1
  6
CONTINUOUS
 62
7
100
AcDbLine
 10
35.99921253760810
 20
319.0694038068467
 30
0.000000000000000
 11
37.86544753760811
 21
319.0694038068467
 31
0.000000000000000
  0
LINE
  5
245
100
AcDbEntity
  8
1
  6
CONTINUOUS
 62
7
100
AcDbLine
 10
35.61080753760811
 20
319.4593868068465
 30
0.000000000000000
 11
33.94982653760810
 21
319.4593868068465
 31
0.000000000000000
  0
LINE
  5
246
100
AcDbEntity
  8
1
  6
CONTINUOUS
 62
7
100
AcDbLine
 10
33.80930553760811
 20
318.6809998068465
 30
0.000000000000000
 11
35.61080753760811
 21
318.6809998068465
 31
0.000000000000000
  0
LINE
  5
247
100
AcDbEntity
  8
1
  6
CONTINUOUS
 62
7
100
AcDbLine
 10
35.99921253760810
 20
317.1258028068466
 30
0.000000000000000
 11
35.99921253760810
 21
316.7373988068465
 31
0.000000000000000
  0
LINE
  5
248
100
AcDbEntity
  8
1
  6
CONTINUOUS
 62
7
100
AcDbLine
 10
35.06609453760811
 20
317.1258028068466
 30
0.000000000000000
 11
33.80456953760810
 21
317.1258028068466
 31
0.000000000000000
  0
ARC
  5
249
100
AcDbEntity
  8
1
  6
CONTINUOUS
 62
7
100
AcDbCircle
 10
35.33333453760812
 20
325.1806228068468
 30
0.000000000000000
 40
1.000000000000000
100
AcDbArc
 50
53.13010200000001
 51
90.00000000000000
  0
LINE
  5
24A
100
AcDbEntity
  8
1
  6
CONTINUOUS
 62
7
100
AcDbLine
 10
31.07036853760811
 20
327.1806228068468
 30
0.000000000000000
 11
35.33333453760812
 21
327.1806228068468
 31
0.000000000000000
  0
ARC
  5
24B
100
AcDbEntity
  8
1
  6
CONTINUOUS
 62
7
100
AcDbCircle
 10
35.33333453760812
 20
325.1806228068468
 30
0.000000000000000
 40
2.000000000000000
100
AcDbArc
 50
53.13010200000001
 51
90.00000000000000
  0
LINE
  5
24C
100
AcDbEntity
  8
1
  6
CONTINUOUS
 62
7
100
AcDbLine
 10
46.00000153760809
 20
319.6806228068467
 30
0.000000000000000
 11
52.70000153760810
 21
319.6806228068467
 31
0.000000000000000
  0
LINE
  5
24D
100
AcDbEntity
  8
1
  6
CONTINUOUS
 62
7
100
AcDbLine
 10
53.00000153760810
 20
319.3806228068467
 30
0.000000000000000
 11
53.00000153760810
 21
318.2806228068467
 31
0.000000000000000
  0
ARC
  5
24E
100
AcDbEntity
  8
1
  6
CONTINUOUS
 62
7
100
AcDbCircle
 10
52.70000153760810
 20
319.3806228068467
 30
0.000000000000000
 40
0.3000000000000000
100
AcDbArc
 50
0.000000000000000
 51
90.00000000000000
  0
LINE
  5
24F
100
AcDbEntity
  8
1
  6
CONTINUOUS
 62
7
100
AcDbLine
 10
70.50000153760810
 20
318.2806228068467
 30
0.000000000000000
 11
72.85301953760812
 21
315.9347108068467
 31
0.000000000000000
  0
LINE
  5
250
100
AcDbEntity
  8
1
  6
CONTINUOUS
 62
7
100
AcDbLine
 10
187.9797785376081
 20
309.4305788068467
 30
0.000000000000000
 11
187.9797785376081
 21
320.9305788068467
 31
0.000000000000000
  0
LINE
  5
251
100
AcDbEntity
  8
1
  6
CONTINUOUS
 62
7
100
AcDbLine
 10
191.3797785376081
 20
320.1805788068467
 30
0.000000000000000
 11
191.3797785376081
 21
310.1805788068467
 31
0.000000000000000
  0
LINE
  5
252
100
AcDbEntity
  8
1
  6
CONTINUOUS
 62
7
100
AcDbLine
 10
166.6797785376081
 20
318.1805788068467
 30
0.000000000000000
 11
166.6797785376081
 21
312.1805788068467
 31
0.000000000000000
  0
LINE
  5
253
100
AcDbEntity
  8
1
  6
CONTINUOUS
 62
7
100
AcDbLine
 10
166.1797785376078
 20
318.6805788068467
 30
0.000000000000000
 11
166.1797785376078
 21
311.6805788068467
 31
0.000000000000000
  0
LINE
  5
254
100
AcDbEntity
  8
1
  6
CONTINUOUS
 62
7
100
AcDbLine
 10
158.6797785376077
 20
304.1805788068467
 30
0.000000000000000
 11
158.6797785376077
 21
326.1805788068467
 31
0.000000000000000
  0
LINE
  5
255
100
AcDbEntity
  8
1
  6
CONTINUOUS
 62
7
100
AcDbLine
 10
160.1797785376081
 20
301.1805788068467
 30
0.000000000000000
 11
160.1797785376081
 21
329.1805788068467
 31
0.000000000000000
  0
LINE
  5
256
100
AcDbEntity
  8
1
  6
CONTINUOUS
 62
7
100
AcDbLine
 10
161.6797785376079
 20
301.1805788068467
 30
0.000000000000000
 11
161.6797785376079
 21
329.1805788068467
 31
0.000000000000000
  0
LINE
  5
257
100
AcDbEntity
  8
1
  6
CONTINUOUS
 62
7
100
AcDbLine
 10
162.6797785376081
 20
301.1805788068467
 30
0.000000000000000
 11
162.6797785376081
 21
329.1805788068467
 31
0.000000000000000
  0
ARC
  5
258
100
AcDbEntity
  8
1
  6
CONTINUOUS
 62
7
100
AcDbCircle
 10
164.9374235376081
 20
315.1805788068467
 30
0.000000000000000
 40
11.95505800000000
100
AcDbArc
 50
127.3784749999999
 51
232.6215250000000
  0
LINE
  5
259
100
AcDbEntity
  8
1
  6
CONTINUOUS
 62
7
100
AcDbLine
 10
188.3797785376080
 20
326.4305788068467
 30
0.000000000000000
 11
188.3797785376080
 21
305.4370788068467
 31
0.000000000000000
  0
LINE
  5
25A
100
AcDbEntity
  8
1
  6
CONTINUOUS
 62
7
100
AcDbLine
 10
187.9797785376081
 20
309.4305788068467
 30
0.000000000000000
 11
162.6797785376081
 21
309.4305788068467
 31
0.000000000000000
  0
LINE
  5
25B
100
AcDbEntity
  8
1
  6
CONTINUOUS
 62
7
100
AcDbLine
 10
184.8797785376081
 20
303.6805788068467
 30
0.000000000000000
 11
162.6797785376081
 21
303.6805788068467
 31
0.000000000000000
  0
LINE
  5
25C
100
AcDbEntity
  8
4
  6
CENTER
 62
1
100
AcDbLine
 10
194.3797785376080
 20
315.1805788068467
 30
0.000000000000000
 11
149.9823655376080
 21
315.1805788068467
 31
0.000000000000000
  0
LINE
  5
25D
100
AcDbEntity
  8
1
  6
CONTINUOUS
 62
7
100
AcDbLine
 10
162.6797785376081
 20
311.6805788068467
 30
0.000000000000000
 11
166.1797785376078
 21
311.6805788068467
 31
0.000000000000000
  0
LINE
  5
25E
100
AcDbEntity
  8
1
  6
CONTINUOUS
 62
7
100
AcDbLine
 10
162.6797785376081
 20
301.1805788068467
 30
0.000000000000000
 11
160.1797785376081
 21
301.1805788068467
 31
0.000000000000000
  0
LINE
  5
25F
100
AcDbEntity
  8
1
  6
CONTINUOUS
 62
7
100
AcDbLine
 10
158.6797785376077
 20
304.1805788068467
 30
0.000000000000000
 11
160.1797785376081
 21
301.1805788068467
 31
0.000000000000000
  0
LINE
  5
260
100
AcDbEntity
  8
1
  6
CONTINUOUS
 62
7
100
AcDbLine
 10
158.6797785376077
 20
305.6805788068467
 30
0.000000000000000
 11
157.6797785376077
 21
305.6805788068467
 31
0.000000000000000
  0
LINE
  5
261
100
AcDbEntity
  8
1
  6
CONTINUOUS
 62
7
100
AcDbLine
 10
166.1797785376078
 20
311.6805788068467
 30
0.000000000000000
 11
166.6797785376081
 21
312.1805788068467
 31
0.000000000000000
  0
LINE
  5
262
100
AcDbEntity
  8
1
  6
CONTINUOUS
 62
7
100
AcDbLine
 10
185.8797785376080
 20
304.6805788068467
 30
0.000000000000000
 11
185.8797785376080
 21
309.4305788068467
 31
0.000000000000000
  0
ARC
  5
263
100
AcDbEntity
  8
1
  6
CONTINUOUS
 62
7
100
AcDbCircle
 10
184.8797785376081
 20
304.6805788068467
 30
0.000000000000000
 40
1.000000000000000
100
AcDbArc
 50
270.0000000000000
 51
360.0000000000000
  0
LINE
  5
264
100
AcDbEntity
  8
1
  6
CONTINUOUS
 62
7
100
AcDbLine
 10
188.3797785376080
 20
307.3863788068465
 30
0.000000000000000
 11
186.3797785376080
 21
307.3863788068465
 31
0.000000000000000
  0
LINE
  5
265
100
AcDbEntity
  8
1
  6
CONTINUOUS
 62
7
100
AcDbLine
 10
188.3797785376080
 20
305.4370788068467
 30
0.000000000000000
 11
186.3797785376080
 21
305.4370788068467
 31
0.000000000000000
  0
LINE
  5
266
100
AcDbEntity
  8
1
  6
CONTINUOUS
 62
7
100
AcDbLine
 10
186.2797785376081
 20
309.2805788068465
 30
0.000000000000000
 11
186.3797785376080
 21
309.2805788068465
 31
0.000000000000000
  0
LINE
  5
267
100
AcDbEntity
  8
1
  6
CONTINUOUS
 62
7
100
AcDbLine
 10
186.0797785376078
 20
305.1805788068467
 30
0.000000000000000
 11
185.8797785376080
 21
305.1805788068467
 31
0.000000000000000
  0
ARC
  5
268
100
AcDbEntity
  8
1
  6
CONTINUOUS
 62
7
100
AcDbCircle
 10
186.0235285376081
 20
305.4305788068467
 30
0.000000000000000
 40
0.2562500000000000
100
AcDbArc
 50
282.6803829999999
 51
360.0000000000000
  0
LINE
  5
269
100
AcDbEntity
  8
1
  6
CONTINUOUS
 62
7
100
AcDbLine
 10
186.2797785376081
 20
309.4305788068467
 30
0.000000000000000
 11
186.2797785376081
 21
305.4305788068467
 31
0.000000000000000
  0
LINE
  5
26A
100
AcDbEntity
  8
1
  6
CONTINUOUS
 62
7
100
AcDbLine
 10
186.3797785376080
 20
309.4305788068467
 30
0.000000000000000
 11
186.3797785376080
 21
305.4370788068467
 31
0.000000000000000
  0
LINE
  5
26B
100
AcDbEntity
  8
1
  6
CONTINUOUS
 62
7
100
AcDbLine
 10
191.3797785376081
 20
310.1805788068467
 30
0.000000000000000
 11
188.3797785376080
 21
310.1805788068467
 31
0.000000000000000
  0
LINE
  5
26C
100
AcDbEntity
  8
1
  6
CONTINUOUS
 62
7
100
AcDbLine
 10
191.3797785376081
 20
314.5237248068467
 30
0.000000000000000
 11
188.3797785376080
 21
314.5237248068467
 31
0.000000000000000
  0
LINE
  5
26D
100
AcDbEntity
  8
1
  6
CONTINUOUS
 62
7
100
AcDbLine
 10
187.9797785376081
 20
320.9305788068467
 30
0.000000000000000
 11
162.6797785376081
 21
320.9305788068467
 31
0.000000000000000
  0
LINE
  5
26E
100
AcDbEntity
  8
1
  6
CONTINUOUS
 62
7
100
AcDbLine
 10
184.8797785376081
 20
326.6805788068467
 30
0.000000000000000
 11
162.6797785376081
 21
326.6805788068467
 31
0.000000000000000
  0
LINE
  5
26F
100
AcDbEntity
  8
1
  6
CONTINUOUS
 62
7
100
AcDbLine
 10
162.6797785376081
 20
318.6805788068467
 30
0.000000000000000
 11
166.1797785376078
 21
318.6805788068467
 31
0.000000000000000
  0
LINE
  5
270
100
AcDbEntity
  8
1
  6
CONTINUOUS
 62
7
100
AcDbLine
 10
158.6797785376077
 20
326.1805788068467
 30
0.000000000000000
 11
160.1797785376081
 21
329.1805788068467
 31
0.000000000000000
  0
LINE
  5
271
100
AcDbEntity
  8
1
  6
CONTINUOUS
 62
7
100
AcDbLine
 10
158.6797785376077
 20
324.6805788068467
 30
0.000000000000000
 11
157.6797785376077
 21
324.6805788068467
 31
0.000000000000000
  0
LINE
  5
272
100
AcDbEntity
  8
1
  6
CONTINUOUS
 62
7
100
AcDbLine
 10
162.6797785376081
 20
329.1805788068467
 30
0.000000000000000
 11
160.1797785376081
 21
329.1805788068467
 31
0.000000000000000
  0
LINE
  5
273
100
AcDbEntity
  8
1
  6
CONTINUOUS
 62
7
100
AcDbLine
 10
166.1797785376078
 20
318.6805788068467
 30
0.000000000000000
 11
166.6797785376081
 21
318.1805788068467
 31
0.000000000000000
  0
ARC
  5
274
100
AcDbEntity
  8
1
  6
CONTINUOUS
 62
7
100
AcDbCircle
 10
184.8797785376081
 20
325.6805788068467
 30
0.000000000000000
 40
1.000000000000000
100
AcDbArc
 50
0.000000000000000
 51
90.00000000000000
  0
LINE
  5
275
100
AcDbEntity
  8
1
  6
CONTINUOUS
 62
7
100
AcDbLine
 10
186.3797785376080
 20
326.4305788068467
 30
0.000000000000000
 11
186.3797785376080
 21
320.9305788068467
 31
0.000000000000000
  0
LINE
  5
276
100
AcDbEntity
  8
1
  6
CONTINUOUS
 62
7
100
AcDbLine
 10
185.8797785376080
 20
320.9305788068467
 30
0.000000000000000
 11
185.8797785376080
 21
325.6805788068467
 31
0.000000000000000
  0
LINE
  5
277
100
AcDbEntity
  8
1
  6
CONTINUOUS
 62
7
100
AcDbLine
 10
186.2797785376081
 20
321.0805788068467
 30
0.000000000000000
 11
186.3797785376080
 21
321.0805788068467
 31
0.000000000000000
  0
LINE
  5
278
100
AcDbEntity
  8
1
  6
CONTINUOUS
 62
7
100
AcDbLine
 10
186.2797785376081
 20
323.8408328068465
 30
0.000000000000000
 11
185.8797785376080
 21
323.8408328068465
 31
0.000000000000000
  0
LINE
  5
279
100
AcDbEntity
  8
1
  6
CONTINUOUS
 62
7
100
AcDbLine
 10
186.2797785376081
 20
323.8408328068465
 30
0.000000000000000
 11
186.2797785376081
 21
320.9305788068467
 31
0.000000000000000
  0
LINE
  5
27A
100
AcDbEntity
  8
1
  6
CONTINUOUS
 62
7
100
AcDbLine
 10
191.3797785376081
 20
315.8374328068467
 30
0.000000000000000
 11
188.3797785376080
 21
315.8374328068467
 31
0.000000000000000
  0
LINE
  5
27B
100
AcDbEntity
  8
1
  6
CONTINUOUS
 62
7
100
AcDbLine
 10
191.3797785376081
 20
320.1805788068467
 30
0.000000000000000
 11
188.3797785376080
 21
320.1805788068467
 31
0.000000000000000
  0
LINE
  5
27C
100
AcDbEntity
  8
1
  6
CONTINUOUS
 62
7
100
AcDbLine
 10
188.3797785376080
 20
326.4305788068467
 30
0.000000000000000
 11
186.3797785376080
 21
326.4305788068467
 31
0.000000000000000
  0
LINE
  5
27D
100
AcDbEntity
  8
1
  6
CONTINUOUS
 62
7
100
AcDbLine
 10
237.1188055376081
 20
324.1805788068467
 30
0.000000000000000
 11
237.1188055376081
 21
306.1805788068467
 31
0.000000000000000
  0
LINE
  5
27E
100
AcDbEntity
  8
1
  6
CONTINUOUS
 62
7
100
AcDbLine
 10
240.8188055376077
 20
316.4805788068464
 30
0.000000000000000
 11
239.5188055376080
 21
315.1805788068467
 31
0.000000000000000
  0
LINE
  5
27F
100
AcDbEntity
  8
1
  6
CONTINUOUS
 62
7
100
AcDbLine
 10
239.5188055376080
 20
321.1805788068467
 30
0.000000000000000
 11
239.5188055376080
 21
309.1805788068467
 31
0.000000000000000
  0
LINE
  5
280
100
AcDbEntity
  8
1
  6
CONTINUOUS
 62
7
100
AcDbLine
 10
240.8188055376078
 20
319.7993808068465
 30
0.000000000000000
 11
240.8188055376078
 21
310.5617768068467
 31
0.000000000000000
  0
LINE
  5
281
100
AcDbEntity
  8
1
  6
CONTINUOUS
 62
7
100
AcDbLine
 10
240.8188055376078
 20
319.7805788068465
 30
0.000000000000000
 11
240.8188055376078
 21
310.5805788068467
 31
0.000000000000000
  0
LINE
  5
282
100
AcDbEntity
  8
1
  6
CONTINUOUS
 62
7
100
AcDbLine
 10
244.3188055376079
 20
319.1805788068467
 30
0.000000000000000
 11
244.3188055376079
 21
311.1805788068467
 31
0.000000000000000
  0
ARC
  5
283
100
AcDbEntity
  8
1
  6
CONTINUOUS
 62
7
100
AcDbCircle
 10
246.5937825376080
 20
317.1805788068467
 30
0.000000000000000
 40
5.774976999999998
100
AcDbArc
 50
159.7375000000000
 51
200.2625000000000
  0
ARC
  5
284
100
AcDbEntity
  8
1
  6
CONTINUOUS
 62
7
100
AcDbCircle
 10
238.5438295376080
 20
317.1805788068467
 30
0.000000000000000
 40
5.774976999999998
100
AcDbArc
 50
339.7375000000001
 51
380.2625000000000
  0
ARC
  5
285
100
AcDbEntity
  8
1
  6
CONTINUOUS
 62
7
100
AcDbCircle
 10
209.0649065376080
 20
315.1787498068465
 30
0.000000000000000
 40
9.000000000000000
100
AcDbArc
 50
344.1353700000000
 51
375.8973700000000
  0
LINE
  5
286
100
AcDbEntity
  8
1
  6
CONTINUOUS
 62
7
100
AcDbLine
 10
215.4649055376079
 20
316.1805788068467
 30
0.000000000000000
 11
214.4649055376080
 21
315.1805788068467
 31
0.000000000000000
  0
LINE
  5
287
100
AcDbEntity
  8
1
  6
CONTINUOUS
 62
7
100
AcDbLine
 10
214.4649055376081
 20
321.6805788068467
 30
0.000000000000000
 11
214.4649055376081
 21
308.6805788068467
 31
0.000000000000000
  0
LINE
  5
288
100
AcDbEntity
  8
1
  6
CONTINUOUS
 62
7
100
AcDbLine
 10
215.4649055376080
 20
318.9805788068465
 30
0.000000000000000
 11
215.4649055376080
 21
311.3805788068467
 31
0.000000000000000
  0
LINE
  5
289
100
AcDbEntity
  8
1
  6
CONTINUOUS
 62
7
100
AcDbLine
 10
209.4649055376080
 20
322.1805788068467
 30
0.000000000000000
 11
209.4649055376080
 21
308.1805788068467
 31
0.000000000000000
  0
LINE
  5
28A
100
AcDbEntity
  8
1
  6
CONTINUOUS
 62
7
100
AcDbLine
 10
235.5188055376081
 20
324.1805788068467
 30
0.000000000000000
 11
235.5188055376081
 21
306.1805788068467
 31
0.000000000000000
  0
LINE
  5
28B
100
AcDbEntity
  8
1
  6
CONTINUOUS
 62
7
100
AcDbLine
 10
238.7188055376080
 20
324.1805788068467
 30
0.000000000000000
 11
238.7188055376080
 21
306.1805788068467
 31
0.000000000000000
  0
LINE
  5
28C
100
AcDbEntity
  8
1
  6
CONTINUOUS
 62
7
100
AcDbLine
 10
216.6003875376080
 20
311.7801718068467
 30
0.000000000000000
 11
215.4649055376080
 21
311.6805788068467
 31
0.000000000000000
  0
LINE
  5
28D
100
AcDbEntity
  8
4
  6
CENTER
 62
1
100
AcDbLine
 10
221.0649055376081
 20
315.1805788068467
 30
0.000000000000000
 11
206.4649055376081
 21
315.1805788068467
 31
0.000000000000000
  0
LINE
  5
28E
100
AcDbEntity
  8
1
  6
CONTINUOUS
 62
7
100
AcDbLine
 10
215.4649055376080
 20
315.1805788068467
 30
0.000000000000000
 11
214.4649055376080
 21
314.1805788068467
 31
0.000000000000000
  0
LINE
  5
28F
100
AcDbEntity
  8
1
  6
CONTINUOUS
 62
7
100
AcDbLine
 10
215.4649055376080
 20
311.3805788068467
 30
0.000000000000000
 11
214.4649055376081
 21
311.3805788068467
 31
0.000000000000000
  0
ARC
  5
290
100
AcDbEntity
  8
1
  6
CONTINUOUS
 62
7
100
AcDbCircle
 10
213.9649055376080
 20
308.6805788068467
 30
0.000000000000000
 40
0.5000000000000000
100
AcDbArc
 50
270.0000000000000
 51
360.0000000000000
  0
LINE
  5
291
100
AcDbEntity
  8
1
  6
CONTINUOUS
 62
7
100
AcDbLine
 10
213.9649055376080
 20
308.1805788068467
 30
0.000000000000000
 11
209.4649055376080
 21
308.1805788068467
 31
0.000000000000000
  0
ARC
  5
292
100
AcDbEntity
  8
1
  6
CONTINUOUS
 62
7
100
AcDbCircle
 10
216.4725075376080
 20
313.0738668068466
 30
0.000000000000000
 40
1.300000000000000
100
AcDbArc
 50
275.0163699999998
 51
344.1353700000000
  0
LINE
  5
293
100
AcDbEntity
  8
4
  6
CENTER
 62
1
100
AcDbLine
 10
247.3188055376080
 20
315.1805788068467
 30
0.000000000000000
 11
232.5188055376081
 21
315.1805788068467
 31
0.000000000000000
  0
LINE
  5
294
100
AcDbEntity
  8
1
  6
CONTINUOUS
 62
7
100
AcDbLine
 10
239.5188055376080
 20
309.1805788068467
 30
0.000000000000000
 11
238.7188055376080
 21
309.1805788068467
 31
0.000000000000000
  0
LINE
  5
295
100
AcDbEntity
  8
1
  6
CONTINUOUS
 62
7
100
AcDbLine
 10
235.5188055376081
 20
306.1805788068467
 30
0.000000000000000
 11
238.7188055376080
 21
306.1805788068467
 31
0.000000000000000
  0
LINE
  5
296
100
AcDbEntity
  8
1
  6
CONTINUOUS
 62
7
100
AcDbLine
 10
240.8188055376078
 20
315.1805788068467
 30
0.000000000000000
 11
239.5188055376080
 21
313.8805788068467
 31
0.000000000000000
  0
LINE
  5
297
100
AcDbEntity
  8
1
  6
CONTINUOUS
 62
7
100
AcDbLine
 10
240.8188055376078
 20
310.5805788068467
 30
0.000000000000000
 11
239.5188055376080
 21
310.5805788068467
 31
0.000000000000000
  0
ARC
  5
298
100
AcDbEntity
  8
1
  6
CONTINUOUS
 62
7
100
AcDbCircle
 10
238.5438295376080
 20
313.1805788068467
 30
0.000000000000000
 40
5.774976999999998
100
AcDbArc
 50
339.7375000000001
 51
380.2625000000000
  0
ARC
  5
299
100
AcDbEntity
  8
1
  6
CONTINUOUS
 62
7
100
AcDbCircle
 10
246.5937825376080
 20
313.1805788068467
 30
0.000000000000000
 40
5.774976999999998
100
AcDbArc
 50
159.7375000000000
 51
200.2625000000000
  0
LINE
  5
29A
100
AcDbEntity
  8
1
  6
CONTINUOUS
 62
7
100
AcDbLine
 10
244.3188055376079
 20
311.1805788068467
 30
0.000000000000000
 11
240.8188055376078
 21
311.1805788068467
 31
0.000000000000000
  0
LINE
  5
29B
100
AcDbEntity
  8
1
  6
CONTINUOUS
 62
7
100
AcDbLine
 10
241.1761855376078
 20
315.1805788068467
 30
0.000000000000000
 11
243.9614265376080
 21
315.1805788068467
 31
0.000000000000000
  0
LINE
  5
29C
100
AcDbEntity
  8
1
  6
CONTINUOUS
 62
7
100
AcDbLine
 10
216.5839335376080
 20
318.5828988068467
 30
0.000000000000000
 11
215.4639055376081
 21
318.6805788068467
 31
0.000000000000000
  0
LINE
  5
29D
100
AcDbEntity
  8
1
  6
CONTINUOUS
 62
7
100
AcDbLine
 10
215.4649055376080
 20
318.9805788068465
 30
0.000000000000000
 11
214.4649055376081
 21
318.9805788068465
 31
0.000000000000000
  0
ARC
  5
29E
100
AcDbEntity
  8
1
  6
CONTINUOUS
 62
7
100
AcDbCircle
 10
213.9649055376080
 20
321.6805788068467
 30
0.000000000000000
 40
0.5000000000000000
100
AcDbArc
 50
0.000000000000000
 51
90.00000000000000
  0
LINE
  5
29F
100
AcDbEntity
  8
1
  6
CONTINUOUS
 62
7
100
AcDbLine
 10
213.9649055376080
 20
322.1805788068467
 30
0.000000000000000
 11
209.4649055376080
 21
322.1805788068467
 31
0.000000000000000
  0
ARC
  5
2A0
100
AcDbEntity
  8
1
  6
CONTINUOUS
 62
7
100
AcDbCircle
 10
216.4713035376081
 20
317.2878658068467
 30
0.000000000000000
 40
1.300000000000000
100
AcDbArc
 50
15.89737000000000
 51
85.01636999999998
  0
LINE
  5
2A1
100
AcDbEntity
  8
1
  6
CONTINUOUS
 62
7
100
AcDbLine
 10
239.5188055376080
 20
321.1805788068467
 30
0.000000000000000
 11
238.7188055376080
 21
321.1805788068467
 31
0.000000000000000
  0
LINE
  5
2A2
100
AcDbEntity
  8
1
  6
CONTINUOUS
 62
7
100
AcDbLine
 10
235.5188055376081
 20
324.1805788068467
 30
0.000000000000000
 11
238.7188055376080
 21
324.1805788068467
 31
0.000000000000000
  0
LINE
  5
2A3
100
AcDbEntity
  8
1
  6
CONTINUOUS
 62
7
100
AcDbLine
 10
240.8188055376078
 20
319.7805788068465
 30
0.000000000000000
 11
239.5188055376080
 21
319.7805788068465
 31
0.000000000000000
  0
LINE
  5
2A4
100
AcDbEntity
  8
1
  6
CONTINUOUS
 62
7
100
AcDbLine
 10
244.3188055376079
 20
319.1805788068467
 30
0.000000000000000
 11
240.8188055376078
 21
319.1805788068467
 31
0.000000000000000
  0
LINE
  5
2A5
100
AcDbEntity
  8
4
  6
CENTER
 62
1
100
AcDbLine
 10
455.3608495376080
 20
150.5248898068466
 30
0.000000000000000
 11
469.9608495376081
 21
150.5248898068466
 31
0.000000000000000
  0
LINE
  5
2A6
100
AcDbEntity
  8
4
  6
CENTER
 62
1
100
AcDbLine
 10
455.3608795376080
 20
222.5248898068466
 30
0.000000000000000
 11
469.9608795376080
 21
222.5248898068466
 31
0.000000000000000
  0
ARC
  5
2A7
100
AcDbEntity
  8
1
  6
CONTINUOUS
 62
7
100
AcDbCircle
 10
462.4608495376080
 20
154.0248898068466
 30
0.000000000000000
 40
0.5000000000000000
100
AcDbArc
 50
90.00000000000000
 51
180.0000000000000
  0
ARC
  5
2A8
100
AcDbEntity
  8
1
  6
CONTINUOUS
 62
7
100
AcDbCircle
 10
462.4608495376080
 20
146.0248898068467
 30
0.000000000000000
 40
0.5000000000000000
100
AcDbArc
 50
180.0000000000000
 51
270.0000000000000
  0
LINE
  5
2A9
100
AcDbEntity
  8
1
  6
CONTINUOUS
 62
7
100
AcDbLine
 10
460.9608495376082
 20
154.3248898068465
 30
0.000000000000000
 11
461.9608495376081
 21
154.3248898068465
 31
0.000000000000000
  0
LINE
  5
2AA
100
AcDbEntity
  8
1
  6
CONTINUOUS
 62
7
100
AcDbLine
 10
460.9608495376082
 20
150.5248898068466
 30
0.000000000000000
 11
461.9608495376081
 21
151.5248898068467
 31
0.000000000000000
  0
LINE
  5
2AB
100
AcDbEntity
  8
1
  6
CONTINUOUS
 62
7
100
AcDbLine
 10
460.9608495376082
 20
149.5248898068465
 30
0.000000000000000
 11
461.9608495376081
 21
150.5248898068465
 31
0.000000000000000
  0
LINE
  5
2AC
100
AcDbEntity
  8
1
  6
CONTINUOUS
 62
7
100
AcDbLine
 10
460.9608495376082
 20
146.7248898068466
 30
0.000000000000000
 11
461.9608495376081
 21
146.7248898068466
 31
0.000000000000000
  0
LINE
  5
2AD
100
AcDbEntity
  8
1
  6
CONTINUOUS
 62
7
100
AcDbLine
 10
461.9608495376081
 20
146.0248898068467
 30
0.000000000000000
 11
461.9608495376081
 21
154.3248898068465
 31
0.000000000000000
  0
LINE
  5
2AE
100
AcDbEntity
  8
1
  6
CONTINUOUS
 62
7
100
AcDbLine
 10
460.9608495376082
 20
154.3248898068465
 30
0.000000000000000
 11
460.9608495376082
 21
146.7248898068466
 31
0.000000000000000
  0
ARC
  5
2AF
100
AcDbEntity
  8
1
  6
CONTINUOUS
 62
7
100
AcDbCircle
 10
467.3608495376080
 20
150.5230618068467
 30
0.000000000000000
 40
9.000000000000000
100
AcDbArc
 50
164.1026300000000
 51
195.8646300000000
  0
ARC
  5
2B0
100
AcDbEntity
  8
1
  6
CONTINUOUS
 62
7
100
AcDbCircle
 10
459.9532475376079
 20
148.4181778068467
 30
0.000000000000000
 40
1.300000000000000
100
AcDbArc
 50
195.8646300000000
 51
264.9836300000000
  0
ARC
  5
2B1
100
AcDbEntity
  8
1
  6
CONTINUOUS
 62
7
100
AcDbCircle
 10
459.9544515376080
 20
152.6321778068467
 30
0.000000000000000
 40
1.300000000000000
100
AcDbArc
 50
94.98363000000002
 51
164.1026300000000
  0
LINE
  5
2B2
100
AcDbEntity
  8
1
  6
CONTINUOUS
 62
7
100
AcDbLine
 10
459.8418215376082
 20
153.9272098068464
 30
0.000000000000000
 11
460.9618495376079
 21
154.0248898068466
 31
0.000000000000000
  0
LINE
  5
2B3
100
AcDbEntity
  8
1
  6
CONTINUOUS
 62
7
100
AcDbLine
 10
459.8253685376080
 20
147.1244828068467
 30
0.000000000000000
 11
460.9608495376082
 21
147.0248898068467
 31
0.000000000000000
  0
LINE
  5
2B4
100
AcDbEntity
  8
1
  6
CONTINUOUS
 62
7
100
AcDbLine
 10
462.4608495376080
 20
154.5248898068466
 30
0.000000000000000
 11
466.9608495376080
 21
154.5248898068466
 31
0.000000000000000
  0
LINE
  5
2B5
100
AcDbEntity
  8
1
  6
CONTINUOUS
 62
7
100
AcDbLine
 10
462.4608495376080
 20
145.5248898068466
 30
0.000000000000000
 11
466.9608495376080
 21
145.5248898068466
 31
0.000000000000000
  0
LINE
  5
2B6
100
AcDbEntity
  8
1
  6
CONTINUOUS
 62
7
100
AcDbLine
 10
466.9608495376080
 20
145.5248898068466
 30
0.000000000000000
 11
466.9608495376080
 21
154.5248898068466
 31
0.000000000000000
  0
LINE
  5
2B7
100
AcDbEntity
  8
4
  6
CENTER
 62
1
100
AcDbLine
 10
429.1069795376079
 20
205.5248898068467
 30
0.000000000000000
 11
443.9069795376080
 21
205.5248898068467
 31
0.000000000000000
  0
LINE
  5
2B8
100
AcDbEntity
  8
1
  6
CONTINUOUS
 62
7
100
AcDbLine
 10
440.9069795376082
 20
214.5248898068466
 30
0.000000000000000
 11
437.7069795376080
 21
214.5248898068466
 31
0.000000000000000
  0
LINE
  5
2B9
100
AcDbEntity
  8
1
  6
CONTINUOUS
 62
7
100
AcDbLine
 10
440.9069795376082
 20
196.5248898068465
 30
0.000000000000000
 11
437.7069795376080
 21
196.5248898068465
 31
0.000000000000000
  0
LINE
  5
2BA
100
AcDbEntity
  8
1
  6
CONTINUOUS
 62
7
100
AcDbLine
 10
435.6069795376080
 20
210.1248898068466
 30
0.000000000000000
 11
435.6069795376080
 21
200.9248898068467
 31
0.000000000000000
  0
LINE
  5
2BB
100
AcDbEntity
  8
1
  6
CONTINUOUS
 62
7
100
AcDbLine
 10
435.6069795376080
 20
210.1436918068466
 30
0.000000000000000
 11
435.6069795376080
 21
200.9060878068466
 31
0.000000000000000
  0
LINE
  5
2BC
100
AcDbEntity
  8
1
  6
CONTINUOUS
 62
7
100
AcDbLine
 10
436.9069795376080
 20
211.5248898068467
 30
0.000000000000000
 11
436.9069795376080
 21
199.5248898068465
 31
0.000000000000000
  0
LINE
  5
2BD
100
AcDbEntity
  8
1
  6
CONTINUOUS
 62
7
100
AcDbLine
 10
432.1069795376080
 20
209.5248898068467
 30
0.000000000000000
 11
432.1069795376080
 21
201.5248898068467
 31
0.000000000000000
  0
ARC
  5
2BE
100
AcDbEntity
  8
1
  6
CONTINUOUS
 62
7
100
AcDbCircle
 10
433.5618925376079
 20
208.9888898068467
 30
0.000000000000000
 40
2.045087000000000
100
AcDbArc
 50
325.6137989999999
 51
385.6137990000000
  0
ARC
  5
2BF
100
AcDbEntity
  8
1
  6
CONTINUOUS
 62
7
100
AcDbCircle
 10
434.1520655376078
 20
208.9888898068467
 30
0.000000000000000
 40
2.045087000000000
100
AcDbArc
 50
154.3862009999998
 51
214.3862009999998
  0
LINE
  5
2C0
100
AcDbEntity
  8
1
  6
CONTINUOUS
 62
7
100
AcDbLine
 10
437.7069795376080
 20
214.5248898068466
 30
0.000000000000000
 11
437.7069795376080
 21
196.5248898068465
 31
0.000000000000000
  0
LINE
  5
2C1
100
AcDbEntity
  8
1
  6
CONTINUOUS
 62
7
100
AcDbLine
 10
435.6069795376080
 20
200.9248898068467
 30
0.000000000000000
 11
436.9069795376080
 21
200.9248898068467
 31
0.000000000000000
  0
LINE
  5
2C2
100
AcDbEntity
  8
1
  6
CONTINUOUS
 62
7
100
AcDbLine
 10
436.9069795376080
 20
199.5248898068465
 30
0.000000000000000
 11
437.7069795376080
 21
199.5248898068465
 31
0.000000000000000
  0
LINE
  5
2C3
100
AcDbEntity
  8
1
  6
CONTINUOUS
 62
7
100
AcDbLine
 10
435.6069795376080
 20
204.2248898068466
 30
0.000000000000000
 11
436.9069795376080
 21
205.5248898068467
 31
0.000000000000000
  0
LINE
  5
2C4
100
AcDbEntity
  8
1
  6
CONTINUOUS
 62
7
100
AcDbLine
 10
435.6069795376079
 20
205.5248898068466
 30
0.000000000000000
 11
436.9069795376079
 21
206.8248898068466
 31
0.000000000000000
  0
ARC
  5
2C5
100
AcDbEntity
  8
1
  6
CONTINUOUS
 62
7
100
AcDbCircle
 10
427.9659345376080
 20
205.5243898068466
 30
0.000000000000000
 40
7.641045000000000
100
AcDbArc
 50
342.4072529999999
 51
377.5927470000000
  0
ARC
  5
2C6
100
AcDbEntity
  8
1
  6
CONTINUOUS
 62
7
100
AcDbCircle
 10
439.7480245376081
 20
205.5243898068466
 30
0.000000000000000
 40
7.641045000000000
100
AcDbArc
 50
162.4072530000000
 51
197.5927470000000
  0
ARC
  5
2C7
100
AcDbEntity
  8
1
  6
CONTINUOUS
 62
7
100
AcDbCircle
 10
433.5618925376079
 20
202.0608898068467
 30
0.000000000000000
 40
2.045087000000000
100
AcDbArc
 50
334.3862009999999
 51
394.3862010000001
  0
LINE
  5
2C8
100
AcDbEntity
  8
1
  6
CONTINUOUS
 62
7
100
AcDbLine
 10
435.6069795376080
 20
201.5248898068466
 30
0.000000000000000
 11
435.2495995376079
 21
200.9058898068464
 31
0.000000000000000
  0
LINE
  5
2C9
100
AcDbEntity
  8
1
  6
CONTINUOUS
 62
7
100
AcDbLine
 10
432.1069795376080
 20
201.5248898068467
 30
0.000000000000000
 11
432.4643595376081
 21
200.9058898068464
 31
0.000000000000000
  0
LINE
  5
2CA
100
AcDbEntity
  8
1
  6
CONTINUOUS
 62
7
100
AcDbLine
 10
432.4643595376080
 20
200.9058898068464
 30
0.000000000000000
 11
435.2495995376079
 21
200.9058898068464
 31
0.000000000000000
  0
LINE
  5
2CB
100
AcDbEntity
  8
1
  6
CONTINUOUS
 62
7
100
AcDbLine
 10
432.4643595376080
 20
203.2148898068467
 30
0.000000000000000
 11
435.2495995376079
 21
203.2148898068467
 31
0.000000000000000
  0
ARC
  5
2CC
100
AcDbEntity
  8
1
  6
CONTINUOUS
 62
7
100
AcDbCircle
 10
434.1520655376078
 20
202.0608898068467
 30
0.000000000000000
 40
2.045087000000000
100
AcDbArc
 50
145.6137990000000
 51
205.6137989999999
  0
LINE
  5
2CD
100
AcDbEntity
  8
1
  6
CONTINUOUS
 62
7
100
AcDbLine
 10
432.4643595376080
 20
207.8338898068464
 30
0.000000000000000
 11
435.2495995376079
 21
207.8338898068464
 31
0.000000000000000
  0
LINE
  5
2CE
100
AcDbEntity
  8
1
  6
CONTINUOUS
 62
7
100
AcDbLine
 10
435.6069795376080
 20
210.1248898068466
 30
0.000000000000000
 11
436.9069795376080
 21
210.1248898068466
 31
0.000000000000000
  0
LINE
  5
2CF
100
AcDbEntity
  8
1
  6
CONTINUOUS
 62
7
100
AcDbLine
 10
436.9069795376080
 20
211.5248898068467
 30
0.000000000000000
 11
437.7069795376080
 21
211.5248898068467
 31
0.000000000000000
  0
LINE
  5
2D0
100
AcDbEntity
  8
1
  6
CONTINUOUS
 62
7
100
AcDbLine
 10
435.6069795376080
 20
209.5248898068467
 30
0.000000000000000
 11
435.2495995376078
 21
210.1438898068467
 31
0.000000000000000
  0
LINE
  5
2D1
100
AcDbEntity
  8
1
  6
CONTINUOUS
 62
7
100
AcDbLine
 10
432.4643595376080
 20
210.1438898068467
 30
0.000000000000000
 11
435.2495995376079
 21
210.1438898068467
 31
0.000000000000000
  0
LINE
  5
2D2
100
AcDbEntity
  8
1
  6
CONTINUOUS
 62
7
100
AcDbLine
 10
432.1069795376079
 20
209.5248898068467
 30
0.000000000000000
 11
432.4643595376079
 21
210.1438898068467
 31
0.000000000000000
  0
LINE
  5
2D3
100
AcDbEntity
  8
1
  6
CONTINUOUS
 62
7
100
AcDbLine
 10
439.3069795376080
 20
214.5248898068466
 30
0.000000000000000
 11
439.3069795376080
 21
196.5248898068465
 31
0.000000000000000
  0
LINE
  5
2D4
100
AcDbEntity
  8
1
  6
CONTINUOUS
 62
7
100
AcDbLine
 10
440.9069795376082
 20
214.5248898068466
 30
0.000000000000000
 11
440.9069795376082
 21
196.5248898068465
 31
0.000000000000000
  0
LINE
  5
2D5
100
AcDbEntity
  8
1
  6
CONTINUOUS
 62
7
100
AcDbLine
 10
466.9608795376079
 20
227.5248898068467
 30
0.000000000000000
 11
466.9608795376079
 21
218.5248898068466
 31
0.000000000000000
  0
LINE
  5
2D6
100
AcDbEntity
  8
1
  6
CONTINUOUS
 62
7
100
AcDbLine
 10
460.9608795376082
 20
226.3248898068466
 30
0.000000000000000
 11
460.9608795376082
 21
218.7248898068467
 31
0.000000000000000
  0
LINE
  5
2D7
100
AcDbEntity
  8
1
  6
CONTINUOUS
 62
7
100
AcDbLine
 10
461.9608795376080
 20
227.0248898068466
 30
0.000000000000000
 11
461.9608795376080
 21
218.7248898068467
 31
0.000000000000000
  0
ARC
  5
2D8
100
AcDbEntity
  8
1
  6
CONTINUOUS
 62
7
100
AcDbCircle
 10
459.9532775376078
 20
220.4181778068466
 30
0.000000000000000
 40
1.300000000000000
100
AcDbArc
 50
195.8646300000000
 51
264.9836300000000
  0
ARC
  5
2D9
100
AcDbEntity
  8
1
  6
CONTINUOUS
 62
7
100
AcDbCircle
 10
462.4608795376079
 20
219.0248898068466
 30
0.000000000000000
 40
0.5000000000000000
100
AcDbArc
 50
180.0000000000000
 51
270.0000000000000
  0
LINE
  5
2DA
100
AcDbEntity
  8
1
  6
CONTINUOUS
 62
7
100
AcDbLine
 10
460.9608795376082
 20
218.7248898068467
 30
0.000000000000000
 11
461.9608795376080
 21
218.7248898068467
 31
0.000000000000000
  0
LINE
  5
2DB
100
AcDbEntity
  8
1
  6
CONTINUOUS
 62
7
100
AcDbLine
 10
459.8253985376080
 20
219.1244828068467
 30
0.000000000000000
 11
460.9608795376083
 21
219.0248898068466
 31
0.000000000000000
  0
LINE
  5
2DC
100
AcDbEntity
  8
1
  6
CONTINUOUS
 62
7
100
AcDbLine
 10
462.4608795376079
 20
218.5248898068466
 30
0.000000000000000
 11
466.9608795376079
 21
218.5248898068466
 31
0.000000000000000
  0
ARC
  5
2DD
100
AcDbEntity
  8
1
  6
CONTINUOUS
 62
7
100
AcDbCircle
 10
462.4608795376079
 20
227.0248898068466
 30
0.000000000000000
 40
0.5000000000000000
100
AcDbArc
 50
90.00000000000000
 51
180.0000000000000
  0
LINE
  5
2DE
100
AcDbEntity
  8
1
  6
CONTINUOUS
 62
7
100
AcDbLine
 10
460.9608795376082
 20
226.3248898068466
 30
0.000000000000000
 11
461.9608795376080
 21
226.3248898068466
 31
0.000000000000000
  0
LINE
  5
2DF
100
AcDbEntity
  8
1
  6
CONTINUOUS
 62
7
100
AcDbLine
 10
460.9608795376082
 20
222.5248898068467
 30
0.000000000000000
 11
461.9608795376080
 21
223.5248898068467
 31
0.000000000000000
  0
LINE
  5
2E0
100
AcDbEntity
  8
1
  6
CONTINUOUS
 62
7
100
AcDbLine
 10
460.9608795376082
 20
221.5248898068467
 30
0.000000000000000
 11
461.9608795376080
 21
222.5248898068466
 31
0.000000000000000
  0
ARC
  5
2E1
100
AcDbEntity
  8
1
  6
CONTINUOUS
 62
7
100
AcDbCircle
 10
467.3608785376079
 20
222.5230618068467
 30
0.000000000000000
 40
9.000000000000000
100
AcDbArc
 50
164.1026300000000
 51
195.8646300000000
  0
ARC
  5
2E2
100
AcDbEntity
  8
1
  6
CONTINUOUS
 62
7
100
AcDbCircle
 10
459.9544815376081
 20
224.6321778068466
 30
0.000000000000000
 40
1.300000000000000
100
AcDbArc
 50
94.98363000000002
 51
164.1026300000000
  0
LINE
  5
2E3
100
AcDbEntity
  8
1
  6
CONTINUOUS
 62
7
100
AcDbLine
 10
459.8418515376080
 20
225.9272098068467
 30
0.000000000000000
 11
460.9618795376078
 21
226.0248898068467
 31
0.000000000000000
  0
LINE
  5
2E4
100
AcDbEntity
  8
1
  6
CONTINUOUS
 62
7
100
AcDbLine
 10
462.4608795376079
 20
227.5248898068467
 30
0.000000000000000
 11
466.9608795376079
 21
227.5248898068467
 31
0.000000000000000
  0
ARC
  5
2E5
100
AcDbEntity
  8
5
  6
PHANTOM
 62
6
100
AcDbCircle
 10
522.2312875376083
 20
187.8472208068466
 30
0.000000000000000
 40
6.000000000000000
100
AcDbArc
 50
315.0000000000000
 51
404.9999999999999
  0
LINE
  5
2E6
100
AcDbEntity
  8
5
  6
PHANTOM
 62
6
100
AcDbLine
 10
521.4749385376077
 20
204.1599188068466
 30
0.000000000000000
 11
549.1013455376080
 21
176.5335118068467
 31
0.000000000000000
  0
LINE
  5
2E7
100
AcDbEntity
  8
1
  6
CONTINUOUS
 62
7
100
AcDbLine
 10
504.7460065376077
 20
181.0248898068465
 30
0.000000000000000
 11
504.7460065376077
 21
197.0248898068465
 31
0.000000000000000
  0
LINE
  5
2E8
100
AcDbEntity
  8
1
  6
CONTINUOUS
 62
7
100
AcDbLine
 10
518.2460065376081
 20
199.0945288068465
 30
0.000000000000000
 11
518.2460065376081
 21
160.0248898068466
 31
0.000000000000000
  0
LINE
  5
2E9
100
AcDbEntity
  8
1
  6
CONTINUOUS
 62
7
100
AcDbLine
 10
517.7460065376080
 20
225.5248898068467
 30
0.000000000000000
 11
517.7460065376080
 21
147.5248898068466
 31
0.000000000000000
  0
LINE
  5
2EA
100
AcDbEntity
  8
1
  6
CONTINUOUS
 62
7
100
AcDbLine
 10
514.7460065376079
 20
144.5248898068466
 30
0.000000000000000
 11
514.7460065376079
 21
228.5248898068467
 31
0.000000000000000
  0
LINE
  5
2EB
100
AcDbEntity
  8
1
  6
CONTINUOUS
 62
7
100
AcDbLine
 10
516.2460065376079
 20
144.5248898068466
 30
0.000000000000000
 11
516.2460065376079
 21
228.5248898068467
 31
0.000000000000000
  0
LINE
  5
2EC
100
AcDbEntity
  8
1
  6
CONTINUOUS
 62
7
100
AcDbLine
 10
513.7460065376081
 20
144.5248898068466
 30
0.000000000000000
 11
513.7460065376081
 21
228.5248898068467
 31
0.000000000000000
  0
LINE
  5
2ED
100
AcDbEntity
  8
5
  6
PHANTOM
 62
6
100
AcDbLine
 10
526.4739285376079
 20
183.6045798068464
 30
0.000000000000000
 11
519.4028605376081
 21
176.5335118068467
 31
0.000000000000000
  0
LINE
  5
2EE
100
AcDbEntity
  8
5
  6
PHANTOM
 62
6
100
AcDbLine
 10
519.4028605376081
 20
173.7050848068465
 30
0.000000000000000
 11
529.8878095376083
 21
163.2201358068467
 31
0.000000000000000
  0
LINE
  5
2EF
100
AcDbEntity
  8
1
  6
CONTINUOUS
 62
7
100
AcDbLine
 10
517.7460065376080
 20
147.5248898068466
 30
0.000000000000000
 11
516.2460065376079
 21
144.5248898068466
 31
0.000000000000000
  0
LINE
  5
2F0
100
AcDbEntity
  8
1
  6
CONTINUOUS
 62
7
100
AcDbLine
 10
516.2460065376079
 20
144.5248898068466
 30
0.000000000000000
 11
513.7460065376081
 21
144.5248898068466
 31
0.000000000000000
  0
LINE
  5
2F1
100
AcDbEntity
  8
1
  6
CONTINUOUS
 62
7
100
AcDbLine
 10
493.2460065376080
 20
163.1220598068464
 30
0.000000000000000
 11
493.2460065376080
 21
183.0248898068465
 31
0.000000000000000
  0
ARC
  5
2F2
100
AcDbEntity
  8
1
  6
CONTINUOUS
 62
7
100
AcDbCircle
 10
513.7460065376081
 20
205.5248898068467
 30
0.000000000000000
 40
49.50000000000000
100
AcDbArc
 50
248.7377459999999
 51
270.0000000000000
  0
ARC
  5
2F3
100
AcDbEntity
  8
1
  6
CONTINUOUS
 62
7
100
AcDbCircle
 10
497.2460065376080
 20
163.1220598068464
 30
0.000000000000000
 40
4.000000000000000
100
AcDbArc
 50
180.0000000000000
 51
248.7377459999999
  0
LINE
  5
2F4
100
AcDbEntity
  8
4
  6
CENTER
 62
1
100
AcDbLine
 10
515.6325885376078
 20
150.5248898068466
 30
0.000000000000000
 11
506.7460065376078
 21
150.5248898068466
 31
0.000000000000000
  0
LINE
  5
2F5
100
AcDbEntity
  8
1
  6
CONTINUOUS
 62
7
100
AcDbLine
 10
513.7460065376081
 20
154.0248898068466
 30
0.000000000000000
 11
510.2460065376080
 21
154.0248898068466
 31
0.000000000000000
  0
LINE
  5
2F6
100
AcDbEntity
  8
1
  6
CONTINUOUS
 62
7
100
AcDbLine
 10
513.7460065376081
 20
147.0248898068467
 30
0.000000000000000
 11
510.2460065376080
 21
147.0248898068467
 31
0.000000000000000
  0
LINE
  5
2F7
100
AcDbEntity
  8
1
  6
CONTINUOUS
 62
7
100
AcDbLine
 10
509.7460065376080
 20
153.5248898068467
 30
0.000000000000000
 11
509.7460065376080
 21
147.5248898068466
 31
0.000000000000000
  0
LINE
  5
2F8
100
AcDbEntity
  8
1
  6
CONTINUOUS
 62
7
100
AcDbLine
 10
510.2460065376080
 20
147.0248898068466
 30
0.000000000000000
 11
509.7460065376079
 21
147.5248898068466
 31
0.000000000000000
  0
LINE
  5
2F9
100
AcDbEntity
  8
1
  6
CONTINUOUS
 62
7
100
AcDbLine
 10
510.2460065376079
 20
154.0248898068466
 30
0.000000000000000
 11
509.7460065376079
 21
153.5248898068467
 31
0.000000000000000
  0
LINE
  5
2FA
100
AcDbEntity
  8
1
  6
CONTINUOUS
 62
7
100
AcDbLine
 10
510.2460065376080
 20
154.0248898068466
 30
0.000000000000000
 11
510.2460065376080
 21
147.0248898068467
 31
0.000000000000000
  0
ARC
  5
2FB
100
AcDbEntity
  8
1
  6
CONTINUOUS
 62
7
100
AcDbCircle
 10
516.7460065376079
 20
160.0248898068466
 30
0.000000000000000
 40
1.500000000000000
100
AcDbArc
 50
311.8103150000000
 51
360.0000000000000
  0
LINE
  5
2FC
100
AcDbEntity
  8
1
  6
CONTINUOUS
 62
7
100
AcDbLine
 10
504.2460065376078
 20
184.0248898068465
 30
0.000000000000000
 11
494.2460065376080
 21
184.0248898068465
 31
0.000000000000000
  0
ARC
  5
2FD
100
AcDbEntity
  8
1
  6
CONTINUOUS
 62
7
100
AcDbCircle
 10
494.2460065376080
 20
183.0248898068465
 30
0.000000000000000
 40
1.000000000000000
100
AcDbArc
 50
90.00000000000000
 51
180.0000000000000
  0
ARC
  5
2FE
100
AcDbEntity
  8
1
  6
CONTINUOUS
 62
7
100
AcDbCircle
 10
504.2460065376078
 20
184.5248898068465
 30
0.000000000000000
 40
0.5000000000000000
100
AcDbArc
 50
270.0000000000000
 51
360.0000000000000
  0
ARC
  5
2FF
100
AcDbEntity
  8
5
  6
PHANTOM
 62
6
100
AcDbCircle
 10
520.8170745376081
 20
175.1192988068467
 30
0.000000000000000
 40
2.000000000000000
100
AcDbArc
 50
135.0000000000000
 51
225.0000000000000
  0
ARC
  5
300
100
AcDbEntity
  8
5
  6
PHANTOM
 62
6
100
AcDbCircle
 10
513.7460065376081
 20
205.5248898068467
 30
0.000000000000000
 40
46.50000000000000
100
AcDbArc
 50
293.2358679999998
 51
309.4767140000000
  0
ARC
  5
301
100
AcDbEntity
  8
5
  6
PHANTOM
 62
6
100
AcDbCircle
 10
531.3020235376079
 20
164.6343498068467
 30
0.000000000000000
 40
2.000000000000000
100
AcDbArc
 50
225.0000000000000
 51
293.2358679999998
  0
LINE
  5
302
100
AcDbEntity
  8
5
  6
PHANTOM
 62
6
100
AcDbLine
 10
548.9943325376080
 20
174.3150268068466
 30
0.000000000000000
 11
543.3090585376081
 21
169.6323288068467
 31
0.000000000000000
  0
ARC
  5
303
100
AcDbEntity
  8
5
  6
PHANTOM
 62
6
100
AcDbCircle
 10
548.0406855376083
 20
175.4728518068467
 30
0.000000000000000
 40
1.500000000000000
100
AcDbArc
 50
309.4767140000000
 51
404.9999999999999
  0
LINE
  5
304
100
AcDbEntity
  8
1
  6
CONTINUOUS
 62
7
100
AcDbLine
 10
523.1505265376079
 20
208.1411848068467
 30
0.000000000000000
 11
521.1749385376079
 21
206.1655968068467
 31
0.000000000000000
  0
LINE
  5
305
100
AcDbEntity
  8
1
  6
CONTINUOUS
 62
7
100
AcDbLine
 10
520.2205855376080
 20
212.3395678068466
 30
0.000000000000000
 11
523.1322045376079
 21
209.5732578068465
 31
0.000000000000000
  0
LINE
  5
306
100
AcDbEntity
  8
5
  6
PHANTOM
 62
6
100
AcDbLine
 10
519.4854735376081
 20
195.9749278068467
 30
0.000000000000000
 11
522.6703705376081
 21
195.8934198068467
 31
0.000000000000000
  0
ARC
  5
307
100
AcDbEntity
  8
1
  6
CONTINUOUS
 62
7
100
AcDbCircle
 10
491.5460065376080
 20
214.4841818068466
 30
0.000000000000000
 40
1.000000000000000
100
AcDbArc
 50
90.00000000000000
 51
180.0000000000000
  0
LINE
  5
308
100
AcDbEntity
  8
1
  6
CONTINUOUS
 62
7
100
AcDbLine
 10
513.7460065376081
 20
217.0248898068467
 30
0.000000000000000
 11
488.6460065376079
 21
217.0248898068467
 31
0.000000000000000
  0
ARC
  5
309
100
AcDbEntity
  8
1
  6
CONTINUOUS
 62
7
100
AcDbCircle
 10
491.5460065376080
 20
195.0248898068467
 30
0.000000000000000
 40
1.000000000000000
100
AcDbArc
 50
180.0000000000000
 51
270.0000000000000
  0
LINE
  5
30A
100
AcDbEntity
  8
4
  6
CENTER
 62
1
100
AcDbLine
 10
520.0015935376078
 20
205.5248898068467
 30
0.000000000000000
 11
482.0460065376080
 21
205.5248898068467
 31
0.000000000000000
  0
LINE
  5
30B
100
AcDbEntity
  8
1
  6
CONTINUOUS
 62
7
100
AcDbLine
 10
485.0460065376080
 20
210.5248898068464
 30
0.000000000000000
 11
485.0460065376080
 21
200.5248898068467
 31
0.000000000000000
  0
LINE
  5
30C
100
AcDbEntity
  8
1
  6
CONTINUOUS
 62
7
100
AcDbLine
 10
490.1460065376079
 20
214.1851438068466
 30
0.000000000000000
 11
490.1460065376079
 21
195.7748898068467
 31
0.000000000000000
  0
LINE
  5
30D
100
AcDbEntity
  8
1
  6
CONTINUOUS
 62
7
100
AcDbLine
 10
490.5460065376082
 20
214.4841818068466
 30
0.000000000000000
 11
490.5460065376082
 21
195.0248898068467
 31
0.000000000000000
  0
LINE
  5
30E
100
AcDbEntity
  8
1
  6
CONTINUOUS
 62
7
100
AcDbLine
 10
490.0460065376080
 20
215.2676758068466
 30
0.000000000000000
 11
490.0460065376080
 21
194.2748898068465
 31
0.000000000000000
  0
LINE
  5
30F
100
AcDbEntity
  8
1
  6
CONTINUOUS
 62
7
100
AcDbLine
 10
488.0460065376080
 20
215.2676758068466
 30
0.000000000000000
 11
488.0460065376080
 21
194.2748898068465
 31
0.000000000000000
  0
ARC
  5
310
100
AcDbEntity
  8
1
  6
CONTINUOUS
 62
7
100
AcDbCircle
 10
490.4022565376080
 20
195.7748898068467
 30
0.000000000000000
 40
0.2562500000000000
100
AcDbArc
 50
180.0000000000000
 51
257.3196170000000
  0
LINE
  5
311
100
AcDbEntity
  8
1
  6
CONTINUOUS
 62
7
100
AcDbLine
 10
490.3460065376081
 20
195.5248898068465
 30
0.000000000000000
 11
490.5460065376082
 21
195.5248898068465
 31
0.000000000000000
  0
LINE
  5
312
100
AcDbEntity
  8
1
  6
CONTINUOUS
 62
7
100
AcDbLine
 10
488.0460065376080
 20
194.2748898068465
 30
0.000000000000000
 11
490.0460065376080
 21
194.2748898068465
 31
0.000000000000000
  0
LINE
  5
313
100
AcDbEntity
  8
1
  6
CONTINUOUS
 62
7
100
AcDbLine
 10
485.0460065376080
 20
206.1817438068467
 30
0.000000000000000
 11
488.0460065376080
 21
206.1817438068467
 31
0.000000000000000
  0
LINE
  5
314
100
AcDbEntity
  8
1
  6
CONTINUOUS
 62
7
100
AcDbLine
 10
485.0460065376080
 20
204.8680358068467
 30
0.000000000000000
 11
488.0460065376080
 21
204.8680358068467
 31
0.000000000000000
  0
LINE
  5
315
100
AcDbEntity
  8
1
  6
CONTINUOUS
 62
7
100
AcDbLine
 10
485.0460065376080
 20
200.5248898068467
 30
0.000000000000000
 11
488.0460065376080
 21
200.5248898068467
 31
0.000000000000000
  0
LINE
  5
316
100
AcDbEntity
  8
1
  6
CONTINUOUS
 62
7
100
AcDbLine
 10
490.1460065376079
 20
199.6248898068465
 30
0.000000000000000
 11
490.0460065376080
 21
199.6248898068465
 31
0.000000000000000
  0
LINE
  5
317
100
AcDbEntity
  8
1
  6
CONTINUOUS
 62
7
100
AcDbLine
 10
485.0460065376080
 20
210.5248898068464
 30
0.000000000000000
 11
488.0460065376080
 21
210.5248898068464
 31
0.000000000000000
  0
LINE
  5
318
100
AcDbEntity
  8
1
  6
CONTINUOUS
 62
7
100
AcDbLine
 10
488.0460065376080
 20
215.2676758068466
 30
0.000000000000000
 11
490.0460065376080
 21
215.2676758068466
 31
0.000000000000000
  0
LINE
  5
319
100
AcDbEntity
  8
1
  6
CONTINUOUS
 62
7
100
AcDbLine
 10
488.4460065376080
 20
216.8248898068467
 30
0.000000000000000
 11
488.4460065376080
 21
215.2676758068466
 31
0.000000000000000
  0
LINE
  5
31A
100
AcDbEntity
  8
1
  6
CONTINUOUS
 62
7
100
AcDbLine
 10
490.0460065376080
 20
213.1438158068467
 30
0.000000000000000
 11
490.1460065376079
 21
213.1438158068467
 31
0.000000000000000
  0
ARC
  5
31B
100
AcDbEntity
  8
1
  6
CONTINUOUS
 62
7
100
AcDbCircle
 10
488.6460065376079
 20
216.8248898068467
 30
0.000000000000000
 40
0.2000000000000000
100
AcDbArc
 50
90.00000000000000
 51
180.0000000000000
  0
LINE
  5
31C
100
AcDbEntity
  8
1
  6
CONTINUOUS
 62
7
100
AcDbLine
 10
490.1460065376079
 20
214.1851438068466
 30
0.000000000000000
 11
490.5460065376082
 21
214.1851438068466
 31
0.000000000000000
  0
LINE
  5
31D
100
AcDbEntity
  8
1
  6
CONTINUOUS
 62
7
100
AcDbLine
 10
490.1460065376079
 20
211.4248898068467
 30
0.000000000000000
 11
490.0460065376080
 21
211.4248898068467
 31
0.000000000000000
  0
LINE
  5
31E
100
AcDbEntity
  8
1
  6
CONTINUOUS
 62
7
100
AcDbLine
 10
512.7460065376079
 20
205.5248898068467
 30
0.000000000000000
 11
512.7460065376079
 21
216.0248898068467
 31
0.000000000000000
  0
LINE
  5
31F
100
AcDbEntity
  8
1
  6
CONTINUOUS
 62
7
100
AcDbLine
 10
501.7460065376080
 20
195.0248898068467
 30
0.000000000000000
 11
501.7460065376080
 21
205.5248898068467
 31
0.000000000000000
  0
LINE
  5
320
100
AcDbEntity
  8
1
  6
CONTINUOUS
 62
7
100
AcDbLine
 10
504.2460065376078
 20
194.0248898068467
 30
0.000000000000000
 11
491.4460065376080
 21
194.0248898068467
 31
0.000000000000000
  0
ARC
  5
321
100
AcDbEntity
  8
1
  6
CONTINUOUS
 62
7
100
AcDbCircle
 10
504.2460065376078
 20
193.5248898068465
 30
0.000000000000000
 40
0.5000000000000000
100
AcDbArc
 50
0.000000000000000
 51
90.00000000000000
  0
ARC
  5
322
100
AcDbEntity
  8
1
  6
CONTINUOUS
 62
7
100
AcDbCircle
 10
502.7460065376080
 20
195.0248898068467
 30
0.000000000000000
 40
1.000000000000000
100
AcDbArc
 50
180.0000000000000
 51
270.0000000000000
  0
ARC
  5
323
100
AcDbEntity
  8
1
  6
CONTINUOUS
 62
7
100
AcDbCircle
 10
528.2460065376080
 20
199.0945288068465
 30
0.000000000000000
 40
10.00000000000000
100
AcDbArc
 50
135.0000000000000
 51
180.0000000000000
  0
ARC
  5
324
100
AcDbEntity
  8
5
  6
PHANTOM
 62
6
100
AcDbCircle
 10
528.5460065376082
 20
211.2309868068466
 30
0.000000000000000
 40
10.00000000000000
100
AcDbArc
 50
220.7938950000000
 51
225.0000000000000
  0
LINE
  5
325
100
AcDbEntity
  8
1
  6
CONTINUOUS
 62
7
100
AcDbLine
 10
491.5460065376080
 20
215.4841818068464
 30
0.000000000000000
 11
512.7460065376079
 21
215.4841818068464
 31
0.000000000000000
  0
LINE
  5
326
100
AcDbEntity
  8
1
  6
CONTINUOUS
 62
7
100
AcDbLine
 10
510.2460065376080
 20
226.0248898068467
 30
0.000000000000000
 11
510.2460065376080
 21
219.0248898068466
 31
0.000000000000000
  0
LINE
  5
327
100
AcDbEntity
  8
1
  6
CONTINUOUS
 62
7
100
AcDbLine
 10
509.7460065376080
 20
225.5248898068467
 30
0.000000000000000
 11
509.7460065376080
 21
219.5248898068467
 31
0.000000000000000
  0
LINE
  5
328
100
AcDbEntity
  8
1
  6
CONTINUOUS
 62
7
100
AcDbLine
 10
513.7460065376081
 20
219.0248898068466
 30
0.000000000000000
 11
510.2460065376080
 21
219.0248898068466
 31
0.000000000000000
  0
ARC
  5
329
100
AcDbEntity
  8
1
  6
CONTINUOUS
 62
7
100
AcDbCircle
 10
513.7460065376081
 20
216.0248898068467
 30
0.000000000000000
 40
1.000000000000000
100
AcDbArc
 50
90.00000000000000
 51
180.0000000000000
  0
LINE
  5
32A
100
AcDbEntity
  8
1
  6
CONTINUOUS
 62
7
100
AcDbLine
 10
510.2460065376080
 20
219.0248898068466
 30
0.000000000000000
 11
509.7460065376080
 21
219.5248898068467
 31
0.000000000000000
  0
ARC
  5
32B
100
AcDbEntity
  8
1
  6
CONTINUOUS
 62
7
100
AcDbCircle
 10
513.7460065376081
 20
205.5248898068467
 30
0.000000000000000
 40
9.400000000000000
100
AcDbArc
 50
46.46599400000000
 51
64.81566300000000
  0
LINE
  5
32C
100
AcDbEntity
  8
4
  6
CENTER
 62
1
100
AcDbLine
 10
515.6325885376078
 20
222.5248898068466
 30
0.000000000000000
 11
506.7460065376078
 21
222.5248898068466
 31
0.000000000000000
  0
LINE
  5
32D
100
AcDbEntity
  8
1
  6
CONTINUOUS
 62
7
100
AcDbLine
 10
516.2460065376079
 20
228.5248898068467
 30
0.000000000000000
 11
513.7460065376081
 21
228.5248898068467
 31
0.000000000000000
  0
LINE
  5
32E
100
AcDbEntity
  8
1
  6
CONTINUOUS
 62
7
100
AcDbLine
 10
513.7460065376081
 20
226.0248898068467
 30
0.000000000000000
 11
510.2460065376080
 21
226.0248898068467
 31
0.000000000000000
  0
LINE
  5
32F
100
AcDbEntity
  8
1
  6
CONTINUOUS
 62
7
100
AcDbLine
 10
510.2460065376079
 20
226.0248898068466
 30
0.000000000000000
 11
509.7460065376079
 21
225.5248898068466
 31
0.000000000000000
  0
LINE
  5
330
100
AcDbEntity
  8
1
  6
CONTINUOUS
 62
7
100
AcDbLine
 10
516.2460065376079
 20
228.5248898068467
 30
0.000000000000000
 11
517.7460065376080
 21
225.5248898068467
 31
0.000000000000000
  0
ARC
  5
331
100
AcDbEntity
  8
1
  6
CONTINUOUS
 62
7
100
AcDbCircle
 10
522.4434195376078
 20
208.8482918068466
 30
0.000000000000000
 40
1.000000000000000
100
AcDbArc
 50
315.0000000000000
 51
406.4659940000000
  0
LINE
  5
332
100
AcDbEntity
  8
5
  6
PHANTOM
 62
6
100
AcDbLine
 10
522.6703705376081
 20
195.8934198068468
 30
0.000000000000000
 11
526.4739285376079
 21
192.0898608068468
 31
0.000000000000000
  0
ENDSEC
  0
SECTION
  2
OBJECTS
  0
DICTIONARY
  5
35C
100
AcDbDictionary
  3
ACAD_GROUP
350
35D
  3
ACAD_LAYOUT
350
35E
  3
ACAD_MLINESTYLE
350
35F
  0
DICTIONARY
  5
35D
102
{ACAD_REACTORS
330
35C
102
}
330
35C
100
AcDbDictionary
  0
DICTIONARY
  5
35E
102
{ACAD_REACTORS
330
35C
102
}
330
35C
100
AcDbDictionary
  3
Model
350
360
  3
ﾚｲｱｳﾄ1
350
361
  3
ﾚｲｱｳﾄ2
350
362
  0
DICTIONARY
  5
35F
102
{ACAD_REACTORS
330
35C
102
}
330
35C
100
AcDbDictionary
  3
STANDARD
350
363
  0
LAYOUT
  5
360
102
{ACAD_REACTORS
330
35E
102
}
330
35E
100
AcDbPlotSettings
 70
11952
  4
A3
 44
297.000000
 45
420.000000
 73
  1
 72
  1
100
AcDbLayout
  1
Model
 71
0
330
353
  0
LAYOUT
  5
361
102
{ACAD_REACTORS
330
35E
102
}
330
35E
100
AcDbPlotSettings
100
AcDbLayout
  1
ﾚｲｱｳﾄ1
 71
1
330
354
  0
LAYOUT
  5
362
102
{ACAD_REACTORS
330
35E
102
}
330
35E
100
AcDbPlotSettings
100
AcDbLayout
  1
ﾚｲｱｳﾄ2
 71
2
330
355
  0
MLINESTYLE
  5
363
102
{ACAD_REACTORS
330
35F
102
}
330
35F
100
AcDbMlineStyle
  2
STANDARD
 70
     0
  3

 62
   256
 51
90.00
 52
90.00
 71
     2
 49
0.50
 62
   256
  6
BYLAYER
 49
-0.50
 62
   256
  6
BYLAYER
  0
ENDSEC
  0
EOF
