  0
SECTION
  2
HEADER
  9
$ACADVER
  1
AC1015
  9
$ACADMAINTVER
 70
    20
  9
$DWGCODEPAGE
  3
ANSI_932
  9
$INSBASE
 10
0.0
 20
0.0
 30
0.0
  9
$EXTMIN
 10
9.766394999999999
 20
9.999999999999998
 30
0.0
  9
$EXTMAX
 10
381.0346949999998
 20
263.2338649999999
 30
0.0
  9
$LIMMIN
 10
0.0
 20
0.0
  9
$LIMMAX
 10
396.0
 20
273.0
  9
$ORTHOMODE
 70
     1
  9
$REGENMODE
 70
     1
  9
$FILLMODE
 70
     1
  9
$QTEXTMODE
 70
     0
  9
$MIRRTEXT
 70
     1
  9
$LTSCALE
 40
20.0
  9
$ATTMODE
 70
     1
  9
$TEXTSIZE
 40
5.0
  9
$TRACEWID
 40
1.0
  9
$TEXTSTYLE
  7
STANDARD
  9
$CLAYER
  8
0
  9
$CELTYPE
  6
BYLAYER
  9
$CECOLOR
 62
   256
  9
$CELTSCALE
 40
1.0
  9
$DISPSILH
 70
     0
  9
$DIMSCALE
 40
1.0
  9
$DIMASZ
 40
3.0
  9
$DIMEXO
 40
1.0
  9
$DIMDLI
 40
10.0
  9
$DIMRND
 40
0.0
  9
$DIMDLE
 40
0.0
  9
$DIMEXE
 40
1.0
  9
$DIMTP
 40
0.0
  9
$DIMTM
 40
0.0
  9
$DIMTXT
 40
3.2
  9
$DIMCEN
 40
0.0
  9
$DIMTSZ
 40
0.0
  9
$DIMTOL
 70
     0
  9
$DIMLIM
 70
     0
  9
$DIMTIH
 70
     0
  9
$DIMTOH
 70
     0
  9
$DIMSE1
 70
     0
  9
$DIMSE2
 70
     0
  9
$DIMTAD
 70
     3
  9
$DIMZIN
 70
     8
  9
$DIMBLK
  1

  9
$DIMASO
 70
     1
  9
$DIMSHO
 70
     1
  9
$DIMPOST
  1

  9
$DIMAPOST
  1

  9
$DIMALT
 70
     0
  9
$DIMALTD
 70
     2
  9
$DIMALTF
 40
25.4
  9
$DIMLFAC
 40
1.0
  9
$DIMTOFL
 70
     1
  9
$DIMTVP
 40
0.0
  9
$DIMTIX
 70
     0
  9
$DIMSOXD
 70
     0
  9
$DIMSAH
 70
     1
  9
$DIMBLK1
  1

  9
$DIMBLK2
  1

  9
$DIMSTYLE
  2
STANDARD
  9
$DIMCLRD
 70
     0
  9
$DIMCLRE
 70
     0
  9
$DIMCLRT
 70
     0
  9
$DIMTFAC
 40
1.0
  9
$DIMGAP
 40
1.0
  9
$DIMJUST
 70
     0
  9
$DIMSD1
 70
     0
  9
$DIMSD2
 70
     0
  9
$DIMTOLJ
 70
     1
  9
$DIMTZIN
 70
     0
  9
$DIMALTZ
 70
     0
  9
$DIMALTTZ
 70
     0
  9
$DIMUPT
 70
     0
  9
$DIMDEC
 70
     4
  9
$DIMTDEC
 70
     4
  9
$DIMALTU
 70
     2
  9
$DIMALTTD
 70
     2
  9
$DIMTXSTY
  7
STANDARD
  9
$DIMAUNIT
 70
     0
  9
$DIMADEC
 70
     0
  9
$DIMALTRND
 40
0.0
  9
$DIMAZIN
 70
     0
  9
$DIMDSEP
 70
    46
  9
$DIMATFIT
 70
     3
  9
$DIMFRAC
 70
     0
  9
$DIMLDRBLK
  1

  9
$DIMLUNIT
 70
     2
  9
$DIMLWD
 70
    -2
  9
$DIMLWE
 70
    -2
  9
$DIMTMOVE
 70
     0
  9
$LUNITS
 70
     2
  9
$LUPREC
 70
     4
  9
$SKETCHINC
 40
1.0
  9
$FILLETRAD
 40
0.0
  9
$AUNITS
 70
     0
  9
$AUPREC
 70
     2
  9
$MENU
  1
.
  9
$ELEVATION
 40
0.0
  9
$PELEVATION
 40
0.0
  9
$THICKNESS
 40
0.0
  9
$LIMCHECK
 70
     0
  9
$CHAMFERA
 40
10.0
  9
$CHAMFERB
 40
10.0
  9
$CHAMFERC
 40
0.0
  9
$CHAMFERD
 40
0.0
  9
$SKPOLY
 70
     0
  9
$TDCREATE
 40
2450737.564323148
  9
$TDUCREATE
 40
2450737.189323148
  9
$TDUPDATE
 40
2457192.642513796
  9
$TDUUPDATE
 40
2457192.267513796
  9
$TDINDWG
 40
0.0429639352
  9
$TDUSRTIMER
 40
0.0429630671
  9
$USRTIMER
 70
     1
  9
$ANGBASE
 50
0.0
  9
$ANGDIR
 70
     0
  9
$PDMODE
 70
     0
  9
$PDSIZE
 40
0.0
  9
$PLINEWID
 40
0.0
  9
$SPLFRAME
 70
     0
  9
$SPLINETYPE
 70
     6
  9
$SPLINESEGS
 70
     8
  9
$HANDSEED
  5
9916
  9
$SURFTAB1
 70
     6
  9
$SURFTAB2
 70
     6
  9
$SURFTYPE
 70
     6
  9
$SURFU
 70
     6
  9
$SURFV
 70
     6
  9
$UCSBASE
  2

  9
$UCSNAME
  2

  9
$UCSORG
 10
0.0
 20
0.0
 30
0.0
  9
$UCSXDIR
 10
1.0
 20
0.0
 30
0.0
  9
$UCSYDIR
 10
0.0
 20
1.0
 30
0.0
  9
$UCSORTHOREF
  2

  9
$UCSORTHOVIEW
 70
     0
  9
$UCSORGTOP
 10
0.0
 20
0.0
 30
0.0
  9
$UCSORGBOTTOM
 10
0.0
 20
0.0
 30
0.0
  9
$UCSORGLEFT
 10
0.0
 20
0.0
 30
0.0
  9
$UCSORGRIGHT
 10
0.0
 20
0.0
 30
0.0
  9
$UCSORGFRONT
 10
0.0
 20
0.0
 30
0.0
  9
$UCSORGBACK
 10
0.0
 20
0.0
 30
0.0
  9
$PUCSBASE
  2

  9
$PUCSNAME
  2

  9
$PUCSORG
 10
0.0
 20
0.0
 30
0.0
  9
$PUCSXDIR
 10
1.0
 20
0.0
 30
0.0
  9
$PUCSYDIR
 10
0.0
 20
1.0
 30
0.0
  9
$PUCSORTHOREF
  2

  9
$PUCSORTHOVIEW
 70
     0
  9
$PUCSORGTOP
 10
0.0
 20
0.0
 30
0.0
  9
$PUCSORGBOTTOM
 10
0.0
 20
0.0
 30
0.0
  9
$PUCSORGLEFT
 10
0.0
 20
0.0
 30
0.0
  9
$PUCSORGRIGHT
 10
0.0
 20
0.0
 30
0.0
  9
$PUCSORGFRONT
 10
0.0
 20
0.0
 30
0.0
  9
$PUCSORGBACK
 10
0.0
 20
0.0
 30
0.0
  9
$USERI1
 70
     0
  9
$USERI2
 70
     0
  9
$USERI3
 70
     0
  9
$USERI4
 70
     0
  9
$USERI5
 70
     0
  9
$USERR1
 40
0.0
  9
$USERR2
 40
0.0
  9
$USERR3
 40
0.0
  9
$USERR4
 40
0.0
  9
$USERR5
 40
0.0
  9
$WORLDVIEW
 70
     1
  9
$SHADEDGE
 70
     3
  9
$SHADEDIF
 70
    70
  9
$TILEMODE
 70
     1
  9
$MAXACTVP
 70
    16
  9
$PINSBASE
 10
0.0
 20
0.0
 30
0.0
  9
$PLIMCHECK
 70
     0
  9
$PEXTMIN
 10
1.000000000000000E+20
 20
1.000000000000000E+20
 30
1.000000000000000E+20
  9
$PEXTMAX
 10
-1.000000000000000E+20
 20
-1.000000000000000E+20
 30
-1.000000000000000E+20
  9
$PLIMMIN
 10
0.0
 20
0.0
  9
$PLIMMAX
 10
420.0
 20
297.0
  9
$UNITMODE
 70
     0
  9
$VISRETAIN
 70
     0
  9
$PLINEGEN
 70
     0
  9
$PSLTSCALE
 70
     0
  9
$TREEDEPTH
 70
  3020
  9
$CMLSTYLE
  2
STANDARD
  9
$CMLJUST
 70
     0
  9
$CMLSCALE
 40
1.0
  9
$PROXYGRAPHICS
 70
     1
  9
$MEASUREMENT
 70
     0
  9
$CELWEIGHT
370
    -1
  9
$ENDCAPS
280
     0
  9
$JOINSTYLE
280
     0
  9
$LWDISPLAY
290
     0
  9
$INSUNITS
 70
     0
  9
$HYPERLINKBASE
  1

  9
$STYLESHEET
  1

  9
$XEDIT
290
     1
  9
$CEPSNTYPE
380
     0
  9
$PSTYLEMODE
290
     1
  9
$FINGERPRINTGUID
  2
{547233BD-5629-49CB-88FF-E7061FE92C22}
  9
$VERSIONGUID
  2
{FE104FD7-6F43-4E9E-8277-624350E37BC3}
  9
$EXTNAMES
290
     1
  9
$PSVPSCALE
 40
0.0
  9
$OLESTARTUP
290
     0
  0
ENDSEC
  0
SECTION
  2
CLASSES
  0
CLASS
  1
ACDBDICTIONARYWDFLT
  2
AcDbDictionaryWithDefault
  3
ObjectDBX Classes
 90
        0
280
     0
281
     0
  0
CLASS
  1
ACDBPLACEHOLDER
  2
AcDbPlaceHolder
  3
ObjectDBX Classes
 90
        0
280
     0
281
     0
  0
CLASS
  1
LAYOUT
  2
AcDbLayout
  3
ObjectDBX Classes
 90
        0
280
     0
281
     0
  0
CLASS
  1
DICTIONARYVAR
  2
AcDbDictionaryVar
  3
ObjectDBX Classes
 90
        0
280
     0
281
     0
  0
CLASS
  1
MATERIAL
  2
AcDbMaterial
  3
ObjectDBX Classes
 90
     1153
280
     0
281
     0
  0
CLASS
  1
VISUALSTYLE
  2
AcDbVisualStyle
  3
ObjectDBX Classes
 90
     4095
280
     0
281
     0
  0
CLASS
  1
TABLESTYLE
  2
AcDbTableStyle
  3
ObjectDBX Classes
 90
     4095
280
     0
281
     0
  0
CLASS
  1
SCALE
  2
AcDbScale
  3
ObjectDBX Classes
 90
     1153
280
     0
281
     0
  0
CLASS
  1
MLEADERSTYLE
  2
AcDbMLeaderStyle
  3
ACDB_MLEADERSTYLE_CLASS
 90
     4095
280
     0
281
     0
  0
CLASS
  1
ACDBSECTIONVIEWSTYLE
  2
AcDbSectionViewStyle
  3
ObjectDBX Classes
 90
     1025
280
     0
281
     0
  0
CLASS
  1
ACDBDETAILVIEWSTYLE
  2
AcDbDetailViewStyle
  3
ObjectDBX Classes
 90
     1025
280
     0
281
     0
  0
CLASS
  1
CELLSTYLEMAP
  2
AcDbCellStyleMap
  3
ObjectDBX Classes
 90
     1152
280
     0
281
     0
  0
ENDSEC
  0
SECTION
  2
TABLES
  0
TABLE
  2
VPORT
  5
9492
330
0
100
AcDbSymbolTable
 70
     1
  0
VPORT
  5
985F
330
9492
100
AcDbSymbolTableRecord
100
AcDbViewportTableRecord
  2
*ACTIVE
 70
     0
 10
0.0
 20
0.0
 11
1.0
 21
1.0
 12
272.1067883450485
 22
136.6145559946477
 13
0.0
 23
0.0
 14
10.0
 24
10.0
 15
10.0
 25
10.0
 16
0.0
 26
0.0
 36
1.0
 17
0.0
 27
0.0
 37
0.0
 40
256.0831172207969
 41
1.899603698811096
 42
50.0
 43
0.0
 44
0.0
 50
0.0
 51
0.0
 71
     0
 72
   100
 73
     1
 74
     0
 75
     0
 76
     0
 77
     0
 78
     0
281
     0
 65
     1
110
0.0
120
0.0
130
0.0
111
1.0
121
0.0
131
0.0
112
0.0
122
1.0
132
0.0
 79
     0
146
0.0
1001
ACAD_NAV_VCDISPLAY
1070
     3
  0
ENDTAB
  0
TABLE
  2
LTYPE
  5
948F
330
0
100
AcDbSymbolTable
 70
     4
  0
LTYPE
  5
949D
330
948F
100
AcDbSymbolTableRecord
100
AcDbLinetypeTableRecord
  2
BYBLOCK
 70
     0
  3

 72
    65
 73
     0
 40
0.0
  0
LTYPE
  5
949E
330
948F
100
AcDbSymbolTableRecord
100
AcDbLinetypeTableRecord
  2
BYLAYER
 70
     0
  3

 72
    65
 73
     0
 40
0.0
  0
LTYPE
  5
949F
330
948F
100
AcDbSymbolTableRecord
100
AcDbLinetypeTableRecord
  2
CONTINUOUS
 70
     0
  3
Solid line
 72
    65
 73
     0
 40
0.0
  0
LTYPE
  5
94AD
330
948F
100
AcDbSymbolTableRecord
100
AcDbLinetypeTableRecord
  2
DASHED
 70
     0
  3
__ __ __ __ __ __ __ __ __ __ __ __ __ __ __ __
 72
    65
 73
     2
 40
0.75
 49
0.5
 74
     0
 49
-0.25
 74
     0
  0
LTYPE
  5
94AE
330
948F
100
AcDbSymbolTableRecord
100
AcDbLinetypeTableRecord
  2
CENTER
 70
     0
  3
____ _ ____ _ ____ _ ____ _ ____ _ ____ _ ____ 
 72
    65
 73
     4
 40
2.0
 49
1.25
 74
     0
 49
-0.25
 74
     0
 49
0.25
 74
     0
 49
-0.25
 74
     0
  0
LTYPE
  5
94AF
330
948F
100
AcDbSymbolTableRecord
100
AcDbLinetypeTableRecord
  2
PHANTOM
 70
     0
  3
______  __  __  ______  __  __  ______  __  __ 
 72
    65
 73
     6
 40
2.5
 49
1.25
 74
     0
 49
-0.25
 74
     0
 49
0.25
 74
     0
 49
-0.25
 74
     0
 49
0.25
 74
     0
 49
-0.25
 74
     0
  0
ENDTAB
  0
TABLE
  2
LAYER
  5
948C
330
0
100
AcDbSymbolTable
 70
     8
  0
LAYER
  5
949A
102
{ACAD_XDICTIONARY
360
98BA
102
}
330
948C
100
AcDbSymbolTableRecord
100
AcDbLayerTableRecord
  2
0
 70
     0
 62
     7
  6
CONTINUOUS
370
    -3
390
9868
  0
LAYER
  5
94B0
102
{ACAD_XDICTIONARY
360
98BC
102
}
330
948C
100
AcDbSymbolTableRecord
100
AcDbLayerTableRecord
  2
4
 70
     0
 62
     1
  6
CENTER
370
    -3
390
9868
  0
LAYER
  5
94B1
102
{ACAD_XDICTIONARY
360
98BE
102
}
330
948C
100
AcDbSymbolTableRecord
100
AcDbLayerTableRecord
  2
5
 70
     0
 62
     6
  6
PHANTOM
370
    -3
390
9868
  0
LAYER
  5
94B2
102
{ACAD_XDICTIONARY
360
98C0
102
}
330
948C
100
AcDbSymbolTableRecord
100
AcDbLayerTableRecord
  2
1
 70
     0
 62
     7
  6
CONTINUOUS
370
    -3
390
9868
  0
LAYER
  5
94B3
102
{ACAD_XDICTIONARY
360
98C2
102
}
330
948C
100
AcDbSymbolTableRecord
100
AcDbLayerTableRecord
  2
2
 70
     0
 62
     4
  6
CONTINUOUS
370
    -3
390
9868
  0
LAYER
  5
94B4
102
{ACAD_XDICTIONARY
360
98C4
102
}
330
948C
100
AcDbSymbolTableRecord
100
AcDbLayerTableRecord
  2
3
 70
     0
 62
     2
  6
DASHED
370
    -3
390
9868
  0
LAYER
  5
94B5
102
{ACAD_XDICTIONARY
360
98C6
102
}
330
948C
100
AcDbSymbolTableRecord
100
AcDbLayerTableRecord
  2
6
 70
     0
 62
     5
  6
CONTINUOUS
370
    -3
390
9868
  0
LAYER
  5
94B6
102
{ACAD_XDICTIONARY
360
98C8
102
}
330
948C
100
AcDbSymbolTableRecord
100
AcDbLayerTableRecord
  2
7
 70
     0
 62
     3
  6
CONTINUOUS
370
    -3
390
9868
  0
ENDTAB
  0
TABLE
  2
STYLE
  5
948D
330
0
100
AcDbSymbolTable
 70
     1
  0
STYLE
  5
949B
330
948D
100
AcDbSymbolTableRecord
100
AcDbTextStyleTableRecord
  2
STANDARD
 70
     0
 40
0.0
 41
1.0
 50
0.0
 71
     0
 42
5.0
  3
txt
  4

  0
ENDTAB
  0
TABLE
  2
VIEW
  5
9490
330
0
100
AcDbSymbolTable
 70
     0
  0
ENDTAB
  0
TABLE
  2
UCS
  5
9491
330
0
100
AcDbSymbolTable
 70
     0
  0
ENDTAB
  0
TABLE
  2
APPID
  5
9493
330
0
100
AcDbSymbolTable
 70
     3
  0
APPID
  5
949C
330
9493
100
AcDbSymbolTableRecord
100
AcDbRegAppTableRecord
  2
ACAD
 70
     0
  0
APPID
  5
98D4
330
9493
100
AcDbSymbolTableRecord
100
AcDbRegAppTableRecord
  2
ACAD_NAV_VCDISPLAY
 70
     0
  0
APPID
  5
990D
330
9493
100
AcDbSymbolTableRecord
100
AcDbRegAppTableRecord
  2
ACAD_MLEADERVER
 70
     0
  0
ENDTAB
  0
TABLE
  2
DIMSTYLE
  5
9494
330
0
100
AcDbSymbolTable
 70
     1
100
AcDbDimStyleTable
 71
     0
  0
DIMSTYLE
105
94B8
330
9494
100
AcDbSymbolTableRecord
100
AcDbDimStyleTableRecord
  2
STANDARD
 70
     0
 41
3.0
 42
1.0
 43
10.0
 44
1.0
 73
     0
 74
     0
 77
     3
 78
     8
140
3.2
141
0.0
147
1.0
172
     1
173
     1
284
     8
285
     8
286
     8
340
949B
  0
ENDTAB
  0
TABLE
  2
BLOCK_RECORD
  5
948B
330
0
100
AcDbSymbolTable
 70
     0
  0
BLOCK_RECORD
  5
94A8
102
{ACAD_XDICTIONARY
360
9862
102
}
330
948B
100
AcDbSymbolTableRecord
100
AcDbBlockTableRecord
  2
*MODEL_SPACE
340
98B6
  0
BLOCK_RECORD
  5
94A4
102
{ACAD_XDICTIONARY
360
9860
102
}
330
948B
100
AcDbSymbolTableRecord
100
AcDbBlockTableRecord
  2
*PAPER_SPACE
340
98B7
  0
ENDTAB
  0
ENDSEC
  0
SECTION
  2
BLOCKS
  0
BLOCK
  5
94A9
330
94A8
100
AcDbEntity
  8
0
100
AcDbBlockBegin
  2
*MODEL_SPACE
 70
     0
 10
0.0
 20
0.0
 30
0.0
  3
*MODEL_SPACE
  1

  0
ENDBLK
  5
94AA
330
94A8
100
AcDbEntity
  8
0
100
AcDbBlockEnd
  0
BLOCK
  5
94A5
330
94A4
100
AcDbEntity
 67
     1
  8
0
100
AcDbBlockBegin
  2
*PAPER_SPACE
 70
     0
 10
0.0
 20
0.0
 30
0.0
  3
*PAPER_SPACE
  1

  0
ENDBLK
  5
94A6
330
94A4
100
AcDbEntity
 67
     1
  8
0
100
AcDbBlockEnd
  0
ENDSEC
  0
SECTION
  2
ENTITIES
  0
TEXT
  5
94C0
330
94A8
100
AcDbEntity
  8
7
  6
Continuous
100
AcDbText
 10
10.0
 20
18.0
 30
0.0
 40
3.0
  1
TYPE No.THA-412B-2K
100
AcDbText
  0
TEXT
  5
94C1
330
94A8
100
AcDbEntity
  8
7
  6
Continuous
100
AcDbText
 10
10.0
 20
26.0
 30
0.0
 40
3.0
  1
CODE No.3373
100
AcDbText
  0
TEXT
  5
94C2
330
94A8
100
AcDbEntity
  8
1
  6
Continuous
100
AcDbText
 10
10.0
 20
10.0
 30
0.0
 40
1.399999999999999
  1
LAYER
100
AcDbText
  0
TEXT
  5
94C3
330
94A8
100
AcDbEntity
  8
1
  6
Continuous
100
AcDbText
 10
17.97951099999998
 20
10.04873699999998
 30
0.0
 40
1.399999999999999
  1
1
100
AcDbText
  0
TEXT
  5
94C4
330
94A8
100
AcDbEntity
  8
7
  6
Continuous
100
AcDbText
 10
29.97951099999999
 20
10.04873699999998
 30
0.0
 40
1.399999999999999
  1
7
100
AcDbText
  0
TEXT
  5
94C5
330
94A8
100
AcDbEntity
  8
4
  6
CENTER
100
AcDbText
 10
23.97951099999999
 20
10.04873699999998
 30
0.0
 40
1.399999999999999
  1
4
100
AcDbText
  0
TEXT
  5
94C6
330
94A8
100
AcDbEntity
  8
3
  6
DASHED
100
AcDbText
 10
21.979511
 20
10.04873699999998
 30
0.0
 40
1.399999999999999
  1
3
100
AcDbText
  0
TEXT
  5
94C7
330
94A8
100
AcDbEntity
  8
2
  6
Continuous
100
AcDbText
 10
19.97951099999999
 20
10.04873699999998
 30
0.0
 40
1.399999999999999
  1
2
100
AcDbText
  0
TEXT
  5
94C8
330
94A8
100
AcDbEntity
  8
6
  6
Continuous
100
AcDbText
 10
27.979511
 20
10.04873699999998
 30
0.0
 40
1.399999999999999
  1
6
100
AcDbText
  0
TEXT
  5
94C9
330
94A8
100
AcDbEntity
  8
5
  6
PHANTOM
100
AcDbText
 10
25.97951099999999
 20
10.04873699999998
 30
0.0
 40
1.399999999999999
  1
5
100
AcDbText
  0
LINE
  5
94CA
330
94A8
100
AcDbEntity
  8
1
  6
Continuous
100
AcDbLine
 10
20.953395
 20
183.792165
 30
0.0
 11
52.95339499999999
 21
183.792165
 31
0.0
  0
LINE
  5
94CB
330
94A8
100
AcDbEntity
  8
4
  6
CENTER
100
AcDbLine
 10
36.95339500000001
 20
191.1271649999999
 30
0.0
 11
36.953395
 21
33.028865
 31
0.0
  0
LINE
  5
94CC
330
94A8
100
AcDbEntity
  8
1
  6
Continuous
100
AcDbLine
 10
16.953395
 20
179.7921649999999
 30
0.0
 11
16.953395
 21
45.791865
 31
0.0
  0
LINE
  5
94CD
330
94A8
100
AcDbEntity
  8
1
  6
Continuous
100
AcDbLine
 10
56.95339499999999
 20
179.7921649999999
 30
0.0
 11
56.95339499999999
 21
45.791865
 31
0.0
  0
LINE
  5
94CE
330
94A8
100
AcDbEntity
  8
1
  6
Continuous
100
AcDbLine
 10
20.953395
 20
41.791865
 30
0.0
 11
52.95339499999999
 21
41.791865
 31
0.0
  0
LINE
  5
94CF
330
94A8
100
AcDbEntity
  8
1
  6
Continuous
100
AcDbLine
 10
188.583395
 20
183.792165
 30
0.0
 11
192.083395
 21
183.792165
 31
0.0
  0
LINE
  5
94D0
330
94A8
100
AcDbEntity
  8
1
  6
Continuous
100
AcDbLine
 10
188.583395
 20
41.791865
 30
0.0
 11
192.083395
 21
41.791865
 31
0.0
  0
LINE
  5
94D1
330
94A8
100
AcDbEntity
  8
1
  6
Continuous
100
AcDbLine
 10
188.583395
 20
183.792165
 30
0.0
 11
188.583395
 21
41.791865
 31
0.0
  0
LINE
  5
94D2
330
94A8
100
AcDbEntity
  8
1
  6
Continuous
100
AcDbLine
 10
191.0833949999999
 20
183.792165
 30
0.0
 11
191.0833949999999
 21
41.791865
 31
0.0
  0
LINE
  5
94D3
330
94A8
100
AcDbEntity
  8
1
  6
Continuous
100
AcDbLine
 10
188.583395
 20
183.792165
 30
0.0
 11
186.0833949999999
 21
179.2921649999999
 31
0.0
  0
LINE
  5
94D4
330
94A8
100
AcDbEntity
  8
1
  6
Continuous
100
AcDbLine
 10
186.0833949999999
 20
46.291865
 30
0.0
 11
188.583395
 21
41.791865
 31
0.0
  0
LINE
  5
94D5
330
94A8
100
AcDbEntity
  8
1
  6
Continuous
100
AcDbLine
 10
192.083395
 20
178.7921649999999
 30
0.0
 11
193.083395
 21
178.7921649999999
 31
0.0
  0
LINE
  5
94D6
330
94A8
100
AcDbEntity
  8
1
  6
Continuous
100
AcDbLine
 10
192.083395
 20
46.791865
 30
0.0
 11
211.083395
 21
46.791865
 31
0.0
  0
LINE
  5
94D7
330
94A8
100
AcDbEntity
  8
4
  6
CENTER
100
AcDbLine
 10
9.766394999999999
 20
160.7921949999999
 30
0.0
 11
128.2723949999999
 21
160.7921949999999
 31
0.0
  0
LINE
  5
94D8
330
94A8
100
AcDbEntity
  8
4
  6
CENTER
100
AcDbLine
 10
180.984395
 20
160.7921949999999
 30
0.0
 11
211.824395
 21
160.7921949999999
 31
0.0
  0
LINE
  5
94D9
330
94A8
100
AcDbEntity
  8
5
  6
PHANTOM
100
AcDbLine
 10
25.430395
 20
149.6921949999999
 30
0.0
 11
48.477395
 21
149.6921949999999
 31
0.0
  0
LINE
  5
94DA
330
94A8
100
AcDbEntity
  8
5
  6
PHANTOM
100
AcDbLine
 10
25.430395
 20
171.8921649999998
 30
0.0
 11
48.477395
 21
171.8921649999998
 31
0.0
  0
LINE
  5
94DB
330
94A8
100
AcDbEntity
  8
1
  6
Continuous
100
AcDbLine
 10
25.553395
 20
179.2921649999999
 30
0.0
 11
48.35339499999999
 21
179.2921649999999
 31
0.0
  0
LINE
  5
94DC
330
94A8
100
AcDbEntity
  8
1
  6
Continuous
100
AcDbLine
 10
212.083395
 20
77.79216499999998
 30
0.0
 11
212.083395
 21
47.791865
 31
0.0
  0
LINE
  5
94DD
330
94A8
100
AcDbEntity
  8
1
  6
Continuous
100
AcDbLine
 10
205.0833949999999
 20
78.79216499999998
 30
0.0
 11
211.083395
 21
78.79216499999998
 31
0.0
  0
LINE
  5
94DE
330
94A8
100
AcDbEntity
  8
1
  6
Continuous
100
AcDbLine
 10
204.083395
 20
91.792165
 30
0.0
 11
204.083395
 21
79.79216499999998
 31
0.0
  0
LINE
  5
94DF
330
94A8
100
AcDbEntity
  8
1
  6
Continuous
100
AcDbLine
 10
198.5833949999999
 20
92.792165
 30
0.0
 11
203.0833949999998
 21
92.792165
 31
0.0
  0
LINE
  5
94E0
330
94A8
100
AcDbEntity
  8
1
  6
Continuous
100
AcDbLine
 10
197.5833949999999
 20
148.295785
 30
0.0
 11
197.5833949999999
 21
93.792165
 31
0.0
  0
LINE
  5
94E1
330
94A8
100
AcDbEntity
  8
1
  6
Continuous
100
AcDbLine
 10
194.083395
 20
177.7921649999999
 30
0.0
 11
194.083395
 21
177.2921649999999
 31
0.0
  0
LINE
  5
94E2
330
94A8
100
AcDbEntity
  8
1
  6
Continuous
100
AcDbLine
 10
204.483395
 20
170.227801
 30
0.0
 11
204.483395
 21
149.742195
 31
0.0
  0
LINE
  5
94E3
330
94A8
100
AcDbEntity
  8
1
  6
Continuous
100
AcDbLine
 10
206.383395
 20
174.2921649999999
 30
0.0
 11
206.383395
 21
169.9957649999998
 31
0.0
  0
LINE
  5
94E4
330
94A8
100
AcDbEntity
  8
1
  6
Continuous
100
AcDbLine
 10
194.083395
 20
177.2921649999999
 30
0.0
 11
202.083395
 21
177.2921649999999
 31
0.0
  0
LINE
  5
94E5
330
94A8
100
AcDbEntity
  8
1
  6
Continuous
100
AcDbLine
 10
371.813495
 20
183.792165
 30
0.0
 11
339.8135149999998
 21
183.792165
 31
0.0
  0
LINE
  5
94E6
330
94A8
100
AcDbEntity
  8
4
  6
CENTER
100
AcDbLine
 10
355.8134949999999
 20
191.1271649999999
 30
0.0
 11
355.8134949999999
 21
33.028865
 31
0.0
  0
LINE
  5
94E7
330
94A8
100
AcDbEntity
  8
1
  6
Continuous
100
AcDbLine
 10
375.813495
 20
179.7921649999999
 30
0.0
 11
375.813495
 21
142.5282649999998
 31
0.0
  0
LINE
  5
94E8
330
94A8
100
AcDbEntity
  8
1
  6
Continuous
100
AcDbLine
 10
335.8135149999998
 20
179.7921649999999
 30
0.0
 11
335.8135149999998
 21
142.5282649999998
 31
0.0
  0
LINE
  5
94E9
330
94A8
100
AcDbEntity
  8
1
  6
Continuous
100
AcDbLine
 10
371.813495
 20
41.791865
 30
0.0
 11
339.8135149999998
 21
41.791865
 31
0.0
  0
LINE
  5
94EA
330
94A8
100
AcDbEntity
  8
4
  6
CENTER
100
AcDbLine
 10
381.0346949999998
 20
160.7921949999999
 30
0.0
 11
329.090295
 21
160.7921949999999
 31
0.0
  0
LINE
  5
94EB
330
94A8
100
AcDbEntity
  8
1
  6
Continuous
100
AcDbLine
 10
372.3134949999999
 20
173.7921649999999
 30
0.0
 11
372.3134949999999
 21
143.2921649999999
 31
0.0
  0
LINE
  5
94EC
330
94A8
100
AcDbEntity
  8
1
  6
Continuous
100
AcDbLine
 10
339.3135149999999
 20
173.7921649999999
 30
0.0
 11
339.3135149999999
 21
143.2921649999999
 31
0.0
  0
LINE
  5
94ED
330
94A8
100
AcDbEntity
  8
1
  6
Continuous
100
AcDbLine
 10
367.3134950000001
 20
178.7921649999999
 30
0.0
 11
344.3135149999998
 21
178.7921649999999
 31
0.0
  0
LINE
  5
94EE
330
94A8
100
AcDbEntity
  8
1
  6
Continuous
100
AcDbLine
 10
367.3134950000001
 20
46.791865
 30
0.0
 11
344.3135149999998
 21
46.791865
 31
0.0
  0
LINE
  5
94EF
330
94A8
100
AcDbEntity
  8
1
  6
Continuous
100
AcDbLine
 10
360.8134950000001
 20
169.4524649999999
 30
0.0
 11
362.8134949999999
 21
172.9165649999999
 31
0.0
  0
LINE
  5
94F0
330
94A8
100
AcDbEntity
  8
1
  6
Continuous
100
AcDbLine
 10
350.788515
 20
169.4957649999998
 30
0.0
 11
348.813515
 21
172.9165649999999
 31
0.0
  0
LINE
  5
94F1
330
94A8
100
AcDbEntity
  8
1
  6
Continuous
100
AcDbLine
 10
203.0833949999998
 20
174.7921649999999
 30
0.0
 11
205.8833949999999
 21
174.7921649999999
 31
0.0
  0
LINE
  5
94F2
330
94A8
100
AcDbEntity
  8
1
  6
Continuous
100
AcDbLine
 10
203.0833949999998
 20
172.9165649999999
 30
0.0
 11
206.383395
 21
172.9165649999999
 31
0.0
  0
LINE
  5
94F3
330
94A8
100
AcDbEntity
  8
1
  6
Continuous
100
AcDbLine
 10
204.483395
 20
169.4957649999998
 30
0.0
 11
205.8833949999999
 21
169.4957649999998
 31
0.0
  0
LINE
  5
94F4
330
94A8
100
AcDbEntity
  8
1
  6
Continuous
100
AcDbLine
 10
348.7424449999999
 20
160.7921949999999
 30
0.0
 11
355.8134949999999
 21
153.721132
 31
0.0
  0
LINE
  5
94F5
330
94A8
100
AcDbEntity
  8
1
  6
Continuous
100
AcDbLine
 10
355.8134949999999
 20
167.8632649999999
 30
0.0
 11
362.884595
 21
160.7922049999999
 31
0.0
  0
LINE
  5
94F6
330
94A8
100
AcDbEntity
  8
1
  6
Continuous
100
AcDbLine
 10
362.884595
 20
160.7922049999999
 30
0.0
 11
355.8134949999999
 21
153.721132
 31
0.0
  0
LINE
  5
94F7
330
94A8
100
AcDbEntity
  8
1
  6
Continuous
100
AcDbLine
 10
355.8134949999999
 20
167.8632649999999
 30
0.0
 11
348.7424449999999
 21
160.7921949999999
 31
0.0
  0
LINE
  5
94F8
330
94A8
100
AcDbEntity
  8
5
  6
PHANTOM
100
AcDbLine
 10
33.34739499999999
 20
150.192195
 30
0.0
 11
33.34739499999999
 21
171.3921649999998
 31
0.0
  0
LINE
  5
94F9
330
94A8
100
AcDbEntity
  8
1
  6
Continuous
100
AcDbLine
 10
356.8698949999999
 20
99.73586500000001
 30
0.0
 11
356.8848949999999
 21
99.74386500000001
 31
0.0
  0
LINE
  5
94FA
330
94A8
100
AcDbEntity
  8
1
  6
Continuous
100
AcDbLine
 10
356.884995
 20
99.74386500000001
 30
0.0
 11
358.795495
 21
99.77716499999999
 31
0.0
  0
LINE
  5
94FB
330
94A8
100
AcDbEntity
  8
1
  6
Continuous
100
AcDbLine
 10
356.8698949999999
 20
101.8485649999999
 30
0.0
 11
356.8848949999999
 21
101.840565
 31
0.0
  0
LINE
  5
94FC
330
94A8
100
AcDbEntity
  8
1
  6
Continuous
100
AcDbLine
 10
356.8848949999999
 20
101.840565
 30
0.0
 11
358.795495
 21
101.8071649999999
 31
0.0
  0
LINE
  5
94FD
330
94A8
100
AcDbEntity
  8
1
  6
Continuous
100
AcDbLine
 10
354.7571549999998
 20
101.8485649999999
 30
0.0
 11
354.7651649999999
 21
101.8636649999999
 31
0.0
  0
LINE
  5
94FE
330
94A8
100
AcDbEntity
  8
1
  6
Continuous
100
AcDbLine
 10
354.7651649999999
 20
101.8636649999999
 30
0.0
 11
354.798515
 21
103.774165
 31
0.0
  0
LINE
  5
94FF
330
94A8
100
AcDbEntity
  8
1
  6
Continuous
100
AcDbLine
 10
356.861895
 20
101.8636649999999
 30
0.0
 11
356.8284949999999
 21
103.774165
 31
0.0
  0
LINE
  5
9500
330
94A8
100
AcDbEntity
  8
1
  6
Continuous
100
AcDbLine
 10
356.8698949999999
 20
101.8485649999999
 30
0.0
 11
356.861895
 21
101.8636649999999
 31
0.0
  0
LINE
  5
9501
330
94A8
100
AcDbEntity
  8
1
  6
Continuous
100
AcDbLine
 10
354.757165
 20
99.73586500000001
 30
0.0
 11
354.742095
 21
99.74386500000001
 31
0.0
  0
LINE
  5
9502
330
94A8
100
AcDbEntity
  8
1
  6
Continuous
100
AcDbLine
 10
354.742095
 20
99.74386500000001
 30
0.0
 11
352.8315249999999
 21
99.77716499999999
 31
0.0
  0
LINE
  5
9503
330
94A8
100
AcDbEntity
  8
1
  6
Continuous
100
AcDbLine
 10
354.742105
 20
101.840565
 30
0.0
 11
352.8315149999999
 21
101.8071649999999
 31
0.0
  0
LINE
  5
9504
330
94A8
100
AcDbEntity
  8
1
  6
Continuous
100
AcDbLine
 10
354.7571549999998
 20
101.8485649999999
 30
0.0
 11
354.742095
 21
101.840565
 31
0.0
  0
LINE
  5
9505
330
94A8
100
AcDbEntity
  8
1
  6
Continuous
100
AcDbLine
 10
356.8698949999999
 20
99.73586500000001
 30
0.0
 11
356.861895
 21
99.720765
 31
0.0
  0
LINE
  5
9506
330
94A8
100
AcDbEntity
  8
1
  6
Continuous
100
AcDbLine
 10
356.861895
 20
99.720765
 30
0.0
 11
356.8284949999999
 21
97.81016499999999
 31
0.0
  0
LINE
  5
9507
330
94A8
100
AcDbEntity
  8
1
  6
Continuous
100
AcDbLine
 10
354.7651649999999
 20
99.720765
 30
0.0
 11
354.798515
 21
97.81016499999999
 31
0.0
  0
LINE
  5
9508
330
94A8
100
AcDbEntity
  8
1
  6
Continuous
100
AcDbLine
 10
354.7571549999998
 20
99.73586500000001
 30
0.0
 11
354.7651649999999
 21
99.720765
 31
0.0
  0
LINE
  5
9509
330
94A8
100
AcDbEntity
  8
1
  6
Continuous
100
AcDbLine
 10
356.8698949999999
 20
127.7358649999999
 30
0.0
 11
356.8848949999999
 21
127.7438649999999
 31
0.0
  0
LINE
  5
950A
330
94A8
100
AcDbEntity
  8
1
  6
Continuous
100
AcDbLine
 10
356.884995
 20
127.7438649999999
 30
0.0
 11
358.795495
 21
127.777165
 31
0.0
  0
LINE
  5
950B
330
94A8
100
AcDbEntity
  8
1
  6
Continuous
100
AcDbLine
 10
356.8698949999999
 20
129.8485649999998
 30
0.0
 11
356.8848949999999
 21
129.840565
 31
0.0
  0
LINE
  5
950C
330
94A8
100
AcDbEntity
  8
1
  6
Continuous
100
AcDbLine
 10
356.8848949999999
 20
129.840565
 30
0.0
 11
358.795495
 21
129.807165
 31
0.0
  0
LINE
  5
950D
330
94A8
100
AcDbEntity
  8
1
  6
Continuous
100
AcDbLine
 10
354.7571549999998
 20
129.8485649999998
 30
0.0
 11
354.7651649999999
 21
129.8636649999999
 31
0.0
  0
LINE
  5
950E
330
94A8
100
AcDbEntity
  8
1
  6
Continuous
100
AcDbLine
 10
354.7651649999999
 20
129.8636649999999
 30
0.0
 11
354.798515
 21
131.7741649999998
 31
0.0
  0
LINE
  5
950F
330
94A8
100
AcDbEntity
  8
1
  6
Continuous
100
AcDbLine
 10
356.861895
 20
129.8636649999999
 30
0.0
 11
356.8284949999999
 21
131.7741649999998
 31
0.0
  0
LINE
  5
9510
330
94A8
100
AcDbEntity
  8
1
  6
Continuous
100
AcDbLine
 10
356.8698949999999
 20
129.8485649999998
 30
0.0
 11
356.861895
 21
129.8636649999999
 31
0.0
  0
LINE
  5
9511
330
94A8
100
AcDbEntity
  8
1
  6
Continuous
100
AcDbLine
 10
354.757165
 20
127.7358649999999
 30
0.0
 11
354.742095
 21
127.7438649999999
 31
0.0
  0
LINE
  5
9512
330
94A8
100
AcDbEntity
  8
1
  6
Continuous
100
AcDbLine
 10
354.742095
 20
127.7438649999999
 30
0.0
 11
352.8315249999999
 21
127.777165
 31
0.0
  0
LINE
  5
9513
330
94A8
100
AcDbEntity
  8
1
  6
Continuous
100
AcDbLine
 10
354.742105
 20
129.840565
 30
0.0
 11
352.8315149999999
 21
129.807165
 31
0.0
  0
LINE
  5
9514
330
94A8
100
AcDbEntity
  8
1
  6
Continuous
100
AcDbLine
 10
354.7571549999998
 20
129.8485649999998
 30
0.0
 11
354.742095
 21
129.840565
 31
0.0
  0
LINE
  5
9515
330
94A8
100
AcDbEntity
  8
1
  6
Continuous
100
AcDbLine
 10
356.8698949999999
 20
127.7358649999999
 30
0.0
 11
356.861895
 21
127.7207649999999
 31
0.0
  0
LINE
  5
9516
330
94A8
100
AcDbEntity
  8
1
  6
Continuous
100
AcDbLine
 10
356.861895
 20
127.7207649999999
 30
0.0
 11
356.8284949999999
 21
125.8101649999999
 31
0.0
  0
LINE
  5
9517
330
94A8
100
AcDbEntity
  8
1
  6
Continuous
100
AcDbLine
 10
354.7651649999999
 20
127.7207649999999
 30
0.0
 11
354.798515
 21
125.8101649999999
 31
0.0
  0
LINE
  5
9518
330
94A8
100
AcDbEntity
  8
1
  6
Continuous
100
AcDbLine
 10
354.7571549999998
 20
127.7358649999999
 30
0.0
 11
354.7651649999999
 21
127.7207649999999
 31
0.0
  0
LINE
  5
9519
330
94A8
100
AcDbEntity
  8
4
  6
CENTER
100
AcDbLine
 10
345.813513
 20
128.7921649999999
 30
0.0
 11
365.8134949999999
 21
128.7921649999999
 31
0.0
  0
LINE
  5
951A
330
94A8
100
AcDbEntity
  8
4
  6
CENTER
100
AcDbLine
 10
345.813513
 20
100.7921649999999
 30
0.0
 11
365.8134949999999
 21
100.7921649999999
 31
0.0
  0
LINE
  5
951B
330
94A8
100
AcDbEntity
  8
1
  6
Continuous
100
AcDbLine
 10
376.8134949999999
 20
140.2921649999998
 30
0.0
 11
376.8134949999999
 21
96.292165
 31
0.0
  0
LINE
  5
951C
330
94A8
100
AcDbEntity
  8
1
  6
Continuous
100
AcDbLine
 10
334.8134949999999
 20
140.2921649999998
 30
0.0
 11
334.8134949999999
 21
96.292165
 31
0.0
  0
LINE
  5
951D
330
94A8
100
AcDbEntity
  8
1
  6
Continuous
100
AcDbLine
 10
337.8135149999998
 20
93.29216499999999
 30
0.0
 11
373.813495
 21
93.29216499999999
 31
0.0
  0
LINE
  5
951E
330
94A8
100
AcDbEntity
  8
1
  6
Continuous
100
AcDbLine
 10
337.8135149999998
 20
143.2921649999999
 30
0.0
 11
342.481225
 21
143.2921649999999
 31
0.0
  0
LINE
  5
951F
330
94A8
100
AcDbEntity
  8
1
  6
Continuous
100
AcDbLine
 10
369.145795
 20
143.2921649999999
 30
0.0
 11
373.813495
 21
143.2921649999999
 31
0.0
  0
LINE
  5
9520
330
94A8
100
AcDbEntity
  8
1
  6
Continuous
100
AcDbLine
 10
335.8135149999998
 20
94.05616499999998
 30
0.0
 11
335.8135149999998
 21
45.791865
 31
0.0
  0
LINE
  5
9521
330
94A8
100
AcDbEntity
  8
1
  6
Continuous
100
AcDbLine
 10
339.3135149999999
 20
93.29216499999999
 30
0.0
 11
339.3135149999999
 21
51.791865
 31
0.0
  0
LINE
  5
9522
330
94A8
100
AcDbEntity
  8
1
  6
Continuous
100
AcDbLine
 10
372.3134949999999
 20
93.29216499999999
 30
0.0
 11
372.3134949999999
 21
51.791865
 31
0.0
  0
LINE
  5
9523
330
94A8
100
AcDbEntity
  8
1
  6
Continuous
100
AcDbLine
 10
375.813495
 20
94.05616499999998
 30
0.0
 11
375.813495
 21
45.791865
 31
0.0
  0
LINE
  5
9524
330
94A8
100
AcDbEntity
  8
1
  6
Continuous
100
AcDbLine
 10
371.613495
 20
143.2921649999999
 30
0.0
 11
371.613495
 21
93.29216499999999
 31
0.0
  0
LINE
  5
9525
330
94A8
100
AcDbEntity
  8
1
  6
Continuous
100
AcDbLine
 10
340.013515
 20
143.2921649999999
 30
0.0
 11
340.013515
 21
93.29216499999999
 31
0.0
  0
LINE
  5
9526
330
94A8
100
AcDbEntity
  8
1
  6
Continuous
100
AcDbLine
 10
276.496395
 20
93.29216499999999
 30
0.0
 11
282.296395
 21
93.29216499999999
 31
0.0
  0
LINE
  5
9527
330
94A8
100
AcDbEntity
  8
1
  6
Continuous
100
AcDbLine
 10
276.496395
 20
143.2921649999999
 30
0.0
 11
282.296395
 21
143.2921649999999
 31
0.0
  0
LINE
  5
9528
330
94A8
100
AcDbEntity
  8
1
  6
Continuous
100
AcDbLine
 10
276.496395
 20
143.2921649999999
 30
0.0
 11
276.496395
 21
93.29216499999999
 31
0.0
  0
LINE
  5
9529
330
94A8
100
AcDbEntity
  8
1
  6
Continuous
100
AcDbLine
 10
278.796395
 20
143.2921649999999
 30
0.0
 11
278.796395
 21
93.29216499999999
 31
0.0
  0
LINE
  5
952A
330
94A8
100
AcDbEntity
  8
1
  6
Continuous
100
AcDbLine
 10
282.296395
 20
143.2921649999999
 30
0.0
 11
282.296395
 21
93.29216499999999
 31
0.0
  0
LINE
  5
952B
330
94A8
100
AcDbEntity
  8
1
  6
Continuous
100
AcDbLine
 10
283.4463949999999
 20
107.7921649999999
 30
0.0
 11
283.4463949999999
 21
93.792165
 31
0.0
  0
LINE
  5
952C
330
94A8
100
AcDbEntity
  8
4
  6
CENTER
100
AcDbLine
 10
289.0733949999999
 20
100.7921649999999
 30
0.0
 11
273.2727949999999
 21
100.7921649999999
 31
0.0
  0
LINE
  5
952D
330
94A8
100
AcDbEntity
  8
1
  6
Continuous
100
AcDbLine
 10
283.8610949999999
 20
93.792165
 30
0.0
 11
283.4463949999999
 21
93.792165
 31
0.0
  0
LINE
  5
952E
330
94A8
100
AcDbEntity
  8
1
  6
Continuous
100
AcDbLine
 10
283.8610949999999
 20
107.7921649999999
 30
0.0
 11
283.4463949999999
 21
107.7921649999999
 31
0.0
  0
LINE
  5
952F
330
94A8
100
AcDbEntity
  8
1
  6
Continuous
100
AcDbLine
 10
283.8610949999999
 20
107.7921649999999
 30
0.0
 11
283.8610949999999
 21
93.792165
 31
0.0
  0
LINE
  5
9530
330
94A8
100
AcDbEntity
  8
1
  6
Continuous
100
AcDbLine
 10
283.4463949999999
 20
107.0421649999999
 30
0.0
 11
282.296395
 21
107.0421649999999
 31
0.0
  0
LINE
  5
9531
330
94A8
100
AcDbEntity
  8
1
  6
Continuous
100
AcDbLine
 10
283.4463949999999
 20
94.54216499999999
 30
0.0
 11
282.296395
 21
94.54216499999999
 31
0.0
  0
LINE
  5
9532
330
94A8
100
AcDbEntity
  8
1
  6
Continuous
100
AcDbLine
 10
283.4463949999999
 20
249.2338649999998
 30
0.0
 11
283.4463949999999
 21
235.2338649999999
 31
0.0
  0
LINE
  5
9533
330
94A8
100
AcDbEntity
  8
4
  6
CENTER
100
AcDbLine
 10
289.0733949999999
 20
128.7921649999999
 30
0.0
 11
273.2727949999999
 21
128.7921649999999
 31
0.0
  0
LINE
  5
9534
330
94A8
100
AcDbEntity
  8
1
  6
Continuous
100
AcDbLine
 10
283.8610949999999
 20
235.2338649999999
 30
0.0
 11
283.4463949999999
 21
235.2338649999999
 31
0.0
  0
LINE
  5
9535
330
94A8
100
AcDbEntity
  8
1
  6
Continuous
100
AcDbLine
 10
283.8610949999999
 20
249.2338649999998
 30
0.0
 11
283.4463949999999
 21
249.2338649999998
 31
0.0
  0
LINE
  5
9536
330
94A8
100
AcDbEntity
  8
1
  6
Continuous
100
AcDbLine
 10
283.8610949999999
 20
249.2338649999998
 30
0.0
 11
283.8610949999999
 21
235.2338649999999
 31
0.0
  0
LINE
  5
9537
330
94A8
100
AcDbEntity
  8
1
  6
Continuous
100
AcDbLine
 10
283.4463949999999
 20
248.4838649999999
 30
0.0
 11
282.296395
 21
248.4838649999999
 31
0.0
  0
LINE
  5
9538
330
94A8
100
AcDbEntity
  8
1
  6
Continuous
100
AcDbLine
 10
283.4463949999999
 20
235.9838649999999
 30
0.0
 11
282.296395
 21
235.9838649999999
 31
0.0
  0
LINE
  5
9539
330
94A8
100
AcDbEntity
  8
1
  6
Continuous
100
AcDbLine
 10
347.153255
 20
155.7921949999999
 30
0.0
 11
344.555185
 21
154.2922
 31
0.0
  0
LINE
  5
953A
330
94A8
100
AcDbEntity
  8
1
  6
Continuous
100
AcDbLine
 10
204.583395
 20
154.2922
 30
0.0
 11
206.583395
 21
154.2922
 31
0.0
  0
LINE
  5
953B
330
94A8
100
AcDbEntity
  8
1
  6
Continuous
100
AcDbLine
 10
204.583395
 20
155.7921949999999
 30
0.0
 11
206.583395
 21
155.7921949999999
 31
0.0
  0
LINE
  5
953C
330
94A8
100
AcDbEntity
  8
1
  6
Continuous
100
AcDbLine
 10
204.583395
 20
147.7921949999999
 30
0.0
 11
206.583395
 21
147.7921949999999
 31
0.0
  0
LINE
  5
953D
330
94A8
100
AcDbEntity
  8
1
  6
Continuous
100
AcDbLine
 10
206.583395
 20
172.0505649999998
 30
0.0
 11
206.583395
 21
147.7921949999999
 31
0.0
  0
LINE
  5
953E
330
94A8
100
AcDbEntity
  8
1
  6
Continuous
100
AcDbLine
 10
206.383395
 20
172.0505649999998
 30
0.0
 11
206.583395
 21
172.0505649999998
 31
0.0
  0
LINE
  5
953F
330
94A8
100
AcDbEntity
  8
1
  6
Continuous
100
AcDbLine
 10
209.5833949999998
 20
249.3048649999999
 30
0.0
 11
209.5833949999998
 21
235.1627649999998
 31
0.0
  0
LINE
  5
9540
330
94A8
100
AcDbEntity
  8
1
  6
Continuous
100
AcDbLine
 10
206.583395
 20
249.3048649999999
 30
0.0
 11
209.5833949999998
 21
249.3048649999999
 31
0.0
  0
LINE
  5
9541
330
94A8
100
AcDbEntity
  8
1
  6
Continuous
100
AcDbLine
 10
206.583395
 20
235.1627649999998
 30
0.0
 11
209.5833949999998
 21
235.1627649999998
 31
0.0
  0
LINE
  5
9542
330
94A8
100
AcDbEntity
  8
1
  6
Continuous
100
AcDbLine
 10
206.583395
 20
242.2338649999999
 30
0.0
 11
209.5833949999998
 21
242.2338649999999
 31
0.0
  0
LINE
  5
9543
330
94A8
100
AcDbEntity
  8
1
  6
Continuous
100
AcDbLine
 10
343.413495
 20
78.79216499999998
 30
0.0
 11
368.213495
 21
78.79216499999998
 31
0.0
  0
LINE
  5
9544
330
94A8
100
AcDbEntity
  8
1
  6
Continuous
100
AcDbLine
 10
343.413495
 20
92.792165
 30
0.0
 11
368.213495
 21
92.792165
 31
0.0
  0
LINE
  5
9545
330
94A8
100
AcDbEntity
  8
1
  6
Continuous
100
AcDbLine
 10
340.313515
 20
78.79216499999998
 30
0.0
 11
342.413495
 21
78.79216499999998
 31
0.0
  0
LINE
  5
9546
330
94A8
100
AcDbEntity
  8
1
  6
Continuous
100
AcDbLine
 10
369.213495
 20
78.79216499999998
 30
0.0
 11
371.3134950000001
 21
78.79216499999998
 31
0.0
  0
LINE
  5
9547
330
94A8
100
AcDbEntity
  8
1
  6
Continuous
100
AcDbLine
 10
364.777495
 20
63.828165
 30
0.0
 11
365.291295
 21
64.05696500000001
 31
0.0
  0
LINE
  5
9548
330
94A8
100
AcDbEntity
  8
1
  6
Continuous
100
AcDbLine
 10
365.291295
 20
64.05696500000001
 30
0.0
 11
365.5929949999999
 21
64.06216500000001
 31
0.0
  0
LINE
  5
9549
330
94A8
100
AcDbEntity
  8
1
  6
Continuous
100
AcDbLine
 10
364.777495
 20
64.756265
 30
0.0
 11
365.291295
 21
64.527465
 31
0.0
  0
LINE
  5
954A
330
94A8
100
AcDbEntity
  8
1
  6
Continuous
100
AcDbLine
 10
365.291295
 20
64.527465
 30
0.0
 11
365.5929949999999
 21
64.522165
 31
0.0
  0
LINE
  5
954B
330
94A8
100
AcDbEntity
  8
1
  6
Continuous
100
AcDbLine
 10
364.078295
 20
65.269965
 30
0.0
 11
364.083495
 21
65.571665
 31
0.0
  0
LINE
  5
954C
330
94A8
100
AcDbEntity
  8
1
  6
Continuous
100
AcDbLine
 10
363.849495
 20
64.756265
 30
0.0
 11
364.078195
 21
65.269965
 31
0.0
  0
LINE
  5
954D
330
94A8
100
AcDbEntity
  8
1
  6
Continuous
100
AcDbLine
 10
364.5487949999999
 20
65.269965
 30
0.0
 11
364.543495
 21
65.571665
 31
0.0
  0
LINE
  5
954E
330
94A8
100
AcDbEntity
  8
1
  6
Continuous
100
AcDbLine
 10
364.777495
 20
64.756265
 30
0.0
 11
364.5487949999999
 21
65.270065
 31
0.0
  0
LINE
  5
954F
330
94A8
100
AcDbEntity
  8
1
  6
Continuous
100
AcDbLine
 10
363.335695
 20
64.05696500000001
 30
0.0
 11
363.033995
 21
64.06216500000001
 31
0.0
  0
LINE
  5
9550
330
94A8
100
AcDbEntity
  8
1
  6
Continuous
100
AcDbLine
 10
363.849495
 20
63.828165
 30
0.0
 11
363.335695
 21
64.05696500000001
 31
0.0
  0
LINE
  5
9551
330
94A8
100
AcDbEntity
  8
1
  6
Continuous
100
AcDbLine
 10
363.335695
 20
64.527465
 30
0.0
 11
363.033995
 21
64.522165
 31
0.0
  0
LINE
  5
9552
330
94A8
100
AcDbEntity
  8
1
  6
Continuous
100
AcDbLine
 10
363.849495
 20
64.756265
 30
0.0
 11
363.335695
 21
64.527465
 31
0.0
  0
LINE
  5
9553
330
94A8
100
AcDbEntity
  8
1
  6
Continuous
100
AcDbLine
 10
364.5487949999999
 20
63.314365
 30
0.0
 11
364.543495
 21
63.012665
 31
0.0
  0
LINE
  5
9554
330
94A8
100
AcDbEntity
  8
1
  6
Continuous
100
AcDbLine
 10
364.777495
 20
63.828165
 30
0.0
 11
364.5487949999999
 21
63.314365
 31
0.0
  0
LINE
  5
9555
330
94A8
100
AcDbEntity
  8
1
  6
Continuous
100
AcDbLine
 10
364.078295
 20
63.314365
 30
0.0
 11
364.083495
 21
63.012665
 31
0.0
  0
LINE
  5
9556
330
94A8
100
AcDbEntity
  8
1
  6
Continuous
100
AcDbLine
 10
363.849495
 20
63.828165
 30
0.0
 11
364.078295
 21
63.314365
 31
0.0
  0
LINE
  5
9557
330
94A8
100
AcDbEntity
  8
4
  6
CENTER
100
AcDbLine
 10
361.3562949999999
 20
64.29216499999999
 30
0.0
 11
367.287695
 21
64.29216499999999
 31
0.0
  0
LINE
  5
9558
330
94A8
100
AcDbEntity
  8
4
  6
CENTER
100
AcDbLine
 10
364.3134949999999
 20
67.42736500000001
 30
0.0
 11
364.3134949999999
 21
61.287865
 31
0.0
  0
LINE
  5
9559
330
94A8
100
AcDbEntity
  8
1
  6
Continuous
100
AcDbLine
 10
347.7775349999998
 20
63.828165
 30
0.0
 11
348.2913249999999
 21
64.05696500000001
 31
0.0
  0
LINE
  5
955A
330
94A8
100
AcDbEntity
  8
1
  6
Continuous
100
AcDbLine
 10
348.291335
 20
64.05696500000001
 30
0.0
 11
348.593005
 21
64.06216500000001
 31
0.0
  0
LINE
  5
955B
330
94A8
100
AcDbEntity
  8
1
  6
Continuous
100
AcDbLine
 10
347.7775349999998
 20
64.756265
 30
0.0
 11
348.291335
 21
64.527465
 31
0.0
  0
LINE
  5
955C
330
94A8
100
AcDbEntity
  8
1
  6
Continuous
100
AcDbLine
 10
348.291335
 20
64.527465
 30
0.0
 11
348.593005
 21
64.522165
 31
0.0
  0
LINE
  5
955D
330
94A8
100
AcDbEntity
  8
1
  6
Continuous
100
AcDbLine
 10
347.0782549999999
 20
65.269965
 30
0.0
 11
347.0835149999999
 21
65.571665
 31
0.0
  0
LINE
  5
955E
330
94A8
100
AcDbEntity
  8
1
  6
Continuous
100
AcDbLine
 10
346.849485
 20
64.756265
 30
0.0
 11
347.0782449999999
 21
65.270065
 31
0.0
  0
LINE
  5
955F
330
94A8
100
AcDbEntity
  8
1
  6
Continuous
100
AcDbLine
 10
347.548785
 20
65.269965
 30
0.0
 11
347.543515
 21
65.571665
 31
0.0
  0
LINE
  5
9560
330
94A8
100
AcDbEntity
  8
1
  6
Continuous
100
AcDbLine
 10
347.7775349999998
 20
64.756265
 30
0.0
 11
347.5487749999999
 21
65.269965
 31
0.0
  0
LINE
  5
9561
330
94A8
100
AcDbEntity
  8
1
  6
Continuous
100
AcDbLine
 10
346.3357049999999
 20
64.05696500000001
 30
0.0
 11
346.0340289999999
 21
64.06216500000001
 31
0.0
  0
LINE
  5
9562
330
94A8
100
AcDbEntity
  8
1
  6
Continuous
100
AcDbLine
 10
346.849485
 20
63.828165
 30
0.0
 11
346.3357049999999
 21
64.05696500000001
 31
0.0
  0
LINE
  5
9563
330
94A8
100
AcDbEntity
  8
1
  6
Continuous
100
AcDbLine
 10
346.3357029999999
 20
64.527465
 30
0.0
 11
346.034028
 21
64.522165
 31
0.0
  0
LINE
  5
9564
330
94A8
100
AcDbEntity
  8
1
  6
Continuous
100
AcDbLine
 10
346.849495
 20
64.756265
 30
0.0
 11
346.3357009999999
 21
64.527465
 31
0.0
  0
LINE
  5
9565
330
94A8
100
AcDbEntity
  8
1
  6
Continuous
100
AcDbLine
 10
347.548785
 20
63.314365
 30
0.0
 11
347.543515
 21
63.012665
 31
0.0
  0
LINE
  5
9566
330
94A8
100
AcDbEntity
  8
1
  6
Continuous
100
AcDbLine
 10
347.7775349999998
 20
63.828165
 30
0.0
 11
347.5487749999999
 21
63.314365
 31
0.0
  0
LINE
  5
9567
330
94A8
100
AcDbEntity
  8
1
  6
Continuous
100
AcDbLine
 10
347.0782549999999
 20
63.314365
 30
0.0
 11
347.0835149999999
 21
63.012665
 31
0.0
  0
LINE
  5
9568
330
94A8
100
AcDbEntity
  8
1
  6
Continuous
100
AcDbLine
 10
346.849495
 20
63.828165
 30
0.0
 11
347.0782449999999
 21
63.314365
 31
0.0
  0
LINE
  5
9569
330
94A8
100
AcDbEntity
  8
4
  6
CENTER
100
AcDbLine
 10
344.356315
 20
64.29216499999999
 30
0.0
 11
350.2877449999999
 21
64.29216499999999
 31
0.0
  0
LINE
  5
956A
330
94A8
100
AcDbEntity
  8
4
  6
CENTER
100
AcDbLine
 10
347.313515
 20
67.42736500000001
 30
0.0
 11
347.313515
 21
61.287865
 31
0.0
  0
LINE
  5
956B
330
94A8
100
AcDbEntity
  8
1
  6
Continuous
100
AcDbLine
 10
25.953395
 20
46.291865
 30
0.0
 11
47.95339499999999
 21
46.291865
 31
0.0
  0
LINE
  5
956C
330
94A8
100
AcDbEntity
  8
1
  6
Continuous
100
AcDbLine
 10
47.95339499999999
 20
75.79216499999998
 30
0.0
 11
47.95339499999999
 21
42.791865
 31
0.0
  0
LINE
  5
956D
330
94A8
100
AcDbEntity
  8
1
  6
Continuous
100
AcDbLine
 10
25.953395
 20
75.79216499999998
 30
0.0
 11
25.953395
 21
42.791865
 31
0.0
  0
LINE
  5
956E
330
94A8
100
AcDbEntity
  8
1
  6
Continuous
100
AcDbLine
 10
26.953395
 20
76.79216499999999
 30
0.0
 11
46.953395
 21
76.79216499999999
 31
0.0
  0
LINE
  5
956F
330
94A8
100
AcDbEntity
  8
4
  6
CENTER
100
AcDbLine
 10
26.953395
 20
66.79216499999999
 30
0.0
 11
46.953395
 21
66.79216499999999
 31
0.0
  0
LINE
  5
9570
330
94A8
100
AcDbEntity
  8
1
  6
Continuous
100
AcDbLine
 10
35.90339500000001
 20
70.292165
 30
0.0
 11
35.90339500000001
 21
63.29216500000001
 31
0.0
  0
LINE
  5
9571
330
94A8
100
AcDbEntity
  8
1
  6
Continuous
100
AcDbLine
 10
38.00339499999999
 20
70.292165
 30
0.0
 11
38.00339499999999
 21
63.29216500000001
 31
0.0
  0
LINE
  5
9572
330
94A8
100
AcDbEntity
  8
1
  6
Continuous
100
AcDbLine
 10
35.90339500000001
 20
70.292165
 30
0.0
 11
38.00339499999999
 21
70.292165
 31
0.0
  0
LINE
  5
9573
330
94A8
100
AcDbEntity
  8
1
  6
Continuous
100
AcDbLine
 10
35.90339500000001
 20
63.29216500000001
 30
0.0
 11
38.00339499999999
 21
63.29216500000001
 31
0.0
  0
LINE
  5
9574
330
94A8
100
AcDbEntity
  8
1
  6
Continuous
100
AcDbLine
 10
184.583395
 20
46.291865
 30
0.0
 11
186.0833949999999
 21
46.291865
 31
0.0
  0
LINE
  5
9575
330
94A8
100
AcDbEntity
  8
1
  6
Continuous
100
AcDbLine
 10
25.953395
 20
57.42656499999998
 30
0.0
 11
47.95339499999999
 21
57.42656499999998
 31
0.0
  0
LINE
  5
9576
330
94A8
100
AcDbEntity
  8
1
  6
Continuous
100
AcDbLine
 10
186.0833949999999
 20
57.42656499999998
 30
0.0
 11
183.5833949999999
 21
47.29186499999999
 31
0.0
  0
LINE
  5
9577
330
94A8
100
AcDbEntity
  8
1
  6
Continuous
100
AcDbLine
 10
25.953395
 20
57.42656499999998
 30
0.0
 11
36.953395
 21
46.291865
 31
0.0
  0
LINE
  5
9578
330
94A8
100
AcDbEntity
  8
1
  6
Continuous
100
AcDbLine
 10
47.95339499999999
 20
57.42656499999998
 30
0.0
 11
36.953395
 21
46.291865
 31
0.0
  0
LINE
  5
9579
330
94A8
100
AcDbEntity
  8
5
  6
PHANTOM
100
AcDbLine
 10
33.547395
 20
149.792195
 30
0.0
 11
117.9533949999999
 21
149.792195
 31
0.0
  0
LINE
  5
957A
330
94A8
100
AcDbEntity
  8
5
  6
PHANTOM
100
AcDbLine
 10
33.547395
 20
171.7921649999999
 30
0.0
 11
117.9533949999999
 21
171.7921649999999
 31
0.0
  0
LINE
  5
957B
330
94A8
100
AcDbEntity
  8
5
  6
PHANTOM
100
AcDbLine
 10
120.453395
 20
152.2921949999999
 30
0.0
 11
120.453395
 21
169.2921649999999
 31
0.0
  0
LINE
  5
957C
330
94A8
100
AcDbEntity
  8
1
  6
Continuous
100
AcDbLine
 10
186.0833949999999
 20
253.6338649999999
 30
0.0
 11
186.0833949999999
 21
230.833865
 31
0.0
  0
LINE
  5
957D
330
94A8
100
AcDbEntity
  8
1
  6
Continuous
100
AcDbLine
 10
188.583395
 20
262.2338649999999
 30
0.0
 11
188.583395
 21
222.2338649999998
 31
0.0
  0
LINE
  5
957E
330
94A8
100
AcDbEntity
  8
1
  6
Continuous
100
AcDbLine
 10
191.0833949999999
 20
262.2338649999999
 30
0.0
 11
191.0833949999999
 21
222.2338649999998
 31
0.0
  0
LINE
  5
957F
330
94A8
100
AcDbEntity
  8
4
  6
CENTER
100
AcDbLine
 10
178.954395
 20
242.2338649999999
 30
0.0
 11
217.919395
 21
242.2338649999999
 31
0.0
  0
LINE
  5
9580
330
94A8
100
AcDbEntity
  8
1
  6
Continuous
100
AcDbLine
 10
188.583395
 20
222.2338649999998
 30
0.0
 11
192.083395
 21
222.2338649999998
 31
0.0
  0
LINE
  5
9581
330
94A8
100
AcDbEntity
  8
1
  6
Continuous
100
AcDbLine
 10
188.583395
 20
262.2338649999999
 30
0.0
 11
192.083395
 21
262.2338649999999
 31
0.0
  0
LINE
  5
9582
330
94A8
100
AcDbEntity
  8
1
  6
Continuous
100
AcDbLine
 10
48.35339499999999
 20
179.2921649999999
 30
0.0
 11
48.35339499999999
 21
172.0189649999998
 31
0.0
  0
LINE
  5
9583
330
94A8
100
AcDbEntity
  8
1
  6
Continuous
100
AcDbLine
 10
25.553395
 20
179.2921649999999
 30
0.0
 11
25.553395
 21
172.0189649999998
 31
0.0
  0
LINE
  5
9584
330
94A8
100
AcDbEntity
  8
1
  6
Continuous
100
AcDbLine
 10
53.88039499999999
 20
182.183965
 30
0.0
 11
48.35339499999999
 21
179.2921649999999
 31
0.0
  0
LINE
  5
9585
330
94A8
100
AcDbEntity
  8
1
  6
Continuous
100
AcDbLine
 10
19.971395
 20
182.2128649999999
 30
0.0
 11
25.553395
 21
179.2921649999999
 31
0.0
  0
LINE
  5
9586
330
94A8
100
AcDbEntity
  8
1
  6
Continuous
100
AcDbLine
 10
25.553395
 20
149.5654449999999
 30
0.0
 11
25.553395
 21
41.791865
 31
0.0
  0
LINE
  5
9587
330
94A8
100
AcDbEntity
  8
1
  6
Continuous
100
AcDbLine
 10
48.35339499999999
 20
149.5654449999999
 30
0.0
 11
48.35339499999999
 21
41.791865
 31
0.0
  0
LINE
  5
9588
330
94A8
100
AcDbEntity
  8
1
  6
Continuous
100
AcDbLine
 10
25.553395
 20
46.291865
 30
0.0
 11
19.922395
 21
43.345865
 31
0.0
  0
LINE
  5
9589
330
94A8
100
AcDbEntity
  8
1
  6
Continuous
100
AcDbLine
 10
48.35339499999999
 20
46.291865
 30
0.0
 11
54.206395
 21
43.22986499999998
 31
0.0
  0
LINE
  5
958A
330
94A8
100
AcDbEntity
  8
1
  6
Continuous
100
AcDbLine
 10
188.583395
 20
262.2338649999999
 30
0.0
 11
186.0833949999999
 21
253.6338649999999
 31
0.0
  0
LINE
  5
958B
330
94A8
100
AcDbEntity
  8
1
  6
Continuous
100
AcDbLine
 10
186.0833949999999
 20
230.833865
 30
0.0
 11
188.583395
 21
222.2338649999998
 31
0.0
  0
LINE
  5
958C
330
94A8
100
AcDbEntity
  8
1
  6
Continuous
100
AcDbLine
 10
186.0833949999999
 20
179.2921649999999
 30
0.0
 11
186.0833949999999
 21
46.291865
 31
0.0
  0
LINE
  5
958D
330
94A8
100
AcDbEntity
  8
5
  6
PHANTOM
100
AcDbLine
 10
185.7903949999999
 20
162.450445
 30
0.0
 11
179.281395
 21
79.118965
 31
0.0
  0
LINE
  5
958E
330
94A8
100
AcDbEntity
  8
5
  6
PHANTOM
100
AcDbLine
 10
185.7903949999999
 20
162.450445
 30
0.0
 11
186.0833949999999
 21
162.7009229999998
 31
0.0
  0
LINE
  5
958F
330
94A8
100
AcDbEntity
  8
5
  6
PHANTOM
100
AcDbLine
 10
186.0833949999999
 20
77.934793
 30
0.0
 11
180.2603949999999
 21
78.04126499999998
 31
0.0
  0
LINE
  5
9590
330
94A8
100
AcDbEntity
  8
1
  6
Continuous
100
AcDbLine
 10
185.683395
 20
161.877485
 30
0.0
 11
185.683395
 21
78.29216499999998
 31
0.0
  0
LINE
  5
9591
330
94A8
100
AcDbEntity
  8
1
  6
Continuous
100
AcDbLine
 10
185.683395
 20
161.877475
 30
0.0
 11
186.0833949999999
 21
162.277523
 31
0.0
  0
LINE
  5
9592
330
94A8
100
AcDbEntity
  8
5
  6
PHANTOM
100
AcDbLine
 10
186.0833949999999
 20
164.257171
 30
0.0
 11
129.514395
 21
107.6884649999998
 31
0.0
  0
LINE
  5
9593
330
94A8
100
AcDbEntity
  8
5
  6
PHANTOM
100
AcDbLine
 10
186.0833949999999
 20
150.963298
 30
0.0
 11
145.8803949999999
 21
110.7608649999999
 31
0.0
  0
LINE
  5
9594
330
94A8
100
AcDbEntity
  8
5
  6
PHANTOM
100
AcDbLine
 10
146.248395
 20
101.229265
 30
0.0
 11
142.3243949999998
 21
97.30536500000004
 31
0.0
  0
LINE
  5
9595
330
94A8
100
AcDbEntity
  8
5
  6
PHANTOM
100
AcDbLine
 10
135.8083949999999
 20
100.6881649999999
 30
0.0
 11
139.558395
 21
97.24616500000001
 31
0.0
  0
LINE
  5
9596
330
94A8
100
AcDbEntity
  8
5
  6
PHANTOM
100
AcDbLine
 10
145.2453949999998
 20
105.9323649999999
 30
0.0
 11
146.5663949999998
 21
103.643565
 31
0.0
  0
LINE
  5
9597
330
94A8
100
AcDbEntity
  8
5
  6
PHANTOM
100
AcDbLine
 10
135.8073949999998
 20
100.6881649999999
 30
0.0
 11
129.5583949999999
 21
106.233365
 31
0.0
  0
LINE
  5
9598
330
94A8
100
AcDbEntity
  8
1
  6
Continuous
100
AcDbLine
 10
204.483395
 20
253.2838649999999
 30
0.0
 11
204.483395
 21
249.2338649999998
 31
0.0
  0
LINE
  5
9599
330
94A8
100
AcDbEntity
  8
1
  6
Continuous
100
AcDbLine
 10
194.083395
 20
257.7338649999999
 30
0.0
 11
194.083395
 21
226.7338649999998
 31
0.0
  0
LINE
  5
959A
330
94A8
100
AcDbEntity
  8
1
  6
Continuous
100
AcDbLine
 10
192.083395
 20
225.7338649999999
 30
0.0
 11
202.083395
 21
225.7338649999999
 31
0.0
  0
LINE
  5
959B
330
94A8
100
AcDbEntity
  8
1
  6
Continuous
100
AcDbLine
 10
192.083395
 20
258.7338649999999
 30
0.0
 11
202.083395
 21
258.7338649999999
 31
0.0
  0
LINE
  5
959C
330
94A8
100
AcDbEntity
  8
1
  6
Continuous
100
AcDbLine
 10
206.383395
 20
249.2338649999998
 30
0.0
 11
206.383395
 21
235.2338649999999
 31
0.0
  0
LINE
  5
959D
330
94A8
100
AcDbEntity
  8
1
  6
Continuous
100
AcDbLine
 10
203.0833949999998
 20
249.2338649999998
 30
0.0
 11
206.383395
 21
249.2338649999998
 31
0.0
  0
LINE
  5
959E
330
94A8
100
AcDbEntity
  8
1
  6
Continuous
100
AcDbLine
 10
203.0833949999998
 20
235.2338649999999
 30
0.0
 11
206.383395
 21
235.2338649999999
 31
0.0
  0
LINE
  5
959F
330
94A8
100
AcDbEntity
  8
1
  6
Continuous
100
AcDbLine
 10
206.583395
 20
255.2338649999998
 30
0.0
 11
206.583395
 21
230.9754649999999
 31
0.0
  0
LINE
  5
95A0
330
94A8
100
AcDbEntity
  8
1
  6
Continuous
100
AcDbLine
 10
204.583395
 20
255.2338649999998
 30
0.0
 11
206.583395
 21
255.2338649999998
 31
0.0
  0
LINE
  5
95A1
330
94A8
100
AcDbEntity
  8
1
  6
Continuous
100
AcDbLine
 10
204.583395
 20
232.2338649999998
 30
0.0
 11
206.583395
 21
232.2338649999998
 31
0.0
  0
LINE
  5
95A2
330
94A8
100
AcDbEntity
  8
1
  6
Continuous
100
AcDbLine
 10
204.583395
 20
230.9754649999999
 30
0.0
 11
206.583395
 21
230.9754649999999
 31
0.0
  0
LINE
  5
95A3
330
94A8
100
AcDbEntity
  8
1
  6
Continuous
100
AcDbLine
 10
204.483395
 20
167.8632649999999
 30
0.0
 11
204.583395
 21
167.8632649999999
 31
0.0
  0
LINE
  5
95A4
330
94A8
100
AcDbEntity
  8
1
  6
Continuous
100
AcDbLine
 10
209.5833949999998
 20
167.8632649999999
 30
0.0
 11
209.5833949999998
 21
153.721132
 31
0.0
  0
LINE
  5
95A5
330
94A8
100
AcDbEntity
  8
1
  6
Continuous
100
AcDbLine
 10
206.583395
 20
160.7921949999999
 30
0.0
 11
209.5833949999998
 21
160.7921949999999
 31
0.0
  0
LINE
  5
95A6
330
94A8
100
AcDbEntity
  8
1
  6
Continuous
100
AcDbLine
 10
204.483395
 20
153.721132
 30
0.0
 11
204.583395
 21
153.721132
 31
0.0
  0
LINE
  5
95A7
330
94A8
100
AcDbEntity
  8
1
  6
Continuous
100
AcDbLine
 10
212.083395
 20
254.633865
 30
0.0
 11
212.083395
 21
229.833865
 31
0.0
  0
LINE
  5
95A8
330
94A8
100
AcDbEntity
  8
1
  6
Continuous
100
AcDbLine
 10
194.083395
 20
177.2921649999999
 30
0.0
 11
194.083395
 21
160.7921949999999
 31
0.0
  0
LINE
  5
95A9
330
94A8
100
AcDbEntity
  8
1
  6
Continuous
100
AcDbLine
 10
276.496395
 20
263.2338649999999
 30
0.0
 11
276.496395
 21
258.0338649999998
 31
0.0
  0
LINE
  5
95AA
330
94A8
100
AcDbEntity
  8
4
  6
CENTER
100
AcDbLine
 10
271.7111949999999
 20
242.2338649999999
 30
0.0
 11
291.756795
 21
242.2338649999999
 31
0.0
  0
LINE
  5
95AB
330
94A8
100
AcDbEntity
  8
1
  6
Continuous
100
AcDbLine
 10
278.796395
 20
263.2338649999999
 30
0.0
 11
278.796395
 21
258.0338649999998
 31
0.0
  0
LINE
  5
95AC
330
94A8
100
AcDbEntity
  8
1
  6
Continuous
100
AcDbLine
 10
279.9963949999999
 20
255.7338649999998
 30
0.0
 11
279.9963949999999
 21
228.7338649999998
 31
0.0
  0
LINE
  5
95AD
330
94A8
100
AcDbEntity
  8
1
  6
Continuous
100
AcDbLine
 10
282.296395
 20
255.7338649999998
 30
0.0
 11
282.296395
 21
228.7338649999998
 31
0.0
  0
LINE
  5
95AE
330
94A8
100
AcDbEntity
  8
1
  6
Continuous
100
AcDbLine
 10
278.796395
 20
228.7338649999998
 30
0.0
 11
279.9963949999999
 21
228.7338649999998
 31
0.0
  0
LINE
  5
95AF
330
94A8
100
AcDbEntity
  8
1
  6
Continuous
100
AcDbLine
 10
278.796395
 20
255.7338649999998
 30
0.0
 11
279.9963949999999
 21
255.7338649999998
 31
0.0
  0
LINE
  5
95B0
330
94A8
100
AcDbEntity
  8
1
  6
Continuous
100
AcDbLine
 10
276.496395
 20
221.2338649999999
 30
0.0
 11
278.796395
 21
221.2338649999999
 31
0.0
  0
LINE
  5
95B1
330
94A8
100
AcDbEntity
  8
1
  6
Continuous
100
AcDbLine
 10
276.496395
 20
263.2338649999999
 30
0.0
 11
278.796395
 21
263.2338649999999
 31
0.0
  0
LINE
  5
95B2
330
94A8
100
AcDbEntity
  8
1
  6
Continuous
100
AcDbLine
 10
276.496395
 20
226.433865
 30
0.0
 11
276.496395
 21
221.2338649999999
 31
0.0
  0
LINE
  5
95B3
330
94A8
100
AcDbEntity
  8
1
  6
Continuous
100
AcDbLine
 10
278.796395
 20
226.433865
 30
0.0
 11
278.796395
 21
221.2338649999999
 31
0.0
  0
LINE
  5
95B4
330
94A8
100
AcDbEntity
  8
1
  6
Continuous
100
AcDbLine
 10
278.796395
 20
258.0338649999998
 30
0.0
 11
279.9963949999999
 21
258.0338649999998
 31
0.0
  0
LINE
  5
95B5
330
94A8
100
AcDbEntity
  8
1
  6
Continuous
100
AcDbLine
 10
278.796395
 20
226.433865
 30
0.0
 11
279.9963949999999
 21
226.433865
 31
0.0
  0
LINE
  5
95B6
330
94A8
100
AcDbEntity
  8
1
  6
Continuous
100
AcDbLine
 10
283.4463949999999
 20
135.0421649999999
 30
0.0
 11
282.296395
 21
135.0421649999999
 31
0.0
  0
LINE
  5
95BA
330
94A8
100
AcDbEntity
  8
1
  6
Continuous
100
AcDbLine
 10
283.4463949999999
 20
122.5421649999999
 30
0.0
 11
282.296395
 21
122.5421649999999
 31
0.0
  0
LINE
  5
95BB
330
94A8
100
AcDbEntity
  8
4
  6
CENTER
100
AcDbLine
 10
224.7306888182513
 20
242.2338649999998
 30
0.0
 11
256.192395
 21
242.2338649999999
 31
0.0
  0
LINE
  5
95C4
330
94A8
100
AcDbEntity
  8
1
  6
Continuous
100
AcDbLine
 10
283.4463949999999
 20
135.7921649999999
 30
0.0
 11
283.4463949999999
 21
121.792165
 31
0.0
  0
LINE
  5
95C5
330
94A8
100
AcDbEntity
  8
1
  6
Continuous
100
AcDbLine
 10
283.8610949999999
 20
135.7921649999999
 30
0.0
 11
283.8610949999999
 21
121.792165
 31
0.0
  0
LINE
  5
95C6
330
94A8
100
AcDbEntity
  8
1
  6
Continuous
100
AcDbLine
 10
283.8610949999999
 20
135.7921649999999
 30
0.0
 11
283.4463949999999
 21
135.7921649999999
 31
0.0
  0
LINE
  5
95C7
330
94A8
100
AcDbEntity
  8
1
  6
Continuous
100
AcDbLine
 10
283.8610949999999
 20
121.792165
 30
0.0
 11
283.4463949999999
 21
121.792165
 31
0.0
  0
LINE
  5
95CB
330
94A8
100
AcDbEntity
  8
4
  6
CENTER
100
AcDbLine
 10
224.7306888182513
 20
160.7921949999999
 30
0.0
 11
256.7799949999999
 21
160.7921949999999
 31
0.0
  0
LINE
  5
95D4
330
94A8
100
AcDbEntity
  8
4
  6
CENTER
100
AcDbLine
 10
355.8134949999999
 20
227.5540649999999
 30
0.0
 11
355.8134949999999
 21
202.5540649999999
 31
0.0
  0
LINE
  5
95D5
330
94A8
100
AcDbEntity
  8
4
  6
CENTER
100
AcDbLine
 10
343.313515
 20
215.0540649999999
 30
0.0
 11
368.3134949999999
 21
215.0540649999999
 31
0.0
  0
LINE
  5
95D6
330
94A8
100
AcDbEntity
  8
1
  6
Continuous
100
AcDbLine
 10
356.8698949999999
 20
213.9976649999999
 30
0.0
 11
356.8848949999999
 21
214.005765
 31
0.0
  0
LINE
  5
95D7
330
94A8
100
AcDbEntity
  8
1
  6
Continuous
100
AcDbLine
 10
356.8848949999999
 20
214.005665
 30
0.0
 11
358.795495
 21
214.039065
 31
0.0
  0
LINE
  5
95D8
330
94A8
100
AcDbEntity
  8
1
  6
Continuous
100
AcDbLine
 10
356.8698949999999
 20
216.110365
 30
0.0
 11
356.8848949999999
 21
216.102365
 31
0.0
  0
LINE
  5
95D9
330
94A8
100
AcDbEntity
  8
1
  6
Continuous
100
AcDbLine
 10
356.8848949999999
 20
216.102365
 30
0.0
 11
358.795495
 21
216.0690649999998
 31
0.0
  0
LINE
  5
95DA
330
94A8
100
AcDbEntity
  8
1
  6
Continuous
100
AcDbLine
 10
354.7571549999998
 20
216.1104649999999
 30
0.0
 11
354.7651649999999
 21
216.125465
 31
0.0
  0
LINE
  5
95DB
330
94A8
100
AcDbEntity
  8
1
  6
Continuous
100
AcDbLine
 10
354.7651649999999
 20
216.125465
 30
0.0
 11
354.798515
 21
218.0360649999999
 31
0.0
  0
LINE
  5
95DC
330
94A8
100
AcDbEntity
  8
1
  6
Continuous
100
AcDbLine
 10
356.861895
 20
216.125465
 30
0.0
 11
356.8284949999999
 21
218.0360649999999
 31
0.0
  0
LINE
  5
95DD
330
94A8
100
AcDbEntity
  8
1
  6
Continuous
100
AcDbLine
 10
356.8698949999999
 20
216.1104649999999
 30
0.0
 11
356.861895
 21
216.125465
 31
0.0
  0
LINE
  5
95DE
330
94A8
100
AcDbEntity
  8
1
  6
Continuous
100
AcDbLine
 10
354.757165
 20
213.9976649999999
 30
0.0
 11
354.742095
 21
214.005665
 31
0.0
  0
LINE
  5
95DF
330
94A8
100
AcDbEntity
  8
1
  6
Continuous
100
AcDbLine
 10
354.742095
 20
214.005665
 30
0.0
 11
352.8315249999999
 21
214.039065
 31
0.0
  0
LINE
  5
95E0
330
94A8
100
AcDbEntity
  8
1
  6
Continuous
100
AcDbLine
 10
354.742095
 20
216.102365
 30
0.0
 11
352.8315149999999
 21
216.0690649999998
 31
0.0
  0
LINE
  5
95E1
330
94A8
100
AcDbEntity
  8
1
  6
Continuous
100
AcDbLine
 10
354.7571549999998
 20
216.110365
 30
0.0
 11
354.742095
 21
216.102365
 31
0.0
  0
LINE
  5
95E2
330
94A8
100
AcDbEntity
  8
1
  6
Continuous
100
AcDbLine
 10
356.8698949999999
 20
213.9976649999999
 30
0.0
 11
356.861895
 21
213.9826649999999
 31
0.0
  0
LINE
  5
95E3
330
94A8
100
AcDbEntity
  8
1
  6
Continuous
100
AcDbLine
 10
356.861895
 20
213.9826649999999
 30
0.0
 11
356.8284949999999
 21
212.0720649999999
 31
0.0
  0
LINE
  5
95E4
330
94A8
100
AcDbEntity
  8
1
  6
Continuous
100
AcDbLine
 10
354.7651649999999
 20
213.9826649999999
 30
0.0
 11
354.798515
 21
212.0720649999999
 31
0.0
  0
LINE
  5
95E5
330
94A8
100
AcDbEntity
  8
1
  6
Continuous
100
AcDbLine
 10
354.7571549999998
 20
213.9976649999999
 30
0.0
 11
354.7651649999999
 21
213.9826649999999
 31
0.0
  0
LINE
  5
95E6
330
94A8
100
AcDbEntity
  8
1
  6
Continuous
100
AcDbLine
 10
192.083395
 20
183.792165
 30
0.0
 11
192.083395
 21
41.791865
 31
0.0
  0
LINE
  5
95E7
330
94A8
100
AcDbEntity
  8
1
  6
Continuous
100
AcDbLine
 10
192.083395
 20
262.2338649999999
 30
0.0
 11
192.083395
 21
222.2338649999998
 31
0.0
  0
LINE
  5
95E8
330
94A8
100
AcDbEntity
  8
1
  6
Continuous
100
AcDbLine
 10
25.953395
 20
164.1987649999999
 30
0.0
 11
25.953395
 21
79.79216499999998
 31
0.0
  0
LINE
  5
95E9
330
94A8
100
AcDbEntity
  8
1
  6
Continuous
100
AcDbLine
 10
26.35339500000001
 20
164.3987649999999
 30
0.0
 11
47.553395
 21
164.3987649999999
 31
0.0
  0
LINE
  5
95EA
330
94A8
100
AcDbEntity
  8
1
  6
Continuous
100
AcDbLine
 10
25.85339499999999
 20
172.3156649999999
 30
0.0
 11
25.85339499999999
 21
149.268745
 31
0.0
  0
LINE
  5
95EB
330
94A8
100
AcDbEntity
  8
1
  6
Continuous
100
AcDbLine
 10
48.053395
 20
172.3156649999999
 30
0.0
 11
48.053395
 21
149.268745
 31
0.0
  0
LINE
  5
95EC
330
94A8
100
AcDbEntity
  8
1
  6
Continuous
100
AcDbLine
 10
47.95339499999999
 20
164.1987649999999
 30
0.0
 11
47.95339499999999
 21
79.79216499999998
 31
0.0
  0
LINE
  5
95ED
330
94A8
100
AcDbEntity
  8
1
  6
Continuous
100
AcDbLine
 10
28.453395
 20
77.29216499999998
 30
0.0
 11
45.45339499999999
 21
77.29216499999998
 31
0.0
  0
LINE
  5
95EE
330
94A8
100
AcDbEntity
  8
2
  6
Continuous
100
AcDbLine
 10
186.0833949999999
 20
55.338965
 30
0.0
 11
183.915395
 21
46.54886499999999
 31
0.0
  0
LINE
  5
95EF
330
94A8
100
AcDbEntity
  8
4
  6
CENTER
100
AcDbLine
 10
193.305395
 20
128.7921649999999
 30
0.0
 11
202.6463949999999
 21
128.7921649999999
 31
0.0
  0
LINE
  5
95F0
330
94A8
100
AcDbEntity
  8
4
  6
CENTER
100
AcDbLine
 10
192.8503949999999
 20
100.7921649999999
 30
0.0
 11
202.8743949999999
 21
100.7921649999999
 31
0.0
  0
LINE
  5
95F1
330
94A8
100
AcDbEntity
  8
1
  6
Continuous
100
AcDbLine
 10
194.083395
 20
77.79216499999998
 30
0.0
 11
194.083395
 21
47.791865
 31
0.0
  0
LINE
  5
95F2
330
94A8
100
AcDbEntity
  8
1
  6
Continuous
100
AcDbLine
 10
192.083395
 20
78.79216499999998
 30
0.0
 11
193.083395
 21
78.79216499999998
 31
0.0
  0
ARC
  5
95F3
330
94A8
100
AcDbEntity
  8
1
  6
Continuous
100
AcDbCircle
 10
20.953395
 20
179.7921649999999
 30
0.0
 40
4.0
100
AcDbArc
 50
90.0
 51
180.0
  0
ARC
  5
95F4
330
94A8
100
AcDbEntity
  8
1
  6
Continuous
100
AcDbCircle
 10
20.953395
 20
45.791865
 30
0.0
 40
4.0
100
AcDbArc
 50
180.0
 51
270.0
  0
ARC
  5
95F5
330
94A8
100
AcDbEntity
  8
1
  6
Continuous
100
AcDbCircle
 10
52.95339499999999
 20
45.791865
 30
0.0
 40
4.0
100
AcDbArc
 50
270.0
 51
0.0
  0
ARC
  5
95F6
330
94A8
100
AcDbEntity
  8
1
  6
Continuous
100
AcDbCircle
 10
52.95339499999999
 20
179.7921649999999
 30
0.0
 40
4.0
100
AcDbArc
 50
0.0
 51
90.0
  0
ARC
  5
95F7
330
94A8
100
AcDbEntity
  8
1
  6
Continuous
100
AcDbCircle
 10
211.083395
 20
47.791865
 30
0.0
 40
1.0
100
AcDbArc
 50
270.0
 51
0.0
  0
ARC
  5
95F8
330
94A8
100
AcDbEntity
  8
1
  6
Continuous
100
AcDbCircle
 10
211.083395
 20
77.79216499999998
 30
0.0
 40
1.0
100
AcDbArc
 50
0.0
 51
90.0
  0
ARC
  5
95F9
330
94A8
100
AcDbEntity
  8
1
  6
Continuous
100
AcDbCircle
 10
205.0833949999999
 20
79.79216499999998
 30
0.0
 40
1.0
100
AcDbArc
 50
180.0
 51
270.0
  0
ARC
  5
95FA
330
94A8
100
AcDbEntity
  8
1
  6
Continuous
100
AcDbCircle
 10
203.0833949999998
 20
91.792165
 30
0.0
 40
1.0
100
AcDbArc
 50
0.0
 51
90.0
  0
ARC
  5
95FB
330
94A8
100
AcDbEntity
  8
1
  6
Continuous
100
AcDbCircle
 10
198.5833949999999
 20
93.792165
 30
0.0
 40
1.0
100
AcDbArc
 50
180.0
 51
270.0
  0
ARC
  5
95FC
330
94A8
100
AcDbEntity
  8
1
  6
Continuous
100
AcDbCircle
 10
193.083395
 20
177.7921649999999
 30
0.0
 40
1.0
100
AcDbArc
 50
0.0
 51
90.0
  0
ARC
  5
95FD
330
94A8
100
AcDbEntity
  8
1
  6
Continuous
100
AcDbCircle
 10
371.813495
 20
179.7921649999999
 30
0.0
 40
4.0
100
AcDbArc
 50
0.0
 51
90.0
  0
ARC
  5
95FE
330
94A8
100
AcDbEntity
  8
1
  6
Continuous
100
AcDbCircle
 10
371.813495
 20
45.791865
 30
0.0
 40
4.0
100
AcDbArc
 50
270.0
 51
0.0
  0
ARC
  5
95FF
330
94A8
100
AcDbEntity
  8
1
  6
Continuous
100
AcDbCircle
 10
339.8135149999998
 20
45.791865
 30
0.0
 40
4.0
100
AcDbArc
 50
180.0
 51
270.0
  0
ARC
  5
9600
330
94A8
100
AcDbEntity
  8
1
  6
Continuous
100
AcDbCircle
 10
339.8135149999998
 20
179.7921649999999
 30
0.0
 40
4.0
100
AcDbArc
 50
90.0
 51
180.0
  0
ARC
  5
9601
330
94A8
100
AcDbEntity
  8
1
  6
Continuous
100
AcDbCircle
 10
344.3135149999998
 20
173.7921649999999
 30
0.0
 40
5.0
100
AcDbArc
 50
90.0
 51
180.0
  0
ARC
  5
9602
330
94A8
100
AcDbEntity
  8
1
  6
Continuous
100
AcDbCircle
 10
367.3134950000001
 20
51.791865
 30
0.0
 40
5.0
100
AcDbArc
 50
270.0
 51
0.0
  0
ARC
  5
9603
330
94A8
100
AcDbEntity
  8
1
  6
Continuous
100
AcDbCircle
 10
367.3134950000001
 20
173.7921649999999
 30
0.0
 40
5.0
100
AcDbArc
 50
0.0
 51
90.0
  0
ARC
  5
9604
330
94A8
100
AcDbEntity
  8
1
  6
Continuous
100
AcDbCircle
 10
355.8134949999999
 20
160.7921949999999
 30
0.0
 40
14.0
100
AcDbArc
 50
60.0
 51
119.9999999999999
  0
ARC
  5
9605
330
94A8
100
AcDbEntity
  8
1
  6
Continuous
100
AcDbCircle
 10
355.8134949999999
 20
160.7921949999999
 30
0.0
 40
12.05
100
AcDbArc
 50
119.9999999999999
 51
210.0
  0
ARC
  5
9606
330
94A8
100
AcDbEntity
  8
1
  6
Continuous
100
AcDbCircle
 10
355.8134949999999
 20
160.7921949999999
 30
0.0
 40
10.05
100
AcDbArc
 50
60.0
 51
119.9999999999999
  0
ARC
  5
9607
330
94A8
100
AcDbEntity
  8
1
  6
Continuous
100
AcDbCircle
 10
205.8833949999999
 20
174.2921649999999
 30
0.0
 40
0.5
100
AcDbArc
 50
0.0
 51
90.0
  0
ARC
  5
9608
330
94A8
100
AcDbEntity
  8
1
  6
Continuous
100
AcDbCircle
 10
205.8833949999999
 20
169.9957649999998
 30
0.0
 40
0.5
100
AcDbArc
 50
270.0
 51
0.0
  0
CIRCLE
  5
9609
330
94A8
100
AcDbEntity
  8
2
  6
Continuous
100
AcDbCircle
 10
355.8134949999999
 20
160.7921949999999
 30
0.0
 40
3.0
  0
CIRCLE
  5
960A
330
94A8
100
AcDbEntity
  8
1
  6
Continuous
100
AcDbCircle
 10
355.8134949999999
 20
160.7921949999999
 30
0.0
 40
2.458499999999999
  0
ARC
  5
960B
330
94A8
100
AcDbEntity
  8
1
  6
Continuous
100
AcDbCircle
 10
36.953395
 20
160.7921949999999
 30
0.0
 40
16.0
100
AcDbArc
 50
313.9279999999998
 51
226.0719999999998
  0
ARC
  5
960C
330
94A8
100
AcDbEntity
  8
5
  6
PHANTOM
100
AcDbCircle
 10
33.847395
 20
150.192195
 30
0.0
 40
0.5
100
AcDbArc
 50
180.0
 51
270.0
  0
ARC
  5
960D
330
94A8
100
AcDbEntity
  8
5
  6
PHANTOM
100
AcDbCircle
 10
33.847395
 20
171.3921649999998
 30
0.0
 40
0.5
100
AcDbArc
 50
90.0
 51
180.0
  0
ARC
  5
960E
330
94A8
100
AcDbEntity
  8
1
  6
Continuous
100
AcDbCircle
 10
355.8134949999999
 20
100.7921649999999
 30
0.0
 40
3.149999999999999
100
AcDbArc
 50
341.2029999999999
 51
18.79739999999999
  0
ARC
  5
960F
330
94A8
100
AcDbEntity
  8
1
  6
Continuous
100
AcDbCircle
 10
355.8134949999999
 20
100.7921649999999
 30
0.0
 40
3.149999999999999
100
AcDbArc
 50
71.2026
 51
108.797
  0
ARC
  5
9610
330
94A8
100
AcDbEntity
  8
1
  6
Continuous
100
AcDbCircle
 10
355.8134949999999
 20
100.7921649999999
 30
0.0
 40
3.149999999999999
100
AcDbArc
 50
161.203
 51
198.7969999999999
  0
ARC
  5
9611
330
94A8
100
AcDbEntity
  8
1
  6
Continuous
100
AcDbCircle
 10
355.8134949999999
 20
100.7921649999999
 30
0.0
 40
3.149999999999999
100
AcDbArc
 50
251.203
 51
288.7970000000001
  0
CIRCLE
  5
9612
330
94A8
100
AcDbEntity
  8
1
  6
Continuous
100
AcDbCircle
 10
355.8134949999999
 20
100.7921649999999
 30
0.0
 40
7.0
  0
ARC
  5
9613
330
94A8
100
AcDbEntity
  8
1
  6
Continuous
100
AcDbCircle
 10
355.8134949999999
 20
128.7921649999999
 30
0.0
 40
3.149999999999999
100
AcDbArc
 50
341.2029999999999
 51
18.79739999999999
  0
ARC
  5
9614
330
94A8
100
AcDbEntity
  8
1
  6
Continuous
100
AcDbCircle
 10
355.8134949999999
 20
128.7921649999999
 30
0.0
 40
3.149999999999999
100
AcDbArc
 50
71.2026
 51
108.797
  0
ARC
  5
9615
330
94A8
100
AcDbEntity
  8
1
  6
Continuous
100
AcDbCircle
 10
355.8134949999999
 20
128.7921649999999
 30
0.0
 40
3.149999999999999
100
AcDbArc
 50
161.203
 51
198.7969999999999
  0
ARC
  5
9616
330
94A8
100
AcDbEntity
  8
1
  6
Continuous
100
AcDbCircle
 10
355.8134949999999
 20
128.7921649999999
 30
0.0
 40
3.149999999999999
100
AcDbArc
 50
251.203
 51
288.7970000000001
  0
CIRCLE
  5
9617
330
94A8
100
AcDbEntity
  8
1
  6
Continuous
100
AcDbCircle
 10
355.8134949999999
 20
128.7921649999999
 30
0.0
 40
7.0
  0
ARC
  5
9618
330
94A8
100
AcDbEntity
  8
1
  6
Continuous
100
AcDbCircle
 10
337.8135149999998
 20
140.2921649999998
 30
0.0
 40
3.0
100
AcDbArc
 50
90.0
 51
180.0
  0
ARC
  5
9619
330
94A8
100
AcDbEntity
  8
1
  6
Continuous
100
AcDbCircle
 10
337.8135149999998
 20
96.292165
 30
0.0
 40
3.0
100
AcDbArc
 50
180.0
 51
270.0
  0
ARC
  5
961A
330
94A8
100
AcDbEntity
  8
1
  6
Continuous
100
AcDbCircle
 10
373.813495
 20
96.292165
 30
0.0
 40
3.0
100
AcDbArc
 50
270.0
 51
0.0
  0
ARC
  5
961B
330
94A8
100
AcDbEntity
  8
1
  6
Continuous
100
AcDbCircle
 10
373.813495
 20
140.2921649999998
 30
0.0
 40
3.0
100
AcDbArc
 50
0.0
 51
90.0
  0
ARC
  5
961C
330
94A8
100
AcDbEntity
  8
1
  6
Continuous
100
AcDbCircle
 10
355.8134949999999
 20
160.7921949999999
 30
0.0
 40
22.0
100
AcDbArc
 50
232.6979999999998
 51
307.302
  0
ARC
  5
961D
330
94A8
100
AcDbEntity
  8
1
  6
Continuous
100
AcDbCircle
 10
278.046395
 20
100.7921649999999
 30
0.0
 40
9.099999999999999
100
AcDbArc
 50
309.7149999999999
 51
50.2848
  0
ARC
  5
961E
330
94A8
100
AcDbEntity
  8
1
  6
Continuous
100
AcDbCircle
 10
278.046395
 20
242.2338649999999
 30
0.0
 40
9.099999999999999
100
AcDbArc
 50
309.7149999999999
 51
50.2848
  0
ARC
  5
961F
330
94A8
100
AcDbEntity
  8
1
  6
Continuous
100
AcDbCircle
 10
355.8134949999999
 20
160.7921949999999
 30
0.0
 40
13.0
100
AcDbArc
 50
210.0
 51
60.0
  0
ARC
  5
9620
330
94A8
100
AcDbEntity
  8
1
  6
Continuous
100
AcDbCircle
 10
355.8134949999999
 20
160.7921949999999
 30
0.0
 40
10.0
100
AcDbArc
 50
60.0
 51
210.0
  0
ARC
  5
9621
330
94A8
100
AcDbEntity
  8
1
  6
Continuous
100
AcDbCircle
 10
340.313515
 20
77.79216499999998
 30
0.0
 40
1.0
100
AcDbArc
 50
90.0
 51
180.0
  0
ARC
  5
9622
330
94A8
100
AcDbEntity
  8
1
  6
Continuous
100
AcDbCircle
 10
371.3134950000001
 20
77.79216499999998
 30
0.0
 40
1.0
100
AcDbArc
 50
0.0
 51
90.0
  0
ARC
  5
9623
330
94A8
100
AcDbEntity
  8
1
  6
Continuous
100
AcDbCircle
 10
344.3135149999998
 20
51.791865
 30
0.0
 40
5.0
100
AcDbArc
 50
180.0
 51
270.0
  0
ARC
  5
9624
330
94A8
100
AcDbEntity
  8
1
  6
Continuous
100
AcDbCircle
 10
364.3134949999999
 20
64.29216499999999
 30
0.0
 40
1.3
100
AcDbArc
 50
349.809
 51
10.1906
  0
ARC
  5
9625
330
94A8
100
AcDbEntity
  8
1
  6
Continuous
100
AcDbCircle
 10
364.3134949999999
 20
64.29216499999999
 30
0.0
 40
1.3
100
AcDbArc
 50
79.80940000000003
 51
100.191
  0
ARC
  5
9626
330
94A8
100
AcDbEntity
  8
1
  6
Continuous
100
AcDbCircle
 10
364.3134949999999
 20
64.29216499999999
 30
0.0
 40
1.3
100
AcDbArc
 50
169.809
 51
190.1909999999998
  0
ARC
  5
9627
330
94A8
100
AcDbEntity
  8
1
  6
Continuous
100
AcDbCircle
 10
364.3134949999999
 20
64.29216499999999
 30
0.0
 40
1.3
100
AcDbArc
 50
259.809
 51
280.1909999999999
  0
CIRCLE
  5
9628
330
94A8
100
AcDbEntity
  8
1
  6
Continuous
100
AcDbCircle
 10
364.3134949999999
 20
64.29216499999999
 30
0.0
 40
2.6
  0
ARC
  5
9629
330
94A8
100
AcDbEntity
  8
1
  6
Continuous
100
AcDbCircle
 10
347.313515
 20
64.29216499999999
 30
0.0
 40
1.3
100
AcDbArc
 50
349.809
 51
10.1906
  0
ARC
  5
962A
330
94A8
100
AcDbEntity
  8
1
  6
Continuous
100
AcDbCircle
 10
347.313515
 20
64.29216499999999
 30
0.0
 40
1.3
100
AcDbArc
 50
79.80940000000003
 51
100.191
  0
ARC
  5
962B
330
94A8
100
AcDbEntity
  8
1
  6
Continuous
100
AcDbCircle
 10
347.313515
 20
64.29216499999999
 30
0.0
 40
1.3
100
AcDbArc
 50
169.809
 51
190.1909999999998
  0
ARC
  5
962C
330
94A8
100
AcDbEntity
  8
1
  6
Continuous
100
AcDbCircle
 10
347.313515
 20
64.29216499999999
 30
0.0
 40
1.3
100
AcDbArc
 50
259.809
 51
280.1909999999999
  0
CIRCLE
  5
962D
330
94A8
100
AcDbEntity
  8
1
  6
Continuous
100
AcDbCircle
 10
347.313515
 20
64.29216499999999
 30
0.0
 40
2.6
  0
ARC
  5
962E
330
94A8
100
AcDbEntity
  8
1
  6
Continuous
100
AcDbCircle
 10
26.953395
 20
75.79216499999998
 30
0.0
 40
1.0
100
AcDbArc
 50
90.0
 51
180.0
  0
ARC
  5
962F
330
94A8
100
AcDbEntity
  8
1
  6
Continuous
100
AcDbCircle
 10
26.953395
 20
42.791865
 30
0.0
 40
1.0
100
AcDbArc
 50
180.0
 51
270.0
  0
ARC
  5
9630
330
94A8
100
AcDbEntity
  8
1
  6
Continuous
100
AcDbCircle
 10
46.953395
 20
42.791865
 30
0.0
 40
1.0
100
AcDbArc
 50
270.0
 51
0.0
  0
ARC
  5
9631
330
94A8
100
AcDbEntity
  8
1
  6
Continuous
100
AcDbCircle
 10
46.953395
 20
75.79216499999998
 30
0.0
 40
1.0
100
AcDbArc
 50
0.0
 51
90.0
  0
CIRCLE
  5
9632
330
94A8
100
AcDbEntity
  8
1
  6
Continuous
100
AcDbCircle
 10
36.953395
 20
66.79216499999999
 30
0.0
 40
7.65
  0
ARC
  5
9633
330
94A8
100
AcDbEntity
  8
1
  6
Continuous
100
AcDbCircle
 10
184.583395
 20
47.29186499999999
 30
0.0
 40
1.0
100
AcDbArc
 50
180.0
 51
270.0
  0
ARC
  5
9634
330
94A8
100
AcDbEntity
  8
5
  6
PHANTOM
100
AcDbCircle
 10
117.9533949999999
 20
152.2921949999999
 30
0.0
 40
2.5
100
AcDbArc
 50
270.0
 51
0.0
  0
ARC
  5
9635
330
94A8
100
AcDbEntity
  8
5
  6
PHANTOM
100
AcDbCircle
 10
117.9533949999999
 20
169.2921649999999
 30
0.0
 40
2.5
100
AcDbArc
 50
0.0
 51
90.0
  0
ARC
  5
9636
330
94A8
100
AcDbEntity
  8
1
  6
Continuous
100
AcDbCircle
 10
36.953395
 20
221.792165
 30
0.0
 40
61.0
100
AcDbArc
 50
260.718
 51
279.2819999999999
  0
ARC
  5
9637
330
94A8
100
AcDbEntity
  8
1
  6
Continuous
100
AcDbCircle
 10
26.953395
 20
160.6039649999999
 30
0.0
 40
1.0
100
AcDbArc
 50
80.71819999999998
 51
180.0
  0
ARC
  5
9638
330
94A8
100
AcDbEntity
  8
1
  6
Continuous
100
AcDbCircle
 10
46.953395
 20
160.6039649999999
 30
0.0
 40
1.0
100
AcDbArc
 50
0.0
 51
99.28180000000001
  0
ARC
  5
9639
330
94A8
100
AcDbEntity
  8
1
  6
Continuous
100
AcDbCircle
 10
114.0103949999998
 20
160.7921949999999
 30
0.0
 40
73.43909999999998
100
AcDbArc
 50
348.9309999999999
 51
11.06929999999998
  0
ARC
  5
963A
330
94A8
100
AcDbEntity
  8
5
  6
PHANTOM
100
AcDbCircle
 10
180.278395
 20
79.04106500000001
 30
0.0
 40
1.0
100
AcDbArc
 50
175.5339999999999
 51
268.9519999999999
  0
ARC
  5
963B
330
94A8
100
AcDbEntity
  8
1
  6
Continuous
100
AcDbCircle
 10
186.683395
 20
78.29216499999998
 30
0.0
 40
1.0
100
AcDbArc
 50
180.0
 51
233.130102
  0
ARC
  5
963C
330
94A8
100
AcDbEntity
  8
5
  6
PHANTOM
100
AcDbCircle
 10
140.9103949999999
 20
98.719665
 30
0.0
 40
2.0
100
AcDbArc
 50
227.454
 51
315.0
  0
ARC
  5
963D
330
94A8
100
AcDbEntity
  8
5
  6
PHANTOM
100
AcDbCircle
 10
144.8343949999998
 20
102.643565
 30
0.0
 40
2.0
100
AcDbArc
 50
315.0
 51
30.0
  0
ARC
  5
963E
330
94A8
100
AcDbEntity
  8
5
  6
PHANTOM
100
AcDbCircle
 10
148.709395
 20
107.9323649999998
 30
0.0
 40
4.0
100
AcDbArc
 50
135.0
 51
210.0
  0
ARC
  5
963F
330
94A8
100
AcDbEntity
  8
5
  6
PHANTOM
100
AcDbCircle
 10
130.221395
 20
106.9813649999999
 30
0.0
 40
1.0
100
AcDbArc
 50
135.0
 51
228.419
  0
ARC
  5
9640
330
94A8
100
AcDbEntity
  8
1
  6
Continuous
100
AcDbCircle
 10
193.083395
 20
226.7338649999998
 30
0.0
 40
1.0
100
AcDbArc
 50
270.0
 51
0.0
  0
ARC
  5
9641
330
94A8
100
AcDbEntity
  8
1
  6
Continuous
100
AcDbCircle
 10
193.083395
 20
257.7338649999999
 30
0.0
 40
1.0
100
AcDbArc
 50
0.0
 51
90.0
  0
ARC
  5
9642
330
94A8
100
AcDbEntity
  8
1
  6
Continuous
100
AcDbCircle
 10
279.9963949999999
 20
255.7338649999998
 30
0.0
 40
2.299999999999998
100
AcDbArc
 50
0.0
 51
90.0
  0
ARC
  5
9643
330
94A8
100
AcDbEntity
  8
1
  6
Continuous
100
AcDbCircle
 10
279.9963949999999
 20
228.7338649999998
 30
0.0
 40
2.299999999999998
100
AcDbArc
 50
270.0
 51
0.0
  0
ARC
  5
9644
330
94A8
100
AcDbEntity
  8
1
  6
Continuous
100
AcDbCircle
 10
278.796395
 20
226.433865
 30
0.0
 40
2.299999999999998
100
AcDbArc
 50
90.0
 51
180.0
  0
ARC
  5
9645
330
94A8
100
AcDbEntity
  8
1
  6
Continuous
100
AcDbCircle
 10
278.796395
 20
258.0338649999998
 30
0.0
 40
2.299999999999998
100
AcDbArc
 50
180.0
 51
270.0
  0
ARC
  5
9647
330
94A8
100
AcDbEntity
  8
1
  6
Continuous
100
AcDbCircle
 10
278.046395
 20
128.7921649999999
 30
0.0
 40
9.099999999999999
100
AcDbArc
 50
309.7149999999999
 51
50.2848
  0
CIRCLE
  5
9649
330
94A8
100
AcDbEntity
  8
1
  6
Continuous
100
AcDbCircle
 10
355.8134949999999
 20
215.0540649999999
 30
0.0
 40
11.0
  0
CIRCLE
  5
964A
330
94A8
100
AcDbEntity
  8
1
  6
Continuous
100
AcDbCircle
 10
355.8134949999999
 20
215.0540649999999
 30
0.0
 40
8.0
  0
ARC
  5
964B
330
94A8
100
AcDbEntity
  8
1
  6
Continuous
100
AcDbCircle
 10
355.8134949999999
 20
215.0540649999999
 30
0.0
 40
3.149999999999999
100
AcDbArc
 50
341.2029999999999
 51
18.79739999999999
  0
ARC
  5
964C
330
94A8
100
AcDbEntity
  8
1
  6
Continuous
100
AcDbCircle
 10
355.8134949999999
 20
215.0540649999999
 30
0.0
 40
3.149999999999999
100
AcDbArc
 50
71.2026
 51
108.797
  0
ARC
  5
964D
330
94A8
100
AcDbEntity
  8
1
  6
Continuous
100
AcDbCircle
 10
355.8134949999999
 20
215.0540649999999
 30
0.0
 40
3.149999999999999
100
AcDbArc
 50
161.203
 51
198.7969999999999
  0
ARC
  5
964E
330
94A8
100
AcDbEntity
  8
1
  6
Continuous
100
AcDbCircle
 10
355.8134949999999
 20
215.0540649999999
 30
0.0
 40
3.149999999999999
100
AcDbArc
 50
251.203
 51
288.7970000000001
  0
CIRCLE
  5
964F
330
94A8
100
AcDbEntity
  8
1
  6
Continuous
100
AcDbCircle
 10
355.8134949999999
 20
215.0540649999999
 30
0.0
 40
7.0
  0
ARC
  5
9650
330
94A8
100
AcDbEntity
  8
1
  6
Continuous
100
AcDbCircle
 10
26.35339500000001
 20
163.898805
 30
0.0
 40
0.5
100
AcDbArc
 50
90.0
 51
180.0
  0
ARC
  5
9651
330
94A8
100
AcDbEntity
  8
1
  6
Continuous
100
AcDbCircle
 10
47.553395
 20
163.898805
 30
0.0
 40
0.5
100
AcDbArc
 50
0.0
 51
90.0
  0
ARC
  5
9652
330
94A8
100
AcDbEntity
  8
1
  6
Continuous
100
AcDbCircle
 10
28.453395
 20
79.79216499999998
 30
0.0
 40
2.5
100
AcDbArc
 50
180.0
 51
270.0
  0
ARC
  5
9653
330
94A8
100
AcDbEntity
  8
1
  6
Continuous
100
AcDbCircle
 10
45.45339499999999
 20
79.79216499999998
 30
0.0
 40
2.5
100
AcDbArc
 50
270.0
 51
0.0
  0
ARC
  5
9654
330
94A8
100
AcDbEntity
  8
1
  6
Continuous
100
AcDbCircle
 10
193.083395
 20
47.791865
 30
0.0
 40
1.0
100
AcDbArc
 50
270.0
 51
0.0
  0
ARC
  5
9655
330
94A8
100
AcDbEntity
  8
1
  6
Continuous
100
AcDbCircle
 10
193.083395
 20
77.79216499999998
 30
0.0
 40
1.0
100
AcDbArc
 50
0.0
 51
90.0
  0
LINE
  5
9656
330
94A8
100
AcDbEntity
  8
1
  6
Continuous
100
AcDbLine
 10
204.583395
 20
169.4957649999998
 30
0.0
 11
204.583395
 21
147.7921949999999
 31
0.0
  0
LINE
  5
9657
330
94A8
100
AcDbEntity
  8
1
  6
Continuous
100
AcDbLine
 10
206.583395
 20
153.721132
 30
0.0
 11
209.5833949999998
 21
153.721132
 31
0.0
  0
LINE
  5
9658
330
94A8
100
AcDbEntity
  8
1
  6
Continuous
100
AcDbLine
 10
206.583395
 20
167.8632649999999
 30
0.0
 11
209.5833949999998
 21
167.8632649999999
 31
0.0
  0
LINE
  5
9659
330
94A8
100
AcDbEntity
  8
2
  6
Continuous
100
AcDbLine
 10
206.583395
 20
164.951648
 30
0.0
 11
209.5833949999998
 21
160.7921949999999
 31
0.0
  0
LINE
  5
965A
330
94A8
100
AcDbEntity
  8
2
  6
Continuous
100
AcDbLine
 10
209.5833949999998
 20
160.7921949999999
 30
0.0
 11
206.583395
 21
156.632746
 31
0.0
  0
LINE
  5
965B
330
94A8
100
AcDbEntity
  8
2
  6
Continuous
100
AcDbLine
 10
206.583395
 20
157.880581
 30
0.0
 11
209.5833949999998
 21
153.721132
 31
0.0
  0
LINE
  5
965C
330
94A8
100
AcDbEntity
  8
2
  6
Continuous
100
AcDbLine
 10
209.5833949999998
 20
167.8632649999999
 30
0.0
 11
206.583395
 21
163.7038119999999
 31
0.0
  0
LINE
  5
965D
330
94A8
100
AcDbEntity
  8
1
  6
Continuous
100
AcDbLine
 10
204.583395
 20
255.2338649999998
 30
0.0
 11
204.583395
 21
249.2338649999998
 31
0.0
  0
LINE
  5
965E
330
94A8
100
AcDbEntity
  8
1
  6
Continuous
100
AcDbLine
 10
204.583395
 20
235.2338649999999
 30
0.0
 11
204.583395
 21
230.9754649999999
 31
0.0
  0
LINE
  5
965F
330
94A8
100
AcDbEntity
  8
2
  6
Continuous
100
AcDbLine
 10
209.5833949999998
 20
249.304935
 30
0.0
 11
206.583395
 21
245.1454819999999
 31
0.0
  0
LINE
  5
9660
330
94A8
100
AcDbEntity
  8
2
  6
Continuous
100
AcDbLine
 10
206.583395
 20
246.393318
 30
0.0
 11
209.5833949999998
 21
242.2338649999999
 31
0.0
  0
LINE
  5
9661
330
94A8
100
AcDbEntity
  8
2
  6
Continuous
100
AcDbLine
 10
209.5833949999998
 20
242.2338649999999
 30
0.0
 11
206.583395
 21
238.074416
 31
0.0
  0
LINE
  5
9662
330
94A8
100
AcDbEntity
  8
2
  6
Continuous
100
AcDbLine
 10
206.583395
 20
239.3222509999999
 30
0.0
 11
209.5833949999998
 21
235.162802
 31
0.0
  0
ARC
  5
9663
330
94A8
100
AcDbEntity
  8
1
  6
Continuous
100
AcDbCircle
 10
335.683395
 20
242.2338649999999
 30
0.0
 40
150.0
100
AcDbArc
 50
175.851983
 51
184.1480169999999
  0
LINE
  5
9664
330
94A8
100
AcDbEntity
  8
1
  6
Continuous
100
AcDbLine
 10
186.076318
 20
253.083865
 30
0.0
 11
186.0833949999999
 21
253.083865
 31
0.0
  0
LINE
  5
9665
330
94A8
100
AcDbEntity
  8
1
  6
Continuous
100
AcDbLine
 10
186.076318
 20
231.383865
 30
0.0
 11
186.0833949999999
 21
231.383865
 31
0.0
  0
LINE
  5
9666
330
94A8
100
AcDbEntity
  8
1
  6
Continuous
100
AcDbLine
 10
197.5833949999999
 20
139.8363949999998
 30
0.0
 11
202.7905
 21
145.043461
 31
0.0
  0
LINE
  5
9667
330
94A8
100
AcDbEntity
  8
1
  6
Continuous
100
AcDbLine
 10
203.0833949999998
 20
176.2921649999999
 30
0.0
 11
203.0833949999998
 21
145.7505699999998
 31
0.0
  0
LINE
  5
9668
330
94A8
100
AcDbEntity
  8
1
  6
Continuous
100
AcDbLine
 10
342.413495
 20
47.791865
 30
0.0
 11
342.413495
 21
93.29216499999999
 31
0.0
  0
LINE
  5
9669
330
94A8
100
AcDbEntity
  8
1
  6
Continuous
100
AcDbLine
 10
369.213495
 20
47.791865
 30
0.0
 11
369.213495
 21
93.29216499999999
 31
0.0
  0
ARC
  5
966A
330
94A8
100
AcDbEntity
  8
1
  6
Continuous
100
AcDbCircle
 10
355.8134949999999
 20
154.6790249999999
 30
0.0
 40
14.8427
100
AcDbArc
 50
205.4709999999999
 51
334.5289999999998
  0
ARC
  5
966B
330
94A8
100
AcDbEntity
  8
1
  6
Continuous
100
AcDbCircle
 10
202.083395
 20
145.7505699999998
 30
0.0
 40
1.0
100
AcDbArc
 50
314.999792
 51
0.0
  0
LINE
  5
966C
330
94A8
100
AcDbEntity
  8
1
  6
Continuous
100
AcDbLine
 10
203.0833949999998
 20
151.1647
 30
0.0
 11
192.083395
 21
151.1647
 31
0.0
  0
LINE
  5
966D
330
94A8
100
AcDbEntity
  8
1
  6
Continuous
100
AcDbLine
 10
203.4833949999999
 20
148.742195
 30
0.0
 11
203.0833949999998
 21
148.742195
 31
0.0
  0
ARC
  5
966E
330
94A8
100
AcDbEntity
  8
1
  6
Continuous
100
AcDbCircle
 10
203.4833949999999
 20
149.742195
 30
0.0
 40
1.0
100
AcDbArc
 50
270.0
 51
0.0
  0
ARC
  5
966F
330
94A8
100
AcDbEntity
  8
1
  6
Continuous
100
AcDbCircle
 10
202.083395
 20
176.2921649999999
 30
0.0
 40
1.0
100
AcDbArc
 50
0.0
 51
90.0
  0
LINE
  5
9670
330
94A8
100
AcDbEntity
  8
1
  6
Continuous
100
AcDbLine
 10
203.4833949999999
 20
171.227801
 30
0.0
 11
203.0833949999998
 21
171.227801
 31
0.0
  0
ARC
  5
9671
330
94A8
100
AcDbEntity
  8
1
  6
Continuous
100
AcDbCircle
 10
203.4833949999999
 20
170.227801
 30
0.0
 40
1.0
100
AcDbArc
 50
0.0
 51
90.0
  0
LINE
  5
9672
330
94A8
100
AcDbEntity
  8
1
  6
Continuous
100
AcDbLine
 10
369.213495
 20
143.2921649999999
 30
0.0
 11
369.213495
 21
151.164646
 31
0.0
  0
LINE
  5
9673
330
94A8
100
AcDbEntity
  8
1
  6
Continuous
100
AcDbLine
 10
342.413495
 20
143.2921649999999
 30
0.0
 11
342.413495
 21
151.164646
 31
0.0
  0
ARC
  5
9674
330
94A8
100
AcDbEntity
  8
1
  6
Continuous
100
AcDbCircle
 10
343.413495
 20
91.792165
 30
0.0
 40
1.0
100
AcDbArc
 50
90.0
 51
180.0
  0
ARC
  5
9675
330
94A8
100
AcDbEntity
  8
1
  6
Continuous
100
AcDbCircle
 10
368.213495
 20
91.792165
 30
0.0
 40
1.0
100
AcDbArc
 50
0.0
 51
90.0
  0
ARC
  5
9676
330
94A8
100
AcDbEntity
  8
1
  6
Continuous
100
AcDbCircle
 10
343.413495
 20
77.79216499999998
 30
0.0
 40
1.0
100
AcDbArc
 50
90.0
 51
180.0
  0
ARC
  5
9677
330
94A8
100
AcDbEntity
  8
1
  6
Continuous
100
AcDbCircle
 10
368.213495
 20
77.79216499999998
 30
0.0
 40
1.0
100
AcDbArc
 50
0.0
 51
90.0
  0
ARC
  5
9678
330
94A8
100
AcDbEntity
  8
1
  6
Continuous
100
AcDbCircle
 10
368.213495
 20
47.791865
 30
0.0
 40
1.0
100
AcDbArc
 50
311.4181699999999
 51
0.0
  0
ARC
  5
9679
330
94A8
100
AcDbEntity
  8
1
  6
Continuous
100
AcDbCircle
 10
343.413495
 20
47.791865
 30
0.0
 40
1.0
100
AcDbArc
 50
180.0
 51
228.5809229999999
  0
LINE
  5
967A
330
94A8
100
AcDbEntity
  8
1
  6
Continuous
100
AcDbLine
 10
203.0833949999998
 20
255.6338649999999
 30
0.0
 11
211.083395
 21
255.6338649999999
 31
0.0
  0
LINE
  5
967B
330
94A8
100
AcDbEntity
  8
1
  6
Continuous
100
AcDbLine
 10
203.0833949999998
 20
228.833865
 30
0.0
 11
211.083395
 21
228.833865
 31
0.0
  0
ARC
  5
967C
330
94A8
100
AcDbEntity
  8
1
  6
Continuous
100
AcDbCircle
 10
211.083395
 20
254.633865
 30
0.0
 40
1.0
100
AcDbArc
 50
0.0
 51
90.0
  0
ARC
  5
967D
330
94A8
100
AcDbEntity
  8
1
  6
Continuous
100
AcDbCircle
 10
211.083395
 20
229.833865
 30
0.0
 40
1.0
100
AcDbArc
 50
270.0
 51
0.0
  0
LINE
  5
967E
330
94A8
100
AcDbEntity
  8
1
  6
Continuous
100
AcDbLine
 10
203.0833949999998
 20
257.7338649999999
 30
0.0
 11
203.0833949999998
 21
226.7338649999998
 31
0.0
  0
ARC
  5
967F
330
94A8
100
AcDbEntity
  8
1
  6
Continuous
100
AcDbCircle
 10
202.083395
 20
257.7338649999999
 30
0.0
 40
1.0
100
AcDbArc
 50
0.0
 51
90.0
  0
ARC
  5
9680
330
94A8
100
AcDbEntity
  8
1
  6
Continuous
100
AcDbCircle
 10
202.083395
 20
226.7338649999998
 30
0.0
 40
1.0
100
AcDbArc
 50
270.0
 51
0.0
  0
LINE
  5
9681
330
94A8
100
AcDbEntity
  8
1
  6
Continuous
100
AcDbLine
 10
204.483395
 20
235.2338649999999
 30
0.0
 11
204.483395
 21
231.1838649999998
 31
0.0
  0
LINE
  5
9682
330
94A8
100
AcDbEntity
  8
1
  6
Continuous
100
AcDbLine
 10
203.0833949999998
 20
254.2838649999999
 30
0.0
 11
203.4833949999999
 21
254.2838649999999
 31
0.0
  0
LINE
  5
9683
330
94A8
100
AcDbEntity
  8
1
  6
Continuous
100
AcDbLine
 10
203.0833949999998
 20
230.183865
 30
0.0
 11
203.4833949999999
 21
230.183865
 31
0.0
  0
ARC
  5
9684
330
94A8
100
AcDbEntity
  8
1
  6
Continuous
100
AcDbCircle
 10
203.4833949999999
 20
231.1838649999998
 30
0.0
 40
1.0
100
AcDbArc
 50
270.0
 51
0.0
  0
ARC
  5
9685
330
94A8
100
AcDbEntity
  8
1
  6
Continuous
100
AcDbCircle
 10
203.4833949999999
 20
253.2838649999999
 30
0.0
 40
1.0
100
AcDbArc
 50
0.0
 51
90.0
  0
CIRCLE
  5
9686
330
94A8
100
AcDbEntity
  8
1
  6
Continuous
100
AcDbCircle
 10
355.8134949999999
 20
160.7921949999999
 30
0.0
 40
16.5
  0
LINE
  5
9687
330
94A8
100
AcDbEntity
  8
1
  6
Continuous
100
AcDbLine
 10
197.5833949999999
 20
148.295785
 30
0.0
 11
203.0833949999998
 21
151.1647
 31
0.0
  0
LINE
  5
9688
330
94A8
100
AcDbEntity
  8
1
  6
Continuous
100
AcDbLine
 10
36.94589699999998
 20
245.686682
 30
0.0
 11
38.54549699999999
 21
245.686682
 31
0.0
  0
LINE
  5
9689
330
94A8
100
AcDbEntity
  8
1
  6
Continuous
100
AcDbLine
 10
38.193697
 20
246.359262
 30
0.0
 11
35.384197
 21
247.1130519999999
 31
0.0
  0
LINE
  5
968A
330
94A8
100
AcDbEntity
  8
1
  6
Continuous
100
AcDbLine
 10
34.754897
 20
244.6865819999999
 30
0.0
 11
38.928497
 21
244.6865819999999
 31
0.0
  0
ARC
  5
968B
330
94A8
100
AcDbEntity
  8
1
  6
Continuous
100
AcDbCircle
 10
36.94589699999998
 20
246.353832
 30
0.0
 40
1.718009999999997
100
AcDbArc
 50
35.54699999999999
 51
144.462
  0
LINE
  5
968C
330
94A8
100
AcDbEntity
  8
1
  6
Continuous
100
AcDbLine
 10
38.828297
 20
244.0207519999999
 30
0.0
 11
36.94589699999998
 21
244.0207519999999
 31
0.0
  0
LINE
  5
968D
330
94A8
100
AcDbEntity
  8
1
  6
Continuous
100
AcDbLine
 10
34.75219699999998
 20
243.353557
 30
0.0
 11
39.14099699999999
 21
243.353557
 31
0.0
  0
LINE
  5
968E
330
94A8
100
AcDbEntity
  8
1
  6
Continuous
100
AcDbLine
 10
34.62089699999999
 20
242.687768
 30
0.0
 11
39.272197
 21
242.687768
 31
0.0
  0
ARC
  5
968F
330
94A8
100
AcDbEntity
  8
1
  6
Continuous
100
AcDbCircle
 10
36.27959699999999
 20
252.3534909999999
 30
0.0
 40
2.0
100
AcDbArc
 50
53.13009999999999
 51
90.0
  0
LINE
  5
9690
330
94A8
100
AcDbEntity
  8
1
  6
Continuous
100
AcDbLine
 10
46.94659699999998
 20
245.603491
 30
0.0
 11
36.87959699999999
 21
253.1534909999999
 31
0.0
  0
LINE
  5
9691
330
94A8
100
AcDbEntity
  8
1
  6
Continuous
100
AcDbLine
 10
36.94589699999998
 20
248.071192
 30
0.0
 11
36.94589699999998
 21
246.693522
 31
0.0
  0
ARC
  5
9692
330
94A8
100
AcDbEntity
  8
1
  6
Continuous
100
AcDbCircle
 10
36.612997
 20
245.686682
 30
0.0
 40
0.333453
100
AcDbArc
 50
270.0
 51
90.0
  0
LINE
  5
9693
330
94A8
100
AcDbEntity
  8
1
  6
Continuous
100
AcDbLine
 10
35.068897
 20
245.3537719999999
 30
0.0
 11
36.612997
 21
245.3537719999999
 31
0.0
  0
LINE
  5
9694
330
94A8
100
AcDbEntity
  8
1
  6
Continuous
100
AcDbLine
 10
36.612997
 20
246.0195619999999
 30
0.0
 11
35.18929699999999
 21
246.0195619999999
 31
0.0
  0
ARC
  5
9695
330
94A8
100
AcDbEntity
  8
1
  6
Continuous
100
AcDbCircle
 10
34.75219699999998
 20
243.4198819999998
 30
0.0
 40
0.066718
100
AcDbArc
 50
172.2069999999999
 51
270.0
  0
ARC
  5
9696
330
94A8
100
AcDbEntity
  8
1
  6
Continuous
100
AcDbCircle
 10
42.54589699999999
 20
242.3534909999999
 30
0.0
 40
7.932639999999997
100
AcDbArc
 50
169.896
 51
172.2069999999999
  0
LINE
  5
9697
330
94A8
100
AcDbEntity
  8
1
  6
Continuous
100
AcDbLine
 10
36.14609699999999
 20
244.0207519999999
 30
0.0
 11
35.06479699999999
 21
244.0207519999999
 31
0.0
  0
ARC
  5
9698
330
94A8
100
AcDbEntity
  8
1
  6
Continuous
100
AcDbCircle
 10
35.06479699999999
 20
243.6864719999999
 30
0.0
 40
0.333453
100
AcDbArc
 50
90.0
 51
169.896
  0
LINE
  5
9699
330
94A8
100
AcDbEntity
  8
1
  6
Continuous
100
AcDbLine
 10
36.94589699999998
 20
244.0207519999999
 30
0.0
 11
36.94589699999998
 21
243.6864719999999
 31
0.0
  0
ARC
  5
969A
330
94A8
100
AcDbEntity
  8
1
  6
Continuous
100
AcDbCircle
 10
27.94659699999999
 20
246.247715
 30
0.0
 40
1.0
100
AcDbArc
 50
146.3099319999998
 51
180.0
  0
ARC
  5
969B
330
94A8
100
AcDbEntity
  8
1
  6
Continuous
100
AcDbCircle
 10
27.94659699999999
 20
246.2479389999999
 30
0.0
 40
2.0
100
AcDbArc
 50
146.3099319999998
 51
180.0
  0
ARC
  5
969C
330
94A8
100
AcDbEntity
  8
1
  6
Continuous
100
AcDbCircle
 10
29.44659699999998
 20
245.853491
 30
0.0
 40
0.5
100
AcDbArc
 50
90.0
 51
180.0
  0
ARC
  5
969D
330
94A8
100
AcDbEntity
  8
1
  6
Continuous
100
AcDbCircle
 10
32.01659699999999
 20
252.3534909999999
 30
0.0
 40
1.0
100
AcDbArc
 50
90.0
 51
146.31
  0
ARC
  5
969E
330
94A8
100
AcDbEntity
  8
1
  6
Continuous
100
AcDbCircle
 10
36.27959699999999
 20
252.3534909999999
 30
0.0
 40
1.0
100
AcDbArc
 50
53.13009999999999
 51
90.0
  0
ARC
  5
969F
330
94A8
100
AcDbEntity
  8
1
  6
Continuous
100
AcDbCircle
 10
32.01659699999999
 20
252.3534909999999
 30
0.0
 40
2.0
100
AcDbArc
 50
90.0
 51
146.31
  0
ARC
  5
96A0
330
94A8
100
AcDbEntity
  8
1
  6
Continuous
100
AcDbCircle
 10
30.94659699999999
 20
245.853491
 30
0.0
 40
0.5
100
AcDbArc
 50
0.0
 51
90.0
  0
LINE
  5
96A1
330
94A8
100
AcDbEntity
  8
1
  6
Continuous
100
AcDbLine
 10
31.18459699999998
 20
252.9074909999999
 30
0.0
 11
27.11454699999999
 21
246.802415
 31
0.0
  0
LINE
  5
96A2
330
94A8
100
AcDbEntity
  8
1
  6
Continuous
100
AcDbLine
 10
36.27959699999999
 20
253.3534909999999
 30
0.0
 11
32.01659699999999
 21
253.3534909999999
 31
0.0
  0
LINE
  5
96A3
330
94A8
100
AcDbEntity
  8
1
  6
Continuous
100
AcDbLine
 10
26.282497
 20
247.3573399999999
 30
0.0
 11
30.35259699999999
 21
253.462491
 31
0.0
  0
LINE
  5
96A4
330
94A8
100
AcDbEntity
  8
1
  6
Continuous
100
AcDbLine
 10
32.01659699999999
 20
254.3534909999999
 30
0.0
 11
36.27959699999999
 21
254.3534909999999
 31
0.0
  0
LINE
  5
96A5
330
94A8
100
AcDbEntity
  8
1
  6
Continuous
100
AcDbLine
 10
29.44659699999998
 20
246.3534909999999
 30
0.0
 11
30.94659699999999
 21
246.3534909999999
 31
0.0
  0
LINE
  5
96A6
330
94A8
100
AcDbEntity
  8
1
  6
Continuous
100
AcDbLine
 10
53.946597
 20
245.453491
 30
0.0
 11
70.446597
 21
245.453491
 31
0.0
  0
LINE
  5
96A7
330
94A8
100
AcDbEntity
  8
1
  6
Continuous
100
AcDbLine
 10
50.446597
 20
243.253491
 30
0.0
 11
72.782386
 21
243.2616789999999
 31
0.0
  0
LINE
  5
96A8
330
94A8
100
AcDbEntity
  8
1
  6
Continuous
100
AcDbLine
 10
50.446597
 20
245.753491
 30
0.0
 11
53.946597
 21
245.753491
 31
0.0
  0
LINE
  5
96A9
330
94A8
100
AcDbEntity
  8
1
  6
Continuous
100
AcDbLine
 10
46.94659699999998
 20
246.8534909999999
 30
0.0
 11
53.946597
 21
246.8534909999999
 31
0.0
  0
ARC
  5
96AA
330
94A8
100
AcDbEntity
  8
1
  6
Continuous
100
AcDbCircle
 10
38.828297
 20
243.6864719999999
 30
0.0
 40
0.333453
100
AcDbArc
 50
10.10399999999999
 51
90.0
  0
ARC
  5
96AB
330
94A8
100
AcDbEntity
  8
1
  6
Continuous
100
AcDbCircle
 10
39.14099699999999
 20
243.4198819999998
 30
0.0
 40
0.066718
100
AcDbArc
 50
270.0
 51
7.792999999999999
  0
ARC
  5
96AC
330
94A8
100
AcDbEntity
  8
1
  6
Continuous
100
AcDbCircle
 10
31.34729699999999
 20
242.3534909999999
 30
0.0
 40
7.932639999999997
100
AcDbArc
 50
7.792999999999999
 51
10.10399999999999
  0
LINE
  5
96AD
330
94A8
100
AcDbEntity
  8
1
  6
Continuous
100
AcDbLine
 10
50.446597
 20
245.753491
 30
0.0
 11
50.446597
 21
243.253491
 31
0.0
  0
LINE
  5
96AE
330
94A8
100
AcDbEntity
  8
1
  6
Continuous
100
AcDbLine
 10
37.479597
 20
253.9534909999999
 30
0.0
 11
46.94659699999998
 21
246.8534909999999
 31
0.0
  0
LINE
  5
96AF
330
94A8
100
AcDbEntity
  8
1
  6
Continuous
100
AcDbLine
 10
53.946597
 20
246.8534909999999
 30
0.0
 11
53.946597
 21
245.453491
 31
0.0
  0
LINE
  5
96B0
330
94A8
100
AcDbEntity
  8
1
  6
Continuous
100
AcDbLine
 10
50.446597
 20
241.1534909999998
 30
0.0
 11
73.352597
 21
241.1534909999998
 31
0.0
  0
LINE
  5
96B1
330
94A8
100
AcDbEntity
  8
1
  6
Continuous
100
AcDbLine
 10
50.446597
 20
239.953491
 30
0.0
 11
72.14859699999998
 21
239.953491
 31
0.0
  0
LINE
  5
96B2
330
94A8
100
AcDbEntity
  8
1
  6
Continuous
100
AcDbLine
 10
53.946597
 20
239.253491
 30
0.0
 11
71.446597
 21
239.253491
 31
0.0
  0
LINE
  5
96B3
330
94A8
100
AcDbEntity
  8
1
  6
Continuous
100
AcDbLine
 10
70.446597
 20
245.453491
 30
0.0
 11
73.78859699999998
 21
242.3174909999999
 31
0.0
  0
ARC
  5
96B4
330
94A8
100
AcDbEntity
  8
1
  6
Continuous
100
AcDbCircle
 10
73.44659699999998
 20
241.953491
 30
0.0
 40
0.5
100
AcDbArc
 50
314.9129999999999
 51
46.82809999999999
  0
LINE
  5
96B5
330
94A8
100
AcDbEntity
  8
1
  6
Continuous
100
AcDbLine
 10
71.446597
 20
239.253491
 30
0.0
 11
73.79959699999997
 21
241.599491
 31
0.0
  0
LINE
  5
96B6
330
94A8
100
AcDbEntity
  8
1
  6
Continuous
100
AcDbLine
 10
46.94659699999998
 20
237.8534909999999
 30
0.0
 11
53.946597
 21
237.8534909999999
 31
0.0
  0
LINE
  5
96B7
330
94A8
100
AcDbEntity
  8
1
  6
Continuous
100
AcDbLine
 10
50.446597
 20
241.1534909999998
 30
0.0
 11
50.446597
 21
239.953491
 31
0.0
  0
LINE
  5
96B8
330
94A8
100
AcDbEntity
  8
1
  6
Continuous
100
AcDbLine
 10
53.946597
 20
239.253491
 30
0.0
 11
53.946597
 21
237.8534909999999
 31
0.0
  0
LINE
  5
96B9
330
94A8
100
AcDbEntity
  8
1
  6
Continuous
100
AcDbLine
 10
46.94659699999998
 20
245.603491
 30
0.0
 11
46.94659699999998
 21
239.103491
 31
0.0
  0
LINE
  5
96BA
330
94A8
100
AcDbEntity
  8
1
  6
Continuous
100
AcDbLine
 10
35.11759699999998
 20
238.0202319999999
 30
0.0
 11
37.99199699999999
 21
238.0202319999999
 31
0.0
  0
ARC
  5
96BB
330
94A8
100
AcDbEntity
  8
1
  6
Continuous
100
AcDbCircle
 10
36.94589699999998
 20
238.3544919999999
 30
0.0
 40
1.717879999999999
100
AcDbArc
 50
215.5309999999999
 51
324.4619999999998
  0
ARC
  5
96BC
330
94A8
100
AcDbEntity
  8
1
  6
Continuous
100
AcDbCircle
 10
36.27959699999999
 20
232.3534909999999
 30
0.0
 40
2.0
100
AcDbArc
 50
270.0
 51
306.87
  0
LINE
  5
96BD
330
94A8
100
AcDbEntity
  8
1
  6
Continuous
100
AcDbLine
 10
36.87959699999999
 20
231.553491
 30
0.0
 11
46.94659699999998
 21
239.103491
 31
0.0
  0
ARC
  5
96BE
330
94A8
100
AcDbEntity
  8
1
  6
Continuous
100
AcDbCircle
 10
42.54589699999999
 20
242.3534909999999
 30
0.0
 40
8.599269999999998
100
AcDbArc
 50
144.462
 51
215.5379999999999
  0
ARC
  5
96BF
330
94A8
100
AcDbEntity
  8
1
  6
Continuous
100
AcDbCircle
 10
36.27959699999999
 20
232.3534909999999
 30
0.0
 40
1.0
100
AcDbArc
 50
270.0
 51
306.87
  0
ARC
  5
96C0
330
94A8
100
AcDbEntity
  8
1
  6
Continuous
100
AcDbCircle
 10
32.01659699999999
 20
232.3534909999999
 30
0.0
 40
1.0
100
AcDbArc
 50
213.69
 51
270.0
  0
ARC
  5
96C1
330
94A8
100
AcDbEntity
  8
1
  6
Continuous
100
AcDbCircle
 10
27.94659699999999
 20
238.458491
 30
0.0
 40
1.0
100
AcDbArc
 50
180.0
 51
213.69
  0
ARC
  5
96C2
330
94A8
100
AcDbEntity
  8
1
  6
Continuous
100
AcDbCircle
 10
32.01659699999999
 20
232.3534909999999
 30
0.0
 40
2.0
100
AcDbArc
 50
213.69
 51
270.0
  0
ARC
  5
96C3
330
94A8
100
AcDbEntity
  8
1
  6
Continuous
100
AcDbCircle
 10
27.94659699999999
 20
238.458491
 30
0.0
 40
2.0
100
AcDbArc
 50
180.0
 51
213.69
  0
ARC
  5
96C4
330
94A8
100
AcDbEntity
  8
1
  6
Continuous
100
AcDbCircle
 10
30.94659699999999
 20
238.853491
 30
0.0
 40
0.5
100
AcDbArc
 50
270.0
 51
0.0
  0
ARC
  5
96C5
330
94A8
100
AcDbEntity
  8
1
  6
Continuous
100
AcDbCircle
 10
29.44659699999998
 20
238.853491
 30
0.0
 40
0.5
100
AcDbArc
 50
180.0
 51
270.0
  0
LINE
  5
96C6
330
94A8
100
AcDbEntity
  8
1
  6
Continuous
100
AcDbLine
 10
32.01659699999999
 20
231.3534909999999
 30
0.0
 11
36.27959699999999
 21
231.3534909999999
 31
0.0
  0
LINE
  5
96C7
330
94A8
100
AcDbEntity
  8
1
  6
Continuous
100
AcDbLine
 10
27.11459699999998
 20
237.904491
 30
0.0
 11
31.18459699999998
 21
231.798491
 31
0.0
  0
LINE
  5
96C8
330
94A8
100
AcDbEntity
  8
1
  6
Continuous
100
AcDbLine
 10
26.28259699999999
 20
237.349491
 30
0.0
 11
30.35259699999999
 21
231.2434909999999
 31
0.0
  0
LINE
  5
96C9
330
94A8
100
AcDbEntity
  8
1
  6
Continuous
100
AcDbLine
 10
32.01659699999999
 20
230.3534909999999
 30
0.0
 11
36.27959699999999
 21
230.3534909999999
 31
0.0
  0
LINE
  5
96CA
330
94A8
100
AcDbEntity
  8
1
  6
Continuous
100
AcDbLine
 10
29.44659699999998
 20
238.3534909999999
 30
0.0
 11
30.94659699999999
 21
238.3534909999999
 31
0.0
  0
ARC
  5
96CB
330
94A8
100
AcDbEntity
  8
1
  6
Continuous
100
AcDbCircle
 10
31.34729699999999
 20
242.3534909999999
 30
0.0
 40
8.599269999999998
100
AcDbArc
 50
324.4619999999998
 51
35.53799999999999
  0
LINE
  5
96CC
330
94A8
100
AcDbEntity
  8
1
  6
Continuous
100
AcDbLine
 10
37.479597
 20
230.753491
 30
0.0
 11
46.94659699999998
 21
237.8534909999999
 31
0.0
  0
LINE
  5
96CD
330
94A8
100
AcDbEntity
  8
1
  6
Continuous
100
AcDbLine
 10
38.176097
 20
238.687402
 30
0.0
 11
35.71709699999999
 21
238.687402
 31
0.0
  0
LINE
  5
96CE
330
94A8
100
AcDbEntity
  8
1
  6
Continuous
100
AcDbLine
 10
35.301597
 20
239.354572
 30
0.0
 11
38.59019699999999
 21
239.354572
 31
0.0
  0
LINE
  5
96CF
330
94A8
100
AcDbEntity
  8
1
  6
Continuous
100
AcDbLine
 10
35.21499699999999
 20
240.0204019999999
 30
0.0
 11
38.678097
 21
240.0204019999999
 31
0.0
  0
LINE
  5
96D0
330
94A8
100
AcDbEntity
  8
1
  6
Continuous
100
AcDbLine
 10
34.67639699999998
 20
241.353382
 30
0.0
 11
39.21669699999998
 21
241.353382
 31
0.0
  0
LINE
  5
96D1
330
94A8
100
AcDbEntity
  8
1
  6
Continuous
100
AcDbLine
 10
34.62089699999999
 20
242.0205759999999
 30
0.0
 11
39.272197
 21
242.0205759999999
 31
0.0
  0
LINE
  5
96D2
330
94A8
100
AcDbEntity
  8
1
  6
Continuous
100
AcDbLine
 10
36.94589699999998
 20
242.0205759999999
 30
0.0
 11
36.94589699999998
 21
241.353382
 31
0.0
  0
ARC
  5
96D3
330
94A8
100
AcDbEntity
  8
1
  6
Continuous
100
AcDbCircle
 10
42.54589699999999
 20
242.3534909999999
 30
0.0
 40
7.932639999999997
100
AcDbArc
 50
192.729
 51
193.2679999999999
  0
ARC
  5
96D4
330
94A8
100
AcDbEntity
  8
1
  6
Continuous
100
AcDbCircle
 10
34.87399699999999
 20
240.6199019999998
 30
0.0
 40
0.066718
100
AcDbArc
 50
90.0
 51
192.729
  0
ARC
  5
96D5
330
94A8
100
AcDbEntity
  8
1
  6
Continuous
100
AcDbCircle
 10
42.54589699999999
 20
242.3534909999999
 30
0.0
 40
7.932639999999997
100
AcDbArc
 50
193.2679999999999
 51
195.258
  0
ARC
  5
96D6
330
94A8
100
AcDbEntity
  8
1
  6
Continuous
100
AcDbCircle
 10
35.301597
 20
239.2869220000001
 30
0.0
 40
0.066718
100
AcDbArc
 50
90.0
 51
202.944
  0
LINE
  5
96D7
330
94A8
100
AcDbEntity
  8
1
  6
Continuous
100
AcDbLine
 10
36.14609699999999
 20
240.687592
 30
0.0
 11
34.87399699999999
 21
240.687592
 31
0.0
  0
ARC
  5
96D8
330
94A8
100
AcDbEntity
  8
1
  6
Continuous
100
AcDbCircle
 10
35.21499699999999
 20
240.3546819999998
 30
0.0
 40
0.333453
100
AcDbArc
 50
195.258
 51
270.0
  0
ARC
  5
96D9
330
94A8
100
AcDbEntity
  8
1
  6
Continuous
100
AcDbCircle
 10
35.71709699999999
 20
239.0202919999999
 30
0.0
 40
0.333453
100
AcDbArc
 50
206.014
 51
270.0
  0
ARC
  5
96DA
330
94A8
100
AcDbEntity
  8
1
  6
Continuous
100
AcDbCircle
 10
42.54589699999999
 20
242.3534909999999
 30
0.0
 40
7.932639999999997
100
AcDbArc
 50
202.944
 51
206.014
  0
ARC
  5
96DB
330
94A8
100
AcDbEntity
  8
1
  6
Continuous
100
AcDbCircle
 10
39.019197
 20
240.6199019999998
 30
0.0
 40
0.066718
100
AcDbArc
 50
347.2709999999998
 51
90.0
  0
ARC
  5
96DC
330
94A8
100
AcDbEntity
  8
1
  6
Continuous
100
AcDbCircle
 10
31.34729699999999
 20
242.3534909999999
 30
0.0
 40
7.932639999999997
100
AcDbArc
 50
344.7419999999998
 51
344.794
  0
ARC
  5
96DD
330
94A8
100
AcDbEntity
  8
1
  6
Continuous
100
AcDbCircle
 10
38.678097
 20
240.3546819999998
 30
0.0
 40
0.333453
100
AcDbArc
 50
270.0
 51
344.7419999999998
  0
ARC
  5
96DE
330
94A8
100
AcDbEntity
  8
1
  6
Continuous
100
AcDbCircle
 10
31.34729699999999
 20
242.3534909999999
 30
0.0
 40
7.932639999999997
100
AcDbArc
 50
344.794
 51
347.2709999999998
  0
ARC
  5
96DF
330
94A8
100
AcDbEntity
  8
1
  6
Continuous
100
AcDbCircle
 10
38.59019699999999
 20
239.2869220000001
 30
0.0
 40
0.066718
100
AcDbArc
 50
337.0559999999999
 51
90.0
  0
LINE
  5
96E0
330
94A8
100
AcDbEntity
  8
1
  6
Continuous
100
AcDbLine
 10
39.019197
 20
240.687592
 30
0.0
 11
37.745697
 21
240.687592
 31
0.0
  0
ARC
  5
96E1
330
94A8
100
AcDbEntity
  8
1
  6
Continuous
100
AcDbCircle
 10
38.176097
 20
239.0202919999999
 30
0.0
 40
0.333453
100
AcDbArc
 50
270.0
 51
333.9859999999998
  0
ARC
  5
96E2
330
94A8
100
AcDbEntity
  8
1
  6
Continuous
100
AcDbCircle
 10
31.34729699999999
 20
242.3534909999999
 30
0.0
 40
7.932639999999997
100
AcDbArc
 50
333.9859999999998
 51
334.7719999999999
  0
ARC
  5
96E3
330
94A8
100
AcDbEntity
  8
1
  6
Continuous
100
AcDbCircle
 10
31.34729699999999
 20
242.3534909999999
 30
0.0
 40
7.932639999999997
100
AcDbArc
 50
333.9859999999998
 51
337.0559999999999
  0
LINE
  5
96E4
330
94A8
100
AcDbEntity
  8
1
  6
Continuous
100
AcDbLine
 10
26.94659699999998
 20
246.247715
 30
0.0
 11
26.94659699999998
 21
238.458491
 31
0.0
  0
LINE
  5
96E5
330
94A8
100
AcDbEntity
  8
1
  6
Continuous
100
AcDbLine
 10
31.446597
 20
245.853491
 30
0.0
 11
31.446597
 21
238.853491
 31
0.0
  0
LINE
  5
96E6
330
94A8
100
AcDbEntity
  8
1
  6
Continuous
100
AcDbLine
 10
28.946597
 20
245.853491
 30
0.0
 11
28.946597
 21
238.853491
 31
0.0
  0
LINE
  5
96E7
330
94A8
100
AcDbEntity
  8
1
  6
Continuous
100
AcDbLine
 10
25.946597
 20
246.2479389999999
 30
0.0
 11
25.946597
 21
238.458491
 31
0.0
  0
LINE
  5
96E8
330
94A8
100
AcDbEntity
  8
4
  6
CENTER
100
AcDbLine
 10
22.098767
 20
242.3532149999998
 30
0.0
 11
77.741263
 21
242.3532149999998
 31
0.0
  0
LINE
  5
96FD
330
94A8
100
AcDbEntity
  8
1
  6
Continuous
100
AcDbLine
 10
240.1293949999999
 20
149.7921949999999
 30
0.0
 11
240.1293949999999
 21
171.7921949999999
 31
0.0
  0
LINE
  5
96FE
330
94A8
100
AcDbEntity
  8
1
  6
Continuous
100
AcDbLine
 10
229.1294389913653
 20
149.7921949999999
 30
0.0
 11
229.1294389913653
 21
171.7921949999999
 31
0.0
  0
LINE
  5
96FF
330
94A8
100
AcDbEntity
  8
1
  6
Continuous
100
AcDbLine
 10
228.1294389913653
 20
149.7921949999999
 30
0.0
 11
228.1294389913653
 21
171.7921949999999
 31
0.0
  0
LINE
  5
9700
330
94A8
100
AcDbEntity
  8
1
  6
Continuous
100
AcDbLine
 10
238.1293949999998
 20
149.7921949999999
 30
0.0
 11
238.1293949999998
 21
171.7921949999999
 31
0.0
  0
LINE
  5
9701
330
94A8
100
AcDbEntity
  8
1
  6
Continuous
100
AcDbLine
 10
228.1294389913654
 20
149.7921949999999
 30
0.0
 11
229.1294389913653
 21
149.7921949999999
 31
0.0
  0
LINE
  5
9702
330
94A8
100
AcDbEntity
  8
1
  6
Continuous
100
AcDbLine
 10
238.1293949999998
 20
149.7921949999999
 30
0.0
 11
240.1293949999999
 21
149.7921949999999
 31
0.0
  0
LINE
  5
9703
330
94A8
100
AcDbEntity
  8
1
  6
Continuous
100
AcDbLine
 10
228.1294389913654
 20
171.7921949999999
 30
0.0
 11
229.1294389913653
 21
171.7921949999999
 31
0.0
  0
LINE
  5
9704
330
94A8
100
AcDbEntity
  8
1
  6
Continuous
100
AcDbLine
 10
238.1293949999998
 20
171.7921949999999
 30
0.0
 11
240.1293949999999
 21
171.7921949999999
 31
0.0
  0
LINE
  5
9705
330
94A8
100
AcDbEntity
  8
1
  6
Continuous
100
AcDbLine
 10
229.1294389913653
 20
231.2338649999999
 30
0.0
 11
229.1294389913653
 21
253.2338649999998
 31
0.0
  0
LINE
  5
9706
330
94A8
100
AcDbEntity
  8
1
  6
Continuous
100
AcDbLine
 10
228.1294389913653
 20
231.2338649999999
 30
0.0
 11
228.1294389913653
 21
253.2338649999998
 31
0.0
  0
LINE
  5
9707
330
94A8
100
AcDbEntity
  8
1
  6
Continuous
100
AcDbLine
 10
228.1294389913654
 20
231.2338649999999
 30
0.0
 11
229.1294389913653
 21
231.2338649999999
 31
0.0
  0
LINE
  5
9708
330
94A8
100
AcDbEntity
  8
1
  6
Continuous
100
AcDbLine
 10
228.1294389913654
 20
253.2338649999998
 30
0.0
 11
229.1294389913653
 21
253.2338649999998
 31
0.0
  0
LINE
  5
9709
330
94A8
100
AcDbEntity
  8
1
  6
Continuous
100
AcDbLine
 10
240.1293949999999
 20
231.2338649999999
 30
0.0
 11
240.1293949999999
 21
253.2338649999998
 31
0.0
  0
LINE
  5
970A
330
94A8
100
AcDbEntity
  8
1
  6
Continuous
100
AcDbLine
 10
238.1293949999998
 20
231.2338649999999
 30
0.0
 11
238.1293949999998
 21
253.2338649999998
 31
0.0
  0
LINE
  5
970B
330
94A8
100
AcDbEntity
  8
1
  6
Continuous
100
AcDbLine
 10
238.1293949999998
 20
231.2338649999999
 30
0.0
 11
240.1293949999999
 21
231.2338649999999
 31
0.0
  0
LINE
  5
970C
330
94A8
100
AcDbEntity
  8
1
  6
Continuous
100
AcDbLine
 10
238.1293949999998
 20
253.2338649999998
 30
0.0
 11
240.1293949999999
 21
253.2338649999998
 31
0.0
  0
LINE
  5
971F
330
94A8
100
AcDbEntity
  8
1
  6
Continuous
100
AcDbLine
 10
251.2540317040425
 20
167.7921949999998
 30
0.0
 11
251.2540317040426
 21
153.7921949999998
 31
0.0
  0
ARC
  5
9720
330
94A8
100
AcDbEntity
  8
1
  6
Continuous
100
AcDbCircle
 10
245.439395
 20
160.7921949999999
 30
0.0
 40
9.099999999999999
100
AcDbArc
 50
309.7151372318256
 51
50.28486276817439
  0
LINE
  5
9721
330
94A8
100
AcDbEntity
  8
1
  6
Continuous
100
AcDbLine
 10
250.8393949999999
 20
153.7921949999999
 30
0.0
 11
250.8393949999999
 21
167.7921949999999
 31
0.0
  0
LINE
  5
9722
330
94A8
100
AcDbEntity
  8
1
  6
Continuous
100
AcDbLine
 10
249.839395
 20
152.7921949999999
 30
0.0
 11
249.839395
 21
168.7921949999999
 31
0.0
  0
LINE
  5
9723
330
94A8
100
AcDbEntity
  8
1
  6
Continuous
100
AcDbLine
 10
248.239395
 20
152.7921949999999
 30
0.0
 11
248.239395
 21
168.7921949999999
 31
0.0
  0
LINE
  5
9724
330
94A8
100
AcDbEntity
  8
1
  6
Continuous
100
AcDbLine
 10
249.839395
 20
154.5421949999999
 30
0.0
 11
250.8393949999999
 21
154.5421949999999
 31
0.0
  0
LINE
  5
9725
330
94A8
100
AcDbEntity
  8
1
  6
Continuous
100
AcDbLine
 10
248.2393950000001
 20
152.7921949999999
 30
0.0
 11
249.839395
 21
152.7921949999999
 31
0.0
  0
LINE
  5
9726
330
94A8
100
AcDbEntity
  8
1
  6
Continuous
100
AcDbLine
 10
251.2540317040427
 20
153.7921949999999
 30
0.0
 11
250.8393949999999
 21
153.7921949999999
 31
0.0
  0
LINE
  5
9727
330
94A8
100
AcDbEntity
  8
1
  6
Continuous
100
AcDbLine
 10
249.839395
 20
167.0421949999999
 30
0.0
 11
250.8393949999999
 21
167.0421949999999
 31
0.0
  0
LINE
  5
9728
330
94A8
100
AcDbEntity
  8
1
  6
Continuous
100
AcDbLine
 10
248.2393950000001
 20
168.7921949999999
 30
0.0
 11
249.839395
 21
168.7921949999999
 31
0.0
  0
LINE
  5
9729
330
94A8
100
AcDbEntity
  8
1
  6
Continuous
100
AcDbLine
 10
251.2540317040427
 20
167.7921949999996
 30
0.0
 11
250.8393949999999
 21
167.7921949999998
 31
0.0
  0
LINE
  5
972E
330
94A8
100
AcDbEntity
  8
1
  6
Continuous
100
AcDbLine
 10
251.2540317040424
 20
249.2338649999998
 30
0.0
 11
251.2540317040425
 21
235.2338649999998
 31
0.0
  0
ARC
  5
972F
330
94A8
100
AcDbEntity
  8
1
  6
Continuous
100
AcDbCircle
 10
245.439395
 20
242.2338649999999
 30
0.0
 40
9.099999999999999
100
AcDbArc
 50
309.7151372318256
 51
50.28486276817439
  0
LINE
  5
9730
330
94A8
100
AcDbEntity
  8
1
  6
Continuous
100
AcDbLine
 10
250.8393949999998
 20
235.2338649999999
 30
0.0
 11
250.8393949999998
 21
249.2338649999998
 31
0.0
  0
LINE
  5
9731
330
94A8
100
AcDbEntity
  8
1
  6
Continuous
100
AcDbLine
 10
249.8393949999999
 20
234.2338649999998
 30
0.0
 11
249.8393949999999
 21
250.2338649999999
 31
0.0
  0
LINE
  5
9732
330
94A8
100
AcDbEntity
  8
1
  6
Continuous
100
AcDbLine
 10
248.2393949999999
 20
234.2338649999998
 30
0.0
 11
248.2393949999999
 21
250.2338649999999
 31
0.0
  0
LINE
  5
9733
330
94A8
100
AcDbEntity
  8
1
  6
Continuous
100
AcDbLine
 10
248.239395
 20
234.2338649999998
 30
0.0
 11
249.8393949999999
 21
234.2338649999998
 31
0.0
  0
LINE
  5
9734
330
94A8
100
AcDbEntity
  8
1
  6
Continuous
100
AcDbLine
 10
249.8393949999999
 20
235.9838649999999
 30
0.0
 11
250.8393949999998
 21
235.9838649999999
 31
0.0
  0
LINE
  5
9735
330
94A8
100
AcDbEntity
  8
1
  6
Continuous
100
AcDbLine
 10
251.2540317040426
 20
235.2338649999999
 30
0.0
 11
250.8393949999998
 21
235.2338649999999
 31
0.0
  0
LINE
  5
9736
330
94A8
100
AcDbEntity
  8
1
  6
Continuous
100
AcDbLine
 10
249.8393949999999
 20
248.4838649999999
 30
0.0
 11
250.8393949999998
 21
248.4838649999999
 31
0.0
  0
LINE
  5
9737
330
94A8
100
AcDbEntity
  8
1
  6
Continuous
100
AcDbLine
 10
251.2540317040426
 20
249.2338649999996
 30
0.0
 11
250.8393949999998
 21
249.2338649999998
 31
0.0
  0
LINE
  5
9738
330
94A8
100
AcDbEntity
  8
1
  6
Continuous
100
AcDbLine
 10
248.239395
 20
250.2338649999999
 30
0.0
 11
249.8393949999999
 21
250.2338649999999
 31
0.0
  0
ENDSEC
  0
SECTION
  2
OBJECTS
  0
DICTIONARY
  5
9496
330
0
100
AcDbDictionary
281
     1
  3
ACAD_CIP_PREVIOUS_PRODUCT_INFO
350
98B9
  3
ACAD_COLOR
350
989B
  3
ACAD_DETAILVIEWSTYLE
350
98B4
  3
ACAD_GROUP
350
9497
  3
ACAD_LAYOUT
350
94A3
  3
ACAD_MATERIAL
350
9869
  3
ACAD_MLEADERSTYLE
350
98B0
  3
ACAD_MLINESTYLE
350
94A0
  3
ACAD_PLOTSETTINGS
350
94A2
  3
ACAD_PLOTSTYLENAME
350
9867
  3
ACAD_SCALELIST
350
989E
  3
ACAD_SECTIONVIEWSTYLE
350
98B2
  3
ACAD_TABLESTYLE
350
989C
  3
ACAD_VISUALSTYLE
350
9882
  3
ACDB_RECOMPOSE_DATA
350
98D7
  3
AcDbVariableDictionary
350
98CA
  3
DWGPROPS
350
98D8
  0
DICTIONARY
  5
98BA
330
949A
100
AcDbDictionary
280
     1
281
     1
  3
ADSK_XREC_LAYER_RECONCILED
360
98BB
  0
DICTIONARY
  5
98BC
330
94B0
100
AcDbDictionary
280
     1
281
     1
  3
ADSK_XREC_LAYER_RECONCILED
360
98BD
  0
DICTIONARY
  5
98BE
330
94B1
100
AcDbDictionary
280
     1
281
     1
  3
ADSK_XREC_LAYER_RECONCILED
360
98BF
  0
DICTIONARY
  5
98C0
330
94B2
100
AcDbDictionary
280
     1
281
     1
  3
ADSK_XREC_LAYER_RECONCILED
360
98C1
  0
DICTIONARY
  5
98C2
330
94B3
100
AcDbDictionary
280
     1
281
     1
  3
ADSK_XREC_LAYER_RECONCILED
360
98C3
  0
DICTIONARY
  5
98C4
330
94B4
100
AcDbDictionary
280
     1
281
     1
  3
ADSK_XREC_LAYER_RECONCILED
360
98C5
  0
DICTIONARY
  5
98C6
330
94B5
100
AcDbDictionary
280
     1
281
     1
  3
ADSK_XREC_LAYER_RECONCILED
360
98C7
  0
DICTIONARY
  5
98C8
330
94B6
100
AcDbDictionary
280
     1
281
     1
  3
ADSK_XREC_LAYER_RECONCILED
360
98C9
  0
DICTIONARY
  5
9862
330
94A8
100
AcDbDictionary
281
     1
  3
ACAD_LAYOUTSELFREF
350
9863
  0
DICTIONARY
  5
9860
330
94A4
100
AcDbDictionary
281
     1
  3
ACAD_LAYOUTSELFREF
350
9861
  0
XRECORD
  5
98B9
102
{ACAD_REACTORS
330
9496
102
}
330
9496
100
AcDbXrecord
280
     1
300
ACDLT
300
2014
300
ACDLT_F_S
  0
DICTIONARY
  5
989B
102
{ACAD_REACTORS
330
9496
102
}
330
9496
100
AcDbDictionary
281
     1
  0
DICTIONARY
  5
98B4
102
{ACAD_REACTORS
330
9496
102
}
330
9496
100
AcDbDictionary
281
     1
  3
Imperial24
350
98B5
  0
DICTIONARY
  5
9497
102
{ACAD_REACTORS
330
9496
102
}
330
9496
100
AcDbDictionary
281
     1
  0
DICTIONARY
  5
94A3
102
{ACAD_REACTORS
330
9496
102
}
330
9496
100
AcDbDictionary
281
     1
  3
Model
350
98B6
  3
レイアウト1
350
98B7
  0
DICTIONARY
  5
9869
102
{ACAD_REACTORS
330
9496
102
}
330
9496
100
AcDbDictionary
281
     1
  3
ByBlock
350
9872
  3
ByLayer
350
986A
  3
Global
350
987A
  0
DICTIONARY
  5
98B0
102
{ACAD_REACTORS
330
9496
102
}
330
9496
100
AcDbDictionary
281
     1
  3
Standard
350
98B1
  0
DICTIONARY
  5
94A0
102
{ACAD_REACTORS
330
9496
102
}
330
9496
100
AcDbDictionary
281
     1
  3
STANDARD
350
94A1
  0
DICTIONARY
  5
94A2
102
{ACAD_REACTORS
330
9496
102
}
330
9496
100
AcDbDictionary
281
     1
  0
ACDBDICTIONARYWDFLT
  5
9867
102
{ACAD_REACTORS
330
9496
102
}
330
9496
100
AcDbDictionary
281
     1
  3
Normal
350
9868
100
AcDbDictionaryWithDefault
340
9868
  0
DICTIONARY
  5
989E
102
{ACAD_REACTORS
330
9496
102
}
330
9496
100
AcDbDictionary
281
     1
  3
A0
350
989F
  3
A1
350
98A0
  3
A2
350
98A1
  3
A3
350
98A2
  3
A4
350
98A3
  3
A5
350
98A4
  3
A6
350
98A5
  3
A7
350
98A6
  3
A8
350
98A7
  3
A9
350
98A8
  3
B0
350
98A9
  3
B1
350
98AA
  3
B2
350
98AB
  3
B3
350
98AC
  3
B4
350
98AD
  3
B5
350
98AE
  3
B6
350
98AF
  0
DICTIONARY
  5
98B2
102
{ACAD_REACTORS
330
9496
102
}
330
9496
100
AcDbDictionary
281
     1
  3
Imperial24
350
98B3
  0
DICTIONARY
  5
989C
102
{ACAD_REACTORS
330
9496
102
}
330
9496
100
AcDbDictionary
281
     1
  3
Standard
350
989D
  0
DICTIONARY
  5
9882
102
{ACAD_REACTORS
330
9496
102
}
330
9496
100
AcDbDictionary
281
     1
  3
2dWireframe
350
9888
  3
Basic
350
9887
  3
Brighten
350
988E
  3
ColorChange
350
9892
  3
Conceptual
350
988B
  3
Dim
350
988D
  3
EdgeColorOff
350
989A
  3
Facepattern
350
9891
  3
Flat
350
9883
  3
FlatWithEdges
350
9884
  3
Gouraud
350
9885
  3
GouraudWithEdges
350
9886
  3
Hidden
350
988A
  3
JitterOff
350
9898
  3
Linepattern
350
9890
  3
OverhangOff
350
9899
  3
Realistic
350
988C
  3
Shaded
350
9897
  3
Shaded with edges
350
9896
  3
Shades of Gray
350
9893
  3
Sketchy
350
9894
  3
Thicken
350
988F
  3
Wireframe
350
9889
  3
X-Ray
350
9895
  0
XRECORD
  5
98D7
102
{ACAD_REACTORS
330
9496
102
}
330
9496
100
AcDbXrecord
280
     1
 90
        1
330
989D
  0
DICTIONARY
  5
98CA
102
{ACAD_REACTORS
330
9496
102
}
330
9496
100
AcDbDictionary
281
     1
  3
CANNOSCALE
350
98CF
  3
CMLEADERSTYLE
350
98CC
  3
CTABLESTYLE
350
98CB
  3
CVIEWDETAILSTYLE
350
98CD
  3
CVIEWSECTIONSTYLE
350
98CE
  3
DIMASSOC
350
98D2
  3
INDEXCTL
350
98D1
  3
SORTENTS
350
98D0
  3
XCLIPFRAME
350
98D3
  0
XRECORD
  5
98D8
102
{ACAD_REACTORS
330
9496
102
}
330
9496
100
AcDbXrecord
280
     1
  1
DWGPROPS COOKIE
  2

  3

  4

  6

  7

  8
Yoshitsune
  9

300
=
301
=
302
=
303
=
304
=
305
=
306
=
307
=
308
=
309
=
 40
0.042963275462963
 41
2450737.564323148
 42
2457192.642513796
  1

 90
        0
  0
XRECORD
  5
98BB
102
{ACAD_REACTORS
330
98BA
102
}
330
98BA
100
AcDbXrecord
280
     1
290
     1
  0
XRECORD
  5
98BD
102
{ACAD_REACTORS
330
98BC
102
}
330
98BC
100
AcDbXrecord
280
     1
290
     1
  0
XRECORD
  5
98BF
102
{ACAD_REACTORS
330
98BE
102
}
330
98BE
100
AcDbXrecord
280
     1
290
     1
  0
XRECORD
  5
98C1
102
{ACAD_REACTORS
330
98C0
102
}
330
98C0
100
AcDbXrecord
280
     1
290
     1
  0
XRECORD
  5
98C3
102
{ACAD_REACTORS
330
98C2
102
}
330
98C2
100
AcDbXrecord
280
     1
290
     1
  0
XRECORD
  5
98C5
102
{ACAD_REACTORS
330
98C4
102
}
330
98C4
100
AcDbXrecord
280
     1
290
     1
  0
XRECORD
  5
98C7
102
{ACAD_REACTORS
330
98C6
102
}
330
98C6
100
AcDbXrecord
280
     1
290
     1
  0
XRECORD
  5
98C9
102
{ACAD_REACTORS
330
98C8
102
}
330
98C8
100
AcDbXrecord
280
     1
290
     1
  0
XRECORD
  5
9863
102
{ACAD_REACTORS
330
9862
102
}
330
9862
100
AcDbXrecord
280
     1
340
94A8
  0
XRECORD
  5
9861
102
{ACAD_REACTORS
330
9860
102
}
330
9860
100
AcDbXrecord
280
     1
340
94A4
  0
ACDBDETAILVIEWSTYLE
  5
98B5
102
{ACAD_XDICTIONARY
360
9910
102
}
102
{ACAD_REACTORS
330
98B4
102
}
330
98B4
100
AcDbModelDocViewStyle
 70
     0
  3
Imperial24
290
     0
100
AcDbDetailViewStyle
 70
     0
 71
     0
 90
        3
 71
     1
340
949B
 40
0.24
340
0
 40
0.24
300

 40
0.36
280
     3
 71
     2
340
949F
 90
       25
 71
     3
340
949B
 40
0.24
 90
        1
 40
0.75
 90
        1
300
%<\AcVar ViewType \f "%tc1">% %<\AcVar ViewDetailId>%\PSCALE %<\AcVar ViewScale \f "%sn">%
 71
     4
340
949F
 90
       25
340
949F
 90
       25
280
     0
  0
LAYOUT
  5
98B6
102
{ACAD_XDICTIONARY
360
9912
102
}
102
{ACAD_REACTORS
330
94A3
102
}
330
94A3
100
AcDbPlotSettings
  1

  2
Canon LBP9100C
  4

  6

 40
0.0
 41
0.0
 42
0.0
 43
0.0
 44
0.0
 45
0.0
 46
0.0
 47
0.0
 48
0.0
 49
0.0
140
0.0
141
0.0
142
1.0
143
1.0
 70
  1712
 72
     0
 73
     0
 74
     0
  7

 75
     0
147
1.0
148
0.0
149
0.0
100
AcDbLayout
  1
Model
 70
     1
 71
     0
 10
0.0
 20
0.0
 11
12.0
 21
9.0
 12
0.0
 22
0.0
 32
0.0
 14
0.0
 24
0.0
 34
0.0
 15
0.0
 25
0.0
 35
0.0
146
0.0
 13
0.0
 23
0.0
 33
0.0
 16
1.0
 26
0.0
 36
0.0
 17
0.0
 27
1.0
 37
0.0
 76
     0
330
94A8
331
985F
  0
LAYOUT
  5
98B7
102
{ACAD_XDICTIONARY
360
9914
102
}
102
{ACAD_REACTORS
330
94A3
102
}
330
94A3
100
AcDbPlotSettings
  1

  2
Canon LBP9100C
  4

  6

 40
0.0
 41
0.0
 42
0.0
 43
0.0
 44
0.0
 45
0.0
 46
0.0
 47
0.0
 48
0.0
 49
0.0
140
0.0
141
0.0
142
1.0
143
1.0
 70
   688
 72
     0
 73
     0
 74
     5
  7

 75
    16
147
1.0
148
0.0
149
0.0
100
AcDbLayout
  1
レイアウト1
 70
     0
 71
     1
 10
0.0
 20
0.0
 11
420.0
 21
297.0
 12
0.0
 22
0.0
 32
0.0
 14
1.000000000000000E+20
 24
1.000000000000000E+20
 34
1.000000000000000E+20
 15
-1.000000000000000E+20
 25
-1.000000000000000E+20
 35
-1.000000000000000E+20
146
0.0
 13
0.0
 23
0.0
 33
0.0
 16
1.0
 26
0.0
 36
0.0
 17
0.0
 27
1.0
 37
0.0
 76
     0
330
94A4
  0
MATERIAL
  5
9872
102
{ACAD_XDICTIONARY
360
9873
102
}
102
{ACAD_REACTORS
330
9869
102
}
330
9869
100
AcDbMaterial
  1
ByBlock
 72
     0
 43
0.0208333333333333
 43
0.0
 43
0.0
 43
0.0
 43
0.0
 43
0.0208333333333333
 43
0.0
 43
0.0
 43
0.0
 43
0.0
 43
1.0
 43
0.0
 43
0.0
 43
0.0
 43
0.0
 43
1.0
 77
     0
 47
0.0208333333333333
 47
0.0
 47
0.0
 47
0.0
 47
0.0
 47
0.0208333333333333
 47
0.0
 47
0.0
 47
0.0
 47
0.0
 47
1.0
 47
0.0
 47
0.0
 47
0.0
 47
0.0
 47
1.0
171
     0
 49
0.0208333333333333
 49
0.0
 49
0.0
 49
0.0
 49
0.0
 49
0.0208333333333333
 49
0.0
 49
0.0
 49
0.0
 49
0.0
 49
1.0
 49
0.0
 49
0.0
 49
0.0
 49
0.0
 49
1.0
175
     0
142
0.0208333333333333
142
0.0
142
0.0
142
0.0
142
0.0
142
0.0208333333333333
142
0.0
142
0.0
142
0.0
142
0.0
142
1.0
142
0.0
142
0.0
142
0.0
142
0.0
142
1.0
179
     0
144
0.0208333333333333
144
0.0
144
0.0
144
0.0
144
0.0
144
0.0208333333333333
144
0.0
144
0.0
144
0.0
144
0.0
144
1.0
144
0.0
144
0.0
144
0.0
144
0.0
144
1.0
147
0.0208333333333333
147
0.0
147
0.0
147
0.0
147
0.0
147
0.0208333333333333
147
0.0
147
0.0
147
0.0
147
0.0
147
1.0
147
0.0
147
0.0
147
0.0
147
0.0
147
1.0
  0
MATERIAL
  5
986A
102
{ACAD_XDICTIONARY
360
986B
102
}
102
{ACAD_REACTORS
330
9869
102
}
330
9869
100
AcDbMaterial
  1
ByLayer
 72
     0
 43
0.0208333333333333
 43
0.0
 43
0.0
 43
0.0
 43
0.0
 43
0.0208333333333333
 43
0.0
 43
0.0
 43
0.0
 43
0.0
 43
1.0
 43
0.0
 43
0.0
 43
0.0
 43
0.0
 43
1.0
 77
     0
 47
0.0208333333333333
 47
0.0
 47
0.0
 47
0.0
 47
0.0
 47
0.0208333333333333
 47
0.0
 47
0.0
 47
0.0
 47
0.0
 47
1.0
 47
0.0
 47
0.0
 47
0.0
 47
0.0
 47
1.0
171
     0
 49
0.0208333333333333
 49
0.0
 49
0.0
 49
0.0
 49
0.0
 49
0.0208333333333333
 49
0.0
 49
0.0
 49
0.0
 49
0.0
 49
1.0
 49
0.0
 49
0.0
 49
0.0
 49
0.0
 49
1.0
175
     0
142
0.0208333333333333
142
0.0
142
0.0
142
0.0
142
0.0
142
0.0208333333333333
142
0.0
142
0.0
142
0.0
142
0.0
142
1.0
142
0.0
142
0.0
142
0.0
142
0.0
142
1.0
179
     0
144
0.0208333333333333
144
0.0
144
0.0
144
0.0
144
0.0
144
0.0208333333333333
144
0.0
144
0.0
144
0.0
144
0.0
144
1.0
144
0.0
144
0.0
144
0.0
144
0.0
144
1.0
147
0.0208333333333333
147
0.0
147
0.0
147
0.0
147
0.0
147
0.0208333333333333
147
0.0
147
0.0
147
0.0
147
0.0
147
1.0
147
0.0
147
0.0
147
0.0
147
0.0
147
1.0
  0
MATERIAL
  5
987A
102
{ACAD_XDICTIONARY
360
987B
102
}
102
{ACAD_REACTORS
330
9869
102
}
330
9869
100
AcDbMaterial
  1
Global
 72
     0
 43
0.0208333333333333
 43
0.0
 43
0.0
 43
0.0
 43
0.0
 43
0.0208333333333333
 43
0.0
 43
0.0
 43
0.0
 43
0.0
 43
1.0
 43
0.0
 43
0.0
 43
0.0
 43
0.0
 43
1.0
 77
     0
 47
0.0208333333333333
 47
0.0
 47
0.0
 47
0.0
 47
0.0
 47
0.0208333333333333
 47
0.0
 47
0.0
 47
0.0
 47
0.0
 47
1.0
 47
0.0
 47
0.0
 47
0.0
 47
0.0
 47
1.0
171
     0
 49
0.0208333333333333
 49
0.0
 49
0.0
 49
0.0
 49
0.0
 49
0.0208333333333333
 49
0.0
 49
0.0
 49
0.0
 49
0.0
 49
1.0
 49
0.0
 49
0.0
 49
0.0
 49
0.0
 49
1.0
175
     0
142
0.0208333333333333
142
0.0
142
0.0
142
0.0
142
0.0
142
0.0208333333333333
142
0.0
142
0.0
142
0.0
142
0.0
142
1.0
142
0.0
142
0.0
142
0.0
142
0.0
142
1.0
179
     0
144
0.0208333333333333
144
0.0
144
0.0
144
0.0
144
0.0
144
0.0208333333333333
144
0.0
144
0.0
144
0.0
144
0.0
144
1.0
144
0.0
144
0.0
144
0.0
144
0.0
144
1.0
147
0.0208333333333333
147
0.0
147
0.0
147
0.0
147
0.0
147
0.0208333333333333
147
0.0
147
0.0
147
0.0
147
0.0
147
1.0
147
0.0
147
0.0
147
0.0
147
0.0
147
1.0
  0
MLEADERSTYLE
  5
98B1
102
{ACAD_REACTORS
330
98B0
102
}
330
98B0
100
AcDbMLeaderStyle
170
     2
171
     1
172
     0
 90
        2
 40
0.0
 41
0.0
173
     1
 91
-1056964608
340
949D
 92
       -2
290
     1
 42
0.09
291
     1
 43
0.36
  3
Standard
 44
0.18
300

342
949B
174
     1
178
     6
175
     1
176
     0
 93
-1056964608
 45
0.18
292
     0
297
     0
 46
0.18
 94
-1056964608
 47
1.0
 49
1.0
140
1.0
293
     1
141
0.0
294
     1
177
     0
142
1.0
295
     0
296
     0
143
0.125
1001
ACAD_MLEADERVER
1070
     2
  0
MLINESTYLE
  5
94A1
102
{ACAD_REACTORS
330
94A0
102
}
330
94A0
100
AcDbMlineStyle
  2
STANDARD
 70
     0
  3

 62
   256
 51
90.0
 52
90.0
 71
     2
 49
0.5
 62
   256
  6
BYLAYER
 49
-0.5
 62
   256
  6
BYLAYER
  0
ACDBPLACEHOLDER
  5
9868
102
{ACAD_REACTORS
330
9867
102
}
330
9867
  0
SCALE
  5
989F
102
{ACAD_REACTORS
330
989E
102
}
330
989E
100
AcDbScale
 70
     0
300
1:1
140
1.0
141
1.0
290
     1
  0
SCALE
  5
98A0
102
{ACAD_REACTORS
330
989E
102
}
330
989E
100
AcDbScale
 70
     0
300
1/128" = 1'-0"
140
0.0078125
141
12.0
290
     0
  0
SCALE
  5
98A1
102
{ACAD_REACTORS
330
989E
102
}
330
989E
100
AcDbScale
 70
     0
300
1/64" = 1'-0"
140
0.015625
141
12.0
290
     0
  0
SCALE
  5
98A2
102
{ACAD_REACTORS
330
989E
102
}
330
989E
100
AcDbScale
 70
     0
300
1/32" = 1'-0"
140
0.03125
141
12.0
290
     0
  0
SCALE
  5
98A3
102
{ACAD_REACTORS
330
989E
102
}
330
989E
100
AcDbScale
 70
     0
300
1/16" = 1'-0"
140
0.0625
141
12.0
290
     0
  0
SCALE
  5
98A4
102
{ACAD_REACTORS
330
989E
102
}
330
989E
100
AcDbScale
 70
     0
300
3/32" = 1'-0"
140
0.09375
141
12.0
290
     0
  0
SCALE
  5
98A5
102
{ACAD_REACTORS
330
989E
102
}
330
989E
100
AcDbScale
 70
     0
300
1/8" = 1'-0"
140
0.125
141
12.0
290
     0
  0
SCALE
  5
98A6
102
{ACAD_REACTORS
330
989E
102
}
330
989E
100
AcDbScale
 70
     0
300
3/16" = 1'-0"
140
0.1875
141
12.0
290
     0
  0
SCALE
  5
98A7
102
{ACAD_REACTORS
330
989E
102
}
330
989E
100
AcDbScale
 70
     0
300
1/4" = 1'-0"
140
0.25
141
12.0
290
     0
  0
SCALE
  5
98A8
102
{ACAD_REACTORS
330
989E
102
}
330
989E
100
AcDbScale
 70
     0
300
3/8" = 1'-0"
140
0.375
141
12.0
290
     0
  0
SCALE
  5
98A9
102
{ACAD_REACTORS
330
989E
102
}
330
989E
100
AcDbScale
 70
     0
300
1/2" = 1'-0"
140
0.5
141
12.0
290
     0
  0
SCALE
  5
98AA
102
{ACAD_REACTORS
330
989E
102
}
330
989E
100
AcDbScale
 70
     0
300
3/4" = 1'-0"
140
0.75
141
12.0
290
     0
  0
SCALE
  5
98AB
102
{ACAD_REACTORS
330
989E
102
}
330
989E
100
AcDbScale
 70
     0
300
1" = 1'-0"
140
1.0
141
12.0
290
     0
  0
SCALE
  5
98AC
102
{ACAD_REACTORS
330
989E
102
}
330
989E
100
AcDbScale
 70
     0
300
1-1/2" = 1'-0"
140
1.5
141
12.0
290
     0
  0
SCALE
  5
98AD
102
{ACAD_REACTORS
330
989E
102
}
330
989E
100
AcDbScale
 70
     0
300
3" = 1'-0"
140
3.0
141
12.0
290
     0
  0
SCALE
  5
98AE
102
{ACAD_REACTORS
330
989E
102
}
330
989E
100
AcDbScale
 70
     0
300
6" = 1'-0"
140
6.0
141
12.0
290
     0
  0
SCALE
  5
98AF
102
{ACAD_REACTORS
330
989E
102
}
330
989E
100
AcDbScale
 70
     0
300
1'-0" = 1'-0"
140
12.0
141
12.0
290
     0
  0
ACDBSECTIONVIEWSTYLE
  5
98B3
102
{ACAD_XDICTIONARY
360
990E
102
}
102
{ACAD_REACTORS
330
98B2
102
}
330
98B2
100
AcDbModelDocViewStyle
 70
     0
  3
Imperial24
290
     0
100
AcDbSectionViewStyle
 70
     0
 71
     0
 90
       78
 71
     1
340
949B
 40
0.24
340
0
340
0
 40
0.24
300
I, O, Q, S, X, Z
 40
0.48
 90
        3
 40
0.18
 90
        1
 71
     2
340
949F
 90
       25
340
949F
 90
       50
 40
0.24
 40
0.0
 40
0.24
 71
     3
340
949B
 40
0.24
 90
        1
 40
0.75
 90
        1
300
%<\AcVar ViewType \f "%tc1">% %<\AcVar ViewSectionStartId>%-%<\AcVar ViewSectionEndId>%\PSCALE %<\AcVar ViewScale \f "%sn">%
 71
     4
300
ANSI31
 40
1.0
 90
        0
290
     0
290
     0
 90
        6
 40
0.0
 40
1.570796326794896
 40
0.2617993877991494
 40
1.308996938995747
 40
-0.2617993877991494
 40
1.832595714594046
  0
TABLESTYLE
  5
989D
102
{ACAD_XDICTIONARY
360
98D5
102
}
102
{ACAD_REACTORS
330
989C
102
}
330
989C
100
AcDbTableStyle
  3
Standard
 70
     0
 71
     0
 40
0.06
 41
0.06
280
     0
281
     0
  7
STANDARD
140
0.18
170
     2
 62
     0
 63
     7
283
     0
274
    -2
284
     1
 64
     0
275
    -2
285
     1
 65
     0
276
    -2
286
     1
 66
     0
277
    -2
287
     1
 67
     0
278
    -2
288
     1
 68
     0
279
    -2
289
     1
 69
     0
  7
STANDARD
140
0.25
170
     5
 62
     0
 63
     7
283
     0
274
    -2
284
     1
 64
     0
275
    -2
285
     1
 65
     0
276
    -2
286
     1
 66
     0
277
    -2
287
     1
 67
     0
278
    -2
288
     1
 68
     0
279
    -2
289
     1
 69
     0
  7
STANDARD
140
0.18
170
     5
 62
     0
 63
     7
283
     0
274
    -2
284
     1
 64
     0
275
    -2
285
     1
 65
     0
276
    -2
286
     1
 66
     0
277
    -2
287
     1
 67
     0
278
    -2
288
     1
 68
     0
279
    -2
289
     1
 69
     0
  0
VISUALSTYLE
  5
9888
102
{ACAD_XDICTIONARY
360
98E6
102
}
102
{ACAD_REACTORS
330
9882
102
}
330
9882
100
AcDbVisualStyle
  2
2dWireframe
 70
     4
 71
     0
 72
     2
 73
     0
 90
        0
 40
-0.6
 41
-30.0
 62
     5
 63
     7
 74
     1
 91
        4
 64
     7
 65
   257
 75
     1
175
     1
 42
1.0
 92
        0
 66
   257
 43
1.0
 76
     1
 77
     6
 78
     2
 67
     7
 79
     5
170
     0
171
     0
290
     0
174
     0
 93
        1
 44
0.0
173
     0
291
     0
 45
0.0
1001
ACAD
1000
AcDbSavedByObjectVersion
1070
     0
  0
VISUALSTYLE
  5
9887
102
{ACAD_XDICTIONARY
360
98E4
102
}
102
{ACAD_REACTORS
330
9882
102
}
330
9882
100
AcDbVisualStyle
  2
Basic
 70
     7
 71
     1
 72
     0
 73
     1
 90
        0
 40
-0.6
 41
-30.0
 62
     5
 63
     7
 74
     0
 91
        4
 64
     7
 65
   257
 75
     1
175
     1
 42
1.0
 92
        8
 66
     7
 43
1.0
 76
     1
 77
     6
 78
     2
 67
     7
 79
     5
170
     0
171
     0
290
     0
174
     0
 93
        1
 44
0.0
173
     0
291
     1
 45
0.0
1001
ACAD
1000
AcDbSavedByObjectVersion
1070
     0
  0
VISUALSTYLE
  5
988E
102
{ACAD_XDICTIONARY
360
98F2
102
}
102
{ACAD_REACTORS
330
9882
102
}
330
9882
100
AcDbVisualStyle
  2
Brighten
 70
    12
 71
     2
 72
     2
 73
     0
 90
        0
 40
-0.6
 41
-30.0
 62
     5
 63
     7
 74
     1
 91
        4
 64
     7
 65
   257
 75
     1
175
     1
 42
1.0
 92
        8
 66
     7
 43
1.0
 76
     1
 77
     6
 78
     2
 67
     7
 79
     5
170
     0
171
     0
290
     0
174
     0
 93
        1
 44
50.0
173
     0
291
     1
 45
0.0
1001
ACAD
1000
AcDbSavedByObjectVersion
1070
     0
  0
VISUALSTYLE
  5
9892
102
{ACAD_XDICTIONARY
360
98FA
102
}
102
{ACAD_REACTORS
330
9882
102
}
330
9882
100
AcDbVisualStyle
  2
ColorChange
 70
    16
 71
     2
 72
     2
 73
     3
 90
        0
 40
-0.6
 41
-30.0
 62
     5
 63
     8
 74
     1
 91
        4
 64
     7
 65
   257
 75
     1
175
     1
 42
1.0
 92
        8
 66
     8
 43
1.0
 76
     1
 77
     6
 78
     2
 67
     7
 79
     5
170
     0
171
     0
290
     0
174
     0
 93
        1
 44
0.0
173
     0
291
     1
 45
0.0
1001
ACAD
1000
AcDbSavedByObjectVersion
1070
     0
  0
VISUALSTYLE
  5
988B
102
{ACAD_XDICTIONARY
360
98EC
102
}
102
{ACAD_REACTORS
330
9882
102
}
330
9882
100
AcDbVisualStyle
  2
Conceptual
 70
     9
 71
     3
 72
     2
 73
     0
 90
        0
 40
-0.6
 41
-30.0
 62
     5
 63
     7
 74
     2
 91
        2
 64
     7
 65
   257
 75
     1
175
     1
 42
179.0
 92
        8
 66
     7
 43
1.0
 76
     1
 77
     6
 78
     2
 67
     7
 79
     3
170
     0
171
     0
290
     0
174
     0
 93
        1
 44
0.0
173
     0
291
     0
 45
0.0
1001
ACAD
1000
AcDbSavedByObjectVersion
1070
     0
  0
VISUALSTYLE
  5
988D
102
{ACAD_XDICTIONARY
360
98F0
102
}
102
{ACAD_REACTORS
330
9882
102
}
330
9882
100
AcDbVisualStyle
  2
Dim
 70
    11
 71
     2
 72
     2
 73
     0
 90
        0
 40
-0.6
 41
-30.0
 62
     5
 63
     7
 74
     1
 91
        4
 64
     7
 65
   257
 75
     1
175
     1
 42
1.0
 92
        8
 66
     7
 43
1.0
 76
     1
 77
     6
 78
     2
 67
     7
 79
     5
170
     0
171
     0
290
     0
174
     0
 93
        1
 44
-50.0
173
     0
291
     1
 45
0.0
1001
ACAD
1000
AcDbSavedByObjectVersion
1070
     0
  0
VISUALSTYLE
  5
989A
102
{ACAD_XDICTIONARY
360
990A
102
}
102
{ACAD_REACTORS
330
9882
102
}
330
9882
100
AcDbVisualStyle
  2
EdgeColorOff
 70
    22
 71
     2
 72
     2
 73
     0
 90
        0
 40
-0.6
 41
-30.0
 62
     5
 63
     7
 74
     1
 91
        4
 64
     7
 65
   257
 75
     1
175
     1
 42
1.0
 92
        8
 66
     7
 43
1.0
 76
     1
 77
     6
 78
     2
 67
     7
 79
     5
170
     0
171
     0
290
     0
174
     0
 93
        1
 44
0.0
173
     0
291
     1
 45
0.0
1001
ACAD
1000
AcDbSavedByObjectVersion
1070
     0
  0
VISUALSTYLE
  5
9891
102
{ACAD_XDICTIONARY
360
98F8
102
}
102
{ACAD_REACTORS
330
9882
102
}
330
9882
100
AcDbVisualStyle
  2
Facepattern
 70
    15
 71
     2
 72
     2
 73
     0
 90
        0
 40
-0.6
 41
-30.0
 62
     5
 63
     7
 74
     1
 91
        4
 64
     7
 65
   257
 75
     1
175
     1
 42
1.0
 92
        8
 66
     7
 43
1.0
 76
     1
 77
     6
 78
     2
 67
     7
 79
     5
170
     0
171
     0
290
     0
174
     0
 93
        1
 44
0.0
173
     0
291
     1
 45
0.0
1001
ACAD
1000
AcDbSavedByObjectVersion
1070
     0
  0
VISUALSTYLE
  5
9883
102
{ACAD_XDICTIONARY
360
98DC
102
}
102
{ACAD_REACTORS
330
9882
102
}
330
9882
100
AcDbVisualStyle
  2
Flat
 70
     0
 71
     2
 72
     1
 73
     1
 90
        2
 40
-0.6
 41
30.0
 62
     5
 63
     7
 74
     0
 91
        0
 64
     7
 65
   257
 75
     1
175
     1
 42
1.0
 92
        8
 66
     7
 43
1.0
 76
     1
 77
     6
 78
     2
 67
     7
 79
     5
170
     0
171
     0
290
     0
174
     0
 93
       13
 44
0.0
173
     0
291
     1
 45
0.0
1001
ACAD
1000
AcDbSavedByObjectVersion
1070
     0
  0
VISUALSTYLE
  5
9884
102
{ACAD_XDICTIONARY
360
98DE
102
}
102
{ACAD_REACTORS
330
9882
102
}
330
9882
100
AcDbVisualStyle
  2
FlatWithEdges
 70
     1
 71
     2
 72
     1
 73
     1
 90
        2
 40
-0.6
 41
30.0
 62
     5
 63
     7
 74
     1
 91
        0
 64
     7
 65
   257
 75
     1
175
     1
 42
1.0
 92
        0
 66
   257
 43
1.0
 76
     1
 77
     6
 78
     2
 67
     7
 79
     5
170
     0
171
     0
290
     0
174
     0
 93
       13
 44
0.0
173
     0
291
     1
 45
0.0
1001
ACAD
1000
AcDbSavedByObjectVersion
1070
     0
  0
VISUALSTYLE
  5
9885
102
{ACAD_XDICTIONARY
360
98E0
102
}
102
{ACAD_REACTORS
330
9882
102
}
330
9882
100
AcDbVisualStyle
  2
Gouraud
 70
     2
 71
     2
 72
     2
 73
     1
 90
        2
 40
-0.6
 41
30.0
 62
     5
 63
     7
 74
     0
 91
        0
 64
     7
 65
   257
 75
     1
175
     1
 42
1.0
 92
        0
 66
     7
 43
1.0
 76
     1
 77
     6
 78
     2
 67
     7
 79
     5
170
     0
171
     0
290
     0
174
     0
 93
       13
 44
0.0
173
     0
291
     1
 45
0.0
1001
ACAD
1000
AcDbSavedByObjectVersion
1070
     0
  0
VISUALSTYLE
  5
9886
102
{ACAD_XDICTIONARY
360
98E2
102
}
102
{ACAD_REACTORS
330
9882
102
}
330
9882
100
AcDbVisualStyle
  2
GouraudWithEdges
 70
     3
 71
     2
 72
     2
 73
     1
 90
        2
 40
-0.6
 41
30.0
 62
     5
 63
     7
 74
     1
 91
        0
 64
     7
 65
   257
 75
     1
175
     1
 42
1.0
 92
        0
 66
   257
 43
1.0
 76
     1
 77
     6
 78
     2
 67
     7
 79
     5
170
     0
171
     0
290
     0
174
     0
 93
       13
 44
0.0
173
     0
291
     1
 45
0.0
1001
ACAD
1000
AcDbSavedByObjectVersion
1070
     0
  0
VISUALSTYLE
  5
988A
102
{ACAD_XDICTIONARY
360
98EA
102
}
102
{ACAD_REACTORS
330
9882
102
}
330
9882
100
AcDbVisualStyle
  2
Hidden
 70
     6
 71
     1
 72
     2
 73
     2
 90
        0
 40
-0.6
 41
-30.0
 62
     5
 63
     7
 74
     2
 91
        2
 64
     7
 65
   257
 75
     2
175
     1
 42
40.0
 92
        0
 66
   257
 43
1.0
 76
     1
 77
     6
 78
     2
 67
     7
 79
     3
170
     0
171
     0
290
     0
174
     0
 93
        1
 44
0.0
173
     0
291
     0
 45
0.0
1001
ACAD
1000
AcDbSavedByObjectVersion
1070
     0
  0
VISUALSTYLE
  5
9898
102
{ACAD_XDICTIONARY
360
9906
102
}
102
{ACAD_REACTORS
330
9882
102
}
330
9882
100
AcDbVisualStyle
  2
JitterOff
 70
    20
 71
     2
 72
     2
 73
     0
 90
        0
 40
-0.6
 41
-30.0
 62
     5
 63
     7
 74
     1
 91
        4
 64
     7
 65
   257
 75
     1
175
     1
 42
1.0
 92
       10
 66
     7
 43
1.0
 76
     1
 77
     6
 78
     2
 67
     7
 79
     5
170
     0
171
     0
290
     0
174
     0
 93
        1
 44
0.0
173
     0
291
     1
 45
0.0
1001
ACAD
1000
AcDbSavedByObjectVersion
1070
     0
  0
VISUALSTYLE
  5
9890
102
{ACAD_XDICTIONARY
360
98F6
102
}
102
{ACAD_REACTORS
330
9882
102
}
330
9882
100
AcDbVisualStyle
  2
Linepattern
 70
    14
 71
     2
 72
     2
 73
     0
 90
        0
 40
-0.6
 41
-30.0
 62
     5
 63
     7
 74
     1
 91
        4
 64
     7
 65
   257
 75
     7
175
     7
 42
1.0
 92
        8
 66
     7
 43
1.0
 76
     1
 77
     6
 78
     2
 67
     7
 79
     5
170
     0
171
     0
290
     0
174
     0
 93
        1
 44
0.0
173
     0
291
     1
 45
0.0
1001
ACAD
1000
AcDbSavedByObjectVersion
1070
     0
  0
VISUALSTYLE
  5
9899
102
{ACAD_XDICTIONARY
360
9908
102
}
102
{ACAD_REACTORS
330
9882
102
}
330
9882
100
AcDbVisualStyle
  2
OverhangOff
 70
    21
 71
     2
 72
     2
 73
     0
 90
        0
 40
-0.6
 41
-30.0
 62
     5
 63
     7
 74
     1
 91
        4
 64
     7
 65
   257
 75
     1
175
     1
 42
1.0
 92
        9
 66
     7
 43
1.0
 76
     1
 77
     6
 78
     2
 67
     7
 79
     5
170
     0
171
     0
290
     0
174
     0
 93
        1
 44
0.0
173
     0
291
     1
 45
0.0
1001
ACAD
1000
AcDbSavedByObjectVersion
1070
     0
  0
VISUALSTYLE
  5
988C
102
{ACAD_XDICTIONARY
360
98EE
102
}
102
{ACAD_REACTORS
330
9882
102
}
330
9882
100
AcDbVisualStyle
  2
Realistic
 70
     8
 71
     2
 72
     3
 73
     0
 90
        2
 40
-0.6
 41
30.0
 62
     5
 63
     7
 74
     0
 91
        0
 64
     7
 65
   257
 75
     1
175
     1
 42
1.0
 92
        8
 66
   257
 43
1.0
 76
     1
 77
     6
 78
     2
 67
     7
 79
     3
170
     0
171
     0
290
     0
174
     0
 93
       13
 44
0.0
173
     0
291
     0
 45
0.0
1001
ACAD
1000
AcDbSavedByObjectVersion
1070
     0
  0
VISUALSTYLE
  5
9897
102
{ACAD_XDICTIONARY
360
9904
102
}
102
{ACAD_REACTORS
330
9882
102
}
330
9882
100
AcDbVisualStyle
  2
Shaded
 70
    27
 71
     2
 72
     2
 73
     1
 90
        2
 40
-0.6
 41
30.0
 62
     5
 63
     7
 74
     0
 91
        4
 64
     7
 65
   257
 75
     1
175
     1
 42
1.0
 92
        8
 66
   257
 43
1.0
 76
     1
 77
     6
 78
     2
 67
     8
 79
     3
170
     0
171
     0
290
     0
174
     0
 93
        5
 44
0.0
173
     0
291
     0
 45
0.0
1001
ACAD
1000
AcDbSavedByObjectVersion
1070
     0
  0
VISUALSTYLE
  5
9896
102
{ACAD_XDICTIONARY
360
9902
102
}
102
{ACAD_REACTORS
330
9882
102
}
330
9882
100
AcDbVisualStyle
  2
Shaded with edges
 70
    26
 71
     2
 72
     2
 73
     1
 90
        2
 40
-0.6
 41
30.0
 62
     5
 63
     7
 74
     1
 91
       10
 64
     7
 65
   257
 75
     2
175
     1
 42
1.0
 92
        8
 66
   257
 43
1.0
 76
     1
 77
     6
 78
     2
 67
     7
 79
     3
170
     0
171
     0
290
     0
174
     0
 93
        5
 44
0.0
173
     0
291
     0
 45
0.0
1001
ACAD
1000
AcDbSavedByObjectVersion
1070
     0
  0
VISUALSTYLE
  5
9893
102
{ACAD_XDICTIONARY
360
98FC
102
}
102
{ACAD_REACTORS
330
9882
102
}
330
9882
100
AcDbVisualStyle
  2
Shades of Gray
 70
    23
 71
     2
 72
     2
 73
     3
 90
        0
 40
-0.6
 41
-30.0
 62
     5
 63
     7
 74
     2
 91
        2
 64
     7
 65
     7
 75
     1
175
     1
 42
40.0
 92
        8
 66
     7
 43
1.0
 76
     1
 77
     6
 78
     2
 67
     7
 79
     3
170
     0
171
     0
290
     0
174
     0
 93
        1
 44
0.0
173
     0
291
     0
 45
0.0
1001
ACAD
1000
AcDbSavedByObjectVersion
1070
     0
  0
VISUALSTYLE
  5
9894
102
{ACAD_XDICTIONARY
360
98FE
102
}
102
{ACAD_REACTORS
330
9882
102
}
330
9882
100
AcDbVisualStyle
  2
Sketchy
 70
    24
 71
     1
 72
     2
 73
     2
 90
        0
 40
-0.6
 41
-30.0
 62
     5
 63
     7
 74
     2
 91
        2
 64
     7
 65
     7
 75
     1
175
     1
 42
40.0
 92
       11
 66
     7
 43
1.0
 76
     1
 77
     6
 78
     2
 67
     7
 79
     6
170
     0
171
     0
290
     0
174
     0
 93
        1
 44
0.0
173
     0
291
     0
 45
0.0
1001
ACAD
1000
AcDbSavedByObjectVersion
1070
     0
  0
VISUALSTYLE
  5
988F
102
{ACAD_XDICTIONARY
360
98F4
102
}
102
{ACAD_REACTORS
330
9882
102
}
330
9882
100
AcDbVisualStyle
  2
Thicken
 70
    13
 71
     2
 72
     2
 73
     0
 90
        0
 40
-0.6
 41
-30.0
 62
     5
 63
     7
 74
     1
 91
        4
 64
     7
 65
   257
 75
     1
175
     1
 42
1.0
 92
       12
 66
     7
 43
1.0
 76
     1
 77
     6
 78
     2
 67
     7
 79
     5
170
     0
171
     0
290
     0
174
     0
 93
        1
 44
0.0
173
     0
291
     1
 45
0.0
1001
ACAD
1000
AcDbSavedByObjectVersion
1070
     0
  0
VISUALSTYLE
  5
9889
102
{ACAD_XDICTIONARY
360
98E8
102
}
102
{ACAD_REACTORS
330
9882
102
}
330
9882
100
AcDbVisualStyle
  2
Wireframe
 70
     5
 71
     0
 72
     2
 73
     0
 90
        0
 40
-0.6
 41
-30.0
 62
     5
 63
     7
 74
     1
 91
        4
 64
     7
 65
   257
 75
     1
175
     1
 42
1.0
 92
        0
 66
   257
 43
1.0
 76
     1
 77
     6
 78
     2
 67
     7
 79
     3
170
     0
171
     0
290
     0
174
     0
 93
        1
 44
0.0
173
     0
291
     0
 45
0.0
1001
ACAD
1000
AcDbSavedByObjectVersion
1070
     0
  0
VISUALSTYLE
  5
9895
102
{ACAD_XDICTIONARY
360
9900
102
}
102
{ACAD_REACTORS
330
9882
102
}
330
9882
100
AcDbVisualStyle
  2
X-Ray
 70
    25
 71
     2
 72
     2
 73
     1
 90
        1
 40
0.5
 41
-30.0
 62
     5
 63
     7
 74
     1
 91
        0
 64
     7
 65
   257
 75
     1
175
     1
 42
1.0
 92
        8
 66
     7
 43
1.0
 76
     1
 77
     6
 78
     2
 67
     7
 79
     3
170
     0
171
     0
290
     0
174
     0
 93
       13
 44
0.0
173
     0
291
     0
 45
0.0
1001
ACAD
1000
AcDbSavedByObjectVersion
1070
     0
  0
DICTIONARYVAR
  5
98CF
102
{ACAD_REACTORS
330
98CA
102
}
330
98CA
100
DictionaryVariables
280
     0
  1
1:1
  0
DICTIONARYVAR
  5
98CC
102
{ACAD_REACTORS
330
98CA
102
}
330
98CA
100
DictionaryVariables
280
     0
  1
STANDARD
  0
DICTIONARYVAR
  5
98CB
102
{ACAD_REACTORS
330
98CA
102
}
330
98CA
100
DictionaryVariables
280
     0
  1
STANDARD
  0
DICTIONARYVAR
  5
98CD
102
{ACAD_REACTORS
330
98CA
102
}
330
98CA
100
DictionaryVariables
280
     0
  1
Imperial24
  0
DICTIONARYVAR
  5
98CE
102
{ACAD_REACTORS
330
98CA
102
}
330
98CA
100
DictionaryVariables
280
     0
  1
Imperial24
  0
DICTIONARYVAR
  5
98D2
102
{ACAD_REACTORS
330
98CA
102
}
330
98CA
100
DictionaryVariables
280
     0
  1
1
  0
DICTIONARYVAR
  5
98D1
102
{ACAD_REACTORS
330
98CA
102
}
330
98CA
100
DictionaryVariables
280
     0
  1
0
  0
DICTIONARYVAR
  5
98D0
102
{ACAD_REACTORS
330
98CA
102
}
330
98CA
100
DictionaryVariables
280
     0
  1
127
  0
DICTIONARYVAR
  5
98D3
102
{ACAD_REACTORS
330
98CA
102
}
330
98CA
100
DictionaryVariables
280
     0
  1
2
  0
DICTIONARY
  5
9910
330
98B5
100
AcDbDictionary
280
     1
281
     1
  3
ACAD_XREC_ROUNDTRIP
360
9911
  0
DICTIONARY
  5
9912
330
98B6
100
AcDbDictionary
280
     1
281
     1
  3
ACAD_XREC_ROUNDTRIP
360
9913
  0
DICTIONARY
  5
9914
330
98B7
100
AcDbDictionary
280
     1
281
     1
  3
ACAD_XREC_ROUNDTRIP
360
9915
  0
DICTIONARY
  5
9873
330
9872
100
AcDbDictionary
280
     1
281
     1
  3
ACAD_XREC_ROUNDTRIP
360
98DA
  3
BUMPTILE
360
9875
  3
DIFFUSETILE
360
9874
  3
OPACITYTILE
360
9878
  3
REFLECTIONTILE
360
9877
  3
REFRACTIONTILE
360
9879
  3
SPECULARTILE
360
9876
  0
DICTIONARY
  5
986B
330
986A
100
AcDbDictionary
280
     1
281
     1
  3
ACAD_XREC_ROUNDTRIP
360
98D9
  3
BUMPTILE
360
986D
  3
DIFFUSETILE
360
986C
  3
OPACITYTILE
360
9870
  3
REFLECTIONTILE
360
986F
  3
REFRACTIONTILE
360
9871
  3
SPECULARTILE
360
986E
  0
DICTIONARY
  5
987B
330
987A
100
AcDbDictionary
280
     1
281
     1
  3
ACAD_XREC_ROUNDTRIP
360
98DB
  3
BUMPTILE
360
987D
  3
DIFFUSETILE
360
987C
  3
OPACITYTILE
360
9880
  3
REFLECTIONTILE
360
987F
  3
REFRACTIONTILE
360
9881
  3
SPECULARTILE
360
987E
  0
DICTIONARY
  5
990E
330
98B3
100
AcDbDictionary
280
     1
281
     1
  3
ACAD_XREC_ROUNDTRIP
360
990F
  0
DICTIONARY
  5
98D5
330
989D
100
AcDbDictionary
280
     1
281
     1
  3
ACAD_ROUNDTRIP_2008_TABLESTYLE_CELLSTYLEMAP
360
98D6
  3
ACAD_XREC_ROUNDTRIP
360
990C
  0
DICTIONARY
  5
98E6
330
9888
100
AcDbDictionary
280
     1
281
     1
  3
ACAD_XREC_ROUNDTRIP
360
98E7
  0
DICTIONARY
  5
98E4
330
9887
100
AcDbDictionary
280
     1
281
     1
  3
ACAD_XREC_ROUNDTRIP
360
98E5
  0
DICTIONARY
  5
98F2
330
988E
100
AcDbDictionary
280
     1
281
     1
  3
ACAD_XREC_ROUNDTRIP
360
98F3
  0
DICTIONARY
  5
98FA
330
9892
100
AcDbDictionary
280
     1
281
     1
  3
ACAD_XREC_ROUNDTRIP
360
98FB
  0
DICTIONARY
  5
98EC
330
988B
100
AcDbDictionary
280
     1
281
     1
  3
ACAD_XREC_ROUNDTRIP
360
98ED
  0
DICTIONARY
  5
98F0
330
988D
100
AcDbDictionary
280
     1
281
     1
  3
ACAD_XREC_ROUNDTRIP
360
98F1
  0
DICTIONARY
  5
990A
330
989A
100
AcDbDictionary
280
     1
281
     1
  3
ACAD_XREC_ROUNDTRIP
360
990B
  0
DICTIONARY
  5
98F8
330
9891
100
AcDbDictionary
280
     1
281
     1
  3
ACAD_XREC_ROUNDTRIP
360
98F9
  0
DICTIONARY
  5
98DC
330
9883
100
AcDbDictionary
280
     1
281
     1
  3
ACAD_XREC_ROUNDTRIP
360
98DD
  0
DICTIONARY
  5
98DE
330
9884
100
AcDbDictionary
280
     1
281
     1
  3
ACAD_XREC_ROUNDTRIP
360
98DF
  0
DICTIONARY
  5
98E0
330
9885
100
AcDbDictionary
280
     1
281
     1
  3
ACAD_XREC_ROUNDTRIP
360
98E1
  0
DICTIONARY
  5
98E2
330
9886
100
AcDbDictionary
280
     1
281
     1
  3
ACAD_XREC_ROUNDTRIP
360
98E3
  0
DICTIONARY
  5
98EA
330
988A
100
AcDbDictionary
280
     1
281
     1
  3
ACAD_XREC_ROUNDTRIP
360
98EB
  0
DICTIONARY
  5
9906
330
9898
100
AcDbDictionary
280
     1
281
     1
  3
ACAD_XREC_ROUNDTRIP
360
9907
  0
DICTIONARY
  5
98F6
330
9890
100
AcDbDictionary
280
     1
281
     1
  3
ACAD_XREC_ROUNDTRIP
360
98F7
  0
DICTIONARY
  5
9908
330
9899
100
AcDbDictionary
280
     1
281
     1
  3
ACAD_XREC_ROUNDTRIP
360
9909
  0
DICTIONARY
  5
98EE
330
988C
100
AcDbDictionary
280
     1
281
     1
  3
ACAD_XREC_ROUNDTRIP
360
98EF
  0
DICTIONARY
  5
9904
330
9897
100
AcDbDictionary
280
     1
281
     1
  3
ACAD_XREC_ROUNDTRIP
360
9905
  0
DICTIONARY
  5
9902
330
9896
100
AcDbDictionary
280
     1
281
     1
  3
ACAD_XREC_ROUNDTRIP
360
9903
  0
DICTIONARY
  5
98FC
330
9893
100
AcDbDictionary
280
     1
281
     1
  3
ACAD_XREC_ROUNDTRIP
360
98FD
  0
DICTIONARY
  5
98FE
330
9894
100
AcDbDictionary
280
     1
281
     1
  3
ACAD_XREC_ROUNDTRIP
360
98FF
  0
DICTIONARY
  5
98F4
330
988F
100
AcDbDictionary
280
     1
281
     1
  3
ACAD_XREC_ROUNDTRIP
360
98F5
  0
DICTIONARY
  5
98E8
330
9889
100
AcDbDictionary
280
     1
281
     1
  3
ACAD_XREC_ROUNDTRIP
360
98E9
  0
DICTIONARY
  5
9900
330
9895
100
AcDbDictionary
280
     1
281
     1
  3
ACAD_XREC_ROUNDTRIP
360
9901
  0
XRECORD
  5
9911
102
{ACAD_REACTORS
330
9910
102
}
330
9910
100
AcDbXrecord
280
     1
102
DISPLAYNAME
  1
Imperial24
102
FLAGS
 90
        0
  0
XRECORD
  5
9913
102
{ACAD_REACTORS
330
9912
102
}
330
9912
100
AcDbXrecord
280
     1
102
SHADEPLOT
 70
     0
102
SHADEPLOTRESLEVEL
 70
     2
102
SHADEPLOTCUSTOMDPI
 70
   300
  0
XRECORD
  5
9915
102
{ACAD_REACTORS
330
9914
102
}
330
9914
100
AcDbXrecord
280
     1
102
SHADEPLOT
 70
     0
102
SHADEPLOTRESLEVEL
 70
     2
102
SHADEPLOTCUSTOMDPI
 70
   300
  0
XRECORD
  5
98DA
102
{ACAD_REACTORS
330
9873
102
}
330
9873
100
AcDbXrecord
280
     1
102
MATERIAL
148
0.0
149
0.0
149
0.0
 93
        0
 94
      127
282
     0
 72
     0
 77
     0
171
     0
175
     0
179
     0
273
     0
  0
XRECORD
  5
9875
102
{ACAD_REACTORS
330
9873
102
}
330
9873
100
AcDbXrecord
280
     1
270
     1
271
     1
  0
XRECORD
  5
9874
102
{ACAD_REACTORS
330
9873
102
}
330
9873
100
AcDbXrecord
280
     1
270
     1
271
     1
  0
XRECORD
  5
9878
102
{ACAD_REACTORS
330
9873
102
}
330
9873
100
AcDbXrecord
280
     1
270
     1
271
     1
  0
XRECORD
  5
9877
102
{ACAD_REACTORS
330
9873
102
}
330
9873
100
AcDbXrecord
280
     1
270
     1
271
     1
  0
XRECORD
  5
9879
102
{ACAD_REACTORS
330
9873
102
}
330
9873
100
AcDbXrecord
280
     1
270
     1
271
     1
  0
XRECORD
  5
9876
102
{ACAD_REACTORS
330
9873
102
}
330
9873
100
AcDbXrecord
280
     1
270
     1
271
     1
  0
XRECORD
  5
98D9
102
{ACAD_REACTORS
330
986B
102
}
330
986B
100
AcDbXrecord
280
     1
102
MATERIAL
148
0.0
149
0.0
149
0.0
 93
        0
 94
      127
282
     0
 72
     0
 77
     0
171
     0
175
     0
179
     0
273
     0
  0
XRECORD
  5
986D
102
{ACAD_REACTORS
330
986B
102
}
330
986B
100
AcDbXrecord
280
     1
270
     1
271
     1
  0
XRECORD
  5
986C
102
{ACAD_REACTORS
330
986B
102
}
330
986B
100
AcDbXrecord
280
     1
270
     1
271
     1
  0
XRECORD
  5
9870
102
{ACAD_REACTORS
330
986B
102
}
330
986B
100
AcDbXrecord
280
     1
270
     1
271
     1
  0
XRECORD
  5
986F
102
{ACAD_REACTORS
330
986B
102
}
330
986B
100
AcDbXrecord
280
     1
270
     1
271
     1
  0
XRECORD
  5
9871
102
{ACAD_REACTORS
330
986B
102
}
330
986B
100
AcDbXrecord
280
     1
270
     1
271
     1
  0
XRECORD
  5
986E
102
{ACAD_REACTORS
330
986B
102
}
330
986B
100
AcDbXrecord
280
     1
270
     1
271
     1
  0
XRECORD
  5
98DB
102
{ACAD_REACTORS
330
987B
102
}
330
987B
100
AcDbXrecord
280
     1
102
MATERIAL
148
0.0
149
0.0
149
0.0
 93
        0
 94
      127
282
     0
 72
     0
 77
     0
171
     0
175
     0
179
     0
273
     0
  0
XRECORD
  5
987D
102
{ACAD_REACTORS
330
987B
102
}
330
987B
100
AcDbXrecord
280
     1
270
     1
271
     1
  0
XRECORD
  5
987C
102
{ACAD_REACTORS
330
987B
102
}
330
987B
100
AcDbXrecord
280
     1
270
     1
271
     1
  0
XRECORD
  5
9880
102
{ACAD_REACTORS
330
987B
102
}
330
987B
100
AcDbXrecord
280
     1
270
     1
271
     1
  0
XRECORD
  5
987F
102
{ACAD_REACTORS
330
987B
102
}
330
987B
100
AcDbXrecord
280
     1
270
     1
271
     1
  0
XRECORD
  5
9881
102
{ACAD_REACTORS
330
987B
102
}
330
987B
100
AcDbXrecord
280
     1
270
     1
271
     1
  0
XRECORD
  5
987E
102
{ACAD_REACTORS
330
987B
102
}
330
987B
100
AcDbXrecord
280
     1
270
     1
271
     1
  0
XRECORD
  5
990F
102
{ACAD_REACTORS
330
990E
102
}
330
990E
100
AcDbXrecord
280
     1
102
DISPLAYNAME
  1
Imperial24
102
FLAGS
 90
        0
  0
CELLSTYLEMAP
  5
98D6
102
{ACAD_REACTORS
330
98D5
102
}
330
98D5
100
AcDbCellStyleMap
 90
        3
300
CELLSTYLE
  1
TABLEFORMAT_BEGIN
 90
        5
170
     1
 91
        0
 92
    32768
 62
   257
 93
        1
300
CONTENTFORMAT
  1
CONTENTFORMAT_BEGIN
 90
        0
 91
        0
 92
      512
 93
        0
300

 40
0.0
140
1.0
 94
        5
 62
     0
340
949B
144
0.25
309
CONTENTFORMAT_END
171
     0
 94
        0
309
TABLEFORMAT_END
  1
CELLSTYLE_BEGIN
 90
        1
 91
        1
300
_TITLE
309
CELLSTYLE_END
300
CELLSTYLE
  1
TABLEFORMAT_BEGIN
 90
        5
170
     1
 91
        0
 92
        0
 62
   257
 93
        1
300
CONTENTFORMAT
  1
CONTENTFORMAT_BEGIN
 90
        0
 91
        0
 92
      512
 93
        0
300

 40
0.0
140
1.0
 94
        5
 62
     0
340
949B
144
0.18
309
CONTENTFORMAT_END
171
     0
 94
        0
309
TABLEFORMAT_END
  1
CELLSTYLE_BEGIN
 90
        2
 91
        1
300
_HEADER
309
CELLSTYLE_END
300
CELLSTYLE
  1
TABLEFORMAT_BEGIN
 90
        5
170
     1
 91
        0
 92
        0
 62
   257
 93
        1
300
CONTENTFORMAT
  1
CONTENTFORMAT_BEGIN
 90
        0
 91
        0
 92
      512
 93
        0
300

 40
0.0
140
1.0
 94
        2
 62
     0
340
949B
144
0.18
309
CONTENTFORMAT_END
171
     0
 94
        0
309
TABLEFORMAT_END
  1
CELLSTYLE_BEGIN
 90
        3
 91
        2
300
_DATA
309
CELLSTYLE_END
  0
XRECORD
  5
990C
102
{ACAD_REACTORS
330
98D5
102
}
330
98D5
100
AcDbXrecord
280
     1
102
ACAD_ROUNDTRIP_PRE2007_TABLESTYLE
 90
      512
 91
        0
  1

 92
      512
 93
        0
  2

 94
      512
 95
        0
  3

  0
XRECORD
  5
98E7
102
{ACAD_REACTORS
330
98E6
102
}
330
98E6
100
AcDbXrecord
280
     1
102
RTVSPost2010Prop28
280
     1
102
RTVSPost2010PropOp28
 70
     1
102
RTVSPost2010Prop29
280
     1
102
RTVSPost2010PropOp29
 70
     1
102
RTVSPost2010Prop30
280
     0
102
RTVSPost2010PropOp30
 70
     1
102
RTVSPost2010Prop31
280
     0
102
RTVSPost2010PropOp31
 70
     1
102
RTVSPost2010Prop32
280
     0
102
RTVSPost2010PropOp32
 70
     1
102
RTVSPost2010Prop33
280
     0
102
RTVSPost2010PropOp33
 70
     1
102
RTVSPost2010Prop34
280
     0
102
RTVSPost2010PropOp34
 70
     1
102
RTVSPost2010Prop35
280
     0
102
RTVSPost2010PropOp35
 70
     1
102
RTVSPost2010Prop36
280
     0
102
RTVSPost2010PropOp36
 70
     1
102
RTVSPost2010Prop37
 90
       50
102
RTVSPost2010PropOp37
 70
     1
102
RTVSPost2010Prop38
140
0.0
102
RTVSPost2010PropOp38
 70
     1
102
RTVSPost2010Prop39
140
1.0
102
RTVSPost2010PropOp39
 70
     1
102
RTVSPost2010Prop40
 90
        0
102
RTVSPost2010PropOp40
 70
     1
102
RTVSPost2010Prop41ColorIndex
 90
       18
102
RTVSPost2010Prop41ColorRGB
 90
        0
102
RTVSPost2010PropOp41
 70
     1
102
RTVSPost2010Prop42
 90
       50
102
RTVSPost2010PropOp42
 70
     1
102
RTVSPost2010Prop43
 90
        3
102
RTVSPost2010PropOp43
 70
     1
102
RTVSPost2010Prop44ColorIndex
 90
        5
102
RTVSPost2010Prop44ColorRGB
 90
      255
102
RTVSPost2010PropOp44
 70
     1
102
RTVSPost2010Prop45
280
     0
102
RTVSPost2010PropOp45
 70
     1
102
RTVSPost2010Prop46
 90
       50
102
RTVSPost2010PropOp46
 70
     1
102
RTVSPost2010Prop47
 90
       50
102
RTVSPost2010PropOp47
 70
     1
102
RTVSPost2010Prop48
 90
       50
102
RTVSPost2010PropOp48
 70
     1
102
RTVSPost2010Prop49
280
     0
102
RTVSPost2010PropOp49
 70
     1
102
RTVSPost2010Prop50
 90
       50
102
RTVSPost2010PropOp50
 70
     1
102
RTVSPost2010Prop51ColorIndex
 90
      256
102
RTVSPost2010Prop51ColorRGB
 90
-16777216
102
RTVSPost2010PropOp51
 70
     0
102
RTVSPost2010Prop52
140
1.0
102
RTVSPost2010PropOp52
 70
     0
102
RTVSPost2010Prop53
 90
        2
102
RTVSPost2010PropOp53
 70
     1
102
RTVSPost2010Prop54
  1
strokes_ogs.tif
102
RTVSPost2010PropOp54
 70
     1
102
RTVSPost2010Prop55
280
     0
102
RTVSPost2010PropOp55
 70
     1
102
RTVSPost2010Prop56
140
1.0
102
RTVSPost2010PropOp56
 70
     1
102
RTVSPost2010Prop57
140
1.0
102
RTVSPost2010PropOp57
 70
     1
102
RTVSPropertyOp0
 70
     1
102
RTVSPropertyOp1
 70
     1
102
RTVSPropertyOp2
 70
     1
102
RTVSPropertyOp3
 70
     1
102
RTVSPropertyOp4
 70
     1
102
RTVSPropertyOp5
 70
     1
102
RTVSPropertyOp6
 70
     1
102
RTVSPropertyOp7
 70
     1
102
RTVSPropertyOp8
 70
     1
102
RTVSPropertyOp9
 70
     1
102
RTVSPropertyOp10
 70
     1
102
RTVSPropertyOp11
 70
     1
102
RTVSPropertyOp12
 70
     1
102
RTVSPropertyOp13
 70
     1
102
RTVSPropertyOp14
 70
     1
102
RTVSPropertyOp15
 70
     1
102
RTVSPropertyOp16
 70
     1
102
RTVSPropertyOp17
 70
     1
102
RTVSPropertyOp18
 70
     1
102
RTVSPropertyOp19
 70
     1
102
RTVSPropertyOp20
 70
     1
102
RTVSPropertyOp21
 70
     1
102
RTVSPropertyOp22
 70
     1
102
RTVSPropertyOp23
 70
     1
102
RTVSPropertyOp24
 70
     1
102
RTVSPropertyOp25
 70
     1
102
RTVSPropertyOp26
 70
     1
102
RTVSPropertyOp27
 70
     1
102
RTVSPropertyOp28
 70
     1
102
RTVSPropertyOp29
 70
     1
102
RTVSPropertyOp30
 70
     1
102
RTVSPropertyOp31
 70
     1
102
RTVSPropertyOp32
 70
     1
102
RTVSPropertyOp33
 70
     1
102
RTVSPropertyOp34
 70
     1
102
RTVSPropertyOp35
 70
     1
102
RTVSPropertyOp36
 70
     1
102
RTVSPropertyOp37
 70
     1
102
RTVSPropertyOp38
 70
     1
102
RTVSPropertyOp39
 70
     1
102
RTVSPropertyOp40
 70
     1
102
RTVSPropertyOp41
 70
     1
102
RTVSPropertyOp42
 70
     1
102
RTVSPropertyOp43
 70
     1
102
RTVSPropertyOp44
 70
     1
102
RTVSPropertyOp45
 70
     1
102
RTVSPropertyOp46
 70
     1
102
RTVSPropertyOp47
 70
     1
102
RTVSPropertyOp48
 70
     1
102
RTVSPropertyOp49
 70
     1
102
RTVSPropertyOp50
 70
     1
102
RTVSPropertyOp51
 70
     0
102
RTVSPropertyOp52
 70
     0
102
RTVSPropertyOp53
 70
     1
102
RTVSPropertyOp54
 70
     1
102
RTVSPropertyOp55
 70
     1
102
RTVSPropertyOp56
 70
     1
102
RTVSPropertyOp57
 70
     1
102
RTVSPropertyOp58
 70
     1
102
RTVSPropertyOp59
 70
     1
102
RTVSPropertyOp60
 70
     1
102
RTVSPropertyOp61
 70
     1
102
RTVSPropertyOp62
 70
     1
  0
XRECORD
  5
98E5
102
{ACAD_REACTORS
330
98E4
102
}
330
98E4
100
AcDbXrecord
280
     1
102
RTVSPost2010Prop28
280
     0
102
RTVSPost2010PropOp28
 70
     1
102
RTVSPost2010Prop29
280
     1
102
RTVSPost2010PropOp29
 70
     1
102
RTVSPost2010Prop30
280
     1
102
RTVSPost2010PropOp30
 70
     1
102
RTVSPost2010Prop31
280
     0
102
RTVSPost2010PropOp31
 70
     1
102
RTVSPost2010Prop32
280
     0
102
RTVSPost2010PropOp32
 70
     1
102
RTVSPost2010Prop33
280
     0
102
RTVSPost2010PropOp33
 70
     1
102
RTVSPost2010Prop34
280
     0
102
RTVSPost2010PropOp34
 70
     1
102
RTVSPost2010Prop35
280
     0
102
RTVSPost2010PropOp35
 70
     1
102
RTVSPost2010Prop36
280
     0
102
RTVSPost2010PropOp36
 70
     1
102
RTVSPost2010Prop37
 90
       50
102
RTVSPost2010PropOp37
 70
     1
102
RTVSPost2010Prop38
140
0.0
102
RTVSPost2010PropOp38
 70
     1
102
RTVSPost2010Prop39
140
1.0
102
RTVSPost2010PropOp39
 70
     1
102
RTVSPost2010Prop40
 90
        0
102
RTVSPost2010PropOp40
 70
     1
102
RTVSPost2010Prop41ColorIndex
 90
       18
102
RTVSPost2010Prop41ColorRGB
 90
        0
102
RTVSPost2010PropOp41
 70
     1
102
RTVSPost2010Prop42
 90
       50
102
RTVSPost2010PropOp42
 70
     1
102
RTVSPost2010Prop43
 90
        3
102
RTVSPost2010PropOp43
 70
     1
102
RTVSPost2010Prop44ColorIndex
 90
        5
102
RTVSPost2010Prop44ColorRGB
 90
      255
102
RTVSPost2010PropOp44
 70
     1
102
RTVSPost2010Prop45
280
     0
102
RTVSPost2010PropOp45
 70
     1
102
RTVSPost2010Prop46
 90
       50
102
RTVSPost2010PropOp46
 70
     1
102
RTVSPost2010Prop47
 90
       50
102
RTVSPost2010PropOp47
 70
     1
102
RTVSPost2010Prop48
 90
       50
102
RTVSPost2010PropOp48
 70
     1
102
RTVSPost2010Prop49
280
     0
102
RTVSPost2010PropOp49
 70
     1
102
RTVSPost2010Prop50
 90
       50
102
RTVSPost2010PropOp50
 70
     1
102
RTVSPost2010Prop51ColorIndex
 90
      256
102
RTVSPost2010Prop51ColorRGB
 90
-16777216
102
RTVSPost2010PropOp51
 70
     0
102
RTVSPost2010Prop52
140
1.0
102
RTVSPost2010PropOp52
 70
     0
102
RTVSPost2010Prop53
 90
        2
102
RTVSPost2010PropOp53
 70
     1
102
RTVSPost2010Prop54
  1
strokes_ogs.tif
102
RTVSPost2010PropOp54
 70
     1
102
RTVSPost2010Prop55
280
     0
102
RTVSPost2010PropOp55
 70
     1
102
RTVSPost2010Prop56
140
1.0
102
RTVSPost2010PropOp56
 70
     1
102
RTVSPost2010Prop57
140
1.0
102
RTVSPost2010PropOp57
 70
     1
102
RTVSPropertyOp0
 70
     1
102
RTVSPropertyOp1
 70
     1
102
RTVSPropertyOp2
 70
     1
102
RTVSPropertyOp3
 70
     1
102
RTVSPropertyOp4
 70
     1
102
RTVSPropertyOp5
 70
     1
102
RTVSPropertyOp6
 70
     1
102
RTVSPropertyOp7
 70
     1
102
RTVSPropertyOp8
 70
     1
102
RTVSPropertyOp9
 70
     1
102
RTVSPropertyOp10
 70
     1
102
RTVSPropertyOp11
 70
     1
102
RTVSPropertyOp12
 70
     1
102
RTVSPropertyOp13
 70
     1
102
RTVSPropertyOp14
 70
     1
102
RTVSPropertyOp15
 70
     1
102
RTVSPropertyOp16
 70
     1
102
RTVSPropertyOp17
 70
     1
102
RTVSPropertyOp18
 70
     1
102
RTVSPropertyOp19
 70
     1
102
RTVSPropertyOp20
 70
     1
102
RTVSPropertyOp21
 70
     1
102
RTVSPropertyOp22
 70
     1
102
RTVSPropertyOp23
 70
     1
102
RTVSPropertyOp24
 70
     1
102
RTVSPropertyOp25
 70
     1
102
RTVSPropertyOp26
 70
     1
102
RTVSPropertyOp27
 70
     1
102
RTVSPropertyOp28
 70
     1
102
RTVSPropertyOp29
 70
     1
102
RTVSPropertyOp30
 70
     1
102
RTVSPropertyOp31
 70
     1
102
RTVSPropertyOp32
 70
     1
102
RTVSPropertyOp33
 70
     1
102
RTVSPropertyOp34
 70
     1
102
RTVSPropertyOp35
 70
     1
102
RTVSPropertyOp36
 70
     1
102
RTVSPropertyOp37
 70
     1
102
RTVSPropertyOp38
 70
     1
102
RTVSPropertyOp39
 70
     1
102
RTVSPropertyOp40
 70
     1
102
RTVSPropertyOp41
 70
     1
102
RTVSPropertyOp42
 70
     1
102
RTVSPropertyOp43
 70
     1
102
RTVSPropertyOp44
 70
     1
102
RTVSPropertyOp45
 70
     1
102
RTVSPropertyOp46
 70
     1
102
RTVSPropertyOp47
 70
     1
102
RTVSPropertyOp48
 70
     1
102
RTVSPropertyOp49
 70
     1
102
RTVSPropertyOp50
 70
     1
102
RTVSPropertyOp51
 70
     0
102
RTVSPropertyOp52
 70
     0
102
RTVSPropertyOp53
 70
     1
102
RTVSPropertyOp54
 70
     1
102
RTVSPropertyOp55
 70
     1
102
RTVSPropertyOp56
 70
     1
102
RTVSPropertyOp57
 70
     1
102
RTVSPropertyOp58
 70
     1
102
RTVSPropertyOp59
 70
     1
102
RTVSPropertyOp60
 70
     1
102
RTVSPropertyOp61
 70
     1
102
RTVSPropertyOp62
 70
     1
  0
XRECORD
  5
98F3
102
{ACAD_REACTORS
330
98F2
102
}
330
98F2
100
AcDbXrecord
280
     1
102
RTVSPost2010Prop28
280
     0
102
RTVSPost2010PropOp28
 70
     1
102
RTVSPost2010Prop29
280
     1
102
RTVSPost2010PropOp29
 70
     1
102
RTVSPost2010Prop30
280
     1
102
RTVSPost2010PropOp30
 70
     1
102
RTVSPost2010Prop31
280
     0
102
RTVSPost2010PropOp31
 70
     1
102
RTVSPost2010Prop32
280
     0
102
RTVSPost2010PropOp32
 70
     1
102
RTVSPost2010Prop33
280
     0
102
RTVSPost2010PropOp33
 70
     1
102
RTVSPost2010Prop34
280
     0
102
RTVSPost2010PropOp34
 70
     1
102
RTVSPost2010Prop35
280
     0
102
RTVSPost2010PropOp35
 70
     1
102
RTVSPost2010Prop36
280
     0
102
RTVSPost2010PropOp36
 70
     1
102
RTVSPost2010Prop37
 90
       50
102
RTVSPost2010PropOp37
 70
     1
102
RTVSPost2010Prop38
140
0.0
102
RTVSPost2010PropOp38
 70
     1
102
RTVSPost2010Prop39
140
1.0
102
RTVSPost2010PropOp39
 70
     1
102
RTVSPost2010Prop40
 90
        0
102
RTVSPost2010PropOp40
 70
     1
102
RTVSPost2010Prop41ColorIndex
 90
       18
102
RTVSPost2010Prop41ColorRGB
 90
        0
102
RTVSPost2010PropOp41
 70
     1
102
RTVSPost2010Prop42
 90
       50
102
RTVSPost2010PropOp42
 70
     1
102
RTVSPost2010Prop43
 90
        3
102
RTVSPost2010PropOp43
 70
     1
102
RTVSPost2010Prop44ColorIndex
 90
        5
102
RTVSPost2010Prop44ColorRGB
 90
      255
102
RTVSPost2010PropOp44
 70
     1
102
RTVSPost2010Prop45
280
     0
102
RTVSPost2010PropOp45
 70
     1
102
RTVSPost2010Prop46
 90
       50
102
RTVSPost2010PropOp46
 70
     1
102
RTVSPost2010Prop47
 90
       50
102
RTVSPost2010PropOp47
 70
     1
102
RTVSPost2010Prop48
 90
       50
102
RTVSPost2010PropOp48
 70
     1
102
RTVSPost2010Prop49
280
     0
102
RTVSPost2010PropOp49
 70
     1
102
RTVSPost2010Prop50
 90
       50
102
RTVSPost2010PropOp50
 70
     1
102
RTVSPost2010Prop51ColorIndex
 90
      256
102
RTVSPost2010Prop51ColorRGB
 90
-16777216
102
RTVSPost2010PropOp51
 70
     0
102
RTVSPost2010Prop52
140
1.0
102
RTVSPost2010PropOp52
 70
     0
102
RTVSPost2010Prop53
 90
        2
102
RTVSPost2010PropOp53
 70
     1
102
RTVSPost2010Prop54
  1
strokes_ogs.tif
102
RTVSPost2010PropOp54
 70
     1
102
RTVSPost2010Prop55
280
     0
102
RTVSPost2010PropOp55
 70
     1
102
RTVSPost2010Prop56
140
1.0
102
RTVSPost2010PropOp56
 70
     1
102
RTVSPost2010Prop57
140
1.0
102
RTVSPost2010PropOp57
 70
     1
102
RTVSPropertyOp0
 70
     1
102
RTVSPropertyOp1
 70
     1
102
RTVSPropertyOp2
 70
     1
102
RTVSPropertyOp3
 70
     1
102
RTVSPropertyOp4
 70
     1
102
RTVSPropertyOp5
 70
     1
102
RTVSPropertyOp6
 70
     1
102
RTVSPropertyOp7
 70
     1
102
RTVSPropertyOp8
 70
     1
102
RTVSPropertyOp9
 70
     1
102
RTVSPropertyOp10
 70
     1
102
RTVSPropertyOp11
 70
     1
102
RTVSPropertyOp12
 70
     1
102
RTVSPropertyOp13
 70
     1
102
RTVSPropertyOp14
 70
     1
102
RTVSPropertyOp15
 70
     1
102
RTVSPropertyOp16
 70
     1
102
RTVSPropertyOp17
 70
     1
102
RTVSPropertyOp18
 70
     1
102
RTVSPropertyOp19
 70
     1
102
RTVSPropertyOp20
 70
     1
102
RTVSPropertyOp21
 70
     1
102
RTVSPropertyOp22
 70
     1
102
RTVSPropertyOp23
 70
     1
102
RTVSPropertyOp24
 70
     1
102
RTVSPropertyOp25
 70
     1
102
RTVSPropertyOp26
 70
     1
102
RTVSPropertyOp27
 70
     1
102
RTVSPropertyOp28
 70
     1
102
RTVSPropertyOp29
 70
     1
102
RTVSPropertyOp30
 70
     1
102
RTVSPropertyOp31
 70
     1
102
RTVSPropertyOp32
 70
     1
102
RTVSPropertyOp33
 70
     1
102
RTVSPropertyOp34
 70
     1
102
RTVSPropertyOp35
 70
     1
102
RTVSPropertyOp36
 70
     1
102
RTVSPropertyOp37
 70
     1
102
RTVSPropertyOp38
 70
     1
102
RTVSPropertyOp39
 70
     1
102
RTVSPropertyOp40
 70
     1
102
RTVSPropertyOp41
 70
     1
102
RTVSPropertyOp42
 70
     1
102
RTVSPropertyOp43
 70
     1
102
RTVSPropertyOp44
 70
     1
102
RTVSPropertyOp45
 70
     1
102
RTVSPropertyOp46
 70
     1
102
RTVSPropertyOp47
 70
     1
102
RTVSPropertyOp48
 70
     1
102
RTVSPropertyOp49
 70
     1
102
RTVSPropertyOp50
 70
     1
102
RTVSPropertyOp51
 70
     0
102
RTVSPropertyOp52
 70
     0
102
RTVSPropertyOp53
 70
     1
102
RTVSPropertyOp54
 70
     1
102
RTVSPropertyOp55
 70
     1
102
RTVSPropertyOp56
 70
     1
102
RTVSPropertyOp57
 70
     1
102
RTVSPropertyOp58
 70
     1
102
RTVSPropertyOp59
 70
     1
102
RTVSPropertyOp60
 70
     1
102
RTVSPropertyOp61
 70
     1
102
RTVSPropertyOp62
 70
     1
  0
XRECORD
  5
98FB
102
{ACAD_REACTORS
330
98FA
102
}
330
98FA
100
AcDbXrecord
280
     1
102
RTVSPost2010Prop28
280
     0
102
RTVSPost2010PropOp28
 70
     1
102
RTVSPost2010Prop29
280
     1
102
RTVSPost2010PropOp29
 70
     1
102
RTVSPost2010Prop30
280
     1
102
RTVSPost2010PropOp30
 70
     1
102
RTVSPost2010Prop31
280
     0
102
RTVSPost2010PropOp31
 70
     1
102
RTVSPost2010Prop32
280
     0
102
RTVSPost2010PropOp32
 70
     1
102
RTVSPost2010Prop33
280
     0
102
RTVSPost2010PropOp33
 70
     1
102
RTVSPost2010Prop34
280
     0
102
RTVSPost2010PropOp34
 70
     1
102
RTVSPost2010Prop35
280
     0
102
RTVSPost2010PropOp35
 70
     1
102
RTVSPost2010Prop36
280
     0
102
RTVSPost2010PropOp36
 70
     1
102
RTVSPost2010Prop37
 90
       50
102
RTVSPost2010PropOp37
 70
     1
102
RTVSPost2010Prop38
140
0.0
102
RTVSPost2010PropOp38
 70
     1
102
RTVSPost2010Prop39
140
1.0
102
RTVSPost2010PropOp39
 70
     1
102
RTVSPost2010Prop40
 90
        0
102
RTVSPost2010PropOp40
 70
     1
102
RTVSPost2010Prop41ColorIndex
 90
       18
102
RTVSPost2010Prop41ColorRGB
 90
        0
102
RTVSPost2010PropOp41
 70
     1
102
RTVSPost2010Prop42
 90
       50
102
RTVSPost2010PropOp42
 70
     1
102
RTVSPost2010Prop43
 90
        3
102
RTVSPost2010PropOp43
 70
     1
102
RTVSPost2010Prop44ColorIndex
 90
        5
102
RTVSPost2010Prop44ColorRGB
 90
      255
102
RTVSPost2010PropOp44
 70
     1
102
RTVSPost2010Prop45
280
     0
102
RTVSPost2010PropOp45
 70
     1
102
RTVSPost2010Prop46
 90
       50
102
RTVSPost2010PropOp46
 70
     1
102
RTVSPost2010Prop47
 90
       50
102
RTVSPost2010PropOp47
 70
     1
102
RTVSPost2010Prop48
 90
       50
102
RTVSPost2010PropOp48
 70
     1
102
RTVSPost2010Prop49
280
     0
102
RTVSPost2010PropOp49
 70
     1
102
RTVSPost2010Prop50
 90
       50
102
RTVSPost2010PropOp50
 70
     1
102
RTVSPost2010Prop51ColorIndex
 90
      256
102
RTVSPost2010Prop51ColorRGB
 90
-16777216
102
RTVSPost2010PropOp51
 70
     0
102
RTVSPost2010Prop52
140
1.0
102
RTVSPost2010PropOp52
 70
     0
102
RTVSPost2010Prop53
 90
        2
102
RTVSPost2010PropOp53
 70
     1
102
RTVSPost2010Prop54
  1
strokes_ogs.tif
102
RTVSPost2010PropOp54
 70
     1
102
RTVSPost2010Prop55
280
     0
102
RTVSPost2010PropOp55
 70
     1
102
RTVSPost2010Prop56
140
1.0
102
RTVSPost2010PropOp56
 70
     1
102
RTVSPost2010Prop57
140
1.0
102
RTVSPost2010PropOp57
 70
     1
102
RTVSPropertyOp0
 70
     1
102
RTVSPropertyOp1
 70
     1
102
RTVSPropertyOp2
 70
     1
102
RTVSPropertyOp3
 70
     1
102
RTVSPropertyOp4
 70
     1
102
RTVSPropertyOp5
 70
     1
102
RTVSPropertyOp6
 70
     1
102
RTVSPropertyOp7
 70
     1
102
RTVSPropertyOp8
 70
     1
102
RTVSPropertyOp9
 70
     1
102
RTVSPropertyOp10
 70
     1
102
RTVSPropertyOp11
 70
     1
102
RTVSPropertyOp12
 70
     1
102
RTVSPropertyOp13
 70
     1
102
RTVSPropertyOp14
 70
     1
102
RTVSPropertyOp15
 70
     1
102
RTVSPropertyOp16
 70
     1
102
RTVSPropertyOp17
 70
     1
102
RTVSPropertyOp18
 70
     1
102
RTVSPropertyOp19
 70
     1
102
RTVSPropertyOp20
 70
     1
102
RTVSPropertyOp21
 70
     1
102
RTVSPropertyOp22
 70
     1
102
RTVSPropertyOp23
 70
     1
102
RTVSPropertyOp24
 70
     1
102
RTVSPropertyOp25
 70
     1
102
RTVSPropertyOp26
 70
     1
102
RTVSPropertyOp27
 70
     1
102
RTVSPropertyOp28
 70
     1
102
RTVSPropertyOp29
 70
     1
102
RTVSPropertyOp30
 70
     1
102
RTVSPropertyOp31
 70
     1
102
RTVSPropertyOp32
 70
     1
102
RTVSPropertyOp33
 70
     1
102
RTVSPropertyOp34
 70
     1
102
RTVSPropertyOp35
 70
     1
102
RTVSPropertyOp36
 70
     1
102
RTVSPropertyOp37
 70
     1
102
RTVSPropertyOp38
 70
     1
102
RTVSPropertyOp39
 70
     1
102
RTVSPropertyOp40
 70
     1
102
RTVSPropertyOp41
 70
     1
102
RTVSPropertyOp42
 70
     1
102
RTVSPropertyOp43
 70
     1
102
RTVSPropertyOp44
 70
     1
102
RTVSPropertyOp45
 70
     1
102
RTVSPropertyOp46
 70
     1
102
RTVSPropertyOp47
 70
     1
102
RTVSPropertyOp48
 70
     1
102
RTVSPropertyOp49
 70
     1
102
RTVSPropertyOp50
 70
     1
102
RTVSPropertyOp51
 70
     0
102
RTVSPropertyOp52
 70
     0
102
RTVSPropertyOp53
 70
     1
102
RTVSPropertyOp54
 70
     1
102
RTVSPropertyOp55
 70
     1
102
RTVSPropertyOp56
 70
     1
102
RTVSPropertyOp57
 70
     1
102
RTVSPropertyOp58
 70
     1
102
RTVSPropertyOp59
 70
     1
102
RTVSPropertyOp60
 70
     1
102
RTVSPropertyOp61
 70
     1
102
RTVSPropertyOp62
 70
     1
  0
XRECORD
  5
98ED
102
{ACAD_REACTORS
330
98EC
102
}
330
98EC
100
AcDbXrecord
280
     1
102
RTVSPost2010Prop28
280
     0
102
RTVSPost2010PropOp28
 70
     1
102
RTVSPost2010Prop29
280
     1
102
RTVSPost2010PropOp29
 70
     1
102
RTVSPost2010Prop30
280
     1
102
RTVSPost2010PropOp30
 70
     1
102
RTVSPost2010Prop31
280
     0
102
RTVSPost2010PropOp31
 70
     1
102
RTVSPost2010Prop32
280
     0
102
RTVSPost2010PropOp32
 70
     1
102
RTVSPost2010Prop33
280
     0
102
RTVSPost2010PropOp33
 70
     1
102
RTVSPost2010Prop34
280
     0
102
RTVSPost2010PropOp34
 70
     1
102
RTVSPost2010Prop35
280
     0
102
RTVSPost2010PropOp35
 70
     1
102
RTVSPost2010Prop36
280
     0
102
RTVSPost2010PropOp36
 70
     1
102
RTVSPost2010Prop37
 90
       50
102
RTVSPost2010PropOp37
 70
     1
102
RTVSPost2010Prop38
140
0.0
102
RTVSPost2010PropOp38
 70
     1
102
RTVSPost2010Prop39
140
1.0
102
RTVSPost2010PropOp39
 70
     1
102
RTVSPost2010Prop40
 90
        0
102
RTVSPost2010PropOp40
 70
     1
102
RTVSPost2010Prop41ColorIndex
 90
       18
102
RTVSPost2010Prop41ColorRGB
 90
        0
102
RTVSPost2010PropOp41
 70
     1
102
RTVSPost2010Prop42
 90
       50
102
RTVSPost2010PropOp42
 70
     1
102
RTVSPost2010Prop43
 90
        3
102
RTVSPost2010PropOp43
 70
     1
102
RTVSPost2010Prop44ColorIndex
 90
        5
102
RTVSPost2010Prop44ColorRGB
 90
      255
102
RTVSPost2010PropOp44
 70
     1
102
RTVSPost2010Prop45
280
     0
102
RTVSPost2010PropOp45
 70
     1
102
RTVSPost2010Prop46
 90
       50
102
RTVSPost2010PropOp46
 70
     1
102
RTVSPost2010Prop47
 90
       50
102
RTVSPost2010PropOp47
 70
     1
102
RTVSPost2010Prop48
 90
       50
102
RTVSPost2010PropOp48
 70
     1
102
RTVSPost2010Prop49
280
     0
102
RTVSPost2010PropOp49
 70
     1
102
RTVSPost2010Prop50
 90
       50
102
RTVSPost2010PropOp50
 70
     1
102
RTVSPost2010Prop51ColorIndex
 90
      256
102
RTVSPost2010Prop51ColorRGB
 90
-16777216
102
RTVSPost2010PropOp51
 70
     0
102
RTVSPost2010Prop52
140
1.0
102
RTVSPost2010PropOp52
 70
     0
102
RTVSPost2010Prop53
 90
        2
102
RTVSPost2010PropOp53
 70
     1
102
RTVSPost2010Prop54
  1
strokes_ogs.tif
102
RTVSPost2010PropOp54
 70
     1
102
RTVSPost2010Prop55
280
     0
102
RTVSPost2010PropOp55
 70
     1
102
RTVSPost2010Prop56
140
1.0
102
RTVSPost2010PropOp56
 70
     1
102
RTVSPost2010Prop57
140
1.0
102
RTVSPost2010PropOp57
 70
     1
102
RTVSPropertyOp0
 70
     1
102
RTVSPropertyOp1
 70
     1
102
RTVSPropertyOp2
 70
     1
102
RTVSPropertyOp3
 70
     1
102
RTVSPropertyOp4
 70
     1
102
RTVSPropertyOp5
 70
     1
102
RTVSPropertyOp6
 70
     1
102
RTVSPropertyOp7
 70
     1
102
RTVSPropertyOp8
 70
     1
102
RTVSPropertyOp9
 70
     1
102
RTVSPropertyOp10
 70
     1
102
RTVSPropertyOp11
 70
     1
102
RTVSPropertyOp12
 70
     1
102
RTVSPropertyOp13
 70
     1
102
RTVSPropertyOp14
 70
     1
102
RTVSPropertyOp15
 70
     1
102
RTVSPropertyOp16
 70
     1
102
RTVSPropertyOp17
 70
     1
102
RTVSPropertyOp18
 70
     1
102
RTVSPropertyOp19
 70
     1
102
RTVSPropertyOp20
 70
     1
102
RTVSPropertyOp21
 70
     1
102
RTVSPropertyOp22
 70
     1
102
RTVSPropertyOp23
 70
     1
102
RTVSPropertyOp24
 70
     1
102
RTVSPropertyOp25
 70
     1
102
RTVSPropertyOp26
 70
     1
102
RTVSPropertyOp27
 70
     1
102
RTVSPropertyOp28
 70
     1
102
RTVSPropertyOp29
 70
     1
102
RTVSPropertyOp30
 70
     1
102
RTVSPropertyOp31
 70
     1
102
RTVSPropertyOp32
 70
     1
102
RTVSPropertyOp33
 70
     1
102
RTVSPropertyOp34
 70
     1
102
RTVSPropertyOp35
 70
     1
102
RTVSPropertyOp36
 70
     1
102
RTVSPropertyOp37
 70
     1
102
RTVSPropertyOp38
 70
     1
102
RTVSPropertyOp39
 70
     1
102
RTVSPropertyOp40
 70
     1
102
RTVSPropertyOp41
 70
     1
102
RTVSPropertyOp42
 70
     1
102
RTVSPropertyOp43
 70
     1
102
RTVSPropertyOp44
 70
     1
102
RTVSPropertyOp45
 70
     1
102
RTVSPropertyOp46
 70
     1
102
RTVSPropertyOp47
 70
     1
102
RTVSPropertyOp48
 70
     1
102
RTVSPropertyOp49
 70
     1
102
RTVSPropertyOp50
 70
     1
102
RTVSPropertyOp51
 70
     0
102
RTVSPropertyOp52
 70
     0
102
RTVSPropertyOp53
 70
     1
102
RTVSPropertyOp54
 70
     1
102
RTVSPropertyOp55
 70
     1
102
RTVSPropertyOp56
 70
     1
102
RTVSPropertyOp57
 70
     1
102
RTVSPropertyOp58
 70
     1
102
RTVSPropertyOp59
 70
     1
102
RTVSPropertyOp60
 70
     1
102
RTVSPropertyOp61
 70
     1
102
RTVSPropertyOp62
 70
     1
  0
XRECORD
  5
98F1
102
{ACAD_REACTORS
330
98F0
102
}
330
98F0
100
AcDbXrecord
280
     1
102
RTVSPost2010Prop28
280
     0
102
RTVSPost2010PropOp28
 70
     1
102
RTVSPost2010Prop29
280
     1
102
RTVSPost2010PropOp29
 70
     1
102
RTVSPost2010Prop30
280
     1
102
RTVSPost2010PropOp30
 70
     1
102
RTVSPost2010Prop31
280
     0
102
RTVSPost2010PropOp31
 70
     1
102
RTVSPost2010Prop32
280
     0
102
RTVSPost2010PropOp32
 70
     1
102
RTVSPost2010Prop33
280
     0
102
RTVSPost2010PropOp33
 70
     1
102
RTVSPost2010Prop34
280
     0
102
RTVSPost2010PropOp34
 70
     1
102
RTVSPost2010Prop35
280
     0
102
RTVSPost2010PropOp35
 70
     1
102
RTVSPost2010Prop36
280
     0
102
RTVSPost2010PropOp36
 70
     1
102
RTVSPost2010Prop37
 90
       50
102
RTVSPost2010PropOp37
 70
     1
102
RTVSPost2010Prop38
140
0.0
102
RTVSPost2010PropOp38
 70
     1
102
RTVSPost2010Prop39
140
1.0
102
RTVSPost2010PropOp39
 70
     1
102
RTVSPost2010Prop40
 90
        0
102
RTVSPost2010PropOp40
 70
     1
102
RTVSPost2010Prop41ColorIndex
 90
       18
102
RTVSPost2010Prop41ColorRGB
 90
        0
102
RTVSPost2010PropOp41
 70
     1
102
RTVSPost2010Prop42
 90
       50
102
RTVSPost2010PropOp42
 70
     1
102
RTVSPost2010Prop43
 90
        3
102
RTVSPost2010PropOp43
 70
     1
102
RTVSPost2010Prop44ColorIndex
 90
        5
102
RTVSPost2010Prop44ColorRGB
 90
      255
102
RTVSPost2010PropOp44
 70
     1
102
RTVSPost2010Prop45
280
     0
102
RTVSPost2010PropOp45
 70
     1
102
RTVSPost2010Prop46
 90
       50
102
RTVSPost2010PropOp46
 70
     1
102
RTVSPost2010Prop47
 90
       50
102
RTVSPost2010PropOp47
 70
     1
102
RTVSPost2010Prop48
 90
       50
102
RTVSPost2010PropOp48
 70
     1
102
RTVSPost2010Prop49
280
     0
102
RTVSPost2010PropOp49
 70
     1
102
RTVSPost2010Prop50
 90
       50
102
RTVSPost2010PropOp50
 70
     1
102
RTVSPost2010Prop51ColorIndex
 90
      256
102
RTVSPost2010Prop51ColorRGB
 90
-16777216
102
RTVSPost2010PropOp51
 70
     0
102
RTVSPost2010Prop52
140
1.0
102
RTVSPost2010PropOp52
 70
     0
102
RTVSPost2010Prop53
 90
        2
102
RTVSPost2010PropOp53
 70
     1
102
RTVSPost2010Prop54
  1
strokes_ogs.tif
102
RTVSPost2010PropOp54
 70
     1
102
RTVSPost2010Prop55
280
     0
102
RTVSPost2010PropOp55
 70
     1
102
RTVSPost2010Prop56
140
1.0
102
RTVSPost2010PropOp56
 70
     1
102
RTVSPost2010Prop57
140
1.0
102
RTVSPost2010PropOp57
 70
     1
102
RTVSPropertyOp0
 70
     1
102
RTVSPropertyOp1
 70
     1
102
RTVSPropertyOp2
 70
     1
102
RTVSPropertyOp3
 70
     1
102
RTVSPropertyOp4
 70
     1
102
RTVSPropertyOp5
 70
     1
102
RTVSPropertyOp6
 70
     1
102
RTVSPropertyOp7
 70
     1
102
RTVSPropertyOp8
 70
     1
102
RTVSPropertyOp9
 70
     1
102
RTVSPropertyOp10
 70
     1
102
RTVSPropertyOp11
 70
     1
102
RTVSPropertyOp12
 70
     1
102
RTVSPropertyOp13
 70
     1
102
RTVSPropertyOp14
 70
     1
102
RTVSPropertyOp15
 70
     1
102
RTVSPropertyOp16
 70
     1
102
RTVSPropertyOp17
 70
     1
102
RTVSPropertyOp18
 70
     1
102
RTVSPropertyOp19
 70
     1
102
RTVSPropertyOp20
 70
     1
102
RTVSPropertyOp21
 70
     1
102
RTVSPropertyOp22
 70
     1
102
RTVSPropertyOp23
 70
     1
102
RTVSPropertyOp24
 70
     1
102
RTVSPropertyOp25
 70
     1
102
RTVSPropertyOp26
 70
     1
102
RTVSPropertyOp27
 70
     1
102
RTVSPropertyOp28
 70
     1
102
RTVSPropertyOp29
 70
     1
102
RTVSPropertyOp30
 70
     1
102
RTVSPropertyOp31
 70
     1
102
RTVSPropertyOp32
 70
     1
102
RTVSPropertyOp33
 70
     1
102
RTVSPropertyOp34
 70
     1
102
RTVSPropertyOp35
 70
     1
102
RTVSPropertyOp36
 70
     1
102
RTVSPropertyOp37
 70
     1
102
RTVSPropertyOp38
 70
     1
102
RTVSPropertyOp39
 70
     1
102
RTVSPropertyOp40
 70
     1
102
RTVSPropertyOp41
 70
     1
102
RTVSPropertyOp42
 70
     1
102
RTVSPropertyOp43
 70
     1
102
RTVSPropertyOp44
 70
     1
102
RTVSPropertyOp45
 70
     1
102
RTVSPropertyOp46
 70
     1
102
RTVSPropertyOp47
 70
     1
102
RTVSPropertyOp48
 70
     1
102
RTVSPropertyOp49
 70
     1
102
RTVSPropertyOp50
 70
     1
102
RTVSPropertyOp51
 70
     0
102
RTVSPropertyOp52
 70
     0
102
RTVSPropertyOp53
 70
     1
102
RTVSPropertyOp54
 70
     1
102
RTVSPropertyOp55
 70
     1
102
RTVSPropertyOp56
 70
     1
102
RTVSPropertyOp57
 70
     1
102
RTVSPropertyOp58
 70
     1
102
RTVSPropertyOp59
 70
     1
102
RTVSPropertyOp60
 70
     1
102
RTVSPropertyOp61
 70
     1
102
RTVSPropertyOp62
 70
     1
  0
XRECORD
  5
990B
102
{ACAD_REACTORS
330
990A
102
}
330
990A
100
AcDbXrecord
280
     1
102
RTVSPost2010Prop28
280
     0
102
RTVSPost2010PropOp28
 70
     1
102
RTVSPost2010Prop29
280
     1
102
RTVSPost2010PropOp29
 70
     1
102
RTVSPost2010Prop30
280
     1
102
RTVSPost2010PropOp30
 70
     1
102
RTVSPost2010Prop31
280
     0
102
RTVSPost2010PropOp31
 70
     1
102
RTVSPost2010Prop32
280
     0
102
RTVSPost2010PropOp32
 70
     1
102
RTVSPost2010Prop33
280
     0
102
RTVSPost2010PropOp33
 70
     1
102
RTVSPost2010Prop34
280
     0
102
RTVSPost2010PropOp34
 70
     1
102
RTVSPost2010Prop35
280
     0
102
RTVSPost2010PropOp35
 70
     1
102
RTVSPost2010Prop36
280
     0
102
RTVSPost2010PropOp36
 70
     1
102
RTVSPost2010Prop37
 90
       50
102
RTVSPost2010PropOp37
 70
     0
102
RTVSPost2010Prop38
140
0.0
102
RTVSPost2010PropOp38
 70
     0
102
RTVSPost2010Prop39
140
1.0
102
RTVSPost2010PropOp39
 70
     0
102
RTVSPost2010Prop40
 90
        0
102
RTVSPost2010PropOp40
 70
     0
102
RTVSPost2010Prop41ColorIndex
 90
       18
102
RTVSPost2010Prop41ColorRGB
 90
        0
102
RTVSPost2010PropOp41
 70
     0
102
RTVSPost2010Prop42
 90
       50
102
RTVSPost2010PropOp42
 70
     0
102
RTVSPost2010Prop43
 90
        3
102
RTVSPost2010PropOp43
 70
     0
102
RTVSPost2010Prop44ColorIndex
 90
        5
102
RTVSPost2010Prop44ColorRGB
 90
      255
102
RTVSPost2010PropOp44
 70
     0
102
RTVSPost2010Prop45
280
     0
102
RTVSPost2010PropOp45
 70
     1
102
RTVSPost2010Prop46
 90
       50
102
RTVSPost2010PropOp46
 70
     0
102
RTVSPost2010Prop47
 90
       50
102
RTVSPost2010PropOp47
 70
     0
102
RTVSPost2010Prop48
 90
       50
102
RTVSPost2010PropOp48
 70
     0
102
RTVSPost2010Prop49
280
     0
102
RTVSPost2010PropOp49
 70
     1
102
RTVSPost2010Prop50
 90
       50
102
RTVSPost2010PropOp50
 70
     0
102
RTVSPost2010Prop51ColorIndex
 90
      256
102
RTVSPost2010Prop51ColorRGB
 90
-16777216
102
RTVSPost2010PropOp51
 70
     0
102
RTVSPost2010Prop52
140
1.0
102
RTVSPost2010PropOp52
 70
     0
102
RTVSPost2010Prop53
 90
        2
102
RTVSPost2010PropOp53
 70
     0
102
RTVSPost2010Prop54
  1
strokes_ogs.tif
102
RTVSPost2010PropOp54
 70
     0
102
RTVSPost2010Prop55
280
     0
102
RTVSPost2010PropOp55
 70
     1
102
RTVSPost2010Prop56
140
1.0
102
RTVSPost2010PropOp56
 70
     0
102
RTVSPost2010Prop57
140
1.0
102
RTVSPost2010PropOp57
 70
     0
102
RTVSPropertyOp0
 70
     0
102
RTVSPropertyOp1
 70
     0
102
RTVSPropertyOp2
 70
     0
102
RTVSPropertyOp3
 70
     0
102
RTVSPropertyOp4
 70
     0
102
RTVSPropertyOp5
 70
     0
102
RTVSPropertyOp6
 70
     0
102
RTVSPropertyOp7
 70
     0
102
RTVSPropertyOp8
 70
     0
102
RTVSPropertyOp9
 70
     0
102
RTVSPropertyOp10
 70
     0
102
RTVSPropertyOp11
 70
     0
102
RTVSPropertyOp12
 70
     0
102
RTVSPropertyOp13
 70
     0
102
RTVSPropertyOp14
 70
     2
102
RTVSPropertyOp15
 70
     0
102
RTVSPropertyOp16
 70
     0
102
RTVSPropertyOp17
 70
     0
102
RTVSPropertyOp18
 70
     0
102
RTVSPropertyOp19
 70
     0
102
RTVSPropertyOp20
 70
     0
102
RTVSPropertyOp21
 70
     0
102
RTVSPropertyOp22
 70
     0
102
RTVSPropertyOp23
 70
     0
102
RTVSPropertyOp24
 70
     0
102
RTVSPropertyOp25
 70
     0
102
RTVSPropertyOp26
 70
     0
102
RTVSPropertyOp27
 70
     0
102
RTVSPropertyOp28
 70
     1
102
RTVSPropertyOp29
 70
     1
102
RTVSPropertyOp30
 70
     1
102
RTVSPropertyOp31
 70
     1
102
RTVSPropertyOp32
 70
     1
102
RTVSPropertyOp33
 70
     1
102
RTVSPropertyOp34
 70
     1
102
RTVSPropertyOp35
 70
     1
102
RTVSPropertyOp36
 70
     1
102
RTVSPropertyOp37
 70
     0
102
RTVSPropertyOp38
 70
     0
102
RTVSPropertyOp39
 70
     0
102
RTVSPropertyOp40
 70
     0
102
RTVSPropertyOp41
 70
     0
102
RTVSPropertyOp42
 70
     0
102
RTVSPropertyOp43
 70
     0
102
RTVSPropertyOp44
 70
     0
102
RTVSPropertyOp45
 70
     1
102
RTVSPropertyOp46
 70
     0
102
RTVSPropertyOp47
 70
     0
102
RTVSPropertyOp48
 70
     0
102
RTVSPropertyOp49
 70
     1
102
RTVSPropertyOp50
 70
     0
102
RTVSPropertyOp51
 70
     0
102
RTVSPropertyOp52
 70
     0
102
RTVSPropertyOp53
 70
     0
102
RTVSPropertyOp54
 70
     0
102
RTVSPropertyOp55
 70
     1
102
RTVSPropertyOp56
 70
     0
102
RTVSPropertyOp57
 70
     0
102
RTVSPropertyOp58
 70
     0
102
RTVSPropertyOp59
 70
     0
102
RTVSPropertyOp60
 70
     0
102
RTVSPropertyOp61
 70
     0
102
RTVSPropertyOp62
 70
     0
  0
XRECORD
  5
98F9
102
{ACAD_REACTORS
330
98F8
102
}
330
98F8
100
AcDbXrecord
280
     1
102
RTVSPost2010Prop28
280
     0
102
RTVSPost2010PropOp28
 70
     1
102
RTVSPost2010Prop29
280
     1
102
RTVSPost2010PropOp29
 70
     1
102
RTVSPost2010Prop30
280
     1
102
RTVSPost2010PropOp30
 70
     1
102
RTVSPost2010Prop31
280
     0
102
RTVSPost2010PropOp31
 70
     1
102
RTVSPost2010Prop32
280
     0
102
RTVSPost2010PropOp32
 70
     1
102
RTVSPost2010Prop33
280
     0
102
RTVSPost2010PropOp33
 70
     1
102
RTVSPost2010Prop34
280
     0
102
RTVSPost2010PropOp34
 70
     1
102
RTVSPost2010Prop35
280
     0
102
RTVSPost2010PropOp35
 70
     1
102
RTVSPost2010Prop36
280
     0
102
RTVSPost2010PropOp36
 70
     1
102
RTVSPost2010Prop37
 90
       50
102
RTVSPost2010PropOp37
 70
     1
102
RTVSPost2010Prop38
140
0.0
102
RTVSPost2010PropOp38
 70
     1
102
RTVSPost2010Prop39
140
1.0
102
RTVSPost2010PropOp39
 70
     1
102
RTVSPost2010Prop40
 90
        0
102
RTVSPost2010PropOp40
 70
     1
102
RTVSPost2010Prop41ColorIndex
 90
       18
102
RTVSPost2010Prop41ColorRGB
 90
        0
102
RTVSPost2010PropOp41
 70
     1
102
RTVSPost2010Prop42
 90
       50
102
RTVSPost2010PropOp42
 70
     1
102
RTVSPost2010Prop43
 90
        3
102
RTVSPost2010PropOp43
 70
     1
102
RTVSPost2010Prop44ColorIndex
 90
        5
102
RTVSPost2010Prop44ColorRGB
 90
      255
102
RTVSPost2010PropOp44
 70
     1
102
RTVSPost2010Prop45
280
     0
102
RTVSPost2010PropOp45
 70
     1
102
RTVSPost2010Prop46
 90
       50
102
RTVSPost2010PropOp46
 70
     1
102
RTVSPost2010Prop47
 90
       50
102
RTVSPost2010PropOp47
 70
     1
102
RTVSPost2010Prop48
 90
       50
102
RTVSPost2010PropOp48
 70
     1
102
RTVSPost2010Prop49
280
     0
102
RTVSPost2010PropOp49
 70
     1
102
RTVSPost2010Prop50
 90
       50
102
RTVSPost2010PropOp50
 70
     1
102
RTVSPost2010Prop51ColorIndex
 90
      256
102
RTVSPost2010Prop51ColorRGB
 90
-16777216
102
RTVSPost2010PropOp51
 70
     0
102
RTVSPost2010Prop52
140
1.0
102
RTVSPost2010PropOp52
 70
     0
102
RTVSPost2010Prop53
 90
        2
102
RTVSPost2010PropOp53
 70
     1
102
RTVSPost2010Prop54
  1
strokes_ogs.tif
102
RTVSPost2010PropOp54
 70
     1
102
RTVSPost2010Prop55
280
     0
102
RTVSPost2010PropOp55
 70
     1
102
RTVSPost2010Prop56
140
1.0
102
RTVSPost2010PropOp56
 70
     1
102
RTVSPost2010Prop57
140
1.0
102
RTVSPost2010PropOp57
 70
     1
102
RTVSPropertyOp0
 70
     1
102
RTVSPropertyOp1
 70
     1
102
RTVSPropertyOp2
 70
     1
102
RTVSPropertyOp3
 70
     1
102
RTVSPropertyOp4
 70
     1
102
RTVSPropertyOp5
 70
     1
102
RTVSPropertyOp6
 70
     1
102
RTVSPropertyOp7
 70
     1
102
RTVSPropertyOp8
 70
     1
102
RTVSPropertyOp9
 70
     1
102
RTVSPropertyOp10
 70
     1
102
RTVSPropertyOp11
 70
     1
102
RTVSPropertyOp12
 70
     1
102
RTVSPropertyOp13
 70
     1
102
RTVSPropertyOp14
 70
     1
102
RTVSPropertyOp15
 70
     1
102
RTVSPropertyOp16
 70
     1
102
RTVSPropertyOp17
 70
     1
102
RTVSPropertyOp18
 70
     1
102
RTVSPropertyOp19
 70
     1
102
RTVSPropertyOp20
 70
     1
102
RTVSPropertyOp21
 70
     1
102
RTVSPropertyOp22
 70
     1
102
RTVSPropertyOp23
 70
     1
102
RTVSPropertyOp24
 70
     1
102
RTVSPropertyOp25
 70
     1
102
RTVSPropertyOp26
 70
     1
102
RTVSPropertyOp27
 70
     1
102
RTVSPropertyOp28
 70
     1
102
RTVSPropertyOp29
 70
     1
102
RTVSPropertyOp30
 70
     1
102
RTVSPropertyOp31
 70
     1
102
RTVSPropertyOp32
 70
     1
102
RTVSPropertyOp33
 70
     1
102
RTVSPropertyOp34
 70
     1
102
RTVSPropertyOp35
 70
     1
102
RTVSPropertyOp36
 70
     1
102
RTVSPropertyOp37
 70
     1
102
RTVSPropertyOp38
 70
     1
102
RTVSPropertyOp39
 70
     1
102
RTVSPropertyOp40
 70
     1
102
RTVSPropertyOp41
 70
     1
102
RTVSPropertyOp42
 70
     1
102
RTVSPropertyOp43
 70
     1
102
RTVSPropertyOp44
 70
     1
102
RTVSPropertyOp45
 70
     1
102
RTVSPropertyOp46
 70
     1
102
RTVSPropertyOp47
 70
     1
102
RTVSPropertyOp48
 70
     1
102
RTVSPropertyOp49
 70
     1
102
RTVSPropertyOp50
 70
     1
102
RTVSPropertyOp51
 70
     0
102
RTVSPropertyOp52
 70
     0
102
RTVSPropertyOp53
 70
     1
102
RTVSPropertyOp54
 70
     1
102
RTVSPropertyOp55
 70
     1
102
RTVSPropertyOp56
 70
     1
102
RTVSPropertyOp57
 70
     1
102
RTVSPropertyOp58
 70
     1
102
RTVSPropertyOp59
 70
     1
102
RTVSPropertyOp60
 70
     1
102
RTVSPropertyOp61
 70
     1
102
RTVSPropertyOp62
 70
     1
  0
XRECORD
  5
98DD
102
{ACAD_REACTORS
330
98DC
102
}
330
98DC
100
AcDbXrecord
280
     1
102
RTVSPost2010Prop28
280
     0
102
RTVSPost2010PropOp28
 70
     1
102
RTVSPost2010Prop29
280
     1
102
RTVSPost2010PropOp29
 70
     1
102
RTVSPost2010Prop30
280
     1
102
RTVSPost2010PropOp30
 70
     1
102
RTVSPost2010Prop31
280
     0
102
RTVSPost2010PropOp31
 70
     1
102
RTVSPost2010Prop32
280
     0
102
RTVSPost2010PropOp32
 70
     1
102
RTVSPost2010Prop33
280
     0
102
RTVSPost2010PropOp33
 70
     1
102
RTVSPost2010Prop34
280
     0
102
RTVSPost2010PropOp34
 70
     1
102
RTVSPost2010Prop35
280
     0
102
RTVSPost2010PropOp35
 70
     1
102
RTVSPost2010Prop36
280
     0
102
RTVSPost2010PropOp36
 70
     1
102
RTVSPost2010Prop37
 90
       50
102
RTVSPost2010PropOp37
 70
     1
102
RTVSPost2010Prop38
140
0.0
102
RTVSPost2010PropOp38
 70
     1
102
RTVSPost2010Prop39
140
1.0
102
RTVSPost2010PropOp39
 70
     1
102
RTVSPost2010Prop40
 90
        0
102
RTVSPost2010PropOp40
 70
     1
102
RTVSPost2010Prop41ColorIndex
 90
       18
102
RTVSPost2010Prop41ColorRGB
 90
        0
102
RTVSPost2010PropOp41
 70
     1
102
RTVSPost2010Prop42
 90
       50
102
RTVSPost2010PropOp42
 70
     1
102
RTVSPost2010Prop43
 90
        3
102
RTVSPost2010PropOp43
 70
     1
102
RTVSPost2010Prop44ColorIndex
 90
        5
102
RTVSPost2010Prop44ColorRGB
 90
      255
102
RTVSPost2010PropOp44
 70
     1
102
RTVSPost2010Prop45
280
     0
102
RTVSPost2010PropOp45
 70
     1
102
RTVSPost2010Prop46
 90
       50
102
RTVSPost2010PropOp46
 70
     1
102
RTVSPost2010Prop47
 90
       50
102
RTVSPost2010PropOp47
 70
     1
102
RTVSPost2010Prop48
 90
       50
102
RTVSPost2010PropOp48
 70
     1
102
RTVSPost2010Prop49
280
     0
102
RTVSPost2010PropOp49
 70
     1
102
RTVSPost2010Prop50
 90
       50
102
RTVSPost2010PropOp50
 70
     1
102
RTVSPost2010Prop51ColorIndex
 90
      256
102
RTVSPost2010Prop51ColorRGB
 90
-16777216
102
RTVSPost2010PropOp51
 70
     0
102
RTVSPost2010Prop52
140
1.0
102
RTVSPost2010PropOp52
 70
     0
102
RTVSPost2010Prop53
 90
        2
102
RTVSPost2010PropOp53
 70
     1
102
RTVSPost2010Prop54
  1
strokes_ogs.tif
102
RTVSPost2010PropOp54
 70
     1
102
RTVSPost2010Prop55
280
     0
102
RTVSPost2010PropOp55
 70
     1
102
RTVSPost2010Prop56
140
1.0
102
RTVSPost2010PropOp56
 70
     1
102
RTVSPost2010Prop57
140
1.0
102
RTVSPost2010PropOp57
 70
     1
102
RTVSPropertyOp0
 70
     1
102
RTVSPropertyOp1
 70
     1
102
RTVSPropertyOp2
 70
     1
102
RTVSPropertyOp3
 70
     1
102
RTVSPropertyOp4
 70
     1
102
RTVSPropertyOp5
 70
     1
102
RTVSPropertyOp6
 70
     1
102
RTVSPropertyOp7
 70
     1
102
RTVSPropertyOp8
 70
     1
102
RTVSPropertyOp9
 70
     1
102
RTVSPropertyOp10
 70
     1
102
RTVSPropertyOp11
 70
     1
102
RTVSPropertyOp12
 70
     1
102
RTVSPropertyOp13
 70
     1
102
RTVSPropertyOp14
 70
     1
102
RTVSPropertyOp15
 70
     1
102
RTVSPropertyOp16
 70
     1
102
RTVSPropertyOp17
 70
     1
102
RTVSPropertyOp18
 70
     1
102
RTVSPropertyOp19
 70
     1
102
RTVSPropertyOp20
 70
     1
102
RTVSPropertyOp21
 70
     1
102
RTVSPropertyOp22
 70
     1
102
RTVSPropertyOp23
 70
     1
102
RTVSPropertyOp24
 70
     1
102
RTVSPropertyOp25
 70
     1
102
RTVSPropertyOp26
 70
     1
102
RTVSPropertyOp27
 70
     1
102
RTVSPropertyOp28
 70
     1
102
RTVSPropertyOp29
 70
     1
102
RTVSPropertyOp30
 70
     1
102
RTVSPropertyOp31
 70
     1
102
RTVSPropertyOp32
 70
     1
102
RTVSPropertyOp33
 70
     1
102
RTVSPropertyOp34
 70
     1
102
RTVSPropertyOp35
 70
     1
102
RTVSPropertyOp36
 70
     1
102
RTVSPropertyOp37
 70
     1
102
RTVSPropertyOp38
 70
     1
102
RTVSPropertyOp39
 70
     1
102
RTVSPropertyOp40
 70
     1
102
RTVSPropertyOp41
 70
     1
102
RTVSPropertyOp42
 70
     1
102
RTVSPropertyOp43
 70
     1
102
RTVSPropertyOp44
 70
     1
102
RTVSPropertyOp45
 70
     1
102
RTVSPropertyOp46
 70
     1
102
RTVSPropertyOp47
 70
     1
102
RTVSPropertyOp48
 70
     1
102
RTVSPropertyOp49
 70
     1
102
RTVSPropertyOp50
 70
     1
102
RTVSPropertyOp51
 70
     0
102
RTVSPropertyOp52
 70
     0
102
RTVSPropertyOp53
 70
     1
102
RTVSPropertyOp54
 70
     1
102
RTVSPropertyOp55
 70
     1
102
RTVSPropertyOp56
 70
     1
102
RTVSPropertyOp57
 70
     1
102
RTVSPropertyOp58
 70
     1
102
RTVSPropertyOp59
 70
     1
102
RTVSPropertyOp60
 70
     1
102
RTVSPropertyOp61
 70
     1
102
RTVSPropertyOp62
 70
     1
  0
XRECORD
  5
98DF
102
{ACAD_REACTORS
330
98DE
102
}
330
98DE
100
AcDbXrecord
280
     1
102
RTVSPost2010Prop28
280
     0
102
RTVSPost2010PropOp28
 70
     1
102
RTVSPost2010Prop29
280
     1
102
RTVSPost2010PropOp29
 70
     1
102
RTVSPost2010Prop30
280
     1
102
RTVSPost2010PropOp30
 70
     1
102
RTVSPost2010Prop31
280
     0
102
RTVSPost2010PropOp31
 70
     1
102
RTVSPost2010Prop32
280
     0
102
RTVSPost2010PropOp32
 70
     1
102
RTVSPost2010Prop33
280
     0
102
RTVSPost2010PropOp33
 70
     1
102
RTVSPost2010Prop34
280
     0
102
RTVSPost2010PropOp34
 70
     1
102
RTVSPost2010Prop35
280
     0
102
RTVSPost2010PropOp35
 70
     1
102
RTVSPost2010Prop36
280
     0
102
RTVSPost2010PropOp36
 70
     1
102
RTVSPost2010Prop37
 90
       50
102
RTVSPost2010PropOp37
 70
     1
102
RTVSPost2010Prop38
140
0.0
102
RTVSPost2010PropOp38
 70
     1
102
RTVSPost2010Prop39
140
1.0
102
RTVSPost2010PropOp39
 70
     1
102
RTVSPost2010Prop40
 90
        0
102
RTVSPost2010PropOp40
 70
     1
102
RTVSPost2010Prop41ColorIndex
 90
       18
102
RTVSPost2010Prop41ColorRGB
 90
        0
102
RTVSPost2010PropOp41
 70
     1
102
RTVSPost2010Prop42
 90
       50
102
RTVSPost2010PropOp42
 70
     1
102
RTVSPost2010Prop43
 90
        3
102
RTVSPost2010PropOp43
 70
     1
102
RTVSPost2010Prop44ColorIndex
 90
        5
102
RTVSPost2010Prop44ColorRGB
 90
      255
102
RTVSPost2010PropOp44
 70
     1
102
RTVSPost2010Prop45
280
     0
102
RTVSPost2010PropOp45
 70
     1
102
RTVSPost2010Prop46
 90
       50
102
RTVSPost2010PropOp46
 70
     1
102
RTVSPost2010Prop47
 90
       50
102
RTVSPost2010PropOp47
 70
     1
102
RTVSPost2010Prop48
 90
       50
102
RTVSPost2010PropOp48
 70
     1
102
RTVSPost2010Prop49
280
     0
102
RTVSPost2010PropOp49
 70
     1
102
RTVSPost2010Prop50
 90
       50
102
RTVSPost2010PropOp50
 70
     1
102
RTVSPost2010Prop51ColorIndex
 90
      256
102
RTVSPost2010Prop51ColorRGB
 90
-16777216
102
RTVSPost2010PropOp51
 70
     0
102
RTVSPost2010Prop52
140
1.0
102
RTVSPost2010PropOp52
 70
     0
102
RTVSPost2010Prop53
 90
        2
102
RTVSPost2010PropOp53
 70
     1
102
RTVSPost2010Prop54
  1
strokes_ogs.tif
102
RTVSPost2010PropOp54
 70
     1
102
RTVSPost2010Prop55
280
     0
102
RTVSPost2010PropOp55
 70
     1
102
RTVSPost2010Prop56
140
1.0
102
RTVSPost2010PropOp56
 70
     1
102
RTVSPost2010Prop57
140
1.0
102
RTVSPost2010PropOp57
 70
     1
102
RTVSPropertyOp0
 70
     1
102
RTVSPropertyOp1
 70
     1
102
RTVSPropertyOp2
 70
     1
102
RTVSPropertyOp3
 70
     1
102
RTVSPropertyOp4
 70
     1
102
RTVSPropertyOp5
 70
     1
102
RTVSPropertyOp6
 70
     1
102
RTVSPropertyOp7
 70
     1
102
RTVSPropertyOp8
 70
     1
102
RTVSPropertyOp9
 70
     1
102
RTVSPropertyOp10
 70
     1
102
RTVSPropertyOp11
 70
     1
102
RTVSPropertyOp12
 70
     1
102
RTVSPropertyOp13
 70
     1
102
RTVSPropertyOp14
 70
     1
102
RTVSPropertyOp15
 70
     1
102
RTVSPropertyOp16
 70
     1
102
RTVSPropertyOp17
 70
     1
102
RTVSPropertyOp18
 70
     1
102
RTVSPropertyOp19
 70
     1
102
RTVSPropertyOp20
 70
     1
102
RTVSPropertyOp21
 70
     1
102
RTVSPropertyOp22
 70
     1
102
RTVSPropertyOp23
 70
     1
102
RTVSPropertyOp24
 70
     1
102
RTVSPropertyOp25
 70
     1
102
RTVSPropertyOp26
 70
     1
102
RTVSPropertyOp27
 70
     1
102
RTVSPropertyOp28
 70
     1
102
RTVSPropertyOp29
 70
     1
102
RTVSPropertyOp30
 70
     1
102
RTVSPropertyOp31
 70
     1
102
RTVSPropertyOp32
 70
     1
102
RTVSPropertyOp33
 70
     1
102
RTVSPropertyOp34
 70
     1
102
RTVSPropertyOp35
 70
     1
102
RTVSPropertyOp36
 70
     1
102
RTVSPropertyOp37
 70
     1
102
RTVSPropertyOp38
 70
     1
102
RTVSPropertyOp39
 70
     1
102
RTVSPropertyOp40
 70
     1
102
RTVSPropertyOp41
 70
     1
102
RTVSPropertyOp42
 70
     1
102
RTVSPropertyOp43
 70
     1
102
RTVSPropertyOp44
 70
     1
102
RTVSPropertyOp45
 70
     1
102
RTVSPropertyOp46
 70
     1
102
RTVSPropertyOp47
 70
     1
102
RTVSPropertyOp48
 70
     1
102
RTVSPropertyOp49
 70
     1
102
RTVSPropertyOp50
 70
     1
102
RTVSPropertyOp51
 70
     0
102
RTVSPropertyOp52
 70
     0
102
RTVSPropertyOp53
 70
     1
102
RTVSPropertyOp54
 70
     1
102
RTVSPropertyOp55
 70
     1
102
RTVSPropertyOp56
 70
     1
102
RTVSPropertyOp57
 70
     1
102
RTVSPropertyOp58
 70
     1
102
RTVSPropertyOp59
 70
     1
102
RTVSPropertyOp60
 70
     1
102
RTVSPropertyOp61
 70
     1
102
RTVSPropertyOp62
 70
     1
  0
XRECORD
  5
98E1
102
{ACAD_REACTORS
330
98E0
102
}
330
98E0
100
AcDbXrecord
280
     1
102
RTVSPost2010Prop28
280
     0
102
RTVSPost2010PropOp28
 70
     1
102
RTVSPost2010Prop29
280
     1
102
RTVSPost2010PropOp29
 70
     1
102
RTVSPost2010Prop30
280
     1
102
RTVSPost2010PropOp30
 70
     1
102
RTVSPost2010Prop31
280
     0
102
RTVSPost2010PropOp31
 70
     1
102
RTVSPost2010Prop32
280
     0
102
RTVSPost2010PropOp32
 70
     1
102
RTVSPost2010Prop33
280
     0
102
RTVSPost2010PropOp33
 70
     1
102
RTVSPost2010Prop34
280
     0
102
RTVSPost2010PropOp34
 70
     1
102
RTVSPost2010Prop35
280
     0
102
RTVSPost2010PropOp35
 70
     1
102
RTVSPost2010Prop36
280
     0
102
RTVSPost2010PropOp36
 70
     1
102
RTVSPost2010Prop37
 90
       50
102
RTVSPost2010PropOp37
 70
     1
102
RTVSPost2010Prop38
140
0.0
102
RTVSPost2010PropOp38
 70
     1
102
RTVSPost2010Prop39
140
1.0
102
RTVSPost2010PropOp39
 70
     1
102
RTVSPost2010Prop40
 90
        0
102
RTVSPost2010PropOp40
 70
     1
102
RTVSPost2010Prop41ColorIndex
 90
       18
102
RTVSPost2010Prop41ColorRGB
 90
        0
102
RTVSPost2010PropOp41
 70
     1
102
RTVSPost2010Prop42
 90
       50
102
RTVSPost2010PropOp42
 70
     1
102
RTVSPost2010Prop43
 90
        3
102
RTVSPost2010PropOp43
 70
     1
102
RTVSPost2010Prop44ColorIndex
 90
        5
102
RTVSPost2010Prop44ColorRGB
 90
      255
102
RTVSPost2010PropOp44
 70
     1
102
RTVSPost2010Prop45
280
     0
102
RTVSPost2010PropOp45
 70
     1
102
RTVSPost2010Prop46
 90
       50
102
RTVSPost2010PropOp46
 70
     1
102
RTVSPost2010Prop47
 90
       50
102
RTVSPost2010PropOp47
 70
     1
102
RTVSPost2010Prop48
 90
       50
102
RTVSPost2010PropOp48
 70
     1
102
RTVSPost2010Prop49
280
     0
102
RTVSPost2010PropOp49
 70
     1
102
RTVSPost2010Prop50
 90
       50
102
RTVSPost2010PropOp50
 70
     1
102
RTVSPost2010Prop51ColorIndex
 90
      256
102
RTVSPost2010Prop51ColorRGB
 90
-16777216
102
RTVSPost2010PropOp51
 70
     0
102
RTVSPost2010Prop52
140
1.0
102
RTVSPost2010PropOp52
 70
     0
102
RTVSPost2010Prop53
 90
        2
102
RTVSPost2010PropOp53
 70
     1
102
RTVSPost2010Prop54
  1
strokes_ogs.tif
102
RTVSPost2010PropOp54
 70
     1
102
RTVSPost2010Prop55
280
     0
102
RTVSPost2010PropOp55
 70
     1
102
RTVSPost2010Prop56
140
1.0
102
RTVSPost2010PropOp56
 70
     1
102
RTVSPost2010Prop57
140
1.0
102
RTVSPost2010PropOp57
 70
     1
102
RTVSPropertyOp0
 70
     1
102
RTVSPropertyOp1
 70
     1
102
RTVSPropertyOp2
 70
     1
102
RTVSPropertyOp3
 70
     1
102
RTVSPropertyOp4
 70
     1
102
RTVSPropertyOp5
 70
     1
102
RTVSPropertyOp6
 70
     1
102
RTVSPropertyOp7
 70
     1
102
RTVSPropertyOp8
 70
     1
102
RTVSPropertyOp9
 70
     1
102
RTVSPropertyOp10
 70
     1
102
RTVSPropertyOp11
 70
     1
102
RTVSPropertyOp12
 70
     1
102
RTVSPropertyOp13
 70
     1
102
RTVSPropertyOp14
 70
     1
102
RTVSPropertyOp15
 70
     1
102
RTVSPropertyOp16
 70
     1
102
RTVSPropertyOp17
 70
     1
102
RTVSPropertyOp18
 70
     1
102
RTVSPropertyOp19
 70
     1
102
RTVSPropertyOp20
 70
     1
102
RTVSPropertyOp21
 70
     1
102
RTVSPropertyOp22
 70
     1
102
RTVSPropertyOp23
 70
     1
102
RTVSPropertyOp24
 70
     1
102
RTVSPropertyOp25
 70
     1
102
RTVSPropertyOp26
 70
     1
102
RTVSPropertyOp27
 70
     1
102
RTVSPropertyOp28
 70
     1
102
RTVSPropertyOp29
 70
     1
102
RTVSPropertyOp30
 70
     1
102
RTVSPropertyOp31
 70
     1
102
RTVSPropertyOp32
 70
     1
102
RTVSPropertyOp33
 70
     1
102
RTVSPropertyOp34
 70
     1
102
RTVSPropertyOp35
 70
     1
102
RTVSPropertyOp36
 70
     1
102
RTVSPropertyOp37
 70
     1
102
RTVSPropertyOp38
 70
     1
102
RTVSPropertyOp39
 70
     1
102
RTVSPropertyOp40
 70
     1
102
RTVSPropertyOp41
 70
     1
102
RTVSPropertyOp42
 70
     1
102
RTVSPropertyOp43
 70
     1
102
RTVSPropertyOp44
 70
     1
102
RTVSPropertyOp45
 70
     1
102
RTVSPropertyOp46
 70
     1
102
RTVSPropertyOp47
 70
     1
102
RTVSPropertyOp48
 70
     1
102
RTVSPropertyOp49
 70
     1
102
RTVSPropertyOp50
 70
     1
102
RTVSPropertyOp51
 70
     0
102
RTVSPropertyOp52
 70
     0
102
RTVSPropertyOp53
 70
     1
102
RTVSPropertyOp54
 70
     1
102
RTVSPropertyOp55
 70
     1
102
RTVSPropertyOp56
 70
     1
102
RTVSPropertyOp57
 70
     1
102
RTVSPropertyOp58
 70
     1
102
RTVSPropertyOp59
 70
     1
102
RTVSPropertyOp60
 70
     1
102
RTVSPropertyOp61
 70
     1
102
RTVSPropertyOp62
 70
     1
  0
XRECORD
  5
98E3
102
{ACAD_REACTORS
330
98E2
102
}
330
98E2
100
AcDbXrecord
280
     1
102
RTVSPost2010Prop28
280
     0
102
RTVSPost2010PropOp28
 70
     1
102
RTVSPost2010Prop29
280
     1
102
RTVSPost2010PropOp29
 70
     1
102
RTVSPost2010Prop30
280
     1
102
RTVSPost2010PropOp30
 70
     1
102
RTVSPost2010Prop31
280
     0
102
RTVSPost2010PropOp31
 70
     1
102
RTVSPost2010Prop32
280
     0
102
RTVSPost2010PropOp32
 70
     1
102
RTVSPost2010Prop33
280
     0
102
RTVSPost2010PropOp33
 70
     1
102
RTVSPost2010Prop34
280
     0
102
RTVSPost2010PropOp34
 70
     1
102
RTVSPost2010Prop35
280
     0
102
RTVSPost2010PropOp35
 70
     1
102
RTVSPost2010Prop36
280
     0
102
RTVSPost2010PropOp36
 70
     1
102
RTVSPost2010Prop37
 90
       50
102
RTVSPost2010PropOp37
 70
     1
102
RTVSPost2010Prop38
140
0.0
102
RTVSPost2010PropOp38
 70
     1
102
RTVSPost2010Prop39
140
1.0
102
RTVSPost2010PropOp39
 70
     1
102
RTVSPost2010Prop40
 90
        0
102
RTVSPost2010PropOp40
 70
     1
102
RTVSPost2010Prop41ColorIndex
 90
       18
102
RTVSPost2010Prop41ColorRGB
 90
        0
102
RTVSPost2010PropOp41
 70
     1
102
RTVSPost2010Prop42
 90
       50
102
RTVSPost2010PropOp42
 70
     1
102
RTVSPost2010Prop43
 90
        3
102
RTVSPost2010PropOp43
 70
     1
102
RTVSPost2010Prop44ColorIndex
 90
        5
102
RTVSPost2010Prop44ColorRGB
 90
      255
102
RTVSPost2010PropOp44
 70
     1
102
RTVSPost2010Prop45
280
     0
102
RTVSPost2010PropOp45
 70
     1
102
RTVSPost2010Prop46
 90
       50
102
RTVSPost2010PropOp46
 70
     1
102
RTVSPost2010Prop47
 90
       50
102
RTVSPost2010PropOp47
 70
     1
102
RTVSPost2010Prop48
 90
       50
102
RTVSPost2010PropOp48
 70
     1
102
RTVSPost2010Prop49
280
     0
102
RTVSPost2010PropOp49
 70
     1
102
RTVSPost2010Prop50
 90
       50
102
RTVSPost2010PropOp50
 70
     1
102
RTVSPost2010Prop51ColorIndex
 90
      256
102
RTVSPost2010Prop51ColorRGB
 90
-16777216
102
RTVSPost2010PropOp51
 70
     0
102
RTVSPost2010Prop52
140
1.0
102
RTVSPost2010PropOp52
 70
     0
102
RTVSPost2010Prop53
 90
        2
102
RTVSPost2010PropOp53
 70
     1
102
RTVSPost2010Prop54
  1
strokes_ogs.tif
102
RTVSPost2010PropOp54
 70
     1
102
RTVSPost2010Prop55
280
     0
102
RTVSPost2010PropOp55
 70
     1
102
RTVSPost2010Prop56
140
1.0
102
RTVSPost2010PropOp56
 70
     1
102
RTVSPost2010Prop57
140
1.0
102
RTVSPost2010PropOp57
 70
     1
102
RTVSPropertyOp0
 70
     1
102
RTVSPropertyOp1
 70
     1
102
RTVSPropertyOp2
 70
     1
102
RTVSPropertyOp3
 70
     1
102
RTVSPropertyOp4
 70
     1
102
RTVSPropertyOp5
 70
     1
102
RTVSPropertyOp6
 70
     1
102
RTVSPropertyOp7
 70
     1
102
RTVSPropertyOp8
 70
     1
102
RTVSPropertyOp9
 70
     1
102
RTVSPropertyOp10
 70
     1
102
RTVSPropertyOp11
 70
     1
102
RTVSPropertyOp12
 70
     1
102
RTVSPropertyOp13
 70
     1
102
RTVSPropertyOp14
 70
     1
102
RTVSPropertyOp15
 70
     1
102
RTVSPropertyOp16
 70
     1
102
RTVSPropertyOp17
 70
     1
102
RTVSPropertyOp18
 70
     1
102
RTVSPropertyOp19
 70
     1
102
RTVSPropertyOp20
 70
     1
102
RTVSPropertyOp21
 70
     1
102
RTVSPropertyOp22
 70
     1
102
RTVSPropertyOp23
 70
     1
102
RTVSPropertyOp24
 70
     1
102
RTVSPropertyOp25
 70
     1
102
RTVSPropertyOp26
 70
     1
102
RTVSPropertyOp27
 70
     1
102
RTVSPropertyOp28
 70
     1
102
RTVSPropertyOp29
 70
     1
102
RTVSPropertyOp30
 70
     1
102
RTVSPropertyOp31
 70
     1
102
RTVSPropertyOp32
 70
     1
102
RTVSPropertyOp33
 70
     1
102
RTVSPropertyOp34
 70
     1
102
RTVSPropertyOp35
 70
     1
102
RTVSPropertyOp36
 70
     1
102
RTVSPropertyOp37
 70
     1
102
RTVSPropertyOp38
 70
     1
102
RTVSPropertyOp39
 70
     1
102
RTVSPropertyOp40
 70
     1
102
RTVSPropertyOp41
 70
     1
102
RTVSPropertyOp42
 70
     1
102
RTVSPropertyOp43
 70
     1
102
RTVSPropertyOp44
 70
     1
102
RTVSPropertyOp45
 70
     1
102
RTVSPropertyOp46
 70
     1
102
RTVSPropertyOp47
 70
     1
102
RTVSPropertyOp48
 70
     1
102
RTVSPropertyOp49
 70
     1
102
RTVSPropertyOp50
 70
     1
102
RTVSPropertyOp51
 70
     0
102
RTVSPropertyOp52
 70
     0
102
RTVSPropertyOp53
 70
     1
102
RTVSPropertyOp54
 70
     1
102
RTVSPropertyOp55
 70
     1
102
RTVSPropertyOp56
 70
     1
102
RTVSPropertyOp57
 70
     1
102
RTVSPropertyOp58
 70
     1
102
RTVSPropertyOp59
 70
     1
102
RTVSPropertyOp60
 70
     1
102
RTVSPropertyOp61
 70
     1
102
RTVSPropertyOp62
 70
     1
  0
XRECORD
  5
98EB
102
{ACAD_REACTORS
330
98EA
102
}
330
98EA
100
AcDbXrecord
280
     1
102
RTVSPost2010Prop28
280
     0
102
RTVSPost2010PropOp28
 70
     1
102
RTVSPost2010Prop29
280
     1
102
RTVSPost2010PropOp29
 70
     1
102
RTVSPost2010Prop30
280
     1
102
RTVSPost2010PropOp30
 70
     1
102
RTVSPost2010Prop31
280
     0
102
RTVSPost2010PropOp31
 70
     1
102
RTVSPost2010Prop32
280
     0
102
RTVSPost2010PropOp32
 70
     1
102
RTVSPost2010Prop33
280
     0
102
RTVSPost2010PropOp33
 70
     1
102
RTVSPost2010Prop34
280
     0
102
RTVSPost2010PropOp34
 70
     1
102
RTVSPost2010Prop35
280
     0
102
RTVSPost2010PropOp35
 70
     1
102
RTVSPost2010Prop36
280
     0
102
RTVSPost2010PropOp36
 70
     1
102
RTVSPost2010Prop37
 90
       50
102
RTVSPost2010PropOp37
 70
     1
102
RTVSPost2010Prop38
140
0.0
102
RTVSPost2010PropOp38
 70
     1
102
RTVSPost2010Prop39
140
1.0
102
RTVSPost2010PropOp39
 70
     1
102
RTVSPost2010Prop40
 90
        0
102
RTVSPost2010PropOp40
 70
     1
102
RTVSPost2010Prop41ColorIndex
 90
       18
102
RTVSPost2010Prop41ColorRGB
 90
        0
102
RTVSPost2010PropOp41
 70
     1
102
RTVSPost2010Prop42
 90
       50
102
RTVSPost2010PropOp42
 70
     1
102
RTVSPost2010Prop43
 90
        3
102
RTVSPost2010PropOp43
 70
     1
102
RTVSPost2010Prop44ColorIndex
 90
        5
102
RTVSPost2010Prop44ColorRGB
 90
      255
102
RTVSPost2010PropOp44
 70
     1
102
RTVSPost2010Prop45
280
     0
102
RTVSPost2010PropOp45
 70
     1
102
RTVSPost2010Prop46
 90
       50
102
RTVSPost2010PropOp46
 70
     1
102
RTVSPost2010Prop47
 90
       50
102
RTVSPost2010PropOp47
 70
     1
102
RTVSPost2010Prop48
 90
       50
102
RTVSPost2010PropOp48
 70
     1
102
RTVSPost2010Prop49
280
     0
102
RTVSPost2010PropOp49
 70
     1
102
RTVSPost2010Prop50
 90
       50
102
RTVSPost2010PropOp50
 70
     1
102
RTVSPost2010Prop51ColorIndex
 90
      256
102
RTVSPost2010Prop51ColorRGB
 90
-16777216
102
RTVSPost2010PropOp51
 70
     0
102
RTVSPost2010Prop52
140
1.0
102
RTVSPost2010PropOp52
 70
     0
102
RTVSPost2010Prop53
 90
        2
102
RTVSPost2010PropOp53
 70
     1
102
RTVSPost2010Prop54
  1
strokes_ogs.tif
102
RTVSPost2010PropOp54
 70
     1
102
RTVSPost2010Prop55
280
     0
102
RTVSPost2010PropOp55
 70
     1
102
RTVSPost2010Prop56
140
1.0
102
RTVSPost2010PropOp56
 70
     1
102
RTVSPost2010Prop57
140
1.0
102
RTVSPost2010PropOp57
 70
     1
102
RTVSPropertyOp0
 70
     1
102
RTVSPropertyOp1
 70
     1
102
RTVSPropertyOp2
 70
     1
102
RTVSPropertyOp3
 70
     1
102
RTVSPropertyOp4
 70
     1
102
RTVSPropertyOp5
 70
     1
102
RTVSPropertyOp6
 70
     1
102
RTVSPropertyOp7
 70
     1
102
RTVSPropertyOp8
 70
     1
102
RTVSPropertyOp9
 70
     1
102
RTVSPropertyOp10
 70
     1
102
RTVSPropertyOp11
 70
     1
102
RTVSPropertyOp12
 70
     1
102
RTVSPropertyOp13
 70
     1
102
RTVSPropertyOp14
 70
     1
102
RTVSPropertyOp15
 70
     1
102
RTVSPropertyOp16
 70
     1
102
RTVSPropertyOp17
 70
     1
102
RTVSPropertyOp18
 70
     1
102
RTVSPropertyOp19
 70
     1
102
RTVSPropertyOp20
 70
     1
102
RTVSPropertyOp21
 70
     1
102
RTVSPropertyOp22
 70
     1
102
RTVSPropertyOp23
 70
     1
102
RTVSPropertyOp24
 70
     1
102
RTVSPropertyOp25
 70
     1
102
RTVSPropertyOp26
 70
     1
102
RTVSPropertyOp27
 70
     1
102
RTVSPropertyOp28
 70
     1
102
RTVSPropertyOp29
 70
     1
102
RTVSPropertyOp30
 70
     1
102
RTVSPropertyOp31
 70
     1
102
RTVSPropertyOp32
 70
     1
102
RTVSPropertyOp33
 70
     1
102
RTVSPropertyOp34
 70
     1
102
RTVSPropertyOp35
 70
     1
102
RTVSPropertyOp36
 70
     1
102
RTVSPropertyOp37
 70
     1
102
RTVSPropertyOp38
 70
     1
102
RTVSPropertyOp39
 70
     1
102
RTVSPropertyOp40
 70
     1
102
RTVSPropertyOp41
 70
     1
102
RTVSPropertyOp42
 70
     1
102
RTVSPropertyOp43
 70
     1
102
RTVSPropertyOp44
 70
     1
102
RTVSPropertyOp45
 70
     1
102
RTVSPropertyOp46
 70
     1
102
RTVSPropertyOp47
 70
     1
102
RTVSPropertyOp48
 70
     1
102
RTVSPropertyOp49
 70
     1
102
RTVSPropertyOp50
 70
     1
102
RTVSPropertyOp51
 70
     0
102
RTVSPropertyOp52
 70
     0
102
RTVSPropertyOp53
 70
     1
102
RTVSPropertyOp54
 70
     1
102
RTVSPropertyOp55
 70
     1
102
RTVSPropertyOp56
 70
     1
102
RTVSPropertyOp57
 70
     1
102
RTVSPropertyOp58
 70
     1
102
RTVSPropertyOp59
 70
     1
102
RTVSPropertyOp60
 70
     1
102
RTVSPropertyOp61
 70
     1
102
RTVSPropertyOp62
 70
     1
  0
XRECORD
  5
9907
102
{ACAD_REACTORS
330
9906
102
}
330
9906
100
AcDbXrecord
280
     1
102
RTVSPost2010Prop28
280
     0
102
RTVSPost2010PropOp28
 70
     1
102
RTVSPost2010Prop29
280
     1
102
RTVSPost2010PropOp29
 70
     1
102
RTVSPost2010Prop30
280
     1
102
RTVSPost2010PropOp30
 70
     1
102
RTVSPost2010Prop31
280
     0
102
RTVSPost2010PropOp31
 70
     1
102
RTVSPost2010Prop32
280
     0
102
RTVSPost2010PropOp32
 70
     1
102
RTVSPost2010Prop33
280
     0
102
RTVSPost2010PropOp33
 70
     1
102
RTVSPost2010Prop34
280
     0
102
RTVSPost2010PropOp34
 70
     1
102
RTVSPost2010Prop35
280
     0
102
RTVSPost2010PropOp35
 70
     1
102
RTVSPost2010Prop36
280
     0
102
RTVSPost2010PropOp36
 70
     1
102
RTVSPost2010Prop37
 90
       50
102
RTVSPost2010PropOp37
 70
     0
102
RTVSPost2010Prop38
140
0.0
102
RTVSPost2010PropOp38
 70
     0
102
RTVSPost2010Prop39
140
1.0
102
RTVSPost2010PropOp39
 70
     0
102
RTVSPost2010Prop40
 90
        0
102
RTVSPost2010PropOp40
 70
     0
102
RTVSPost2010Prop41ColorIndex
 90
       18
102
RTVSPost2010Prop41ColorRGB
 90
        0
102
RTVSPost2010PropOp41
 70
     0
102
RTVSPost2010Prop42
 90
       50
102
RTVSPost2010PropOp42
 70
     0
102
RTVSPost2010Prop43
 90
        3
102
RTVSPost2010PropOp43
 70
     0
102
RTVSPost2010Prop44ColorIndex
 90
        5
102
RTVSPost2010Prop44ColorRGB
 90
      255
102
RTVSPost2010PropOp44
 70
     0
102
RTVSPost2010Prop45
280
     0
102
RTVSPost2010PropOp45
 70
     1
102
RTVSPost2010Prop46
 90
       50
102
RTVSPost2010PropOp46
 70
     0
102
RTVSPost2010Prop47
 90
       50
102
RTVSPost2010PropOp47
 70
     0
102
RTVSPost2010Prop48
 90
       50
102
RTVSPost2010PropOp48
 70
     0
102
RTVSPost2010Prop49
280
     0
102
RTVSPost2010PropOp49
 70
     1
102
RTVSPost2010Prop50
 90
       50
102
RTVSPost2010PropOp50
 70
     0
102
RTVSPost2010Prop51ColorIndex
 90
      256
102
RTVSPost2010Prop51ColorRGB
 90
-16777216
102
RTVSPost2010PropOp51
 70
     0
102
RTVSPost2010Prop52
140
1.0
102
RTVSPost2010PropOp52
 70
     0
102
RTVSPost2010Prop53
 90
        2
102
RTVSPost2010PropOp53
 70
     0
102
RTVSPost2010Prop54
  1
strokes_ogs.tif
102
RTVSPost2010PropOp54
 70
     0
102
RTVSPost2010Prop55
280
     0
102
RTVSPost2010PropOp55
 70
     1
102
RTVSPost2010Prop56
140
1.0
102
RTVSPost2010PropOp56
 70
     0
102
RTVSPost2010Prop57
140
1.0
102
RTVSPost2010PropOp57
 70
     0
102
RTVSPropertyOp0
 70
     0
102
RTVSPropertyOp1
 70
     0
102
RTVSPropertyOp2
 70
     0
102
RTVSPropertyOp3
 70
     0
102
RTVSPropertyOp4
 70
     0
102
RTVSPropertyOp5
 70
     0
102
RTVSPropertyOp6
 70
     0
102
RTVSPropertyOp7
 70
     0
102
RTVSPropertyOp8
 70
     0
102
RTVSPropertyOp9
 70
     0
102
RTVSPropertyOp10
 70
     0
102
RTVSPropertyOp11
 70
     0
102
RTVSPropertyOp12
 70
     0
102
RTVSPropertyOp13
 70
     0
102
RTVSPropertyOp14
 70
     2
102
RTVSPropertyOp15
 70
     0
102
RTVSPropertyOp16
 70
     0
102
RTVSPropertyOp17
 70
     0
102
RTVSPropertyOp18
 70
     0
102
RTVSPropertyOp19
 70
     0
102
RTVSPropertyOp20
 70
     0
102
RTVSPropertyOp21
 70
     0
102
RTVSPropertyOp22
 70
     0
102
RTVSPropertyOp23
 70
     0
102
RTVSPropertyOp24
 70
     0
102
RTVSPropertyOp25
 70
     0
102
RTVSPropertyOp26
 70
     0
102
RTVSPropertyOp27
 70
     0
102
RTVSPropertyOp28
 70
     1
102
RTVSPropertyOp29
 70
     1
102
RTVSPropertyOp30
 70
     1
102
RTVSPropertyOp31
 70
     1
102
RTVSPropertyOp32
 70
     1
102
RTVSPropertyOp33
 70
     1
102
RTVSPropertyOp34
 70
     1
102
RTVSPropertyOp35
 70
     1
102
RTVSPropertyOp36
 70
     1
102
RTVSPropertyOp37
 70
     0
102
RTVSPropertyOp38
 70
     0
102
RTVSPropertyOp39
 70
     0
102
RTVSPropertyOp40
 70
     0
102
RTVSPropertyOp41
 70
     0
102
RTVSPropertyOp42
 70
     0
102
RTVSPropertyOp43
 70
     0
102
RTVSPropertyOp44
 70
     0
102
RTVSPropertyOp45
 70
     1
102
RTVSPropertyOp46
 70
     0
102
RTVSPropertyOp47
 70
     0
102
RTVSPropertyOp48
 70
     0
102
RTVSPropertyOp49
 70
     1
102
RTVSPropertyOp50
 70
     0
102
RTVSPropertyOp51
 70
     0
102
RTVSPropertyOp52
 70
     0
102
RTVSPropertyOp53
 70
     0
102
RTVSPropertyOp54
 70
     0
102
RTVSPropertyOp55
 70
     1
102
RTVSPropertyOp56
 70
     0
102
RTVSPropertyOp57
 70
     0
102
RTVSPropertyOp58
 70
     0
102
RTVSPropertyOp59
 70
     0
102
RTVSPropertyOp60
 70
     0
102
RTVSPropertyOp61
 70
     0
102
RTVSPropertyOp62
 70
     0
  0
XRECORD
  5
98F7
102
{ACAD_REACTORS
330
98F6
102
}
330
98F6
100
AcDbXrecord
280
     1
102
RTVSPost2010Prop28
280
     0
102
RTVSPost2010PropOp28
 70
     1
102
RTVSPost2010Prop29
280
     1
102
RTVSPost2010PropOp29
 70
     1
102
RTVSPost2010Prop30
280
     1
102
RTVSPost2010PropOp30
 70
     1
102
RTVSPost2010Prop31
280
     0
102
RTVSPost2010PropOp31
 70
     1
102
RTVSPost2010Prop32
280
     0
102
RTVSPost2010PropOp32
 70
     1
102
RTVSPost2010Prop33
280
     0
102
RTVSPost2010PropOp33
 70
     1
102
RTVSPost2010Prop34
280
     0
102
RTVSPost2010PropOp34
 70
     1
102
RTVSPost2010Prop35
280
     0
102
RTVSPost2010PropOp35
 70
     1
102
RTVSPost2010Prop36
280
     0
102
RTVSPost2010PropOp36
 70
     1
102
RTVSPost2010Prop37
 90
       50
102
RTVSPost2010PropOp37
 70
     1
102
RTVSPost2010Prop38
140
0.0
102
RTVSPost2010PropOp38
 70
     1
102
RTVSPost2010Prop39
140
1.0
102
RTVSPost2010PropOp39
 70
     1
102
RTVSPost2010Prop40
 90
        0
102
RTVSPost2010PropOp40
 70
     1
102
RTVSPost2010Prop41ColorIndex
 90
       18
102
RTVSPost2010Prop41ColorRGB
 90
        0
102
RTVSPost2010PropOp41
 70
     1
102
RTVSPost2010Prop42
 90
       50
102
RTVSPost2010PropOp42
 70
     1
102
RTVSPost2010Prop43
 90
        3
102
RTVSPost2010PropOp43
 70
     1
102
RTVSPost2010Prop44ColorIndex
 90
        5
102
RTVSPost2010Prop44ColorRGB
 90
      255
102
RTVSPost2010PropOp44
 70
     1
102
RTVSPost2010Prop45
280
     0
102
RTVSPost2010PropOp45
 70
     1
102
RTVSPost2010Prop46
 90
       50
102
RTVSPost2010PropOp46
 70
     1
102
RTVSPost2010Prop47
 90
       50
102
RTVSPost2010PropOp47
 70
     1
102
RTVSPost2010Prop48
 90
       50
102
RTVSPost2010PropOp48
 70
     1
102
RTVSPost2010Prop49
280
     0
102
RTVSPost2010PropOp49
 70
     1
102
RTVSPost2010Prop50
 90
       50
102
RTVSPost2010PropOp50
 70
     1
102
RTVSPost2010Prop51ColorIndex
 90
      256
102
RTVSPost2010Prop51ColorRGB
 90
-16777216
102
RTVSPost2010PropOp51
 70
     0
102
RTVSPost2010Prop52
140
1.0
102
RTVSPost2010PropOp52
 70
     0
102
RTVSPost2010Prop53
 90
        2
102
RTVSPost2010PropOp53
 70
     1
102
RTVSPost2010Prop54
  1
strokes_ogs.tif
102
RTVSPost2010PropOp54
 70
     1
102
RTVSPost2010Prop55
280
     0
102
RTVSPost2010PropOp55
 70
     1
102
RTVSPost2010Prop56
140
1.0
102
RTVSPost2010PropOp56
 70
     1
102
RTVSPost2010Prop57
140
1.0
102
RTVSPost2010PropOp57
 70
     1
102
RTVSPropertyOp0
 70
     1
102
RTVSPropertyOp1
 70
     1
102
RTVSPropertyOp2
 70
     1
102
RTVSPropertyOp3
 70
     1
102
RTVSPropertyOp4
 70
     1
102
RTVSPropertyOp5
 70
     1
102
RTVSPropertyOp6
 70
     1
102
RTVSPropertyOp7
 70
     1
102
RTVSPropertyOp8
 70
     1
102
RTVSPropertyOp9
 70
     1
102
RTVSPropertyOp10
 70
     1
102
RTVSPropertyOp11
 70
     1
102
RTVSPropertyOp12
 70
     1
102
RTVSPropertyOp13
 70
     1
102
RTVSPropertyOp14
 70
     1
102
RTVSPropertyOp15
 70
     1
102
RTVSPropertyOp16
 70
     1
102
RTVSPropertyOp17
 70
     1
102
RTVSPropertyOp18
 70
     1
102
RTVSPropertyOp19
 70
     1
102
RTVSPropertyOp20
 70
     1
102
RTVSPropertyOp21
 70
     1
102
RTVSPropertyOp22
 70
     1
102
RTVSPropertyOp23
 70
     1
102
RTVSPropertyOp24
 70
     1
102
RTVSPropertyOp25
 70
     1
102
RTVSPropertyOp26
 70
     1
102
RTVSPropertyOp27
 70
     1
102
RTVSPropertyOp28
 70
     1
102
RTVSPropertyOp29
 70
     1
102
RTVSPropertyOp30
 70
     1
102
RTVSPropertyOp31
 70
     1
102
RTVSPropertyOp32
 70
     1
102
RTVSPropertyOp33
 70
     1
102
RTVSPropertyOp34
 70
     1
102
RTVSPropertyOp35
 70
     1
102
RTVSPropertyOp36
 70
     1
102
RTVSPropertyOp37
 70
     1
102
RTVSPropertyOp38
 70
     1
102
RTVSPropertyOp39
 70
     1
102
RTVSPropertyOp40
 70
     1
102
RTVSPropertyOp41
 70
     1
102
RTVSPropertyOp42
 70
     1
102
RTVSPropertyOp43
 70
     1
102
RTVSPropertyOp44
 70
     1
102
RTVSPropertyOp45
 70
     1
102
RTVSPropertyOp46
 70
     1
102
RTVSPropertyOp47
 70
     1
102
RTVSPropertyOp48
 70
     1
102
RTVSPropertyOp49
 70
     1
102
RTVSPropertyOp50
 70
     1
102
RTVSPropertyOp51
 70
     0
102
RTVSPropertyOp52
 70
     0
102
RTVSPropertyOp53
 70
     1
102
RTVSPropertyOp54
 70
     1
102
RTVSPropertyOp55
 70
     1
102
RTVSPropertyOp56
 70
     1
102
RTVSPropertyOp57
 70
     1
102
RTVSPropertyOp58
 70
     1
102
RTVSPropertyOp59
 70
     1
102
RTVSPropertyOp60
 70
     1
102
RTVSPropertyOp61
 70
     1
102
RTVSPropertyOp62
 70
     1
  0
XRECORD
  5
9909
102
{ACAD_REACTORS
330
9908
102
}
330
9908
100
AcDbXrecord
280
     1
102
RTVSPost2010Prop28
280
     0
102
RTVSPost2010PropOp28
 70
     1
102
RTVSPost2010Prop29
280
     1
102
RTVSPost2010PropOp29
 70
     1
102
RTVSPost2010Prop30
280
     1
102
RTVSPost2010PropOp30
 70
     1
102
RTVSPost2010Prop31
280
     0
102
RTVSPost2010PropOp31
 70
     1
102
RTVSPost2010Prop32
280
     0
102
RTVSPost2010PropOp32
 70
     1
102
RTVSPost2010Prop33
280
     0
102
RTVSPost2010PropOp33
 70
     1
102
RTVSPost2010Prop34
280
     0
102
RTVSPost2010PropOp34
 70
     1
102
RTVSPost2010Prop35
280
     0
102
RTVSPost2010PropOp35
 70
     1
102
RTVSPost2010Prop36
280
     0
102
RTVSPost2010PropOp36
 70
     1
102
RTVSPost2010Prop37
 90
       50
102
RTVSPost2010PropOp37
 70
     0
102
RTVSPost2010Prop38
140
0.0
102
RTVSPost2010PropOp38
 70
     0
102
RTVSPost2010Prop39
140
1.0
102
RTVSPost2010PropOp39
 70
     0
102
RTVSPost2010Prop40
 90
        0
102
RTVSPost2010PropOp40
 70
     0
102
RTVSPost2010Prop41ColorIndex
 90
       18
102
RTVSPost2010Prop41ColorRGB
 90
        0
102
RTVSPost2010PropOp41
 70
     0
102
RTVSPost2010Prop42
 90
       50
102
RTVSPost2010PropOp42
 70
     0
102
RTVSPost2010Prop43
 90
        3
102
RTVSPost2010PropOp43
 70
     0
102
RTVSPost2010Prop44ColorIndex
 90
        5
102
RTVSPost2010Prop44ColorRGB
 90
      255
102
RTVSPost2010PropOp44
 70
     0
102
RTVSPost2010Prop45
280
     0
102
RTVSPost2010PropOp45
 70
     1
102
RTVSPost2010Prop46
 90
       50
102
RTVSPost2010PropOp46
 70
     0
102
RTVSPost2010Prop47
 90
       50
102
RTVSPost2010PropOp47
 70
     0
102
RTVSPost2010Prop48
 90
       50
102
RTVSPost2010PropOp48
 70
     0
102
RTVSPost2010Prop49
280
     0
102
RTVSPost2010PropOp49
 70
     1
102
RTVSPost2010Prop50
 90
       50
102
RTVSPost2010PropOp50
 70
     0
102
RTVSPost2010Prop51ColorIndex
 90
      256
102
RTVSPost2010Prop51ColorRGB
 90
-16777216
102
RTVSPost2010PropOp51
 70
     0
102
RTVSPost2010Prop52
140
1.0
102
RTVSPost2010PropOp52
 70
     0
102
RTVSPost2010Prop53
 90
        2
102
RTVSPost2010PropOp53
 70
     0
102
RTVSPost2010Prop54
  1
strokes_ogs.tif
102
RTVSPost2010PropOp54
 70
     0
102
RTVSPost2010Prop55
280
     0
102
RTVSPost2010PropOp55
 70
     1
102
RTVSPost2010Prop56
140
1.0
102
RTVSPost2010PropOp56
 70
     0
102
RTVSPost2010Prop57
140
1.0
102
RTVSPost2010PropOp57
 70
     0
102
RTVSPropertyOp0
 70
     0
102
RTVSPropertyOp1
 70
     0
102
RTVSPropertyOp2
 70
     0
102
RTVSPropertyOp3
 70
     0
102
RTVSPropertyOp4
 70
     0
102
RTVSPropertyOp5
 70
     0
102
RTVSPropertyOp6
 70
     0
102
RTVSPropertyOp7
 70
     0
102
RTVSPropertyOp8
 70
     0
102
RTVSPropertyOp9
 70
     0
102
RTVSPropertyOp10
 70
     0
102
RTVSPropertyOp11
 70
     0
102
RTVSPropertyOp12
 70
     0
102
RTVSPropertyOp13
 70
     0
102
RTVSPropertyOp14
 70
     2
102
RTVSPropertyOp15
 70
     0
102
RTVSPropertyOp16
 70
     0
102
RTVSPropertyOp17
 70
     0
102
RTVSPropertyOp18
 70
     0
102
RTVSPropertyOp19
 70
     0
102
RTVSPropertyOp20
 70
     0
102
RTVSPropertyOp21
 70
     0
102
RTVSPropertyOp22
 70
     0
102
RTVSPropertyOp23
 70
     0
102
RTVSPropertyOp24
 70
     0
102
RTVSPropertyOp25
 70
     0
102
RTVSPropertyOp26
 70
     0
102
RTVSPropertyOp27
 70
     0
102
RTVSPropertyOp28
 70
     1
102
RTVSPropertyOp29
 70
     1
102
RTVSPropertyOp30
 70
     1
102
RTVSPropertyOp31
 70
     1
102
RTVSPropertyOp32
 70
     1
102
RTVSPropertyOp33
 70
     1
102
RTVSPropertyOp34
 70
     1
102
RTVSPropertyOp35
 70
     1
102
RTVSPropertyOp36
 70
     1
102
RTVSPropertyOp37
 70
     0
102
RTVSPropertyOp38
 70
     0
102
RTVSPropertyOp39
 70
     0
102
RTVSPropertyOp40
 70
     0
102
RTVSPropertyOp41
 70
     0
102
RTVSPropertyOp42
 70
     0
102
RTVSPropertyOp43
 70
     0
102
RTVSPropertyOp44
 70
     0
102
RTVSPropertyOp45
 70
     1
102
RTVSPropertyOp46
 70
     0
102
RTVSPropertyOp47
 70
     0
102
RTVSPropertyOp48
 70
     0
102
RTVSPropertyOp49
 70
     1
102
RTVSPropertyOp50
 70
     0
102
RTVSPropertyOp51
 70
     0
102
RTVSPropertyOp52
 70
     0
102
RTVSPropertyOp53
 70
     0
102
RTVSPropertyOp54
 70
     0
102
RTVSPropertyOp55
 70
     1
102
RTVSPropertyOp56
 70
     0
102
RTVSPropertyOp57
 70
     0
102
RTVSPropertyOp58
 70
     0
102
RTVSPropertyOp59
 70
     0
102
RTVSPropertyOp60
 70
     0
102
RTVSPropertyOp61
 70
     0
102
RTVSPropertyOp62
 70
     0
  0
XRECORD
  5
98EF
102
{ACAD_REACTORS
330
98EE
102
}
330
98EE
100
AcDbXrecord
280
     1
102
RTVSPost2010Prop28
280
     0
102
RTVSPost2010PropOp28
 70
     1
102
RTVSPost2010Prop29
280
     1
102
RTVSPost2010PropOp29
 70
     1
102
RTVSPost2010Prop30
280
     1
102
RTVSPost2010PropOp30
 70
     1
102
RTVSPost2010Prop31
280
     0
102
RTVSPost2010PropOp31
 70
     1
102
RTVSPost2010Prop32
280
     0
102
RTVSPost2010PropOp32
 70
     1
102
RTVSPost2010Prop33
280
     0
102
RTVSPost2010PropOp33
 70
     1
102
RTVSPost2010Prop34
280
     0
102
RTVSPost2010PropOp34
 70
     1
102
RTVSPost2010Prop35
280
     0
102
RTVSPost2010PropOp35
 70
     1
102
RTVSPost2010Prop36
280
     0
102
RTVSPost2010PropOp36
 70
     1
102
RTVSPost2010Prop37
 90
       50
102
RTVSPost2010PropOp37
 70
     1
102
RTVSPost2010Prop38
140
0.0
102
RTVSPost2010PropOp38
 70
     1
102
RTVSPost2010Prop39
140
1.0
102
RTVSPost2010PropOp39
 70
     1
102
RTVSPost2010Prop40
 90
        0
102
RTVSPost2010PropOp40
 70
     1
102
RTVSPost2010Prop41ColorIndex
 90
       18
102
RTVSPost2010Prop41ColorRGB
 90
        0
102
RTVSPost2010PropOp41
 70
     1
102
RTVSPost2010Prop42
 90
       50
102
RTVSPost2010PropOp42
 70
     1
102
RTVSPost2010Prop43
 90
        3
102
RTVSPost2010PropOp43
 70
     1
102
RTVSPost2010Prop44ColorIndex
 90
        5
102
RTVSPost2010Prop44ColorRGB
 90
      255
102
RTVSPost2010PropOp44
 70
     1
102
RTVSPost2010Prop45
280
     0
102
RTVSPost2010PropOp45
 70
     1
102
RTVSPost2010Prop46
 90
       50
102
RTVSPost2010PropOp46
 70
     1
102
RTVSPost2010Prop47
 90
       50
102
RTVSPost2010PropOp47
 70
     1
102
RTVSPost2010Prop48
 90
       50
102
RTVSPost2010PropOp48
 70
     1
102
RTVSPost2010Prop49
280
     0
102
RTVSPost2010PropOp49
 70
     1
102
RTVSPost2010Prop50
 90
       50
102
RTVSPost2010PropOp50
 70
     1
102
RTVSPost2010Prop51ColorIndex
 90
      256
102
RTVSPost2010Prop51ColorRGB
 90
-16777216
102
RTVSPost2010PropOp51
 70
     0
102
RTVSPost2010Prop52
140
1.0
102
RTVSPost2010PropOp52
 70
     0
102
RTVSPost2010Prop53
 90
        2
102
RTVSPost2010PropOp53
 70
     1
102
RTVSPost2010Prop54
  1
strokes_ogs.tif
102
RTVSPost2010PropOp54
 70
     1
102
RTVSPost2010Prop55
280
     0
102
RTVSPost2010PropOp55
 70
     1
102
RTVSPost2010Prop56
140
1.0
102
RTVSPost2010PropOp56
 70
     1
102
RTVSPost2010Prop57
140
1.0
102
RTVSPost2010PropOp57
 70
     1
102
RTVSPropertyOp0
 70
     1
102
RTVSPropertyOp1
 70
     1
102
RTVSPropertyOp2
 70
     1
102
RTVSPropertyOp3
 70
     1
102
RTVSPropertyOp4
 70
     1
102
RTVSPropertyOp5
 70
     1
102
RTVSPropertyOp6
 70
     1
102
RTVSPropertyOp7
 70
     1
102
RTVSPropertyOp8
 70
     1
102
RTVSPropertyOp9
 70
     1
102
RTVSPropertyOp10
 70
     1
102
RTVSPropertyOp11
 70
     1
102
RTVSPropertyOp12
 70
     1
102
RTVSPropertyOp13
 70
     1
102
RTVSPropertyOp14
 70
     1
102
RTVSPropertyOp15
 70
     1
102
RTVSPropertyOp16
 70
     1
102
RTVSPropertyOp17
 70
     1
102
RTVSPropertyOp18
 70
     1
102
RTVSPropertyOp19
 70
     1
102
RTVSPropertyOp20
 70
     1
102
RTVSPropertyOp21
 70
     1
102
RTVSPropertyOp22
 70
     1
102
RTVSPropertyOp23
 70
     1
102
RTVSPropertyOp24
 70
     1
102
RTVSPropertyOp25
 70
     1
102
RTVSPropertyOp26
 70
     1
102
RTVSPropertyOp27
 70
     1
102
RTVSPropertyOp28
 70
     1
102
RTVSPropertyOp29
 70
     1
102
RTVSPropertyOp30
 70
     1
102
RTVSPropertyOp31
 70
     1
102
RTVSPropertyOp32
 70
     1
102
RTVSPropertyOp33
 70
     1
102
RTVSPropertyOp34
 70
     1
102
RTVSPropertyOp35
 70
     1
102
RTVSPropertyOp36
 70
     1
102
RTVSPropertyOp37
 70
     1
102
RTVSPropertyOp38
 70
     1
102
RTVSPropertyOp39
 70
     1
102
RTVSPropertyOp40
 70
     1
102
RTVSPropertyOp41
 70
     1
102
RTVSPropertyOp42
 70
     1
102
RTVSPropertyOp43
 70
     1
102
RTVSPropertyOp44
 70
     1
102
RTVSPropertyOp45
 70
     1
102
RTVSPropertyOp46
 70
     1
102
RTVSPropertyOp47
 70
     1
102
RTVSPropertyOp48
 70
     1
102
RTVSPropertyOp49
 70
     1
102
RTVSPropertyOp50
 70
     1
102
RTVSPropertyOp51
 70
     0
102
RTVSPropertyOp52
 70
     0
102
RTVSPropertyOp53
 70
     1
102
RTVSPropertyOp54
 70
     1
102
RTVSPropertyOp55
 70
     1
102
RTVSPropertyOp56
 70
     1
102
RTVSPropertyOp57
 70
     1
102
RTVSPropertyOp58
 70
     1
102
RTVSPropertyOp59
 70
     1
102
RTVSPropertyOp60
 70
     1
102
RTVSPropertyOp61
 70
     1
102
RTVSPropertyOp62
 70
     1
  0
XRECORD
  5
9905
102
{ACAD_REACTORS
330
9904
102
}
330
9904
100
AcDbXrecord
280
     1
102
RTVSPost2010Prop28
280
     0
102
RTVSPost2010PropOp28
 70
     1
102
RTVSPost2010Prop29
280
     1
102
RTVSPost2010PropOp29
 70
     1
102
RTVSPost2010Prop30
280
     1
102
RTVSPost2010PropOp30
 70
     1
102
RTVSPost2010Prop31
280
     0
102
RTVSPost2010PropOp31
 70
     1
102
RTVSPost2010Prop32
280
     0
102
RTVSPost2010PropOp32
 70
     1
102
RTVSPost2010Prop33
280
     0
102
RTVSPost2010PropOp33
 70
     1
102
RTVSPost2010Prop34
280
     0
102
RTVSPost2010PropOp34
 70
     1
102
RTVSPost2010Prop35
280
     0
102
RTVSPost2010PropOp35
 70
     1
102
RTVSPost2010Prop36
280
     0
102
RTVSPost2010PropOp36
 70
     1
102
RTVSPost2010Prop37
 90
       50
102
RTVSPost2010PropOp37
 70
     1
102
RTVSPost2010Prop38
140
0.0
102
RTVSPost2010PropOp38
 70
     1
102
RTVSPost2010Prop39
140
1.0
102
RTVSPost2010PropOp39
 70
     1
102
RTVSPost2010Prop40
 90
        0
102
RTVSPost2010PropOp40
 70
     1
102
RTVSPost2010Prop41ColorIndex
 90
       18
102
RTVSPost2010Prop41ColorRGB
 90
        0
102
RTVSPost2010PropOp41
 70
     1
102
RTVSPost2010Prop42
 90
       50
102
RTVSPost2010PropOp42
 70
     1
102
RTVSPost2010Prop43
 90
        3
102
RTVSPost2010PropOp43
 70
     1
102
RTVSPost2010Prop44ColorIndex
 90
        5
102
RTVSPost2010Prop44ColorRGB
 90
      255
102
RTVSPost2010PropOp44
 70
     1
102
RTVSPost2010Prop45
280
     0
102
RTVSPost2010PropOp45
 70
     1
102
RTVSPost2010Prop46
 90
       50
102
RTVSPost2010PropOp46
 70
     1
102
RTVSPost2010Prop47
 90
       50
102
RTVSPost2010PropOp47
 70
     1
102
RTVSPost2010Prop48
 90
       50
102
RTVSPost2010PropOp48
 70
     1
102
RTVSPost2010Prop49
280
     0
102
RTVSPost2010PropOp49
 70
     1
102
RTVSPost2010Prop50
 90
       50
102
RTVSPost2010PropOp50
 70
     1
102
RTVSPost2010Prop51ColorIndex
 90
      256
102
RTVSPost2010Prop51ColorRGB
 90
-16777216
102
RTVSPost2010PropOp51
 70
     0
102
RTVSPost2010Prop52
140
1.0
102
RTVSPost2010PropOp52
 70
     0
102
RTVSPost2010Prop53
 90
        2
102
RTVSPost2010PropOp53
 70
     1
102
RTVSPost2010Prop54
  1
strokes_ogs.tif
102
RTVSPost2010PropOp54
 70
     1
102
RTVSPost2010Prop55
280
     0
102
RTVSPost2010PropOp55
 70
     1
102
RTVSPost2010Prop56
140
1.0
102
RTVSPost2010PropOp56
 70
     1
102
RTVSPost2010Prop57
140
1.0
102
RTVSPost2010PropOp57
 70
     1
102
RTVSPropertyOp0
 70
     1
102
RTVSPropertyOp1
 70
     1
102
RTVSPropertyOp2
 70
     1
102
RTVSPropertyOp3
 70
     1
102
RTVSPropertyOp4
 70
     1
102
RTVSPropertyOp5
 70
     1
102
RTVSPropertyOp6
 70
     1
102
RTVSPropertyOp7
 70
     1
102
RTVSPropertyOp8
 70
     1
102
RTVSPropertyOp9
 70
     1
102
RTVSPropertyOp10
 70
     1
102
RTVSPropertyOp11
 70
     1
102
RTVSPropertyOp12
 70
     1
102
RTVSPropertyOp13
 70
     1
102
RTVSPropertyOp14
 70
     1
102
RTVSPropertyOp15
 70
     1
102
RTVSPropertyOp16
 70
     1
102
RTVSPropertyOp17
 70
     1
102
RTVSPropertyOp18
 70
     1
102
RTVSPropertyOp19
 70
     1
102
RTVSPropertyOp20
 70
     1
102
RTVSPropertyOp21
 70
     1
102
RTVSPropertyOp22
 70
     1
102
RTVSPropertyOp23
 70
     1
102
RTVSPropertyOp24
 70
     1
102
RTVSPropertyOp25
 70
     1
102
RTVSPropertyOp26
 70
     1
102
RTVSPropertyOp27
 70
     1
102
RTVSPropertyOp28
 70
     1
102
RTVSPropertyOp29
 70
     1
102
RTVSPropertyOp30
 70
     1
102
RTVSPropertyOp31
 70
     1
102
RTVSPropertyOp32
 70
     1
102
RTVSPropertyOp33
 70
     1
102
RTVSPropertyOp34
 70
     1
102
RTVSPropertyOp35
 70
     1
102
RTVSPropertyOp36
 70
     1
102
RTVSPropertyOp37
 70
     1
102
RTVSPropertyOp38
 70
     1
102
RTVSPropertyOp39
 70
     1
102
RTVSPropertyOp40
 70
     1
102
RTVSPropertyOp41
 70
     1
102
RTVSPropertyOp42
 70
     1
102
RTVSPropertyOp43
 70
     1
102
RTVSPropertyOp44
 70
     1
102
RTVSPropertyOp45
 70
     1
102
RTVSPropertyOp46
 70
     1
102
RTVSPropertyOp47
 70
     1
102
RTVSPropertyOp48
 70
     1
102
RTVSPropertyOp49
 70
     1
102
RTVSPropertyOp50
 70
     1
102
RTVSPropertyOp51
 70
     0
102
RTVSPropertyOp52
 70
     0
102
RTVSPropertyOp53
 70
     1
102
RTVSPropertyOp54
 70
     1
102
RTVSPropertyOp55
 70
     1
102
RTVSPropertyOp56
 70
     1
102
RTVSPropertyOp57
 70
     1
102
RTVSPropertyOp58
 70
     1
102
RTVSPropertyOp59
 70
     1
102
RTVSPropertyOp60
 70
     1
102
RTVSPropertyOp61
 70
     1
102
RTVSPropertyOp62
 70
     1
  0
XRECORD
  5
9903
102
{ACAD_REACTORS
330
9902
102
}
330
9902
100
AcDbXrecord
280
     1
102
RTVSPost2010Prop28
280
     0
102
RTVSPost2010PropOp28
 70
     1
102
RTVSPost2010Prop29
280
     1
102
RTVSPost2010PropOp29
 70
     1
102
RTVSPost2010Prop30
280
     1
102
RTVSPost2010PropOp30
 70
     1
102
RTVSPost2010Prop31
280
     0
102
RTVSPost2010PropOp31
 70
     1
102
RTVSPost2010Prop32
280
     0
102
RTVSPost2010PropOp32
 70
     1
102
RTVSPost2010Prop33
280
     0
102
RTVSPost2010PropOp33
 70
     1
102
RTVSPost2010Prop34
280
     0
102
RTVSPost2010PropOp34
 70
     1
102
RTVSPost2010Prop35
280
     0
102
RTVSPost2010PropOp35
 70
     1
102
RTVSPost2010Prop36
280
     0
102
RTVSPost2010PropOp36
 70
     1
102
RTVSPost2010Prop37
 90
       50
102
RTVSPost2010PropOp37
 70
     1
102
RTVSPost2010Prop38
140
0.0
102
RTVSPost2010PropOp38
 70
     1
102
RTVSPost2010Prop39
140
1.0
102
RTVSPost2010PropOp39
 70
     1
102
RTVSPost2010Prop40
 90
        0
102
RTVSPost2010PropOp40
 70
     1
102
RTVSPost2010Prop41ColorIndex
 90
       18
102
RTVSPost2010Prop41ColorRGB
 90
        0
102
RTVSPost2010PropOp41
 70
     1
102
RTVSPost2010Prop42
 90
       50
102
RTVSPost2010PropOp42
 70
     1
102
RTVSPost2010Prop43
 90
        3
102
RTVSPost2010PropOp43
 70
     1
102
RTVSPost2010Prop44ColorIndex
 90
        5
102
RTVSPost2010Prop44ColorRGB
 90
      255
102
RTVSPost2010PropOp44
 70
     1
102
RTVSPost2010Prop45
280
     0
102
RTVSPost2010PropOp45
 70
     1
102
RTVSPost2010Prop46
 90
       50
102
RTVSPost2010PropOp46
 70
     1
102
RTVSPost2010Prop47
 90
       50
102
RTVSPost2010PropOp47
 70
     1
102
RTVSPost2010Prop48
 90
       50
102
RTVSPost2010PropOp48
 70
     1
102
RTVSPost2010Prop49
280
     0
102
RTVSPost2010PropOp49
 70
     1
102
RTVSPost2010Prop50
 90
       50
102
RTVSPost2010PropOp50
 70
     1
102
RTVSPost2010Prop51ColorIndex
 90
      256
102
RTVSPost2010Prop51ColorRGB
 90
-16777216
102
RTVSPost2010PropOp51
 70
     0
102
RTVSPost2010Prop52
140
1.0
102
RTVSPost2010PropOp52
 70
     0
102
RTVSPost2010Prop53
 90
        2
102
RTVSPost2010PropOp53
 70
     1
102
RTVSPost2010Prop54
  1
strokes_ogs.tif
102
RTVSPost2010PropOp54
 70
     1
102
RTVSPost2010Prop55
280
     0
102
RTVSPost2010PropOp55
 70
     1
102
RTVSPost2010Prop56
140
1.0
102
RTVSPost2010PropOp56
 70
     1
102
RTVSPost2010Prop57
140
1.0
102
RTVSPost2010PropOp57
 70
     1
102
RTVSPropertyOp0
 70
     1
102
RTVSPropertyOp1
 70
     1
102
RTVSPropertyOp2
 70
     1
102
RTVSPropertyOp3
 70
     1
102
RTVSPropertyOp4
 70
     1
102
RTVSPropertyOp5
 70
     1
102
RTVSPropertyOp6
 70
     1
102
RTVSPropertyOp7
 70
     1
102
RTVSPropertyOp8
 70
     1
102
RTVSPropertyOp9
 70
     1
102
RTVSPropertyOp10
 70
     1
102
RTVSPropertyOp11
 70
     1
102
RTVSPropertyOp12
 70
     1
102
RTVSPropertyOp13
 70
     1
102
RTVSPropertyOp14
 70
     1
102
RTVSPropertyOp15
 70
     1
102
RTVSPropertyOp16
 70
     1
102
RTVSPropertyOp17
 70
     1
102
RTVSPropertyOp18
 70
     1
102
RTVSPropertyOp19
 70
     1
102
RTVSPropertyOp20
 70
     1
102
RTVSPropertyOp21
 70
     1
102
RTVSPropertyOp22
 70
     1
102
RTVSPropertyOp23
 70
     1
102
RTVSPropertyOp24
 70
     1
102
RTVSPropertyOp25
 70
     1
102
RTVSPropertyOp26
 70
     1
102
RTVSPropertyOp27
 70
     1
102
RTVSPropertyOp28
 70
     1
102
RTVSPropertyOp29
 70
     1
102
RTVSPropertyOp30
 70
     1
102
RTVSPropertyOp31
 70
     1
102
RTVSPropertyOp32
 70
     1
102
RTVSPropertyOp33
 70
     1
102
RTVSPropertyOp34
 70
     1
102
RTVSPropertyOp35
 70
     1
102
RTVSPropertyOp36
 70
     1
102
RTVSPropertyOp37
 70
     1
102
RTVSPropertyOp38
 70
     1
102
RTVSPropertyOp39
 70
     1
102
RTVSPropertyOp40
 70
     1
102
RTVSPropertyOp41
 70
     1
102
RTVSPropertyOp42
 70
     1
102
RTVSPropertyOp43
 70
     1
102
RTVSPropertyOp44
 70
     1
102
RTVSPropertyOp45
 70
     1
102
RTVSPropertyOp46
 70
     1
102
RTVSPropertyOp47
 70
     1
102
RTVSPropertyOp48
 70
     1
102
RTVSPropertyOp49
 70
     1
102
RTVSPropertyOp50
 70
     1
102
RTVSPropertyOp51
 70
     0
102
RTVSPropertyOp52
 70
     0
102
RTVSPropertyOp53
 70
     1
102
RTVSPropertyOp54
 70
     1
102
RTVSPropertyOp55
 70
     1
102
RTVSPropertyOp56
 70
     1
102
RTVSPropertyOp57
 70
     1
102
RTVSPropertyOp58
 70
     1
102
RTVSPropertyOp59
 70
     1
102
RTVSPropertyOp60
 70
     1
102
RTVSPropertyOp61
 70
     1
102
RTVSPropertyOp62
 70
     1
  0
XRECORD
  5
98FD
102
{ACAD_REACTORS
330
98FC
102
}
330
98FC
100
AcDbXrecord
280
     1
102
RTVSPost2010Prop28
280
     0
102
RTVSPost2010PropOp28
 70
     1
102
RTVSPost2010Prop29
280
     1
102
RTVSPost2010PropOp29
 70
     1
102
RTVSPost2010Prop30
280
     1
102
RTVSPost2010PropOp30
 70
     1
102
RTVSPost2010Prop31
280
     0
102
RTVSPost2010PropOp31
 70
     1
102
RTVSPost2010Prop32
280
     0
102
RTVSPost2010PropOp32
 70
     1
102
RTVSPost2010Prop33
280
     0
102
RTVSPost2010PropOp33
 70
     1
102
RTVSPost2010Prop34
280
     0
102
RTVSPost2010PropOp34
 70
     1
102
RTVSPost2010Prop35
280
     0
102
RTVSPost2010PropOp35
 70
     1
102
RTVSPost2010Prop36
280
     0
102
RTVSPost2010PropOp36
 70
     1
102
RTVSPost2010Prop37
 90
       50
102
RTVSPost2010PropOp37
 70
     1
102
RTVSPost2010Prop38
140
0.0
102
RTVSPost2010PropOp38
 70
     1
102
RTVSPost2010Prop39
140
1.0
102
RTVSPost2010PropOp39
 70
     1
102
RTVSPost2010Prop40
 90
        0
102
RTVSPost2010PropOp40
 70
     1
102
RTVSPost2010Prop41ColorIndex
 90
       18
102
RTVSPost2010Prop41ColorRGB
 90
        0
102
RTVSPost2010PropOp41
 70
     1
102
RTVSPost2010Prop42
 90
       50
102
RTVSPost2010PropOp42
 70
     1
102
RTVSPost2010Prop43
 90
        3
102
RTVSPost2010PropOp43
 70
     1
102
RTVSPost2010Prop44ColorIndex
 90
        5
102
RTVSPost2010Prop44ColorRGB
 90
      255
102
RTVSPost2010PropOp44
 70
     1
102
RTVSPost2010Prop45
280
     0
102
RTVSPost2010PropOp45
 70
     1
102
RTVSPost2010Prop46
 90
       50
102
RTVSPost2010PropOp46
 70
     1
102
RTVSPost2010Prop47
 90
       50
102
RTVSPost2010PropOp47
 70
     1
102
RTVSPost2010Prop48
 90
       50
102
RTVSPost2010PropOp48
 70
     1
102
RTVSPost2010Prop49
280
     0
102
RTVSPost2010PropOp49
 70
     1
102
RTVSPost2010Prop50
 90
       50
102
RTVSPost2010PropOp50
 70
     1
102
RTVSPost2010Prop51ColorIndex
 90
      256
102
RTVSPost2010Prop51ColorRGB
 90
-16777216
102
RTVSPost2010PropOp51
 70
     0
102
RTVSPost2010Prop52
140
1.0
102
RTVSPost2010PropOp52
 70
     0
102
RTVSPost2010Prop53
 90
        2
102
RTVSPost2010PropOp53
 70
     1
102
RTVSPost2010Prop54
  1
strokes_ogs.tif
102
RTVSPost2010PropOp54
 70
     1
102
RTVSPost2010Prop55
280
     0
102
RTVSPost2010PropOp55
 70
     1
102
RTVSPost2010Prop56
140
1.0
102
RTVSPost2010PropOp56
 70
     1
102
RTVSPost2010Prop57
140
1.0
102
RTVSPost2010PropOp57
 70
     1
102
RTVSPropertyOp0
 70
     1
102
RTVSPropertyOp1
 70
     1
102
RTVSPropertyOp2
 70
     1
102
RTVSPropertyOp3
 70
     1
102
RTVSPropertyOp4
 70
     1
102
RTVSPropertyOp5
 70
     1
102
RTVSPropertyOp6
 70
     1
102
RTVSPropertyOp7
 70
     1
102
RTVSPropertyOp8
 70
     1
102
RTVSPropertyOp9
 70
     1
102
RTVSPropertyOp10
 70
     1
102
RTVSPropertyOp11
 70
     1
102
RTVSPropertyOp12
 70
     1
102
RTVSPropertyOp13
 70
     1
102
RTVSPropertyOp14
 70
     1
102
RTVSPropertyOp15
 70
     1
102
RTVSPropertyOp16
 70
     1
102
RTVSPropertyOp17
 70
     1
102
RTVSPropertyOp18
 70
     1
102
RTVSPropertyOp19
 70
     1
102
RTVSPropertyOp20
 70
     1
102
RTVSPropertyOp21
 70
     1
102
RTVSPropertyOp22
 70
     1
102
RTVSPropertyOp23
 70
     1
102
RTVSPropertyOp24
 70
     1
102
RTVSPropertyOp25
 70
     1
102
RTVSPropertyOp26
 70
     1
102
RTVSPropertyOp27
 70
     1
102
RTVSPropertyOp28
 70
     1
102
RTVSPropertyOp29
 70
     1
102
RTVSPropertyOp30
 70
     1
102
RTVSPropertyOp31
 70
     1
102
RTVSPropertyOp32
 70
     1
102
RTVSPropertyOp33
 70
     1
102
RTVSPropertyOp34
 70
     1
102
RTVSPropertyOp35
 70
     1
102
RTVSPropertyOp36
 70
     1
102
RTVSPropertyOp37
 70
     1
102
RTVSPropertyOp38
 70
     1
102
RTVSPropertyOp39
 70
     1
102
RTVSPropertyOp40
 70
     1
102
RTVSPropertyOp41
 70
     1
102
RTVSPropertyOp42
 70
     1
102
RTVSPropertyOp43
 70
     1
102
RTVSPropertyOp44
 70
     1
102
RTVSPropertyOp45
 70
     1
102
RTVSPropertyOp46
 70
     1
102
RTVSPropertyOp47
 70
     1
102
RTVSPropertyOp48
 70
     1
102
RTVSPropertyOp49
 70
     1
102
RTVSPropertyOp50
 70
     1
102
RTVSPropertyOp51
 70
     0
102
RTVSPropertyOp52
 70
     0
102
RTVSPropertyOp53
 70
     1
102
RTVSPropertyOp54
 70
     1
102
RTVSPropertyOp55
 70
     1
102
RTVSPropertyOp56
 70
     1
102
RTVSPropertyOp57
 70
     1
102
RTVSPropertyOp58
 70
     1
102
RTVSPropertyOp59
 70
     1
102
RTVSPropertyOp60
 70
     1
102
RTVSPropertyOp61
 70
     1
102
RTVSPropertyOp62
 70
     1
  0
XRECORD
  5
98FF
102
{ACAD_REACTORS
330
98FE
102
}
330
98FE
100
AcDbXrecord
280
     1
102
RTVSPost2010Prop28
280
     0
102
RTVSPost2010PropOp28
 70
     1
102
RTVSPost2010Prop29
280
     1
102
RTVSPost2010PropOp29
 70
     1
102
RTVSPost2010Prop30
280
     1
102
RTVSPost2010PropOp30
 70
     1
102
RTVSPost2010Prop31
280
     0
102
RTVSPost2010PropOp31
 70
     1
102
RTVSPost2010Prop32
280
     0
102
RTVSPost2010PropOp32
 70
     1
102
RTVSPost2010Prop33
280
     0
102
RTVSPost2010PropOp33
 70
     1
102
RTVSPost2010Prop34
280
     0
102
RTVSPost2010PropOp34
 70
     1
102
RTVSPost2010Prop35
280
     0
102
RTVSPost2010PropOp35
 70
     1
102
RTVSPost2010Prop36
280
     0
102
RTVSPost2010PropOp36
 70
     1
102
RTVSPost2010Prop37
 90
       50
102
RTVSPost2010PropOp37
 70
     1
102
RTVSPost2010Prop38
140
0.0
102
RTVSPost2010PropOp38
 70
     1
102
RTVSPost2010Prop39
140
1.0
102
RTVSPost2010PropOp39
 70
     1
102
RTVSPost2010Prop40
 90
        0
102
RTVSPost2010PropOp40
 70
     1
102
RTVSPost2010Prop41ColorIndex
 90
       18
102
RTVSPost2010Prop41ColorRGB
 90
        0
102
RTVSPost2010PropOp41
 70
     1
102
RTVSPost2010Prop42
 90
       50
102
RTVSPost2010PropOp42
 70
     1
102
RTVSPost2010Prop43
 90
        3
102
RTVSPost2010PropOp43
 70
     1
102
RTVSPost2010Prop44ColorIndex
 90
        5
102
RTVSPost2010Prop44ColorRGB
 90
      255
102
RTVSPost2010PropOp44
 70
     1
102
RTVSPost2010Prop45
280
     0
102
RTVSPost2010PropOp45
 70
     1
102
RTVSPost2010Prop46
 90
       50
102
RTVSPost2010PropOp46
 70
     1
102
RTVSPost2010Prop47
 90
       50
102
RTVSPost2010PropOp47
 70
     1
102
RTVSPost2010Prop48
 90
       50
102
RTVSPost2010PropOp48
 70
     1
102
RTVSPost2010Prop49
280
     0
102
RTVSPost2010PropOp49
 70
     1
102
RTVSPost2010Prop50
 90
       50
102
RTVSPost2010PropOp50
 70
     1
102
RTVSPost2010Prop51ColorIndex
 90
      256
102
RTVSPost2010Prop51ColorRGB
 90
-16777216
102
RTVSPost2010PropOp51
 70
     0
102
RTVSPost2010Prop52
140
1.0
102
RTVSPost2010PropOp52
 70
     0
102
RTVSPost2010Prop53
 90
        2
102
RTVSPost2010PropOp53
 70
     1
102
RTVSPost2010Prop54
  1
strokes_ogs.tif
102
RTVSPost2010PropOp54
 70
     1
102
RTVSPost2010Prop55
280
     0
102
RTVSPost2010PropOp55
 70
     1
102
RTVSPost2010Prop56
140
1.0
102
RTVSPost2010PropOp56
 70
     1
102
RTVSPost2010Prop57
140
1.0
102
RTVSPost2010PropOp57
 70
     1
102
RTVSPropertyOp0
 70
     1
102
RTVSPropertyOp1
 70
     1
102
RTVSPropertyOp2
 70
     1
102
RTVSPropertyOp3
 70
     1
102
RTVSPropertyOp4
 70
     1
102
RTVSPropertyOp5
 70
     1
102
RTVSPropertyOp6
 70
     1
102
RTVSPropertyOp7
 70
     1
102
RTVSPropertyOp8
 70
     1
102
RTVSPropertyOp9
 70
     1
102
RTVSPropertyOp10
 70
     1
102
RTVSPropertyOp11
 70
     1
102
RTVSPropertyOp12
 70
     1
102
RTVSPropertyOp13
 70
     1
102
RTVSPropertyOp14
 70
     1
102
RTVSPropertyOp15
 70
     1
102
RTVSPropertyOp16
 70
     1
102
RTVSPropertyOp17
 70
     1
102
RTVSPropertyOp18
 70
     1
102
RTVSPropertyOp19
 70
     1
102
RTVSPropertyOp20
 70
     1
102
RTVSPropertyOp21
 70
     1
102
RTVSPropertyOp22
 70
     1
102
RTVSPropertyOp23
 70
     1
102
RTVSPropertyOp24
 70
     1
102
RTVSPropertyOp25
 70
     1
102
RTVSPropertyOp26
 70
     1
102
RTVSPropertyOp27
 70
     1
102
RTVSPropertyOp28
 70
     1
102
RTVSPropertyOp29
 70
     1
102
RTVSPropertyOp30
 70
     1
102
RTVSPropertyOp31
 70
     1
102
RTVSPropertyOp32
 70
     1
102
RTVSPropertyOp33
 70
     1
102
RTVSPropertyOp34
 70
     1
102
RTVSPropertyOp35
 70
     1
102
RTVSPropertyOp36
 70
     1
102
RTVSPropertyOp37
 70
     1
102
RTVSPropertyOp38
 70
     1
102
RTVSPropertyOp39
 70
     1
102
RTVSPropertyOp40
 70
     1
102
RTVSPropertyOp41
 70
     1
102
RTVSPropertyOp42
 70
     1
102
RTVSPropertyOp43
 70
     1
102
RTVSPropertyOp44
 70
     1
102
RTVSPropertyOp45
 70
     1
102
RTVSPropertyOp46
 70
     1
102
RTVSPropertyOp47
 70
     1
102
RTVSPropertyOp48
 70
     1
102
RTVSPropertyOp49
 70
     1
102
RTVSPropertyOp50
 70
     1
102
RTVSPropertyOp51
 70
     0
102
RTVSPropertyOp52
 70
     0
102
RTVSPropertyOp53
 70
     1
102
RTVSPropertyOp54
 70
     1
102
RTVSPropertyOp55
 70
     1
102
RTVSPropertyOp56
 70
     1
102
RTVSPropertyOp57
 70
     1
102
RTVSPropertyOp58
 70
     1
102
RTVSPropertyOp59
 70
     1
102
RTVSPropertyOp60
 70
     1
102
RTVSPropertyOp61
 70
     1
102
RTVSPropertyOp62
 70
     1
  0
XRECORD
  5
98F5
102
{ACAD_REACTORS
330
98F4
102
}
330
98F4
100
AcDbXrecord
280
     1
102
RTVSPost2010Prop28
280
     0
102
RTVSPost2010PropOp28
 70
     1
102
RTVSPost2010Prop29
280
     1
102
RTVSPost2010PropOp29
 70
     1
102
RTVSPost2010Prop30
280
     1
102
RTVSPost2010PropOp30
 70
     1
102
RTVSPost2010Prop31
280
     0
102
RTVSPost2010PropOp31
 70
     1
102
RTVSPost2010Prop32
280
     0
102
RTVSPost2010PropOp32
 70
     1
102
RTVSPost2010Prop33
280
     0
102
RTVSPost2010PropOp33
 70
     1
102
RTVSPost2010Prop34
280
     0
102
RTVSPost2010PropOp34
 70
     1
102
RTVSPost2010Prop35
280
     0
102
RTVSPost2010PropOp35
 70
     1
102
RTVSPost2010Prop36
280
     0
102
RTVSPost2010PropOp36
 70
     1
102
RTVSPost2010Prop37
 90
       50
102
RTVSPost2010PropOp37
 70
     1
102
RTVSPost2010Prop38
140
0.0
102
RTVSPost2010PropOp38
 70
     1
102
RTVSPost2010Prop39
140
1.0
102
RTVSPost2010PropOp39
 70
     1
102
RTVSPost2010Prop40
 90
        0
102
RTVSPost2010PropOp40
 70
     1
102
RTVSPost2010Prop41ColorIndex
 90
       18
102
RTVSPost2010Prop41ColorRGB
 90
        0
102
RTVSPost2010PropOp41
 70
     1
102
RTVSPost2010Prop42
 90
       50
102
RTVSPost2010PropOp42
 70
     1
102
RTVSPost2010Prop43
 90
        3
102
RTVSPost2010PropOp43
 70
     1
102
RTVSPost2010Prop44ColorIndex
 90
        5
102
RTVSPost2010Prop44ColorRGB
 90
      255
102
RTVSPost2010PropOp44
 70
     1
102
RTVSPost2010Prop45
280
     0
102
RTVSPost2010PropOp45
 70
     1
102
RTVSPost2010Prop46
 90
       50
102
RTVSPost2010PropOp46
 70
     1
102
RTVSPost2010Prop47
 90
       50
102
RTVSPost2010PropOp47
 70
     1
102
RTVSPost2010Prop48
 90
       50
102
RTVSPost2010PropOp48
 70
     1
102
RTVSPost2010Prop49
280
     0
102
RTVSPost2010PropOp49
 70
     1
102
RTVSPost2010Prop50
 90
       50
102
RTVSPost2010PropOp50
 70
     1
102
RTVSPost2010Prop51ColorIndex
 90
      256
102
RTVSPost2010Prop51ColorRGB
 90
-16777216
102
RTVSPost2010PropOp51
 70
     0
102
RTVSPost2010Prop52
140
1.0
102
RTVSPost2010PropOp52
 70
     0
102
RTVSPost2010Prop53
 90
        2
102
RTVSPost2010PropOp53
 70
     1
102
RTVSPost2010Prop54
  1
strokes_ogs.tif
102
RTVSPost2010PropOp54
 70
     1
102
RTVSPost2010Prop55
280
     0
102
RTVSPost2010PropOp55
 70
     1
102
RTVSPost2010Prop56
140
1.0
102
RTVSPost2010PropOp56
 70
     1
102
RTVSPost2010Prop57
140
1.0
102
RTVSPost2010PropOp57
 70
     1
102
RTVSPropertyOp0
 70
     1
102
RTVSPropertyOp1
 70
     1
102
RTVSPropertyOp2
 70
     1
102
RTVSPropertyOp3
 70
     1
102
RTVSPropertyOp4
 70
     1
102
RTVSPropertyOp5
 70
     1
102
RTVSPropertyOp6
 70
     1
102
RTVSPropertyOp7
 70
     1
102
RTVSPropertyOp8
 70
     1
102
RTVSPropertyOp9
 70
     1
102
RTVSPropertyOp10
 70
     1
102
RTVSPropertyOp11
 70
     1
102
RTVSPropertyOp12
 70
     1
102
RTVSPropertyOp13
 70
     1
102
RTVSPropertyOp14
 70
     1
102
RTVSPropertyOp15
 70
     1
102
RTVSPropertyOp16
 70
     1
102
RTVSPropertyOp17
 70
     1
102
RTVSPropertyOp18
 70
     1
102
RTVSPropertyOp19
 70
     1
102
RTVSPropertyOp20
 70
     1
102
RTVSPropertyOp21
 70
     1
102
RTVSPropertyOp22
 70
     1
102
RTVSPropertyOp23
 70
     1
102
RTVSPropertyOp24
 70
     1
102
RTVSPropertyOp25
 70
     1
102
RTVSPropertyOp26
 70
     1
102
RTVSPropertyOp27
 70
     1
102
RTVSPropertyOp28
 70
     1
102
RTVSPropertyOp29
 70
     1
102
RTVSPropertyOp30
 70
     1
102
RTVSPropertyOp31
 70
     1
102
RTVSPropertyOp32
 70
     1
102
RTVSPropertyOp33
 70
     1
102
RTVSPropertyOp34
 70
     1
102
RTVSPropertyOp35
 70
     1
102
RTVSPropertyOp36
 70
     1
102
RTVSPropertyOp37
 70
     1
102
RTVSPropertyOp38
 70
     1
102
RTVSPropertyOp39
 70
     1
102
RTVSPropertyOp40
 70
     1
102
RTVSPropertyOp41
 70
     1
102
RTVSPropertyOp42
 70
     1
102
RTVSPropertyOp43
 70
     1
102
RTVSPropertyOp44
 70
     1
102
RTVSPropertyOp45
 70
     1
102
RTVSPropertyOp46
 70
     1
102
RTVSPropertyOp47
 70
     1
102
RTVSPropertyOp48
 70
     1
102
RTVSPropertyOp49
 70
     1
102
RTVSPropertyOp50
 70
     1
102
RTVSPropertyOp51
 70
     0
102
RTVSPropertyOp52
 70
     0
102
RTVSPropertyOp53
 70
     1
102
RTVSPropertyOp54
 70
     1
102
RTVSPropertyOp55
 70
     1
102
RTVSPropertyOp56
 70
     1
102
RTVSPropertyOp57
 70
     1
102
RTVSPropertyOp58
 70
     1
102
RTVSPropertyOp59
 70
     1
102
RTVSPropertyOp60
 70
     1
102
RTVSPropertyOp61
 70
     1
102
RTVSPropertyOp62
 70
     1
  0
XRECORD
  5
98E9
102
{ACAD_REACTORS
330
98E8
102
}
330
98E8
100
AcDbXrecord
280
     1
102
RTVSPost2010Prop28
280
     0
102
RTVSPost2010PropOp28
 70
     1
102
RTVSPost2010Prop29
280
     1
102
RTVSPost2010PropOp29
 70
     1
102
RTVSPost2010Prop30
280
     1
102
RTVSPost2010PropOp30
 70
     1
102
RTVSPost2010Prop31
280
     0
102
RTVSPost2010PropOp31
 70
     1
102
RTVSPost2010Prop32
280
     0
102
RTVSPost2010PropOp32
 70
     1
102
RTVSPost2010Prop33
280
     0
102
RTVSPost2010PropOp33
 70
     1
102
RTVSPost2010Prop34
280
     0
102
RTVSPost2010PropOp34
 70
     1
102
RTVSPost2010Prop35
280
     0
102
RTVSPost2010PropOp35
 70
     1
102
RTVSPost2010Prop36
280
     0
102
RTVSPost2010PropOp36
 70
     1
102
RTVSPost2010Prop37
 90
       50
102
RTVSPost2010PropOp37
 70
     1
102
RTVSPost2010Prop38
140
0.0
102
RTVSPost2010PropOp38
 70
     1
102
RTVSPost2010Prop39
140
1.0
102
RTVSPost2010PropOp39
 70
     1
102
RTVSPost2010Prop40
 90
        0
102
RTVSPost2010PropOp40
 70
     1
102
RTVSPost2010Prop41ColorIndex
 90
       18
102
RTVSPost2010Prop41ColorRGB
 90
        0
102
RTVSPost2010PropOp41
 70
     1
102
RTVSPost2010Prop42
 90
       50
102
RTVSPost2010PropOp42
 70
     1
102
RTVSPost2010Prop43
 90
        3
102
RTVSPost2010PropOp43
 70
     1
102
RTVSPost2010Prop44ColorIndex
 90
        5
102
RTVSPost2010Prop44ColorRGB
 90
      255
102
RTVSPost2010PropOp44
 70
     1
102
RTVSPost2010Prop45
280
     0
102
RTVSPost2010PropOp45
 70
     1
102
RTVSPost2010Prop46
 90
       50
102
RTVSPost2010PropOp46
 70
     1
102
RTVSPost2010Prop47
 90
       50
102
RTVSPost2010PropOp47
 70
     1
102
RTVSPost2010Prop48
 90
       50
102
RTVSPost2010PropOp48
 70
     1
102
RTVSPost2010Prop49
280
     0
102
RTVSPost2010PropOp49
 70
     1
102
RTVSPost2010Prop50
 90
       50
102
RTVSPost2010PropOp50
 70
     1
102
RTVSPost2010Prop51ColorIndex
 90
      256
102
RTVSPost2010Prop51ColorRGB
 90
-16777216
102
RTVSPost2010PropOp51
 70
     0
102
RTVSPost2010Prop52
140
1.0
102
RTVSPost2010PropOp52
 70
     0
102
RTVSPost2010Prop53
 90
        2
102
RTVSPost2010PropOp53
 70
     1
102
RTVSPost2010Prop54
  1
strokes_ogs.tif
102
RTVSPost2010PropOp54
 70
     1
102
RTVSPost2010Prop55
280
     0
102
RTVSPost2010PropOp55
 70
     1
102
RTVSPost2010Prop56
140
1.0
102
RTVSPost2010PropOp56
 70
     1
102
RTVSPost2010Prop57
140
1.0
102
RTVSPost2010PropOp57
 70
     1
102
RTVSPropertyOp0
 70
     1
102
RTVSPropertyOp1
 70
     1
102
RTVSPropertyOp2
 70
     1
102
RTVSPropertyOp3
 70
     1
102
RTVSPropertyOp4
 70
     1
102
RTVSPropertyOp5
 70
     1
102
RTVSPropertyOp6
 70
     1
102
RTVSPropertyOp7
 70
     1
102
RTVSPropertyOp8
 70
     1
102
RTVSPropertyOp9
 70
     1
102
RTVSPropertyOp10
 70
     1
102
RTVSPropertyOp11
 70
     1
102
RTVSPropertyOp12
 70
     1
102
RTVSPropertyOp13
 70
     1
102
RTVSPropertyOp14
 70
     1
102
RTVSPropertyOp15
 70
     1
102
RTVSPropertyOp16
 70
     1
102
RTVSPropertyOp17
 70
     1
102
RTVSPropertyOp18
 70
     1
102
RTVSPropertyOp19
 70
     1
102
RTVSPropertyOp20
 70
     1
102
RTVSPropertyOp21
 70
     1
102
RTVSPropertyOp22
 70
     1
102
RTVSPropertyOp23
 70
     1
102
RTVSPropertyOp24
 70
     1
102
RTVSPropertyOp25
 70
     1
102
RTVSPropertyOp26
 70
     1
102
RTVSPropertyOp27
 70
     1
102
RTVSPropertyOp28
 70
     1
102
RTVSPropertyOp29
 70
     1
102
RTVSPropertyOp30
 70
     1
102
RTVSPropertyOp31
 70
     1
102
RTVSPropertyOp32
 70
     1
102
RTVSPropertyOp33
 70
     1
102
RTVSPropertyOp34
 70
     1
102
RTVSPropertyOp35
 70
     1
102
RTVSPropertyOp36
 70
     1
102
RTVSPropertyOp37
 70
     1
102
RTVSPropertyOp38
 70
     1
102
RTVSPropertyOp39
 70
     1
102
RTVSPropertyOp40
 70
     1
102
RTVSPropertyOp41
 70
     1
102
RTVSPropertyOp42
 70
     1
102
RTVSPropertyOp43
 70
     1
102
RTVSPropertyOp44
 70
     1
102
RTVSPropertyOp45
 70
     1
102
RTVSPropertyOp46
 70
     1
102
RTVSPropertyOp47
 70
     1
102
RTVSPropertyOp48
 70
     1
102
RTVSPropertyOp49
 70
     1
102
RTVSPropertyOp50
 70
     1
102
RTVSPropertyOp51
 70
     0
102
RTVSPropertyOp52
 70
     0
102
RTVSPropertyOp53
 70
     1
102
RTVSPropertyOp54
 70
     1
102
RTVSPropertyOp55
 70
     1
102
RTVSPropertyOp56
 70
     1
102
RTVSPropertyOp57
 70
     1
102
RTVSPropertyOp58
 70
     1
102
RTVSPropertyOp59
 70
     1
102
RTVSPropertyOp60
 70
     1
102
RTVSPropertyOp61
 70
     1
102
RTVSPropertyOp62
 70
     1
  0
XRECORD
  5
9901
102
{ACAD_REACTORS
330
9900
102
}
330
9900
100
AcDbXrecord
280
     1
102
RTVSPost2010Prop28
280
     0
102
RTVSPost2010PropOp28
 70
     1
102
RTVSPost2010Prop29
280
     1
102
RTVSPost2010PropOp29
 70
     1
102
RTVSPost2010Prop30
280
     1
102
RTVSPost2010PropOp30
 70
     1
102
RTVSPost2010Prop31
280
     0
102
RTVSPost2010PropOp31
 70
     1
102
RTVSPost2010Prop32
280
     0
102
RTVSPost2010PropOp32
 70
     1
102
RTVSPost2010Prop33
280
     0
102
RTVSPost2010PropOp33
 70
     1
102
RTVSPost2010Prop34
280
     0
102
RTVSPost2010PropOp34
 70
     1
102
RTVSPost2010Prop35
280
     0
102
RTVSPost2010PropOp35
 70
     1
102
RTVSPost2010Prop36
280
     0
102
RTVSPost2010PropOp36
 70
     1
102
RTVSPost2010Prop37
 90
       50
102
RTVSPost2010PropOp37
 70
     1
102
RTVSPost2010Prop38
140
0.0
102
RTVSPost2010PropOp38
 70
     1
102
RTVSPost2010Prop39
140
1.0
102
RTVSPost2010PropOp39
 70
     1
102
RTVSPost2010Prop40
 90
        0
102
RTVSPost2010PropOp40
 70
     1
102
RTVSPost2010Prop41ColorIndex
 90
       18
102
RTVSPost2010Prop41ColorRGB
 90
        0
102
RTVSPost2010PropOp41
 70
     1
102
RTVSPost2010Prop42
 90
       50
102
RTVSPost2010PropOp42
 70
     1
102
RTVSPost2010Prop43
 90
        3
102
RTVSPost2010PropOp43
 70
     1
102
RTVSPost2010Prop44ColorIndex
 90
        5
102
RTVSPost2010Prop44ColorRGB
 90
      255
102
RTVSPost2010PropOp44
 70
     1
102
RTVSPost2010Prop45
280
     0
102
RTVSPost2010PropOp45
 70
     1
102
RTVSPost2010Prop46
 90
       50
102
RTVSPost2010PropOp46
 70
     1
102
RTVSPost2010Prop47
 90
       50
102
RTVSPost2010PropOp47
 70
     1
102
RTVSPost2010Prop48
 90
       50
102
RTVSPost2010PropOp48
 70
     1
102
RTVSPost2010Prop49
280
     0
102
RTVSPost2010PropOp49
 70
     1
102
RTVSPost2010Prop50
 90
       50
102
RTVSPost2010PropOp50
 70
     1
102
RTVSPost2010Prop51ColorIndex
 90
      256
102
RTVSPost2010Prop51ColorRGB
 90
-16777216
102
RTVSPost2010PropOp51
 70
     0
102
RTVSPost2010Prop52
140
1.0
102
RTVSPost2010PropOp52
 70
     0
102
RTVSPost2010Prop53
 90
        2
102
RTVSPost2010PropOp53
 70
     1
102
RTVSPost2010Prop54
  1
strokes_ogs.tif
102
RTVSPost2010PropOp54
 70
     1
102
RTVSPost2010Prop55
280
     0
102
RTVSPost2010PropOp55
 70
     1
102
RTVSPost2010Prop56
140
1.0
102
RTVSPost2010PropOp56
 70
     1
102
RTVSPost2010Prop57
140
1.0
102
RTVSPost2010PropOp57
 70
     1
102
RTVSPropertyOp0
 70
     1
102
RTVSPropertyOp1
 70
     1
102
RTVSPropertyOp2
 70
     1
102
RTVSPropertyOp3
 70
     1
102
RTVSPropertyOp4
 70
     1
102
RTVSPropertyOp5
 70
     1
102
RTVSPropertyOp6
 70
     1
102
RTVSPropertyOp7
 70
     1
102
RTVSPropertyOp8
 70
     1
102
RTVSPropertyOp9
 70
     1
102
RTVSPropertyOp10
 70
     1
102
RTVSPropertyOp11
 70
     1
102
RTVSPropertyOp12
 70
     1
102
RTVSPropertyOp13
 70
     1
102
RTVSPropertyOp14
 70
     1
102
RTVSPropertyOp15
 70
     1
102
RTVSPropertyOp16
 70
     1
102
RTVSPropertyOp17
 70
     1
102
RTVSPropertyOp18
 70
     1
102
RTVSPropertyOp19
 70
     1
102
RTVSPropertyOp20
 70
     1
102
RTVSPropertyOp21
 70
     1
102
RTVSPropertyOp22
 70
     1
102
RTVSPropertyOp23
 70
     1
102
RTVSPropertyOp24
 70
     1
102
RTVSPropertyOp25
 70
     1
102
RTVSPropertyOp26
 70
     1
102
RTVSPropertyOp27
 70
     1
102
RTVSPropertyOp28
 70
     1
102
RTVSPropertyOp29
 70
     1
102
RTVSPropertyOp30
 70
     1
102
RTVSPropertyOp31
 70
     1
102
RTVSPropertyOp32
 70
     1
102
RTVSPropertyOp33
 70
     1
102
RTVSPropertyOp34
 70
     1
102
RTVSPropertyOp35
 70
     1
102
RTVSPropertyOp36
 70
     1
102
RTVSPropertyOp37
 70
     1
102
RTVSPropertyOp38
 70
     1
102
RTVSPropertyOp39
 70
     1
102
RTVSPropertyOp40
 70
     1
102
RTVSPropertyOp41
 70
     1
102
RTVSPropertyOp42
 70
     1
102
RTVSPropertyOp43
 70
     1
102
RTVSPropertyOp44
 70
     1
102
RTVSPropertyOp45
 70
     1
102
RTVSPropertyOp46
 70
     1
102
RTVSPropertyOp47
 70
     1
102
RTVSPropertyOp48
 70
     1
102
RTVSPropertyOp49
 70
     1
102
RTVSPropertyOp50
 70
     1
102
RTVSPropertyOp51
 70
     0
102
RTVSPropertyOp52
 70
     0
102
RTVSPropertyOp53
 70
     1
102
RTVSPropertyOp54
 70
     1
102
RTVSPropertyOp55
 70
     1
102
RTVSPropertyOp56
 70
     1
102
RTVSPropertyOp57
 70
     1
102
RTVSPropertyOp58
 70
     1
102
RTVSPropertyOp59
 70
     1
102
RTVSPropertyOp60
 70
     1
102
RTVSPropertyOp61
 70
     1
102
RTVSPropertyOp62
 70
     1
  0
ENDSEC
  0
EOF
