  0
SECTION
  2
HEADER
  9
$ACADVER
  1
AC1015
  9
$ACADMAINTVER
 70
    20
  9
$DWGCODEPAGE
  3
ANSI_932
  9
$INSBASE
 10
0.0
 20
0.0
 30
0.0
  9
$EXTMIN
 10
9.999997999999999
 20
10.000001
 30
0.0
  9
$EXTMAX
 10
789.3468
 20
515.423449
 30
0.0
  9
$LIMMIN
 10
0.000002
 20
0.0
  9
$LIMMAX
 10
792.0000019999997
 20
546.0
  9
$ORTHOMODE
 70
     1
  9
$REGENMODE
 70
     1
  9
$FILLMODE
 70
     1
  9
$QTEXTMODE
 70
     0
  9
$MIRRTEXT
 70
     1
  9
$LTSCALE
 40
1.0
  9
$ATTMODE
 70
     1
  9
$TEXTSIZE
 40
2.5
  9
$TRACEWID
 40
1.0
  9
$TEXTSTYLE
  7
STANDARD
  9
$CLAYER
  8
0
  9
$CELTYPE
  6
BYLAYER
  9
$CECOLOR
 62
   256
  9
$CELTSCALE
 40
1.0
  9
$DISPSILH
 70
     0
  9
$DIMSCALE
 40
1.0
  9
$DIMASZ
 40
3.0
  9
$DIMEXO
 40
1.0
  9
$DIMDLI
 40
10.0
  9
$DIMRND
 40
0.0
  9
$DIMDLE
 40
0.0
  9
$DIMEXE
 40
1.0
  9
$DIMTP
 40
0.0
  9
$DIMTM
 40
0.0
  9
$DIMTXT
 40
3.2
  9
$DIMCEN
 40
0.0
  9
$DIMTSZ
 40
0.0
  9
$DIMTOL
 70
     0
  9
$DIMLIM
 70
     0
  9
$DIMTIH
 70
     0
  9
$DIMTOH
 70
     0
  9
$DIMSE1
 70
     0
  9
$DIMSE2
 70
     0
  9
$DIMTAD
 70
     3
  9
$DIMZIN
 70
     8
  9
$DIMBLK
  1

  9
$DIMASO
 70
     1
  9
$DIMSHO
 70
     1
  9
$DIMPOST
  1

  9
$DIMAPOST
  1

  9
$DIMALT
 70
     0
  9
$DIMALTD
 70
     2
  9
$DIMALTF
 40
25.4
  9
$DIMLFAC
 40
1.0
  9
$DIMTOFL
 70
     1
  9
$DIMTVP
 40
0.0
  9
$DIMTIX
 70
     0
  9
$DIMSOXD
 70
     0
  9
$DIMSAH
 70
     1
  9
$DIMBLK1
  1
OPEN
  9
$DIMBLK2
  1
OPEN
  9
$DIMSTYLE
  2
STANDARD
  9
$DIMCLRD
 70
     0
  9
$DIMCLRE
 70
     0
  9
$DIMCLRT
 70
     0
  9
$DIMTFAC
 40
1.0
  9
$DIMGAP
 40
1.0
  9
$DIMJUST
 70
     0
  9
$DIMSD1
 70
     0
  9
$DIMSD2
 70
     0
  9
$DIMTOLJ
 70
     1
  9
$DIMTZIN
 70
     0
  9
$DIMALTZ
 70
     0
  9
$DIMALTTZ
 70
     0
  9
$DIMUPT
 70
     0
  9
$DIMDEC
 70
     4
  9
$DIMTDEC
 70
     4
  9
$DIMALTU
 70
     2
  9
$DIMALTTD
 70
     2
  9
$DIMTXSTY
  7
STANDARD
  9
$DIMAUNIT
 70
     0
  9
$DIMADEC
 70
     0
  9
$DIMALTRND
 40
0.0
  9
$DIMAZIN
 70
     0
  9
$DIMDSEP
 70
    46
  9
$DIMATFIT
 70
     3
  9
$DIMFRAC
 70
     0
  9
$DIMLDRBLK
  1
OPEN
  9
$DIMLUNIT
 70
     2
  9
$DIMLWD
 70
    -2
  9
$DIMLWE
 70
    -2
  9
$DIMTMOVE
 70
     0
  9
$LUNITS
 70
     2
  9
$LUPREC
 70
     4
  9
$SKETCHINC
 40
1.0
  9
$FILLETRAD
 40
0.0
  9
$AUNITS
 70
     0
  9
$AUPREC
 70
     0
  9
$MENU
  1
.
  9
$ELEVATION
 40
0.0
  9
$PELEVATION
 40
0.0
  9
$THICKNESS
 40
0.0
  9
$LIMCHECK
 70
     0
  9
$CHAMFERA
 40
10.0
  9
$CHAMFERB
 40
10.0
  9
$CHAMFERC
 40
0.0
  9
$CHAMFERD
 40
0.0
  9
$SKPOLY
 70
     0
  9
$TDCREATE
 40
2451640.697390995
  9
$TDUCREATE
 40
2451640.322390995
  9
$TDUPDATE
 40
2457192.642570116
  9
$TDUUPDATE
 40
2457192.267570116
  9
$TDINDWG
 40
0.2131936574
  9
$TDUSRTIMER
 40
0.2131933333
  9
$USRTIMER
 70
     1
  9
$ANGBASE
 50
0.0
  9
$ANGDIR
 70
     0
  9
$PDMODE
 70
     0
  9
$PDSIZE
 40
0.0
  9
$PLINEWID
 40
0.0
  9
$SPLFRAME
 70
     0
  9
$SPLINETYPE
 70
     6
  9
$SPLINESEGS
 70
     8
  9
$HANDSEED
  5
3D60
  9
$SURFTAB1
 70
     6
  9
$SURFTAB2
 70
     6
  9
$SURFTYPE
 70
     6
  9
$SURFU
 70
     6
  9
$SURFV
 70
     6
  9
$UCSBASE
  2

  9
$UCSNAME
  2

  9
$UCSORG
 10
0.0
 20
0.0
 30
0.0
  9
$UCSXDIR
 10
1.0
 20
0.0
 30
0.0
  9
$UCSYDIR
 10
0.0
 20
1.0
 30
0.0
  9
$UCSORTHOREF
  2

  9
$UCSORTHOVIEW
 70
     0
  9
$UCSORGTOP
 10
0.0
 20
0.0
 30
0.0
  9
$UCSORGBOTTOM
 10
0.0
 20
0.0
 30
0.0
  9
$UCSORGLEFT
 10
0.0
 20
0.0
 30
0.0
  9
$UCSORGRIGHT
 10
0.0
 20
0.0
 30
0.0
  9
$UCSORGFRONT
 10
0.0
 20
0.0
 30
0.0
  9
$UCSORGBACK
 10
0.0
 20
0.0
 30
0.0
  9
$PUCSBASE
  2

  9
$PUCSNAME
  2

  9
$PUCSORG
 10
0.0
 20
0.0
 30
0.0
  9
$PUCSXDIR
 10
1.0
 20
0.0
 30
0.0
  9
$PUCSYDIR
 10
0.0
 20
1.0
 30
0.0
  9
$PUCSORTHOREF
  2

  9
$PUCSORTHOVIEW
 70
     0
  9
$PUCSORGTOP
 10
0.0
 20
0.0
 30
0.0
  9
$PUCSORGBOTTOM
 10
0.0
 20
0.0
 30
0.0
  9
$PUCSORGLEFT
 10
0.0
 20
0.0
 30
0.0
  9
$PUCSORGRIGHT
 10
0.0
 20
0.0
 30
0.0
  9
$PUCSORGFRONT
 10
0.0
 20
0.0
 30
0.0
  9
$PUCSORGBACK
 10
0.0
 20
0.0
 30
0.0
  9
$USERI1
 70
     0
  9
$USERI2
 70
     0
  9
$USERI3
 70
     0
  9
$USERI4
 70
     0
  9
$USERI5
 70
     0
  9
$USERR1
 40
0.0
  9
$USERR2
 40
0.0
  9
$USERR3
 40
0.0
  9
$USERR4
 40
0.0
  9
$USERR5
 40
0.0
  9
$WORLDVIEW
 70
     1
  9
$SHADEDGE
 70
     3
  9
$SHADEDIF
 70
    70
  9
$TILEMODE
 70
     1
  9
$MAXACTVP
 70
    48
  9
$PINSBASE
 10
0.0
 20
0.0
 30
0.0
  9
$PLIMCHECK
 70
     0
  9
$PEXTMIN
 10
1.000000000000000E+20
 20
1.000000000000000E+20
 30
1.000000000000000E+20
  9
$PEXTMAX
 10
-1.000000000000000E+20
 20
-1.000000000000000E+20
 30
-1.000000000000000E+20
  9
$PLIMMIN
 10
0.0
 20
0.0
  9
$PLIMMAX
 10
420.0
 20
297.0
  9
$UNITMODE
 70
     0
  9
$VISRETAIN
 70
     1
  9
$PLINEGEN
 70
     0
  9
$PSLTSCALE
 70
     1
  9
$TREEDEPTH
 70
  3020
  9
$CMLSTYLE
  2
STANDARD
  9
$CMLJUST
 70
     0
  9
$CMLSCALE
 40
1.0
  9
$PROXYGRAPHICS
 70
     1
  9
$MEASUREMENT
 70
     0
  9
$CELWEIGHT
370
    -1
  9
$ENDCAPS
280
     0
  9
$JOINSTYLE
280
     0
  9
$LWDISPLAY
290
     0
  9
$INSUNITS
 70
     0
  9
$HYPERLINKBASE
  1

  9
$STYLESHEET
  1

  9
$XEDIT
290
     1
  9
$CEPSNTYPE
380
     0
  9
$PSTYLEMODE
290
     1
  9
$FINGERPRINTGUID
  2
{3A8735FD-D186-4F8A-9450-9050F9DBF739}
  9
$VERSIONGUID
  2
{39911CEF-5EED-46CE-B8FD-220D8536328A}
  9
$EXTNAMES
290
     1
  9
$PSVPSCALE
 40
0.0
  9
$OLESTARTUP
290
     0
  0
ENDSEC
  0
SECTION
  2
CLASSES
  0
CLASS
  1
ACDBDICTIONARYWDFLT
  2
AcDbDictionaryWithDefault
  3
ObjectDBX Classes
 90
        0
280
     0
281
     0
  0
CLASS
  1
ACDBPLACEHOLDER
  2
AcDbPlaceHolder
  3
ObjectDBX Classes
 90
        0
280
     0
281
     0
  0
CLASS
  1
LAYOUT
  2
AcDbLayout
  3
ObjectDBX Classes
 90
        0
280
     0
281
     0
  0
CLASS
  1
DICTIONARYVAR
  2
AcDbDictionaryVar
  3
ObjectDBX Classes
 90
        0
280
     0
281
     0
  0
CLASS
  1
MATERIAL
  2
AcDbMaterial
  3
ObjectDBX Classes
 90
     1153
280
     0
281
     0
  0
CLASS
  1
VISUALSTYLE
  2
AcDbVisualStyle
  3
ObjectDBX Classes
 90
     4095
280
     0
281
     0
  0
CLASS
  1
TABLESTYLE
  2
AcDbTableStyle
  3
ObjectDBX Classes
 90
     4095
280
     0
281
     0
  0
CLASS
  1
SCALE
  2
AcDbScale
  3
ObjectDBX Classes
 90
     1153
280
     0
281
     0
  0
CLASS
  1
MLEADERSTYLE
  2
AcDbMLeaderStyle
  3
ACDB_MLEADERSTYLE_CLASS
 90
     4095
280
     0
281
     0
  0
CLASS
  1
ACDBSECTIONVIEWSTYLE
  2
AcDbSectionViewStyle
  3
ObjectDBX Classes
 90
     1025
280
     0
281
     0
  0
CLASS
  1
ACDBDETAILVIEWSTYLE
  2
AcDbDetailViewStyle
  3
ObjectDBX Classes
 90
     1025
280
     0
281
     0
  0
CLASS
  1
CELLSTYLEMAP
  2
AcDbCellStyleMap
  3
ObjectDBX Classes
 90
     1152
280
     0
281
     0
  0
ENDSEC
  0
SECTION
  2
TABLES
  0
TABLE
  2
VPORT
  5
3781
330
0
100
AcDbSymbolTable
 70
     1
  0
VPORT
  5
3CAB
330
3781
100
AcDbSymbolTableRecord
100
AcDbViewportTableRecord
  2
*ACTIVE
 70
     0
 10
0.0
 20
0.0
 11
1.0
 21
1.0
 12
562.1013197485666
 22
262.7108472065426
 13
0.0
 23
0.0
 14
10.0
 24
10.0
 15
10.0
 25
10.0
 16
0.0
 26
0.0
 36
1.0
 17
0.0
 27
0.0
 37
0.0
 40
510.3494375729592
 41
1.899603698811096
 42
50.0
 43
0.0
 44
0.0
 50
0.0
 51
0.0
 71
     0
 72
   100
 73
     1
 74
     0
 75
     0
 76
     0
 77
     0
 78
     0
281
     0
 65
     1
110
0.0
120
0.0
130
0.0
111
1.0
121
0.0
131
0.0
112
0.0
122
1.0
132
0.0
 79
     0
146
0.0
1001
ACAD_NAV_VCDISPLAY
1070
     3
  0
ENDTAB
  0
TABLE
  2
LTYPE
  5
377E
330
0
100
AcDbSymbolTable
 70
     4
  0
LTYPE
  5
378C
330
377E
100
AcDbSymbolTableRecord
100
AcDbLinetypeTableRecord
  2
BYBLOCK
 70
     0
  3

 72
    65
 73
     0
 40
0.0
  0
LTYPE
  5
378D
330
377E
100
AcDbSymbolTableRecord
100
AcDbLinetypeTableRecord
  2
BYLAYER
 70
     0
  3

 72
    65
 73
     0
 40
0.0
  0
LTYPE
  5
378E
330
377E
100
AcDbSymbolTableRecord
100
AcDbLinetypeTableRecord
  2
CONTINUOUS
 70
     0
  3
Solid line
 72
    65
 73
     0
 40
0.0
  0
LTYPE
  5
379C
330
377E
100
AcDbSymbolTableRecord
100
AcDbLinetypeTableRecord
  2
DASHED
 70
     0
  3
Dashed __ __ __ __ __ __ __ __ __ __ __ __ __ _
 72
    65
 73
     2
 40
19.05
 49
12.7
 74
     0
 49
-6.349999999999997
 74
     0
  0
LTYPE
  5
379D
330
377E
100
AcDbSymbolTableRecord
100
AcDbLinetypeTableRecord
  2
CENTER
 70
     0
  3
Center ____ _ ____ _ ____ _ ____ _ ____ _ ____
 72
    65
 73
     4
 40
50.8
 49
31.75
 74
     0
 49
-6.349999999999997
 74
     0
 49
6.349999999999997
 74
     0
 49
-6.349999999999997
 74
     0
  0
LTYPE
  5
379E
330
377E
100
AcDbSymbolTableRecord
100
AcDbLinetypeTableRecord
  2
PHANTOM
 70
     0
  3
Phantom ______  __  __  ______  __  __  ______
 72
    65
 73
     6
 40
63.5
 49
31.75
 74
     0
 49
-6.349999999999997
 74
     0
 49
6.349999999999997
 74
     0
 49
-6.349999999999997
 74
     0
 49
6.349999999999997
 74
     0
 49
-6.349999999999997
 74
     0
  0
ENDTAB
  0
TABLE
  2
LAYER
  5
377B
330
0
100
AcDbSymbolTable
 70
     8
  0
LAYER
  5
3789
102
{ACAD_XDICTIONARY
360
3D04
102
}
330
377B
100
AcDbSymbolTableRecord
100
AcDbLayerTableRecord
  2
0
 70
     0
 62
     7
  6
CONTINUOUS
370
    -3
390
3CB2
  0
LAYER
  5
379F
102
{ACAD_XDICTIONARY
360
3D06
102
}
330
377B
100
AcDbSymbolTableRecord
100
AcDbLayerTableRecord
  2
4
 70
     0
 62
     1
  6
CENTER
370
    -3
390
3CB2
  0
LAYER
  5
37A0
102
{ACAD_XDICTIONARY
360
3D08
102
}
330
377B
100
AcDbSymbolTableRecord
100
AcDbLayerTableRecord
  2
5
 70
     0
 62
     6
  6
PHANTOM
370
    -3
390
3CB2
  0
LAYER
  5
37A1
102
{ACAD_XDICTIONARY
360
3D0A
102
}
330
377B
100
AcDbSymbolTableRecord
100
AcDbLayerTableRecord
  2
1
 70
     0
 62
     7
  6
CONTINUOUS
370
    -3
390
3CB2
  0
LAYER
  5
37A2
102
{ACAD_XDICTIONARY
360
3D0C
102
}
330
377B
100
AcDbSymbolTableRecord
100
AcDbLayerTableRecord
  2
2
 70
     0
 62
     4
  6
CONTINUOUS
370
    -3
390
3CB2
  0
LAYER
  5
37A3
102
{ACAD_XDICTIONARY
360
3D0E
102
}
330
377B
100
AcDbSymbolTableRecord
100
AcDbLayerTableRecord
  2
3
 70
     0
 62
     2
  6
DASHED
370
    -3
390
3CB2
  0
LAYER
  5
37A4
102
{ACAD_XDICTIONARY
360
3D10
102
}
330
377B
100
AcDbSymbolTableRecord
100
AcDbLayerTableRecord
  2
6
 70
     0
 62
     5
  6
CONTINUOUS
370
    -3
390
3CB2
  0
LAYER
  5
37A5
102
{ACAD_XDICTIONARY
360
3D12
102
}
330
377B
100
AcDbSymbolTableRecord
100
AcDbLayerTableRecord
  2
7
 70
     0
 62
     3
  6
CONTINUOUS
370
    -3
390
3CB2
  0
ENDTAB
  0
TABLE
  2
STYLE
  5
377C
330
0
100
AcDbSymbolTable
 70
     1
  0
STYLE
  5
378A
330
377C
100
AcDbSymbolTableRecord
100
AcDbTextStyleTableRecord
  2
STANDARD
 70
     0
 40
0.0
 41
1.0
 50
0.0
 71
     0
 42
2.5
  3
txt
  4

  0
ENDTAB
  0
TABLE
  2
VIEW
  5
377F
330
0
100
AcDbSymbolTable
 70
     0
  0
ENDTAB
  0
TABLE
  2
UCS
  5
3780
330
0
100
AcDbSymbolTable
 70
     0
  0
ENDTAB
  0
TABLE
  2
APPID
  5
3782
330
0
100
AcDbSymbolTable
 70
     7
  0
APPID
  5
378B
330
3782
100
AcDbSymbolTableRecord
100
AcDbRegAppTableRecord
  2
ACAD
 70
     0
  0
APPID
  5
37A6
330
3782
100
AcDbSymbolTableRecord
100
AcDbRegAppTableRecord
  2
CONTENTTABDATA
 70
     0
  0
APPID
  5
37A7
330
3782
100
AcDbSymbolTableRecord
100
AcDbRegAppTableRecord
  2
CONTENTCURRENTTAB
 70
     0
  0
APPID
  5
37A8
330
3782
100
AcDbSymbolTableRecord
100
AcDbRegAppTableRecord
  2
CONTENTBLOCKDESCRIPTION
 70
     0
  0
APPID
  5
37A9
330
3782
100
AcDbSymbolTableRecord
100
AcDbRegAppTableRecord
  2
CONTENTBLOCKICON
 70
     0
  0
APPID
  5
3D1E
330
3782
100
AcDbSymbolTableRecord
100
AcDbRegAppTableRecord
  2
ACAD_NAV_VCDISPLAY
 70
     0
  0
APPID
  5
3D57
330
3782
100
AcDbSymbolTableRecord
100
AcDbRegAppTableRecord
  2
ACAD_MLEADERVER
 70
     0
  0
ENDTAB
  0
TABLE
  2
DIMSTYLE
  5
3783
330
0
100
AcDbSymbolTable
 70
     1
100
AcDbDimStyleTable
 71
     0
  0
DIMSTYLE
105
37AA
330
3783
100
AcDbSymbolTableRecord
100
AcDbDimStyleTableRecord
  2
STANDARD
 70
     0
 41
3.0
 42
1.0
 43
10.0
 44
1.0
 73
     0
 74
     0
 77
     3
 78
     8
140
3.2
141
0.0
147
1.0
172
     1
173
     1
284
     8
285
     8
286
     8
340
378A
  0
ENDTAB
  0
TABLE
  2
BLOCK_RECORD
  5
377A
330
0
100
AcDbSymbolTable
 70
     1
  0
BLOCK_RECORD
  5
3797
102
{ACAD_XDICTIONARY
360
3BBC
102
}
330
377A
100
AcDbSymbolTableRecord
100
AcDbBlockTableRecord
  2
*MODEL_SPACE
340
3D00
  0
BLOCK_RECORD
  5
3793
102
{ACAD_XDICTIONARY
360
3BBA
102
}
330
377A
100
AcDbSymbolTableRecord
100
AcDbBlockTableRecord
  2
*PAPER_SPACE
340
3D01
  0
BLOCK_RECORD
  5
37B2
330
377A
100
AcDbSymbolTableRecord
100
AcDbBlockTableRecord
  2
_OPEN
340
0
  0
ENDTAB
  0
ENDSEC
  0
SECTION
  2
BLOCKS
  0
BLOCK
  5
3798
330
3797
100
AcDbEntity
  8
0
100
AcDbBlockBegin
  2
*MODEL_SPACE
 70
     0
 10
0.0
 20
0.0
 30
0.0
  3
*MODEL_SPACE
  1

  0
ENDBLK
  5
3799
330
3797
100
AcDbEntity
  8
0
100
AcDbBlockEnd
  0
BLOCK
  5
3794
330
3793
100
AcDbEntity
 67
     1
  8
0
100
AcDbBlockBegin
  2
*PAPER_SPACE
 70
     0
 10
0.0
 20
0.0
 30
0.0
  3
*PAPER_SPACE
  1

  0
ENDBLK
  5
3795
330
3793
100
AcDbEntity
 67
     1
  8
0
100
AcDbBlockEnd
  0
BLOCK
  5
37B3
330
37B2
100
AcDbEntity
  8
0
100
AcDbBlockBegin
  2
_OPEN
 70
     0
 10
0.0
 20
0.0
 30
0.0
  3
_OPEN
  1

  0
LINE
  5
37B4
330
37B2
100
AcDbEntity
  8
0
  6
ByBlock
 62
     0
100
AcDbLine
 10
-1.0
 20
0.166667
 30
0.0
 11
0.0
 21
0.0
 31
0.0
  0
LINE
  5
37B5
330
37B2
100
AcDbEntity
  8
0
  6
ByBlock
 62
     0
100
AcDbLine
 10
0.0
 20
0.0
 30
0.0
 11
-1.0
 21
-0.166667
 31
0.0
  0
LINE
  5
37B6
330
37B2
100
AcDbEntity
  8
0
  6
ByBlock
 62
     0
100
AcDbLine
 10
0.0
 20
0.0
 30
0.0
 11
-1.0
 21
0.0
 31
0.0
  0
ENDBLK
  5
37B7
330
37B2
100
AcDbEntity
  8
0
100
AcDbBlockEnd
  0
ENDSEC
  0
SECTION
  2
ENTITIES
  0
TEXT
  5
37B8
330
3797
100
AcDbEntity
  8
4
  6
CENTER
100
AcDbText
 10
23.979509
 20
10.048738
 30
0.0
 40
1.399999999999999
  1
4
100
AcDbText
  0
TEXT
  5
37B9
330
3797
100
AcDbEntity
  8
7
  6
Continuous
100
AcDbText
 10
9.999997999999999
 20
26.000001
 30
0.0
 40
3.0
  1
CODE No.3391
100
AcDbText
  0
TEXT
  5
37BA
330
3797
100
AcDbEntity
  8
7
  6
Continuous
100
AcDbText
 10
9.999997999999999
 20
18.000001
 30
0.0
 40
3.0
  1
TYPE No.THA-416-1K
100
AcDbText
  0
TEXT
  5
37BB
330
3797
100
AcDbEntity
  8
1
  6
Continuous
100
AcDbText
 10
9.999997999999999
 20
10.000001
 30
0.0
 40
1.399999999999999
  1
LAYER
100
AcDbText
  0
TEXT
  5
37BC
330
3797
100
AcDbEntity
  8
2
  6
Continuous
100
AcDbText
 10
19.979509
 20
10.048738
 30
0.0
 40
1.399999999999999
  1
2
100
AcDbText
  0
TEXT
  5
37BD
330
3797
100
AcDbEntity
  8
3
  6
DASHED
100
AcDbText
 10
21.97950899999999
 20
10.048738
 30
0.0
 40
1.399999999999999
  1
3
100
AcDbText
  0
TEXT
  5
37BE
330
3797
100
AcDbEntity
  8
1
  6
Continuous
100
AcDbText
 10
17.979509
 20
10.048738
 30
0.0
 40
1.399999999999999
  1
1
100
AcDbText
  0
TEXT
  5
37BF
330
3797
100
AcDbEntity
  8
5
  6
PHANTOM
100
AcDbText
 10
25.979509
 20
10.048738
 30
0.0
 40
1.399999999999999
  1
5
100
AcDbText
  0
TEXT
  5
37C0
330
3797
100
AcDbEntity
  8
6
  6
Continuous
100
AcDbText
 10
27.979509
 20
10.048738
 30
0.0
 40
1.399999999999999
  1
6
100
AcDbText
  0
TEXT
  5
37C1
330
3797
100
AcDbEntity
  8
7
  6
Continuous
100
AcDbText
 10
29.97950900000001
 20
10.048738
 30
0.0
 40
1.399999999999999
  1
7
100
AcDbText
  0
LINE
  5
37C2
330
3797
100
AcDbEntity
  8
1
  6
Continuous
100
AcDbLine
 10
25.0
 20
377.4969479999999
 30
0.0
 11
25.0
 21
178.9265
 31
0.0
  0
LINE
  5
37C3
330
3797
100
AcDbEntity
  8
1
  6
Continuous
100
AcDbLine
 10
69.0
 20
377.4969479999999
 30
0.0
 11
69.0
 21
178.9265
 31
0.0
  0
LINE
  5
37C4
330
3797
100
AcDbEntity
  8
1
  6
Continuous
100
AcDbLine
 10
25.596038
 20
178.0117239999999
 30
0.0
 11
68.40396099999999
 21
178.0117239999999
 31
0.0
  0
LINE
  5
37C5
330
3797
100
AcDbEntity
  8
1
  6
Continuous
100
AcDbLine
 10
25.596038
 20
378.411724
 30
0.0
 11
68.40396099999999
 21
378.411724
 31
0.0
  0
LINE
  5
37C6
330
3797
100
AcDbEntity
  8
4
  6
CENTER
100
AcDbLine
 10
47.0
 20
384.411724
 30
0.0
 11
47.0
 21
172.0117239999999
 31
0.0
  0
LINE
  5
37C7
330
3797
100
AcDbEntity
  8
1
  6
Continuous
100
AcDbLine
 10
35.5
 20
358.6446159999999
 30
0.0
 11
35.5
 21
186.9117239999999
 31
0.0
  0
LINE
  5
37C8
330
3797
100
AcDbEntity
  8
1
  6
Continuous
100
AcDbLine
 10
58.5
 20
358.6446159999999
 30
0.0
 11
58.5
 21
186.9117239999999
 31
0.0
  0
ARC
  5
37C9
330
3797
100
AcDbEntity
  8
1
  6
Continuous
100
AcDbCircle
 10
58.79999999999999
 20
343.8787279999999
 30
0.0
 40
0.3
100
AcDbArc
 50
135.655618
 51
180.0
  0
ARC
  5
37CA
330
3797
100
AcDbEntity
  8
1
  6
Continuous
100
AcDbCircle
 10
47.0
 20
355.411724
 30
0.0
 40
16.2
100
AcDbArc
 50
315.6556179999999
 51
224.3443819999999
  0
ARC
  5
37CB
330
3797
100
AcDbEntity
  8
1
  6
Continuous
100
AcDbCircle
 10
35.20000000000001
 20
343.8787279999999
 30
0.0
 40
0.3
100
AcDbArc
 50
0.0
 51
44.344382
  0
LINE
  5
37CC
330
3797
100
AcDbEntity
  8
1
  6
Continuous
100
AcDbLine
 10
37.0
 20
185.4117239999999
 30
0.0
 11
57.0
 21
185.4117239999999
 31
0.0
  0
ARC
  5
37CD
330
3797
100
AcDbEntity
  8
1
  6
Continuous
100
AcDbCircle
 10
37.0
 20
186.9117239999999
 30
0.0
 40
1.5
100
AcDbArc
 50
180.0
 51
270.0
  0
ARC
  5
37CE
330
3797
100
AcDbEntity
  8
1
  6
Continuous
100
AcDbCircle
 10
57.0
 20
186.9117239999999
 30
0.0
 40
1.5
100
AcDbArc
 50
270.0
 51
0.0
  0
ARC
  5
37CF
330
3797
100
AcDbEntity
  8
1
  6
Continuous
100
AcDbCircle
 10
57.5
 20
227.911724
 30
0.0
 40
1.0
100
AcDbArc
 50
0.0
 51
90.0
  0
ARC
  5
37D0
330
3797
100
AcDbEntity
  8
1
  6
Continuous
100
AcDbCircle
 10
36.5
 20
227.911724
 30
0.0
 40
1.0
100
AcDbArc
 50
90.0
 51
180.0
  0
LINE
  5
37D1
330
3797
100
AcDbEntity
  8
1
  6
Continuous
100
AcDbLine
 10
37.0
 20
185.9117239999999
 30
0.0
 11
57.0
 21
185.9117239999999
 31
0.0
  0
LINE
  5
37D2
330
3797
100
AcDbEntity
  8
1
  6
Continuous
100
AcDbLine
 10
37.0
 20
206.9117239999999
 30
0.0
 11
57.0
 21
206.9117239999999
 31
0.0
  0
LINE
  5
37D3
330
3797
100
AcDbEntity
  8
1
  6
Continuous
100
AcDbLine
 10
36.0
 20
205.9117239999999
 30
0.0
 11
36.0
 21
186.9117239999999
 31
0.0
  0
LINE
  5
37D4
330
3797
100
AcDbEntity
  8
1
  6
Continuous
100
AcDbLine
 10
58.0
 20
205.9117239999999
 30
0.0
 11
58.0
 21
186.9117239999999
 31
0.0
  0
ARC
  5
37D5
330
3797
100
AcDbEntity
  8
1
  6
Continuous
100
AcDbCircle
 10
57.0
 20
205.9117239999999
 30
0.0
 40
1.0
100
AcDbArc
 50
0.0
 51
90.0
  0
ARC
  5
37D6
330
3797
100
AcDbEntity
  8
1
  6
Continuous
100
AcDbCircle
 10
37.0
 20
205.9117239999999
 30
0.0
 40
1.0
100
AcDbArc
 50
90.0
 51
180.0
  0
ARC
  5
37D7
330
3797
100
AcDbEntity
  8
1
  6
Continuous
100
AcDbCircle
 10
37.0
 20
186.9117239999999
 30
0.0
 40
1.0
100
AcDbArc
 50
180.0
 51
270.0
  0
ARC
  5
37D8
330
3797
100
AcDbEntity
  8
1
  6
Continuous
100
AcDbCircle
 10
57.0
 20
186.9117239999999
 30
0.0
 40
1.0
100
AcDbArc
 50
270.0
 51
0.0
  0
ARC
  5
37D9
330
3797
100
AcDbEntity
  8
1
  6
Continuous
100
AcDbCircle
 10
47.0
 20
355.411724
 30
0.0
 40
16.0
100
AcDbArc
 50
320.7319739999998
 51
219.2680259999999
  0
ARC
  5
37DA
330
3797
100
AcDbEntity
  8
1
  6
Continuous
100
AcDbCircle
 10
35.0
 20
345.601016
 30
0.0
 40
0.5
100
AcDbArc
 50
219.2680259999999
 51
0.0
  0
ARC
  5
37DB
330
3797
100
AcDbEntity
  8
1
  6
Continuous
100
AcDbCircle
 10
59.0
 20
345.601016
 30
0.0
 40
0.5
100
AcDbArc
 50
180.0
 51
320.7319739999998
  0
LINE
  5
37DC
330
3797
100
AcDbEntity
  8
1
  6
Continuous
100
AcDbLine
 10
35.89999999999999
 20
359.66442
 30
0.0
 11
35.89999999999999
 21
346.2383929999999
 31
0.0
  0
LINE
  5
37DD
330
3797
100
AcDbEntity
  8
1
  6
Continuous
100
AcDbLine
 10
58.1
 20
359.66442
 30
0.0
 11
58.1
 21
346.2383929999999
 31
0.0
  0
ARC
  5
37DE
330
3797
100
AcDbEntity
  8
1
  6
Continuous
100
AcDbCircle
 10
58.5
 20
350.811724
 30
0.0
 40
0.4
100
AcDbArc
 50
180.0
 51
270.0
  0
ARC
  5
37DF
330
3797
100
AcDbEntity
  8
1
  6
Continuous
100
AcDbCircle
 10
35.5
 20
350.811724
 30
0.0
 40
0.4
100
AcDbArc
 50
270.0
 51
0.0
  0
LINE
  5
37E0
330
3797
100
AcDbEntity
  8
5
  6
PHANTOM
100
AcDbLine
 10
64.716858
 20
344.4117240000001
 30
0.0
 11
172.0
 21
344.4117240000001
 31
0.0
  0
LINE
  5
37E1
330
3797
100
AcDbEntity
  8
5
  6
PHANTOM
100
AcDbLine
 10
64.716858
 20
366.4117239999998
 30
0.0
 11
172.0
 21
366.4117239999998
 31
0.0
  0
ARC
  5
37E2
330
3797
100
AcDbEntity
  8
1
  6
Continuous
100
AcDbCircle
 10
47.0
 20
355.411724
 30
0.0
 40
14.5
100
AcDbArc
 50
319.3427509999999
 51
322.476487
  0
ARC
  5
37E3
330
3797
100
AcDbEntity
  8
1
  6
Continuous
100
AcDbCircle
 10
47.0
 20
355.411724
 30
0.0
 40
14.5
100
AcDbArc
 50
217.5235129999999
 51
220.6572489999999
  0
ARC
  5
37E4
330
3797
100
AcDbEntity
  8
1
  6
Continuous
100
AcDbCircle
 10
47.0
 20
355.411724
 30
0.0
 40
14.4
100
AcDbArc
 50
217.0023229999999
 51
220.191756
  0
ARC
  5
37E5
330
3797
100
AcDbEntity
  8
1
  6
Continuous
100
AcDbCircle
 10
47.0
 20
355.411724
 30
0.0
 40
14.4
100
AcDbArc
 50
319.808244
 51
322.997677
  0
LINE
  5
37E6
330
3797
100
AcDbEntity
  8
5
  6
PHANTOM
100
AcDbLine
 10
173.0
 20
345.4117239999998
 30
0.0
 11
173.0
 21
365.4117240000001
 31
0.0
  0
ARC
  5
37E7
330
3797
100
AcDbEntity
  8
5
  6
PHANTOM
100
AcDbCircle
 10
172.0
 20
365.4117240000001
 30
0.0
 40
1.0
100
AcDbArc
 50
0.0
 51
90.0
  0
ARC
  5
37E8
330
3797
100
AcDbEntity
  8
5
  6
PHANTOM
100
AcDbCircle
 10
172.0
 20
345.4117239999998
 30
0.0
 40
1.0
100
AcDbArc
 50
270.0
 51
0.0
  0
LINE
  5
37E9
330
3797
100
AcDbEntity
  8
1
  6
Continuous
100
AcDbLine
 10
36.0
 20
227.4117239999999
 30
0.0
 11
36.0
 21
208.4117239999999
 31
0.0
  0
LINE
  5
37EA
330
3797
100
AcDbEntity
  8
1
  6
Continuous
100
AcDbLine
 10
58.0
 20
227.4117239999999
 30
0.0
 11
58.0
 21
208.4117239999999
 31
0.0
  0
LINE
  5
37EB
330
3797
100
AcDbEntity
  8
1
  6
Continuous
100
AcDbLine
 10
37.0
 20
207.411724
 30
0.0
 11
57.0
 21
207.411724
 31
0.0
  0
LINE
  5
37EC
330
3797
100
AcDbEntity
  8
1
  6
Continuous
100
AcDbLine
 10
37.0
 20
228.411724
 30
0.0
 11
57.0
 21
228.411724
 31
0.0
  0
ARC
  5
37ED
330
3797
100
AcDbEntity
  8
1
  6
Continuous
100
AcDbCircle
 10
37.0
 20
208.4117239999999
 30
0.0
 40
1.0
100
AcDbArc
 50
180.0
 51
270.0
  0
ARC
  5
37EE
330
3797
100
AcDbEntity
  8
1
  6
Continuous
100
AcDbCircle
 10
57.0
 20
208.4117239999999
 30
0.0
 40
1.0
100
AcDbArc
 50
270.0
 51
0.0
  0
ARC
  5
37EF
330
3797
100
AcDbEntity
  8
1
  6
Continuous
100
AcDbCircle
 10
57.0
 20
227.4117239999999
 30
0.0
 40
1.0
100
AcDbArc
 50
0.0
 51
90.0
  0
ARC
  5
37F0
330
3797
100
AcDbEntity
  8
1
  6
Continuous
100
AcDbCircle
 10
37.0
 20
227.4117239999999
 30
0.0
 40
1.0
100
AcDbArc
 50
90.0
 51
180.0
  0
LINE
  5
37F1
330
3797
100
AcDbEntity
  8
1
  6
Continuous
100
AcDbLine
 10
43.0
 20
229.4117239999999
 30
0.0
 11
43.0
 21
228.411724
 31
0.0
  0
LINE
  5
37F2
330
3797
100
AcDbEntity
  8
1
  6
Continuous
100
AcDbLine
 10
51.0
 20
229.4117239999999
 30
0.0
 11
51.0
 21
228.411724
 31
0.0
  0
LINE
  5
37F3
330
3797
100
AcDbEntity
  8
1
  6
Continuous
100
AcDbLine
 10
36.5
 20
228.9117239999999
 30
0.0
 11
43.0
 21
228.9117239999999
 31
0.0
  0
LINE
  5
37F4
330
3797
100
AcDbEntity
  8
1
  6
Continuous
100
AcDbLine
 10
51.0
 20
228.9117239999999
 30
0.0
 11
57.5
 21
228.9117239999999
 31
0.0
  0
LINE
  5
37F5
330
3797
100
AcDbEntity
  8
1
  6
Continuous
100
AcDbLine
 10
41.0
 20
207.411724
 30
0.0
 11
41.0
 21
206.9117239999999
 31
0.0
  0
LINE
  5
37F6
330
3797
100
AcDbEntity
  8
1
  6
Continuous
100
AcDbLine
 10
53.0
 20
207.411724
 30
0.0
 11
53.0
 21
206.9117239999999
 31
0.0
  0
ARC
  5
37F7
330
3797
100
AcDbEntity
  8
1
  6
Continuous
100
AcDbCircle
 10
47.0
 20
136.911724
 30
0.0
 40
242.5
100
AcDbArc
 50
85.01145799999997
 51
94.98854200000003
  0
ARC
  5
37F8
330
3797
100
AcDbEntity
  8
1
  6
Continuous
100
AcDbCircle
 10
68.0
 20
377.4969479999999
 30
0.0
 40
1.0
100
AcDbArc
 50
0.0
 51
85.01145799999997
  0
ARC
  5
37F9
330
3797
100
AcDbEntity
  8
1
  6
Continuous
100
AcDbCircle
 10
26.0
 20
377.4969479999999
 30
0.0
 40
1.0
100
AcDbArc
 50
94.98854200000003
 51
180.0
  0
ARC
  5
37FA
330
3797
100
AcDbEntity
  8
1
  6
Continuous
100
AcDbCircle
 10
47.0
 20
419.511724
 30
0.0
 40
242.5
100
AcDbArc
 50
265.0114579999998
 51
274.988542
  0
ARC
  5
37FB
330
3797
100
AcDbEntity
  8
1
  6
Continuous
100
AcDbCircle
 10
68.0
 20
178.9265
 30
0.0
 40
1.0
100
AcDbArc
 50
274.988542
 51
0.0
  0
ARC
  5
37FC
330
3797
100
AcDbEntity
  8
1
  6
Continuous
100
AcDbCircle
 10
26.0
 20
178.9265
 30
0.0
 40
1.0
100
AcDbArc
 50
180.0
 51
265.0114579999998
  0
LINE
  5
37FD
330
3797
100
AcDbEntity
  8
1
  6
Continuous
100
AcDbLine
 10
259.6681479999999
 20
177.0117239999999
 30
0.0
 11
257.718419
 21
177.0117239999999
 31
0.0
  0
LINE
  5
37FE
330
3797
100
AcDbEntity
  8
1
  6
Continuous
100
AcDbLine
 10
259.6681479999999
 20
379.4117239999998
 30
0.0
 11
257.718419
 21
379.4117239999998
 31
0.0
  0
LINE
  5
37FF
330
3797
100
AcDbEntity
  8
1
  6
Continuous
100
AcDbLine
 10
257.6681479999999
 20
177.015966
 30
0.0
 11
257.6681479999999
 21
379.4074819999999
 31
0.0
  0
LINE
  5
3800
330
3797
100
AcDbEntity
  8
1
  6
Continuous
100
AcDbLine
 10
259.6681479999999
 20
177.0117239999999
 30
0.0
 11
259.6681479999999
 21
379.4117239999998
 31
0.0
  0
LINE
  5
3801
330
3797
100
AcDbEntity
  8
1
  6
Continuous
100
AcDbLine
 10
259.6681479999999
 20
183.0117239999999
 30
0.0
 11
277.1681479999999
 21
183.0117239999999
 31
0.0
  0
LINE
  5
3802
330
3797
100
AcDbEntity
  8
1
  6
Continuous
100
AcDbLine
 10
278.1681479999999
 20
184.0117239999999
 30
0.0
 11
278.1681479999999
 21
249.9117239999999
 31
0.0
  0
LINE
  5
3803
330
3797
100
AcDbEntity
  8
1
  6
Continuous
100
AcDbLine
 10
500.550558
 20
377.4969479999999
 30
0.0
 11
500.550558
 21
355.411724
 31
0.0
  0
ARC
  5
3804
330
3797
100
AcDbEntity
  8
1
  6
Continuous
100
AcDbCircle
 10
499.550558
 20
377.4969479999999
 30
0.0
 40
1.0
100
AcDbArc
 50
0.0
 51
85.01145799999997
  0
ARC
  5
3805
330
3797
100
AcDbEntity
  8
1
  6
Continuous
100
AcDbCircle
 10
478.550558
 20
136.911724
 30
0.0
 40
242.5
100
AcDbArc
 50
85.01145799999997
 51
94.98854200000003
  0
ARC
  5
3806
330
3797
100
AcDbEntity
  8
1
  6
Continuous
100
AcDbCircle
 10
457.550558
 20
377.4969479999999
 30
0.0
 40
1.0
100
AcDbArc
 50
94.98854200000003
 51
180.0
  0
LINE
  5
3807
330
3797
100
AcDbEntity
  8
1
  6
Continuous
100
AcDbLine
 10
456.5505579999999
 20
377.4969479999999
 30
0.0
 11
456.5505579999999
 21
355.411724
 31
0.0
  0
ARC
  5
3808
330
3797
100
AcDbEntity
  8
1
  6
Continuous
100
AcDbCircle
 10
457.550558
 20
178.9265
 30
0.0
 40
1.0
100
AcDbArc
 50
180.0
 51
265.0114579999998
  0
ARC
  5
3809
330
3797
100
AcDbEntity
  8
1
  6
Continuous
100
AcDbCircle
 10
478.550558
 20
419.511724
 30
0.0
 40
242.5
100
AcDbArc
 50
265.0114579999998
 51
274.988542
  0
ARC
  5
380A
330
3797
100
AcDbEntity
  8
1
  6
Continuous
100
AcDbCircle
 10
499.550558
 20
178.9265
 30
0.0
 40
1.0
100
AcDbArc
 50
274.988542
 51
0.0
  0
LINE
  5
380B
330
3797
100
AcDbEntity
  8
1
  6
Continuous
100
AcDbLine
 10
461.050558
 20
370.4117239999998
 30
0.0
 11
461.050558
 21
337.4117239999999
 31
0.0
  0
LINE
  5
380C
330
3797
100
AcDbEntity
  8
1
  6
Continuous
100
AcDbLine
 10
496.050558
 20
370.4117239999998
 30
0.0
 11
496.050558
 21
337.4117239999999
 31
0.0
  0
LINE
  5
380D
330
3797
100
AcDbEntity
  8
1
  6
Continuous
100
AcDbLine
 10
493.050558
 20
183.0117239999999
 30
0.0
 11
464.050558
 21
183.0117239999999
 31
0.0
  0
CIRCLE
  5
380E
330
3797
100
AcDbEntity
  8
1
  6
Continuous
100
AcDbCircle
 10
478.550558
 20
355.411724
 30
0.0
 40
17.5
  0
CIRCLE
  5
380F
330
3797
100
AcDbEntity
  8
1
  6
Continuous
100
AcDbCircle
 10
478.550558
 20
355.411724
 30
0.0
 40
14.0
  0
ARC
  5
3810
330
3797
100
AcDbEntity
  8
1
  6
Continuous
100
AcDbCircle
 10
478.550558
 20
355.411724
 30
0.0
 40
13.0
100
AcDbArc
 50
210.0
 51
60.0
  0
LINE
  5
3811
330
3797
100
AcDbEntity
  8
1
  6
Continuous
100
AcDbLine
 10
483.550558
 20
364.0719779999998
 30
0.0
 11
485.5505579999998
 21
367.5360799999999
 31
0.0
  0
LINE
  5
3812
330
3797
100
AcDbEntity
  8
1
  6
Continuous
100
AcDbLine
 10
473.252965
 20
364.5874249999998
 30
0.0
 11
471.550558
 21
367.5360799999999
 31
0.0
  0
LINE
  5
3813
330
3797
100
AcDbEntity
  8
1
  6
Continuous
100
AcDbLine
 10
469.890304
 20
350.4117239999998
 30
0.0
 11
467.2922269999999
 21
348.9117240000001
 31
0.0
  0
LINE
  5
3814
330
3797
100
AcDbEntity
  8
1
  6
Continuous
100
AcDbLine
 10
493.050558
 20
373.4117239999998
 30
0.0
 11
464.050558
 21
373.4117239999998
 31
0.0
  0
ARC
  5
3815
330
3797
100
AcDbEntity
  8
1
  6
Continuous
100
AcDbCircle
 10
493.050558
 20
370.4117239999998
 30
0.0
 40
3.0
100
AcDbArc
 50
0.0
 51
90.0
  0
ARC
  5
3816
330
3797
100
AcDbEntity
  8
1
  6
Continuous
100
AcDbCircle
 10
464.050558
 20
370.4117239999998
 30
0.0
 40
3.0
100
AcDbArc
 50
90.0
 51
180.0
  0
LINE
  5
3817
330
3797
100
AcDbEntity
  8
1
  6
Continuous
100
AcDbLine
 10
463.550558
 20
346.397846
 30
0.0
 11
463.550558
 21
337.4117239999999
 31
0.0
  0
LINE
  5
3818
330
3797
100
AcDbEntity
  8
1
  6
Continuous
100
AcDbLine
 10
493.550558
 20
346.397846
 30
0.0
 11
493.550558
 21
337.4117239999999
 31
0.0
  0
ARC
  5
3819
330
3797
100
AcDbEntity
  8
1
  6
Continuous
100
AcDbCircle
 10
464.550558
 20
184.0117239999999
 30
0.0
 40
1.0
100
AcDbArc
 50
180.0
 51
270.0
  0
ARC
  5
381A
330
3797
100
AcDbEntity
  8
1
  6
Continuous
100
AcDbCircle
 10
492.550558
 20
184.0117239999999
 30
0.0
 40
1.0
100
AcDbArc
 50
270.0
 51
0.0
  0
ARC
  5
381B
330
3797
100
AcDbEntity
  8
1
  6
Continuous
100
AcDbCircle
 10
492.550558
 20
230.411724
 30
0.0
 40
1.0
100
AcDbArc
 50
0.0
 51
90.0
  0
ARC
  5
381C
330
3797
100
AcDbEntity
  8
1
  6
Continuous
100
AcDbCircle
 10
464.550558
 20
230.411724
 30
0.0
 40
1.0
100
AcDbArc
 50
90.0
 51
180.0
  0
ARC
  5
381D
330
3797
100
AcDbEntity
  8
1
  6
Continuous
100
AcDbCircle
 10
493.050558
 20
186.0117239999999
 30
0.0
 40
3.0
100
AcDbArc
 50
270.0
 51
0.0
  0
ARC
  5
381E
330
3797
100
AcDbEntity
  8
1
  6
Continuous
100
AcDbCircle
 10
464.050558
 20
186.0117239999999
 30
0.0
 40
3.0
100
AcDbArc
 50
180.0
 51
270.0
  0
LINE
  5
381F
330
3797
100
AcDbEntity
  8
4
  6
CENTER
100
AcDbLine
 10
497.550558
 20
355.411724
 30
0.0
 11
459.550558
 21
355.411724
 31
0.0
  0
LINE
  5
3820
330
3797
100
AcDbEntity
  8
4
  6
CENTER
100
AcDbLine
 10
478.550558
 20
385.683698
 30
0.0
 11
478.550558
 21
172.0117239999999
 31
0.0
  0
LINE
  5
3821
330
3797
100
AcDbEntity
  8
4
  6
CENTER
100
AcDbLine
 10
486.550552
 20
329.4117239999998
 30
0.0
 11
470.5505519999999
 21
329.4117239999998
 31
0.0
  0
LINE
  5
3822
330
3797
100
AcDbEntity
  8
1
  6
Continuous
100
AcDbLine
 10
348.944535
 20
238.411724
 30
0.0
 11
348.944535
 21
355.411724
 31
0.0
  0
LINE
  5
3823
330
3797
100
AcDbEntity
  8
1
  6
Continuous
100
AcDbLine
 10
354.9445349999999
 20
355.411724
 30
0.0
 11
348.944535
 21
355.411724
 31
0.0
  0
LINE
  5
3824
330
3797
100
AcDbEntity
  8
1
  6
Continuous
100
AcDbLine
 10
354.9445349999999
 20
238.411724
 30
0.0
 11
348.944535
 21
238.411724
 31
0.0
  0
LINE
  5
3825
330
3797
100
AcDbEntity
  8
1
  6
Continuous
100
AcDbLine
 10
361.2445349999999
 20
256.4117239999999
 30
0.0
 11
356.9445349999999
 21
256.4117239999999
 31
0.0
  0
LINE
  5
3826
330
3797
100
AcDbEntity
  8
1
  6
Continuous
100
AcDbLine
 10
361.2445349999999
 20
337.4117239999999
 30
0.0
 11
356.9445349999999
 21
337.4117239999999
 31
0.0
  0
LINE
  5
3827
330
3797
100
AcDbEntity
  8
1
  6
Continuous
100
AcDbLine
 10
356.9445349999999
 20
240.411724
 30
0.0
 11
356.9445349999999
 21
256.4117239999999
 31
0.0
  0
LINE
  5
3828
330
3797
100
AcDbEntity
  8
1
  6
Continuous
100
AcDbLine
 10
356.9445349999999
 20
337.4117239999999
 30
0.0
 11
356.9445349999999
 21
353.411724
 31
0.0
  0
ARC
  5
3829
330
3797
100
AcDbEntity
  8
1
  6
Continuous
100
AcDbCircle
 10
354.9445349999999
 20
240.411724
 30
0.0
 40
2.0
100
AcDbArc
 50
270.0
 51
0.0
  0
ARC
  5
382A
330
3797
100
AcDbEntity
  8
1
  6
Continuous
100
AcDbCircle
 10
354.9445349999999
 20
353.411724
 30
0.0
 40
2.0
100
AcDbArc
 50
0.0
 51
90.0
  0
LINE
  5
382B
330
3797
100
AcDbEntity
  8
1
  6
Continuous
100
AcDbLine
 10
350.944535
 20
238.411724
 30
0.0
 11
350.944535
 21
355.411724
 31
0.0
  0
LINE
  5
382C
330
3797
100
AcDbEntity
  8
1
  6
Continuous
100
AcDbLine
 10
361.2445349999999
 20
315.4117240000001
 30
0.0
 11
354.9445349999999
 21
315.4117240000001
 31
0.0
  0
LINE
  5
382D
330
3797
100
AcDbEntity
  8
1
  6
Continuous
100
AcDbLine
 10
361.2445349999999
 20
321.4117240000001
 30
0.0
 11
354.9445349999999
 21
321.4117240000001
 31
0.0
  0
LINE
  5
382E
330
3797
100
AcDbEntity
  8
1
  6
Continuous
100
AcDbLine
 10
361.2445349999999
 20
272.4117239999999
 30
0.0
 11
354.9445349999999
 21
272.4117239999999
 31
0.0
  0
LINE
  5
382F
330
3797
100
AcDbEntity
  8
1
  6
Continuous
100
AcDbLine
 10
361.2445349999999
 20
278.411724
 30
0.0
 11
354.9445349999999
 21
278.411724
 31
0.0
  0
ARC
  5
3830
330
3797
100
AcDbEntity
  8
1
  6
Continuous
100
AcDbCircle
 10
359.994535
 20
275.4117239999999
 30
0.0
 40
3.25
100
AcDbArc
 50
292.6198649999999
 51
67.380135
  0
ARC
  5
3831
330
3797
100
AcDbEntity
  8
1
  6
Continuous
100
AcDbCircle
 10
359.994535
 20
318.4117239999999
 30
0.0
 40
3.25
100
AcDbArc
 50
292.6198649999999
 51
67.380135
  0
ARC
  5
3832
330
3797
100
AcDbEntity
  8
1
  6
Continuous
100
AcDbCircle
 10
356.1945349999998
 20
318.4117239999999
 30
0.0
 40
3.25
100
AcDbArc
 50
112.6198649999997
 51
247.380135
  0
ARC
  5
3833
330
3797
100
AcDbEntity
  8
1
  6
Continuous
100
AcDbCircle
 10
356.1945349999998
 20
275.4117239999999
 30
0.0
 40
3.25
100
AcDbArc
 50
112.6198649999997
 51
247.380135
  0
LINE
  5
3834
330
3797
100
AcDbEntity
  8
1
  6
Continuous
100
AcDbLine
 10
361.2445349999999
 20
256.4117239999999
 30
0.0
 11
361.2445349999999
 21
272.4117239999999
 31
0.0
  0
LINE
  5
3835
330
3797
100
AcDbEntity
  8
1
  6
Continuous
100
AcDbLine
 10
361.2445349999999
 20
278.411724
 30
0.0
 11
361.2445349999999
 21
315.4117240000001
 31
0.0
  0
LINE
  5
3836
330
3797
100
AcDbEntity
  8
1
  6
Continuous
100
AcDbLine
 10
361.2445349999999
 20
321.4117240000001
 30
0.0
 11
361.2445349999999
 21
337.4117239999999
 31
0.0
  0
LINE
  5
3837
330
3797
100
AcDbEntity
  8
1
  6
Continuous
100
AcDbLine
 10
362.044535
 20
259.411724
 30
0.0
 11
361.2445349999999
 21
260.211724
 31
0.0
  0
LINE
  5
3838
330
3797
100
AcDbEntity
  8
1
  6
Continuous
100
AcDbLine
 10
362.044535
 20
324.411724
 30
0.0
 11
361.2445349999999
 21
325.211724
 31
0.0
  0
LINE
  5
3839
330
3797
100
AcDbEntity
  8
1
  6
Continuous
100
AcDbLine
 10
362.044535
 20
334.411724
 30
0.0
 11
361.2445349999999
 21
333.611724
 31
0.0
  0
LINE
  5
383A
330
3797
100
AcDbEntity
  8
1
  6
Continuous
100
AcDbLine
 10
362.044535
 20
269.4117240000001
 30
0.0
 11
361.2445349999999
 21
268.6117239999999
 31
0.0
  0
ARC
  5
383B
330
3797
100
AcDbEntity
  8
1
  6
Continuous
100
AcDbCircle
 10
277.1681479999999
 20
184.0117239999999
 30
0.0
 40
1.0
100
AcDbArc
 50
270.0
 51
0.0
  0
LINE
  5
383C
330
3797
100
AcDbEntity
  8
1
  6
Continuous
100
AcDbLine
 10
262.6681479999999
 20
184.0117239999999
 30
0.0
 11
262.6681479999999
 21
351.411724
 31
0.0
  0
LINE
  5
383D
330
3797
100
AcDbEntity
  8
1
  6
Continuous
100
AcDbLine
 10
362.344535
 20
259.411724
 30
0.0
 11
362.344535
 21
269.4117240000001
 31
0.0
  0
LINE
  5
383E
330
3797
100
AcDbEntity
  8
1
  6
Continuous
100
AcDbLine
 10
362.344535
 20
324.411724
 30
0.0
 11
362.344535
 21
334.411724
 31
0.0
  0
LINE
  5
383F
330
3797
100
AcDbEntity
  8
1
  6
Continuous
100
AcDbLine
 10
362.044535
 20
259.411724
 30
0.0
 11
362.044535
 21
269.4117240000001
 31
0.0
  0
LINE
  5
3840
330
3797
100
AcDbEntity
  8
1
  6
Continuous
100
AcDbLine
 10
362.044535
 20
324.411724
 30
0.0
 11
362.044535
 21
334.411724
 31
0.0
  0
LINE
  5
3841
330
3797
100
AcDbEntity
  8
1
  6
Continuous
100
AcDbLine
 10
362.344535
 20
259.411724
 30
0.0
 11
362.044535
 21
259.411724
 31
0.0
  0
LINE
  5
3842
330
3797
100
AcDbEntity
  8
1
  6
Continuous
100
AcDbLine
 10
362.344535
 20
269.4117240000001
 30
0.0
 11
362.044535
 21
269.4117240000001
 31
0.0
  0
LINE
  5
3843
330
3797
100
AcDbEntity
  8
1
  6
Continuous
100
AcDbLine
 10
362.344535
 20
324.411724
 30
0.0
 11
362.044535
 21
324.411724
 31
0.0
  0
LINE
  5
3844
330
3797
100
AcDbEntity
  8
1
  6
Continuous
100
AcDbLine
 10
362.344535
 20
334.411724
 30
0.0
 11
362.044535
 21
334.411724
 31
0.0
  0
LINE
  5
3845
330
3797
100
AcDbEntity
  8
1
  6
Continuous
100
AcDbLine
 10
259.6681479999999
 20
373.4117239999998
 30
0.0
 11
261.668148
 21
373.4117239999998
 31
0.0
  0
LINE
  5
3846
330
3797
100
AcDbEntity
  8
1
  6
Continuous
100
AcDbLine
 10
273.6681479999999
 20
338.911724
 30
0.0
 11
273.6681479999999
 21
371.911724
 31
0.0
  0
LINE
  5
3847
330
3797
100
AcDbEntity
  8
1
  6
Continuous
100
AcDbLine
 10
272.6681479999999
 20
372.9117239999998
 30
0.0
 11
262.534173
 21
372.9117239999998
 31
0.0
  0
LINE
  5
3848
330
3797
100
AcDbEntity
  8
1
  6
Continuous
100
AcDbLine
 10
272.6681479999999
 20
337.9117239999998
 30
0.0
 11
270.2681479999998
 21
337.9117239999998
 31
0.0
  0
LINE
  5
3849
330
3797
100
AcDbEntity
  8
1
  6
Continuous
100
AcDbLine
 10
276.068148
 20
342.4117240000001
 30
0.0
 11
276.068148
 21
367.5360799999999
 31
0.0
  0
LINE
  5
384A
330
3797
100
AcDbEntity
  8
1
  6
Continuous
100
AcDbLine
 10
277.9681479999999
 20
364.4379159999999
 30
0.0
 11
277.9681479999999
 21
369.4117240000001
 31
0.0
  0
LINE
  5
384B
330
3797
100
AcDbEntity
  8
1
  6
Continuous
100
AcDbLine
 10
277.9681479999999
 20
369.4117240000001
 30
0.0
 11
273.6681479999999
 21
369.4117240000001
 31
0.0
  0
LINE
  5
384C
330
3797
100
AcDbEntity
  8
1
  6
Continuous
100
AcDbLine
 10
278.1681479999999
 20
366.6700539999998
 30
0.0
 11
277.9681479999999
 21
366.6700539999998
 31
0.0
  0
LINE
  5
384D
330
3797
100
AcDbEntity
  8
1
  6
Continuous
100
AcDbLine
 10
277.9681479999999
 20
367.5360799999999
 30
0.0
 11
276.068148
 21
367.5360799999999
 31
0.0
  0
LINE
  5
384E
330
3797
100
AcDbEntity
  8
1
  6
Continuous
100
AcDbLine
 10
275.068148
 20
341.4117239999999
 30
0.0
 11
273.6681479999999
 21
341.4117239999999
 31
0.0
  0
LINE
  5
384F
330
3797
100
AcDbEntity
  8
1
  6
Continuous
100
AcDbLine
 10
276.1681479999999
 20
342.4117240000001
 30
0.0
 11
276.1681479999999
 21
364.4379159999999
 31
0.0
  0
LINE
  5
3850
330
3797
100
AcDbEntity
  8
1
  6
Continuous
100
AcDbLine
 10
278.1681479999999
 20
342.4117240000001
 30
0.0
 11
278.1681479999999
 21
366.6700539999998
 31
0.0
  0
LINE
  5
3851
330
3797
100
AcDbEntity
  8
1
  6
Continuous
100
AcDbLine
 10
277.9681479999999
 20
364.4379159999999
 30
0.0
 11
276.068148
 21
364.4379159999999
 31
0.0
  0
LINE
  5
3852
330
3797
100
AcDbEntity
  8
1
  6
Continuous
100
AcDbLine
 10
278.1681479999999
 20
342.4117240000001
 30
0.0
 11
276.1681479999999
 21
342.4117240000001
 31
0.0
  0
LINE
  5
3853
330
3797
100
AcDbEntity
  8
1
  6
Continuous
100
AcDbLine
 10
280.868148
 20
362.287817
 30
0.0
 11
278.1681479999999
 21
362.287817
 31
0.0
  0
LINE
  5
3854
330
3797
100
AcDbEntity
  8
1
  6
Continuous
100
AcDbLine
 10
280.868148
 20
348.535631
 30
0.0
 11
278.1681479999999
 21
348.535631
 31
0.0
  0
LINE
  5
3855
330
3797
100
AcDbEntity
  8
1
  6
Continuous
100
AcDbLine
 10
281.1681479999999
 20
355.411724
 30
0.0
 11
278.1681479999999
 21
355.411724
 31
0.0
  0
LINE
  5
3856
330
3797
100
AcDbEntity
  8
1
  6
Continuous
100
AcDbLine
 10
281.1681479999999
 20
348.8356309999999
 30
0.0
 11
281.1681479999999
 21
361.987817
 31
0.0
  0
LINE
  5
3857
330
3797
100
AcDbEntity
  8
2
  6
Continuous
100
AcDbLine
 10
278.1681479999999
 20
355.411724
 30
0.0
 11
281.11293
 21
348.662191
 31
0.0
  0
LINE
  5
3858
330
3797
100
AcDbEntity
  8
2
  6
Continuous
100
AcDbLine
 10
281.1681479999999
 20
355.411724
 30
0.0
 11
278.1681479999999
 21
348.535631
 31
0.0
  0
LINE
  5
3859
330
3797
100
AcDbEntity
  8
2
  6
Continuous
100
AcDbLine
 10
281.11293
 20
362.1612569999999
 30
0.0
 11
278.1681479999999
 21
355.411724
 31
0.0
  0
LINE
  5
385A
330
3797
100
AcDbEntity
  8
2
  6
Continuous
100
AcDbLine
 10
281.1681479999999
 20
355.411724
 30
0.0
 11
278.1681479999999
 21
362.287817
 31
0.0
  0
ARC
  5
385B
330
3797
100
AcDbEntity
  8
1
  6
Continuous
100
AcDbCircle
 10
280.868148
 20
348.8356309999999
 30
0.0
 40
0.3
100
AcDbArc
 50
270.0
 51
0.0
  0
ARC
  5
385C
330
3797
100
AcDbEntity
  8
1
  6
Continuous
100
AcDbCircle
 10
280.868148
 20
361.987817
 30
0.0
 40
0.3
100
AcDbArc
 50
0.0
 51
90.0
  0
ARC
  5
385D
330
3797
100
AcDbEntity
  8
1
  6
Continuous
100
AcDbCircle
 10
272.6681479999999
 20
371.911724
 30
0.0
 40
1.0
100
AcDbArc
 50
0.0
 51
90.0
  0
ARC
  5
385E
330
3797
100
AcDbEntity
  8
1
  6
Continuous
100
AcDbCircle
 10
272.6681479999999
 20
338.911724
 30
0.0
 40
1.0
100
AcDbArc
 50
270.0
 51
0.0
  0
ARC
  5
385F
330
3797
100
AcDbEntity
  8
1
  6
Continuous
100
AcDbCircle
 10
275.068148
 20
342.4117240000001
 30
0.0
 40
1.0
100
AcDbArc
 50
270.0
 51
0.0
  0
ARC
  5
3860
330
3797
100
AcDbEntity
  8
1
  6
Continuous
100
AcDbCircle
 10
261.668148
 20
372.4117239999998
 30
0.0
 40
1.0
100
AcDbArc
 50
0.0
 51
90.0
  0
LINE
  5
3861
330
3797
100
AcDbEntity
  8
1
  6
Continuous
100
AcDbLine
 10
257.620622
 20
379.3953359999999
 30
0.0
 11
254.97035
 21
378.481449
 31
0.0
  0
ARC
  5
3862
330
3797
100
AcDbEntity
  8
1
  6
Continuous
100
AcDbCircle
 10
255.068148
 20
378.197837
 30
0.0
 40
0.3
100
AcDbArc
 50
109.025606
 51
180.0
  0
ARC
  5
3863
330
3797
100
AcDbEntity
  8
1
  6
Continuous
100
AcDbCircle
 10
257.718419
 20
379.1117239999999
 30
0.0
 40
0.3
100
AcDbArc
 50
90.0
 51
109.025606
  0
LINE
  5
3864
330
3797
100
AcDbEntity
  8
1
  6
Continuous
100
AcDbLine
 10
257.620622
 20
177.0281119999999
 30
0.0
 11
254.97035
 21
177.941999
 31
0.0
  0
ARC
  5
3865
330
3797
100
AcDbEntity
  8
1
  6
Continuous
100
AcDbCircle
 10
255.068148
 20
178.2256109999999
 30
0.0
 40
0.3
100
AcDbArc
 50
180.0
 51
250.9743939999999
  0
ARC
  5
3866
330
3797
100
AcDbEntity
  8
1
  6
Continuous
100
AcDbCircle
 10
257.718419
 20
177.3117239999999
 30
0.0
 40
0.3
100
AcDbArc
 50
250.9743939999999
 51
270.0
  0
ARC
  5
3867
330
3797
100
AcDbEntity
  8
1
  6
Continuous
100
AcDbCircle
 10
261.668148
 20
184.0117239999999
 30
0.0
 40
1.0
100
AcDbArc
 50
270.0
 51
0.0
  0
LINE
  5
3868
330
3797
100
AcDbEntity
  8
1
  6
Continuous
100
AcDbLine
 10
270.2681479999998
 20
346.397846
 30
0.0
 11
262.6681479999999
 21
346.397846
 31
0.0
  0
LINE
  5
3869
330
3797
100
AcDbEntity
  8
1
  6
Continuous
100
AcDbLine
 10
262.6681479999999
 20
359.411724
 30
0.0
 11
262.6681479999999
 21
372.4117239999998
 31
0.0
  0
ARC
  5
386A
330
3797
100
AcDbEntity
  8
1
  6
Continuous
100
AcDbCircle
 10
176.791823
 20
355.6117239999999
 30
0.0
 40
79.600925
100
AcDbArc
 50
351.882273
 51
11.59559999999999
  0
LINE
  5
386B
330
3797
100
AcDbEntity
  8
1
  6
Continuous
100
AcDbLine
 10
255.595148
 20
185.711724
 30
0.0
 11
255.595148
 21
359.6446159999999
 31
0.0
  0
LINE
  5
386C
330
3797
100
AcDbEntity
  8
1
  6
Continuous
100
AcDbLine
 10
255.068148
 20
360.144616
 30
0.0
 11
255.095148
 21
360.144616
 31
0.0
  0
ARC
  5
386D
330
3797
100
AcDbEntity
  8
1
  6
Continuous
100
AcDbCircle
 10
255.095148
 20
359.6446159999999
 30
0.0
 40
0.5
100
AcDbArc
 50
0.0
 51
90.0
  0
ARC
  5
386E
330
3797
100
AcDbEntity
  8
1
  6
Continuous
100
AcDbCircle
 10
261.668148
 20
355.411724
 30
0.0
 40
7.4
100
AcDbArc
 50
145.1524889999998
 51
180.0
  0
LINE
  5
386F
330
3797
100
AcDbEntity
  8
1
  6
Continuous
100
AcDbLine
 10
254.768148
 20
178.2256109999999
 30
0.0
 11
254.768148
 21
185.111724
 31
0.0
  0
LINE
  5
3870
330
3797
100
AcDbEntity
  8
1
  6
Continuous
100
AcDbLine
 10
254.768148
 20
360.444616
 30
0.0
 11
254.768148
 21
378.197837
 31
0.0
  0
ARC
  5
3871
330
3797
100
AcDbEntity
  8
1
  6
Continuous
100
AcDbCircle
 10
255.068148
 20
360.444616
 30
0.0
 40
0.3
100
AcDbArc
 50
180.0
 51
270.0
  0
ARC
  5
3872
330
3797
100
AcDbEntity
  8
1
  6
Continuous
100
AcDbCircle
 10
255.2681479999999
 20
230.411724
 30
0.0
 40
1.0
100
AcDbArc
 50
180.0
 51
273.468229
  0
LINE
  5
3873
330
3797
100
AcDbEntity
  8
1
  6
Continuous
100
AcDbLine
 10
255.595148
 20
229.4297069999998
 30
0.0
 11
255.328643
 21
229.4135559999999
 31
0.0
  0
LINE
  5
3874
330
3797
100
AcDbEntity
  8
1
  6
Continuous
100
AcDbLine
 10
255.2681479999999
 20
228.411724
 30
0.0
 11
255.595148
 21
228.411724
 31
0.0
  0
LINE
  5
3875
330
3797
100
AcDbEntity
  8
1
  6
Continuous
100
AcDbLine
 10
255.2681479999999
 20
207.411724
 30
0.0
 11
255.595148
 21
207.411724
 31
0.0
  0
LINE
  5
3876
330
3797
100
AcDbEntity
  8
1
  6
Continuous
100
AcDbLine
 10
255.2681479999999
 20
206.9117239999999
 30
0.0
 11
255.595148
 21
206.9117239999999
 31
0.0
  0
LINE
  5
3877
330
3797
100
AcDbEntity
  8
1
  6
Continuous
100
AcDbLine
 10
255.2681479999999
 20
185.9117239999999
 30
0.0
 11
255.595148
 21
185.9117239999999
 31
0.0
  0
LINE
  5
3878
330
3797
100
AcDbEntity
  8
1
  6
Continuous
100
AcDbLine
 10
254.268148
 20
230.411724
 30
0.0
 11
254.268148
 21
355.411724
 31
0.0
  0
LINE
  5
3879
330
3797
100
AcDbEntity
  8
1
  6
Continuous
100
AcDbLine
 10
254.268148
 20
186.9117239999999
 30
0.0
 11
254.268148
 21
205.9117239999999
 31
0.0
  0
LINE
  5
387A
330
3797
100
AcDbEntity
  8
1
  6
Continuous
100
AcDbLine
 10
254.268148
 20
208.4117239999999
 30
0.0
 11
254.268148
 21
227.4117239999999
 31
0.0
  0
ARC
  5
387B
330
3797
100
AcDbEntity
  8
1
  6
Continuous
100
AcDbCircle
 10
255.2681479999999
 20
186.9117239999999
 30
0.0
 40
1.0
100
AcDbArc
 50
180.0
 51
270.0
  0
ARC
  5
387C
330
3797
100
AcDbEntity
  8
1
  6
Continuous
100
AcDbCircle
 10
255.2681479999999
 20
205.9117239999999
 30
0.0
 40
1.0
100
AcDbArc
 50
90.0
 51
180.0
  0
ARC
  5
387D
330
3797
100
AcDbEntity
  8
1
  6
Continuous
100
AcDbCircle
 10
255.2681479999999
 20
208.4117239999999
 30
0.0
 40
1.0
100
AcDbArc
 50
180.0
 51
270.0
  0
ARC
  5
387E
330
3797
100
AcDbEntity
  8
1
  6
Continuous
100
AcDbCircle
 10
255.2681479999999
 20
227.4117239999999
 30
0.0
 40
1.0
100
AcDbArc
 50
90.0
 51
180.0
  0
LINE
  5
387F
330
3797
100
AcDbEntity
  8
1
  6
Continuous
100
AcDbLine
 10
255.068148
 20
185.4117239999999
 30
0.0
 11
255.295148
 21
185.4117239999999
 31
0.0
  0
ARC
  5
3880
330
3797
100
AcDbEntity
  8
1
  6
Continuous
100
AcDbCircle
 10
255.068148
 20
185.111724
 30
0.0
 40
0.3
100
AcDbArc
 50
90.0
 51
180.0
  0
ARC
  5
3881
330
3797
100
AcDbEntity
  8
1
  6
Continuous
100
AcDbCircle
 10
255.295148
 20
185.711724
 30
0.0
 40
0.3
100
AcDbArc
 50
270.0
 51
0.0
  0
ARC
  5
3882
330
3797
100
AcDbEntity
  8
5
  6
PHANTOM
100
AcDbCircle
 10
181.1286849999999
 20
260.588705
 30
0.0
 40
1.0
100
AcDbArc
 50
228.468229
 51
315.0
  0
LINE
  5
3883
330
3797
100
AcDbEntity
  8
5
  6
PHANTOM
100
AcDbLine
 10
181.835792
 20
259.8815979999999
 30
0.0
 11
184.573038
 21
262.6188439999999
 31
0.0
  0
ARC
  5
3884
330
3797
100
AcDbEntity
  8
5
  6
PHANTOM
100
AcDbCircle
 10
177.50197
 20
269.6899119999998
 30
0.0
 40
10.0
100
AcDbArc
 50
315.0
 51
338.4694249999999
  0
ARC
  5
3885
330
3797
100
AcDbEntity
  8
5
  6
PHANTOM
100
AcDbCircle
 10
279.8263749999999
 20
229.320168
 30
0.0
 40
100.0
100
AcDbArc
 50
135.0
 51
158.469425
  0
LINE
  5
3886
330
3797
100
AcDbEntity
  8
5
  6
PHANTOM
100
AcDbLine
 10
180.46565
 20
259.840116
 30
0.0
 11
168.091281
 21
270.800272
 31
0.0
  0
ARC
  5
3887
330
3797
100
AcDbEntity
  8
5
  6
PHANTOM
100
AcDbCircle
 10
168.7543159999998
 20
271.54886
 30
0.0
 40
1.0
100
AcDbArc
 50
135.0
 51
228.468229
  0
LINE
  5
3888
330
3797
100
AcDbEntity
  8
5
  6
PHANTOM
100
AcDbLine
 10
168.04721
 20
272.2559669999998
 30
0.0
 11
255.4031339999999
 21
359.61189
 31
0.0
  0
LINE
  5
3889
330
3797
100
AcDbEntity
  8
5
  6
PHANTOM
100
AcDbLine
 10
209.1156969999999
 20
300.0308459999998
 30
0.0
 11
253.348389
 21
344.263538
 31
0.0
  0
LINE
  5
388A
330
3797
100
AcDbEntity
  8
1
  6
Continuous
100
AcDbLine
 10
315.84413
 20
359.741851
 30
0.0
 11
315.84413
 21
351.0815969999999
 31
0.0
  0
LINE
  5
388B
330
3797
100
AcDbEntity
  8
1
  6
Continuous
100
AcDbLine
 10
315.368605
 20
358.298475
 30
0.0
 11
312.3196549999998
 21
358.298475
 31
0.0
  0
LINE
  5
388C
330
3797
100
AcDbEntity
  8
1
  6
Continuous
100
AcDbLine
 10
315.368605
 20
352.524973
 30
0.0
 11
312.3196549999998
 21
352.524973
 31
0.0
  0
LINE
  5
388D
330
3797
100
AcDbEntity
  8
1
  6
Continuous
100
AcDbLine
 10
315.368605
 20
361.1852269999998
 30
0.0
 11
312.3196549999998
 21
361.1852269999998
 31
0.0
  0
LINE
  5
388E
330
3797
100
AcDbEntity
  8
1
  6
Continuous
100
AcDbLine
 10
315.368605
 20
349.638221
 30
0.0
 11
312.3196549999998
 21
349.638221
 31
0.0
  0
ARC
  5
388F
330
3797
100
AcDbEntity
  8
1
  6
Continuous
100
AcDbCircle
 10
306.8441299999999
 20
355.411724
 30
0.0
 40
9.0
100
AcDbArc
 50
341.291703
 51
18.708297
  0
ARC
  5
3890
330
3797
100
AcDbEntity
  8
1
  6
Continuous
100
AcDbCircle
 10
313.4158080000001
 20
359.741851
 30
0.0
 40
2.428322
100
AcDbArc
 50
323.530685
 51
36.469315
  0
ARC
  5
3891
330
3797
100
AcDbEntity
  8
1
  6
Continuous
100
AcDbCircle
 10
313.4158080000001
 20
351.0815969999999
 30
0.0
 40
2.428322
100
AcDbArc
 50
323.530685
 51
36.469315
  0
ARC
  5
3892
330
3797
100
AcDbEntity
  8
1
  6
Continuous
100
AcDbCircle
 10
314.2724519999998
 20
359.741851
 30
0.0
 40
2.428322
100
AcDbArc
 50
143.530685
 51
216.469315
  0
ARC
  5
3893
330
3797
100
AcDbEntity
  8
1
  6
Continuous
100
AcDbCircle
 10
320.84413
 20
355.411724
 30
0.0
 40
9.0
100
AcDbArc
 50
161.291703
 51
198.7082969999999
  0
ARC
  5
3894
330
3797
100
AcDbEntity
  8
1
  6
Continuous
100
AcDbCircle
 10
314.2724519999998
 20
351.0815969999999
 30
0.0
 40
2.428322
100
AcDbArc
 50
143.530685
 51
216.469315
  0
LINE
  5
3895
330
3797
100
AcDbEntity
  8
1
  6
Continuous
100
AcDbLine
 10
311.84413
 20
349.6617239999998
 30
0.0
 11
311.84413
 21
361.1617240000001
 31
0.0
  0
LINE
  5
3896
330
3797
100
AcDbEntity
  8
1
  6
Continuous
100
AcDbLine
 10
311.84413
 20
349.6617239999998
 30
0.0
 11
310.34413
 21
349.6617239999998
 31
0.0
  0
LINE
  5
3897
330
3797
100
AcDbEntity
  8
1
  6
Continuous
100
AcDbLine
 10
310.34413
 20
361.1617240000001
 30
0.0
 11
311.84413
 21
361.1617240000001
 31
0.0
  0
LINE
  5
3898
330
3797
100
AcDbEntity
  8
1
  6
Continuous
100
AcDbLine
 10
310.34413
 20
347.4117239999998
 30
0.0
 11
310.34413
 21
363.4117240000001
 31
0.0
  0
LINE
  5
3899
330
3797
100
AcDbEntity
  8
1
  6
Continuous
100
AcDbLine
 10
310.34413
 20
363.4117240000001
 30
0.0
 11
308.74413
 21
363.4117240000001
 31
0.0
  0
LINE
  5
389A
330
3797
100
AcDbEntity
  8
1
  6
Continuous
100
AcDbLine
 10
310.34413
 20
347.4117239999998
 30
0.0
 11
308.74413
 21
347.4117239999998
 31
0.0
  0
LINE
  5
389B
330
3797
100
AcDbEntity
  8
1
  6
Continuous
100
AcDbLine
 10
308.74413
 20
344.4117240000001
 30
0.0
 11
308.74413
 21
366.4117239999998
 31
0.0
  0
LINE
  5
389C
330
3797
100
AcDbEntity
  8
1
  6
Continuous
100
AcDbLine
 10
306.74413
 20
344.4117240000001
 30
0.0
 11
306.74413
 21
366.4117239999998
 31
0.0
  0
LINE
  5
389D
330
3797
100
AcDbEntity
  8
1
  6
Continuous
100
AcDbLine
 10
308.74413
 20
366.4117239999998
 30
0.0
 11
304.74413
 21
366.4117239999998
 31
0.0
  0
LINE
  5
389E
330
3797
100
AcDbEntity
  8
1
  6
Continuous
100
AcDbLine
 10
308.74413
 20
344.4117240000001
 30
0.0
 11
304.74413
 21
344.4117240000001
 31
0.0
  0
LINE
  5
389F
330
3797
100
AcDbEntity
  8
4
  6
CENTER
100
AcDbLine
 10
319.84413
 20
355.411724
 30
0.0
 11
300.7441299999998
 21
355.411724
 31
0.0
  0
CIRCLE
  5
38A0
330
3797
100
AcDbEntity
  8
1
  6
Continuous
100
AcDbCircle
 10
47.0
 20
196.411724
 30
0.0
 40
7.65
  0
CIRCLE
  5
38A1
330
3797
100
AcDbEntity
  8
1
  6
Continuous
100
AcDbCircle
 10
47.0
 20
196.411724
 30
0.0
 40
7.799999999999998
  0
CIRCLE
  5
38A2
330
3797
100
AcDbEntity
  8
1
  6
Continuous
100
AcDbCircle
 10
47.0
 20
202.111724
 30
0.0
 40
0.75
  0
LINE
  5
38A3
330
3797
100
AcDbEntity
  8
1
  6
Continuous
100
AcDbLine
 10
48.04999999999999
 20
199.9117239999999
 30
0.0
 11
48.04999999999999
 21
192.911724
 31
0.0
  0
LINE
  5
38A4
330
3797
100
AcDbEntity
  8
1
  6
Continuous
100
AcDbLine
 10
45.95
 20
199.9117239999999
 30
0.0
 11
45.95
 21
192.911724
 31
0.0
  0
LINE
  5
38A5
330
3797
100
AcDbEntity
  8
1
  6
Continuous
100
AcDbLine
 10
45.95
 20
199.9117239999999
 30
0.0
 11
48.04999999999999
 21
199.9117239999999
 31
0.0
  0
LINE
  5
38A6
330
3797
100
AcDbEntity
  8
1
  6
Continuous
100
AcDbLine
 10
45.95
 20
192.911724
 30
0.0
 11
48.04999999999999
 21
192.911724
 31
0.0
  0
LINE
  5
38A7
330
3797
100
AcDbEntity
  8
4
  6
CENTER
100
AcDbLine
 10
56.29999999999999
 20
196.411724
 30
0.0
 11
37.7
 21
196.411724
 31
0.0
  0
LINE
  5
38A8
330
3797
100
AcDbEntity
  8
1
  6
Continuous
100
AcDbLine
 10
39.5
 20
343.4117239999999
 30
0.0
 11
39.5
 21
339.4117239999999
 31
0.0
  0
ARC
  5
38A9
330
3797
100
AcDbEntity
  8
1
  6
Continuous
100
AcDbCircle
 10
40.0
 20
343.4117239999999
 30
0.0
 40
0.5
100
AcDbArc
 50
90.0
 51
180.0
  0
LINE
  5
38AA
330
3797
100
AcDbEntity
  8
1
  6
Continuous
100
AcDbLine
 10
54.0
 20
343.9117239999998
 30
0.0
 11
40.0
 21
343.9117239999998
 31
0.0
  0
ARC
  5
38AB
330
3797
100
AcDbEntity
  8
1
  6
Continuous
100
AcDbCircle
 10
54.0
 20
343.4117239999999
 30
0.0
 40
0.5
100
AcDbArc
 50
0.0
 51
90.0
  0
LINE
  5
38AC
330
3797
100
AcDbEntity
  8
1
  6
Continuous
100
AcDbLine
 10
54.5
 20
343.4117239999999
 30
0.0
 11
54.5
 21
339.4117239999999
 31
0.0
  0
ARC
  5
38AD
330
3797
100
AcDbEntity
  8
1
  6
Continuous
100
AcDbCircle
 10
54.0
 20
339.4117239999999
 30
0.0
 40
0.5
100
AcDbArc
 50
270.0
 51
0.0
  0
LINE
  5
38AE
330
3797
100
AcDbEntity
  8
1
  6
Continuous
100
AcDbLine
 10
54.0
 20
338.911724
 30
0.0
 11
40.0
 21
338.911724
 31
0.0
  0
ARC
  5
38AF
330
3797
100
AcDbEntity
  8
1
  6
Continuous
100
AcDbCircle
 10
40.0
 20
339.4117239999999
 30
0.0
 40
0.5
100
AcDbArc
 50
180.0
 51
270.0
  0
LINE
  5
38B0
330
3797
100
AcDbEntity
  8
1
  6
Continuous
100
AcDbLine
 10
41.5
 20
210.9117239999999
 30
0.0
 11
42.5
 21
210.9117239999999
 31
0.0
  0
LINE
  5
38B1
330
3797
100
AcDbEntity
  8
1
  6
Continuous
100
AcDbLine
 10
41.5
 20
211.911724
 30
0.0
 11
42.5
 21
211.911724
 31
0.0
  0
LINE
  5
38B2
330
3797
100
AcDbEntity
  8
1
  6
Continuous
100
AcDbLine
 10
41.5
 20
210.9117239999999
 30
0.0
 11
41.5
 21
211.911724
 31
0.0
  0
LINE
  5
38B3
330
3797
100
AcDbEntity
  8
1
  6
Continuous
100
AcDbLine
 10
42.5
 20
210.9117239999999
 30
0.0
 11
42.5
 21
211.911724
 31
0.0
  0
LINE
  5
38B4
330
3797
100
AcDbEntity
  8
1
  6
Continuous
100
AcDbLine
 10
41.5
 20
213.411724
 30
0.0
 11
42.5
 21
213.411724
 31
0.0
  0
LINE
  5
38B5
330
3797
100
AcDbEntity
  8
1
  6
Continuous
100
AcDbLine
 10
42.5
 20
213.411724
 30
0.0
 11
42.5
 21
214.4117239999999
 31
0.0
  0
LINE
  5
38B6
330
3797
100
AcDbEntity
  8
1
  6
Continuous
100
AcDbLine
 10
41.5
 20
214.4117239999999
 30
0.0
 11
42.5
 21
214.4117239999999
 31
0.0
  0
LINE
  5
38B7
330
3797
100
AcDbEntity
  8
1
  6
Continuous
100
AcDbLine
 10
41.5
 20
213.411724
 30
0.0
 11
41.5
 21
214.4117239999999
 31
0.0
  0
LINE
  5
38B8
330
3797
100
AcDbEntity
  8
1
  6
Continuous
100
AcDbLine
 10
41.5
 20
215.911724
 30
0.0
 11
42.5
 21
215.911724
 31
0.0
  0
LINE
  5
38B9
330
3797
100
AcDbEntity
  8
1
  6
Continuous
100
AcDbLine
 10
42.5
 20
215.911724
 30
0.0
 11
42.5
 21
216.9117239999999
 31
0.0
  0
LINE
  5
38BA
330
3797
100
AcDbEntity
  8
1
  6
Continuous
100
AcDbLine
 10
41.5
 20
216.9117239999999
 30
0.0
 11
42.5
 21
216.9117239999999
 31
0.0
  0
LINE
  5
38BB
330
3797
100
AcDbEntity
  8
1
  6
Continuous
100
AcDbLine
 10
41.5
 20
215.911724
 30
0.0
 11
41.5
 21
216.9117239999999
 31
0.0
  0
LINE
  5
38BC
330
3797
100
AcDbEntity
  8
1
  6
Continuous
100
AcDbLine
 10
41.5
 20
218.4117239999999
 30
0.0
 11
42.5
 21
218.4117239999999
 31
0.0
  0
LINE
  5
38BD
330
3797
100
AcDbEntity
  8
1
  6
Continuous
100
AcDbLine
 10
42.5
 20
218.4117239999999
 30
0.0
 11
42.5
 21
219.411724
 31
0.0
  0
LINE
  5
38BE
330
3797
100
AcDbEntity
  8
1
  6
Continuous
100
AcDbLine
 10
41.5
 20
219.411724
 30
0.0
 11
42.5
 21
219.411724
 31
0.0
  0
LINE
  5
38BF
330
3797
100
AcDbEntity
  8
1
  6
Continuous
100
AcDbLine
 10
41.5
 20
218.4117239999999
 30
0.0
 11
41.5
 21
219.411724
 31
0.0
  0
LINE
  5
38C0
330
3797
100
AcDbEntity
  8
1
  6
Continuous
100
AcDbLine
 10
41.5
 20
220.9117239999999
 30
0.0
 11
42.5
 21
220.9117239999999
 31
0.0
  0
LINE
  5
38C1
330
3797
100
AcDbEntity
  8
1
  6
Continuous
100
AcDbLine
 10
42.5
 20
220.9117239999999
 30
0.0
 11
42.5
 21
221.911724
 31
0.0
  0
LINE
  5
38C2
330
3797
100
AcDbEntity
  8
1
  6
Continuous
100
AcDbLine
 10
41.5
 20
221.911724
 30
0.0
 11
42.5
 21
221.911724
 31
0.0
  0
LINE
  5
38C3
330
3797
100
AcDbEntity
  8
1
  6
Continuous
100
AcDbLine
 10
41.5
 20
220.9117239999999
 30
0.0
 11
41.5
 21
221.911724
 31
0.0
  0
LINE
  5
38C4
330
3797
100
AcDbEntity
  8
1
  6
Continuous
100
AcDbLine
 10
44.0
 20
210.9117239999999
 30
0.0
 11
45.0
 21
210.9117239999999
 31
0.0
  0
LINE
  5
38C5
330
3797
100
AcDbEntity
  8
1
  6
Continuous
100
AcDbLine
 10
45.0
 20
210.9117239999999
 30
0.0
 11
45.0
 21
211.911724
 31
0.0
  0
LINE
  5
38C6
330
3797
100
AcDbEntity
  8
1
  6
Continuous
100
AcDbLine
 10
44.0
 20
211.911724
 30
0.0
 11
45.0
 21
211.911724
 31
0.0
  0
LINE
  5
38C7
330
3797
100
AcDbEntity
  8
1
  6
Continuous
100
AcDbLine
 10
44.0
 20
210.9117239999999
 30
0.0
 11
44.0
 21
211.911724
 31
0.0
  0
LINE
  5
38C8
330
3797
100
AcDbEntity
  8
1
  6
Continuous
100
AcDbLine
 10
44.0
 20
213.411724
 30
0.0
 11
45.0
 21
213.411724
 31
0.0
  0
LINE
  5
38C9
330
3797
100
AcDbEntity
  8
1
  6
Continuous
100
AcDbLine
 10
45.0
 20
213.411724
 30
0.0
 11
45.0
 21
214.4117239999999
 31
0.0
  0
LINE
  5
38CA
330
3797
100
AcDbEntity
  8
1
  6
Continuous
100
AcDbLine
 10
44.0
 20
214.4117239999999
 30
0.0
 11
45.0
 21
214.4117239999999
 31
0.0
  0
LINE
  5
38CB
330
3797
100
AcDbEntity
  8
1
  6
Continuous
100
AcDbLine
 10
44.0
 20
213.411724
 30
0.0
 11
44.0
 21
214.4117239999999
 31
0.0
  0
LINE
  5
38CC
330
3797
100
AcDbEntity
  8
1
  6
Continuous
100
AcDbLine
 10
44.0
 20
215.911724
 30
0.0
 11
45.0
 21
215.911724
 31
0.0
  0
LINE
  5
38CD
330
3797
100
AcDbEntity
  8
1
  6
Continuous
100
AcDbLine
 10
45.0
 20
215.911724
 30
0.0
 11
45.0
 21
216.9117239999999
 31
0.0
  0
LINE
  5
38CE
330
3797
100
AcDbEntity
  8
1
  6
Continuous
100
AcDbLine
 10
44.0
 20
216.9117239999999
 30
0.0
 11
45.0
 21
216.9117239999999
 31
0.0
  0
LINE
  5
38CF
330
3797
100
AcDbEntity
  8
1
  6
Continuous
100
AcDbLine
 10
44.0
 20
215.911724
 30
0.0
 11
44.0
 21
216.9117239999999
 31
0.0
  0
LINE
  5
38D0
330
3797
100
AcDbEntity
  8
1
  6
Continuous
100
AcDbLine
 10
44.0
 20
218.4117239999999
 30
0.0
 11
45.0
 21
218.4117239999999
 31
0.0
  0
LINE
  5
38D1
330
3797
100
AcDbEntity
  8
1
  6
Continuous
100
AcDbLine
 10
45.0
 20
218.4117239999999
 30
0.0
 11
45.0
 21
219.411724
 31
0.0
  0
LINE
  5
38D2
330
3797
100
AcDbEntity
  8
1
  6
Continuous
100
AcDbLine
 10
44.0
 20
219.411724
 30
0.0
 11
45.0
 21
219.411724
 31
0.0
  0
LINE
  5
38D3
330
3797
100
AcDbEntity
  8
1
  6
Continuous
100
AcDbLine
 10
44.0
 20
218.4117239999999
 30
0.0
 11
44.0
 21
219.411724
 31
0.0
  0
LINE
  5
38D4
330
3797
100
AcDbEntity
  8
1
  6
Continuous
100
AcDbLine
 10
44.0
 20
220.9117239999999
 30
0.0
 11
45.0
 21
220.9117239999999
 31
0.0
  0
LINE
  5
38D5
330
3797
100
AcDbEntity
  8
1
  6
Continuous
100
AcDbLine
 10
45.0
 20
220.9117239999999
 30
0.0
 11
45.0
 21
221.911724
 31
0.0
  0
LINE
  5
38D6
330
3797
100
AcDbEntity
  8
1
  6
Continuous
100
AcDbLine
 10
44.0
 20
221.911724
 30
0.0
 11
45.0
 21
221.911724
 31
0.0
  0
LINE
  5
38D7
330
3797
100
AcDbEntity
  8
1
  6
Continuous
100
AcDbLine
 10
44.0
 20
220.9117239999999
 30
0.0
 11
44.0
 21
221.911724
 31
0.0
  0
LINE
  5
38D8
330
3797
100
AcDbEntity
  8
1
  6
Continuous
100
AcDbLine
 10
46.5
 20
210.9117239999999
 30
0.0
 11
47.5
 21
210.9117239999999
 31
0.0
  0
LINE
  5
38D9
330
3797
100
AcDbEntity
  8
1
  6
Continuous
100
AcDbLine
 10
47.5
 20
210.9117239999999
 30
0.0
 11
47.5
 21
211.911724
 31
0.0
  0
LINE
  5
38DA
330
3797
100
AcDbEntity
  8
1
  6
Continuous
100
AcDbLine
 10
46.5
 20
211.911724
 30
0.0
 11
47.5
 21
211.911724
 31
0.0
  0
LINE
  5
38DB
330
3797
100
AcDbEntity
  8
1
  6
Continuous
100
AcDbLine
 10
46.5
 20
210.9117239999999
 30
0.0
 11
46.5
 21
211.911724
 31
0.0
  0
LINE
  5
38DC
330
3797
100
AcDbEntity
  8
1
  6
Continuous
100
AcDbLine
 10
46.5
 20
213.411724
 30
0.0
 11
47.5
 21
213.411724
 31
0.0
  0
LINE
  5
38DD
330
3797
100
AcDbEntity
  8
1
  6
Continuous
100
AcDbLine
 10
47.5
 20
213.411724
 30
0.0
 11
47.5
 21
214.4117239999999
 31
0.0
  0
LINE
  5
38DE
330
3797
100
AcDbEntity
  8
1
  6
Continuous
100
AcDbLine
 10
46.5
 20
214.4117239999999
 30
0.0
 11
47.5
 21
214.4117239999999
 31
0.0
  0
LINE
  5
38DF
330
3797
100
AcDbEntity
  8
1
  6
Continuous
100
AcDbLine
 10
46.5
 20
213.411724
 30
0.0
 11
46.5
 21
214.4117239999999
 31
0.0
  0
LINE
  5
38E0
330
3797
100
AcDbEntity
  8
1
  6
Continuous
100
AcDbLine
 10
46.5
 20
215.911724
 30
0.0
 11
47.5
 21
215.911724
 31
0.0
  0
LINE
  5
38E1
330
3797
100
AcDbEntity
  8
1
  6
Continuous
100
AcDbLine
 10
47.5
 20
215.911724
 30
0.0
 11
47.5
 21
216.9117239999999
 31
0.0
  0
LINE
  5
38E2
330
3797
100
AcDbEntity
  8
1
  6
Continuous
100
AcDbLine
 10
46.5
 20
216.9117239999999
 30
0.0
 11
47.5
 21
216.9117239999999
 31
0.0
  0
LINE
  5
38E3
330
3797
100
AcDbEntity
  8
1
  6
Continuous
100
AcDbLine
 10
46.5
 20
215.911724
 30
0.0
 11
46.5
 21
216.9117239999999
 31
0.0
  0
LINE
  5
38E4
330
3797
100
AcDbEntity
  8
1
  6
Continuous
100
AcDbLine
 10
46.5
 20
218.4117239999999
 30
0.0
 11
47.5
 21
218.4117239999999
 31
0.0
  0
LINE
  5
38E5
330
3797
100
AcDbEntity
  8
1
  6
Continuous
100
AcDbLine
 10
47.5
 20
218.4117239999999
 30
0.0
 11
47.5
 21
219.411724
 31
0.0
  0
LINE
  5
38E6
330
3797
100
AcDbEntity
  8
1
  6
Continuous
100
AcDbLine
 10
46.5
 20
219.411724
 30
0.0
 11
47.5
 21
219.411724
 31
0.0
  0
LINE
  5
38E7
330
3797
100
AcDbEntity
  8
1
  6
Continuous
100
AcDbLine
 10
46.5
 20
218.4117239999999
 30
0.0
 11
46.5
 21
219.411724
 31
0.0
  0
LINE
  5
38E8
330
3797
100
AcDbEntity
  8
1
  6
Continuous
100
AcDbLine
 10
46.5
 20
220.9117239999999
 30
0.0
 11
47.5
 21
220.9117239999999
 31
0.0
  0
LINE
  5
38E9
330
3797
100
AcDbEntity
  8
1
  6
Continuous
100
AcDbLine
 10
47.5
 20
220.9117239999999
 30
0.0
 11
47.5
 21
221.911724
 31
0.0
  0
LINE
  5
38EA
330
3797
100
AcDbEntity
  8
1
  6
Continuous
100
AcDbLine
 10
46.5
 20
221.911724
 30
0.0
 11
47.5
 21
221.911724
 31
0.0
  0
LINE
  5
38EB
330
3797
100
AcDbEntity
  8
1
  6
Continuous
100
AcDbLine
 10
46.5
 20
220.9117239999999
 30
0.0
 11
46.5
 21
221.911724
 31
0.0
  0
LINE
  5
38EC
330
3797
100
AcDbEntity
  8
1
  6
Continuous
100
AcDbLine
 10
49.0
 20
210.9117239999999
 30
0.0
 11
50.0
 21
210.9117239999999
 31
0.0
  0
LINE
  5
38ED
330
3797
100
AcDbEntity
  8
1
  6
Continuous
100
AcDbLine
 10
50.0
 20
210.9117239999999
 30
0.0
 11
50.0
 21
211.911724
 31
0.0
  0
LINE
  5
38EE
330
3797
100
AcDbEntity
  8
1
  6
Continuous
100
AcDbLine
 10
49.0
 20
211.911724
 30
0.0
 11
50.0
 21
211.911724
 31
0.0
  0
LINE
  5
38EF
330
3797
100
AcDbEntity
  8
1
  6
Continuous
100
AcDbLine
 10
49.0
 20
210.9117239999999
 30
0.0
 11
49.0
 21
211.911724
 31
0.0
  0
LINE
  5
38F0
330
3797
100
AcDbEntity
  8
1
  6
Continuous
100
AcDbLine
 10
49.0
 20
213.411724
 30
0.0
 11
50.0
 21
213.411724
 31
0.0
  0
LINE
  5
38F1
330
3797
100
AcDbEntity
  8
1
  6
Continuous
100
AcDbLine
 10
50.0
 20
213.411724
 30
0.0
 11
50.0
 21
214.4117239999999
 31
0.0
  0
LINE
  5
38F2
330
3797
100
AcDbEntity
  8
1
  6
Continuous
100
AcDbLine
 10
49.0
 20
214.4117239999999
 30
0.0
 11
50.0
 21
214.4117239999999
 31
0.0
  0
LINE
  5
38F3
330
3797
100
AcDbEntity
  8
1
  6
Continuous
100
AcDbLine
 10
49.0
 20
213.411724
 30
0.0
 11
49.0
 21
214.4117239999999
 31
0.0
  0
LINE
  5
38F4
330
3797
100
AcDbEntity
  8
1
  6
Continuous
100
AcDbLine
 10
49.0
 20
215.911724
 30
0.0
 11
50.0
 21
215.911724
 31
0.0
  0
LINE
  5
38F5
330
3797
100
AcDbEntity
  8
1
  6
Continuous
100
AcDbLine
 10
50.0
 20
215.911724
 30
0.0
 11
50.0
 21
216.9117239999999
 31
0.0
  0
LINE
  5
38F6
330
3797
100
AcDbEntity
  8
1
  6
Continuous
100
AcDbLine
 10
49.0
 20
216.9117239999999
 30
0.0
 11
50.0
 21
216.9117239999999
 31
0.0
  0
LINE
  5
38F7
330
3797
100
AcDbEntity
  8
1
  6
Continuous
100
AcDbLine
 10
49.0
 20
215.911724
 30
0.0
 11
49.0
 21
216.9117239999999
 31
0.0
  0
LINE
  5
38F8
330
3797
100
AcDbEntity
  8
1
  6
Continuous
100
AcDbLine
 10
49.0
 20
218.4117239999999
 30
0.0
 11
50.0
 21
218.4117239999999
 31
0.0
  0
LINE
  5
38F9
330
3797
100
AcDbEntity
  8
1
  6
Continuous
100
AcDbLine
 10
50.0
 20
218.4117239999999
 30
0.0
 11
50.0
 21
219.411724
 31
0.0
  0
LINE
  5
38FA
330
3797
100
AcDbEntity
  8
1
  6
Continuous
100
AcDbLine
 10
49.0
 20
219.411724
 30
0.0
 11
50.0
 21
219.411724
 31
0.0
  0
LINE
  5
38FB
330
3797
100
AcDbEntity
  8
1
  6
Continuous
100
AcDbLine
 10
49.0
 20
218.4117239999999
 30
0.0
 11
49.0
 21
219.411724
 31
0.0
  0
LINE
  5
38FC
330
3797
100
AcDbEntity
  8
1
  6
Continuous
100
AcDbLine
 10
49.0
 20
220.9117239999999
 30
0.0
 11
50.0
 21
220.9117239999999
 31
0.0
  0
LINE
  5
38FD
330
3797
100
AcDbEntity
  8
1
  6
Continuous
100
AcDbLine
 10
50.0
 20
220.9117239999999
 30
0.0
 11
50.0
 21
221.911724
 31
0.0
  0
LINE
  5
38FE
330
3797
100
AcDbEntity
  8
1
  6
Continuous
100
AcDbLine
 10
49.0
 20
221.911724
 30
0.0
 11
50.0
 21
221.911724
 31
0.0
  0
LINE
  5
38FF
330
3797
100
AcDbEntity
  8
1
  6
Continuous
100
AcDbLine
 10
49.0
 20
220.9117239999999
 30
0.0
 11
49.0
 21
221.911724
 31
0.0
  0
LINE
  5
3900
330
3797
100
AcDbEntity
  8
1
  6
Continuous
100
AcDbLine
 10
51.5
 20
210.9117239999999
 30
0.0
 11
52.5
 21
210.9117239999999
 31
0.0
  0
LINE
  5
3901
330
3797
100
AcDbEntity
  8
1
  6
Continuous
100
AcDbLine
 10
52.5
 20
210.9117239999999
 30
0.0
 11
52.5
 21
211.911724
 31
0.0
  0
LINE
  5
3902
330
3797
100
AcDbEntity
  8
1
  6
Continuous
100
AcDbLine
 10
51.5
 20
211.911724
 30
0.0
 11
52.5
 21
211.911724
 31
0.0
  0
LINE
  5
3903
330
3797
100
AcDbEntity
  8
1
  6
Continuous
100
AcDbLine
 10
51.5
 20
210.9117239999999
 30
0.0
 11
51.5
 21
211.911724
 31
0.0
  0
LINE
  5
3904
330
3797
100
AcDbEntity
  8
1
  6
Continuous
100
AcDbLine
 10
51.5
 20
213.411724
 30
0.0
 11
52.5
 21
213.411724
 31
0.0
  0
LINE
  5
3905
330
3797
100
AcDbEntity
  8
1
  6
Continuous
100
AcDbLine
 10
52.5
 20
213.411724
 30
0.0
 11
52.5
 21
214.4117239999999
 31
0.0
  0
LINE
  5
3906
330
3797
100
AcDbEntity
  8
1
  6
Continuous
100
AcDbLine
 10
51.5
 20
214.4117239999999
 30
0.0
 11
52.5
 21
214.4117239999999
 31
0.0
  0
LINE
  5
3907
330
3797
100
AcDbEntity
  8
1
  6
Continuous
100
AcDbLine
 10
51.5
 20
213.411724
 30
0.0
 11
51.5
 21
214.4117239999999
 31
0.0
  0
LINE
  5
3908
330
3797
100
AcDbEntity
  8
1
  6
Continuous
100
AcDbLine
 10
51.5
 20
215.911724
 30
0.0
 11
52.5
 21
215.911724
 31
0.0
  0
LINE
  5
3909
330
3797
100
AcDbEntity
  8
1
  6
Continuous
100
AcDbLine
 10
52.5
 20
215.911724
 30
0.0
 11
52.5
 21
216.9117239999999
 31
0.0
  0
LINE
  5
390A
330
3797
100
AcDbEntity
  8
1
  6
Continuous
100
AcDbLine
 10
51.5
 20
216.9117239999999
 30
0.0
 11
52.5
 21
216.9117239999999
 31
0.0
  0
LINE
  5
390B
330
3797
100
AcDbEntity
  8
1
  6
Continuous
100
AcDbLine
 10
51.5
 20
215.911724
 30
0.0
 11
51.5
 21
216.9117239999999
 31
0.0
  0
LINE
  5
390C
330
3797
100
AcDbEntity
  8
1
  6
Continuous
100
AcDbLine
 10
51.5
 20
218.4117239999999
 30
0.0
 11
52.5
 21
218.4117239999999
 31
0.0
  0
LINE
  5
390D
330
3797
100
AcDbEntity
  8
1
  6
Continuous
100
AcDbLine
 10
52.5
 20
218.4117239999999
 30
0.0
 11
52.5
 21
219.411724
 31
0.0
  0
LINE
  5
390E
330
3797
100
AcDbEntity
  8
1
  6
Continuous
100
AcDbLine
 10
51.5
 20
219.411724
 30
0.0
 11
52.5
 21
219.411724
 31
0.0
  0
LINE
  5
390F
330
3797
100
AcDbEntity
  8
1
  6
Continuous
100
AcDbLine
 10
51.5
 20
218.4117239999999
 30
0.0
 11
51.5
 21
219.411724
 31
0.0
  0
LINE
  5
3910
330
3797
100
AcDbEntity
  8
1
  6
Continuous
100
AcDbLine
 10
51.5
 20
220.9117239999999
 30
0.0
 11
52.5
 21
220.9117239999999
 31
0.0
  0
LINE
  5
3911
330
3797
100
AcDbEntity
  8
1
  6
Continuous
100
AcDbLine
 10
52.5
 20
220.9117239999999
 30
0.0
 11
52.5
 21
221.911724
 31
0.0
  0
LINE
  5
3912
330
3797
100
AcDbEntity
  8
1
  6
Continuous
100
AcDbLine
 10
51.5
 20
221.911724
 30
0.0
 11
52.5
 21
221.911724
 31
0.0
  0
LINE
  5
3913
330
3797
100
AcDbEntity
  8
1
  6
Continuous
100
AcDbLine
 10
51.5
 20
220.9117239999999
 30
0.0
 11
51.5
 21
221.911724
 31
0.0
  0
LINE
  5
3914
330
3797
100
AcDbEntity
  8
1
  6
Continuous
100
AcDbLine
 10
472.500558
 20
249.9117239999999
 30
0.0
 11
472.500558
 21
232.411724
 31
0.0
  0
LINE
  5
3915
330
3797
100
AcDbEntity
  8
1
  6
Continuous
100
AcDbLine
 10
473.500558
 20
250.911724
 30
0.0
 11
483.600558
 21
250.911724
 31
0.0
  0
ARC
  5
3916
330
3797
100
AcDbEntity
  8
1
  6
Continuous
100
AcDbCircle
 10
473.500558
 20
249.9117239999999
 30
0.0
 40
1.0
100
AcDbArc
 50
90.0
 51
180.0
  0
ARC
  5
3917
330
3797
100
AcDbEntity
  8
1
  6
Continuous
100
AcDbCircle
 10
483.600558
 20
249.9117239999999
 30
0.0
 40
1.0
100
AcDbArc
 50
0.0
 51
90.0
  0
LINE
  5
3918
330
3797
100
AcDbEntity
  8
1
  6
Continuous
100
AcDbLine
 10
484.6005579999999
 20
249.9117239999999
 30
0.0
 11
484.6005579999999
 21
232.411724
 31
0.0
  0
ARC
  5
3919
330
3797
100
AcDbEntity
  8
1
  6
Continuous
100
AcDbCircle
 10
485.6005579999998
 20
232.411724
 30
0.0
 40
1.0
100
AcDbArc
 50
180.0
 51
270.0
  0
ARC
  5
391A
330
3797
100
AcDbEntity
  8
1
  6
Continuous
100
AcDbCircle
 10
471.500558
 20
232.411724
 30
0.0
 40
1.0
100
AcDbArc
 50
270.0
 51
0.0
  0
LINE
  5
391B
330
3797
100
AcDbEntity
  8
1
  6
Continuous
100
AcDbLine
 10
464.050558
 20
255.9472579999999
 30
0.0
 11
493.050558
 21
255.9472579999999
 31
0.0
  0
LINE
  5
391C
330
3797
100
AcDbEntity
  8
1
  6
Continuous
100
AcDbLine
 10
464.050558
 20
249.411724
 30
0.0
 11
472.500558
 21
249.411724
 31
0.0
  0
LINE
  5
391D
330
3797
100
AcDbEntity
  8
1
  6
Continuous
100
AcDbLine
 10
484.6005579999999
 20
249.411724
 30
0.0
 11
493.050558
 21
249.411724
 31
0.0
  0
LINE
  5
391E
330
3797
100
AcDbEntity
  8
1
  6
Continuous
100
AcDbLine
 10
471.500558
 20
231.4117239999999
 30
0.0
 11
464.550558
 21
231.4117239999999
 31
0.0
  0
LINE
  5
391F
330
3797
100
AcDbEntity
  8
1
  6
Continuous
100
AcDbLine
 10
492.550558
 20
231.4117239999999
 30
0.0
 11
485.6005579999998
 21
231.4117239999999
 31
0.0
  0
LINE
  5
3920
330
3797
100
AcDbEntity
  8
1
  6
Continuous
100
AcDbLine
 10
274.8634089999999
 20
250.911724
 30
0.0
 11
277.1681479999999
 21
250.911724
 31
0.0
  0
ARC
  5
3921
330
3797
100
AcDbEntity
  8
1
  6
Continuous
100
AcDbCircle
 10
268.2681479999998
 20
247.3406559999999
 30
0.0
 40
7.5
100
AcDbArc
 50
0.0
 51
45.0
  0
LINE
  5
3922
330
3797
100
AcDbEntity
  8
1
  6
Continuous
100
AcDbLine
 10
275.768148
 20
231.4117239999999
 30
0.0
 11
275.768148
 21
247.3406559999999
 31
0.0
  0
ARC
  5
3923
330
3797
100
AcDbEntity
  8
1
  6
Continuous
100
AcDbCircle
 10
277.1681479999999
 20
249.9117239999999
 30
0.0
 40
1.0
100
AcDbArc
 50
0.0
 51
90.0
  0
LINE
  5
3924
330
3797
100
AcDbEntity
  8
1
  6
Continuous
100
AcDbLine
 10
277.1681479999999
 20
231.4117239999999
 30
0.0
 11
275.768148
 21
231.4117239999999
 31
0.0
  0
ARC
  5
3925
330
3797
100
AcDbEntity
  8
1
  6
Continuous
100
AcDbCircle
 10
277.1681479999999
 20
230.411724
 30
0.0
 40
1.0
100
AcDbArc
 50
0.0
 51
90.0
  0
LINE
  5
3926
330
3797
100
AcDbEntity
  8
1
  6
Continuous
100
AcDbLine
 10
273.5714479999999
 20
252.6439569999999
 30
0.0
 11
270.414594
 21
255.8008109999999
 31
0.0
  0
LINE
  5
3927
330
3797
100
AcDbEntity
  8
1
  6
Continuous
100
AcDbLine
 10
40.62502799999999
 20
225.860418
 30
0.0
 11
40.62502799999999
 21
222.860418
 31
0.0
  0
LINE
  5
3928
330
3797
100
AcDbEntity
  8
1
  6
Continuous
100
AcDbLine
 10
40.62502799999999
 20
224.360418
 30
0.0
 11
41.87502799999999
 21
224.360418
 31
0.0
  0
ARC
  5
3929
330
3797
100
AcDbEntity
  8
1
  6
Continuous
100
AcDbCircle
 10
41.87502799999999
 20
225.110418
 30
0.0
 40
0.75
100
AcDbArc
 50
270.0
 51
90.0
  0
LINE
  5
392A
330
3797
100
AcDbEntity
  8
1
  6
Continuous
100
AcDbLine
 10
53.497111
 20
225.860418
 30
0.0
 11
53.497111
 21
222.860418
 31
0.0
  0
LINE
  5
392B
330
3797
100
AcDbEntity
  8
1
  6
Continuous
100
AcDbLine
 10
51.497111
 20
225.860418
 30
0.0
 11
51.497111
 21
222.860418
 31
0.0
  0
LINE
  5
392C
330
3797
100
AcDbEntity
  8
1
  6
Continuous
100
AcDbLine
 10
51.497111
 20
224.360418
 30
0.0
 11
53.497111
 21
224.360418
 31
0.0
  0
LINE
  5
392D
330
3797
100
AcDbEntity
  8
1
  6
Continuous
100
AcDbLine
 10
46.29832799999999
 20
225.860418
 30
0.0
 11
46.29832799999999
 21
223.860418
 31
0.0
  0
LINE
  5
392E
330
3797
100
AcDbEntity
  8
1
  6
Continuous
100
AcDbLine
 10
44.29832799999998
 20
225.860418
 30
0.0
 11
44.29832799999998
 21
223.860418
 31
0.0
  0
ARC
  5
392F
330
3797
100
AcDbEntity
  8
1
  6
Continuous
100
AcDbCircle
 10
45.298328
 20
223.860418
 30
0.0
 40
1.0
100
AcDbArc
 50
180.0
 51
0.0
  0
ARC
  5
3930
330
3797
100
AcDbEntity
  8
1
  6
Continuous
100
AcDbCircle
 10
48.893414
 20
223.860418
 30
0.0
 40
1.0
100
AcDbArc
 50
180.0
 51
327.3747789999998
  0
ARC
  5
3931
330
3797
100
AcDbEntity
  8
1
  6
Continuous
100
AcDbCircle
 10
48.893414
 20
224.860418
 30
0.0
 40
1.0
100
AcDbArc
 50
0.0
 51
147.374779
  0
LINE
  5
3932
330
3797
100
AcDbEntity
  8
1
  6
Continuous
100
AcDbLine
 10
48.2487
 20
224.6827759999999
 30
0.0
 11
49.53812899999999
 21
224.0380609999998
 31
0.0
  0
ARC
  5
3933
330
3797
100
AcDbEntity
  8
1
  6
Continuous
100
AcDbCircle
 10
48.472307
 20
225.1299889999998
 30
0.0
 40
0.5
100
AcDbArc
 50
147.374779
 51
243.4349489999999
  0
ARC
  5
3934
330
3797
100
AcDbEntity
  8
1
  6
Continuous
100
AcDbCircle
 10
49.31452199999998
 20
223.5908479999999
 30
0.0
 40
0.5
100
AcDbArc
 50
327.3747789999998
 51
63.434949
  0
LINE
  5
3935
330
3797
100
AcDbEntity
  8
1
  6
Continuous
100
AcDbLine
 10
41.87502799999999
 20
225.860418
 30
0.0
 11
40.62502799999999
 21
225.860418
 31
0.0
  0
LINE
  5
3936
330
3797
100
AcDbEntity
  8
1
  6
Continuous
100
AcDbLine
 10
310.34413
 20
355.411724
 30
0.0
 11
311.84413
 21
356.9117240000001
 31
0.0
  0
LINE
  5
3937
330
3797
100
AcDbEntity
  8
1
  6
Continuous
100
AcDbLine
 10
310.34413
 20
353.9117239999998
 30
0.0
 11
311.84413
 21
355.411724
 31
0.0
  0
LINE
  5
3938
330
3797
100
AcDbEntity
  8
4
  6
CENTER
100
AcDbLine
 10
286.1681479999998
 20
355.411724
 30
0.0
 11
245.857558
 21
355.411724
 31
0.0
  0
LINE
  5
3939
330
3797
100
AcDbEntity
  8
4
  6
CENTER
100
AcDbLine
 10
178.0
 20
355.411724
 30
0.0
 11
26.972221
 21
355.411724
 31
0.0
  0
ARC
  5
393A
330
3797
100
AcDbEntity
  8
1
  6
Continuous
100
AcDbCircle
 10
37.0
 20
230.411724
 30
0.0
 40
1.0
100
AcDbArc
 50
180.0
 51
270.0
  0
LINE
  5
393B
330
3797
100
AcDbEntity
  8
1
  6
Continuous
100
AcDbLine
 10
37.0
 20
229.4117239999999
 30
0.0
 11
57.0
 21
229.4117239999999
 31
0.0
  0
ARC
  5
393C
330
3797
100
AcDbEntity
  8
1
  6
Continuous
100
AcDbCircle
 10
57.0
 20
230.411724
 30
0.0
 40
1.0
100
AcDbArc
 50
270.0
 51
0.0
  0
LINE
  5
393D
330
3797
100
AcDbEntity
  8
1
  6
Continuous
100
AcDbLine
 10
58.0
 20
359.76265
 30
0.0
 11
58.0
 21
230.411724
 31
0.0
  0
LINE
  5
393E
330
3797
100
AcDbEntity
  8
1
  6
Continuous
100
AcDbLine
 10
36.0
 20
359.76265
 30
0.0
 11
36.0
 21
230.411724
 31
0.0
  0
LINE
  5
393F
330
3797
100
AcDbEntity
  8
1
  6
Continuous
100
AcDbLine
 10
37.0
 20
360.144616
 30
0.0
 11
57.0
 21
360.144616
 31
0.0
  0
ARC
  5
3940
330
3797
100
AcDbEntity
  8
1
  6
Continuous
100
AcDbCircle
 10
57.0
 20
358.6446159999999
 30
0.0
 40
1.5
100
AcDbArc
 50
0.0
 51
90.0
  0
ARC
  5
3941
330
3797
100
AcDbEntity
  8
1
  6
Continuous
100
AcDbCircle
 10
37.0
 20
358.6446159999999
 30
0.0
 40
1.5
100
AcDbArc
 50
90.0
 51
180.0
  0
LINE
  5
3942
330
3797
100
AcDbEntity
  8
1
  6
Continuous
100
AcDbLine
 10
270.2681479999998
 20
256.154364
 30
0.0
 11
270.2681479999998
 21
346.397846
 31
0.0
  0
LINE
  5
3943
330
3797
100
AcDbEntity
  8
4
  6
CENTER
100
AcDbLine
 10
275.268148
 20
329.4117239999998
 30
0.0
 11
256.5951479999998
 21
329.4117239999998
 31
0.0
  0
LINE
  5
3944
330
3797
100
AcDbEntity
  8
4
  6
CENTER
100
AcDbLine
 10
275.268148
 20
264.4117239999999
 30
0.0
 11
256.5951479999998
 21
264.4117239999999
 31
0.0
  0
ARC
  5
3945
330
3797
100
AcDbEntity
  8
1
  6
Continuous
100
AcDbCircle
 10
270.768148
 20
256.154364
 30
0.0
 40
0.5
100
AcDbArc
 50
180.0
 51
225.0
  0
LINE
  5
3946
330
3797
100
AcDbEntity
  8
4
  6
CENTER
100
AcDbLine
 10
365.3033009999999
 20
329.4117239999998
 30
0.0
 11
346.6303009999998
 21
329.4117239999998
 31
0.0
  0
LINE
  5
3947
330
3797
100
AcDbEntity
  8
4
  6
CENTER
100
AcDbLine
 10
365.3033009999999
 20
264.4117239999999
 30
0.0
 11
346.6303009999998
 21
264.4117239999999
 31
0.0
  0
LINE
  5
3948
330
3797
100
AcDbEntity
  8
1
  6
Continuous
100
AcDbLine
 10
277.9681479999999
 20
365.4117240000001
 30
0.0
 11
278.1681479999999
 21
365.4117240000001
 31
0.0
  0
LINE
  5
3949
330
3797
100
AcDbEntity
  8
1
  6
Continuous
100
AcDbLine
 10
276.1681479999999
 20
350.4117239999998
 30
0.0
 11
278.1681479999999
 21
350.4117239999998
 31
0.0
  0
LINE
  5
394A
330
3797
100
AcDbEntity
  8
1
  6
Continuous
100
AcDbLine
 10
276.1681479999999
 20
348.9117240000001
 30
0.0
 11
278.1681479999999
 21
348.9117240000001
 31
0.0
  0
LINE
  5
394B
330
3797
100
AcDbEntity
  8
1
  6
Continuous
100
AcDbLine
 10
306.74413
 20
478.923449
 30
0.0
 11
306.74413
 21
500.9234489999998
 31
0.0
  0
LINE
  5
394C
330
3797
100
AcDbEntity
  8
1
  6
Continuous
100
AcDbLine
 10
308.74413
 20
478.923449
 30
0.0
 11
308.74413
 21
500.9234489999998
 31
0.0
  0
LINE
  5
394D
330
3797
100
AcDbEntity
  8
1
  6
Continuous
100
AcDbLine
 10
310.34413
 20
481.923449
 30
0.0
 11
310.34413
 21
497.923449
 31
0.0
  0
LINE
  5
394E
330
3797
100
AcDbEntity
  8
1
  6
Continuous
100
AcDbLine
 10
308.74413
 20
478.923449
 30
0.0
 11
304.74413
 21
478.9234490000001
 31
0.0
  0
LINE
  5
394F
330
3797
100
AcDbEntity
  8
1
  6
Continuous
100
AcDbLine
 10
310.34413
 20
481.923449
 30
0.0
 11
308.74413
 21
481.923449
 31
0.0
  0
LINE
  5
3950
330
3797
100
AcDbEntity
  8
1
  6
Continuous
100
AcDbLine
 10
311.84413
 20
484.173449
 30
0.0
 11
310.34413
 21
484.173449
 31
0.0
  0
LINE
  5
3951
330
3797
100
AcDbEntity
  8
4
  6
CENTER
100
AcDbLine
 10
319.84413
 20
489.923449
 30
0.0
 11
300.7441299999998
 21
489.923449
 31
0.0
  0
LINE
  5
3952
330
3797
100
AcDbEntity
  8
1
  6
Continuous
100
AcDbLine
 10
310.34413
 20
488.4234489999998
 30
0.0
 11
311.84413
 21
489.923449
 31
0.0
  0
LINE
  5
3953
330
3797
100
AcDbEntity
  8
1
  6
Continuous
100
AcDbLine
 10
310.34413
 20
489.923449
 30
0.0
 11
311.84413
 21
491.423449
 31
0.0
  0
LINE
  5
3954
330
3797
100
AcDbEntity
  8
1
  6
Continuous
100
AcDbLine
 10
310.34413
 20
495.673449
 30
0.0
 11
311.84413
 21
495.673449
 31
0.0
  0
LINE
  5
3955
330
3797
100
AcDbEntity
  8
1
  6
Continuous
100
AcDbLine
 10
308.74413
 20
500.9234489999998
 30
0.0
 11
304.74413
 21
500.9234489999998
 31
0.0
  0
LINE
  5
3956
330
3797
100
AcDbEntity
  8
1
  6
Continuous
100
AcDbLine
 10
310.34413
 20
497.923449
 30
0.0
 11
308.74413
 21
497.923449
 31
0.0
  0
LINE
  5
3957
330
3797
100
AcDbEntity
  8
1
  6
Continuous
100
AcDbLine
 10
312.2904219999998
 20
489.923449
 30
0.0
 11
315.3978379999998
 21
489.923449
 31
0.0
  0
LINE
  5
3958
330
3797
100
AcDbEntity
  8
1
  6
Continuous
100
AcDbLine
 10
315.84413
 20
494.923449
 30
0.0
 11
311.84413
 21
494.923449
 31
0.0
  0
LINE
  5
3959
330
3797
100
AcDbEntity
  8
1
  6
Continuous
100
AcDbLine
 10
315.84413
 20
484.9234489999998
 30
0.0
 11
311.84413
 21
484.9234489999998
 31
0.0
  0
ARC
  5
395A
330
3797
100
AcDbEntity
  8
1
  6
Continuous
100
AcDbCircle
 10
319.0694219999998
 20
492.4234489999998
 30
0.0
 40
7.225291999999997
100
AcDbArc
 50
159.7567339999999
 51
200.243266
  0
LINE
  5
395B
330
3797
100
AcDbEntity
  8
1
  6
Continuous
100
AcDbLine
 10
311.84413
 20
495.673449
 30
0.0
 11
311.84413
 21
484.173449
 31
0.0
  0
ARC
  5
395C
330
3797
100
AcDbEntity
  8
1
  6
Continuous
100
AcDbCircle
 10
319.0694219999998
 20
487.423449
 30
0.0
 40
7.225291999999997
100
AcDbArc
 50
159.7567339999999
 51
200.243266
  0
ARC
  5
395D
330
3797
100
AcDbEntity
  8
1
  6
Continuous
100
AcDbCircle
 10
308.6188379999998
 20
492.4234489999998
 30
0.0
 40
7.225291999999997
100
AcDbArc
 50
339.756734
 51
20.24326599999998
  0
LINE
  5
395E
330
3797
100
AcDbEntity
  8
1
  6
Continuous
100
AcDbLine
 10
315.84413
 20
494.923449
 30
0.0
 11
315.84413
 21
484.9234489999998
 31
0.0
  0
ARC
  5
395F
330
3797
100
AcDbEntity
  8
1
  6
Continuous
100
AcDbCircle
 10
308.6188379999998
 20
487.423449
 30
0.0
 40
7.225291999999997
100
AcDbArc
 50
339.756734
 51
20.24326599999998
  0
LINE
  5
3960
330
3797
100
AcDbEntity
  8
1
  6
Continuous
100
AcDbLine
 10
480.0320639999998
 20
331.4872029999999
 30
0.0
 11
479.1818389999998
 21
330.6661509999999
 31
0.0
  0
LINE
  5
3961
330
3797
100
AcDbEntity
  8
1
  6
Continuous
100
AcDbLine
 10
480.0320639999998
 20
327.3362409999998
 30
0.0
 11
479.1818389999998
 21
328.1572929999998
 31
0.0
  0
CIRCLE
  5
3962
330
3797
100
AcDbEntity
  8
1
  6
Continuous
100
AcDbCircle
 10
478.550552
 20
329.4117219999999
 30
0.0
 40
5.0
  0
LINE
  5
3963
330
3797
100
AcDbEntity
  8
1
  6
Continuous
100
AcDbLine
 10
477.069041
 20
331.4872029999999
 30
0.0
 11
477.919265
 21
330.6661509999999
 31
0.0
  0
ARC
  5
3964
330
3797
100
AcDbEntity
  8
1
  6
Continuous
100
AcDbCircle
 10
478.550552
 20
329.4117219999999
 30
0.0
 40
2.549999999999998
100
AcDbArc
 50
125.519851
 51
144.480149
  0
LINE
  5
3965
330
3797
100
AcDbEntity
  8
1
  6
Continuous
100
AcDbLine
 10
477.069041
 20
327.3362409999998
 30
0.0
 11
477.919265
 21
328.1572929999998
 31
0.0
  0
LINE
  5
3966
330
3797
100
AcDbEntity
  8
1
  6
Continuous
100
AcDbLine
 10
476.475071
 20
327.9302099999998
 30
0.0
 11
477.2961229999999
 21
328.780435
 31
0.0
  0
LINE
  5
3967
330
3797
100
AcDbEntity
  8
1
  6
Continuous
100
AcDbLine
 10
476.475071
 20
330.893234
 30
0.0
 11
477.2961229999999
 21
330.0430089999998
 31
0.0
  0
ARC
  5
3968
330
3797
100
AcDbEntity
  8
1
  6
Continuous
100
AcDbCircle
 10
478.550552
 20
329.4117219999999
 30
0.0
 40
2.549999999999998
100
AcDbArc
 50
215.5198509999999
 51
234.480149
  0
LINE
  5
3969
330
3797
100
AcDbEntity
  8
1
  6
Continuous
100
AcDbLine
 10
478.550552
 20
328.387063
 30
0.0
 11
479.1818389999998
 21
328.1572929999998
 31
0.0
  0
LINE
  5
396A
330
3797
100
AcDbEntity
  8
1
  6
Continuous
100
AcDbLine
 10
478.550552
 20
330.4363809999998
 30
0.0
 11
479.1818389999998
 21
330.6661509999999
 31
0.0
  0
LINE
  5
396B
330
3797
100
AcDbEntity
  8
1
  6
Continuous
100
AcDbLine
 10
477.5258929999998
 20
329.4117219999999
 30
0.0
 11
477.2961229999999
 21
330.0430089999998
 31
0.0
  0
LINE
  5
396C
330
3797
100
AcDbEntity
  8
1
  6
Continuous
100
AcDbLine
 10
477.5258929999998
 20
329.4117219999999
 30
0.0
 11
477.2961229999999
 21
328.780435
 31
0.0
  0
LINE
  5
396D
330
3797
100
AcDbEntity
  8
1
  6
Continuous
100
AcDbLine
 10
478.550552
 20
328.387063
 30
0.0
 11
477.919265
 21
328.1572929999998
 31
0.0
  0
LINE
  5
396E
330
3797
100
AcDbEntity
  8
1
  6
Continuous
100
AcDbLine
 10
478.550552
 20
330.4363809999998
 30
0.0
 11
477.919265
 21
330.6661509999999
 31
0.0
  0
ARC
  5
396F
330
3797
100
AcDbEntity
  8
1
  6
Continuous
100
AcDbCircle
 10
478.550552
 20
329.4117219999999
 30
0.0
 40
2.549999999999998
100
AcDbArc
 50
35.51985100000001
 51
54.480149
  0
LINE
  5
3970
330
3797
100
AcDbEntity
  8
1
  6
Continuous
100
AcDbLine
 10
479.575212
 20
329.4117219999999
 30
0.0
 11
479.8049809999998
 21
328.780435
 31
0.0
  0
LINE
  5
3971
330
3797
100
AcDbEntity
  8
1
  6
Continuous
100
AcDbLine
 10
479.575212
 20
329.4117219999999
 30
0.0
 11
479.8049809999998
 21
330.0430089999998
 31
0.0
  0
ARC
  5
3972
330
3797
100
AcDbEntity
  8
1
  6
Continuous
100
AcDbCircle
 10
478.550552
 20
329.4117219999999
 30
0.0
 40
2.549999999999998
100
AcDbArc
 50
305.5198509999998
 51
324.4801489999998
  0
LINE
  5
3973
330
3797
100
AcDbEntity
  8
1
  6
Continuous
100
AcDbLine
 10
480.626034
 20
330.893234
 30
0.0
 11
479.8049809999998
 21
330.0430089999998
 31
0.0
  0
LINE
  5
3974
330
3797
100
AcDbEntity
  8
1
  6
Continuous
100
AcDbLine
 10
480.626034
 20
327.9302099999998
 30
0.0
 11
479.8049809999998
 21
328.780435
 31
0.0
  0
ARC
  5
3975
330
3797
100
AcDbEntity
  8
1
  6
Continuous
100
AcDbCircle
 10
478.550558
 20
264.4117239999999
 30
0.0
 40
2.549999999999998
100
AcDbArc
 50
35.51985100000001
 51
54.480149
  0
ARC
  5
3976
330
3797
100
AcDbEntity
  8
1
  6
Continuous
100
AcDbCircle
 10
478.550558
 20
264.4117239999999
 30
0.0
 40
2.549999999999998
100
AcDbArc
 50
125.519851
 51
144.480149
  0
LINE
  5
3977
330
3797
100
AcDbEntity
  8
1
  6
Continuous
100
AcDbLine
 10
477.0690459999998
 20
266.4872059999999
 30
0.0
 11
477.919271
 21
265.666153
 31
0.0
  0
CIRCLE
  5
3978
330
3797
100
AcDbEntity
  8
1
  6
Continuous
100
AcDbCircle
 10
478.550558
 20
264.4117239999999
 30
0.0
 40
5.0
  0
LINE
  5
3979
330
3797
100
AcDbEntity
  8
1
  6
Continuous
100
AcDbLine
 10
480.0320689999998
 20
266.4872059999999
 30
0.0
 11
479.181845
 21
265.666153
 31
0.0
  0
LINE
  5
397A
330
3797
100
AcDbEntity
  8
4
  6
CENTER
100
AcDbLine
 10
486.550558
 20
264.4117269999999
 30
0.0
 11
470.550558
 21
264.4117269999999
 31
0.0
  0
LINE
  5
397B
330
3797
100
AcDbEntity
  8
1
  6
Continuous
100
AcDbLine
 10
478.550558
 20
265.4363839999999
 30
0.0
 11
477.919271
 21
265.666153
 31
0.0
  0
LINE
  5
397C
330
3797
100
AcDbEntity
  8
1
  6
Continuous
100
AcDbLine
 10
478.550558
 20
263.3870649999999
 30
0.0
 11
477.919271
 21
263.1572949999999
 31
0.0
  0
LINE
  5
397D
330
3797
100
AcDbEntity
  8
1
  6
Continuous
100
AcDbLine
 10
477.525898
 20
264.4117239999999
 30
0.0
 11
477.296129
 21
263.780437
 31
0.0
  0
LINE
  5
397E
330
3797
100
AcDbEntity
  8
1
  6
Continuous
100
AcDbLine
 10
477.525898
 20
264.4117239999999
 30
0.0
 11
477.296129
 21
265.0430119999999
 31
0.0
  0
ARC
  5
397F
330
3797
100
AcDbEntity
  8
1
  6
Continuous
100
AcDbCircle
 10
478.550558
 20
264.4117239999999
 30
0.0
 40
2.549999999999998
100
AcDbArc
 50
215.5198509999999
 51
234.480149
  0
LINE
  5
3980
330
3797
100
AcDbEntity
  8
1
  6
Continuous
100
AcDbLine
 10
476.475076
 20
265.893236
 30
0.0
 11
477.296129
 21
265.0430119999999
 31
0.0
  0
LINE
  5
3981
330
3797
100
AcDbEntity
  8
1
  6
Continuous
100
AcDbLine
 10
476.475076
 20
262.9302129999999
 30
0.0
 11
477.296129
 21
263.780437
 31
0.0
  0
LINE
  5
3982
330
3797
100
AcDbEntity
  8
1
  6
Continuous
100
AcDbLine
 10
477.0690459999998
 20
262.336243
 30
0.0
 11
477.919271
 21
263.1572949999999
 31
0.0
  0
LINE
  5
3983
330
3797
100
AcDbEntity
  8
1
  6
Continuous
100
AcDbLine
 10
480.626039
 20
262.9302129999999
 30
0.0
 11
479.8049869999998
 21
263.780437
 31
0.0
  0
LINE
  5
3984
330
3797
100
AcDbEntity
  8
1
  6
Continuous
100
AcDbLine
 10
480.626039
 20
265.893236
 30
0.0
 11
479.8049869999998
 21
265.0430119999999
 31
0.0
  0
ARC
  5
3985
330
3797
100
AcDbEntity
  8
1
  6
Continuous
100
AcDbCircle
 10
478.550558
 20
264.4117239999999
 30
0.0
 40
2.549999999999998
100
AcDbArc
 50
305.5198509999998
 51
324.4801489999998
  0
LINE
  5
3986
330
3797
100
AcDbEntity
  8
1
  6
Continuous
100
AcDbLine
 10
479.575217
 20
264.4117239999999
 30
0.0
 11
479.8049869999998
 21
265.0430119999999
 31
0.0
  0
LINE
  5
3987
330
3797
100
AcDbEntity
  8
1
  6
Continuous
100
AcDbLine
 10
479.575217
 20
264.4117239999999
 30
0.0
 11
479.8049869999998
 21
263.780437
 31
0.0
  0
LINE
  5
3988
330
3797
100
AcDbEntity
  8
1
  6
Continuous
100
AcDbLine
 10
478.550558
 20
265.4363839999999
 30
0.0
 11
479.181845
 21
265.666153
 31
0.0
  0
LINE
  5
3989
330
3797
100
AcDbEntity
  8
1
  6
Continuous
100
AcDbLine
 10
478.550558
 20
263.3870649999999
 30
0.0
 11
479.181845
 21
263.1572949999999
 31
0.0
  0
LINE
  5
398A
330
3797
100
AcDbEntity
  8
1
  6
Continuous
100
AcDbLine
 10
480.0320689999998
 20
262.336243
 30
0.0
 11
479.181845
 21
263.1572949999999
 31
0.0
  0
LINE
  5
398B
330
3797
100
AcDbEntity
  8
1
  6
Continuous
100
AcDbLine
 10
455.050558
 20
355.411724
 30
0.0
 11
460.5505579999998
 21
355.411724
 31
0.0
  0
LINE
  5
398C
330
3797
100
AcDbEntity
  8
1
  6
Continuous
100
AcDbLine
 10
458.550558
 20
337.4117239999999
 30
0.0
 11
498.550558
 21
337.4117239999999
 31
0.0
  0
LINE
  5
398D
330
3797
100
AcDbEntity
  8
1
  6
Continuous
100
AcDbLine
 10
458.550558
 20
315.4117240000001
 30
0.0
 11
498.550558
 21
315.4117240000001
 31
0.0
  0
LINE
  5
398E
330
3797
100
AcDbEntity
  8
1
  6
Continuous
100
AcDbLine
 10
458.550558
 20
278.411724
 30
0.0
 11
498.550558
 21
278.411724
 31
0.0
  0
LINE
  5
398F
330
3797
100
AcDbEntity
  8
1
  6
Continuous
100
AcDbLine
 10
458.550558
 20
272.4117239999999
 30
0.0
 11
498.550558
 21
272.4117239999999
 31
0.0
  0
LINE
  5
3990
330
3797
100
AcDbEntity
  8
1
  6
Continuous
100
AcDbLine
 10
458.550558
 20
256.4117239999999
 30
0.0
 11
498.550558
 21
256.4117239999999
 31
0.0
  0
LINE
  5
3991
330
3797
100
AcDbEntity
  8
1
  6
Continuous
100
AcDbLine
 10
455.050558
 20
238.411724
 30
0.0
 11
460.5505579999998
 21
238.411724
 31
0.0
  0
LINE
  5
3992
330
3797
100
AcDbEntity
  8
1
  6
Continuous
100
AcDbLine
 10
496.550558
 20
355.411724
 30
0.0
 11
496.550558
 21
337.4117239999999
 31
0.0
  0
LINE
  5
3993
330
3797
100
AcDbEntity
  8
1
  6
Continuous
100
AcDbLine
 10
460.5505579999998
 20
355.411724
 30
0.0
 11
460.5505579999998
 21
337.4117239999999
 31
0.0
  0
LINE
  5
3994
330
3797
100
AcDbEntity
  8
1
  6
Continuous
100
AcDbLine
 10
504.050558
 20
353.411724
 30
0.0
 11
504.050558
 21
240.411724
 31
0.0
  0
LINE
  5
3995
330
3797
100
AcDbEntity
  8
1
  6
Continuous
100
AcDbLine
 10
453.050558
 20
353.411724
 30
0.0
 11
453.050558
 21
240.411724
 31
0.0
  0
ARC
  5
3996
330
3797
100
AcDbEntity
  8
1
  6
Continuous
100
AcDbCircle
 10
455.050558
 20
353.411724
 30
0.0
 40
2.0
100
AcDbArc
 50
90.0
 51
180.0
  0
ARC
  5
3997
330
3797
100
AcDbEntity
  8
1
  6
Continuous
100
AcDbCircle
 10
455.050558
 20
240.411724
 30
0.0
 40
2.0
100
AcDbArc
 50
180.0
 51
270.0
  0
ARC
  5
3998
330
3797
100
AcDbEntity
  8
1
  6
Continuous
100
AcDbCircle
 10
502.050558
 20
240.411724
 30
0.0
 40
2.0
100
AcDbArc
 50
270.0
 51
0.0
  0
ARC
  5
3999
330
3797
100
AcDbEntity
  8
1
  6
Continuous
100
AcDbCircle
 10
502.050558
 20
353.411724
 30
0.0
 40
2.0
100
AcDbArc
 50
0.0
 51
90.0
  0
LINE
  5
399A
330
3797
100
AcDbEntity
  8
1
  6
Continuous
100
AcDbLine
 10
496.550558
 20
355.411724
 30
0.0
 11
502.050558
 21
355.411724
 31
0.0
  0
LINE
  5
399B
330
3797
100
AcDbEntity
  8
1
  6
Continuous
100
AcDbLine
 10
458.550558
 20
355.411724
 30
0.0
 11
458.550558
 21
321.4117240000001
 31
0.0
  0
LINE
  5
399C
330
3797
100
AcDbEntity
  8
1
  6
Continuous
100
AcDbLine
 10
498.550558
 20
355.411724
 30
0.0
 11
498.550558
 21
321.4117240000001
 31
0.0
  0
LINE
  5
399D
330
3797
100
AcDbEntity
  8
1
  6
Continuous
100
AcDbLine
 10
500.550558
 20
238.411724
 30
0.0
 11
500.550558
 21
178.9265
 31
0.0
  0
LINE
  5
399E
330
3797
100
AcDbEntity
  8
1
  6
Continuous
100
AcDbLine
 10
456.5505579999999
 20
238.411724
 30
0.0
 11
456.5505579999999
 21
178.9265
 31
0.0
  0
LINE
  5
399F
330
3797
100
AcDbEntity
  8
1
  6
Continuous
100
AcDbLine
 10
463.550558
 20
256.4117239999999
 30
0.0
 11
463.550558
 21
184.0117239999999
 31
0.0
  0
LINE
  5
39A0
330
3797
100
AcDbEntity
  8
1
  6
Continuous
100
AcDbLine
 10
461.050558
 20
256.4117239999999
 30
0.0
 11
461.050558
 21
186.0117239999999
 31
0.0
  0
LINE
  5
39A1
330
3797
100
AcDbEntity
  8
1
  6
Continuous
100
AcDbLine
 10
493.550558
 20
256.4117239999999
 30
0.0
 11
493.550558
 21
184.0117239999999
 31
0.0
  0
LINE
  5
39A2
330
3797
100
AcDbEntity
  8
1
  6
Continuous
100
AcDbLine
 10
496.050558
 20
256.4117239999999
 30
0.0
 11
496.050558
 21
186.0117239999999
 31
0.0
  0
LINE
  5
39A3
330
3797
100
AcDbEntity
  8
1
  6
Continuous
100
AcDbLine
 10
496.550558
 20
256.4117239999999
 30
0.0
 11
496.550558
 21
238.411724
 31
0.0
  0
LINE
  5
39A4
330
3797
100
AcDbEntity
  8
1
  6
Continuous
100
AcDbLine
 10
460.5505579999998
 20
256.4117239999999
 30
0.0
 11
460.5505579999998
 21
238.411724
 31
0.0
  0
LINE
  5
39A5
330
3797
100
AcDbEntity
  8
1
  6
Continuous
100
AcDbLine
 10
496.550558
 20
238.411724
 30
0.0
 11
502.050558
 21
238.411724
 31
0.0
  0
LINE
  5
39A6
330
3797
100
AcDbEntity
  8
1
  6
Continuous
100
AcDbLine
 10
458.550558
 20
321.4117240000001
 30
0.0
 11
498.550558
 21
321.4117240000001
 31
0.0
  0
ARC
  5
39A7
330
3797
100
AcDbEntity
  8
1
  6
Continuous
100
AcDbCircle
 10
459.800558
 20
318.4117239999999
 30
0.0
 40
3.25
100
AcDbArc
 50
112.6198649999997
 51
247.380135
  0
ARC
  5
39A8
330
3797
100
AcDbEntity
  8
1
  6
Continuous
100
AcDbCircle
 10
459.800558
 20
275.4117239999999
 30
0.0
 40
3.25
100
AcDbArc
 50
112.6198649999997
 51
247.380135
  0
ARC
  5
39A9
330
3797
100
AcDbEntity
  8
1
  6
Continuous
100
AcDbCircle
 10
497.300558
 20
275.4117239999999
 30
0.0
 40
3.25
100
AcDbArc
 50
292.6198649999999
 51
67.380135
  0
ARC
  5
39AA
330
3797
100
AcDbEntity
  8
1
  6
Continuous
100
AcDbCircle
 10
497.300558
 20
318.4117239999999
 30
0.0
 40
3.25
100
AcDbArc
 50
292.6198649999999
 51
67.380135
  0
LINE
  5
39AB
330
3797
100
AcDbEntity
  8
1
  6
Continuous
100
AcDbLine
 10
498.550558
 20
272.4117239999999
 30
0.0
 11
498.550558
 21
238.411724
 31
0.0
  0
LINE
  5
39AC
330
3797
100
AcDbEntity
  8
1
  6
Continuous
100
AcDbLine
 10
458.550558
 20
272.4117239999999
 30
0.0
 11
458.550558
 21
238.411724
 31
0.0
  0
LINE
  5
39AD
330
3797
100
AcDbEntity
  8
1
  6
Continuous
100
AcDbLine
 10
458.550558
 20
315.4117240000001
 30
0.0
 11
458.550558
 21
278.411724
 31
0.0
  0
LINE
  5
39AE
330
3797
100
AcDbEntity
  8
1
  6
Continuous
100
AcDbLine
 10
498.550558
 20
315.4117240000001
 30
0.0
 11
498.550558
 21
278.411724
 31
0.0
  0
LINE
  5
39AF
330
3797
100
AcDbEntity
  8
1
  6
Continuous
100
AcDbLine
 10
348.944535
 20
464.423449
 30
0.0
 11
348.944535
 21
469.923449
 31
0.0
  0
LINE
  5
39B0
330
3797
100
AcDbEntity
  8
1
  6
Continuous
100
AcDbLine
 10
350.944535
 20
464.423449
 30
0.0
 11
350.944535
 21
469.923449
 31
0.0
  0
LINE
  5
39B1
330
3797
100
AcDbEntity
  8
1
  6
Continuous
100
AcDbLine
 10
356.9445349999999
 20
471.9234489999998
 30
0.0
 11
356.9445349999999
 21
469.923449
 31
0.0
  0
LINE
  5
39B2
330
3797
100
AcDbEntity
  8
1
  6
Continuous
100
AcDbLine
 10
361.2445349999999
 20
471.9234489999998
 30
0.0
 11
361.2445349999999
 21
507.923449
 31
0.0
  0
LINE
  5
39B3
330
3797
100
AcDbEntity
  8
1
  6
Continuous
100
AcDbLine
 10
363.2445349999999
 20
507.923449
 30
0.0
 11
363.2445349999999
 21
471.9234489999998
 31
0.0
  0
LINE
  5
39B4
330
3797
100
AcDbEntity
  8
4
  6
CENTER
100
AcDbLine
 10
368.244535
 20
489.923449
 30
0.0
 11
343.9445349999999
 21
489.923449
 31
0.0
  0
LINE
  5
39B5
330
3797
100
AcDbEntity
  8
1
  6
Continuous
100
AcDbLine
 10
350.944535
 20
515.423449
 30
0.0
 11
348.944535
 21
515.423449
 31
0.0
  0
LINE
  5
39B6
330
3797
100
AcDbEntity
  8
1
  6
Continuous
100
AcDbLine
 10
350.944535
 20
464.423449
 30
0.0
 11
348.944535
 21
464.423449
 31
0.0
  0
LINE
  5
39B7
330
3797
100
AcDbEntity
  8
1
  6
Continuous
100
AcDbLine
 10
359.2445349999999
 20
507.923449
 30
0.0
 11
350.944535
 21
507.923449
 31
0.0
  0
LINE
  5
39B8
330
3797
100
AcDbEntity
  8
1
  6
Continuous
100
AcDbLine
 10
359.2445349999999
 20
471.9234489999998
 30
0.0
 11
350.944535
 21
471.9234489999998
 31
0.0
  0
LINE
  5
39B9
330
3797
100
AcDbEntity
  8
1
  6
Continuous
100
AcDbLine
 10
359.2445349999999
 20
509.9234489999998
 30
0.0
 11
350.944535
 21
509.9234489999998
 31
0.0
  0
LINE
  5
39BA
330
3797
100
AcDbEntity
  8
1
  6
Continuous
100
AcDbLine
 10
359.2445349999999
 20
469.923449
 30
0.0
 11
350.944535
 21
469.923449
 31
0.0
  0
LINE
  5
39BB
330
3797
100
AcDbEntity
  8
1
  6
Continuous
100
AcDbLine
 10
348.944535
 20
509.9234489999998
 30
0.0
 11
348.944535
 21
515.423449
 31
0.0
  0
LINE
  5
39BC
330
3797
100
AcDbEntity
  8
1
  6
Continuous
100
AcDbLine
 10
350.944535
 20
509.9234489999998
 30
0.0
 11
350.944535
 21
515.423449
 31
0.0
  0
ARC
  5
39BD
330
3797
100
AcDbEntity
  8
1
  6
Continuous
100
AcDbCircle
 10
350.944535
 20
469.923449
 30
0.0
 40
2.0
100
AcDbArc
 50
90.0
 51
180.0
  0
ARC
  5
39BE
330
3797
100
AcDbEntity
  8
1
  6
Continuous
100
AcDbCircle
 10
350.944535
 20
509.9234489999998
 30
0.0
 40
2.0
100
AcDbArc
 50
180.0
 51
270.0
  0
LINE
  5
39BF
330
3797
100
AcDbEntity
  8
1
  6
Continuous
100
AcDbLine
 10
359.2445349999999
 20
471.9234489999998
 30
0.0
 11
359.2445349999999
 21
507.923449
 31
0.0
  0
ARC
  5
39C0
330
3797
100
AcDbEntity
  8
1
  6
Continuous
100
AcDbCircle
 10
359.2445349999999
 20
507.923449
 30
0.0
 40
2.0
100
AcDbArc
 50
0.0
 51
90.0
  0
ARC
  5
39C1
330
3797
100
AcDbEntity
  8
1
  6
Continuous
100
AcDbCircle
 10
359.2445349999999
 20
471.9234489999998
 30
0.0
 40
2.0
100
AcDbArc
 50
270.0
 51
0.0
  0
LINE
  5
39C2
330
3797
100
AcDbEntity
  8
1
  6
Continuous
100
AcDbLine
 10
356.9445349999999
 20
507.923449
 30
0.0
 11
356.9445349999999
 21
509.9234489999998
 31
0.0
  0
ARC
  5
39C3
330
3797
100
AcDbEntity
  8
1
  6
Continuous
100
AcDbCircle
 10
359.2445349999999
 20
507.923449
 30
0.0
 40
4.0
100
AcDbArc
 50
0.0
 51
90.0
  0
ARC
  5
39C4
330
3797
100
AcDbEntity
  8
1
  6
Continuous
100
AcDbCircle
 10
359.2445349999999
 20
471.9234489999998
 30
0.0
 40
4.0
100
AcDbArc
 50
270.0
 51
0.0
  0
ARC
  5
39C5
330
3797
100
AcDbEntity
  8
1
  6
Continuous
100
AcDbCircle
 10
354.9445349999999
 20
469.923449
 30
0.0
 40
2.0
100
AcDbArc
 50
180.0
 51
270.0
  0
ARC
  5
39C6
330
3797
100
AcDbEntity
  8
1
  6
Continuous
100
AcDbCircle
 10
354.9445349999999
 20
509.9234489999998
 30
0.0
 40
2.0
100
AcDbArc
 50
90.0
 51
180.0
  0
LINE
  5
39C7
330
3797
100
AcDbEntity
  8
1
  6
Continuous
100
AcDbLine
 10
354.9445349999999
 20
511.923449
 30
0.0
 11
359.2445349999999
 21
511.923449
 31
0.0
  0
LINE
  5
39C8
330
3797
100
AcDbEntity
  8
1
  6
Continuous
100
AcDbLine
 10
354.9445349999999
 20
467.9234489999998
 30
0.0
 11
359.2445349999999
 21
467.9234489999998
 31
0.0
  0
LINE
  5
39C9
330
3797
100
AcDbEntity
  8
1
  6
Continuous
100
AcDbLine
 10
364.344535
 20
484.9234489999998
 30
0.0
 11
364.344535
 21
494.923449
 31
0.0
  0
LINE
  5
39CA
330
3797
100
AcDbEntity
  8
1
  6
Continuous
100
AcDbLine
 10
364.044535
 20
484.9234489999998
 30
0.0
 11
364.044535
 21
494.923449
 31
0.0
  0
LINE
  5
39CB
330
3797
100
AcDbEntity
  8
1
  6
Continuous
100
AcDbLine
 10
364.044535
 20
484.9234489999998
 30
0.0
 11
363.2445349999999
 21
485.723449
 31
0.0
  0
LINE
  5
39CC
330
3797
100
AcDbEntity
  8
1
  6
Continuous
100
AcDbLine
 10
364.344535
 20
484.9234489999998
 30
0.0
 11
364.044535
 21
484.9234489999998
 31
0.0
  0
LINE
  5
39CD
330
3797
100
AcDbEntity
  8
1
  6
Continuous
100
AcDbLine
 10
364.044535
 20
494.923449
 30
0.0
 11
363.2445349999999
 21
494.123449
 31
0.0
  0
LINE
  5
39CE
330
3797
100
AcDbEntity
  8
1
  6
Continuous
100
AcDbLine
 10
364.344535
 20
494.923449
 30
0.0
 11
364.044535
 21
494.923449
 31
0.0
  0
LINE
  5
39CF
330
3797
100
AcDbEntity
  8
1
  6
Continuous
100
AcDbLine
 10
257.6681479999999
 20
511.923449
 30
0.0
 11
257.6681479999999
 21
467.9234489999998
 31
0.0
  0
LINE
  5
39D0
330
3797
100
AcDbEntity
  8
1
  6
Continuous
100
AcDbLine
 10
259.6681479999999
 20
511.923449
 30
0.0
 11
259.6681479999999
 21
467.9234489999998
 31
0.0
  0
LINE
  5
39D1
330
3797
100
AcDbEntity
  8
1
  6
Continuous
100
AcDbLine
 10
262.6681479999999
 20
506.423449
 30
0.0
 11
262.6681479999999
 21
473.423449
 31
0.0
  0
LINE
  5
39D2
330
3797
100
AcDbEntity
  8
1
  6
Continuous
100
AcDbLine
 10
273.6681479999999
 20
506.423449
 30
0.0
 11
273.6681479999999
 21
473.423449
 31
0.0
  0
LINE
  5
39D3
330
3797
100
AcDbEntity
  8
1
  6
Continuous
100
AcDbLine
 10
277.9681479999999
 20
496.9234489999998
 30
0.0
 11
277.9681479999999
 21
482.923449
 31
0.0
  0
LINE
  5
39D4
330
3797
100
AcDbEntity
  8
4
  6
CENTER
100
AcDbLine
 10
287.391312
 20
489.923449
 30
0.0
 11
249.2681479999999
 21
489.923449
 31
0.0
  0
LINE
  5
39D5
330
3797
100
AcDbEntity
  8
1
  6
Continuous
100
AcDbLine
 10
259.6681479999999
 20
511.923449
 30
0.0
 11
257.6681479999999
 21
511.923449
 31
0.0
  0
LINE
  5
39D6
330
3797
100
AcDbEntity
  8
1
  6
Continuous
100
AcDbLine
 10
259.6681479999999
 20
467.9234489999998
 30
0.0
 11
257.6681479999999
 21
467.9234489999998
 31
0.0
  0
ARC
  5
39D7
330
3797
100
AcDbEntity
  8
1
  6
Continuous
100
AcDbCircle
 10
339.666424
 20
489.923449
 30
0.0
 40
84.89827599999998
100
AcDbArc
 50
164.9813379999999
 51
195.018662
  0
LINE
  5
39D8
330
3797
100
AcDbEntity
  8
1
  6
Continuous
100
AcDbLine
 10
272.6681479999999
 20
507.423449
 30
0.0
 11
259.6681479999999
 21
507.423449
 31
0.0
  0
LINE
  5
39D9
330
3797
100
AcDbEntity
  8
1
  6
Continuous
100
AcDbLine
 10
272.6681479999999
 20
472.4234489999998
 30
0.0
 11
259.6681479999999
 21
472.4234489999998
 31
0.0
  0
ARC
  5
39DA
330
3797
100
AcDbEntity
  8
1
  6
Continuous
100
AcDbCircle
 10
261.668148
 20
506.423449
 30
0.0
 40
1.0
100
AcDbArc
 50
0.0
 51
90.0
  0
ARC
  5
39DB
330
3797
100
AcDbEntity
  8
1
  6
Continuous
100
AcDbCircle
 10
261.668148
 20
473.423449
 30
0.0
 40
1.0
100
AcDbArc
 50
270.0
 51
0.0
  0
ARC
  5
39DC
330
3797
100
AcDbEntity
  8
1
  6
Continuous
100
AcDbCircle
 10
272.6681479999999
 20
506.423449
 30
0.0
 40
1.0
100
AcDbArc
 50
0.0
 51
90.0
  0
ARC
  5
39DD
330
3797
100
AcDbEntity
  8
1
  6
Continuous
100
AcDbCircle
 10
272.6681479999999
 20
473.423449
 30
0.0
 40
1.0
100
AcDbArc
 50
270.0
 51
0.0
  0
LINE
  5
39DE
330
3797
100
AcDbEntity
  8
1
  6
Continuous
100
AcDbLine
 10
275.068148
 20
503.923449
 30
0.0
 11
273.6681479999999
 21
503.923449
 31
0.0
  0
LINE
  5
39DF
330
3797
100
AcDbEntity
  8
1
  6
Continuous
100
AcDbLine
 10
275.068148
 20
475.9234489999998
 30
0.0
 11
273.6681479999999
 21
475.9234489999998
 31
0.0
  0
LINE
  5
39E0
330
3797
100
AcDbEntity
  8
1
  6
Continuous
100
AcDbLine
 10
276.068148
 20
502.923449
 30
0.0
 11
276.068148
 21
496.9234489999998
 31
0.0
  0
ARC
  5
39E1
330
3797
100
AcDbEntity
  8
1
  6
Continuous
100
AcDbCircle
 10
275.068148
 20
502.923449
 30
0.0
 40
1.0
100
AcDbArc
 50
0.0
 51
90.0
  0
ARC
  5
39E2
330
3797
100
AcDbEntity
  8
1
  6
Continuous
100
AcDbCircle
 10
275.068148
 20
476.923449
 30
0.0
 40
1.0
100
AcDbArc
 50
270.0
 51
0.0
  0
LINE
  5
39E3
330
3797
100
AcDbEntity
  8
1
  6
Continuous
100
AcDbLine
 10
277.9681479999999
 20
496.9234489999998
 30
0.0
 11
276.068148
 21
496.9234489999998
 31
0.0
  0
LINE
  5
39E4
330
3797
100
AcDbEntity
  8
1
  6
Continuous
100
AcDbLine
 10
277.9681479999999
 20
482.923449
 30
0.0
 11
276.068148
 21
482.923449
 31
0.0
  0
LINE
  5
39E5
330
3797
100
AcDbEntity
  8
1
  6
Continuous
100
AcDbLine
 10
276.068148
 20
482.923449
 30
0.0
 11
276.068148
 21
476.923449
 31
0.0
  0
LINE
  5
39E6
330
3797
100
AcDbEntity
  8
1
  6
Continuous
100
AcDbLine
 10
278.1681479999999
 20
475.9234489999998
 30
0.0
 11
278.1681479999999
 21
503.923449
 31
0.0
  0
LINE
  5
39E7
330
3797
100
AcDbEntity
  8
1
  6
Continuous
100
AcDbLine
 10
278.1681479999999
 20
478.665119
 30
0.0
 11
276.068148
 21
478.665119
 31
0.0
  0
LINE
  5
39E8
330
3797
100
AcDbEntity
  8
1
  6
Continuous
100
AcDbLine
 10
278.1681479999999
 20
502.923449
 30
0.0
 11
276.068148
 21
502.923449
 31
0.0
  0
LINE
  5
39E9
330
3797
100
AcDbEntity
  8
1
  6
Continuous
100
AcDbLine
 10
278.1681479999999
 20
496.4234489999998
 30
0.0
 11
277.9681479999999
 21
496.4234489999998
 31
0.0
  0
LINE
  5
39EA
330
3797
100
AcDbEntity
  8
1
  6
Continuous
100
AcDbLine
 10
278.1681479999999
 20
494.923449
 30
0.0
 11
277.9681479999999
 21
494.923449
 31
0.0
  0
LINE
  5
39EB
330
3797
100
AcDbEntity
  8
1
  6
Continuous
100
AcDbLine
 10
278.1681479999999
 20
481.263195
 30
0.0
 11
276.068148
 21
481.263195
 31
0.0
  0
LINE
  5
39EC
330
3797
100
AcDbEntity
  8
2
  6
Continuous
100
AcDbLine
 10
281.1681479999999
 20
489.923449
 30
0.0
 11
278.1681479999999
 21
483.0473559999998
 31
0.0
  0
LINE
  5
39ED
330
3797
100
AcDbEntity
  8
2
  6
Continuous
100
AcDbLine
 10
278.1681479999999
 20
489.923449
 30
0.0
 11
281.11293
 21
483.173916
 31
0.0
  0
LINE
  5
39EE
330
3797
100
AcDbEntity
  8
1
  6
Continuous
100
AcDbLine
 10
281.1681479999999
 20
483.3473559999998
 30
0.0
 11
281.1681479999999
 21
496.499542
 31
0.0
  0
LINE
  5
39EF
330
3797
100
AcDbEntity
  8
1
  6
Continuous
100
AcDbLine
 10
280.868148
 20
483.0473559999998
 30
0.0
 11
278.1681479999999
 21
483.0473559999998
 31
0.0
  0
ARC
  5
39F0
330
3797
100
AcDbEntity
  8
1
  6
Continuous
100
AcDbCircle
 10
280.868148
 20
483.3473559999998
 30
0.0
 40
0.3
100
AcDbArc
 50
270.0
 51
0.0
  0
LINE
  5
39F1
330
3797
100
AcDbEntity
  8
2
  6
Continuous
100
AcDbLine
 10
281.1681479999999
 20
489.923449
 30
0.0
 11
278.1681479999999
 21
496.799542
 31
0.0
  0
LINE
  5
39F2
330
3797
100
AcDbEntity
  8
2
  6
Continuous
100
AcDbLine
 10
281.11293
 20
496.672982
 30
0.0
 11
278.1681479999999
 21
489.923449
 31
0.0
  0
LINE
  5
39F3
330
3797
100
AcDbEntity
  8
1
  6
Continuous
100
AcDbLine
 10
281.1681479999999
 20
489.923449
 30
0.0
 11
278.1681479999999
 21
489.923449
 31
0.0
  0
LINE
  5
39F4
330
3797
100
AcDbEntity
  8
1
  6
Continuous
100
AcDbLine
 10
280.868148
 20
496.799542
 30
0.0
 11
278.1681479999999
 21
496.799542
 31
0.0
  0
ARC
  5
39F5
330
3797
100
AcDbEntity
  8
1
  6
Continuous
100
AcDbCircle
 10
280.868148
 20
496.499542
 30
0.0
 40
0.3
100
AcDbArc
 50
0.0
 51
90.0
  0
ARC
  5
39F6
330
3797
100
AcDbEntity
  8
1
  6
Continuous
100
AcDbCircle
 10
339.6681479999998
 20
489.923449
 30
0.0
 40
85.4
100
AcDbArc
 50
173.1954159999999
 51
186.804584
  0
ARC
  5
39F7
330
3797
100
AcDbEntity
  8
1
  6
Continuous
100
AcDbCircle
 10
255.8626589999998
 20
499.923449
 30
0.0
 40
1.0
100
AcDbArc
 50
112.9009429999999
 51
173.1954159999999
  0
ARC
  5
39F8
330
3797
100
AcDbEntity
  8
1
  6
Continuous
100
AcDbCircle
 10
255.8626589999998
 20
479.9234489999998
 30
0.0
 40
1.0
100
AcDbArc
 50
186.804584
 51
247.099057
  0
LINE
  5
39F9
330
3797
100
AcDbEntity
  8
1
  6
Continuous
100
AcDbLine
 10
40.418054
 20
487.979823
 30
0.0
 11
38.93232799999999
 21
487.979823
 31
0.0
  0
LINE
  5
39FA
330
3797
100
AcDbEntity
  8
1
  6
Continuous
100
AcDbLine
 10
38.533333
 20
501.5234239999998
 30
0.0
 11
48.0
 21
494.423424
 31
0.0
  0
LINE
  5
39FB
330
3797
100
AcDbEntity
  8
1
  6
Continuous
100
AcDbLine
 10
38.533333
 20
478.3234239999998
 30
0.0
 11
48.0
 21
485.423424
 31
0.0
  0
LINE
  5
39FC
330
3797
100
AcDbEntity
  8
4
  6
CENTER
100
AcDbLine
 10
25.254487
 20
489.923424
 30
0.0
 11
76.28890799999997
 21
489.923424
 31
0.0
  0
LINE
  5
39FD
330
3797
100
AcDbEntity
  8
1
  6
Continuous
100
AcDbLine
 10
48.0
 20
486.673424
 30
0.0
 11
37.933333
 21
479.123424
 31
0.0
  0
ARC
  5
39FE
330
3797
100
AcDbEntity
  8
1
  6
Continuous
100
AcDbCircle
 10
37.99921099999997
 20
485.2578349999998
 30
0.0
 40
2.004309
100
AcDbArc
 50
270.0
 51
324.4619999999998
  0
LINE
  5
39FF
330
3797
100
AcDbEntity
  8
1
  6
Continuous
100
AcDbLine
 10
39.45493799999999
 20
494.596908
 30
0.0
 11
36.17718299999999
 21
495.4763439999998
 31
0.0
  0
LINE
  5
3A00
330
3797
100
AcDbEntity
  8
1
  6
Continuous
100
AcDbLine
 10
37.933333
 20
500.723424
 30
0.0
 11
48.0
 21
493.1734239999998
 31
0.0
  0
LINE
  5
3A01
330
3797
100
AcDbEntity
  8
1
  6
Continuous
100
AcDbLine
 10
40.195432
 20
491.8686039999998
 30
0.0
 11
37.99921099999997
 21
491.8686039999998
 31
0.0
  0
LINE
  5
3A02
330
3797
100
AcDbEntity
  8
1
  6
Continuous
100
AcDbLine
 10
35.43984600000001
 20
491.090216
 30
0.0
 11
40.56015399999997
 21
491.090216
 31
0.0
  0
LINE
  5
3A03
330
3797
100
AcDbEntity
  8
1
  6
Continuous
100
AcDbLine
 10
37.99921099999997
 20
493.812205
 30
0.0
 11
39.865446
 21
493.812205
 31
0.0
  0
LINE
  5
3A04
330
3797
100
AcDbEntity
  8
1
  6
Continuous
100
AcDbLine
 10
35.44300399999999
 20
492.6454129999998
 30
0.0
 11
40.312269
 21
492.6454129999998
 31
0.0
  0
LINE
  5
3A05
330
3797
100
AcDbEntity
  8
1
  6
Continuous
100
AcDbLine
 10
35.866144
 20
484.86943
 30
0.0
 11
39.219685
 21
484.86943
 31
0.0
  0
LINE
  5
3A06
330
3797
100
AcDbEntity
  8
1
  6
Continuous
100
AcDbLine
 10
35.286695
 20
490.313408
 30
0.0
 11
40.713305
 21
490.313408
 31
0.0
  0
LINE
  5
3A07
330
3797
100
AcDbEntity
  8
1
  6
Continuous
100
AcDbLine
 10
36.08087199999999
 20
486.4246269999998
 30
0.0
 11
39.917549
 21
486.4246269999998
 31
0.0
  0
LINE
  5
3A08
330
3797
100
AcDbEntity
  8
1
  6
Continuous
100
AcDbLine
 10
35.97982299999999
 20
487.201436
 30
0.0
 11
40.02017699999997
 21
487.201436
 31
0.0
  0
LINE
  5
3A09
330
3797
100
AcDbEntity
  8
1
  6
Continuous
100
AcDbLine
 10
35.35142899999997
 20
488.758211
 30
0.0
 11
40.648571
 21
488.758211
 31
0.0
  0
LINE
  5
3A0A
330
3797
100
AcDbEntity
  8
1
  6
Continuous
100
AcDbLine
 10
35.286695
 20
489.53502
 30
0.0
 11
40.713305
 21
489.53502
 31
0.0
  0
LINE
  5
3A0B
330
3797
100
AcDbEntity
  8
1
  6
Continuous
100
AcDbLine
 10
39.434412
 20
485.6462389999999
 30
0.0
 11
36.56558799999999
 21
485.6462389999999
 31
0.0
  0
LINE
  5
3A0C
330
3797
100
AcDbEntity
  8
1
  6
Continuous
100
AcDbLine
 10
27.335899
 20
484.9195749999998
 30
0.0
 11
31.406267
 21
478.814024
 31
0.0
  0
LINE
  5
3A0D
330
3797
100
AcDbEntity
  8
1
  6
Continuous
100
AcDbLine
 10
32.23831699999998
 20
479.3687239999998
 30
0.0
 11
28.16795
 21
485.4742749999998
 31
0.0
  0
ARC
  5
3A0E
330
3797
100
AcDbEntity
  8
1
  6
Continuous
100
AcDbCircle
 10
44.53261499999999
 20
489.923424
 30
0.0
 40
10.032628
100
AcDbArc
 50
144.462
 51
215.5377
  0
LINE
  5
3A0F
330
3797
100
AcDbEntity
  8
1
  6
Continuous
100
AcDbLine
 10
37.333333
 20
478.9234239999998
 30
0.0
 11
33.07036699999999
 21
478.9234239999998
 31
0.0
  0
LINE
  5
3A10
330
3797
100
AcDbEntity
  8
1
  6
Continuous
100
AcDbLine
 10
33.07036699999999
 20
477.923424
 30
0.0
 11
37.333333
 21
477.923424
 31
0.0
  0
ARC
  5
3A11
330
3797
100
AcDbEntity
  8
1
  6
Continuous
100
AcDbCircle
 10
33.07036699999999
 20
479.923424
 30
0.0
 40
1.0
100
AcDbArc
 50
213.690068
 51
270.0
  0
ARC
  5
3A12
330
3797
100
AcDbEntity
  8
1
  6
Continuous
100
AcDbCircle
 10
33.07036699999999
 20
479.923424
 30
0.0
 40
2.0
100
AcDbArc
 50
213.690068
 51
270.0
  0
ARC
  5
3A13
330
3797
100
AcDbEntity
  8
1
  6
Continuous
100
AcDbCircle
 10
37.99921099999997
 20
485.2578349999998
 30
0.0
 40
2.004309
100
AcDbArc
 50
215.5377
 51
256.5374
  0
ARC
  5
3A14
330
3797
100
AcDbEntity
  8
1
  6
Continuous
100
AcDbCircle
 10
37.333333
 20
479.923424
 30
0.0
 40
1.0
100
AcDbArc
 50
270.0
 51
306.8698979999998
  0
ARC
  5
3A15
330
3797
100
AcDbEntity
  8
1
  6
Continuous
100
AcDbCircle
 10
37.333333
 20
479.923424
 30
0.0
 40
2.0
100
AcDbArc
 50
270.0
 51
306.8698979999998
  0
LINE
  5
3A16
330
3797
100
AcDbEntity
  8
1
  6
Continuous
100
AcDbLine
 10
32.23831699999998
 20
500.4781239999998
 30
0.0
 11
28.16795
 21
494.3725729999998
 31
0.0
  0
LINE
  5
3A17
330
3797
100
AcDbEntity
  8
1
  6
Continuous
100
AcDbLine
 10
27.335899
 20
494.927273
 30
0.0
 11
31.406267
 21
501.0328239999998
 31
0.0
  0
LINE
  5
3A18
330
3797
100
AcDbEntity
  8
1
  6
Continuous
100
AcDbLine
 10
37.99921099999997
 20
496.594191
 30
0.0
 11
37.99921099999997
 21
494.986892
 31
0.0
  0
LINE
  5
3A19
330
3797
100
AcDbEntity
  8
1
  6
Continuous
100
AcDbLine
 10
29.5
 20
493.923424
 30
0.0
 11
32.5
 21
493.923424
 31
0.0
  0
LINE
  5
3A1A
330
3797
100
AcDbEntity
  8
1
  6
Continuous
100
AcDbLine
 10
29.5
 20
485.923424
 30
0.0
 11
32.5
 21
485.923424
 31
0.0
  0
ARC
  5
3A1B
330
3797
100
AcDbEntity
  8
1
  6
Continuous
100
AcDbCircle
 10
29.0
 20
493.817873
 30
0.0
 40
1.0
100
AcDbArc
 50
146.3099319999997
 51
180.0
  0
ARC
  5
3A1C
330
3797
100
AcDbEntity
  8
1
  6
Continuous
100
AcDbCircle
 10
29.5
 20
493.423424
 30
0.0
 40
0.5
100
AcDbArc
 50
90.0
 51
180.0
  0
ARC
  5
3A1D
330
3797
100
AcDbEntity
  8
1
  6
Continuous
100
AcDbCircle
 10
29.0
 20
493.817873
 30
0.0
 40
2.0
100
AcDbArc
 50
146.3099319999997
 51
180.0
  0
ARC
  5
3A1E
330
3797
100
AcDbEntity
  8
1
  6
Continuous
100
AcDbCircle
 10
29.5
 20
486.423424
 30
0.0
 40
0.5
100
AcDbArc
 50
180.0
 51
270.0
  0
ARC
  5
3A1F
330
3797
100
AcDbEntity
  8
1
  6
Continuous
100
AcDbCircle
 10
29.0
 20
486.0289749999998
 30
0.0
 40
1.0
100
AcDbArc
 50
180.0
 51
213.690068
  0
ARC
  5
3A20
330
3797
100
AcDbEntity
  8
1
  6
Continuous
100
AcDbCircle
 10
29.0
 20
486.0289749999998
 30
0.0
 40
2.0
100
AcDbArc
 50
180.0
 51
213.690068
  0
LINE
  5
3A21
330
3797
100
AcDbEntity
  8
1
  6
Continuous
100
AcDbLine
 10
28.0
 20
486.0289749999998
 30
0.0
 11
28.0
 21
493.817873
 31
0.0
  0
LINE
  5
3A22
330
3797
100
AcDbEntity
  8
1
  6
Continuous
100
AcDbLine
 10
29.0
 20
493.423424
 30
0.0
 11
29.0
 21
486.423424
 31
0.0
  0
LINE
  5
3A23
330
3797
100
AcDbEntity
  8
1
  6
Continuous
100
AcDbLine
 10
27.0
 20
493.817873
 30
0.0
 11
27.0
 21
486.0289749999998
 31
0.0
  0
ARC
  5
3A24
330
3797
100
AcDbEntity
  8
1
  6
Continuous
100
AcDbCircle
 10
32.5
 20
493.423424
 30
0.0
 40
0.5
100
AcDbArc
 50
0.0
 51
90.0
  0
ARC
  5
3A25
330
3797
100
AcDbEntity
  8
1
  6
Continuous
100
AcDbCircle
 10
32.5
 20
486.423424
 30
0.0
 40
0.5
100
AcDbArc
 50
270.0
 51
0.0
  0
LINE
  5
3A26
330
3797
100
AcDbEntity
  8
1
  6
Continuous
100
AcDbLine
 10
33.0
 20
493.423424
 30
0.0
 11
33.0
 21
486.423424
 31
0.0
  0
LINE
  5
3A27
330
3797
100
AcDbEntity
  8
1
  6
Continuous
100
AcDbLine
 10
37.99921099999997
 20
491.8686039999998
 30
0.0
 11
37.99921099999997
 21
491.4802
 31
0.0
  0
ARC
  5
3A28
330
3797
100
AcDbEntity
  8
1
  6
Continuous
100
AcDbCircle
 10
35.80456799999997
 20
491.4802
 30
0.0
 40
0.388957
100
AcDbArc
 50
90.0
 51
169.896
  0
ARC
  5
3A29
330
3797
100
AcDbEntity
  8
1
  6
Continuous
100
AcDbCircle
 10
44.53261499999999
 20
489.923424
 30
0.0
 40
9.254918999999999
100
AcDbArc
 50
169.896
 51
172.2069999999999
  0
ARC
  5
3A2A
330
3797
100
AcDbEntity
  8
1
  6
Continuous
100
AcDbCircle
 10
35.43984600000001
 20
491.16916
 30
0.0
 40
0.077791
100
AcDbArc
 50
172.2069999999999
 51
270.0
  0
LINE
  5
3A2B
330
3797
100
AcDbEntity
  8
1
  6
Continuous
100
AcDbLine
 10
37.066093
 20
491.8686039999998
 30
0.0
 11
35.80456799999997
 21
491.8686039999998
 31
0.0
  0
ARC
  5
3A2C
330
3797
100
AcDbEntity
  8
1
  6
Continuous
100
AcDbCircle
 10
37.61080599999999
 20
493.812205
 30
0.0
 40
0.388957
100
AcDbArc
 50
270.0
 51
90.0
  0
LINE
  5
3A2D
330
3797
100
AcDbEntity
  8
1
  6
Continuous
100
AcDbLine
 10
35.80930399999999
 20
493.4238009999998
 30
0.0
 11
37.61080599999999
 21
493.4238009999998
 31
0.0
  0
LINE
  5
3A2E
330
3797
100
AcDbEntity
  8
1
  6
Continuous
100
AcDbLine
 10
37.61080599999999
 20
494.2021879999998
 30
0.0
 11
35.94982499999999
 21
494.2021879999998
 31
0.0
  0
LINE
  5
3A2F
330
3797
100
AcDbEntity
  8
1
  6
Continuous
100
AcDbLine
 10
37.99921099999997
 20
489.53502
 30
0.0
 11
37.99921099999997
 21
488.758211
 31
0.0
  0
ARC
  5
3A30
330
3797
100
AcDbEntity
  8
1
  6
Continuous
100
AcDbCircle
 10
44.53261499999999
 20
489.923424
 30
0.0
 40
9.254918999999999
100
AcDbArc
 50
202.944
 51
206.0144
  0
ARC
  5
3A31
330
3797
100
AcDbEntity
  8
1
  6
Continuous
100
AcDbCircle
 10
36.08087199999999
 20
486.347262
 30
0.0
 40
0.077791
100
AcDbArc
 50
90.0
 51
202.944
  0
ARC
  5
3A32
330
3797
100
AcDbEntity
  8
1
  6
Continuous
100
AcDbCircle
 10
35.581946
 20
487.902458
 30
0.0
 40
0.077791
100
AcDbArc
 50
90.0
 51
192.7289
  0
ARC
  5
3A33
330
3797
100
AcDbEntity
  8
1
  6
Continuous
100
AcDbCircle
 10
44.53261499999999
 20
489.923424
 30
0.0
 40
9.254918999999999
100
AcDbArc
 50
192.7289
 51
193.2680999999999
  0
ARC
  5
3A34
330
3797
100
AcDbEntity
  8
1
  6
Continuous
100
AcDbCircle
 10
44.53261499999999
 20
489.923424
 30
0.0
 40
9.254918999999999
100
AcDbArc
 50
193.2680999999999
 51
195.2574999999999
  0
ARC
  5
3A35
330
3797
100
AcDbEntity
  8
1
  6
Continuous
100
AcDbCircle
 10
35.97982299999999
 20
487.5914189999998
 30
0.0
 40
0.388957
100
AcDbArc
 50
195.2574999999999
 51
270.0
  0
LINE
  5
3A36
330
3797
100
AcDbEntity
  8
1
  6
Continuous
100
AcDbLine
 10
37.066093
 20
487.979823
 30
0.0
 11
35.581946
 21
487.979823
 31
0.0
  0
ARC
  5
3A37
330
3797
100
AcDbEntity
  8
1
  6
Continuous
100
AcDbCircle
 10
36.56558799999999
 20
486.0362219999998
 30
0.0
 40
0.388957
100
AcDbArc
 50
206.0144
 51
270.0
  0
LINE
  5
3A38
330
3797
100
AcDbEntity
  8
1
  6
Continuous
100
AcDbLine
 10
33.07036699999999
 20
500.923424
 30
0.0
 11
37.333333
 21
500.923424
 31
0.0
  0
LINE
  5
3A39
330
3797
100
AcDbEntity
  8
1
  6
Continuous
100
AcDbLine
 10
33.07036699999999
 20
501.923424
 30
0.0
 11
37.333333
 21
501.923424
 31
0.0
  0
ARC
  5
3A3A
330
3797
100
AcDbEntity
  8
1
  6
Continuous
100
AcDbCircle
 10
33.07036699999999
 20
499.9234239999998
 30
0.0
 40
2.0
100
AcDbArc
 50
90.0
 51
146.3099319999997
  0
ARC
  5
3A3B
330
3797
100
AcDbEntity
  8
1
  6
Continuous
100
AcDbCircle
 10
33.07036699999999
 20
499.9234239999998
 30
0.0
 40
1.0
100
AcDbArc
 50
90.0
 51
146.3099319999997
  0
ARC
  5
3A3C
330
3797
100
AcDbEntity
  8
1
  6
Continuous
100
AcDbCircle
 10
37.333333
 20
499.9234239999998
 30
0.0
 40
1.0
100
AcDbArc
 50
53.130102
 51
90.0
  0
ARC
  5
3A3D
330
3797
100
AcDbEntity
  8
1
  6
Continuous
100
AcDbCircle
 10
37.333333
 20
499.9234239999998
 30
0.0
 40
2.0
100
AcDbArc
 50
53.130102
 51
90.0
  0
ARC
  5
3A3E
330
3797
100
AcDbEntity
  8
1
  6
Continuous
100
AcDbCircle
 10
37.99921099999997
 20
494.5905929999998
 30
0.0
 40
2.004309
100
AcDbArc
 50
62.24999999999999
 51
144.462
  0
LINE
  5
3A3F
330
3797
100
AcDbEntity
  8
1
  6
Continuous
100
AcDbLine
 10
51.5
 20
489.423424
 30
0.0
 11
74.27144599999998
 21
489.423424
 31
0.0
  0
LINE
  5
3A40
330
3797
100
AcDbEntity
  8
1
  6
Continuous
100
AcDbLine
 10
51.5
 20
490.6234239999998
 30
0.0
 11
74.90726999999998
 21
490.6234239999998
 31
0.0
  0
LINE
  5
3A41
330
3797
100
AcDbEntity
  8
1
  6
Continuous
100
AcDbLine
 10
55.0
 20
486.8234239999998
 30
0.0
 11
71.5
 21
486.8234239999998
 31
0.0
  0
LINE
  5
3A42
330
3797
100
AcDbEntity
  8
1
  6
Continuous
100
AcDbLine
 10
55.0
 20
493.0234239999998
 30
0.0
 11
72.5
 21
493.0234239999998
 31
0.0
  0
ARC
  5
3A43
330
3797
100
AcDbEntity
  8
1
  6
Continuous
100
AcDbCircle
 10
31.46738499999999
 20
489.923424
 30
0.0
 40
10.032628
100
AcDbArc
 50
324.4619999999998
 51
35.53799999999998
  0
LINE
  5
3A44
330
3797
100
AcDbEntity
  8
1
  6
Continuous
100
AcDbLine
 10
48.0
 20
485.423424
 30
0.0
 11
54.7
 21
485.423424
 31
0.0
  0
LINE
  5
3A45
330
3797
100
AcDbEntity
  8
1
  6
Continuous
100
AcDbLine
 10
48.0
 20
494.423424
 30
0.0
 11
54.7
 21
494.423424
 31
0.0
  0
ARC
  5
3A46
330
3797
100
AcDbEntity
  8
1
  6
Continuous
100
AcDbCircle
 10
40.195432
 20
491.4802
 30
0.0
 40
0.388957
100
AcDbArc
 50
10.10399999999999
 51
90.0
  0
ARC
  5
3A47
330
3797
100
AcDbEntity
  8
1
  6
Continuous
100
AcDbCircle
 10
40.56015399999997
 20
491.16916
 30
0.0
 40
0.077791
100
AcDbArc
 50
270.0
 51
7.792999999999999
  0
ARC
  5
3A48
330
3797
100
AcDbEntity
  8
1
  6
Continuous
100
AcDbCircle
 10
31.46738499999999
 20
489.923424
 30
0.0
 40
9.254918999999999
100
AcDbArc
 50
7.792999999999999
 51
10.10399999999999
  0
ARC
  5
3A49
330
3797
100
AcDbEntity
  8
1
  6
Continuous
100
AcDbCircle
 10
40.02017699999997
 20
487.5914189999998
 30
0.0
 40
0.388957
100
AcDbArc
 50
270.0
 51
344.7419999999998
  0
ARC
  5
3A4A
330
3797
100
AcDbEntity
  8
1
  6
Continuous
100
AcDbCircle
 10
31.46738499999999
 20
489.923424
 30
0.0
 40
9.254918999999999
100
AcDbArc
 50
344.7419999999998
 51
344.794
  0
ARC
  5
3A4B
330
3797
100
AcDbEntity
  8
1
  6
Continuous
100
AcDbCircle
 10
31.46738499999999
 20
489.923424
 30
0.0
 40
9.254918999999999
100
AcDbArc
 50
344.794
 51
347.2709999999998
  0
ARC
  5
3A4C
330
3797
100
AcDbEntity
  8
1
  6
Continuous
100
AcDbCircle
 10
40.418054
 20
487.902458
 30
0.0
 40
0.077791
100
AcDbArc
 50
347.2709999999998
 51
90.0
  0
ARC
  5
3A4D
330
3797
100
AcDbEntity
  8
1
  6
Continuous
100
AcDbCircle
 10
39.917549
 20
486.347262
 30
0.0
 40
0.077791
100
AcDbArc
 50
337.0559999999998
 51
90.0
  0
ARC
  5
3A4E
330
3797
100
AcDbEntity
  8
1
  6
Continuous
100
AcDbCircle
 10
31.46738499999999
 20
489.923424
 30
0.0
 40
9.254918999999999
100
AcDbArc
 50
333.9859999999998
 51
337.0559999999998
  0
ARC
  5
3A4F
330
3797
100
AcDbEntity
  8
1
  6
Continuous
100
AcDbCircle
 10
39.434412
 20
486.0362219999998
 30
0.0
 40
0.388957
100
AcDbArc
 50
270.0
 51
333.9859999999998
  0
LINE
  5
3A50
330
3797
100
AcDbEntity
  8
1
  6
Continuous
100
AcDbLine
 10
48.0
 20
486.673424
 30
0.0
 11
48.0
 21
493.1734239999998
 31
0.0
  0
LINE
  5
3A51
330
3797
100
AcDbEntity
  8
1
  6
Continuous
100
AcDbLine
 10
51.5
 20
490.6234239999998
 30
0.0
 11
51.5
 21
489.423424
 31
0.0
  0
ARC
  5
3A52
330
3797
100
AcDbEntity
  8
1
  6
Continuous
100
AcDbCircle
 10
37.99921099999997
 20
494.5905929999998
 30
0.0
 40
2.004309
100
AcDbArc
 50
35.53799999999998
 51
45.69899999999999
  0
LINE
  5
3A53
330
3797
100
AcDbEntity
  8
1
  6
Continuous
100
AcDbLine
 10
55.0
 20
494.1234239999998
 30
0.0
 11
55.0
 21
493.0234239999998
 31
0.0
  0
ARC
  5
3A54
330
3797
100
AcDbEntity
  8
1
  6
Continuous
100
AcDbCircle
 10
54.7
 20
494.1234239999998
 30
0.0
 40
0.3
100
AcDbArc
 50
0.0
 51
90.0
  0
LINE
  5
3A55
330
3797
100
AcDbEntity
  8
1
  6
Continuous
100
AcDbLine
 10
55.0
 20
486.8234239999998
 30
0.0
 11
55.0
 21
485.723424
 31
0.0
  0
ARC
  5
3A56
330
3797
100
AcDbEntity
  8
1
  6
Continuous
100
AcDbCircle
 10
54.7
 20
485.723424
 30
0.0
 40
0.3
100
AcDbArc
 50
270.0
 51
0.0
  0
LINE
  5
3A57
330
3797
100
AcDbEntity
  8
1
  6
Continuous
100
AcDbLine
 10
72.5
 20
493.0234239999998
 30
0.0
 11
74.85301800000002
 21
490.6775119999998
 31
0.0
  0
LINE
  5
3A58
330
3797
100
AcDbEntity
  8
1
  6
Continuous
100
AcDbLine
 10
71.5
 20
486.8234239999998
 30
0.0
 11
74.84209400000001
 21
489.958771
 31
0.0
  0
ARC
  5
3A59
330
3797
100
AcDbEntity
  8
1
  6
Continuous
100
AcDbCircle
 10
74.5
 20
490.3234239999998
 30
0.0
 40
0.5
100
AcDbArc
 50
313.1718549999998
 51
45.08664600000001
  0
LINE
  5
3A5A
330
3797
100
AcDbEntity
  8
1
  6
Continuous
100
AcDbLine
 10
277.1681479999999
 20
504.9234489999998
 30
0.0
 11
273.6681479999999
 21
504.9234489999998
 31
0.0
  0
LINE
  5
3A5B
330
3797
100
AcDbEntity
  8
1
  6
Continuous
100
AcDbLine
 10
277.1681479999999
 20
474.923449
 30
0.0
 11
273.6681479999999
 21
474.923449
 31
0.0
  0
ARC
  5
3A5C
330
3797
100
AcDbEntity
  8
1
  6
Continuous
100
AcDbCircle
 10
277.1681479999999
 20
503.923449
 30
0.0
 40
1.0
100
AcDbArc
 50
0.0
 51
90.0
  0
ARC
  5
3A5D
330
3797
100
AcDbEntity
  8
1
  6
Continuous
100
AcDbCircle
 10
277.1681479999999
 20
475.9234489999998
 30
0.0
 40
1.0
100
AcDbArc
 50
270.0
 51
0.0
  0
LINE
  5
3A5E
330
3797
100
AcDbEntity
  8
1
  6
Continuous
100
AcDbLine
 10
275.768148
 20
474.923449
 30
0.0
 11
275.768148
 21
476.2093059999998
 31
0.0
  0
LINE
  5
3A5F
330
3797
100
AcDbEntity
  8
1
  6
Continuous
100
AcDbLine
 10
275.768148
 20
503.637592
 30
0.0
 11
275.768148
 21
504.9234489999998
 31
0.0
  0
LINE
  5
3A60
330
3797
100
AcDbEntity
  8
4
  6
CENTER
100
AcDbLine
 10
474.650558
 20
203.9117239999999
 30
0.0
 11
465.450558
 21
203.9117239999999
 31
0.0
  0
LINE
  5
3A61
330
3797
100
AcDbEntity
  8
4
  6
CENTER
100
AcDbLine
 10
470.050558
 20
208.5117239999999
 30
0.0
 11
470.050558
 21
199.311724
 31
0.0
  0
LINE
  5
3A62
330
3797
100
AcDbEntity
  8
4
  6
CENTER
100
AcDbLine
 10
491.6505579999998
 20
203.9117239999999
 30
0.0
 11
482.450558
 21
203.9117239999999
 31
0.0
  0
LINE
  5
3A63
330
3797
100
AcDbEntity
  8
4
  6
CENTER
100
AcDbLine
 10
487.050558
 20
208.5117239999999
 30
0.0
 11
487.050558
 21
199.311724
 31
0.0
  0
LINE
  5
3A64
330
3797
100
AcDbEntity
  8
4
  6
CENTER
100
AcDbLine
 10
637.2569859999997
 20
355.411724
 30
0.0
 11
656.356986
 21
355.411724
 31
0.0
  0
LINE
  5
3A65
330
3797
100
AcDbEntity
  8
1
  6
Continuous
100
AcDbLine
 10
686.8329679999998
 20
256.154364
 30
0.0
 11
686.8329679999998
 21
346.397846
 31
0.0
  0
ARC
  5
3A66
330
3797
100
AcDbEntity
  8
5
  6
PHANTOM
100
AcDbCircle
 10
677.274741
 20
229.320168
 30
0.0
 40
100.0
100
AcDbArc
 50
21.530575
 51
45.0
  0
LINE
  5
3A67
330
3797
100
AcDbEntity
  8
1
  6
Continuous
100
AcDbLine
 10
702.8329679999998
 20
230.411724
 30
0.0
 11
702.8329679999998
 21
355.411724
 31
0.0
  0
LINE
  5
3A68
330
3797
100
AcDbEntity
  8
1
  6
Continuous
100
AcDbLine
 10
701.5059679999998
 20
185.711724
 30
0.0
 11
701.5059679999998
 21
359.6446159999999
 31
0.0
  0
LINE
  5
3A69
330
3797
100
AcDbEntity
  8
1
  6
Continuous
100
AcDbLine
 10
694.432968
 20
184.0117239999999
 30
0.0
 11
694.432968
 21
351.411724
 31
0.0
  0
LINE
  5
3A6A
330
3797
100
AcDbEntity
  8
1
  6
Continuous
100
AcDbLine
 10
697.4329679999997
 20
177.0117239999999
 30
0.0
 11
697.4329679999997
 21
379.4117239999998
 31
0.0
  0
LINE
  5
3A6B
330
3797
100
AcDbEntity
  8
1
  6
Continuous
100
AcDbLine
 10
699.4329679999997
 20
177.015966
 30
0.0
 11
699.4329679999997
 21
379.4074819999999
 31
0.0
  0
LINE
  5
3A6C
330
3797
100
AcDbEntity
  8
1
  6
Continuous
100
AcDbLine
 10
702.3329679999998
 20
178.2256109999999
 30
0.0
 11
702.3329679999998
 21
185.111724
 31
0.0
  0
LINE
  5
3A6D
330
3797
100
AcDbEntity
  8
1
  6
Continuous
100
AcDbLine
 10
699.480494
 20
177.0281119999999
 30
0.0
 11
702.1307659999997
 21
177.941999
 31
0.0
  0
ARC
  5
3A6E
330
3797
100
AcDbEntity
  8
1
  6
Continuous
100
AcDbCircle
 10
702.0329679999996
 20
178.2256109999999
 30
0.0
 40
0.3
100
AcDbArc
 50
289.025606
 51
0.0
  0
ARC
  5
3A6F
330
3797
100
AcDbEntity
  8
1
  6
Continuous
100
AcDbCircle
 10
699.382697
 20
177.3117239999999
 30
0.0
 40
0.3
100
AcDbArc
 50
270.0
 51
289.025606
  0
LINE
  5
3A70
330
3797
100
AcDbEntity
  8
1
  6
Continuous
100
AcDbLine
 10
697.4329679999997
 20
177.0117239999999
 30
0.0
 11
699.382697
 21
177.0117239999999
 31
0.0
  0
LINE
  5
3A71
330
3797
100
AcDbEntity
  8
1
  6
Continuous
100
AcDbLine
 10
702.0329679999996
 20
185.4117239999999
 30
0.0
 11
701.805968
 21
185.4117239999999
 31
0.0
  0
ARC
  5
3A72
330
3797
100
AcDbEntity
  8
1
  6
Continuous
100
AcDbCircle
 10
701.8329679999998
 20
227.4117239999999
 30
0.0
 40
1.0
100
AcDbArc
 50
0.0
 51
90.0
  0
ARC
  5
3A73
330
3797
100
AcDbEntity
  8
1
  6
Continuous
100
AcDbCircle
 10
701.8329679999998
 20
208.4117239999999
 30
0.0
 40
1.0
100
AcDbArc
 50
270.0
 51
0.0
  0
ARC
  5
3A74
330
3797
100
AcDbEntity
  8
1
  6
Continuous
100
AcDbCircle
 10
701.8329679999998
 20
205.9117239999999
 30
0.0
 40
1.0
100
AcDbArc
 50
0.0
 51
90.0
  0
ARC
  5
3A75
330
3797
100
AcDbEntity
  8
1
  6
Continuous
100
AcDbCircle
 10
701.8329679999998
 20
186.9117239999999
 30
0.0
 40
1.0
100
AcDbArc
 50
270.0
 51
0.0
  0
ARC
  5
3A76
330
3797
100
AcDbEntity
  8
1
  6
Continuous
100
AcDbCircle
 10
701.8329679999998
 20
230.411724
 30
0.0
 40
1.0
100
AcDbArc
 50
266.531771
 51
0.0
  0
LINE
  5
3A77
330
3797
100
AcDbEntity
  8
1
  6
Continuous
100
AcDbLine
 10
702.8329679999998
 20
208.4117239999999
 30
0.0
 11
702.8329679999998
 21
227.4117239999999
 31
0.0
  0
LINE
  5
3A78
330
3797
100
AcDbEntity
  8
1
  6
Continuous
100
AcDbLine
 10
702.8329679999998
 20
186.9117239999999
 30
0.0
 11
702.8329679999998
 21
205.9117239999999
 31
0.0
  0
ARC
  5
3A79
330
3797
100
AcDbEntity
  8
1
  6
Continuous
100
AcDbCircle
 10
702.0329679999996
 20
185.111724
 30
0.0
 40
0.3
100
AcDbArc
 50
0.0
 51
90.0
  0
LINE
  5
3A7A
330
3797
100
AcDbEntity
  8
1
  6
Continuous
100
AcDbLine
 10
678.9329679999997
 20
184.0117239999999
 30
0.0
 11
678.9329679999997
 21
249.9117239999999
 31
0.0
  0
LINE
  5
3A7B
330
3797
100
AcDbEntity
  8
1
  6
Continuous
100
AcDbLine
 10
697.4329679999997
 20
183.0117239999999
 30
0.0
 11
679.9329679999997
 21
183.0117239999999
 31
0.0
  0
ARC
  5
3A7C
330
3797
100
AcDbEntity
  8
1
  6
Continuous
100
AcDbCircle
 10
695.4329679999997
 20
184.0117239999999
 30
0.0
 40
1.0
100
AcDbArc
 50
180.0
 51
270.0
  0
ARC
  5
3A7D
330
3797
100
AcDbEntity
  8
1
  6
Continuous
100
AcDbCircle
 10
701.805968
 20
185.711724
 30
0.0
 40
0.3
100
AcDbArc
 50
180.0
 51
270.0
  0
LINE
  5
3A7E
330
3797
100
AcDbEntity
  8
1
  6
Continuous
100
AcDbLine
 10
701.8329679999998
 20
185.9117239999999
 30
0.0
 11
701.5059679999998
 21
185.9117239999999
 31
0.0
  0
ARC
  5
3A7F
330
3797
100
AcDbEntity
  8
1
  6
Continuous
100
AcDbCircle
 10
679.9329679999997
 20
184.0117239999999
 30
0.0
 40
1.0
100
AcDbArc
 50
180.0
 51
270.0
  0
LINE
  5
3A80
330
3797
100
AcDbEntity
  8
1
  6
Continuous
100
AcDbLine
 10
701.8329679999998
 20
206.9117239999999
 30
0.0
 11
701.5059679999998
 21
206.9117239999999
 31
0.0
  0
LINE
  5
3A81
330
3797
100
AcDbEntity
  8
1
  6
Continuous
100
AcDbLine
 10
701.8329679999998
 20
207.411724
 30
0.0
 11
701.5059679999998
 21
207.411724
 31
0.0
  0
LINE
  5
3A82
330
3797
100
AcDbEntity
  8
1
  6
Continuous
100
AcDbLine
 10
681.3329679999998
 20
231.4117239999999
 30
0.0
 11
681.3329679999998
 21
247.3406559999999
 31
0.0
  0
LINE
  5
3A83
330
3797
100
AcDbEntity
  8
1
  6
Continuous
100
AcDbLine
 10
701.8329679999998
 20
228.411724
 30
0.0
 11
701.5059679999998
 21
228.411724
 31
0.0
  0
LINE
  5
3A84
330
3797
100
AcDbEntity
  8
1
  6
Continuous
100
AcDbLine
 10
701.5059679999998
 20
229.4297069999998
 30
0.0
 11
701.772473
 21
229.4135559999999
 31
0.0
  0
ARC
  5
3A85
330
3797
100
AcDbEntity
  8
1
  6
Continuous
100
AcDbCircle
 10
679.9329679999997
 20
230.411724
 30
0.0
 40
1.0
100
AcDbArc
 50
90.0
 51
180.0
  0
LINE
  5
3A86
330
3797
100
AcDbEntity
  8
1
  6
Continuous
100
AcDbLine
 10
679.9329679999997
 20
231.4117239999999
 30
0.0
 11
681.3329679999998
 21
231.4117239999999
 31
0.0
  0
LINE
  5
3A87
330
3797
100
AcDbEntity
  8
4
  6
CENTER
100
AcDbLine
 10
681.8329679999997
 20
264.4117239999999
 30
0.0
 11
700.5059679999998
 21
264.4117239999999
 31
0.0
  0
LINE
  5
3A88
330
3797
100
AcDbEntity
  8
1
  6
Continuous
100
AcDbLine
 10
683.5296679999999
 20
252.6439569999999
 30
0.0
 11
686.686521
 21
255.8008109999999
 31
0.0
  0
ARC
  5
3A89
330
3797
100
AcDbEntity
  8
1
  6
Continuous
100
AcDbCircle
 10
686.3329679999998
 20
256.154364
 30
0.0
 40
0.5
100
AcDbArc
 50
315.0
 51
0.0
  0
ARC
  5
3A8A
330
3797
100
AcDbEntity
  8
1
  6
Continuous
100
AcDbCircle
 10
679.9329679999997
 20
249.9117239999999
 30
0.0
 40
1.0
100
AcDbArc
 50
90.0
 51
180.0
  0
ARC
  5
3A8B
330
3797
100
AcDbEntity
  8
1
  6
Continuous
100
AcDbCircle
 10
688.8329679999998
 20
247.3406559999999
 30
0.0
 40
7.5
100
AcDbArc
 50
135.0
 51
180.0
  0
LINE
  5
3A8C
330
3797
100
AcDbEntity
  8
1
  6
Continuous
100
AcDbLine
 10
682.2377069999999
 20
250.911724
 30
0.0
 11
679.9329679999997
 21
250.911724
 31
0.0
  0
LINE
  5
3A8D
330
3797
100
AcDbEntity
  8
5
  6
PHANTOM
100
AcDbLine
 10
789.053906
 20
272.2559669999998
 30
0.0
 11
701.697982
 21
359.61189
 31
0.0
  0
LINE
  5
3A8E
330
3797
100
AcDbEntity
  8
1
  6
Continuous
100
AcDbLine
 10
641.2569859999997
 20
359.741851
 30
0.0
 11
641.2569859999997
 21
351.0815969999999
 31
0.0
  0
ARC
  5
3A8F
330
3797
100
AcDbEntity
  8
1
  6
Continuous
100
AcDbCircle
 10
643.6853079999997
 20
351.0815969999999
 30
0.0
 40
2.428322
100
AcDbArc
 50
143.530685
 51
216.469315
  0
ARC
  5
3A90
330
3797
100
AcDbEntity
  8
1
  6
Continuous
100
AcDbCircle
 10
642.828664
 20
351.0815969999999
 30
0.0
 40
2.428322
100
AcDbArc
 50
323.530685
 51
36.469315
  0
LINE
  5
3A91
330
3797
100
AcDbEntity
  8
1
  6
Continuous
100
AcDbLine
 10
645.2569859999997
 20
349.6617239999998
 30
0.0
 11
645.2569859999997
 21
361.1617240000001
 31
0.0
  0
LINE
  5
3A92
330
3797
100
AcDbEntity
  8
1
  6
Continuous
100
AcDbLine
 10
646.756986
 20
347.4117239999998
 30
0.0
 11
646.756986
 21
363.4117240000001
 31
0.0
  0
LINE
  5
3A93
330
3797
100
AcDbEntity
  8
1
  6
Continuous
100
AcDbLine
 10
648.356986
 20
344.4117240000001
 30
0.0
 11
648.356986
 21
366.4117239999998
 31
0.0
  0
LINE
  5
3A94
330
3797
100
AcDbEntity
  8
1
  6
Continuous
100
AcDbLine
 10
650.3569859999998
 20
344.4117240000001
 30
0.0
 11
650.3569859999998
 21
366.4117239999998
 31
0.0
  0
ARC
  5
3A95
330
3797
100
AcDbEntity
  8
1
  6
Continuous
100
AcDbCircle
 10
780.309293
 20
355.6117239999999
 30
0.0
 40
79.600925
100
AcDbArc
 50
168.4044
 51
188.1177269999998
  0
LINE
  5
3A96
330
3797
100
AcDbEntity
  8
2
  6
Continuous
100
AcDbLine
 10
675.9329679999997
 20
355.411724
 30
0.0
 11
678.9329679999997
 21
348.535631
 31
0.0
  0
LINE
  5
3A97
330
3797
100
AcDbEntity
  8
2
  6
Continuous
100
AcDbLine
 10
678.9329679999997
 20
355.411724
 30
0.0
 11
675.988186
 21
348.662191
 31
0.0
  0
LINE
  5
3A98
330
3797
100
AcDbEntity
  8
1
  6
Continuous
100
AcDbLine
 10
675.9329679999997
 20
348.8356309999999
 30
0.0
 11
675.9329679999997
 21
361.987817
 31
0.0
  0
LINE
  5
3A99
330
3797
100
AcDbEntity
  8
1
  6
Continuous
100
AcDbLine
 10
678.9329679999997
 20
342.4117240000001
 30
0.0
 11
678.9329679999997
 21
366.6700539999998
 31
0.0
  0
LINE
  5
3A9A
330
3797
100
AcDbEntity
  8
1
  6
Continuous
100
AcDbLine
 10
680.9329679999997
 20
342.4117240000001
 30
0.0
 11
680.9329679999997
 21
366.6700539999998
 31
0.0
  0
LINE
  5
3A9B
330
3797
100
AcDbEntity
  8
1
  6
Continuous
100
AcDbLine
 10
681.0329679999997
 20
342.4117240000001
 30
0.0
 11
681.0329679999997
 21
367.5360799999999
 31
0.0
  0
LINE
  5
3A9C
330
3797
100
AcDbEntity
  8
1
  6
Continuous
100
AcDbLine
 10
683.4329679999997
 20
338.911724
 30
0.0
 11
683.4329679999997
 21
371.911724
 31
0.0
  0
LINE
  5
3A9D
330
3797
100
AcDbEntity
  8
5
  6
PHANTOM
100
AcDbLine
 10
747.9854190000001
 20
300.0308459999998
 30
0.0
 11
703.7527269999998
 21
344.263538
 31
0.0
  0
LINE
  5
3A9E
330
3797
100
AcDbEntity
  8
4
  6
CENTER
100
AcDbLine
 10
681.8329679999997
 20
329.4117239999998
 30
0.0
 11
700.5059679999998
 21
329.4117239999998
 31
0.0
  0
LINE
  5
3A9F
330
3797
100
AcDbEntity
  8
1
  6
Continuous
100
AcDbLine
 10
684.4329679999997
 20
337.9117239999998
 30
0.0
 11
686.8329679999998
 21
337.9117239999998
 31
0.0
  0
LINE
  5
3AA0
330
3797
100
AcDbEntity
  8
1
  6
Continuous
100
AcDbLine
 10
686.8329679999998
 20
346.397846
 30
0.0
 11
694.432968
 21
346.397846
 31
0.0
  0
ARC
  5
3AA1
330
3797
100
AcDbEntity
  8
1
  6
Continuous
100
AcDbCircle
 10
682.032968
 20
342.4117240000001
 30
0.0
 40
1.0
100
AcDbArc
 50
180.0
 51
270.0
  0
ARC
  5
3AA2
330
3797
100
AcDbEntity
  8
1
  6
Continuous
100
AcDbCircle
 10
684.4329679999997
 20
338.911724
 30
0.0
 40
1.0
100
AcDbArc
 50
180.0
 51
270.0
  0
LINE
  5
3AA3
330
3797
100
AcDbEntity
  8
1
  6
Continuous
100
AcDbLine
 10
682.032968
 20
341.4117239999999
 30
0.0
 11
683.4329679999997
 21
341.4117239999999
 31
0.0
  0
LINE
  5
3AA4
330
3797
100
AcDbEntity
  8
1
  6
Continuous
100
AcDbLine
 10
676.2329679999997
 20
348.535631
 30
0.0
 11
678.9329679999997
 21
348.535631
 31
0.0
  0
LINE
  5
3AA5
330
3797
100
AcDbEntity
  8
1
  6
Continuous
100
AcDbLine
 10
678.9329679999997
 20
342.4117240000001
 30
0.0
 11
680.9329679999997
 21
342.4117240000001
 31
0.0
  0
ARC
  5
3AA6
330
3797
100
AcDbEntity
  8
1
  6
Continuous
100
AcDbCircle
 10
676.2329679999997
 20
348.8356309999999
 30
0.0
 40
0.3
100
AcDbArc
 50
180.0
 51
270.0
  0
LINE
  5
3AA7
330
3797
100
AcDbEntity
  8
1
  6
Continuous
100
AcDbLine
 10
646.756986
 20
347.4117239999998
 30
0.0
 11
648.356986
 21
347.4117239999998
 31
0.0
  0
LINE
  5
3AA8
330
3797
100
AcDbEntity
  8
1
  6
Continuous
100
AcDbLine
 10
648.356986
 20
344.4117240000001
 30
0.0
 11
652.3569859999997
 21
344.4117240000001
 31
0.0
  0
LINE
  5
3AA9
330
3797
100
AcDbEntity
  8
1
  6
Continuous
100
AcDbLine
 10
645.2569859999997
 20
349.6617239999998
 30
0.0
 11
646.756986
 21
349.6617239999998
 31
0.0
  0
LINE
  5
3AAA
330
3797
100
AcDbEntity
  8
1
  6
Continuous
100
AcDbLine
 10
641.732511
 20
349.638221
 30
0.0
 11
644.781461
 21
349.638221
 31
0.0
  0
LINE
  5
3AAB
330
3797
100
AcDbEntity
  8
4
  6
CENTER
100
AcDbLine
 10
670.9329679999997
 20
355.411724
 30
0.0
 11
711.243557
 21
355.411724
 31
0.0
  0
ARC
  5
3AAC
330
3797
100
AcDbEntity
  8
1
  6
Continuous
100
AcDbCircle
 10
695.4329679999997
 20
355.411724
 30
0.0
 40
7.4
100
AcDbArc
 50
0.0
 51
34.84751099999999
  0
LINE
  5
3AAD
330
3797
100
AcDbEntity
  8
1
  6
Continuous
100
AcDbLine
 10
702.0329679999996
 20
360.144616
 30
0.0
 11
702.0059680000001
 21
360.144616
 31
0.0
  0
LINE
  5
3AAE
330
3797
100
AcDbEntity
  8
1
  6
Continuous
100
AcDbLine
 10
699.480494
 20
379.3953359999999
 30
0.0
 11
702.1307659999997
 21
378.481449
 31
0.0
  0
LINE
  5
3AAF
330
3797
100
AcDbEntity
  8
1
  6
Continuous
100
AcDbLine
 10
702.3329679999998
 20
360.444616
 30
0.0
 11
702.3329679999998
 21
378.197837
 31
0.0
  0
ARC
  5
3AB0
330
3797
100
AcDbEntity
  8
1
  6
Continuous
100
AcDbCircle
 10
702.0329679999996
 20
360.444616
 30
0.0
 40
0.3
100
AcDbArc
 50
270.0
 51
0.0
  0
ARC
  5
3AB1
330
3797
100
AcDbEntity
  8
1
  6
Continuous
100
AcDbCircle
 10
702.0329679999996
 20
378.197837
 30
0.0
 40
0.3
100
AcDbArc
 50
0.0
 51
70.97439399999998
  0
ARC
  5
3AB2
330
3797
100
AcDbEntity
  8
1
  6
Continuous
100
AcDbCircle
 10
695.4329679999997
 20
372.4117239999998
 30
0.0
 40
1.0
100
AcDbArc
 50
90.0
 51
180.0
  0
LINE
  5
3AB3
330
3797
100
AcDbEntity
  8
1
  6
Continuous
100
AcDbLine
 10
684.4329679999997
 20
372.9117239999998
 30
0.0
 11
694.5669429999997
 21
372.9117239999998
 31
0.0
  0
LINE
  5
3AB4
330
3797
100
AcDbEntity
  8
1
  6
Continuous
100
AcDbLine
 10
694.432968
 20
359.411724
 30
0.0
 11
694.432968
 21
372.4117239999998
 31
0.0
  0
ARC
  5
3AB5
330
3797
100
AcDbEntity
  8
1
  6
Continuous
100
AcDbCircle
 10
702.0059680000001
 20
359.6446159999999
 30
0.0
 40
0.5
100
AcDbArc
 50
90.0
 51
180.0
  0
LINE
  5
3AB6
330
3797
100
AcDbEntity
  8
1
  6
Continuous
100
AcDbLine
 10
697.4329679999997
 20
373.4117239999998
 30
0.0
 11
695.4329679999997
 21
373.4117239999998
 31
0.0
  0
LINE
  5
3AB7
330
3797
100
AcDbEntity
  8
2
  6
Continuous
100
AcDbLine
 10
675.9329679999997
 20
355.411724
 30
0.0
 11
678.9329679999997
 21
362.287817
 31
0.0
  0
LINE
  5
3AB8
330
3797
100
AcDbEntity
  8
2
  6
Continuous
100
AcDbLine
 10
675.988186
 20
362.1612569999999
 30
0.0
 11
678.9329679999997
 21
355.411724
 31
0.0
  0
LINE
  5
3AB9
330
3797
100
AcDbEntity
  8
1
  6
Continuous
100
AcDbLine
 10
675.9329679999997
 20
355.411724
 30
0.0
 11
678.9329679999997
 21
355.411724
 31
0.0
  0
LINE
  5
3ABA
330
3797
100
AcDbEntity
  8
1
  6
Continuous
100
AcDbLine
 10
676.2329679999997
 20
362.287817
 30
0.0
 11
678.9329679999997
 21
362.287817
 31
0.0
  0
ARC
  5
3ABB
330
3797
100
AcDbEntity
  8
1
  6
Continuous
100
AcDbCircle
 10
676.2329679999997
 20
361.987817
 30
0.0
 40
0.3
100
AcDbArc
 50
90.0
 51
180.0
  0
ARC
  5
3ABC
330
3797
100
AcDbEntity
  8
1
  6
Continuous
100
AcDbCircle
 10
684.4329679999997
 20
371.911724
 30
0.0
 40
1.0
100
AcDbArc
 50
90.0
 51
180.0
  0
LINE
  5
3ABD
330
3797
100
AcDbEntity
  8
1
  6
Continuous
100
AcDbLine
 10
680.9329679999997
 20
364.4379159999999
 30
0.0
 11
681.0329679999997
 21
364.4379159999999
 31
0.0
  0
LINE
  5
3ABE
330
3797
100
AcDbEntity
  8
1
  6
Continuous
100
AcDbLine
 10
679.132968
 20
367.5360799999999
 30
0.0
 11
681.0329679999997
 21
367.5360799999999
 31
0.0
  0
LINE
  5
3ABF
330
3797
100
AcDbEntity
  8
1
  6
Continuous
100
AcDbLine
 10
678.9329679999997
 20
366.6700539999998
 30
0.0
 11
680.9329679999997
 21
366.6700539999998
 31
0.0
  0
LINE
  5
3AC0
330
3797
100
AcDbEntity
  8
1
  6
Continuous
100
AcDbLine
 10
679.132968
 20
369.4117240000001
 30
0.0
 11
683.4329679999997
 21
369.4117240000001
 31
0.0
  0
LINE
  5
3AC1
330
3797
100
AcDbEntity
  8
1
  6
Continuous
100
AcDbLine
 10
679.132968
 20
366.6700539999998
 30
0.0
 11
679.132968
 21
369.4117240000001
 31
0.0
  0
ARC
  5
3AC2
330
3797
100
AcDbEntity
  8
1
  6
Continuous
100
AcDbCircle
 10
699.382697
 20
379.1117239999999
 30
0.0
 40
0.3
100
AcDbArc
 50
70.97439399999998
 51
90.0
  0
LINE
  5
3AC3
330
3797
100
AcDbEntity
  8
1
  6
Continuous
100
AcDbLine
 10
697.4329679999997
 20
379.4117239999998
 30
0.0
 11
699.382697
 21
379.4117239999998
 31
0.0
  0
ARC
  5
3AC4
330
3797
100
AcDbEntity
  8
1
  6
Continuous
100
AcDbCircle
 10
650.256986
 20
355.411724
 30
0.0
 40
9.0
100
AcDbArc
 50
161.291703
 51
198.7082969999999
  0
ARC
  5
3AC5
330
3797
100
AcDbEntity
  8
1
  6
Continuous
100
AcDbCircle
 10
643.6853079999997
 20
359.741851
 30
0.0
 40
2.428322
100
AcDbArc
 50
143.530685
 51
216.469315
  0
ARC
  5
3AC6
330
3797
100
AcDbEntity
  8
1
  6
Continuous
100
AcDbCircle
 10
642.828664
 20
359.741851
 30
0.0
 40
2.428322
100
AcDbArc
 50
323.530685
 51
36.469315
  0
ARC
  5
3AC7
330
3797
100
AcDbEntity
  8
1
  6
Continuous
100
AcDbCircle
 10
636.2569859999998
 20
355.411724
 30
0.0
 40
9.0
100
AcDbArc
 50
341.291703
 51
18.708297
  0
LINE
  5
3AC8
330
3797
100
AcDbEntity
  8
1
  6
Continuous
100
AcDbLine
 10
646.756986
 20
361.1617240000001
 30
0.0
 11
645.2569859999997
 21
361.1617240000001
 31
0.0
  0
LINE
  5
3AC9
330
3797
100
AcDbEntity
  8
1
  6
Continuous
100
AcDbLine
 10
646.756986
 20
355.411724
 30
0.0
 11
645.2569859999997
 21
353.9117239999998
 31
0.0
  0
LINE
  5
3ACA
330
3797
100
AcDbEntity
  8
1
  6
Continuous
100
AcDbLine
 10
646.756986
 20
356.9117240000001
 30
0.0
 11
645.2569859999997
 21
355.411724
 31
0.0
  0
LINE
  5
3ACB
330
3797
100
AcDbEntity
  8
1
  6
Continuous
100
AcDbLine
 10
641.732511
 20
358.298475
 30
0.0
 11
644.781461
 21
358.298475
 31
0.0
  0
LINE
  5
3ACC
330
3797
100
AcDbEntity
  8
1
  6
Continuous
100
AcDbLine
 10
641.732511
 20
352.524973
 30
0.0
 11
644.781461
 21
352.524973
 31
0.0
  0
LINE
  5
3ACD
330
3797
100
AcDbEntity
  8
1
  6
Continuous
100
AcDbLine
 10
641.732511
 20
361.1852269999998
 30
0.0
 11
644.781461
 21
361.1852269999998
 31
0.0
  0
LINE
  5
3ACE
330
3797
100
AcDbEntity
  8
1
  6
Continuous
100
AcDbLine
 10
646.756986
 20
363.4117240000001
 30
0.0
 11
648.356986
 21
363.4117240000001
 31
0.0
  0
LINE
  5
3ACF
330
3797
100
AcDbEntity
  8
1
  6
Continuous
100
AcDbLine
 10
648.356986
 20
366.4117239999998
 30
0.0
 11
652.3569859999997
 21
366.4117239999998
 31
0.0
  0
LINE
  5
3AD0
330
3797
100
AcDbEntity
  8
1
  6
Continuous
100
AcDbLine
 10
595.0565809999998
 20
259.411724
 30
0.0
 11
595.0565809999998
 21
269.4117240000001
 31
0.0
  0
LINE
  5
3AD1
330
3797
100
AcDbEntity
  8
1
  6
Continuous
100
AcDbLine
 10
594.7565809999997
 20
259.411724
 30
0.0
 11
594.7565809999997
 21
269.4117240000001
 31
0.0
  0
LINE
  5
3AD2
330
3797
100
AcDbEntity
  8
1
  6
Continuous
100
AcDbLine
 10
595.856581
 20
256.4117239999999
 30
0.0
 11
595.856581
 21
272.4117239999999
 31
0.0
  0
LINE
  5
3AD3
330
3797
100
AcDbEntity
  8
1
  6
Continuous
100
AcDbLine
 10
606.1565809999997
 20
238.411724
 30
0.0
 11
606.1565809999997
 21
355.411724
 31
0.0
  0
LINE
  5
3AD4
330
3797
100
AcDbEntity
  8
1
  6
Continuous
100
AcDbLine
 10
608.1565809999997
 20
238.411724
 30
0.0
 11
608.1565809999997
 21
355.411724
 31
0.0
  0
LINE
  5
3AD5
330
3797
100
AcDbEntity
  8
4
  6
CENTER
100
AcDbLine
 10
591.797815
 20
264.4117239999999
 30
0.0
 11
610.470815
 21
264.4117239999999
 31
0.0
  0
LINE
  5
3AD6
330
3797
100
AcDbEntity
  8
1
  6
Continuous
100
AcDbLine
 10
600.1565809999997
 20
240.411724
 30
0.0
 11
600.1565809999997
 21
256.4117239999999
 31
0.0
  0
ARC
  5
3AD7
330
3797
100
AcDbEntity
  8
1
  6
Continuous
100
AcDbCircle
 10
602.1565809999997
 20
240.411724
 30
0.0
 40
2.0
100
AcDbArc
 50
180.0
 51
270.0
  0
LINE
  5
3AD8
330
3797
100
AcDbEntity
  8
1
  6
Continuous
100
AcDbLine
 10
602.1565809999997
 20
238.411724
 30
0.0
 11
608.1565809999997
 21
238.411724
 31
0.0
  0
LINE
  5
3AD9
330
3797
100
AcDbEntity
  8
1
  6
Continuous
100
AcDbLine
 10
594.7565809999997
 20
259.411724
 30
0.0
 11
595.0565809999998
 21
259.411724
 31
0.0
  0
LINE
  5
3ADA
330
3797
100
AcDbEntity
  8
1
  6
Continuous
100
AcDbLine
 10
595.0565809999998
 20
259.411724
 30
0.0
 11
595.856581
 21
260.211724
 31
0.0
  0
LINE
  5
3ADB
330
3797
100
AcDbEntity
  8
1
  6
Continuous
100
AcDbLine
 10
595.856581
 20
256.4117239999999
 30
0.0
 11
600.1565809999997
 21
256.4117239999999
 31
0.0
  0
LINE
  5
3ADC
330
3797
100
AcDbEntity
  8
1
  6
Continuous
100
AcDbLine
 10
600.1565809999997
 20
337.4117239999999
 30
0.0
 11
600.1565809999997
 21
353.411724
 31
0.0
  0
LINE
  5
3ADD
330
3797
100
AcDbEntity
  8
1
  6
Continuous
100
AcDbLine
 10
595.856581
 20
278.411724
 30
0.0
 11
595.856581
 21
315.4117240000001
 31
0.0
  0
ARC
  5
3ADE
330
3797
100
AcDbEntity
  8
1
  6
Continuous
100
AcDbCircle
 10
600.906581
 20
275.4117239999999
 30
0.0
 40
3.25
100
AcDbArc
 50
292.6198649999999
 51
67.380135
  0
ARC
  5
3ADF
330
3797
100
AcDbEntity
  8
1
  6
Continuous
100
AcDbCircle
 10
597.1065809999998
 20
275.4117239999999
 30
0.0
 40
3.25
100
AcDbArc
 50
112.6198649999997
 51
247.380135
  0
LINE
  5
3AE0
330
3797
100
AcDbEntity
  8
1
  6
Continuous
100
AcDbLine
 10
595.856581
 20
272.4117239999999
 30
0.0
 11
602.1565809999997
 21
272.4117239999999
 31
0.0
  0
LINE
  5
3AE1
330
3797
100
AcDbEntity
  8
1
  6
Continuous
100
AcDbLine
 10
594.7565809999997
 20
269.4117240000001
 30
0.0
 11
595.0565809999998
 21
269.4117240000001
 31
0.0
  0
LINE
  5
3AE2
330
3797
100
AcDbEntity
  8
1
  6
Continuous
100
AcDbLine
 10
595.0565809999998
 20
269.4117240000001
 30
0.0
 11
595.856581
 21
268.6117239999999
 31
0.0
  0
LINE
  5
3AE3
330
3797
100
AcDbEntity
  8
1
  6
Continuous
100
AcDbLine
 10
595.856581
 20
278.411724
 30
0.0
 11
602.1565809999997
 21
278.411724
 31
0.0
  0
LINE
  5
3AE4
330
3797
100
AcDbEntity
  8
4
  6
CENTER
100
AcDbLine
 10
591.797815
 20
329.4117239999998
 30
0.0
 11
610.470815
 21
329.4117239999998
 31
0.0
  0
LINE
  5
3AE5
330
3797
100
AcDbEntity
  8
1
  6
Continuous
100
AcDbLine
 10
595.0565809999998
 20
324.411724
 30
0.0
 11
595.0565809999998
 21
334.411724
 31
0.0
  0
LINE
  5
3AE6
330
3797
100
AcDbEntity
  8
1
  6
Continuous
100
AcDbLine
 10
594.7565809999997
 20
324.411724
 30
0.0
 11
594.7565809999997
 21
334.411724
 31
0.0
  0
LINE
  5
3AE7
330
3797
100
AcDbEntity
  8
1
  6
Continuous
100
AcDbLine
 10
595.856581
 20
321.4117240000001
 30
0.0
 11
595.856581
 21
337.4117239999999
 31
0.0
  0
ARC
  5
3AE8
330
3797
100
AcDbEntity
  8
1
  6
Continuous
100
AcDbCircle
 10
600.906581
 20
318.4117239999999
 30
0.0
 40
3.25
100
AcDbArc
 50
292.6198649999999
 51
67.380135
  0
ARC
  5
3AE9
330
3797
100
AcDbEntity
  8
1
  6
Continuous
100
AcDbCircle
 10
597.1065809999998
 20
318.4117239999999
 30
0.0
 40
3.25
100
AcDbArc
 50
112.6198649999997
 51
247.380135
  0
LINE
  5
3AEA
330
3797
100
AcDbEntity
  8
1
  6
Continuous
100
AcDbLine
 10
595.856581
 20
315.4117240000001
 30
0.0
 11
602.1565809999997
 21
315.4117240000001
 31
0.0
  0
LINE
  5
3AEB
330
3797
100
AcDbEntity
  8
1
  6
Continuous
100
AcDbLine
 10
595.856581
 20
321.4117240000001
 30
0.0
 11
602.1565809999997
 21
321.4117240000001
 31
0.0
  0
LINE
  5
3AEC
330
3797
100
AcDbEntity
  8
1
  6
Continuous
100
AcDbLine
 10
594.7565809999997
 20
324.411724
 30
0.0
 11
595.0565809999998
 21
324.411724
 31
0.0
  0
LINE
  5
3AED
330
3797
100
AcDbEntity
  8
1
  6
Continuous
100
AcDbLine
 10
595.0565809999998
 20
324.411724
 30
0.0
 11
595.856581
 21
325.211724
 31
0.0
  0
LINE
  5
3AEE
330
3797
100
AcDbEntity
  8
1
  6
Continuous
100
AcDbLine
 10
594.7565809999997
 20
334.411724
 30
0.0
 11
595.0565809999998
 21
334.411724
 31
0.0
  0
LINE
  5
3AEF
330
3797
100
AcDbEntity
  8
1
  6
Continuous
100
AcDbLine
 10
595.0565809999998
 20
334.411724
 30
0.0
 11
595.856581
 21
333.611724
 31
0.0
  0
LINE
  5
3AF0
330
3797
100
AcDbEntity
  8
1
  6
Continuous
100
AcDbLine
 10
595.856581
 20
337.4117239999999
 30
0.0
 11
600.1565809999997
 21
337.4117239999999
 31
0.0
  0
ARC
  5
3AF1
330
3797
100
AcDbEntity
  8
1
  6
Continuous
100
AcDbCircle
 10
602.1565809999997
 20
353.411724
 30
0.0
 40
2.0
100
AcDbArc
 50
90.0
 51
180.0
  0
LINE
  5
3AF2
330
3797
100
AcDbEntity
  8
1
  6
Continuous
100
AcDbLine
 10
602.1565809999997
 20
355.411724
 30
0.0
 11
608.1565809999997
 21
355.411724
 31
0.0
  0
LINE
  5
3AF3
330
3797
100
AcDbEntity
  8
5
  6
PHANTOM
100
AcDbLine
 10
776.6354659999997
 20
259.840116
 30
0.0
 11
789.0098349999997
 21
270.800272
 31
0.0
  0
ARC
  5
3AF4
330
3797
100
AcDbEntity
  8
5
  6
PHANTOM
100
AcDbCircle
 10
779.599146
 20
269.6899119999998
 30
0.0
 40
10.0
100
AcDbArc
 50
201.5305749999999
 51
225.0
  0
LINE
  5
3AF5
330
3797
100
AcDbEntity
  8
5
  6
PHANTOM
100
AcDbLine
 10
775.2653239999999
 20
259.8815979999999
 30
0.0
 11
772.528078
 21
262.6188439999999
 31
0.0
  0
ARC
  5
3AF6
330
3797
100
AcDbEntity
  8
5
  6
PHANTOM
100
AcDbCircle
 10
775.9724309999996
 20
260.588705
 30
0.0
 40
1.0
100
AcDbArc
 50
225.0
 51
311.5317709999998
  0
ARC
  5
3AF7
330
3797
100
AcDbEntity
  8
5
  6
PHANTOM
100
AcDbCircle
 10
788.3468
 20
271.54886
 30
0.0
 40
1.0
100
AcDbArc
 50
311.5317709999998
 51
45.0
  0
LINE
  5
3AF8
330
3797
100
AcDbEntity
  8
4
  6
CENTER
100
AcDbLine
 10
319.84413
 20
66.5
 30
0.0
 11
300.7441299999998
 21
66.5
 31
0.0
  0
ARC
  5
3AF9
330
3797
100
AcDbEntity
  8
1
  6
Continuous
100
AcDbCircle
 10
255.8626589999998
 20
76.5
 30
0.0
 40
1.0
100
AcDbArc
 50
112.9009429999999
 51
173.1954159999999
  0
ARC
  5
3AFA
330
3797
100
AcDbEntity
  8
1
  6
Continuous
100
AcDbCircle
 10
255.8626589999998
 20
56.5
 30
0.0
 40
1.0
100
AcDbArc
 50
186.804584
 51
247.099057
  0
LINE
  5
3AFB
330
3797
100
AcDbEntity
  8
4
  6
CENTER
100
AcDbLine
 10
287.391312
 20
66.5
 30
0.0
 11
249.2681479999999
 21
66.5
 31
0.0
  0
ARC
  5
3AFC
330
3797
100
AcDbEntity
  8
1
  6
Continuous
100
AcDbCircle
 10
339.666424
 20
66.5
 30
0.0
 40
84.89827599999998
100
AcDbArc
 50
164.9813379999999
 51
195.018662
  0
ARC
  5
3AFD
330
3797
100
AcDbEntity
  8
1
  6
Continuous
100
AcDbCircle
 10
339.6681479999998
 20
66.5
 30
0.0
 40
85.4
100
AcDbArc
 50
173.1954159999999
 51
186.804584
  0
LINE
  5
3AFE
330
3797
100
AcDbEntity
  8
1
  6
Continuous
100
AcDbLine
 10
278.1681479999999
 20
80.5
 30
0.0
 11
278.1681479999999
 21
52.5
 31
0.0
  0
LINE
  5
3AFF
330
3797
100
AcDbEntity
  8
1
  6
Continuous
100
AcDbLine
 10
308.74413
 20
77.5
 30
0.0
 11
308.74413
 21
55.5
 31
0.0
  0
LINE
  5
3B00
330
3797
100
AcDbEntity
  8
1
  6
Continuous
100
AcDbLine
 10
306.74413
 20
77.5
 30
0.0
 11
306.74413
 21
55.5
 31
0.0
  0
LINE
  5
3B01
330
3797
100
AcDbEntity
  8
1
  6
Continuous
100
AcDbLine
 10
273.6681479999999
 20
50.0
 30
0.0
 11
273.6681479999999
 21
51.5
 31
0.0
  0
LINE
  5
3B02
330
3797
100
AcDbEntity
  8
1
  6
Continuous
100
AcDbLine
 10
262.6681479999999
 20
50.0
 30
0.0
 11
262.6681479999999
 21
51.5
 31
0.0
  0
LINE
  5
3B03
330
3797
100
AcDbEntity
  8
1
  6
Continuous
100
AcDbLine
 10
259.6681479999999
 20
44.5
 30
0.0
 11
259.6681479999999
 21
88.49999999999999
 31
0.0
  0
LINE
  5
3B04
330
3797
100
AcDbEntity
  8
1
  6
Continuous
100
AcDbLine
 10
257.6681479999999
 20
44.5
 30
0.0
 11
257.6681479999999
 21
88.49999999999999
 31
0.0
  0
LINE
  5
3B05
330
3797
100
AcDbEntity
  8
1
  6
Continuous
100
AcDbLine
 10
272.6681479999999
 20
84.0
 30
0.0
 11
259.6681479999999
 21
84.0
 31
0.0
  0
LINE
  5
3B06
330
3797
100
AcDbEntity
  8
1
  6
Continuous
100
AcDbLine
 10
259.6681479999999
 20
88.49999999999999
 30
0.0
 11
257.6681479999999
 21
88.49999999999999
 31
0.0
  0
ARC
  5
3B07
330
3797
100
AcDbEntity
  8
1
  6
Continuous
100
AcDbCircle
 10
261.668148
 20
83.0
 30
0.0
 40
1.0
100
AcDbArc
 50
0.0
 51
90.0
  0
ARC
  5
3B08
330
3797
100
AcDbEntity
  8
1
  6
Continuous
100
AcDbCircle
 10
277.1681479999999
 20
80.5
 30
0.0
 40
1.0
100
AcDbArc
 50
0.0
 51
90.0
  0
LINE
  5
3B09
330
3797
100
AcDbEntity
  8
1
  6
Continuous
100
AcDbLine
 10
277.1681479999999
 20
81.5
 30
0.0
 11
262.6681479999999
 21
81.5
 31
0.0
  0
ARC
  5
3B0A
330
3797
100
AcDbEntity
  8
1
  6
Continuous
100
AcDbCircle
 10
272.6681479999999
 20
83.0
 30
0.0
 40
1.0
100
AcDbArc
 50
0.0
 51
90.0
  0
LINE
  5
3B0B
330
3797
100
AcDbEntity
  8
1
  6
Continuous
100
AcDbLine
 10
308.74413
 20
77.5
 30
0.0
 11
304.74413
 21
77.5
 31
0.0
  0
LINE
  5
3B0C
330
3797
100
AcDbEntity
  8
2
  6
Continuous
100
AcDbLine
 10
281.11293
 20
59.750467
 30
0.0
 11
278.1681479999999
 21
66.5
 31
0.0
  0
LINE
  5
3B0D
330
3797
100
AcDbEntity
  8
2
  6
Continuous
100
AcDbLine
 10
281.1681479999999
 20
66.5
 30
0.0
 11
278.1681479999999
 21
59.623907
 31
0.0
  0
LINE
  5
3B0E
330
3797
100
AcDbEntity
  8
1
  6
Continuous
100
AcDbLine
 10
281.1681479999999
 20
73.076093
 30
0.0
 11
281.1681479999999
 21
59.92390699999999
 31
0.0
  0
LINE
  5
3B0F
330
3797
100
AcDbEntity
  8
1
  6
Continuous
100
AcDbLine
 10
281.1681479999999
 20
66.5
 30
0.0
 11
278.1681479999999
 21
66.5
 31
0.0
  0
LINE
  5
3B10
330
3797
100
AcDbEntity
  8
1
  6
Continuous
100
AcDbLine
 10
280.868148
 20
73.37609300000003
 30
0.0
 11
278.1681479999999
 21
73.37609300000003
 31
0.0
  0
LINE
  5
3B11
330
3797
100
AcDbEntity
  8
2
  6
Continuous
100
AcDbLine
 10
278.1681479999999
 20
66.5
 30
0.0
 11
281.11293
 21
73.249533
 31
0.0
  0
LINE
  5
3B12
330
3797
100
AcDbEntity
  8
2
  6
Continuous
100
AcDbLine
 10
281.1681479999999
 20
66.5
 30
0.0
 11
278.1681479999999
 21
73.37609300000003
 31
0.0
  0
ARC
  5
3B13
330
3797
100
AcDbEntity
  8
1
  6
Continuous
100
AcDbCircle
 10
280.868148
 20
73.076093
 30
0.0
 40
0.3
100
AcDbArc
 50
0.0
 51
90.0
  0
LINE
  5
3B14
330
3797
100
AcDbEntity
  8
1
  6
Continuous
100
AcDbLine
 10
280.868148
 20
59.623907
 30
0.0
 11
278.1681479999999
 21
59.623907
 31
0.0
  0
ARC
  5
3B15
330
3797
100
AcDbEntity
  8
1
  6
Continuous
100
AcDbCircle
 10
280.868148
 20
59.92390699999999
 30
0.0
 40
0.3
100
AcDbArc
 50
270.0
 51
0.0
  0
LINE
  5
3B16
330
3797
100
AcDbEntity
  8
1
  6
Continuous
100
AcDbLine
 10
272.6681479999999
 20
49.0
 30
0.0
 11
259.6681479999999
 21
49.0
 31
0.0
  0
ARC
  5
3B17
330
3797
100
AcDbEntity
  8
1
  6
Continuous
100
AcDbCircle
 10
261.668148
 20
50.0
 30
0.0
 40
1.0
100
AcDbArc
 50
270.0
 51
0.0
  0
LINE
  5
3B18
330
3797
100
AcDbEntity
  8
1
  6
Continuous
100
AcDbLine
 10
259.6681479999999
 20
44.5
 30
0.0
 11
257.6681479999999
 21
44.5
 31
0.0
  0
ARC
  5
3B19
330
3797
100
AcDbEntity
  8
1
  6
Continuous
100
AcDbCircle
 10
277.1681479999999
 20
52.5
 30
0.0
 40
1.0
100
AcDbArc
 50
270.0
 51
0.0
  0
LINE
  5
3B1A
330
3797
100
AcDbEntity
  8
1
  6
Continuous
100
AcDbLine
 10
277.1681479999999
 20
51.5
 30
0.0
 11
262.6681479999999
 21
51.5
 31
0.0
  0
ARC
  5
3B1B
330
3797
100
AcDbEntity
  8
1
  6
Continuous
100
AcDbCircle
 10
272.6681479999999
 20
50.0
 30
0.0
 40
1.0
100
AcDbArc
 50
270.0
 51
0.0
  0
LINE
  5
3B1C
330
3797
100
AcDbEntity
  8
1
  6
Continuous
100
AcDbLine
 10
315.84413
 20
61.5
 30
0.0
 11
315.84413
 21
71.5
 31
0.0
  0
LINE
  5
3B1D
330
3797
100
AcDbEntity
  8
1
  6
Continuous
100
AcDbLine
 10
311.84413
 20
60.75
 30
0.0
 11
311.84413
 21
72.25
 31
0.0
  0
LINE
  5
3B1E
330
3797
100
AcDbEntity
  8
1
  6
Continuous
100
AcDbLine
 10
310.34413
 20
74.5
 30
0.0
 11
310.34413
 21
58.5
 31
0.0
  0
ARC
  5
3B1F
330
3797
100
AcDbEntity
  8
1
  6
Continuous
100
AcDbCircle
 10
319.0694219999998
 20
64.0
 30
0.0
 40
7.225291999999997
100
AcDbArc
 50
159.7567339999999
 51
200.243266
  0
LINE
  5
3B20
330
3797
100
AcDbEntity
  8
1
  6
Continuous
100
AcDbLine
 10
310.34413
 20
66.5
 30
0.0
 11
311.84413
 21
68.0
 31
0.0
  0
ARC
  5
3B21
330
3797
100
AcDbEntity
  8
1
  6
Continuous
100
AcDbCircle
 10
308.6188379999998
 20
64.0
 30
0.0
 40
7.225291999999997
100
AcDbArc
 50
339.756734
 51
20.24326599999998
  0
LINE
  5
3B22
330
3797
100
AcDbEntity
  8
1
  6
Continuous
100
AcDbLine
 10
310.34413
 20
74.5
 30
0.0
 11
308.74413
 21
74.5
 31
0.0
  0
ARC
  5
3B23
330
3797
100
AcDbEntity
  8
1
  6
Continuous
100
AcDbCircle
 10
308.6188379999998
 20
69.0
 30
0.0
 40
7.225291999999997
100
AcDbArc
 50
339.756734
 51
20.24326599999998
  0
ARC
  5
3B24
330
3797
100
AcDbEntity
  8
1
  6
Continuous
100
AcDbCircle
 10
319.0694219999998
 20
69.0
 30
0.0
 40
7.225291999999997
100
AcDbArc
 50
159.7567339999999
 51
200.243266
  0
LINE
  5
3B25
330
3797
100
AcDbEntity
  8
1
  6
Continuous
100
AcDbLine
 10
310.34413
 20
65.0
 30
0.0
 11
311.84413
 21
66.5
 31
0.0
  0
LINE
  5
3B26
330
3797
100
AcDbEntity
  8
1
  6
Continuous
100
AcDbLine
 10
311.84413
 20
72.25
 30
0.0
 11
310.34413
 21
72.25
 31
0.0
  0
LINE
  5
3B27
330
3797
100
AcDbEntity
  8
1
  6
Continuous
100
AcDbLine
 10
315.84413
 20
71.5
 30
0.0
 11
311.84413
 21
71.5
 31
0.0
  0
LINE
  5
3B28
330
3797
100
AcDbEntity
  8
1
  6
Continuous
100
AcDbLine
 10
312.2904219999998
 20
66.5
 30
0.0
 11
315.3978379999998
 21
66.5
 31
0.0
  0
LINE
  5
3B29
330
3797
100
AcDbEntity
  8
1
  6
Continuous
100
AcDbLine
 10
310.34413
 20
58.5
 30
0.0
 11
308.74413
 21
58.5
 31
0.0
  0
LINE
  5
3B2A
330
3797
100
AcDbEntity
  8
1
  6
Continuous
100
AcDbLine
 10
308.74413
 20
55.5
 30
0.0
 11
304.74413
 21
55.5
 31
0.0
  0
LINE
  5
3B2B
330
3797
100
AcDbEntity
  8
1
  6
Continuous
100
AcDbLine
 10
310.34413
 20
60.75
 30
0.0
 11
311.84413
 21
60.75
 31
0.0
  0
LINE
  5
3B2C
330
3797
100
AcDbEntity
  8
1
  6
Continuous
100
AcDbLine
 10
315.84413
 20
61.5
 30
0.0
 11
311.84413
 21
61.5
 31
0.0
  0
LINE
  5
3B2D
330
3797
100
AcDbEntity
  8
1
  6
Continuous
100
AcDbLine
 10
359.2445349999999
 20
84.50000000000001
 30
0.0
 11
359.2445349999999
 21
48.5
 31
0.0
  0
LINE
  5
3B2E
330
3797
100
AcDbEntity
  8
1
  6
Continuous
100
AcDbLine
 10
363.2445349999999
 20
48.5
 30
0.0
 11
363.2445349999999
 21
84.50000000000001
 31
0.0
  0
LINE
  5
3B2F
330
3797
100
AcDbEntity
  8
1
  6
Continuous
100
AcDbLine
 10
361.2445349999999
 20
84.50000000000001
 30
0.0
 11
361.2445349999999
 21
48.5
 31
0.0
  0
ARC
  5
3B30
330
3797
100
AcDbEntity
  8
1
  6
Continuous
100
AcDbCircle
 10
359.2445349999999
 20
84.50000000000001
 30
0.0
 40
4.0
100
AcDbArc
 50
0.0
 51
90.0
  0
ARC
  5
3B31
330
3797
100
AcDbEntity
  8
1
  6
Continuous
100
AcDbCircle
 10
359.2445349999999
 20
84.50000000000001
 30
0.0
 40
2.0
100
AcDbArc
 50
0.0
 51
90.0
  0
LINE
  5
3B32
330
3797
100
AcDbEntity
  8
1
  6
Continuous
100
AcDbLine
 10
350.944535
 20
92.0
 30
0.0
 11
350.944535
 21
86.5
 31
0.0
  0
LINE
  5
3B33
330
3797
100
AcDbEntity
  8
1
  6
Continuous
100
AcDbLine
 10
348.944535
 20
92.0
 30
0.0
 11
348.944535
 21
86.5
 31
0.0
  0
ARC
  5
3B34
330
3797
100
AcDbEntity
  8
1
  6
Continuous
100
AcDbCircle
 10
354.9445349999999
 20
86.5
 30
0.0
 40
2.0
100
AcDbArc
 50
90.0
 51
180.0
  0
LINE
  5
3B35
330
3797
100
AcDbEntity
  8
1
  6
Continuous
100
AcDbLine
 10
354.9445349999999
 20
88.49999999999999
 30
0.0
 11
359.2445349999999
 21
88.49999999999999
 31
0.0
  0
LINE
  5
3B36
330
3797
100
AcDbEntity
  8
1
  6
Continuous
100
AcDbLine
 10
350.944535
 20
92.0
 30
0.0
 11
348.944535
 21
92.0
 31
0.0
  0
LINE
  5
3B37
330
3797
100
AcDbEntity
  8
1
  6
Continuous
100
AcDbLine
 10
359.2445349999999
 20
86.5
 30
0.0
 11
350.944535
 21
86.5
 31
0.0
  0
LINE
  5
3B38
330
3797
100
AcDbEntity
  8
1
  6
Continuous
100
AcDbLine
 10
359.2445349999999
 20
84.50000000000001
 30
0.0
 11
350.944535
 21
84.50000000000001
 31
0.0
  0
ARC
  5
3B39
330
3797
100
AcDbEntity
  8
1
  6
Continuous
100
AcDbCircle
 10
350.944535
 20
86.5
 30
0.0
 40
2.0
100
AcDbArc
 50
180.0
 51
270.0
  0
LINE
  5
3B3A
330
3797
100
AcDbEntity
  8
1
  6
Continuous
100
AcDbLine
 10
356.9445349999999
 20
84.50000000000001
 30
0.0
 11
356.9445349999999
 21
86.5
 31
0.0
  0
LINE
  5
3B3B
330
3797
100
AcDbEntity
  8
4
  6
CENTER
100
AcDbLine
 10
368.244535
 20
66.5
 30
0.0
 11
343.9445349999999
 21
66.5
 31
0.0
  0
LINE
  5
3B3C
330
3797
100
AcDbEntity
  8
1
  6
Continuous
100
AcDbLine
 10
364.044535
 20
61.5
 30
0.0
 11
363.2445349999999
 21
62.3
 31
0.0
  0
LINE
  5
3B3D
330
3797
100
AcDbEntity
  8
1
  6
Continuous
100
AcDbLine
 10
364.044535
 20
71.5
 30
0.0
 11
363.2445349999999
 21
70.7
 31
0.0
  0
LINE
  5
3B3E
330
3797
100
AcDbEntity
  8
1
  6
Continuous
100
AcDbLine
 10
364.044535
 20
71.5
 30
0.0
 11
364.044535
 21
61.5
 31
0.0
  0
LINE
  5
3B3F
330
3797
100
AcDbEntity
  8
1
  6
Continuous
100
AcDbLine
 10
364.344535
 20
71.5
 30
0.0
 11
364.344535
 21
61.5
 31
0.0
  0
LINE
  5
3B40
330
3797
100
AcDbEntity
  8
1
  6
Continuous
100
AcDbLine
 10
364.344535
 20
71.5
 30
0.0
 11
364.044535
 21
71.5
 31
0.0
  0
LINE
  5
3B41
330
3797
100
AcDbEntity
  8
1
  6
Continuous
100
AcDbLine
 10
364.344535
 20
61.5
 30
0.0
 11
364.044535
 21
61.5
 31
0.0
  0
ARC
  5
3B42
330
3797
100
AcDbEntity
  8
1
  6
Continuous
100
AcDbCircle
 10
359.2445349999999
 20
48.5
 30
0.0
 40
4.0
100
AcDbArc
 50
270.0
 51
0.0
  0
LINE
  5
3B43
330
3797
100
AcDbEntity
  8
1
  6
Continuous
100
AcDbLine
 10
350.944535
 20
46.5
 30
0.0
 11
350.944535
 21
41.0
 31
0.0
  0
LINE
  5
3B44
330
3797
100
AcDbEntity
  8
1
  6
Continuous
100
AcDbLine
 10
348.944535
 20
46.5
 30
0.0
 11
348.944535
 21
41.0
 31
0.0
  0
ARC
  5
3B45
330
3797
100
AcDbEntity
  8
1
  6
Continuous
100
AcDbCircle
 10
354.9445349999999
 20
46.5
 30
0.0
 40
2.0
100
AcDbArc
 50
180.0
 51
270.0
  0
LINE
  5
3B46
330
3797
100
AcDbEntity
  8
1
  6
Continuous
100
AcDbLine
 10
354.9445349999999
 20
44.5
 30
0.0
 11
359.2445349999999
 21
44.5
 31
0.0
  0
LINE
  5
3B47
330
3797
100
AcDbEntity
  8
1
  6
Continuous
100
AcDbLine
 10
359.2445349999999
 20
46.5
 30
0.0
 11
350.944535
 21
46.5
 31
0.0
  0
LINE
  5
3B48
330
3797
100
AcDbEntity
  8
1
  6
Continuous
100
AcDbLine
 10
359.2445349999999
 20
48.5
 30
0.0
 11
350.944535
 21
48.5
 31
0.0
  0
ARC
  5
3B49
330
3797
100
AcDbEntity
  8
1
  6
Continuous
100
AcDbCircle
 10
350.944535
 20
46.5
 30
0.0
 40
2.0
100
AcDbArc
 50
90.0
 51
180.0
  0
LINE
  5
3B4A
330
3797
100
AcDbEntity
  8
1
  6
Continuous
100
AcDbLine
 10
356.9445349999999
 20
48.5
 30
0.0
 11
356.9445349999999
 21
46.5
 31
0.0
  0
ARC
  5
3B4B
330
3797
100
AcDbEntity
  8
1
  6
Continuous
100
AcDbCircle
 10
359.2445349999999
 20
48.5
 30
0.0
 40
2.0
100
AcDbArc
 50
270.0
 51
0.0
  0
LINE
  5
3B4C
330
3797
100
AcDbEntity
  8
1
  6
Continuous
100
AcDbLine
 10
350.944535
 20
41.0
 30
0.0
 11
348.944535
 21
41.0
 31
0.0
  0
LINE
  5
3B4D
330
3797
100
AcDbEntity
  8
1
  6
Continuous
100
AcDbLine
 10
262.6681479999999
 20
81.5
 30
0.0
 11
262.6681479999999
 21
83.0
 31
0.0
  0
LINE
  5
3B4E
330
3797
100
AcDbEntity
  8
1
  6
Continuous
100
AcDbLine
 10
273.6681479999999
 20
81.5
 30
0.0
 11
273.6681479999999
 21
83.0
 31
0.0
  0
CIRCLE
  5
3B4F
330
3797
100
AcDbEntity
  8
1
  6
Continuous
100
AcDbCircle
 10
470.050558
 20
203.9117239999999
 30
0.0
 40
2.6
  0
ARC
  5
3B50
330
3797
100
AcDbEntity
  8
1
  6
Continuous
100
AcDbCircle
 10
470.050558
 20
203.9117239999999
 30
0.0
 40
1.3
100
AcDbArc
 50
304.8090000000001
 51
325.1909999999998
  0
ARC
  5
3B51
330
3797
100
AcDbEntity
  8
1
  6
Continuous
100
AcDbCircle
 10
470.050558
 20
203.9117239999999
 30
0.0
 40
1.3
100
AcDbArc
 50
34.809
 51
55.1906
  0
LINE
  5
3B52
330
3797
100
AcDbEntity
  8
1
  6
Continuous
100
AcDbLine
 10
470.7074599999998
 20
203.9124319999999
 30
0.0
 11
470.9082780000001
 21
204.437105
 31
0.0
  0
LINE
  5
3B53
330
3797
100
AcDbEntity
  8
1
  6
Continuous
100
AcDbLine
 10
470.7074599999998
 20
203.9124319999999
 30
0.0
 11
470.9089849999998
 21
203.387051
 31
0.0
  0
LINE
  5
3B54
330
3797
100
AcDbEntity
  8
1
  6
Continuous
100
AcDbLine
 10
470.051265
 20
204.568627
 30
0.0
 11
470.5759379999998
 21
204.7694449999999
 31
0.0
  0
LINE
  5
3B55
330
3797
100
AcDbEntity
  8
1
  6
Continuous
100
AcDbLine
 10
470.050558
 20
203.2555289999999
 30
0.0
 11
470.5759379999998
 21
203.0540039999999
 31
0.0
  0
LINE
  5
3B56
330
3797
100
AcDbEntity
  8
1
  6
Continuous
100
AcDbLine
 10
469.525885
 20
203.054711
 30
0.0
 11
469.308803
 21
202.8446999999999
 31
0.0
  0
ARC
  5
3B57
330
3797
100
AcDbEntity
  8
1
  6
Continuous
100
AcDbCircle
 10
470.050558
 20
203.9117239999999
 30
0.0
 40
1.3
100
AcDbArc
 50
214.809
 51
235.1909999999999
  0
LINE
  5
3B58
330
3797
100
AcDbEntity
  8
1
  6
Continuous
100
AcDbLine
 10
469.192837
 20
204.437105
 30
0.0
 11
468.983534
 21
204.6534789999999
 31
0.0
  0
LINE
  5
3B59
330
3797
100
AcDbEntity
  8
1
  6
Continuous
100
AcDbLine
 10
469.3943629999998
 20
203.9117239999999
 30
0.0
 11
469.192837
 21
204.437105
 31
0.0
  0
LINE
  5
3B5A
330
3797
100
AcDbEntity
  8
1
  6
Continuous
100
AcDbLine
 10
469.525885
 20
204.7701519999999
 30
0.0
 11
469.3095099999998
 21
204.979456
 31
0.0
  0
LINE
  5
3B5B
330
3797
100
AcDbEntity
  8
1
  6
Continuous
100
AcDbLine
 10
470.051265
 20
204.568627
 30
0.0
 11
469.525885
 21
204.7701519999999
 31
0.0
  0
LINE
  5
3B5C
330
3797
100
AcDbEntity
  8
1
  6
Continuous
100
AcDbLine
 10
470.050558
 20
203.2555289999999
 30
0.0
 11
469.525885
 21
203.054711
 31
0.0
  0
LINE
  5
3B5D
330
3797
100
AcDbEntity
  8
1
  6
Continuous
100
AcDbLine
 10
469.1935439999999
 20
203.387051
 30
0.0
 11
468.983534
 21
203.1699689999999
 31
0.0
  0
LINE
  5
3B5E
330
3797
100
AcDbEntity
  8
1
  6
Continuous
100
AcDbLine
 10
469.3943629999998
 20
203.9117239999999
 30
0.0
 11
469.1935439999999
 21
203.387051
 31
0.0
  0
ARC
  5
3B5F
330
3797
100
AcDbEntity
  8
1
  6
Continuous
100
AcDbCircle
 10
470.050558
 20
203.9117239999999
 30
0.0
 40
1.3
100
AcDbArc
 50
124.8094
 51
145.1909999999998
  0
LINE
  5
3B60
330
3797
100
AcDbEntity
  8
1
  6
Continuous
100
AcDbLine
 10
470.5759379999998
 20
203.0540039999999
 30
0.0
 11
470.7937269999998
 21
202.8446999999999
 31
0.0
  0
LINE
  5
3B61
330
3797
100
AcDbEntity
  8
1
  6
Continuous
100
AcDbLine
 10
470.5759379999998
 20
204.7694449999999
 30
0.0
 11
470.7930199999998
 21
204.979456
 31
0.0
  0
LINE
  5
3B62
330
3797
100
AcDbEntity
  8
1
  6
Continuous
100
AcDbLine
 10
470.9082780000001
 20
204.437105
 30
0.0
 11
471.1182889999998
 21
204.6541869999999
 31
0.0
  0
LINE
  5
3B63
330
3797
100
AcDbEntity
  8
1
  6
Continuous
100
AcDbLine
 10
470.9089849999998
 20
203.387051
 30
0.0
 11
471.1189959999998
 21
203.1699689999999
 31
0.0
  0
CIRCLE
  5
3B64
330
3797
100
AcDbEntity
  8
1
  6
Continuous
100
AcDbCircle
 10
487.050558
 20
203.9117239999999
 30
0.0
 40
2.6
  0
ARC
  5
3B65
330
3797
100
AcDbEntity
  8
1
  6
Continuous
100
AcDbCircle
 10
487.050558
 20
203.9117239999999
 30
0.0
 40
1.3
100
AcDbArc
 50
304.8090000000001
 51
325.1909999999998
  0
ARC
  5
3B66
330
3797
100
AcDbEntity
  8
1
  6
Continuous
100
AcDbCircle
 10
487.050558
 20
203.9117239999999
 30
0.0
 40
1.3
100
AcDbArc
 50
34.809
 51
55.1906
  0
LINE
  5
3B67
330
3797
100
AcDbEntity
  8
1
  6
Continuous
100
AcDbLine
 10
487.7074599999998
 20
203.9124319999999
 30
0.0
 11
487.908278
 21
204.437105
 31
0.0
  0
LINE
  5
3B68
330
3797
100
AcDbEntity
  8
1
  6
Continuous
100
AcDbLine
 10
487.7074599999998
 20
203.9124319999999
 30
0.0
 11
487.9089849999998
 21
203.387051
 31
0.0
  0
LINE
  5
3B69
330
3797
100
AcDbEntity
  8
1
  6
Continuous
100
AcDbLine
 10
487.0512650000001
 20
204.568627
 30
0.0
 11
487.5759379999998
 21
204.7694449999999
 31
0.0
  0
LINE
  5
3B6A
330
3797
100
AcDbEntity
  8
1
  6
Continuous
100
AcDbLine
 10
487.050558
 20
203.2555289999999
 30
0.0
 11
487.5759379999998
 21
203.0540039999999
 31
0.0
  0
LINE
  5
3B6B
330
3797
100
AcDbEntity
  8
1
  6
Continuous
100
AcDbLine
 10
486.525885
 20
203.054711
 30
0.0
 11
486.308803
 21
202.8446999999999
 31
0.0
  0
ARC
  5
3B6C
330
3797
100
AcDbEntity
  8
1
  6
Continuous
100
AcDbCircle
 10
487.050558
 20
203.9117239999999
 30
0.0
 40
1.3
100
AcDbArc
 50
214.809
 51
235.1909999999999
  0
LINE
  5
3B6D
330
3797
100
AcDbEntity
  8
1
  6
Continuous
100
AcDbLine
 10
486.192837
 20
204.437105
 30
0.0
 11
485.983534
 21
204.6534789999999
 31
0.0
  0
LINE
  5
3B6E
330
3797
100
AcDbEntity
  8
1
  6
Continuous
100
AcDbLine
 10
486.394363
 20
203.9117239999999
 30
0.0
 11
486.192837
 21
204.437105
 31
0.0
  0
LINE
  5
3B6F
330
3797
100
AcDbEntity
  8
1
  6
Continuous
100
AcDbLine
 10
486.525885
 20
204.7701519999999
 30
0.0
 11
486.3095099999998
 21
204.979456
 31
0.0
  0
LINE
  5
3B70
330
3797
100
AcDbEntity
  8
1
  6
Continuous
100
AcDbLine
 10
487.0512650000001
 20
204.568627
 30
0.0
 11
486.525885
 21
204.7701519999999
 31
0.0
  0
LINE
  5
3B71
330
3797
100
AcDbEntity
  8
1
  6
Continuous
100
AcDbLine
 10
487.050558
 20
203.2555289999999
 30
0.0
 11
486.525885
 21
203.054711
 31
0.0
  0
LINE
  5
3B72
330
3797
100
AcDbEntity
  8
1
  6
Continuous
100
AcDbLine
 10
486.1935439999998
 20
203.387051
 30
0.0
 11
485.983534
 21
203.1699689999999
 31
0.0
  0
LINE
  5
3B73
330
3797
100
AcDbEntity
  8
1
  6
Continuous
100
AcDbLine
 10
486.394363
 20
203.9117239999999
 30
0.0
 11
486.1935439999998
 21
203.387051
 31
0.0
  0
ARC
  5
3B74
330
3797
100
AcDbEntity
  8
1
  6
Continuous
100
AcDbCircle
 10
487.050558
 20
203.9117239999999
 30
0.0
 40
1.3
100
AcDbArc
 50
124.8094
 51
145.1909999999998
  0
LINE
  5
3B75
330
3797
100
AcDbEntity
  8
1
  6
Continuous
100
AcDbLine
 10
487.5759379999998
 20
203.0540039999999
 30
0.0
 11
487.7937269999998
 21
202.8446999999999
 31
0.0
  0
LINE
  5
3B76
330
3797
100
AcDbEntity
  8
1
  6
Continuous
100
AcDbLine
 10
487.5759379999998
 20
204.7694449999999
 30
0.0
 11
487.79302
 21
204.979456
 31
0.0
  0
LINE
  5
3B77
330
3797
100
AcDbEntity
  8
1
  6
Continuous
100
AcDbLine
 10
487.908278
 20
204.437105
 30
0.0
 11
488.1182889999998
 21
204.6541869999999
 31
0.0
  0
LINE
  5
3B78
330
3797
100
AcDbEntity
  8
1
  6
Continuous
100
AcDbLine
 10
487.9089849999998
 20
203.387051
 30
0.0
 11
488.1189959999998
 21
203.1699689999999
 31
0.0
  0
CIRCLE
  5
3B79
330
3797
100
AcDbEntity
  8
1
  6
Continuous
100
AcDbCircle
 10
478.550558
 20
420.39282
 30
0.0
 40
11.0
  0
CIRCLE
  5
3B7A
330
3797
100
AcDbEntity
  8
1
  6
Continuous
100
AcDbCircle
 10
478.550558
 20
420.39282
 30
0.0
 40
8.0
  0
LINE
  5
3B7B
330
3797
100
AcDbEntity
  8
1
  6
Continuous
100
AcDbLine
 10
478.550558
 20
426.16582
 30
0.0
 11
473.550558
 21
423.2798199999998
 31
0.0
  0
ARC
  5
3B7C
330
3797
100
AcDbEntity
  8
1
  6
Continuous
100
AcDbCircle
 10
478.550558
 20
420.39282
 30
0.0
 40
3.1
100
AcDbArc
 50
115.8877849999999
 51
154.1122149999999
  0
LINE
  5
3B7D
330
3797
100
AcDbEntity
  8
1
  6
Continuous
100
AcDbLine
 10
478.550558
 20
426.16582
 30
0.0
 11
483.550558
 21
423.2798199999998
 31
0.0
  0
CIRCLE
  5
3B7E
330
3797
100
AcDbEntity
  8
1
  6
Continuous
100
AcDbCircle
 10
478.550558
 20
420.39282
 30
0.0
 40
5.0
  0
CIRCLE
  5
3B7F
330
3797
100
AcDbEntity
  8
1
  6
Continuous
100
AcDbCircle
 10
478.550558
 20
420.39282
 30
0.0
 40
4.049999999999998
  0
ARC
  5
3B80
330
3797
100
AcDbEntity
  8
1
  6
Continuous
100
AcDbCircle
 10
478.550558
 20
420.39282
 30
0.0
 40
3.1
100
AcDbArc
 50
25.887785
 51
64.112215
  0
ARC
  5
3B81
330
3797
100
AcDbEntity
  8
1
  6
Continuous
100
AcDbCircle
 10
478.550558
 20
420.39282
 30
0.0
 40
5.75
100
AcDbArc
 50
150.408154
 51
209.591846
  0
ARC
  5
3B82
330
3797
100
AcDbEntity
  8
1
  6
Continuous
100
AcDbCircle
 10
478.550558
 20
420.39282
 30
0.0
 40
5.75
100
AcDbArc
 50
210.4125359999999
 51
269.5831909999998
  0
ARC
  5
3B83
330
3797
100
AcDbEntity
  8
1
  6
Continuous
100
AcDbCircle
 10
478.550558
 20
420.39282
 30
0.0
 40
5.75
100
AcDbArc
 50
270.416809
 51
329.587464
  0
LINE
  5
3B84
330
3797
100
AcDbEntity
  8
1
  6
Continuous
100
AcDbLine
 10
483.550558
 20
417.50582
 30
0.0
 11
478.550558
 21
414.61882
 31
0.0
  0
ARC
  5
3B85
330
3797
100
AcDbEntity
  8
1
  6
Continuous
100
AcDbCircle
 10
478.550558
 20
420.39282
 30
0.0
 40
3.1
100
AcDbArc
 50
295.887785
 51
334.1122149999999
  0
LINE
  5
3B86
330
3797
100
AcDbEntity
  8
1
  6
Continuous
100
AcDbLine
 10
481.339476
 20
419.039329
 30
0.0
 11
480.035287
 21
420.3898549999998
 31
0.0
  0
LINE
  5
3B87
330
3797
100
AcDbEntity
  8
1
  6
Continuous
100
AcDbLine
 10
480.035287
 20
420.395784
 30
0.0
 11
481.339476
 21
421.7463109999997
 31
0.0
  0
LINE
  5
3B88
330
3797
100
AcDbEntity
  8
1
  6
Continuous
100
AcDbLine
 10
478.550558
 20
421.8766429999998
 30
0.0
 11
478.5475929999998
 21
421.8775489999998
 31
0.0
  0
LINE
  5
3B89
330
3797
100
AcDbEntity
  8
1
  6
Continuous
100
AcDbLine
 10
478.550558
 20
421.8766429999998
 30
0.0
 11
478.5535219999998
 21
421.8775489999998
 31
0.0
  0
LINE
  5
3B8A
330
3797
100
AcDbEntity
  8
1
  6
Continuous
100
AcDbLine
 10
478.5535219999998
 20
421.8775489999998
 30
0.0
 11
479.904049
 21
423.1817369999998
 31
0.0
  0
LINE
  5
3B8B
330
3797
100
AcDbEntity
  8
1
  6
Continuous
100
AcDbLine
 10
477.1970669999998
 20
423.1817369999998
 30
0.0
 11
478.5475929999998
 21
421.8775489999998
 31
0.0
  0
LINE
  5
3B8C
330
3797
100
AcDbEntity
  8
1
  6
Continuous
100
AcDbLine
 10
479.904049
 20
417.603902
 30
0.0
 11
478.5535219999998
 21
418.90809
 31
0.0
  0
LINE
  5
3B8D
330
3797
100
AcDbEntity
  8
1
  6
Continuous
100
AcDbLine
 10
480.0343809999998
 20
420.39282
 30
0.0
 11
480.035287
 21
420.395784
 31
0.0
  0
LINE
  5
3B8E
330
3797
100
AcDbEntity
  8
1
  6
Continuous
100
AcDbLine
 10
480.0343809999998
 20
420.39282
 30
0.0
 11
480.035287
 21
420.3898549999998
 31
0.0
  0
LINE
  5
3B8F
330
3797
100
AcDbEntity
  8
1
  6
Continuous
100
AcDbLine
 10
478.550558
 20
418.908996
 30
0.0
 11
478.5535219999998
 21
418.90809
 31
0.0
  0
LINE
  5
3B90
330
3797
100
AcDbEntity
  8
1
  6
Continuous
100
AcDbLine
 10
478.550558
 20
418.908996
 30
0.0
 11
478.5475929999998
 21
418.90809
 31
0.0
  0
LINE
  5
3B91
330
3797
100
AcDbEntity
  8
1
  6
Continuous
100
AcDbLine
 10
477.0667349999998
 20
420.39282
 30
0.0
 11
477.065828
 21
420.3898549999998
 31
0.0
  0
LINE
  5
3B92
330
3797
100
AcDbEntity
  8
1
  6
Continuous
100
AcDbLine
 10
477.0667349999998
 20
420.39282
 30
0.0
 11
477.065828
 21
420.395784
 31
0.0
  0
LINE
  5
3B93
330
3797
100
AcDbEntity
  8
1
  6
Continuous
100
AcDbLine
 10
478.5475929999998
 20
418.90809
 30
0.0
 11
477.1970669999998
 21
417.603902
 31
0.0
  0
LINE
  5
3B94
330
3797
100
AcDbEntity
  8
1
  6
Continuous
100
AcDbLine
 10
473.550558
 20
417.50582
 30
0.0
 11
478.550558
 21
414.61882
 31
0.0
  0
ARC
  5
3B95
330
3797
100
AcDbEntity
  8
1
  6
Continuous
100
AcDbCircle
 10
478.550558
 20
420.39282
 30
0.0
 40
3.1
100
AcDbArc
 50
205.887785
 51
244.112215
  0
LINE
  5
3B96
330
3797
100
AcDbEntity
  8
1
  6
Continuous
100
AcDbLine
 10
477.065828
 20
420.3898549999998
 30
0.0
 11
475.76164
 21
419.039329
 31
0.0
  0
LINE
  5
3B97
330
3797
100
AcDbEntity
  8
1
  6
Continuous
100
AcDbLine
 10
473.550558
 20
417.50582
 30
0.0
 11
473.550558
 21
423.2798199999998
 31
0.0
  0
LINE
  5
3B98
330
3797
100
AcDbEntity
  8
1
  6
Continuous
100
AcDbLine
 10
475.76164
 20
421.7463109999997
 30
0.0
 11
477.065828
 21
420.395784
 31
0.0
  0
ARC
  5
3B99
330
3797
100
AcDbEntity
  8
1
  6
Continuous
100
AcDbCircle
 10
478.550558
 20
420.39282
 30
0.0
 40
5.75
100
AcDbArc
 50
330.408154
 51
29.591846
  0
LINE
  5
3B9A
330
3797
100
AcDbEntity
  8
1
  6
Continuous
100
AcDbLine
 10
483.550558
 20
417.50582
 30
0.0
 11
483.550558
 21
423.2798199999998
 31
0.0
  0
ARC
  5
3B9B
330
3797
100
AcDbEntity
  8
1
  6
Continuous
100
AcDbCircle
 10
478.550558
 20
420.39282
 30
0.0
 40
5.75
100
AcDbArc
 50
90.39947600000003
 51
149.5876079999999
  0
ARC
  5
3B9C
330
3797
100
AcDbEntity
  8
1
  6
Continuous
100
AcDbCircle
 10
478.550558
 20
420.39282
 30
0.0
 40
5.75
100
AcDbArc
 50
30.41239199999999
 51
89.60052399999998
  0
LINE
  5
3B9D
330
3797
100
AcDbEntity
  8
4
  6
CENTER
100
AcDbLine
 10
494.550558
 20
420.39282
 30
0.0
 11
462.550558
 21
420.39282
 31
0.0
  0
LINE
  5
3B9E
330
3797
100
AcDbEntity
  8
4
  6
CENTER
100
AcDbLine
 10
478.550558
 20
436.39282
 30
0.0
 11
478.550558
 21
404.3928199999998
 31
0.0
  0
ARC
  5
3B9F
330
3797
100
AcDbEntity
  8
1
  6
Continuous
100
AcDbCircle
 10
478.550558
 20
355.411724
 30
0.0
 40
10.0
100
AcDbArc
 50
60.0
 51
210.0
  0
CIRCLE
  5
3BA0
330
3797
100
AcDbEntity
  8
1
  6
Continuous
100
AcDbCircle
 10
478.550558
 20
355.411724
 30
0.0
 40
3.5
  0
CIRCLE
  5
3BA1
330
3797
100
AcDbEntity
  8
2
  6
Continuous
100
AcDbCircle
 10
478.550558
 20
355.411724
 30
0.0
 40
3.0
  0
CIRCLE
  5
3BA2
330
3797
100
AcDbEntity
  8
1
  6
Continuous
100
AcDbCircle
 10
478.550558
 20
355.411724
 30
0.0
 40
2.458499999999999
  0
LINE
  5
3BA3
330
3797
100
AcDbEntity
  8
1
  6
Continuous
100
AcDbLine
 10
471.762333
 20
355.1995919999998
 30
0.0
 11
478.338426
 21
348.6234989999999
 31
0.0
  0
LINE
  5
3BA4
330
3797
100
AcDbEntity
  8
1
  6
Continuous
100
AcDbLine
 10
485.3387829999999
 20
355.1995919999998
 30
0.0
 11
478.76269
 21
348.6234989999999
 31
0.0
  0
ARC
  5
3BA5
330
3797
100
AcDbEntity
  8
1
  6
Continuous
100
AcDbCircle
 10
478.550558
 20
348.8356309999999
 30
0.0
 40
0.3
100
AcDbArc
 50
225.0
 51
315.0
  0
LINE
  5
3BA6
330
3797
100
AcDbEntity
  8
1
  6
Continuous
100
AcDbLine
 10
478.76269
 20
362.199949
 30
0.0
 11
485.3387829999999
 21
355.623856
 31
0.0
  0
ARC
  5
3BA7
330
3797
100
AcDbEntity
  8
1
  6
Continuous
100
AcDbCircle
 10
478.550558
 20
355.411724
 30
0.0
 40
10.3
100
AcDbArc
 50
61.62179499999999
 51
118.378205
  0
LINE
  5
3BA8
330
3797
100
AcDbEntity
  8
1
  6
Continuous
100
AcDbLine
 10
478.338426
 20
362.199949
 30
0.0
 11
471.762333
 21
355.623856
 31
0.0
  0
ARC
  5
3BA9
330
3797
100
AcDbEntity
  8
1
  6
Continuous
100
AcDbCircle
 10
471.9744649999998
 20
355.411724
 30
0.0
 40
0.3
100
AcDbArc
 50
135.0
 51
225.0
  0
ARC
  5
3BAA
330
3797
100
AcDbEntity
  8
1
  6
Continuous
100
AcDbCircle
 10
478.550558
 20
361.987817
 30
0.0
 40
0.3
100
AcDbArc
 50
45.0
 51
135.0
  0
ARC
  5
3BAB
330
3797
100
AcDbEntity
  8
1
  6
Continuous
100
AcDbCircle
 10
473.5124879999998
 20
364.7379159999999
 30
0.0
 40
0.3
100
AcDbArc
 50
210.0
 51
298.3782049999998
  0
ARC
  5
3BAC
330
3797
100
AcDbEntity
  8
1
  6
Continuous
100
AcDbCircle
 10
485.126651
 20
355.411724
 30
0.0
 40
0.3
100
AcDbArc
 50
315.0
 51
45.0
  0
ARC
  5
3BAD
330
3797
100
AcDbEntity
  8
1
  6
Continuous
100
AcDbCircle
 10
483.5886269999998
 20
364.7379159999999
 30
0.0
 40
0.3
100
AcDbArc
 50
241.621795
 51
330.0
  0
LINE
  5
3BEA
330
3797
100
AcDbEntity
  8
1
  6
Continuous
100
AcDbLine
 10
304.74413
 20
344.4117240000001
 30
0.0
 11
304.74413
 21
366.4117239999998
 31
0.0
  0
LINE
  5
3C1B
330
3797
100
AcDbEntity
  8
1
  6
Continuous
100
AcDbLine
 10
304.74413
 20
478.9234490000001
 30
0.0
 11
304.74413
 21
500.9234489999998
 31
0.0
  0
LINE
  5
3C47
330
3797
100
AcDbEntity
  8
1
  6
Continuous
100
AcDbLine
 10
304.74413
 20
77.5
 30
0.0
 11
304.74413
 21
55.5
 31
0.0
  0
LINE
  5
3C73
330
3797
100
AcDbEntity
  8
1
  6
Continuous
100
AcDbLine
 10
652.3569859999997
 20
344.4117240000001
 30
0.0
 11
652.3569859999997
 21
366.4117239999998
 31
0.0
  0
ENDSEC
  0
SECTION
  2
OBJECTS
  0
DICTIONARY
  5
3785
330
0
100
AcDbDictionary
281
     1
  3
ACAD_CIP_PREVIOUS_PRODUCT_INFO
350
3D03
  3
ACAD_COLOR
350
3CE5
  3
ACAD_DETAILVIEWSTYLE
350
3CFE
  3
ACAD_GROUP
350
3786
  3
ACAD_LAYOUT
350
3792
  3
ACAD_MATERIAL
350
3CB3
  3
ACAD_MLEADERSTYLE
350
3CFA
  3
ACAD_MLINESTYLE
350
378F
  3
ACAD_PLOTSETTINGS
350
3791
  3
ACAD_PLOTSTYLENAME
350
3CB1
  3
ACAD_SCALELIST
350
3CE8
  3
ACAD_SECTIONVIEWSTYLE
350
3CFC
  3
ACAD_TABLESTYLE
350
3CE6
  3
ACAD_VISUALSTYLE
350
3CCC
  3
ACDB_RECOMPOSE_DATA
350
3D21
  3
AcDbVariableDictionary
350
3D14
  3
DWGPROPS
350
3D22
  0
DICTIONARY
  5
3D04
330
3789
100
AcDbDictionary
280
     1
281
     1
  3
ADSK_XREC_LAYER_RECONCILED
360
3D05
  0
DICTIONARY
  5
3D06
330
379F
100
AcDbDictionary
280
     1
281
     1
  3
ADSK_XREC_LAYER_RECONCILED
360
3D07
  0
DICTIONARY
  5
3D08
330
37A0
100
AcDbDictionary
280
     1
281
     1
  3
ADSK_XREC_LAYER_RECONCILED
360
3D09
  0
DICTIONARY
  5
3D0A
330
37A1
100
AcDbDictionary
280
     1
281
     1
  3
ADSK_XREC_LAYER_RECONCILED
360
3D0B
  0
DICTIONARY
  5
3D0C
330
37A2
100
AcDbDictionary
280
     1
281
     1
  3
ADSK_XREC_LAYER_RECONCILED
360
3D0D
  0
DICTIONARY
  5
3D0E
330
37A3
100
AcDbDictionary
280
     1
281
     1
  3
ADSK_XREC_LAYER_RECONCILED
360
3D0F
  0
DICTIONARY
  5
3D10
330
37A4
100
AcDbDictionary
280
     1
281
     1
  3
ADSK_XREC_LAYER_RECONCILED
360
3D11
  0
DICTIONARY
  5
3D12
330
37A5
100
AcDbDictionary
280
     1
281
     1
  3
ADSK_XREC_LAYER_RECONCILED
360
3D13
  0
DICTIONARY
  5
3BBC
330
3797
100
AcDbDictionary
281
     1
  3
ACAD_LAYOUTSELFREF
350
3CAD
  0
DICTIONARY
  5
3BBA
330
3793
100
AcDbDictionary
281
     1
  3
ACAD_LAYOUTSELFREF
350
3CAC
  0
XRECORD
  5
3D03
102
{ACAD_REACTORS
330
3785
102
}
330
3785
100
AcDbXrecord
280
     1
300
ACDLT
300
2014
300
ACDLT_F_S
  0
DICTIONARY
  5
3CE5
102
{ACAD_REACTORS
330
3785
102
}
330
3785
100
AcDbDictionary
281
     1
  0
DICTIONARY
  5
3CFE
102
{ACAD_REACTORS
330
3785
102
}
330
3785
100
AcDbDictionary
281
     1
  3
Imperial24
350
3CFF
  0
DICTIONARY
  5
3786
102
{ACAD_REACTORS
330
3785
102
}
330
3785
100
AcDbDictionary
281
     1
  0
DICTIONARY
  5
3792
102
{ACAD_REACTORS
330
3785
102
}
330
3785
100
AcDbDictionary
281
     1
  3
Model
350
3D00
  3
レイアウト1
350
3D01
  0
DICTIONARY
  5
3CB3
102
{ACAD_REACTORS
330
3785
102
}
330
3785
100
AcDbDictionary
281
     1
  3
ByBlock
350
3CBC
  3
ByLayer
350
3CB4
  3
Global
350
3CC4
  0
DICTIONARY
  5
3CFA
102
{ACAD_REACTORS
330
3785
102
}
330
3785
100
AcDbDictionary
281
     1
  3
Standard
350
3CFB
  0
DICTIONARY
  5
378F
102
{ACAD_REACTORS
330
3785
102
}
330
3785
100
AcDbDictionary
281
     1
  3
STANDARD
350
3790
  0
DICTIONARY
  5
3791
102
{ACAD_REACTORS
330
3785
102
}
330
3785
100
AcDbDictionary
281
     1
  0
ACDBDICTIONARYWDFLT
  5
3CB1
102
{ACAD_REACTORS
330
3785
102
}
330
3785
100
AcDbDictionary
281
     1
  3
Normal
350
3CB2
100
AcDbDictionaryWithDefault
340
3CB2
  0
DICTIONARY
  5
3CE8
102
{ACAD_REACTORS
330
3785
102
}
330
3785
100
AcDbDictionary
281
     1
  3
A0
350
3CE9
  3
A1
350
3CEA
  3
A2
350
3CEB
  3
A3
350
3CEC
  3
A4
350
3CED
  3
A5
350
3CEE
  3
A6
350
3CEF
  3
A7
350
3CF0
  3
A8
350
3CF1
  3
A9
350
3CF2
  3
B0
350
3CF3
  3
B1
350
3CF4
  3
B2
350
3CF5
  3
B3
350
3CF6
  3
B4
350
3CF7
  3
B5
350
3CF8
  3
B6
350
3CF9
  0
DICTIONARY
  5
3CFC
102
{ACAD_REACTORS
330
3785
102
}
330
3785
100
AcDbDictionary
281
     1
  3
Imperial24
350
3CFD
  0
DICTIONARY
  5
3CE6
102
{ACAD_REACTORS
330
3785
102
}
330
3785
100
AcDbDictionary
281
     1
  3
Standard
350
3CE7
  0
DICTIONARY
  5
3CCC
102
{ACAD_REACTORS
330
3785
102
}
330
3785
100
AcDbDictionary
281
     1
  3
2dWireframe
350
3CD2
  3
Basic
350
3CD1
  3
Brighten
350
3CD8
  3
ColorChange
350
3CDC
  3
Conceptual
350
3CD5
  3
Dim
350
3CD7
  3
EdgeColorOff
350
3CE4
  3
Facepattern
350
3CDB
  3
Flat
350
3CCD
  3
FlatWithEdges
350
3CCE
  3
Gouraud
350
3CCF
  3
GouraudWithEdges
350
3CD0
  3
Hidden
350
3CD4
  3
JitterOff
350
3CE2
  3
Linepattern
350
3CDA
  3
OverhangOff
350
3CE3
  3
Realistic
350
3CD6
  3
Shaded
350
3CE1
  3
Shaded with edges
350
3CE0
  3
Shades of Gray
350
3CDD
  3
Sketchy
350
3CDE
  3
Thicken
350
3CD9
  3
Wireframe
350
3CD3
  3
X-Ray
350
3CDF
  0
XRECORD
  5
3D21
102
{ACAD_REACTORS
330
3785
102
}
330
3785
100
AcDbXrecord
280
     1
 90
        1
330
3CE7
  0
DICTIONARY
  5
3D14
102
{ACAD_REACTORS
330
3785
102
}
330
3785
100
AcDbDictionary
281
     1
  3
CANNOSCALE
350
3D19
  3
CMLEADERSTYLE
350
3D16
  3
CTABLESTYLE
350
3D15
  3
CVIEWDETAILSTYLE
350
3D17
  3
CVIEWSECTIONSTYLE
350
3D18
  3
DIMASSOC
350
3D1C
  3
INDEXCTL
350
3D1B
  3
SORTENTS
350
3D1A
  3
XCLIPFRAME
350
3D1D
  0
XRECORD
  5
3D22
102
{ACAD_REACTORS
330
3785
102
}
330
3785
100
AcDbXrecord
280
     1
  1
DWGPROPS COOKIE
  2

  3

  4

  6

  7

  8
Yoshitsune
  9

300
=
301
=
302
=
303
=
304
=
305
=
306
=
307
=
308
=
309
=
 40
0.2131929513888889
 41
2451640.697390995
 42
2457192.642570116
  1

 90
        0
  0
XRECORD
  5
3D05
102
{ACAD_REACTORS
330
3D04
102
}
330
3D04
100
AcDbXrecord
280
     1
290
     1
  0
XRECORD
  5
3D07
102
{ACAD_REACTORS
330
3D06
102
}
330
3D06
100
AcDbXrecord
280
     1
290
     1
  0
XRECORD
  5
3D09
102
{ACAD_REACTORS
330
3D08
102
}
330
3D08
100
AcDbXrecord
280
     1
290
     1
  0
XRECORD
  5
3D0B
102
{ACAD_REACTORS
330
3D0A
102
}
330
3D0A
100
AcDbXrecord
280
     1
290
     1
  0
XRECORD
  5
3D0D
102
{ACAD_REACTORS
330
3D0C
102
}
330
3D0C
100
AcDbXrecord
280
     1
290
     1
  0
XRECORD
  5
3D0F
102
{ACAD_REACTORS
330
3D0E
102
}
330
3D0E
100
AcDbXrecord
280
     1
290
     1
  0
XRECORD
  5
3D11
102
{ACAD_REACTORS
330
3D10
102
}
330
3D10
100
AcDbXrecord
280
     1
290
     1
  0
XRECORD
  5
3D13
102
{ACAD_REACTORS
330
3D12
102
}
330
3D12
100
AcDbXrecord
280
     1
290
     1
  0
XRECORD
  5
3CAD
102
{ACAD_REACTORS
330
3BBC
102
}
330
3BBC
100
AcDbXrecord
280
     1
340
3797
  0
XRECORD
  5
3CAC
102
{ACAD_REACTORS
330
3BBA
102
}
330
3BBA
100
AcDbXrecord
280
     1
340
3793
  0
ACDBDETAILVIEWSTYLE
  5
3CFF
102
{ACAD_XDICTIONARY
360
3D5A
102
}
102
{ACAD_REACTORS
330
3CFE
102
}
330
3CFE
100
AcDbModelDocViewStyle
 70
     0
  3
Imperial24
290
     0
100
AcDbDetailViewStyle
 70
     0
 71
     0
 90
        3
 71
     1
340
378A
 40
0.24
340
0
 40
0.24
300

 40
0.36
280
     3
 71
     2
340
378E
 90
       25
 71
     3
340
378A
 40
0.24
 90
        1
 40
0.75
 90
        1
300
%<\AcVar ViewType \f "%tc1">% %<\AcVar ViewDetailId>%\PSCALE %<\AcVar ViewScale \f "%sn">%
 71
     4
340
378E
 90
       25
340
378E
 90
       25
280
     0
  0
LAYOUT
  5
3D00
102
{ACAD_XDICTIONARY
360
3D5C
102
}
102
{ACAD_REACTORS
330
3792
102
}
330
3792
100
AcDbPlotSettings
  1

  2
Canon LBP9100C
  4

  6

 40
0.0
 41
0.0
 42
0.0
 43
0.0
 44
0.0
 45
0.0
 46
0.0
 47
0.0
 48
0.0
 49
0.0
140
0.0
141
0.0
142
1.0
143
1.0
 70
  1712
 72
     0
 73
     0
 74
     0
  7

 75
     0
147
1.0
148
0.0
149
0.0
100
AcDbLayout
  1
Model
 70
     1
 71
     0
 10
0.0
 20
0.0
 11
12.0
 21
9.0
 12
0.0
 22
0.0
 32
0.0
 14
0.0
 24
0.0
 34
0.0
 15
0.0
 25
0.0
 35
0.0
146
0.0
 13
0.0
 23
0.0
 33
0.0
 16
1.0
 26
0.0
 36
0.0
 17
0.0
 27
1.0
 37
0.0
 76
     0
330
3797
331
3CAB
  0
LAYOUT
  5
3D01
102
{ACAD_XDICTIONARY
360
3D5E
102
}
102
{ACAD_REACTORS
330
3792
102
}
330
3792
100
AcDbPlotSettings
  1

  2
Canon LBP9100C
  4

  6

 40
0.0
 41
0.0
 42
0.0
 43
0.0
 44
0.0
 45
0.0
 46
0.0
 47
0.0
 48
0.0
 49
0.0
140
0.0
141
0.0
142
1.0
143
1.0
 70
   688
 72
     0
 73
     0
 74
     5
  7

 75
    16
147
1.0
148
0.0
149
0.0
100
AcDbLayout
  1
レイアウト1
 70
     1
 71
     1
 10
0.0
 20
0.0
 11
420.0
 21
297.0
 12
0.0
 22
0.0
 32
0.0
 14
1.000000000000000E+20
 24
1.000000000000000E+20
 34
1.000000000000000E+20
 15
-1.000000000000000E+20
 25
-1.000000000000000E+20
 35
-1.000000000000000E+20
146
0.0
 13
0.0
 23
0.0
 33
0.0
 16
1.0
 26
0.0
 36
0.0
 17
0.0
 27
1.0
 37
0.0
 76
     0
330
3793
  0
MATERIAL
  5
3CBC
102
{ACAD_XDICTIONARY
360
3CBD
102
}
102
{ACAD_REACTORS
330
3CB3
102
}
330
3CB3
100
AcDbMaterial
  1
ByBlock
 72
     0
 43
0.0208333333333333
 43
0.0
 43
0.0
 43
0.0
 43
0.0
 43
0.0208333333333333
 43
0.0
 43
0.0
 43
0.0
 43
0.0
 43
1.0
 43
0.0
 43
0.0
 43
0.0
 43
0.0
 43
1.0
 77
     0
 47
0.0208333333333333
 47
0.0
 47
0.0
 47
0.0
 47
0.0
 47
0.0208333333333333
 47
0.0
 47
0.0
 47
0.0
 47
0.0
 47
1.0
 47
0.0
 47
0.0
 47
0.0
 47
0.0
 47
1.0
171
     0
 49
0.0208333333333333
 49
0.0
 49
0.0
 49
0.0
 49
0.0
 49
0.0208333333333333
 49
0.0
 49
0.0
 49
0.0
 49
0.0
 49
1.0
 49
0.0
 49
0.0
 49
0.0
 49
0.0
 49
1.0
175
     0
142
0.0208333333333333
142
0.0
142
0.0
142
0.0
142
0.0
142
0.0208333333333333
142
0.0
142
0.0
142
0.0
142
0.0
142
1.0
142
0.0
142
0.0
142
0.0
142
0.0
142
1.0
179
     0
144
0.0208333333333333
144
0.0
144
0.0
144
0.0
144
0.0
144
0.0208333333333333
144
0.0
144
0.0
144
0.0
144
0.0
144
1.0
144
0.0
144
0.0
144
0.0
144
0.0
144
1.0
147
0.0208333333333333
147
0.0
147
0.0
147
0.0
147
0.0
147
0.0208333333333333
147
0.0
147
0.0
147
0.0
147
0.0
147
1.0
147
0.0
147
0.0
147
0.0
147
0.0
147
1.0
  0
MATERIAL
  5
3CB4
102
{ACAD_XDICTIONARY
360
3CB5
102
}
102
{ACAD_REACTORS
330
3CB3
102
}
330
3CB3
100
AcDbMaterial
  1
ByLayer
 72
     0
 43
0.0208333333333333
 43
0.0
 43
0.0
 43
0.0
 43
0.0
 43
0.0208333333333333
 43
0.0
 43
0.0
 43
0.0
 43
0.0
 43
1.0
 43
0.0
 43
0.0
 43
0.0
 43
0.0
 43
1.0
 77
     0
 47
0.0208333333333333
 47
0.0
 47
0.0
 47
0.0
 47
0.0
 47
0.0208333333333333
 47
0.0
 47
0.0
 47
0.0
 47
0.0
 47
1.0
 47
0.0
 47
0.0
 47
0.0
 47
0.0
 47
1.0
171
     0
 49
0.0208333333333333
 49
0.0
 49
0.0
 49
0.0
 49
0.0
 49
0.0208333333333333
 49
0.0
 49
0.0
 49
0.0
 49
0.0
 49
1.0
 49
0.0
 49
0.0
 49
0.0
 49
0.0
 49
1.0
175
     0
142
0.0208333333333333
142
0.0
142
0.0
142
0.0
142
0.0
142
0.0208333333333333
142
0.0
142
0.0
142
0.0
142
0.0
142
1.0
142
0.0
142
0.0
142
0.0
142
0.0
142
1.0
179
     0
144
0.0208333333333333
144
0.0
144
0.0
144
0.0
144
0.0
144
0.0208333333333333
144
0.0
144
0.0
144
0.0
144
0.0
144
1.0
144
0.0
144
0.0
144
0.0
144
0.0
144
1.0
147
0.0208333333333333
147
0.0
147
0.0
147
0.0
147
0.0
147
0.0208333333333333
147
0.0
147
0.0
147
0.0
147
0.0
147
1.0
147
0.0
147
0.0
147
0.0
147
0.0
147
1.0
  0
MATERIAL
  5
3CC4
102
{ACAD_XDICTIONARY
360
3CC5
102
}
102
{ACAD_REACTORS
330
3CB3
102
}
330
3CB3
100
AcDbMaterial
  1
Global
 72
     0
 43
0.0208333333333333
 43
0.0
 43
0.0
 43
0.0
 43
0.0
 43
0.0208333333333333
 43
0.0
 43
0.0
 43
0.0
 43
0.0
 43
1.0
 43
0.0
 43
0.0
 43
0.0
 43
0.0
 43
1.0
 77
     0
 47
0.0208333333333333
 47
0.0
 47
0.0
 47
0.0
 47
0.0
 47
0.0208333333333333
 47
0.0
 47
0.0
 47
0.0
 47
0.0
 47
1.0
 47
0.0
 47
0.0
 47
0.0
 47
0.0
 47
1.0
171
     0
 49
0.0208333333333333
 49
0.0
 49
0.0
 49
0.0
 49
0.0
 49
0.0208333333333333
 49
0.0
 49
0.0
 49
0.0
 49
0.0
 49
1.0
 49
0.0
 49
0.0
 49
0.0
 49
0.0
 49
1.0
175
     0
142
0.0208333333333333
142
0.0
142
0.0
142
0.0
142
0.0
142
0.0208333333333333
142
0.0
142
0.0
142
0.0
142
0.0
142
1.0
142
0.0
142
0.0
142
0.0
142
0.0
142
1.0
179
     0
144
0.0208333333333333
144
0.0
144
0.0
144
0.0
144
0.0
144
0.0208333333333333
144
0.0
144
0.0
144
0.0
144
0.0
144
1.0
144
0.0
144
0.0
144
0.0
144
0.0
144
1.0
147
0.0208333333333333
147
0.0
147
0.0
147
0.0
147
0.0
147
0.0208333333333333
147
0.0
147
0.0
147
0.0
147
0.0
147
1.0
147
0.0
147
0.0
147
0.0
147
0.0
147
1.0
  0
MLEADERSTYLE
  5
3CFB
102
{ACAD_REACTORS
330
3CFA
102
}
330
3CFA
100
AcDbMLeaderStyle
170
     2
171
     1
172
     0
 90
        2
 40
0.0
 41
0.0
173
     1
 91
-1056964608
340
378C
 92
       -2
290
     1
 42
0.09
291
     1
 43
0.36
  3
Standard
 44
0.18
300

342
378A
174
     1
178
     6
175
     1
176
     0
 93
-1056964608
 45
0.18
292
     0
297
     0
 46
0.18
 94
-1056964608
 47
1.0
 49
1.0
140
1.0
293
     1
141
0.0
294
     1
177
     0
142
1.0
295
     0
296
     0
143
0.125
1001
ACAD_MLEADERVER
1070
     2
  0
MLINESTYLE
  5
3790
102
{ACAD_REACTORS
330
378F
102
}
330
378F
100
AcDbMlineStyle
  2
STANDARD
 70
     0
  3

 62
   256
 51
90.0
 52
90.0
 71
     2
 49
0.5
 62
   256
  6
BYLAYER
 49
-0.5
 62
   256
  6
BYLAYER
  0
ACDBPLACEHOLDER
  5
3CB2
102
{ACAD_REACTORS
330
3CB1
102
}
330
3CB1
  0
SCALE
  5
3CE9
102
{ACAD_REACTORS
330
3CE8
102
}
330
3CE8
100
AcDbScale
 70
     0
300
1:1
140
1.0
141
1.0
290
     1
  0
SCALE
  5
3CEA
102
{ACAD_REACTORS
330
3CE8
102
}
330
3CE8
100
AcDbScale
 70
     0
300
1/128" = 1'-0"
140
0.0078125
141
12.0
290
     0
  0
SCALE
  5
3CEB
102
{ACAD_REACTORS
330
3CE8
102
}
330
3CE8
100
AcDbScale
 70
     0
300
1/64" = 1'-0"
140
0.015625
141
12.0
290
     0
  0
SCALE
  5
3CEC
102
{ACAD_REACTORS
330
3CE8
102
}
330
3CE8
100
AcDbScale
 70
     0
300
1/32" = 1'-0"
140
0.03125
141
12.0
290
     0
  0
SCALE
  5
3CED
102
{ACAD_REACTORS
330
3CE8
102
}
330
3CE8
100
AcDbScale
 70
     0
300
1/16" = 1'-0"
140
0.0625
141
12.0
290
     0
  0
SCALE
  5
3CEE
102
{ACAD_REACTORS
330
3CE8
102
}
330
3CE8
100
AcDbScale
 70
     0
300
3/32" = 1'-0"
140
0.09375
141
12.0
290
     0
  0
SCALE
  5
3CEF
102
{ACAD_REACTORS
330
3CE8
102
}
330
3CE8
100
AcDbScale
 70
     0
300
1/8" = 1'-0"
140
0.125
141
12.0
290
     0
  0
SCALE
  5
3CF0
102
{ACAD_REACTORS
330
3CE8
102
}
330
3CE8
100
AcDbScale
 70
     0
300
3/16" = 1'-0"
140
0.1875
141
12.0
290
     0
  0
SCALE
  5
3CF1
102
{ACAD_REACTORS
330
3CE8
102
}
330
3CE8
100
AcDbScale
 70
     0
300
1/4" = 1'-0"
140
0.25
141
12.0
290
     0
  0
SCALE
  5
3CF2
102
{ACAD_REACTORS
330
3CE8
102
}
330
3CE8
100
AcDbScale
 70
     0
300
3/8" = 1'-0"
140
0.375
141
12.0
290
     0
  0
SCALE
  5
3CF3
102
{ACAD_REACTORS
330
3CE8
102
}
330
3CE8
100
AcDbScale
 70
     0
300
1/2" = 1'-0"
140
0.5
141
12.0
290
     0
  0
SCALE
  5
3CF4
102
{ACAD_REACTORS
330
3CE8
102
}
330
3CE8
100
AcDbScale
 70
     0
300
3/4" = 1'-0"
140
0.75
141
12.0
290
     0
  0
SCALE
  5
3CF5
102
{ACAD_REACTORS
330
3CE8
102
}
330
3CE8
100
AcDbScale
 70
     0
300
1" = 1'-0"
140
1.0
141
12.0
290
     0
  0
SCALE
  5
3CF6
102
{ACAD_REACTORS
330
3CE8
102
}
330
3CE8
100
AcDbScale
 70
     0
300
1-1/2" = 1'-0"
140
1.5
141
12.0
290
     0
  0
SCALE
  5
3CF7
102
{ACAD_REACTORS
330
3CE8
102
}
330
3CE8
100
AcDbScale
 70
     0
300
3" = 1'-0"
140
3.0
141
12.0
290
     0
  0
SCALE
  5
3CF8
102
{ACAD_REACTORS
330
3CE8
102
}
330
3CE8
100
AcDbScale
 70
     0
300
6" = 1'-0"
140
6.0
141
12.0
290
     0
  0
SCALE
  5
3CF9
102
{ACAD_REACTORS
330
3CE8
102
}
330
3CE8
100
AcDbScale
 70
     0
300
1'-0" = 1'-0"
140
12.0
141
12.0
290
     0
  0
ACDBSECTIONVIEWSTYLE
  5
3CFD
102
{ACAD_XDICTIONARY
360
3D58
102
}
102
{ACAD_REACTORS
330
3CFC
102
}
330
3CFC
100
AcDbModelDocViewStyle
 70
     0
  3
Imperial24
290
     0
100
AcDbSectionViewStyle
 70
     0
 71
     0
 90
       78
 71
     1
340
378A
 40
0.24
340
0
340
0
 40
0.24
300
I, O, Q, S, X, Z
 40
0.48
 90
        3
 40
0.18
 90
        1
 71
     2
340
378E
 90
       25
340
378E
 90
       50
 40
0.24
 40
0.0
 40
0.24
 71
     3
340
378A
 40
0.24
 90
        1
 40
0.75
 90
        1
300
%<\AcVar ViewType \f "%tc1">% %<\AcVar ViewSectionStartId>%-%<\AcVar ViewSectionEndId>%\PSCALE %<\AcVar ViewScale \f "%sn">%
 71
     4
300
ANSI31
 40
1.0
 90
        0
290
     0
290
     0
 90
        6
 40
0.0
 40
1.570796326794896
 40
0.2617993877991494
 40
1.308996938995747
 40
-0.2617993877991494
 40
1.832595714594046
  0
TABLESTYLE
  5
3CE7
102
{ACAD_XDICTIONARY
360
3D1F
102
}
102
{ACAD_REACTORS
330
3CE6
102
}
330
3CE6
100
AcDbTableStyle
  3
Standard
 70
     0
 71
     0
 40
0.06
 41
0.06
280
     0
281
     0
  7
STANDARD
140
0.18
170
     2
 62
     0
 63
     7
283
     0
274
    -2
284
     1
 64
     0
275
    -2
285
     1
 65
     0
276
    -2
286
     1
 66
     0
277
    -2
287
     1
 67
     0
278
    -2
288
     1
 68
     0
279
    -2
289
     1
 69
     0
  7
STANDARD
140
0.25
170
     5
 62
     0
 63
     7
283
     0
274
    -2
284
     1
 64
     0
275
    -2
285
     1
 65
     0
276
    -2
286
     1
 66
     0
277
    -2
287
     1
 67
     0
278
    -2
288
     1
 68
     0
279
    -2
289
     1
 69
     0
  7
STANDARD
140
0.18
170
     5
 62
     0
 63
     7
283
     0
274
    -2
284
     1
 64
     0
275
    -2
285
     1
 65
     0
276
    -2
286
     1
 66
     0
277
    -2
287
     1
 67
     0
278
    -2
288
     1
 68
     0
279
    -2
289
     1
 69
     0
  0
VISUALSTYLE
  5
3CD2
102
{ACAD_XDICTIONARY
360
3D30
102
}
102
{ACAD_REACTORS
330
3CCC
102
}
330
3CCC
100
AcDbVisualStyle
  2
2dWireframe
 70
     4
 71
     0
 72
     2
 73
     0
 90
        0
 40
-0.6
 41
-30.0
 62
     5
 63
     7
 74
     1
 91
        4
 64
     7
 65
   257
 75
     1
175
     1
 42
1.0
 92
        0
 66
   257
 43
1.0
 76
     1
 77
     6
 78
     2
 67
     7
 79
     5
170
     0
171
     0
290
     0
174
     0
 93
        1
 44
0.0
173
     0
291
     0
 45
0.0
1001
ACAD
1000
AcDbSavedByObjectVersion
1070
     0
  0
VISUALSTYLE
  5
3CD1
102
{ACAD_XDICTIONARY
360
3D2E
102
}
102
{ACAD_REACTORS
330
3CCC
102
}
330
3CCC
100
AcDbVisualStyle
  2
Basic
 70
     7
 71
     1
 72
     0
 73
     1
 90
        0
 40
-0.6
 41
-30.0
 62
     5
 63
     7
 74
     0
 91
        4
 64
     7
 65
   257
 75
     1
175
     1
 42
1.0
 92
        8
 66
     7
 43
1.0
 76
     1
 77
     6
 78
     2
 67
     7
 79
     5
170
     0
171
     0
290
     0
174
     0
 93
        1
 44
0.0
173
     0
291
     1
 45
0.0
1001
ACAD
1000
AcDbSavedByObjectVersion
1070
     0
  0
VISUALSTYLE
  5
3CD8
102
{ACAD_XDICTIONARY
360
3D3C
102
}
102
{ACAD_REACTORS
330
3CCC
102
}
330
3CCC
100
AcDbVisualStyle
  2
Brighten
 70
    12
 71
     2
 72
     2
 73
     0
 90
        0
 40
-0.6
 41
-30.0
 62
     5
 63
     7
 74
     1
 91
        4
 64
     7
 65
   257
 75
     1
175
     1
 42
1.0
 92
        8
 66
     7
 43
1.0
 76
     1
 77
     6
 78
     2
 67
     7
 79
     5
170
     0
171
     0
290
     0
174
     0
 93
        1
 44
50.0
173
     0
291
     1
 45
0.0
1001
ACAD
1000
AcDbSavedByObjectVersion
1070
     0
  0
VISUALSTYLE
  5
3CDC
102
{ACAD_XDICTIONARY
360
3D44
102
}
102
{ACAD_REACTORS
330
3CCC
102
}
330
3CCC
100
AcDbVisualStyle
  2
ColorChange
 70
    16
 71
     2
 72
     2
 73
     3
 90
        0
 40
-0.6
 41
-30.0
 62
     5
 63
     8
 74
     1
 91
        4
 64
     7
 65
   257
 75
     1
175
     1
 42
1.0
 92
        8
 66
     8
 43
1.0
 76
     1
 77
     6
 78
     2
 67
     7
 79
     5
170
     0
171
     0
290
     0
174
     0
 93
        1
 44
0.0
173
     0
291
     1
 45
0.0
1001
ACAD
1000
AcDbSavedByObjectVersion
1070
     0
  0
VISUALSTYLE
  5
3CD5
102
{ACAD_XDICTIONARY
360
3D36
102
}
102
{ACAD_REACTORS
330
3CCC
102
}
330
3CCC
100
AcDbVisualStyle
  2
Conceptual
 70
     9
 71
     3
 72
     2
 73
     0
 90
        0
 40
-0.6
 41
-30.0
 62
     5
 63
     7
 74
     2
 91
        2
 64
     7
 65
   257
 75
     1
175
     1
 42
179.0
 92
        8
 66
     7
 43
1.0
 76
     1
 77
     6
 78
     2
 67
     7
 79
     3
170
     0
171
     0
290
     0
174
     0
 93
        1
 44
0.0
173
     0
291
     0
 45
0.0
1001
ACAD
1000
AcDbSavedByObjectVersion
1070
     0
  0
VISUALSTYLE
  5
3CD7
102
{ACAD_XDICTIONARY
360
3D3A
102
}
102
{ACAD_REACTORS
330
3CCC
102
}
330
3CCC
100
AcDbVisualStyle
  2
Dim
 70
    11
 71
     2
 72
     2
 73
     0
 90
        0
 40
-0.6
 41
-30.0
 62
     5
 63
     7
 74
     1
 91
        4
 64
     7
 65
   257
 75
     1
175
     1
 42
1.0
 92
        8
 66
     7
 43
1.0
 76
     1
 77
     6
 78
     2
 67
     7
 79
     5
170
     0
171
     0
290
     0
174
     0
 93
        1
 44
-50.0
173
     0
291
     1
 45
0.0
1001
ACAD
1000
AcDbSavedByObjectVersion
1070
     0
  0
VISUALSTYLE
  5
3CE4
102
{ACAD_XDICTIONARY
360
3D54
102
}
102
{ACAD_REACTORS
330
3CCC
102
}
330
3CCC
100
AcDbVisualStyle
  2
EdgeColorOff
 70
    22
 71
     2
 72
     2
 73
     0
 90
        0
 40
-0.6
 41
-30.0
 62
     5
 63
     7
 74
     1
 91
        4
 64
     7
 65
   257
 75
     1
175
     1
 42
1.0
 92
        8
 66
     7
 43
1.0
 76
     1
 77
     6
 78
     2
 67
     7
 79
     5
170
     0
171
     0
290
     0
174
     0
 93
        1
 44
0.0
173
     0
291
     1
 45
0.0
1001
ACAD
1000
AcDbSavedByObjectVersion
1070
     0
  0
VISUALSTYLE
  5
3CDB
102
{ACAD_XDICTIONARY
360
3D42
102
}
102
{ACAD_REACTORS
330
3CCC
102
}
330
3CCC
100
AcDbVisualStyle
  2
Facepattern
 70
    15
 71
     2
 72
     2
 73
     0
 90
        0
 40
-0.6
 41
-30.0
 62
     5
 63
     7
 74
     1
 91
        4
 64
     7
 65
   257
 75
     1
175
     1
 42
1.0
 92
        8
 66
     7
 43
1.0
 76
     1
 77
     6
 78
     2
 67
     7
 79
     5
170
     0
171
     0
290
     0
174
     0
 93
        1
 44
0.0
173
     0
291
     1
 45
0.0
1001
ACAD
1000
AcDbSavedByObjectVersion
1070
     0
  0
VISUALSTYLE
  5
3CCD
102
{ACAD_XDICTIONARY
360
3D26
102
}
102
{ACAD_REACTORS
330
3CCC
102
}
330
3CCC
100
AcDbVisualStyle
  2
Flat
 70
     0
 71
     2
 72
     1
 73
     1
 90
        2
 40
-0.6
 41
30.0
 62
     5
 63
     7
 74
     0
 91
        0
 64
     7
 65
   257
 75
     1
175
     1
 42
1.0
 92
        8
 66
     7
 43
1.0
 76
     1
 77
     6
 78
     2
 67
     7
 79
     5
170
     0
171
     0
290
     0
174
     0
 93
       13
 44
0.0
173
     0
291
     1
 45
0.0
1001
ACAD
1000
AcDbSavedByObjectVersion
1070
     0
  0
VISUALSTYLE
  5
3CCE
102
{ACAD_XDICTIONARY
360
3D28
102
}
102
{ACAD_REACTORS
330
3CCC
102
}
330
3CCC
100
AcDbVisualStyle
  2
FlatWithEdges
 70
     1
 71
     2
 72
     1
 73
     1
 90
        2
 40
-0.6
 41
30.0
 62
     5
 63
     7
 74
     1
 91
        0
 64
     7
 65
   257
 75
     1
175
     1
 42
1.0
 92
        0
 66
   257
 43
1.0
 76
     1
 77
     6
 78
     2
 67
     7
 79
     5
170
     0
171
     0
290
     0
174
     0
 93
       13
 44
0.0
173
     0
291
     1
 45
0.0
1001
ACAD
1000
AcDbSavedByObjectVersion
1070
     0
  0
VISUALSTYLE
  5
3CCF
102
{ACAD_XDICTIONARY
360
3D2A
102
}
102
{ACAD_REACTORS
330
3CCC
102
}
330
3CCC
100
AcDbVisualStyle
  2
Gouraud
 70
     2
 71
     2
 72
     2
 73
     1
 90
        2
 40
-0.6
 41
30.0
 62
     5
 63
     7
 74
     0
 91
        0
 64
     7
 65
   257
 75
     1
175
     1
 42
1.0
 92
        0
 66
     7
 43
1.0
 76
     1
 77
     6
 78
     2
 67
     7
 79
     5
170
     0
171
     0
290
     0
174
     0
 93
       13
 44
0.0
173
     0
291
     1
 45
0.0
1001
ACAD
1000
AcDbSavedByObjectVersion
1070
     0
  0
VISUALSTYLE
  5
3CD0
102
{ACAD_XDICTIONARY
360
3D2C
102
}
102
{ACAD_REACTORS
330
3CCC
102
}
330
3CCC
100
AcDbVisualStyle
  2
GouraudWithEdges
 70
     3
 71
     2
 72
     2
 73
     1
 90
        2
 40
-0.6
 41
30.0
 62
     5
 63
     7
 74
     1
 91
        0
 64
     7
 65
   257
 75
     1
175
     1
 42
1.0
 92
        0
 66
   257
 43
1.0
 76
     1
 77
     6
 78
     2
 67
     7
 79
     5
170
     0
171
     0
290
     0
174
     0
 93
       13
 44
0.0
173
     0
291
     1
 45
0.0
1001
ACAD
1000
AcDbSavedByObjectVersion
1070
     0
  0
VISUALSTYLE
  5
3CD4
102
{ACAD_XDICTIONARY
360
3D34
102
}
102
{ACAD_REACTORS
330
3CCC
102
}
330
3CCC
100
AcDbVisualStyle
  2
Hidden
 70
     6
 71
     1
 72
     2
 73
     2
 90
        0
 40
-0.6
 41
-30.0
 62
     5
 63
     7
 74
     2
 91
        2
 64
     7
 65
   257
 75
     2
175
     1
 42
40.0
 92
        0
 66
   257
 43
1.0
 76
     1
 77
     6
 78
     2
 67
     7
 79
     3
170
     0
171
     0
290
     0
174
     0
 93
        1
 44
0.0
173
     0
291
     0
 45
0.0
1001
ACAD
1000
AcDbSavedByObjectVersion
1070
     0
  0
VISUALSTYLE
  5
3CE2
102
{ACAD_XDICTIONARY
360
3D50
102
}
102
{ACAD_REACTORS
330
3CCC
102
}
330
3CCC
100
AcDbVisualStyle
  2
JitterOff
 70
    20
 71
     2
 72
     2
 73
     0
 90
        0
 40
-0.6
 41
-30.0
 62
     5
 63
     7
 74
     1
 91
        4
 64
     7
 65
   257
 75
     1
175
     1
 42
1.0
 92
       10
 66
     7
 43
1.0
 76
     1
 77
     6
 78
     2
 67
     7
 79
     5
170
     0
171
     0
290
     0
174
     0
 93
        1
 44
0.0
173
     0
291
     1
 45
0.0
1001
ACAD
1000
AcDbSavedByObjectVersion
1070
     0
  0
VISUALSTYLE
  5
3CDA
102
{ACAD_XDICTIONARY
360
3D40
102
}
102
{ACAD_REACTORS
330
3CCC
102
}
330
3CCC
100
AcDbVisualStyle
  2
Linepattern
 70
    14
 71
     2
 72
     2
 73
     0
 90
        0
 40
-0.6
 41
-30.0
 62
     5
 63
     7
 74
     1
 91
        4
 64
     7
 65
   257
 75
     7
175
     7
 42
1.0
 92
        8
 66
     7
 43
1.0
 76
     1
 77
     6
 78
     2
 67
     7
 79
     5
170
     0
171
     0
290
     0
174
     0
 93
        1
 44
0.0
173
     0
291
     1
 45
0.0
1001
ACAD
1000
AcDbSavedByObjectVersion
1070
     0
  0
VISUALSTYLE
  5
3CE3
102
{ACAD_XDICTIONARY
360
3D52
102
}
102
{ACAD_REACTORS
330
3CCC
102
}
330
3CCC
100
AcDbVisualStyle
  2
OverhangOff
 70
    21
 71
     2
 72
     2
 73
     0
 90
        0
 40
-0.6
 41
-30.0
 62
     5
 63
     7
 74
     1
 91
        4
 64
     7
 65
   257
 75
     1
175
     1
 42
1.0
 92
        9
 66
     7
 43
1.0
 76
     1
 77
     6
 78
     2
 67
     7
 79
     5
170
     0
171
     0
290
     0
174
     0
 93
        1
 44
0.0
173
     0
291
     1
 45
0.0
1001
ACAD
1000
AcDbSavedByObjectVersion
1070
     0
  0
VISUALSTYLE
  5
3CD6
102
{ACAD_XDICTIONARY
360
3D38
102
}
102
{ACAD_REACTORS
330
3CCC
102
}
330
3CCC
100
AcDbVisualStyle
  2
Realistic
 70
     8
 71
     2
 72
     3
 73
     0
 90
        2
 40
-0.6
 41
30.0
 62
     5
 63
     7
 74
     0
 91
        0
 64
     7
 65
   257
 75
     1
175
     1
 42
1.0
 92
        8
 66
   257
 43
1.0
 76
     1
 77
     6
 78
     2
 67
     7
 79
     3
170
     0
171
     0
290
     0
174
     0
 93
       13
 44
0.0
173
     0
291
     0
 45
0.0
1001
ACAD
1000
AcDbSavedByObjectVersion
1070
     0
  0
VISUALSTYLE
  5
3CE1
102
{ACAD_XDICTIONARY
360
3D4E
102
}
102
{ACAD_REACTORS
330
3CCC
102
}
330
3CCC
100
AcDbVisualStyle
  2
Shaded
 70
    27
 71
     2
 72
     2
 73
     1
 90
        2
 40
-0.6
 41
30.0
 62
     5
 63
     7
 74
     0
 91
        4
 64
     7
 65
   257
 75
     1
175
     1
 42
1.0
 92
        8
 66
   257
 43
1.0
 76
     1
 77
     6
 78
     2
 67
     8
 79
     3
170
     0
171
     0
290
     0
174
     0
 93
        5
 44
0.0
173
     0
291
     0
 45
0.0
1001
ACAD
1000
AcDbSavedByObjectVersion
1070
     0
  0
VISUALSTYLE
  5
3CE0
102
{ACAD_XDICTIONARY
360
3D4C
102
}
102
{ACAD_REACTORS
330
3CCC
102
}
330
3CCC
100
AcDbVisualStyle
  2
Shaded with edges
 70
    26
 71
     2
 72
     2
 73
     1
 90
        2
 40
-0.6
 41
30.0
 62
     5
 63
     7
 74
     1
 91
       10
 64
     7
 65
   257
 75
     2
175
     1
 42
1.0
 92
        8
 66
   257
 43
1.0
 76
     1
 77
     6
 78
     2
 67
     7
 79
     3
170
     0
171
     0
290
     0
174
     0
 93
        5
 44
0.0
173
     0
291
     0
 45
0.0
1001
ACAD
1000
AcDbSavedByObjectVersion
1070
     0
  0
VISUALSTYLE
  5
3CDD
102
{ACAD_XDICTIONARY
360
3D46
102
}
102
{ACAD_REACTORS
330
3CCC
102
}
330
3CCC
100
AcDbVisualStyle
  2
Shades of Gray
 70
    23
 71
     2
 72
     2
 73
     3
 90
        0
 40
-0.6
 41
-30.0
 62
     5
 63
     7
 74
     2
 91
        2
 64
     7
 65
     7
 75
     1
175
     1
 42
40.0
 92
        8
 66
     7
 43
1.0
 76
     1
 77
     6
 78
     2
 67
     7
 79
     3
170
     0
171
     0
290
     0
174
     0
 93
        1
 44
0.0
173
     0
291
     0
 45
0.0
1001
ACAD
1000
AcDbSavedByObjectVersion
1070
     0
  0
VISUALSTYLE
  5
3CDE
102
{ACAD_XDICTIONARY
360
3D48
102
}
102
{ACAD_REACTORS
330
3CCC
102
}
330
3CCC
100
AcDbVisualStyle
  2
Sketchy
 70
    24
 71
     1
 72
     2
 73
     2
 90
        0
 40
-0.6
 41
-30.0
 62
     5
 63
     7
 74
     2
 91
        2
 64
     7
 65
     7
 75
     1
175
     1
 42
40.0
 92
       11
 66
     7
 43
1.0
 76
     1
 77
     6
 78
     2
 67
     7
 79
     6
170
     0
171
     0
290
     0
174
     0
 93
        1
 44
0.0
173
     0
291
     0
 45
0.0
1001
ACAD
1000
AcDbSavedByObjectVersion
1070
     0
  0
VISUALSTYLE
  5
3CD9
102
{ACAD_XDICTIONARY
360
3D3E
102
}
102
{ACAD_REACTORS
330
3CCC
102
}
330
3CCC
100
AcDbVisualStyle
  2
Thicken
 70
    13
 71
     2
 72
     2
 73
     0
 90
        0
 40
-0.6
 41
-30.0
 62
     5
 63
     7
 74
     1
 91
        4
 64
     7
 65
   257
 75
     1
175
     1
 42
1.0
 92
       12
 66
     7
 43
1.0
 76
     1
 77
     6
 78
     2
 67
     7
 79
     5
170
     0
171
     0
290
     0
174
     0
 93
        1
 44
0.0
173
     0
291
     1
 45
0.0
1001
ACAD
1000
AcDbSavedByObjectVersion
1070
     0
  0
VISUALSTYLE
  5
3CD3
102
{ACAD_XDICTIONARY
360
3D32
102
}
102
{ACAD_REACTORS
330
3CCC
102
}
330
3CCC
100
AcDbVisualStyle
  2
Wireframe
 70
     5
 71
     0
 72
     2
 73
     0
 90
        0
 40
-0.6
 41
-30.0
 62
     5
 63
     7
 74
     1
 91
        4
 64
     7
 65
   257
 75
     1
175
     1
 42
1.0
 92
        0
 66
   257
 43
1.0
 76
     1
 77
     6
 78
     2
 67
     7
 79
     3
170
     0
171
     0
290
     0
174
     0
 93
        1
 44
0.0
173
     0
291
     0
 45
0.0
1001
ACAD
1000
AcDbSavedByObjectVersion
1070
     0
  0
VISUALSTYLE
  5
3CDF
102
{ACAD_XDICTIONARY
360
3D4A
102
}
102
{ACAD_REACTORS
330
3CCC
102
}
330
3CCC
100
AcDbVisualStyle
  2
X-Ray
 70
    25
 71
     2
 72
     2
 73
     1
 90
        1
 40
0.5
 41
-30.0
 62
     5
 63
     7
 74
     1
 91
        0
 64
     7
 65
   257
 75
     1
175
     1
 42
1.0
 92
        8
 66
     7
 43
1.0
 76
     1
 77
     6
 78
     2
 67
     7
 79
     3
170
     0
171
     0
290
     0
174
     0
 93
       13
 44
0.0
173
     0
291
     0
 45
0.0
1001
ACAD
1000
AcDbSavedByObjectVersion
1070
     0
  0
DICTIONARYVAR
  5
3D19
102
{ACAD_REACTORS
330
3D14
102
}
330
3D14
100
DictionaryVariables
280
     0
  1
1:1
  0
DICTIONARYVAR
  5
3D16
102
{ACAD_REACTORS
330
3D14
102
}
330
3D14
100
DictionaryVariables
280
     0
  1
STANDARD
  0
DICTIONARYVAR
  5
3D15
102
{ACAD_REACTORS
330
3D14
102
}
330
3D14
100
DictionaryVariables
280
     0
  1
STANDARD
  0
DICTIONARYVAR
  5
3D17
102
{ACAD_REACTORS
330
3D14
102
}
330
3D14
100
DictionaryVariables
280
     0
  1
Imperial24
  0
DICTIONARYVAR
  5
3D18
102
{ACAD_REACTORS
330
3D14
102
}
330
3D14
100
DictionaryVariables
280
     0
  1
Imperial24
  0
DICTIONARYVAR
  5
3D1C
102
{ACAD_REACTORS
330
3D14
102
}
330
3D14
100
DictionaryVariables
280
     0
  1
1
  0
DICTIONARYVAR
  5
3D1B
102
{ACAD_REACTORS
330
3D14
102
}
330
3D14
100
DictionaryVariables
280
     0
  1
0
  0
DICTIONARYVAR
  5
3D1A
102
{ACAD_REACTORS
330
3D14
102
}
330
3D14
100
DictionaryVariables
280
     0
  1
127
  0
DICTIONARYVAR
  5
3D1D
102
{ACAD_REACTORS
330
3D14
102
}
330
3D14
100
DictionaryVariables
280
     0
  1
2
  0
DICTIONARY
  5
3D5A
330
3CFF
100
AcDbDictionary
280
     1
281
     1
  3
ACAD_XREC_ROUNDTRIP
360
3D5B
  0
DICTIONARY
  5
3D5C
330
3D00
100
AcDbDictionary
280
     1
281
     1
  3
ACAD_XREC_ROUNDTRIP
360
3D5D
  0
DICTIONARY
  5
3D5E
330
3D01
100
AcDbDictionary
280
     1
281
     1
  3
ACAD_XREC_ROUNDTRIP
360
3D5F
  0
DICTIONARY
  5
3CBD
330
3CBC
100
AcDbDictionary
280
     1
281
     1
  3
ACAD_XREC_ROUNDTRIP
360
3D24
  3
BUMPTILE
360
3CBF
  3
DIFFUSETILE
360
3CBE
  3
OPACITYTILE
360
3CC2
  3
REFLECTIONTILE
360
3CC1
  3
REFRACTIONTILE
360
3CC3
  3
SPECULARTILE
360
3CC0
  0
DICTIONARY
  5
3CB5
330
3CB4
100
AcDbDictionary
280
     1
281
     1
  3
ACAD_XREC_ROUNDTRIP
360
3D23
  3
BUMPTILE
360
3CB7
  3
DIFFUSETILE
360
3CB6
  3
OPACITYTILE
360
3CBA
  3
REFLECTIONTILE
360
3CB9
  3
REFRACTIONTILE
360
3CBB
  3
SPECULARTILE
360
3CB8
  0
DICTIONARY
  5
3CC5
330
3CC4
100
AcDbDictionary
280
     1
281
     1
  3
ACAD_XREC_ROUNDTRIP
360
3D25
  3
BUMPTILE
360
3CC7
  3
DIFFUSETILE
360
3CC6
  3
OPACITYTILE
360
3CCA
  3
REFLECTIONTILE
360
3CC9
  3
REFRACTIONTILE
360
3CCB
  3
SPECULARTILE
360
3CC8
  0
DICTIONARY
  5
3D58
330
3CFD
100
AcDbDictionary
280
     1
281
     1
  3
ACAD_XREC_ROUNDTRIP
360
3D59
  0
DICTIONARY
  5
3D1F
330
3CE7
100
AcDbDictionary
280
     1
281
     1
  3
ACAD_ROUNDTRIP_2008_TABLESTYLE_CELLSTYLEMAP
360
3D20
  3
ACAD_XREC_ROUNDTRIP
360
3D56
  0
DICTIONARY
  5
3D30
330
3CD2
100
AcDbDictionary
280
     1
281
     1
  3
ACAD_XREC_ROUNDTRIP
360
3D31
  0
DICTIONARY
  5
3D2E
330
3CD1
100
AcDbDictionary
280
     1
281
     1
  3
ACAD_XREC_ROUNDTRIP
360
3D2F
  0
DICTIONARY
  5
3D3C
330
3CD8
100
AcDbDictionary
280
     1
281
     1
  3
ACAD_XREC_ROUNDTRIP
360
3D3D
  0
DICTIONARY
  5
3D44
330
3CDC
100
AcDbDictionary
280
     1
281
     1
  3
ACAD_XREC_ROUNDTRIP
360
3D45
  0
DICTIONARY
  5
3D36
330
3CD5
100
AcDbDictionary
280
     1
281
     1
  3
ACAD_XREC_ROUNDTRIP
360
3D37
  0
DICTIONARY
  5
3D3A
330
3CD7
100
AcDbDictionary
280
     1
281
     1
  3
ACAD_XREC_ROUNDTRIP
360
3D3B
  0
DICTIONARY
  5
3D54
330
3CE4
100
AcDbDictionary
280
     1
281
     1
  3
ACAD_XREC_ROUNDTRIP
360
3D55
  0
DICTIONARY
  5
3D42
330
3CDB
100
AcDbDictionary
280
     1
281
     1
  3
ACAD_XREC_ROUNDTRIP
360
3D43
  0
DICTIONARY
  5
3D26
330
3CCD
100
AcDbDictionary
280
     1
281
     1
  3
ACAD_XREC_ROUNDTRIP
360
3D27
  0
DICTIONARY
  5
3D28
330
3CCE
100
AcDbDictionary
280
     1
281
     1
  3
ACAD_XREC_ROUNDTRIP
360
3D29
  0
DICTIONARY
  5
3D2A
330
3CCF
100
AcDbDictionary
280
     1
281
     1
  3
ACAD_XREC_ROUNDTRIP
360
3D2B
  0
DICTIONARY
  5
3D2C
330
3CD0
100
AcDbDictionary
280
     1
281
     1
  3
ACAD_XREC_ROUNDTRIP
360
3D2D
  0
DICTIONARY
  5
3D34
330
3CD4
100
AcDbDictionary
280
     1
281
     1
  3
ACAD_XREC_ROUNDTRIP
360
3D35
  0
DICTIONARY
  5
3D50
330
3CE2
100
AcDbDictionary
280
     1
281
     1
  3
ACAD_XREC_ROUNDTRIP
360
3D51
  0
DICTIONARY
  5
3D40
330
3CDA
100
AcDbDictionary
280
     1
281
     1
  3
ACAD_XREC_ROUNDTRIP
360
3D41
  0
DICTIONARY
  5
3D52
330
3CE3
100
AcDbDictionary
280
     1
281
     1
  3
ACAD_XREC_ROUNDTRIP
360
3D53
  0
DICTIONARY
  5
3D38
330
3CD6
100
AcDbDictionary
280
     1
281
     1
  3
ACAD_XREC_ROUNDTRIP
360
3D39
  0
DICTIONARY
  5
3D4E
330
3CE1
100
AcDbDictionary
280
     1
281
     1
  3
ACAD_XREC_ROUNDTRIP
360
3D4F
  0
DICTIONARY
  5
3D4C
330
3CE0
100
AcDbDictionary
280
     1
281
     1
  3
ACAD_XREC_ROUNDTRIP
360
3D4D
  0
DICTIONARY
  5
3D46
330
3CDD
100
AcDbDictionary
280
     1
281
     1
  3
ACAD_XREC_ROUNDTRIP
360
3D47
  0
DICTIONARY
  5
3D48
330
3CDE
100
AcDbDictionary
280
     1
281
     1
  3
ACAD_XREC_ROUNDTRIP
360
3D49
  0
DICTIONARY
  5
3D3E
330
3CD9
100
AcDbDictionary
280
     1
281
     1
  3
ACAD_XREC_ROUNDTRIP
360
3D3F
  0
DICTIONARY
  5
3D32
330
3CD3
100
AcDbDictionary
280
     1
281
     1
  3
ACAD_XREC_ROUNDTRIP
360
3D33
  0
DICTIONARY
  5
3D4A
330
3CDF
100
AcDbDictionary
280
     1
281
     1
  3
ACAD_XREC_ROUNDTRIP
360
3D4B
  0
XRECORD
  5
3D5B
102
{ACAD_REACTORS
330
3D5A
102
}
330
3D5A
100
AcDbXrecord
280
     1
102
DISPLAYNAME
  1
Imperial24
102
FLAGS
 90
        0
  0
XRECORD
  5
3D5D
102
{ACAD_REACTORS
330
3D5C
102
}
330
3D5C
100
AcDbXrecord
280
     1
102
SHADEPLOT
 70
     0
102
SHADEPLOTRESLEVEL
 70
     2
102
SHADEPLOTCUSTOMDPI
 70
   300
  0
XRECORD
  5
3D5F
102
{ACAD_REACTORS
330
3D5E
102
}
330
3D5E
100
AcDbXrecord
280
     1
102
SHADEPLOT
 70
     0
102
SHADEPLOTRESLEVEL
 70
     2
102
SHADEPLOTCUSTOMDPI
 70
   300
  0
XRECORD
  5
3D24
102
{ACAD_REACTORS
330
3CBD
102
}
330
3CBD
100
AcDbXrecord
280
     1
102
MATERIAL
148
0.0
149
0.0
149
0.0
 93
        0
 94
      127
282
     0
 72
     0
 77
     0
171
     0
175
     0
179
     0
273
     0
  0
XRECORD
  5
3CBF
102
{ACAD_REACTORS
330
3CBD
102
}
330
3CBD
100
AcDbXrecord
280
     1
270
     1
271
     1
  0
XRECORD
  5
3CBE
102
{ACAD_REACTORS
330
3CBD
102
}
330
3CBD
100
AcDbXrecord
280
     1
270
     1
271
     1
  0
XRECORD
  5
3CC2
102
{ACAD_REACTORS
330
3CBD
102
}
330
3CBD
100
AcDbXrecord
280
     1
270
     1
271
     1
  0
XRECORD
  5
3CC1
102
{ACAD_REACTORS
330
3CBD
102
}
330
3CBD
100
AcDbXrecord
280
     1
270
     1
271
     1
  0
XRECORD
  5
3CC3
102
{ACAD_REACTORS
330
3CBD
102
}
330
3CBD
100
AcDbXrecord
280
     1
270
     1
271
     1
  0
XRECORD
  5
3CC0
102
{ACAD_REACTORS
330
3CBD
102
}
330
3CBD
100
AcDbXrecord
280
     1
270
     1
271
     1
  0
XRECORD
  5
3D23
102
{ACAD_REACTORS
330
3CB5
102
}
330
3CB5
100
AcDbXrecord
280
     1
102
MATERIAL
148
0.0
149
0.0
149
0.0
 93
        0
 94
      127
282
     0
 72
     0
 77
     0
171
     0
175
     0
179
     0
273
     0
  0
XRECORD
  5
3CB7
102
{ACAD_REACTORS
330
3CB5
102
}
330
3CB5
100
AcDbXrecord
280
     1
270
     1
271
     1
  0
XRECORD
  5
3CB6
102
{ACAD_REACTORS
330
3CB5
102
}
330
3CB5
100
AcDbXrecord
280
     1
270
     1
271
     1
  0
XRECORD
  5
3CBA
102
{ACAD_REACTORS
330
3CB5
102
}
330
3CB5
100
AcDbXrecord
280
     1
270
     1
271
     1
  0
XRECORD
  5
3CB9
102
{ACAD_REACTORS
330
3CB5
102
}
330
3CB5
100
AcDbXrecord
280
     1
270
     1
271
     1
  0
XRECORD
  5
3CBB
102
{ACAD_REACTORS
330
3CB5
102
}
330
3CB5
100
AcDbXrecord
280
     1
270
     1
271
     1
  0
XRECORD
  5
3CB8
102
{ACAD_REACTORS
330
3CB5
102
}
330
3CB5
100
AcDbXrecord
280
     1
270
     1
271
     1
  0
XRECORD
  5
3D25
102
{ACAD_REACTORS
330
3CC5
102
}
330
3CC5
100
AcDbXrecord
280
     1
102
MATERIAL
148
0.0
149
0.0
149
0.0
 93
        0
 94
      127
282
     0
 72
     0
 77
     0
171
     0
175
     0
179
     0
273
     0
  0
XRECORD
  5
3CC7
102
{ACAD_REACTORS
330
3CC5
102
}
330
3CC5
100
AcDbXrecord
280
     1
270
     1
271
     1
  0
XRECORD
  5
3CC6
102
{ACAD_REACTORS
330
3CC5
102
}
330
3CC5
100
AcDbXrecord
280
     1
270
     1
271
     1
  0
XRECORD
  5
3CCA
102
{ACAD_REACTORS
330
3CC5
102
}
330
3CC5
100
AcDbXrecord
280
     1
270
     1
271
     1
  0
XRECORD
  5
3CC9
102
{ACAD_REACTORS
330
3CC5
102
}
330
3CC5
100
AcDbXrecord
280
     1
270
     1
271
     1
  0
XRECORD
  5
3CCB
102
{ACAD_REACTORS
330
3CC5
102
}
330
3CC5
100
AcDbXrecord
280
     1
270
     1
271
     1
  0
XRECORD
  5
3CC8
102
{ACAD_REACTORS
330
3CC5
102
}
330
3CC5
100
AcDbXrecord
280
     1
270
     1
271
     1
  0
XRECORD
  5
3D59
102
{ACAD_REACTORS
330
3D58
102
}
330
3D58
100
AcDbXrecord
280
     1
102
DISPLAYNAME
  1
Imperial24
102
FLAGS
 90
        0
  0
CELLSTYLEMAP
  5
3D20
102
{ACAD_REACTORS
330
3D1F
102
}
330
3D1F
100
AcDbCellStyleMap
 90
        3
300
CELLSTYLE
  1
TABLEFORMAT_BEGIN
 90
        5
170
     1
 91
        0
 92
    32768
 62
   257
 93
        1
300
CONTENTFORMAT
  1
CONTENTFORMAT_BEGIN
 90
        0
 91
        0
 92
      512
 93
        0
300

 40
0.0
140
1.0
 94
        5
 62
     0
340
378A
144
0.25
309
CONTENTFORMAT_END
171
     0
 94
        0
309
TABLEFORMAT_END
  1
CELLSTYLE_BEGIN
 90
        1
 91
        1
300
_TITLE
309
CELLSTYLE_END
300
CELLSTYLE
  1
TABLEFORMAT_BEGIN
 90
        5
170
     1
 91
        0
 92
        0
 62
   257
 93
        1
300
CONTENTFORMAT
  1
CONTENTFORMAT_BEGIN
 90
        0
 91
        0
 92
      512
 93
        0
300

 40
0.0
140
1.0
 94
        5
 62
     0
340
378A
144
0.18
309
CONTENTFORMAT_END
171
     0
 94
        0
309
TABLEFORMAT_END
  1
CELLSTYLE_BEGIN
 90
        2
 91
        1
300
_HEADER
309
CELLSTYLE_END
300
CELLSTYLE
  1
TABLEFORMAT_BEGIN
 90
        5
170
     1
 91
        0
 92
        0
 62
   257
 93
        1
300
CONTENTFORMAT
  1
CONTENTFORMAT_BEGIN
 90
        0
 91
        0
 92
      512
 93
        0
300

 40
0.0
140
1.0
 94
        2
 62
     0
340
378A
144
0.18
309
CONTENTFORMAT_END
171
     0
 94
        0
309
TABLEFORMAT_END
  1
CELLSTYLE_BEGIN
 90
        3
 91
        2
300
_DATA
309
CELLSTYLE_END
  0
XRECORD
  5
3D56
102
{ACAD_REACTORS
330
3D1F
102
}
330
3D1F
100
AcDbXrecord
280
     1
102
ACAD_ROUNDTRIP_PRE2007_TABLESTYLE
 90
      512
 91
        0
  1

 92
      512
 93
        0
  2

 94
      512
 95
        0
  3

  0
XRECORD
  5
3D31
102
{ACAD_REACTORS
330
3D30
102
}
330
3D30
100
AcDbXrecord
280
     1
102
RTVSPost2010Prop28
280
     1
102
RTVSPost2010PropOp28
 70
     1
102
RTVSPost2010Prop29
280
     1
102
RTVSPost2010PropOp29
 70
     1
102
RTVSPost2010Prop30
280
     0
102
RTVSPost2010PropOp30
 70
     1
102
RTVSPost2010Prop31
280
     0
102
RTVSPost2010PropOp31
 70
     1
102
RTVSPost2010Prop32
280
     0
102
RTVSPost2010PropOp32
 70
     1
102
RTVSPost2010Prop33
280
     0
102
RTVSPost2010PropOp33
 70
     1
102
RTVSPost2010Prop34
280
     0
102
RTVSPost2010PropOp34
 70
     1
102
RTVSPost2010Prop35
280
     0
102
RTVSPost2010PropOp35
 70
     1
102
RTVSPost2010Prop36
280
     0
102
RTVSPost2010PropOp36
 70
     1
102
RTVSPost2010Prop37
 90
       50
102
RTVSPost2010PropOp37
 70
     1
102
RTVSPost2010Prop38
140
0.0
102
RTVSPost2010PropOp38
 70
     1
102
RTVSPost2010Prop39
140
1.0
102
RTVSPost2010PropOp39
 70
     1
102
RTVSPost2010Prop40
 90
        0
102
RTVSPost2010PropOp40
 70
     1
102
RTVSPost2010Prop41ColorIndex
 90
       18
102
RTVSPost2010Prop41ColorRGB
 90
        0
102
RTVSPost2010PropOp41
 70
     1
102
RTVSPost2010Prop42
 90
       50
102
RTVSPost2010PropOp42
 70
     1
102
RTVSPost2010Prop43
 90
        3
102
RTVSPost2010PropOp43
 70
     1
102
RTVSPost2010Prop44ColorIndex
 90
        5
102
RTVSPost2010Prop44ColorRGB
 90
      255
102
RTVSPost2010PropOp44
 70
     1
102
RTVSPost2010Prop45
280
     0
102
RTVSPost2010PropOp45
 70
     1
102
RTVSPost2010Prop46
 90
       50
102
RTVSPost2010PropOp46
 70
     1
102
RTVSPost2010Prop47
 90
       50
102
RTVSPost2010PropOp47
 70
     1
102
RTVSPost2010Prop48
 90
       50
102
RTVSPost2010PropOp48
 70
     1
102
RTVSPost2010Prop49
280
     0
102
RTVSPost2010PropOp49
 70
     1
102
RTVSPost2010Prop50
 90
       50
102
RTVSPost2010PropOp50
 70
     1
102
RTVSPost2010Prop51ColorIndex
 90
      256
102
RTVSPost2010Prop51ColorRGB
 90
-16777216
102
RTVSPost2010PropOp51
 70
     0
102
RTVSPost2010Prop52
140
1.0
102
RTVSPost2010PropOp52
 70
     0
102
RTVSPost2010Prop53
 90
        2
102
RTVSPost2010PropOp53
 70
     1
102
RTVSPost2010Prop54
  1
strokes_ogs.tif
102
RTVSPost2010PropOp54
 70
     1
102
RTVSPost2010Prop55
280
     0
102
RTVSPost2010PropOp55
 70
     1
102
RTVSPost2010Prop56
140
1.0
102
RTVSPost2010PropOp56
 70
     1
102
RTVSPost2010Prop57
140
1.0
102
RTVSPost2010PropOp57
 70
     1
102
RTVSPropertyOp0
 70
     1
102
RTVSPropertyOp1
 70
     1
102
RTVSPropertyOp2
 70
     1
102
RTVSPropertyOp3
 70
     1
102
RTVSPropertyOp4
 70
     1
102
RTVSPropertyOp5
 70
     1
102
RTVSPropertyOp6
 70
     1
102
RTVSPropertyOp7
 70
     1
102
RTVSPropertyOp8
 70
     1
102
RTVSPropertyOp9
 70
     1
102
RTVSPropertyOp10
 70
     1
102
RTVSPropertyOp11
 70
     1
102
RTVSPropertyOp12
 70
     1
102
RTVSPropertyOp13
 70
     1
102
RTVSPropertyOp14
 70
     1
102
RTVSPropertyOp15
 70
     1
102
RTVSPropertyOp16
 70
     1
102
RTVSPropertyOp17
 70
     1
102
RTVSPropertyOp18
 70
     1
102
RTVSPropertyOp19
 70
     1
102
RTVSPropertyOp20
 70
     1
102
RTVSPropertyOp21
 70
     1
102
RTVSPropertyOp22
 70
     1
102
RTVSPropertyOp23
 70
     1
102
RTVSPropertyOp24
 70
     1
102
RTVSPropertyOp25
 70
     1
102
RTVSPropertyOp26
 70
     1
102
RTVSPropertyOp27
 70
     1
102
RTVSPropertyOp28
 70
     1
102
RTVSPropertyOp29
 70
     1
102
RTVSPropertyOp30
 70
     1
102
RTVSPropertyOp31
 70
     1
102
RTVSPropertyOp32
 70
     1
102
RTVSPropertyOp33
 70
     1
102
RTVSPropertyOp34
 70
     1
102
RTVSPropertyOp35
 70
     1
102
RTVSPropertyOp36
 70
     1
102
RTVSPropertyOp37
 70
     1
102
RTVSPropertyOp38
 70
     1
102
RTVSPropertyOp39
 70
     1
102
RTVSPropertyOp40
 70
     1
102
RTVSPropertyOp41
 70
     1
102
RTVSPropertyOp42
 70
     1
102
RTVSPropertyOp43
 70
     1
102
RTVSPropertyOp44
 70
     1
102
RTVSPropertyOp45
 70
     1
102
RTVSPropertyOp46
 70
     1
102
RTVSPropertyOp47
 70
     1
102
RTVSPropertyOp48
 70
     1
102
RTVSPropertyOp49
 70
     1
102
RTVSPropertyOp50
 70
     1
102
RTVSPropertyOp51
 70
     0
102
RTVSPropertyOp52
 70
     0
102
RTVSPropertyOp53
 70
     1
102
RTVSPropertyOp54
 70
     1
102
RTVSPropertyOp55
 70
     1
102
RTVSPropertyOp56
 70
     1
102
RTVSPropertyOp57
 70
     1
102
RTVSPropertyOp58
 70
     1
102
RTVSPropertyOp59
 70
     1
102
RTVSPropertyOp60
 70
     1
102
RTVSPropertyOp61
 70
     1
102
RTVSPropertyOp62
 70
     1
  0
XRECORD
  5
3D2F
102
{ACAD_REACTORS
330
3D2E
102
}
330
3D2E
100
AcDbXrecord
280
     1
102
RTVSPost2010Prop28
280
     0
102
RTVSPost2010PropOp28
 70
     1
102
RTVSPost2010Prop29
280
     1
102
RTVSPost2010PropOp29
 70
     1
102
RTVSPost2010Prop30
280
     1
102
RTVSPost2010PropOp30
 70
     1
102
RTVSPost2010Prop31
280
     0
102
RTVSPost2010PropOp31
 70
     1
102
RTVSPost2010Prop32
280
     0
102
RTVSPost2010PropOp32
 70
     1
102
RTVSPost2010Prop33
280
     0
102
RTVSPost2010PropOp33
 70
     1
102
RTVSPost2010Prop34
280
     0
102
RTVSPost2010PropOp34
 70
     1
102
RTVSPost2010Prop35
280
     0
102
RTVSPost2010PropOp35
 70
     1
102
RTVSPost2010Prop36
280
     0
102
RTVSPost2010PropOp36
 70
     1
102
RTVSPost2010Prop37
 90
       50
102
RTVSPost2010PropOp37
 70
     1
102
RTVSPost2010Prop38
140
0.0
102
RTVSPost2010PropOp38
 70
     1
102
RTVSPost2010Prop39
140
1.0
102
RTVSPost2010PropOp39
 70
     1
102
RTVSPost2010Prop40
 90
        0
102
RTVSPost2010PropOp40
 70
     1
102
RTVSPost2010Prop41ColorIndex
 90
       18
102
RTVSPost2010Prop41ColorRGB
 90
        0
102
RTVSPost2010PropOp41
 70
     1
102
RTVSPost2010Prop42
 90
       50
102
RTVSPost2010PropOp42
 70
     1
102
RTVSPost2010Prop43
 90
        3
102
RTVSPost2010PropOp43
 70
     1
102
RTVSPost2010Prop44ColorIndex
 90
        5
102
RTVSPost2010Prop44ColorRGB
 90
      255
102
RTVSPost2010PropOp44
 70
     1
102
RTVSPost2010Prop45
280
     0
102
RTVSPost2010PropOp45
 70
     1
102
RTVSPost2010Prop46
 90
       50
102
RTVSPost2010PropOp46
 70
     1
102
RTVSPost2010Prop47
 90
       50
102
RTVSPost2010PropOp47
 70
     1
102
RTVSPost2010Prop48
 90
       50
102
RTVSPost2010PropOp48
 70
     1
102
RTVSPost2010Prop49
280
     0
102
RTVSPost2010PropOp49
 70
     1
102
RTVSPost2010Prop50
 90
       50
102
RTVSPost2010PropOp50
 70
     1
102
RTVSPost2010Prop51ColorIndex
 90
      256
102
RTVSPost2010Prop51ColorRGB
 90
-16777216
102
RTVSPost2010PropOp51
 70
     0
102
RTVSPost2010Prop52
140
1.0
102
RTVSPost2010PropOp52
 70
     0
102
RTVSPost2010Prop53
 90
        2
102
RTVSPost2010PropOp53
 70
     1
102
RTVSPost2010Prop54
  1
strokes_ogs.tif
102
RTVSPost2010PropOp54
 70
     1
102
RTVSPost2010Prop55
280
     0
102
RTVSPost2010PropOp55
 70
     1
102
RTVSPost2010Prop56
140
1.0
102
RTVSPost2010PropOp56
 70
     1
102
RTVSPost2010Prop57
140
1.0
102
RTVSPost2010PropOp57
 70
     1
102
RTVSPropertyOp0
 70
     1
102
RTVSPropertyOp1
 70
     1
102
RTVSPropertyOp2
 70
     1
102
RTVSPropertyOp3
 70
     1
102
RTVSPropertyOp4
 70
     1
102
RTVSPropertyOp5
 70
     1
102
RTVSPropertyOp6
 70
     1
102
RTVSPropertyOp7
 70
     1
102
RTVSPropertyOp8
 70
     1
102
RTVSPropertyOp9
 70
     1
102
RTVSPropertyOp10
 70
     1
102
RTVSPropertyOp11
 70
     1
102
RTVSPropertyOp12
 70
     1
102
RTVSPropertyOp13
 70
     1
102
RTVSPropertyOp14
 70
     1
102
RTVSPropertyOp15
 70
     1
102
RTVSPropertyOp16
 70
     1
102
RTVSPropertyOp17
 70
     1
102
RTVSPropertyOp18
 70
     1
102
RTVSPropertyOp19
 70
     1
102
RTVSPropertyOp20
 70
     1
102
RTVSPropertyOp21
 70
     1
102
RTVSPropertyOp22
 70
     1
102
RTVSPropertyOp23
 70
     1
102
RTVSPropertyOp24
 70
     1
102
RTVSPropertyOp25
 70
     1
102
RTVSPropertyOp26
 70
     1
102
RTVSPropertyOp27
 70
     1
102
RTVSPropertyOp28
 70
     1
102
RTVSPropertyOp29
 70
     1
102
RTVSPropertyOp30
 70
     1
102
RTVSPropertyOp31
 70
     1
102
RTVSPropertyOp32
 70
     1
102
RTVSPropertyOp33
 70
     1
102
RTVSPropertyOp34
 70
     1
102
RTVSPropertyOp35
 70
     1
102
RTVSPropertyOp36
 70
     1
102
RTVSPropertyOp37
 70
     1
102
RTVSPropertyOp38
 70
     1
102
RTVSPropertyOp39
 70
     1
102
RTVSPropertyOp40
 70
     1
102
RTVSPropertyOp41
 70
     1
102
RTVSPropertyOp42
 70
     1
102
RTVSPropertyOp43
 70
     1
102
RTVSPropertyOp44
 70
     1
102
RTVSPropertyOp45
 70
     1
102
RTVSPropertyOp46
 70
     1
102
RTVSPropertyOp47
 70
     1
102
RTVSPropertyOp48
 70
     1
102
RTVSPropertyOp49
 70
     1
102
RTVSPropertyOp50
 70
     1
102
RTVSPropertyOp51
 70
     0
102
RTVSPropertyOp52
 70
     0
102
RTVSPropertyOp53
 70
     1
102
RTVSPropertyOp54
 70
     1
102
RTVSPropertyOp55
 70
     1
102
RTVSPropertyOp56
 70
     1
102
RTVSPropertyOp57
 70
     1
102
RTVSPropertyOp58
 70
     1
102
RTVSPropertyOp59
 70
     1
102
RTVSPropertyOp60
 70
     1
102
RTVSPropertyOp61
 70
     1
102
RTVSPropertyOp62
 70
     1
  0
XRECORD
  5
3D3D
102
{ACAD_REACTORS
330
3D3C
102
}
330
3D3C
100
AcDbXrecord
280
     1
102
RTVSPost2010Prop28
280
     0
102
RTVSPost2010PropOp28
 70
     1
102
RTVSPost2010Prop29
280
     1
102
RTVSPost2010PropOp29
 70
     1
102
RTVSPost2010Prop30
280
     1
102
RTVSPost2010PropOp30
 70
     1
102
RTVSPost2010Prop31
280
     0
102
RTVSPost2010PropOp31
 70
     1
102
RTVSPost2010Prop32
280
     0
102
RTVSPost2010PropOp32
 70
     1
102
RTVSPost2010Prop33
280
     0
102
RTVSPost2010PropOp33
 70
     1
102
RTVSPost2010Prop34
280
     0
102
RTVSPost2010PropOp34
 70
     1
102
RTVSPost2010Prop35
280
     0
102
RTVSPost2010PropOp35
 70
     1
102
RTVSPost2010Prop36
280
     0
102
RTVSPost2010PropOp36
 70
     1
102
RTVSPost2010Prop37
 90
       50
102
RTVSPost2010PropOp37
 70
     1
102
RTVSPost2010Prop38
140
0.0
102
RTVSPost2010PropOp38
 70
     1
102
RTVSPost2010Prop39
140
1.0
102
RTVSPost2010PropOp39
 70
     1
102
RTVSPost2010Prop40
 90
        0
102
RTVSPost2010PropOp40
 70
     1
102
RTVSPost2010Prop41ColorIndex
 90
       18
102
RTVSPost2010Prop41ColorRGB
 90
        0
102
RTVSPost2010PropOp41
 70
     1
102
RTVSPost2010Prop42
 90
       50
102
RTVSPost2010PropOp42
 70
     1
102
RTVSPost2010Prop43
 90
        3
102
RTVSPost2010PropOp43
 70
     1
102
RTVSPost2010Prop44ColorIndex
 90
        5
102
RTVSPost2010Prop44ColorRGB
 90
      255
102
RTVSPost2010PropOp44
 70
     1
102
RTVSPost2010Prop45
280
     0
102
RTVSPost2010PropOp45
 70
     1
102
RTVSPost2010Prop46
 90
       50
102
RTVSPost2010PropOp46
 70
     1
102
RTVSPost2010Prop47
 90
       50
102
RTVSPost2010PropOp47
 70
     1
102
RTVSPost2010Prop48
 90
       50
102
RTVSPost2010PropOp48
 70
     1
102
RTVSPost2010Prop49
280
     0
102
RTVSPost2010PropOp49
 70
     1
102
RTVSPost2010Prop50
 90
       50
102
RTVSPost2010PropOp50
 70
     1
102
RTVSPost2010Prop51ColorIndex
 90
      256
102
RTVSPost2010Prop51ColorRGB
 90
-16777216
102
RTVSPost2010PropOp51
 70
     0
102
RTVSPost2010Prop52
140
1.0
102
RTVSPost2010PropOp52
 70
     0
102
RTVSPost2010Prop53
 90
        2
102
RTVSPost2010PropOp53
 70
     1
102
RTVSPost2010Prop54
  1
strokes_ogs.tif
102
RTVSPost2010PropOp54
 70
     1
102
RTVSPost2010Prop55
280
     0
102
RTVSPost2010PropOp55
 70
     1
102
RTVSPost2010Prop56
140
1.0
102
RTVSPost2010PropOp56
 70
     1
102
RTVSPost2010Prop57
140
1.0
102
RTVSPost2010PropOp57
 70
     1
102
RTVSPropertyOp0
 70
     1
102
RTVSPropertyOp1
 70
     1
102
RTVSPropertyOp2
 70
     1
102
RTVSPropertyOp3
 70
     1
102
RTVSPropertyOp4
 70
     1
102
RTVSPropertyOp5
 70
     1
102
RTVSPropertyOp6
 70
     1
102
RTVSPropertyOp7
 70
     1
102
RTVSPropertyOp8
 70
     1
102
RTVSPropertyOp9
 70
     1
102
RTVSPropertyOp10
 70
     1
102
RTVSPropertyOp11
 70
     1
102
RTVSPropertyOp12
 70
     1
102
RTVSPropertyOp13
 70
     1
102
RTVSPropertyOp14
 70
     1
102
RTVSPropertyOp15
 70
     1
102
RTVSPropertyOp16
 70
     1
102
RTVSPropertyOp17
 70
     1
102
RTVSPropertyOp18
 70
     1
102
RTVSPropertyOp19
 70
     1
102
RTVSPropertyOp20
 70
     1
102
RTVSPropertyOp21
 70
     1
102
RTVSPropertyOp22
 70
     1
102
RTVSPropertyOp23
 70
     1
102
RTVSPropertyOp24
 70
     1
102
RTVSPropertyOp25
 70
     1
102
RTVSPropertyOp26
 70
     1
102
RTVSPropertyOp27
 70
     1
102
RTVSPropertyOp28
 70
     1
102
RTVSPropertyOp29
 70
     1
102
RTVSPropertyOp30
 70
     1
102
RTVSPropertyOp31
 70
     1
102
RTVSPropertyOp32
 70
     1
102
RTVSPropertyOp33
 70
     1
102
RTVSPropertyOp34
 70
     1
102
RTVSPropertyOp35
 70
     1
102
RTVSPropertyOp36
 70
     1
102
RTVSPropertyOp37
 70
     1
102
RTVSPropertyOp38
 70
     1
102
RTVSPropertyOp39
 70
     1
102
RTVSPropertyOp40
 70
     1
102
RTVSPropertyOp41
 70
     1
102
RTVSPropertyOp42
 70
     1
102
RTVSPropertyOp43
 70
     1
102
RTVSPropertyOp44
 70
     1
102
RTVSPropertyOp45
 70
     1
102
RTVSPropertyOp46
 70
     1
102
RTVSPropertyOp47
 70
     1
102
RTVSPropertyOp48
 70
     1
102
RTVSPropertyOp49
 70
     1
102
RTVSPropertyOp50
 70
     1
102
RTVSPropertyOp51
 70
     0
102
RTVSPropertyOp52
 70
     0
102
RTVSPropertyOp53
 70
     1
102
RTVSPropertyOp54
 70
     1
102
RTVSPropertyOp55
 70
     1
102
RTVSPropertyOp56
 70
     1
102
RTVSPropertyOp57
 70
     1
102
RTVSPropertyOp58
 70
     1
102
RTVSPropertyOp59
 70
     1
102
RTVSPropertyOp60
 70
     1
102
RTVSPropertyOp61
 70
     1
102
RTVSPropertyOp62
 70
     1
  0
XRECORD
  5
3D45
102
{ACAD_REACTORS
330
3D44
102
}
330
3D44
100
AcDbXrecord
280
     1
102
RTVSPost2010Prop28
280
     0
102
RTVSPost2010PropOp28
 70
     1
102
RTVSPost2010Prop29
280
     1
102
RTVSPost2010PropOp29
 70
     1
102
RTVSPost2010Prop30
280
     1
102
RTVSPost2010PropOp30
 70
     1
102
RTVSPost2010Prop31
280
     0
102
RTVSPost2010PropOp31
 70
     1
102
RTVSPost2010Prop32
280
     0
102
RTVSPost2010PropOp32
 70
     1
102
RTVSPost2010Prop33
280
     0
102
RTVSPost2010PropOp33
 70
     1
102
RTVSPost2010Prop34
280
     0
102
RTVSPost2010PropOp34
 70
     1
102
RTVSPost2010Prop35
280
     0
102
RTVSPost2010PropOp35
 70
     1
102
RTVSPost2010Prop36
280
     0
102
RTVSPost2010PropOp36
 70
     1
102
RTVSPost2010Prop37
 90
       50
102
RTVSPost2010PropOp37
 70
     1
102
RTVSPost2010Prop38
140
0.0
102
RTVSPost2010PropOp38
 70
     1
102
RTVSPost2010Prop39
140
1.0
102
RTVSPost2010PropOp39
 70
     1
102
RTVSPost2010Prop40
 90
        0
102
RTVSPost2010PropOp40
 70
     1
102
RTVSPost2010Prop41ColorIndex
 90
       18
102
RTVSPost2010Prop41ColorRGB
 90
        0
102
RTVSPost2010PropOp41
 70
     1
102
RTVSPost2010Prop42
 90
       50
102
RTVSPost2010PropOp42
 70
     1
102
RTVSPost2010Prop43
 90
        3
102
RTVSPost2010PropOp43
 70
     1
102
RTVSPost2010Prop44ColorIndex
 90
        5
102
RTVSPost2010Prop44ColorRGB
 90
      255
102
RTVSPost2010PropOp44
 70
     1
102
RTVSPost2010Prop45
280
     0
102
RTVSPost2010PropOp45
 70
     1
102
RTVSPost2010Prop46
 90
       50
102
RTVSPost2010PropOp46
 70
     1
102
RTVSPost2010Prop47
 90
       50
102
RTVSPost2010PropOp47
 70
     1
102
RTVSPost2010Prop48
 90
       50
102
RTVSPost2010PropOp48
 70
     1
102
RTVSPost2010Prop49
280
     0
102
RTVSPost2010PropOp49
 70
     1
102
RTVSPost2010Prop50
 90
       50
102
RTVSPost2010PropOp50
 70
     1
102
RTVSPost2010Prop51ColorIndex
 90
      256
102
RTVSPost2010Prop51ColorRGB
 90
-16777216
102
RTVSPost2010PropOp51
 70
     0
102
RTVSPost2010Prop52
140
1.0
102
RTVSPost2010PropOp52
 70
     0
102
RTVSPost2010Prop53
 90
        2
102
RTVSPost2010PropOp53
 70
     1
102
RTVSPost2010Prop54
  1
strokes_ogs.tif
102
RTVSPost2010PropOp54
 70
     1
102
RTVSPost2010Prop55
280
     0
102
RTVSPost2010PropOp55
 70
     1
102
RTVSPost2010Prop56
140
1.0
102
RTVSPost2010PropOp56
 70
     1
102
RTVSPost2010Prop57
140
1.0
102
RTVSPost2010PropOp57
 70
     1
102
RTVSPropertyOp0
 70
     1
102
RTVSPropertyOp1
 70
     1
102
RTVSPropertyOp2
 70
     1
102
RTVSPropertyOp3
 70
     1
102
RTVSPropertyOp4
 70
     1
102
RTVSPropertyOp5
 70
     1
102
RTVSPropertyOp6
 70
     1
102
RTVSPropertyOp7
 70
     1
102
RTVSPropertyOp8
 70
     1
102
RTVSPropertyOp9
 70
     1
102
RTVSPropertyOp10
 70
     1
102
RTVSPropertyOp11
 70
     1
102
RTVSPropertyOp12
 70
     1
102
RTVSPropertyOp13
 70
     1
102
RTVSPropertyOp14
 70
     1
102
RTVSPropertyOp15
 70
     1
102
RTVSPropertyOp16
 70
     1
102
RTVSPropertyOp17
 70
     1
102
RTVSPropertyOp18
 70
     1
102
RTVSPropertyOp19
 70
     1
102
RTVSPropertyOp20
 70
     1
102
RTVSPropertyOp21
 70
     1
102
RTVSPropertyOp22
 70
     1
102
RTVSPropertyOp23
 70
     1
102
RTVSPropertyOp24
 70
     1
102
RTVSPropertyOp25
 70
     1
102
RTVSPropertyOp26
 70
     1
102
RTVSPropertyOp27
 70
     1
102
RTVSPropertyOp28
 70
     1
102
RTVSPropertyOp29
 70
     1
102
RTVSPropertyOp30
 70
     1
102
RTVSPropertyOp31
 70
     1
102
RTVSPropertyOp32
 70
     1
102
RTVSPropertyOp33
 70
     1
102
RTVSPropertyOp34
 70
     1
102
RTVSPropertyOp35
 70
     1
102
RTVSPropertyOp36
 70
     1
102
RTVSPropertyOp37
 70
     1
102
RTVSPropertyOp38
 70
     1
102
RTVSPropertyOp39
 70
     1
102
RTVSPropertyOp40
 70
     1
102
RTVSPropertyOp41
 70
     1
102
RTVSPropertyOp42
 70
     1
102
RTVSPropertyOp43
 70
     1
102
RTVSPropertyOp44
 70
     1
102
RTVSPropertyOp45
 70
     1
102
RTVSPropertyOp46
 70
     1
102
RTVSPropertyOp47
 70
     1
102
RTVSPropertyOp48
 70
     1
102
RTVSPropertyOp49
 70
     1
102
RTVSPropertyOp50
 70
     1
102
RTVSPropertyOp51
 70
     0
102
RTVSPropertyOp52
 70
     0
102
RTVSPropertyOp53
 70
     1
102
RTVSPropertyOp54
 70
     1
102
RTVSPropertyOp55
 70
     1
102
RTVSPropertyOp56
 70
     1
102
RTVSPropertyOp57
 70
     1
102
RTVSPropertyOp58
 70
     1
102
RTVSPropertyOp59
 70
     1
102
RTVSPropertyOp60
 70
     1
102
RTVSPropertyOp61
 70
     1
102
RTVSPropertyOp62
 70
     1
  0
XRECORD
  5
3D37
102
{ACAD_REACTORS
330
3D36
102
}
330
3D36
100
AcDbXrecord
280
     1
102
RTVSPost2010Prop28
280
     0
102
RTVSPost2010PropOp28
 70
     1
102
RTVSPost2010Prop29
280
     1
102
RTVSPost2010PropOp29
 70
     1
102
RTVSPost2010Prop30
280
     1
102
RTVSPost2010PropOp30
 70
     1
102
RTVSPost2010Prop31
280
     0
102
RTVSPost2010PropOp31
 70
     1
102
RTVSPost2010Prop32
280
     0
102
RTVSPost2010PropOp32
 70
     1
102
RTVSPost2010Prop33
280
     0
102
RTVSPost2010PropOp33
 70
     1
102
RTVSPost2010Prop34
280
     0
102
RTVSPost2010PropOp34
 70
     1
102
RTVSPost2010Prop35
280
     0
102
RTVSPost2010PropOp35
 70
     1
102
RTVSPost2010Prop36
280
     0
102
RTVSPost2010PropOp36
 70
     1
102
RTVSPost2010Prop37
 90
       50
102
RTVSPost2010PropOp37
 70
     1
102
RTVSPost2010Prop38
140
0.0
102
RTVSPost2010PropOp38
 70
     1
102
RTVSPost2010Prop39
140
1.0
102
RTVSPost2010PropOp39
 70
     1
102
RTVSPost2010Prop40
 90
        0
102
RTVSPost2010PropOp40
 70
     1
102
RTVSPost2010Prop41ColorIndex
 90
       18
102
RTVSPost2010Prop41ColorRGB
 90
        0
102
RTVSPost2010PropOp41
 70
     1
102
RTVSPost2010Prop42
 90
       50
102
RTVSPost2010PropOp42
 70
     1
102
RTVSPost2010Prop43
 90
        3
102
RTVSPost2010PropOp43
 70
     1
102
RTVSPost2010Prop44ColorIndex
 90
        5
102
RTVSPost2010Prop44ColorRGB
 90
      255
102
RTVSPost2010PropOp44
 70
     1
102
RTVSPost2010Prop45
280
     0
102
RTVSPost2010PropOp45
 70
     1
102
RTVSPost2010Prop46
 90
       50
102
RTVSPost2010PropOp46
 70
     1
102
RTVSPost2010Prop47
 90
       50
102
RTVSPost2010PropOp47
 70
     1
102
RTVSPost2010Prop48
 90
       50
102
RTVSPost2010PropOp48
 70
     1
102
RTVSPost2010Prop49
280
     0
102
RTVSPost2010PropOp49
 70
     1
102
RTVSPost2010Prop50
 90
       50
102
RTVSPost2010PropOp50
 70
     1
102
RTVSPost2010Prop51ColorIndex
 90
      256
102
RTVSPost2010Prop51ColorRGB
 90
-16777216
102
RTVSPost2010PropOp51
 70
     0
102
RTVSPost2010Prop52
140
1.0
102
RTVSPost2010PropOp52
 70
     0
102
RTVSPost2010Prop53
 90
        2
102
RTVSPost2010PropOp53
 70
     1
102
RTVSPost2010Prop54
  1
strokes_ogs.tif
102
RTVSPost2010PropOp54
 70
     1
102
RTVSPost2010Prop55
280
     0
102
RTVSPost2010PropOp55
 70
     1
102
RTVSPost2010Prop56
140
1.0
102
RTVSPost2010PropOp56
 70
     1
102
RTVSPost2010Prop57
140
1.0
102
RTVSPost2010PropOp57
 70
     1
102
RTVSPropertyOp0
 70
     1
102
RTVSPropertyOp1
 70
     1
102
RTVSPropertyOp2
 70
     1
102
RTVSPropertyOp3
 70
     1
102
RTVSPropertyOp4
 70
     1
102
RTVSPropertyOp5
 70
     1
102
RTVSPropertyOp6
 70
     1
102
RTVSPropertyOp7
 70
     1
102
RTVSPropertyOp8
 70
     1
102
RTVSPropertyOp9
 70
     1
102
RTVSPropertyOp10
 70
     1
102
RTVSPropertyOp11
 70
     1
102
RTVSPropertyOp12
 70
     1
102
RTVSPropertyOp13
 70
     1
102
RTVSPropertyOp14
 70
     1
102
RTVSPropertyOp15
 70
     1
102
RTVSPropertyOp16
 70
     1
102
RTVSPropertyOp17
 70
     1
102
RTVSPropertyOp18
 70
     1
102
RTVSPropertyOp19
 70
     1
102
RTVSPropertyOp20
 70
     1
102
RTVSPropertyOp21
 70
     1
102
RTVSPropertyOp22
 70
     1
102
RTVSPropertyOp23
 70
     1
102
RTVSPropertyOp24
 70
     1
102
RTVSPropertyOp25
 70
     1
102
RTVSPropertyOp26
 70
     1
102
RTVSPropertyOp27
 70
     1
102
RTVSPropertyOp28
 70
     1
102
RTVSPropertyOp29
 70
     1
102
RTVSPropertyOp30
 70
     1
102
RTVSPropertyOp31
 70
     1
102
RTVSPropertyOp32
 70
     1
102
RTVSPropertyOp33
 70
     1
102
RTVSPropertyOp34
 70
     1
102
RTVSPropertyOp35
 70
     1
102
RTVSPropertyOp36
 70
     1
102
RTVSPropertyOp37
 70
     1
102
RTVSPropertyOp38
 70
     1
102
RTVSPropertyOp39
 70
     1
102
RTVSPropertyOp40
 70
     1
102
RTVSPropertyOp41
 70
     1
102
RTVSPropertyOp42
 70
     1
102
RTVSPropertyOp43
 70
     1
102
RTVSPropertyOp44
 70
     1
102
RTVSPropertyOp45
 70
     1
102
RTVSPropertyOp46
 70
     1
102
RTVSPropertyOp47
 70
     1
102
RTVSPropertyOp48
 70
     1
102
RTVSPropertyOp49
 70
     1
102
RTVSPropertyOp50
 70
     1
102
RTVSPropertyOp51
 70
     0
102
RTVSPropertyOp52
 70
     0
102
RTVSPropertyOp53
 70
     1
102
RTVSPropertyOp54
 70
     1
102
RTVSPropertyOp55
 70
     1
102
RTVSPropertyOp56
 70
     1
102
RTVSPropertyOp57
 70
     1
102
RTVSPropertyOp58
 70
     1
102
RTVSPropertyOp59
 70
     1
102
RTVSPropertyOp60
 70
     1
102
RTVSPropertyOp61
 70
     1
102
RTVSPropertyOp62
 70
     1
  0
XRECORD
  5
3D3B
102
{ACAD_REACTORS
330
3D3A
102
}
330
3D3A
100
AcDbXrecord
280
     1
102
RTVSPost2010Prop28
280
     0
102
RTVSPost2010PropOp28
 70
     1
102
RTVSPost2010Prop29
280
     1
102
RTVSPost2010PropOp29
 70
     1
102
RTVSPost2010Prop30
280
     1
102
RTVSPost2010PropOp30
 70
     1
102
RTVSPost2010Prop31
280
     0
102
RTVSPost2010PropOp31
 70
     1
102
RTVSPost2010Prop32
280
     0
102
RTVSPost2010PropOp32
 70
     1
102
RTVSPost2010Prop33
280
     0
102
RTVSPost2010PropOp33
 70
     1
102
RTVSPost2010Prop34
280
     0
102
RTVSPost2010PropOp34
 70
     1
102
RTVSPost2010Prop35
280
     0
102
RTVSPost2010PropOp35
 70
     1
102
RTVSPost2010Prop36
280
     0
102
RTVSPost2010PropOp36
 70
     1
102
RTVSPost2010Prop37
 90
       50
102
RTVSPost2010PropOp37
 70
     1
102
RTVSPost2010Prop38
140
0.0
102
RTVSPost2010PropOp38
 70
     1
102
RTVSPost2010Prop39
140
1.0
102
RTVSPost2010PropOp39
 70
     1
102
RTVSPost2010Prop40
 90
        0
102
RTVSPost2010PropOp40
 70
     1
102
RTVSPost2010Prop41ColorIndex
 90
       18
102
RTVSPost2010Prop41ColorRGB
 90
        0
102
RTVSPost2010PropOp41
 70
     1
102
RTVSPost2010Prop42
 90
       50
102
RTVSPost2010PropOp42
 70
     1
102
RTVSPost2010Prop43
 90
        3
102
RTVSPost2010PropOp43
 70
     1
102
RTVSPost2010Prop44ColorIndex
 90
        5
102
RTVSPost2010Prop44ColorRGB
 90
      255
102
RTVSPost2010PropOp44
 70
     1
102
RTVSPost2010Prop45
280
     0
102
RTVSPost2010PropOp45
 70
     1
102
RTVSPost2010Prop46
 90
       50
102
RTVSPost2010PropOp46
 70
     1
102
RTVSPost2010Prop47
 90
       50
102
RTVSPost2010PropOp47
 70
     1
102
RTVSPost2010Prop48
 90
       50
102
RTVSPost2010PropOp48
 70
     1
102
RTVSPost2010Prop49
280
     0
102
RTVSPost2010PropOp49
 70
     1
102
RTVSPost2010Prop50
 90
       50
102
RTVSPost2010PropOp50
 70
     1
102
RTVSPost2010Prop51ColorIndex
 90
      256
102
RTVSPost2010Prop51ColorRGB
 90
-16777216
102
RTVSPost2010PropOp51
 70
     0
102
RTVSPost2010Prop52
140
1.0
102
RTVSPost2010PropOp52
 70
     0
102
RTVSPost2010Prop53
 90
        2
102
RTVSPost2010PropOp53
 70
     1
102
RTVSPost2010Prop54
  1
strokes_ogs.tif
102
RTVSPost2010PropOp54
 70
     1
102
RTVSPost2010Prop55
280
     0
102
RTVSPost2010PropOp55
 70
     1
102
RTVSPost2010Prop56
140
1.0
102
RTVSPost2010PropOp56
 70
     1
102
RTVSPost2010Prop57
140
1.0
102
RTVSPost2010PropOp57
 70
     1
102
RTVSPropertyOp0
 70
     1
102
RTVSPropertyOp1
 70
     1
102
RTVSPropertyOp2
 70
     1
102
RTVSPropertyOp3
 70
     1
102
RTVSPropertyOp4
 70
     1
102
RTVSPropertyOp5
 70
     1
102
RTVSPropertyOp6
 70
     1
102
RTVSPropertyOp7
 70
     1
102
RTVSPropertyOp8
 70
     1
102
RTVSPropertyOp9
 70
     1
102
RTVSPropertyOp10
 70
     1
102
RTVSPropertyOp11
 70
     1
102
RTVSPropertyOp12
 70
     1
102
RTVSPropertyOp13
 70
     1
102
RTVSPropertyOp14
 70
     1
102
RTVSPropertyOp15
 70
     1
102
RTVSPropertyOp16
 70
     1
102
RTVSPropertyOp17
 70
     1
102
RTVSPropertyOp18
 70
     1
102
RTVSPropertyOp19
 70
     1
102
RTVSPropertyOp20
 70
     1
102
RTVSPropertyOp21
 70
     1
102
RTVSPropertyOp22
 70
     1
102
RTVSPropertyOp23
 70
     1
102
RTVSPropertyOp24
 70
     1
102
RTVSPropertyOp25
 70
     1
102
RTVSPropertyOp26
 70
     1
102
RTVSPropertyOp27
 70
     1
102
RTVSPropertyOp28
 70
     1
102
RTVSPropertyOp29
 70
     1
102
RTVSPropertyOp30
 70
     1
102
RTVSPropertyOp31
 70
     1
102
RTVSPropertyOp32
 70
     1
102
RTVSPropertyOp33
 70
     1
102
RTVSPropertyOp34
 70
     1
102
RTVSPropertyOp35
 70
     1
102
RTVSPropertyOp36
 70
     1
102
RTVSPropertyOp37
 70
     1
102
RTVSPropertyOp38
 70
     1
102
RTVSPropertyOp39
 70
     1
102
RTVSPropertyOp40
 70
     1
102
RTVSPropertyOp41
 70
     1
102
RTVSPropertyOp42
 70
     1
102
RTVSPropertyOp43
 70
     1
102
RTVSPropertyOp44
 70
     1
102
RTVSPropertyOp45
 70
     1
102
RTVSPropertyOp46
 70
     1
102
RTVSPropertyOp47
 70
     1
102
RTVSPropertyOp48
 70
     1
102
RTVSPropertyOp49
 70
     1
102
RTVSPropertyOp50
 70
     1
102
RTVSPropertyOp51
 70
     0
102
RTVSPropertyOp52
 70
     0
102
RTVSPropertyOp53
 70
     1
102
RTVSPropertyOp54
 70
     1
102
RTVSPropertyOp55
 70
     1
102
RTVSPropertyOp56
 70
     1
102
RTVSPropertyOp57
 70
     1
102
RTVSPropertyOp58
 70
     1
102
RTVSPropertyOp59
 70
     1
102
RTVSPropertyOp60
 70
     1
102
RTVSPropertyOp61
 70
     1
102
RTVSPropertyOp62
 70
     1
  0
XRECORD
  5
3D55
102
{ACAD_REACTORS
330
3D54
102
}
330
3D54
100
AcDbXrecord
280
     1
102
RTVSPost2010Prop28
280
     0
102
RTVSPost2010PropOp28
 70
     1
102
RTVSPost2010Prop29
280
     1
102
RTVSPost2010PropOp29
 70
     1
102
RTVSPost2010Prop30
280
     1
102
RTVSPost2010PropOp30
 70
     1
102
RTVSPost2010Prop31
280
     0
102
RTVSPost2010PropOp31
 70
     1
102
RTVSPost2010Prop32
280
     0
102
RTVSPost2010PropOp32
 70
     1
102
RTVSPost2010Prop33
280
     0
102
RTVSPost2010PropOp33
 70
     1
102
RTVSPost2010Prop34
280
     0
102
RTVSPost2010PropOp34
 70
     1
102
RTVSPost2010Prop35
280
     0
102
RTVSPost2010PropOp35
 70
     1
102
RTVSPost2010Prop36
280
     0
102
RTVSPost2010PropOp36
 70
     1
102
RTVSPost2010Prop37
 90
       50
102
RTVSPost2010PropOp37
 70
     0
102
RTVSPost2010Prop38
140
0.0
102
RTVSPost2010PropOp38
 70
     0
102
RTVSPost2010Prop39
140
1.0
102
RTVSPost2010PropOp39
 70
     0
102
RTVSPost2010Prop40
 90
        0
102
RTVSPost2010PropOp40
 70
     0
102
RTVSPost2010Prop41ColorIndex
 90
       18
102
RTVSPost2010Prop41ColorRGB
 90
        0
102
RTVSPost2010PropOp41
 70
     0
102
RTVSPost2010Prop42
 90
       50
102
RTVSPost2010PropOp42
 70
     0
102
RTVSPost2010Prop43
 90
        3
102
RTVSPost2010PropOp43
 70
     0
102
RTVSPost2010Prop44ColorIndex
 90
        5
102
RTVSPost2010Prop44ColorRGB
 90
      255
102
RTVSPost2010PropOp44
 70
     0
102
RTVSPost2010Prop45
280
     0
102
RTVSPost2010PropOp45
 70
     1
102
RTVSPost2010Prop46
 90
       50
102
RTVSPost2010PropOp46
 70
     0
102
RTVSPost2010Prop47
 90
       50
102
RTVSPost2010PropOp47
 70
     0
102
RTVSPost2010Prop48
 90
       50
102
RTVSPost2010PropOp48
 70
     0
102
RTVSPost2010Prop49
280
     0
102
RTVSPost2010PropOp49
 70
     1
102
RTVSPost2010Prop50
 90
       50
102
RTVSPost2010PropOp50
 70
     0
102
RTVSPost2010Prop51ColorIndex
 90
      256
102
RTVSPost2010Prop51ColorRGB
 90
-16777216
102
RTVSPost2010PropOp51
 70
     0
102
RTVSPost2010Prop52
140
1.0
102
RTVSPost2010PropOp52
 70
     0
102
RTVSPost2010Prop53
 90
        2
102
RTVSPost2010PropOp53
 70
     0
102
RTVSPost2010Prop54
  1
strokes_ogs.tif
102
RTVSPost2010PropOp54
 70
     0
102
RTVSPost2010Prop55
280
     0
102
RTVSPost2010PropOp55
 70
     1
102
RTVSPost2010Prop56
140
1.0
102
RTVSPost2010PropOp56
 70
     0
102
RTVSPost2010Prop57
140
1.0
102
RTVSPost2010PropOp57
 70
     0
102
RTVSPropertyOp0
 70
     0
102
RTVSPropertyOp1
 70
     0
102
RTVSPropertyOp2
 70
     0
102
RTVSPropertyOp3
 70
     0
102
RTVSPropertyOp4
 70
     0
102
RTVSPropertyOp5
 70
     0
102
RTVSPropertyOp6
 70
     0
102
RTVSPropertyOp7
 70
     0
102
RTVSPropertyOp8
 70
     0
102
RTVSPropertyOp9
 70
     0
102
RTVSPropertyOp10
 70
     0
102
RTVSPropertyOp11
 70
     0
102
RTVSPropertyOp12
 70
     0
102
RTVSPropertyOp13
 70
     0
102
RTVSPropertyOp14
 70
     2
102
RTVSPropertyOp15
 70
     0
102
RTVSPropertyOp16
 70
     0
102
RTVSPropertyOp17
 70
     0
102
RTVSPropertyOp18
 70
     0
102
RTVSPropertyOp19
 70
     0
102
RTVSPropertyOp20
 70
     0
102
RTVSPropertyOp21
 70
     0
102
RTVSPropertyOp22
 70
     0
102
RTVSPropertyOp23
 70
     0
102
RTVSPropertyOp24
 70
     0
102
RTVSPropertyOp25
 70
     0
102
RTVSPropertyOp26
 70
     0
102
RTVSPropertyOp27
 70
     0
102
RTVSPropertyOp28
 70
     1
102
RTVSPropertyOp29
 70
     1
102
RTVSPropertyOp30
 70
     1
102
RTVSPropertyOp31
 70
     1
102
RTVSPropertyOp32
 70
     1
102
RTVSPropertyOp33
 70
     1
102
RTVSPropertyOp34
 70
     1
102
RTVSPropertyOp35
 70
     1
102
RTVSPropertyOp36
 70
     1
102
RTVSPropertyOp37
 70
     0
102
RTVSPropertyOp38
 70
     0
102
RTVSPropertyOp39
 70
     0
102
RTVSPropertyOp40
 70
     0
102
RTVSPropertyOp41
 70
     0
102
RTVSPropertyOp42
 70
     0
102
RTVSPropertyOp43
 70
     0
102
RTVSPropertyOp44
 70
     0
102
RTVSPropertyOp45
 70
     1
102
RTVSPropertyOp46
 70
     0
102
RTVSPropertyOp47
 70
     0
102
RTVSPropertyOp48
 70
     0
102
RTVSPropertyOp49
 70
     1
102
RTVSPropertyOp50
 70
     0
102
RTVSPropertyOp51
 70
     0
102
RTVSPropertyOp52
 70
     0
102
RTVSPropertyOp53
 70
     0
102
RTVSPropertyOp54
 70
     0
102
RTVSPropertyOp55
 70
     1
102
RTVSPropertyOp56
 70
     0
102
RTVSPropertyOp57
 70
     0
102
RTVSPropertyOp58
 70
     0
102
RTVSPropertyOp59
 70
     0
102
RTVSPropertyOp60
 70
     0
102
RTVSPropertyOp61
 70
     0
102
RTVSPropertyOp62
 70
     0
  0
XRECORD
  5
3D43
102
{ACAD_REACTORS
330
3D42
102
}
330
3D42
100
AcDbXrecord
280
     1
102
RTVSPost2010Prop28
280
     0
102
RTVSPost2010PropOp28
 70
     1
102
RTVSPost2010Prop29
280
     1
102
RTVSPost2010PropOp29
 70
     1
102
RTVSPost2010Prop30
280
     1
102
RTVSPost2010PropOp30
 70
     1
102
RTVSPost2010Prop31
280
     0
102
RTVSPost2010PropOp31
 70
     1
102
RTVSPost2010Prop32
280
     0
102
RTVSPost2010PropOp32
 70
     1
102
RTVSPost2010Prop33
280
     0
102
RTVSPost2010PropOp33
 70
     1
102
RTVSPost2010Prop34
280
     0
102
RTVSPost2010PropOp34
 70
     1
102
RTVSPost2010Prop35
280
     0
102
RTVSPost2010PropOp35
 70
     1
102
RTVSPost2010Prop36
280
     0
102
RTVSPost2010PropOp36
 70
     1
102
RTVSPost2010Prop37
 90
       50
102
RTVSPost2010PropOp37
 70
     1
102
RTVSPost2010Prop38
140
0.0
102
RTVSPost2010PropOp38
 70
     1
102
RTVSPost2010Prop39
140
1.0
102
RTVSPost2010PropOp39
 70
     1
102
RTVSPost2010Prop40
 90
        0
102
RTVSPost2010PropOp40
 70
     1
102
RTVSPost2010Prop41ColorIndex
 90
       18
102
RTVSPost2010Prop41ColorRGB
 90
        0
102
RTVSPost2010PropOp41
 70
     1
102
RTVSPost2010Prop42
 90
       50
102
RTVSPost2010PropOp42
 70
     1
102
RTVSPost2010Prop43
 90
        3
102
RTVSPost2010PropOp43
 70
     1
102
RTVSPost2010Prop44ColorIndex
 90
        5
102
RTVSPost2010Prop44ColorRGB
 90
      255
102
RTVSPost2010PropOp44
 70
     1
102
RTVSPost2010Prop45
280
     0
102
RTVSPost2010PropOp45
 70
     1
102
RTVSPost2010Prop46
 90
       50
102
RTVSPost2010PropOp46
 70
     1
102
RTVSPost2010Prop47
 90
       50
102
RTVSPost2010PropOp47
 70
     1
102
RTVSPost2010Prop48
 90
       50
102
RTVSPost2010PropOp48
 70
     1
102
RTVSPost2010Prop49
280
     0
102
RTVSPost2010PropOp49
 70
     1
102
RTVSPost2010Prop50
 90
       50
102
RTVSPost2010PropOp50
 70
     1
102
RTVSPost2010Prop51ColorIndex
 90
      256
102
RTVSPost2010Prop51ColorRGB
 90
-16777216
102
RTVSPost2010PropOp51
 70
     0
102
RTVSPost2010Prop52
140
1.0
102
RTVSPost2010PropOp52
 70
     0
102
RTVSPost2010Prop53
 90
        2
102
RTVSPost2010PropOp53
 70
     1
102
RTVSPost2010Prop54
  1
strokes_ogs.tif
102
RTVSPost2010PropOp54
 70
     1
102
RTVSPost2010Prop55
280
     0
102
RTVSPost2010PropOp55
 70
     1
102
RTVSPost2010Prop56
140
1.0
102
RTVSPost2010PropOp56
 70
     1
102
RTVSPost2010Prop57
140
1.0
102
RTVSPost2010PropOp57
 70
     1
102
RTVSPropertyOp0
 70
     1
102
RTVSPropertyOp1
 70
     1
102
RTVSPropertyOp2
 70
     1
102
RTVSPropertyOp3
 70
     1
102
RTVSPropertyOp4
 70
     1
102
RTVSPropertyOp5
 70
     1
102
RTVSPropertyOp6
 70
     1
102
RTVSPropertyOp7
 70
     1
102
RTVSPropertyOp8
 70
     1
102
RTVSPropertyOp9
 70
     1
102
RTVSPropertyOp10
 70
     1
102
RTVSPropertyOp11
 70
     1
102
RTVSPropertyOp12
 70
     1
102
RTVSPropertyOp13
 70
     1
102
RTVSPropertyOp14
 70
     1
102
RTVSPropertyOp15
 70
     1
102
RTVSPropertyOp16
 70
     1
102
RTVSPropertyOp17
 70
     1
102
RTVSPropertyOp18
 70
     1
102
RTVSPropertyOp19
 70
     1
102
RTVSPropertyOp20
 70
     1
102
RTVSPropertyOp21
 70
     1
102
RTVSPropertyOp22
 70
     1
102
RTVSPropertyOp23
 70
     1
102
RTVSPropertyOp24
 70
     1
102
RTVSPropertyOp25
 70
     1
102
RTVSPropertyOp26
 70
     1
102
RTVSPropertyOp27
 70
     1
102
RTVSPropertyOp28
 70
     1
102
RTVSPropertyOp29
 70
     1
102
RTVSPropertyOp30
 70
     1
102
RTVSPropertyOp31
 70
     1
102
RTVSPropertyOp32
 70
     1
102
RTVSPropertyOp33
 70
     1
102
RTVSPropertyOp34
 70
     1
102
RTVSPropertyOp35
 70
     1
102
RTVSPropertyOp36
 70
     1
102
RTVSPropertyOp37
 70
     1
102
RTVSPropertyOp38
 70
     1
102
RTVSPropertyOp39
 70
     1
102
RTVSPropertyOp40
 70
     1
102
RTVSPropertyOp41
 70
     1
102
RTVSPropertyOp42
 70
     1
102
RTVSPropertyOp43
 70
     1
102
RTVSPropertyOp44
 70
     1
102
RTVSPropertyOp45
 70
     1
102
RTVSPropertyOp46
 70
     1
102
RTVSPropertyOp47
 70
     1
102
RTVSPropertyOp48
 70
     1
102
RTVSPropertyOp49
 70
     1
102
RTVSPropertyOp50
 70
     1
102
RTVSPropertyOp51
 70
     0
102
RTVSPropertyOp52
 70
     0
102
RTVSPropertyOp53
 70
     1
102
RTVSPropertyOp54
 70
     1
102
RTVSPropertyOp55
 70
     1
102
RTVSPropertyOp56
 70
     1
102
RTVSPropertyOp57
 70
     1
102
RTVSPropertyOp58
 70
     1
102
RTVSPropertyOp59
 70
     1
102
RTVSPropertyOp60
 70
     1
102
RTVSPropertyOp61
 70
     1
102
RTVSPropertyOp62
 70
     1
  0
XRECORD
  5
3D27
102
{ACAD_REACTORS
330
3D26
102
}
330
3D26
100
AcDbXrecord
280
     1
102
RTVSPost2010Prop28
280
     0
102
RTVSPost2010PropOp28
 70
     1
102
RTVSPost2010Prop29
280
     1
102
RTVSPost2010PropOp29
 70
     1
102
RTVSPost2010Prop30
280
     1
102
RTVSPost2010PropOp30
 70
     1
102
RTVSPost2010Prop31
280
     0
102
RTVSPost2010PropOp31
 70
     1
102
RTVSPost2010Prop32
280
     0
102
RTVSPost2010PropOp32
 70
     1
102
RTVSPost2010Prop33
280
     0
102
RTVSPost2010PropOp33
 70
     1
102
RTVSPost2010Prop34
280
     0
102
RTVSPost2010PropOp34
 70
     1
102
RTVSPost2010Prop35
280
     0
102
RTVSPost2010PropOp35
 70
     1
102
RTVSPost2010Prop36
280
     0
102
RTVSPost2010PropOp36
 70
     1
102
RTVSPost2010Prop37
 90
       50
102
RTVSPost2010PropOp37
 70
     1
102
RTVSPost2010Prop38
140
0.0
102
RTVSPost2010PropOp38
 70
     1
102
RTVSPost2010Prop39
140
1.0
102
RTVSPost2010PropOp39
 70
     1
102
RTVSPost2010Prop40
 90
        0
102
RTVSPost2010PropOp40
 70
     1
102
RTVSPost2010Prop41ColorIndex
 90
       18
102
RTVSPost2010Prop41ColorRGB
 90
        0
102
RTVSPost2010PropOp41
 70
     1
102
RTVSPost2010Prop42
 90
       50
102
RTVSPost2010PropOp42
 70
     1
102
RTVSPost2010Prop43
 90
        3
102
RTVSPost2010PropOp43
 70
     1
102
RTVSPost2010Prop44ColorIndex
 90
        5
102
RTVSPost2010Prop44ColorRGB
 90
      255
102
RTVSPost2010PropOp44
 70
     1
102
RTVSPost2010Prop45
280
     0
102
RTVSPost2010PropOp45
 70
     1
102
RTVSPost2010Prop46
 90
       50
102
RTVSPost2010PropOp46
 70
     1
102
RTVSPost2010Prop47
 90
       50
102
RTVSPost2010PropOp47
 70
     1
102
RTVSPost2010Prop48
 90
       50
102
RTVSPost2010PropOp48
 70
     1
102
RTVSPost2010Prop49
280
     0
102
RTVSPost2010PropOp49
 70
     1
102
RTVSPost2010Prop50
 90
       50
102
RTVSPost2010PropOp50
 70
     1
102
RTVSPost2010Prop51ColorIndex
 90
      256
102
RTVSPost2010Prop51ColorRGB
 90
-16777216
102
RTVSPost2010PropOp51
 70
     0
102
RTVSPost2010Prop52
140
1.0
102
RTVSPost2010PropOp52
 70
     0
102
RTVSPost2010Prop53
 90
        2
102
RTVSPost2010PropOp53
 70
     1
102
RTVSPost2010Prop54
  1
strokes_ogs.tif
102
RTVSPost2010PropOp54
 70
     1
102
RTVSPost2010Prop55
280
     0
102
RTVSPost2010PropOp55
 70
     1
102
RTVSPost2010Prop56
140
1.0
102
RTVSPost2010PropOp56
 70
     1
102
RTVSPost2010Prop57
140
1.0
102
RTVSPost2010PropOp57
 70
     1
102
RTVSPropertyOp0
 70
     1
102
RTVSPropertyOp1
 70
     1
102
RTVSPropertyOp2
 70
     1
102
RTVSPropertyOp3
 70
     1
102
RTVSPropertyOp4
 70
     1
102
RTVSPropertyOp5
 70
     1
102
RTVSPropertyOp6
 70
     1
102
RTVSPropertyOp7
 70
     1
102
RTVSPropertyOp8
 70
     1
102
RTVSPropertyOp9
 70
     1
102
RTVSPropertyOp10
 70
     1
102
RTVSPropertyOp11
 70
     1
102
RTVSPropertyOp12
 70
     1
102
RTVSPropertyOp13
 70
     1
102
RTVSPropertyOp14
 70
     1
102
RTVSPropertyOp15
 70
     1
102
RTVSPropertyOp16
 70
     1
102
RTVSPropertyOp17
 70
     1
102
RTVSPropertyOp18
 70
     1
102
RTVSPropertyOp19
 70
     1
102
RTVSPropertyOp20
 70
     1
102
RTVSPropertyOp21
 70
     1
102
RTVSPropertyOp22
 70
     1
102
RTVSPropertyOp23
 70
     1
102
RTVSPropertyOp24
 70
     1
102
RTVSPropertyOp25
 70
     1
102
RTVSPropertyOp26
 70
     1
102
RTVSPropertyOp27
 70
     1
102
RTVSPropertyOp28
 70
     1
102
RTVSPropertyOp29
 70
     1
102
RTVSPropertyOp30
 70
     1
102
RTVSPropertyOp31
 70
     1
102
RTVSPropertyOp32
 70
     1
102
RTVSPropertyOp33
 70
     1
102
RTVSPropertyOp34
 70
     1
102
RTVSPropertyOp35
 70
     1
102
RTVSPropertyOp36
 70
     1
102
RTVSPropertyOp37
 70
     1
102
RTVSPropertyOp38
 70
     1
102
RTVSPropertyOp39
 70
     1
102
RTVSPropertyOp40
 70
     1
102
RTVSPropertyOp41
 70
     1
102
RTVSPropertyOp42
 70
     1
102
RTVSPropertyOp43
 70
     1
102
RTVSPropertyOp44
 70
     1
102
RTVSPropertyOp45
 70
     1
102
RTVSPropertyOp46
 70
     1
102
RTVSPropertyOp47
 70
     1
102
RTVSPropertyOp48
 70
     1
102
RTVSPropertyOp49
 70
     1
102
RTVSPropertyOp50
 70
     1
102
RTVSPropertyOp51
 70
     0
102
RTVSPropertyOp52
 70
     0
102
RTVSPropertyOp53
 70
     1
102
RTVSPropertyOp54
 70
     1
102
RTVSPropertyOp55
 70
     1
102
RTVSPropertyOp56
 70
     1
102
RTVSPropertyOp57
 70
     1
102
RTVSPropertyOp58
 70
     1
102
RTVSPropertyOp59
 70
     1
102
RTVSPropertyOp60
 70
     1
102
RTVSPropertyOp61
 70
     1
102
RTVSPropertyOp62
 70
     1
  0
XRECORD
  5
3D29
102
{ACAD_REACTORS
330
3D28
102
}
330
3D28
100
AcDbXrecord
280
     1
102
RTVSPost2010Prop28
280
     0
102
RTVSPost2010PropOp28
 70
     1
102
RTVSPost2010Prop29
280
     1
102
RTVSPost2010PropOp29
 70
     1
102
RTVSPost2010Prop30
280
     1
102
RTVSPost2010PropOp30
 70
     1
102
RTVSPost2010Prop31
280
     0
102
RTVSPost2010PropOp31
 70
     1
102
RTVSPost2010Prop32
280
     0
102
RTVSPost2010PropOp32
 70
     1
102
RTVSPost2010Prop33
280
     0
102
RTVSPost2010PropOp33
 70
     1
102
RTVSPost2010Prop34
280
     0
102
RTVSPost2010PropOp34
 70
     1
102
RTVSPost2010Prop35
280
     0
102
RTVSPost2010PropOp35
 70
     1
102
RTVSPost2010Prop36
280
     0
102
RTVSPost2010PropOp36
 70
     1
102
RTVSPost2010Prop37
 90
       50
102
RTVSPost2010PropOp37
 70
     1
102
RTVSPost2010Prop38
140
0.0
102
RTVSPost2010PropOp38
 70
     1
102
RTVSPost2010Prop39
140
1.0
102
RTVSPost2010PropOp39
 70
     1
102
RTVSPost2010Prop40
 90
        0
102
RTVSPost2010PropOp40
 70
     1
102
RTVSPost2010Prop41ColorIndex
 90
       18
102
RTVSPost2010Prop41ColorRGB
 90
        0
102
RTVSPost2010PropOp41
 70
     1
102
RTVSPost2010Prop42
 90
       50
102
RTVSPost2010PropOp42
 70
     1
102
RTVSPost2010Prop43
 90
        3
102
RTVSPost2010PropOp43
 70
     1
102
RTVSPost2010Prop44ColorIndex
 90
        5
102
RTVSPost2010Prop44ColorRGB
 90
      255
102
RTVSPost2010PropOp44
 70
     1
102
RTVSPost2010Prop45
280
     0
102
RTVSPost2010PropOp45
 70
     1
102
RTVSPost2010Prop46
 90
       50
102
RTVSPost2010PropOp46
 70
     1
102
RTVSPost2010Prop47
 90
       50
102
RTVSPost2010PropOp47
 70
     1
102
RTVSPost2010Prop48
 90
       50
102
RTVSPost2010PropOp48
 70
     1
102
RTVSPost2010Prop49
280
     0
102
RTVSPost2010PropOp49
 70
     1
102
RTVSPost2010Prop50
 90
       50
102
RTVSPost2010PropOp50
 70
     1
102
RTVSPost2010Prop51ColorIndex
 90
      256
102
RTVSPost2010Prop51ColorRGB
 90
-16777216
102
RTVSPost2010PropOp51
 70
     0
102
RTVSPost2010Prop52
140
1.0
102
RTVSPost2010PropOp52
 70
     0
102
RTVSPost2010Prop53
 90
        2
102
RTVSPost2010PropOp53
 70
     1
102
RTVSPost2010Prop54
  1
strokes_ogs.tif
102
RTVSPost2010PropOp54
 70
     1
102
RTVSPost2010Prop55
280
     0
102
RTVSPost2010PropOp55
 70
     1
102
RTVSPost2010Prop56
140
1.0
102
RTVSPost2010PropOp56
 70
     1
102
RTVSPost2010Prop57
140
1.0
102
RTVSPost2010PropOp57
 70
     1
102
RTVSPropertyOp0
 70
     1
102
RTVSPropertyOp1
 70
     1
102
RTVSPropertyOp2
 70
     1
102
RTVSPropertyOp3
 70
     1
102
RTVSPropertyOp4
 70
     1
102
RTVSPropertyOp5
 70
     1
102
RTVSPropertyOp6
 70
     1
102
RTVSPropertyOp7
 70
     1
102
RTVSPropertyOp8
 70
     1
102
RTVSPropertyOp9
 70
     1
102
RTVSPropertyOp10
 70
     1
102
RTVSPropertyOp11
 70
     1
102
RTVSPropertyOp12
 70
     1
102
RTVSPropertyOp13
 70
     1
102
RTVSPropertyOp14
 70
     1
102
RTVSPropertyOp15
 70
     1
102
RTVSPropertyOp16
 70
     1
102
RTVSPropertyOp17
 70
     1
102
RTVSPropertyOp18
 70
     1
102
RTVSPropertyOp19
 70
     1
102
RTVSPropertyOp20
 70
     1
102
RTVSPropertyOp21
 70
     1
102
RTVSPropertyOp22
 70
     1
102
RTVSPropertyOp23
 70
     1
102
RTVSPropertyOp24
 70
     1
102
RTVSPropertyOp25
 70
     1
102
RTVSPropertyOp26
 70
     1
102
RTVSPropertyOp27
 70
     1
102
RTVSPropertyOp28
 70
     1
102
RTVSPropertyOp29
 70
     1
102
RTVSPropertyOp30
 70
     1
102
RTVSPropertyOp31
 70
     1
102
RTVSPropertyOp32
 70
     1
102
RTVSPropertyOp33
 70
     1
102
RTVSPropertyOp34
 70
     1
102
RTVSPropertyOp35
 70
     1
102
RTVSPropertyOp36
 70
     1
102
RTVSPropertyOp37
 70
     1
102
RTVSPropertyOp38
 70
     1
102
RTVSPropertyOp39
 70
     1
102
RTVSPropertyOp40
 70
     1
102
RTVSPropertyOp41
 70
     1
102
RTVSPropertyOp42
 70
     1
102
RTVSPropertyOp43
 70
     1
102
RTVSPropertyOp44
 70
     1
102
RTVSPropertyOp45
 70
     1
102
RTVSPropertyOp46
 70
     1
102
RTVSPropertyOp47
 70
     1
102
RTVSPropertyOp48
 70
     1
102
RTVSPropertyOp49
 70
     1
102
RTVSPropertyOp50
 70
     1
102
RTVSPropertyOp51
 70
     0
102
RTVSPropertyOp52
 70
     0
102
RTVSPropertyOp53
 70
     1
102
RTVSPropertyOp54
 70
     1
102
RTVSPropertyOp55
 70
     1
102
RTVSPropertyOp56
 70
     1
102
RTVSPropertyOp57
 70
     1
102
RTVSPropertyOp58
 70
     1
102
RTVSPropertyOp59
 70
     1
102
RTVSPropertyOp60
 70
     1
102
RTVSPropertyOp61
 70
     1
102
RTVSPropertyOp62
 70
     1
  0
XRECORD
  5
3D2B
102
{ACAD_REACTORS
330
3D2A
102
}
330
3D2A
100
AcDbXrecord
280
     1
102
RTVSPost2010Prop28
280
     0
102
RTVSPost2010PropOp28
 70
     1
102
RTVSPost2010Prop29
280
     1
102
RTVSPost2010PropOp29
 70
     1
102
RTVSPost2010Prop30
280
     1
102
RTVSPost2010PropOp30
 70
     1
102
RTVSPost2010Prop31
280
     0
102
RTVSPost2010PropOp31
 70
     1
102
RTVSPost2010Prop32
280
     0
102
RTVSPost2010PropOp32
 70
     1
102
RTVSPost2010Prop33
280
     0
102
RTVSPost2010PropOp33
 70
     1
102
RTVSPost2010Prop34
280
     0
102
RTVSPost2010PropOp34
 70
     1
102
RTVSPost2010Prop35
280
     0
102
RTVSPost2010PropOp35
 70
     1
102
RTVSPost2010Prop36
280
     0
102
RTVSPost2010PropOp36
 70
     1
102
RTVSPost2010Prop37
 90
       50
102
RTVSPost2010PropOp37
 70
     1
102
RTVSPost2010Prop38
140
0.0
102
RTVSPost2010PropOp38
 70
     1
102
RTVSPost2010Prop39
140
1.0
102
RTVSPost2010PropOp39
 70
     1
102
RTVSPost2010Prop40
 90
        0
102
RTVSPost2010PropOp40
 70
     1
102
RTVSPost2010Prop41ColorIndex
 90
       18
102
RTVSPost2010Prop41ColorRGB
 90
        0
102
RTVSPost2010PropOp41
 70
     1
102
RTVSPost2010Prop42
 90
       50
102
RTVSPost2010PropOp42
 70
     1
102
RTVSPost2010Prop43
 90
        3
102
RTVSPost2010PropOp43
 70
     1
102
RTVSPost2010Prop44ColorIndex
 90
        5
102
RTVSPost2010Prop44ColorRGB
 90
      255
102
RTVSPost2010PropOp44
 70
     1
102
RTVSPost2010Prop45
280
     0
102
RTVSPost2010PropOp45
 70
     1
102
RTVSPost2010Prop46
 90
       50
102
RTVSPost2010PropOp46
 70
     1
102
RTVSPost2010Prop47
 90
       50
102
RTVSPost2010PropOp47
 70
     1
102
RTVSPost2010Prop48
 90
       50
102
RTVSPost2010PropOp48
 70
     1
102
RTVSPost2010Prop49
280
     0
102
RTVSPost2010PropOp49
 70
     1
102
RTVSPost2010Prop50
 90
       50
102
RTVSPost2010PropOp50
 70
     1
102
RTVSPost2010Prop51ColorIndex
 90
      256
102
RTVSPost2010Prop51ColorRGB
 90
-16777216
102
RTVSPost2010PropOp51
 70
     0
102
RTVSPost2010Prop52
140
1.0
102
RTVSPost2010PropOp52
 70
     0
102
RTVSPost2010Prop53
 90
        2
102
RTVSPost2010PropOp53
 70
     1
102
RTVSPost2010Prop54
  1
strokes_ogs.tif
102
RTVSPost2010PropOp54
 70
     1
102
RTVSPost2010Prop55
280
     0
102
RTVSPost2010PropOp55
 70
     1
102
RTVSPost2010Prop56
140
1.0
102
RTVSPost2010PropOp56
 70
     1
102
RTVSPost2010Prop57
140
1.0
102
RTVSPost2010PropOp57
 70
     1
102
RTVSPropertyOp0
 70
     1
102
RTVSPropertyOp1
 70
     1
102
RTVSPropertyOp2
 70
     1
102
RTVSPropertyOp3
 70
     1
102
RTVSPropertyOp4
 70
     1
102
RTVSPropertyOp5
 70
     1
102
RTVSPropertyOp6
 70
     1
102
RTVSPropertyOp7
 70
     1
102
RTVSPropertyOp8
 70
     1
102
RTVSPropertyOp9
 70
     1
102
RTVSPropertyOp10
 70
     1
102
RTVSPropertyOp11
 70
     1
102
RTVSPropertyOp12
 70
     1
102
RTVSPropertyOp13
 70
     1
102
RTVSPropertyOp14
 70
     1
102
RTVSPropertyOp15
 70
     1
102
RTVSPropertyOp16
 70
     1
102
RTVSPropertyOp17
 70
     1
102
RTVSPropertyOp18
 70
     1
102
RTVSPropertyOp19
 70
     1
102
RTVSPropertyOp20
 70
     1
102
RTVSPropertyOp21
 70
     1
102
RTVSPropertyOp22
 70
     1
102
RTVSPropertyOp23
 70
     1
102
RTVSPropertyOp24
 70
     1
102
RTVSPropertyOp25
 70
     1
102
RTVSPropertyOp26
 70
     1
102
RTVSPropertyOp27
 70
     1
102
RTVSPropertyOp28
 70
     1
102
RTVSPropertyOp29
 70
     1
102
RTVSPropertyOp30
 70
     1
102
RTVSPropertyOp31
 70
     1
102
RTVSPropertyOp32
 70
     1
102
RTVSPropertyOp33
 70
     1
102
RTVSPropertyOp34
 70
     1
102
RTVSPropertyOp35
 70
     1
102
RTVSPropertyOp36
 70
     1
102
RTVSPropertyOp37
 70
     1
102
RTVSPropertyOp38
 70
     1
102
RTVSPropertyOp39
 70
     1
102
RTVSPropertyOp40
 70
     1
102
RTVSPropertyOp41
 70
     1
102
RTVSPropertyOp42
 70
     1
102
RTVSPropertyOp43
 70
     1
102
RTVSPropertyOp44
 70
     1
102
RTVSPropertyOp45
 70
     1
102
RTVSPropertyOp46
 70
     1
102
RTVSPropertyOp47
 70
     1
102
RTVSPropertyOp48
 70
     1
102
RTVSPropertyOp49
 70
     1
102
RTVSPropertyOp50
 70
     1
102
RTVSPropertyOp51
 70
     0
102
RTVSPropertyOp52
 70
     0
102
RTVSPropertyOp53
 70
     1
102
RTVSPropertyOp54
 70
     1
102
RTVSPropertyOp55
 70
     1
102
RTVSPropertyOp56
 70
     1
102
RTVSPropertyOp57
 70
     1
102
RTVSPropertyOp58
 70
     1
102
RTVSPropertyOp59
 70
     1
102
RTVSPropertyOp60
 70
     1
102
RTVSPropertyOp61
 70
     1
102
RTVSPropertyOp62
 70
     1
  0
XRECORD
  5
3D2D
102
{ACAD_REACTORS
330
3D2C
102
}
330
3D2C
100
AcDbXrecord
280
     1
102
RTVSPost2010Prop28
280
     0
102
RTVSPost2010PropOp28
 70
     1
102
RTVSPost2010Prop29
280
     1
102
RTVSPost2010PropOp29
 70
     1
102
RTVSPost2010Prop30
280
     1
102
RTVSPost2010PropOp30
 70
     1
102
RTVSPost2010Prop31
280
     0
102
RTVSPost2010PropOp31
 70
     1
102
RTVSPost2010Prop32
280
     0
102
RTVSPost2010PropOp32
 70
     1
102
RTVSPost2010Prop33
280
     0
102
RTVSPost2010PropOp33
 70
     1
102
RTVSPost2010Prop34
280
     0
102
RTVSPost2010PropOp34
 70
     1
102
RTVSPost2010Prop35
280
     0
102
RTVSPost2010PropOp35
 70
     1
102
RTVSPost2010Prop36
280
     0
102
RTVSPost2010PropOp36
 70
     1
102
RTVSPost2010Prop37
 90
       50
102
RTVSPost2010PropOp37
 70
     1
102
RTVSPost2010Prop38
140
0.0
102
RTVSPost2010PropOp38
 70
     1
102
RTVSPost2010Prop39
140
1.0
102
RTVSPost2010PropOp39
 70
     1
102
RTVSPost2010Prop40
 90
        0
102
RTVSPost2010PropOp40
 70
     1
102
RTVSPost2010Prop41ColorIndex
 90
       18
102
RTVSPost2010Prop41ColorRGB
 90
        0
102
RTVSPost2010PropOp41
 70
     1
102
RTVSPost2010Prop42
 90
       50
102
RTVSPost2010PropOp42
 70
     1
102
RTVSPost2010Prop43
 90
        3
102
RTVSPost2010PropOp43
 70
     1
102
RTVSPost2010Prop44ColorIndex
 90
        5
102
RTVSPost2010Prop44ColorRGB
 90
      255
102
RTVSPost2010PropOp44
 70
     1
102
RTVSPost2010Prop45
280
     0
102
RTVSPost2010PropOp45
 70
     1
102
RTVSPost2010Prop46
 90
       50
102
RTVSPost2010PropOp46
 70
     1
102
RTVSPost2010Prop47
 90
       50
102
RTVSPost2010PropOp47
 70
     1
102
RTVSPost2010Prop48
 90
       50
102
RTVSPost2010PropOp48
 70
     1
102
RTVSPost2010Prop49
280
     0
102
RTVSPost2010PropOp49
 70
     1
102
RTVSPost2010Prop50
 90
       50
102
RTVSPost2010PropOp50
 70
     1
102
RTVSPost2010Prop51ColorIndex
 90
      256
102
RTVSPost2010Prop51ColorRGB
 90
-16777216
102
RTVSPost2010PropOp51
 70
     0
102
RTVSPost2010Prop52
140
1.0
102
RTVSPost2010PropOp52
 70
     0
102
RTVSPost2010Prop53
 90
        2
102
RTVSPost2010PropOp53
 70
     1
102
RTVSPost2010Prop54
  1
strokes_ogs.tif
102
RTVSPost2010PropOp54
 70
     1
102
RTVSPost2010Prop55
280
     0
102
RTVSPost2010PropOp55
 70
     1
102
RTVSPost2010Prop56
140
1.0
102
RTVSPost2010PropOp56
 70
     1
102
RTVSPost2010Prop57
140
1.0
102
RTVSPost2010PropOp57
 70
     1
102
RTVSPropertyOp0
 70
     1
102
RTVSPropertyOp1
 70
     1
102
RTVSPropertyOp2
 70
     1
102
RTVSPropertyOp3
 70
     1
102
RTVSPropertyOp4
 70
     1
102
RTVSPropertyOp5
 70
     1
102
RTVSPropertyOp6
 70
     1
102
RTVSPropertyOp7
 70
     1
102
RTVSPropertyOp8
 70
     1
102
RTVSPropertyOp9
 70
     1
102
RTVSPropertyOp10
 70
     1
102
RTVSPropertyOp11
 70
     1
102
RTVSPropertyOp12
 70
     1
102
RTVSPropertyOp13
 70
     1
102
RTVSPropertyOp14
 70
     1
102
RTVSPropertyOp15
 70
     1
102
RTVSPropertyOp16
 70
     1
102
RTVSPropertyOp17
 70
     1
102
RTVSPropertyOp18
 70
     1
102
RTVSPropertyOp19
 70
     1
102
RTVSPropertyOp20
 70
     1
102
RTVSPropertyOp21
 70
     1
102
RTVSPropertyOp22
 70
     1
102
RTVSPropertyOp23
 70
     1
102
RTVSPropertyOp24
 70
     1
102
RTVSPropertyOp25
 70
     1
102
RTVSPropertyOp26
 70
     1
102
RTVSPropertyOp27
 70
     1
102
RTVSPropertyOp28
 70
     1
102
RTVSPropertyOp29
 70
     1
102
RTVSPropertyOp30
 70
     1
102
RTVSPropertyOp31
 70
     1
102
RTVSPropertyOp32
 70
     1
102
RTVSPropertyOp33
 70
     1
102
RTVSPropertyOp34
 70
     1
102
RTVSPropertyOp35
 70
     1
102
RTVSPropertyOp36
 70
     1
102
RTVSPropertyOp37
 70
     1
102
RTVSPropertyOp38
 70
     1
102
RTVSPropertyOp39
 70
     1
102
RTVSPropertyOp40
 70
     1
102
RTVSPropertyOp41
 70
     1
102
RTVSPropertyOp42
 70
     1
102
RTVSPropertyOp43
 70
     1
102
RTVSPropertyOp44
 70
     1
102
RTVSPropertyOp45
 70
     1
102
RTVSPropertyOp46
 70
     1
102
RTVSPropertyOp47
 70
     1
102
RTVSPropertyOp48
 70
     1
102
RTVSPropertyOp49
 70
     1
102
RTVSPropertyOp50
 70
     1
102
RTVSPropertyOp51
 70
     0
102
RTVSPropertyOp52
 70
     0
102
RTVSPropertyOp53
 70
     1
102
RTVSPropertyOp54
 70
     1
102
RTVSPropertyOp55
 70
     1
102
RTVSPropertyOp56
 70
     1
102
RTVSPropertyOp57
 70
     1
102
RTVSPropertyOp58
 70
     1
102
RTVSPropertyOp59
 70
     1
102
RTVSPropertyOp60
 70
     1
102
RTVSPropertyOp61
 70
     1
102
RTVSPropertyOp62
 70
     1
  0
XRECORD
  5
3D35
102
{ACAD_REACTORS
330
3D34
102
}
330
3D34
100
AcDbXrecord
280
     1
102
RTVSPost2010Prop28
280
     0
102
RTVSPost2010PropOp28
 70
     1
102
RTVSPost2010Prop29
280
     1
102
RTVSPost2010PropOp29
 70
     1
102
RTVSPost2010Prop30
280
     1
102
RTVSPost2010PropOp30
 70
     1
102
RTVSPost2010Prop31
280
     0
102
RTVSPost2010PropOp31
 70
     1
102
RTVSPost2010Prop32
280
     0
102
RTVSPost2010PropOp32
 70
     1
102
RTVSPost2010Prop33
280
     0
102
RTVSPost2010PropOp33
 70
     1
102
RTVSPost2010Prop34
280
     0
102
RTVSPost2010PropOp34
 70
     1
102
RTVSPost2010Prop35
280
     0
102
RTVSPost2010PropOp35
 70
     1
102
RTVSPost2010Prop36
280
     0
102
RTVSPost2010PropOp36
 70
     1
102
RTVSPost2010Prop37
 90
       50
102
RTVSPost2010PropOp37
 70
     1
102
RTVSPost2010Prop38
140
0.0
102
RTVSPost2010PropOp38
 70
     1
102
RTVSPost2010Prop39
140
1.0
102
RTVSPost2010PropOp39
 70
     1
102
RTVSPost2010Prop40
 90
        0
102
RTVSPost2010PropOp40
 70
     1
102
RTVSPost2010Prop41ColorIndex
 90
       18
102
RTVSPost2010Prop41ColorRGB
 90
        0
102
RTVSPost2010PropOp41
 70
     1
102
RTVSPost2010Prop42
 90
       50
102
RTVSPost2010PropOp42
 70
     1
102
RTVSPost2010Prop43
 90
        3
102
RTVSPost2010PropOp43
 70
     1
102
RTVSPost2010Prop44ColorIndex
 90
        5
102
RTVSPost2010Prop44ColorRGB
 90
      255
102
RTVSPost2010PropOp44
 70
     1
102
RTVSPost2010Prop45
280
     0
102
RTVSPost2010PropOp45
 70
     1
102
RTVSPost2010Prop46
 90
       50
102
RTVSPost2010PropOp46
 70
     1
102
RTVSPost2010Prop47
 90
       50
102
RTVSPost2010PropOp47
 70
     1
102
RTVSPost2010Prop48
 90
       50
102
RTVSPost2010PropOp48
 70
     1
102
RTVSPost2010Prop49
280
     0
102
RTVSPost2010PropOp49
 70
     1
102
RTVSPost2010Prop50
 90
       50
102
RTVSPost2010PropOp50
 70
     1
102
RTVSPost2010Prop51ColorIndex
 90
      256
102
RTVSPost2010Prop51ColorRGB
 90
-16777216
102
RTVSPost2010PropOp51
 70
     0
102
RTVSPost2010Prop52
140
1.0
102
RTVSPost2010PropOp52
 70
     0
102
RTVSPost2010Prop53
 90
        2
102
RTVSPost2010PropOp53
 70
     1
102
RTVSPost2010Prop54
  1
strokes_ogs.tif
102
RTVSPost2010PropOp54
 70
     1
102
RTVSPost2010Prop55
280
     0
102
RTVSPost2010PropOp55
 70
     1
102
RTVSPost2010Prop56
140
1.0
102
RTVSPost2010PropOp56
 70
     1
102
RTVSPost2010Prop57
140
1.0
102
RTVSPost2010PropOp57
 70
     1
102
RTVSPropertyOp0
 70
     1
102
RTVSPropertyOp1
 70
     1
102
RTVSPropertyOp2
 70
     1
102
RTVSPropertyOp3
 70
     1
102
RTVSPropertyOp4
 70
     1
102
RTVSPropertyOp5
 70
     1
102
RTVSPropertyOp6
 70
     1
102
RTVSPropertyOp7
 70
     1
102
RTVSPropertyOp8
 70
     1
102
RTVSPropertyOp9
 70
     1
102
RTVSPropertyOp10
 70
     1
102
RTVSPropertyOp11
 70
     1
102
RTVSPropertyOp12
 70
     1
102
RTVSPropertyOp13
 70
     1
102
RTVSPropertyOp14
 70
     1
102
RTVSPropertyOp15
 70
     1
102
RTVSPropertyOp16
 70
     1
102
RTVSPropertyOp17
 70
     1
102
RTVSPropertyOp18
 70
     1
102
RTVSPropertyOp19
 70
     1
102
RTVSPropertyOp20
 70
     1
102
RTVSPropertyOp21
 70
     1
102
RTVSPropertyOp22
 70
     1
102
RTVSPropertyOp23
 70
     1
102
RTVSPropertyOp24
 70
     1
102
RTVSPropertyOp25
 70
     1
102
RTVSPropertyOp26
 70
     1
102
RTVSPropertyOp27
 70
     1
102
RTVSPropertyOp28
 70
     1
102
RTVSPropertyOp29
 70
     1
102
RTVSPropertyOp30
 70
     1
102
RTVSPropertyOp31
 70
     1
102
RTVSPropertyOp32
 70
     1
102
RTVSPropertyOp33
 70
     1
102
RTVSPropertyOp34
 70
     1
102
RTVSPropertyOp35
 70
     1
102
RTVSPropertyOp36
 70
     1
102
RTVSPropertyOp37
 70
     1
102
RTVSPropertyOp38
 70
     1
102
RTVSPropertyOp39
 70
     1
102
RTVSPropertyOp40
 70
     1
102
RTVSPropertyOp41
 70
     1
102
RTVSPropertyOp42
 70
     1
102
RTVSPropertyOp43
 70
     1
102
RTVSPropertyOp44
 70
     1
102
RTVSPropertyOp45
 70
     1
102
RTVSPropertyOp46
 70
     1
102
RTVSPropertyOp47
 70
     1
102
RTVSPropertyOp48
 70
     1
102
RTVSPropertyOp49
 70
     1
102
RTVSPropertyOp50
 70
     1
102
RTVSPropertyOp51
 70
     0
102
RTVSPropertyOp52
 70
     0
102
RTVSPropertyOp53
 70
     1
102
RTVSPropertyOp54
 70
     1
102
RTVSPropertyOp55
 70
     1
102
RTVSPropertyOp56
 70
     1
102
RTVSPropertyOp57
 70
     1
102
RTVSPropertyOp58
 70
     1
102
RTVSPropertyOp59
 70
     1
102
RTVSPropertyOp60
 70
     1
102
RTVSPropertyOp61
 70
     1
102
RTVSPropertyOp62
 70
     1
  0
XRECORD
  5
3D51
102
{ACAD_REACTORS
330
3D50
102
}
330
3D50
100
AcDbXrecord
280
     1
102
RTVSPost2010Prop28
280
     0
102
RTVSPost2010PropOp28
 70
     1
102
RTVSPost2010Prop29
280
     1
102
RTVSPost2010PropOp29
 70
     1
102
RTVSPost2010Prop30
280
     1
102
RTVSPost2010PropOp30
 70
     1
102
RTVSPost2010Prop31
280
     0
102
RTVSPost2010PropOp31
 70
     1
102
RTVSPost2010Prop32
280
     0
102
RTVSPost2010PropOp32
 70
     1
102
RTVSPost2010Prop33
280
     0
102
RTVSPost2010PropOp33
 70
     1
102
RTVSPost2010Prop34
280
     0
102
RTVSPost2010PropOp34
 70
     1
102
RTVSPost2010Prop35
280
     0
102
RTVSPost2010PropOp35
 70
     1
102
RTVSPost2010Prop36
280
     0
102
RTVSPost2010PropOp36
 70
     1
102
RTVSPost2010Prop37
 90
       50
102
RTVSPost2010PropOp37
 70
     0
102
RTVSPost2010Prop38
140
0.0
102
RTVSPost2010PropOp38
 70
     0
102
RTVSPost2010Prop39
140
1.0
102
RTVSPost2010PropOp39
 70
     0
102
RTVSPost2010Prop40
 90
        0
102
RTVSPost2010PropOp40
 70
     0
102
RTVSPost2010Prop41ColorIndex
 90
       18
102
RTVSPost2010Prop41ColorRGB
 90
        0
102
RTVSPost2010PropOp41
 70
     0
102
RTVSPost2010Prop42
 90
       50
102
RTVSPost2010PropOp42
 70
     0
102
RTVSPost2010Prop43
 90
        3
102
RTVSPost2010PropOp43
 70
     0
102
RTVSPost2010Prop44ColorIndex
 90
        5
102
RTVSPost2010Prop44ColorRGB
 90
      255
102
RTVSPost2010PropOp44
 70
     0
102
RTVSPost2010Prop45
280
     0
102
RTVSPost2010PropOp45
 70
     1
102
RTVSPost2010Prop46
 90
       50
102
RTVSPost2010PropOp46
 70
     0
102
RTVSPost2010Prop47
 90
       50
102
RTVSPost2010PropOp47
 70
     0
102
RTVSPost2010Prop48
 90
       50
102
RTVSPost2010PropOp48
 70
     0
102
RTVSPost2010Prop49
280
     0
102
RTVSPost2010PropOp49
 70
     1
102
RTVSPost2010Prop50
 90
       50
102
RTVSPost2010PropOp50
 70
     0
102
RTVSPost2010Prop51ColorIndex
 90
      256
102
RTVSPost2010Prop51ColorRGB
 90
-16777216
102
RTVSPost2010PropOp51
 70
     0
102
RTVSPost2010Prop52
140
1.0
102
RTVSPost2010PropOp52
 70
     0
102
RTVSPost2010Prop53
 90
        2
102
RTVSPost2010PropOp53
 70
     0
102
RTVSPost2010Prop54
  1
strokes_ogs.tif
102
RTVSPost2010PropOp54
 70
     0
102
RTVSPost2010Prop55
280
     0
102
RTVSPost2010PropOp55
 70
     1
102
RTVSPost2010Prop56
140
1.0
102
RTVSPost2010PropOp56
 70
     0
102
RTVSPost2010Prop57
140
1.0
102
RTVSPost2010PropOp57
 70
     0
102
RTVSPropertyOp0
 70
     0
102
RTVSPropertyOp1
 70
     0
102
RTVSPropertyOp2
 70
     0
102
RTVSPropertyOp3
 70
     0
102
RTVSPropertyOp4
 70
     0
102
RTVSPropertyOp5
 70
     0
102
RTVSPropertyOp6
 70
     0
102
RTVSPropertyOp7
 70
     0
102
RTVSPropertyOp8
 70
     0
102
RTVSPropertyOp9
 70
     0
102
RTVSPropertyOp10
 70
     0
102
RTVSPropertyOp11
 70
     0
102
RTVSPropertyOp12
 70
     0
102
RTVSPropertyOp13
 70
     0
102
RTVSPropertyOp14
 70
     2
102
RTVSPropertyOp15
 70
     0
102
RTVSPropertyOp16
 70
     0
102
RTVSPropertyOp17
 70
     0
102
RTVSPropertyOp18
 70
     0
102
RTVSPropertyOp19
 70
     0
102
RTVSPropertyOp20
 70
     0
102
RTVSPropertyOp21
 70
     0
102
RTVSPropertyOp22
 70
     0
102
RTVSPropertyOp23
 70
     0
102
RTVSPropertyOp24
 70
     0
102
RTVSPropertyOp25
 70
     0
102
RTVSPropertyOp26
 70
     0
102
RTVSPropertyOp27
 70
     0
102
RTVSPropertyOp28
 70
     1
102
RTVSPropertyOp29
 70
     1
102
RTVSPropertyOp30
 70
     1
102
RTVSPropertyOp31
 70
     1
102
RTVSPropertyOp32
 70
     1
102
RTVSPropertyOp33
 70
     1
102
RTVSPropertyOp34
 70
     1
102
RTVSPropertyOp35
 70
     1
102
RTVSPropertyOp36
 70
     1
102
RTVSPropertyOp37
 70
     0
102
RTVSPropertyOp38
 70
     0
102
RTVSPropertyOp39
 70
     0
102
RTVSPropertyOp40
 70
     0
102
RTVSPropertyOp41
 70
     0
102
RTVSPropertyOp42
 70
     0
102
RTVSPropertyOp43
 70
     0
102
RTVSPropertyOp44
 70
     0
102
RTVSPropertyOp45
 70
     1
102
RTVSPropertyOp46
 70
     0
102
RTVSPropertyOp47
 70
     0
102
RTVSPropertyOp48
 70
     0
102
RTVSPropertyOp49
 70
     1
102
RTVSPropertyOp50
 70
     0
102
RTVSPropertyOp51
 70
     0
102
RTVSPropertyOp52
 70
     0
102
RTVSPropertyOp53
 70
     0
102
RTVSPropertyOp54
 70
     0
102
RTVSPropertyOp55
 70
     1
102
RTVSPropertyOp56
 70
     0
102
RTVSPropertyOp57
 70
     0
102
RTVSPropertyOp58
 70
     0
102
RTVSPropertyOp59
 70
     0
102
RTVSPropertyOp60
 70
     0
102
RTVSPropertyOp61
 70
     0
102
RTVSPropertyOp62
 70
     0
  0
XRECORD
  5
3D41
102
{ACAD_REACTORS
330
3D40
102
}
330
3D40
100
AcDbXrecord
280
     1
102
RTVSPost2010Prop28
280
     0
102
RTVSPost2010PropOp28
 70
     1
102
RTVSPost2010Prop29
280
     1
102
RTVSPost2010PropOp29
 70
     1
102
RTVSPost2010Prop30
280
     1
102
RTVSPost2010PropOp30
 70
     1
102
RTVSPost2010Prop31
280
     0
102
RTVSPost2010PropOp31
 70
     1
102
RTVSPost2010Prop32
280
     0
102
RTVSPost2010PropOp32
 70
     1
102
RTVSPost2010Prop33
280
     0
102
RTVSPost2010PropOp33
 70
     1
102
RTVSPost2010Prop34
280
     0
102
RTVSPost2010PropOp34
 70
     1
102
RTVSPost2010Prop35
280
     0
102
RTVSPost2010PropOp35
 70
     1
102
RTVSPost2010Prop36
280
     0
102
RTVSPost2010PropOp36
 70
     1
102
RTVSPost2010Prop37
 90
       50
102
RTVSPost2010PropOp37
 70
     1
102
RTVSPost2010Prop38
140
0.0
102
RTVSPost2010PropOp38
 70
     1
102
RTVSPost2010Prop39
140
1.0
102
RTVSPost2010PropOp39
 70
     1
102
RTVSPost2010Prop40
 90
        0
102
RTVSPost2010PropOp40
 70
     1
102
RTVSPost2010Prop41ColorIndex
 90
       18
102
RTVSPost2010Prop41ColorRGB
 90
        0
102
RTVSPost2010PropOp41
 70
     1
102
RTVSPost2010Prop42
 90
       50
102
RTVSPost2010PropOp42
 70
     1
102
RTVSPost2010Prop43
 90
        3
102
RTVSPost2010PropOp43
 70
     1
102
RTVSPost2010Prop44ColorIndex
 90
        5
102
RTVSPost2010Prop44ColorRGB
 90
      255
102
RTVSPost2010PropOp44
 70
     1
102
RTVSPost2010Prop45
280
     0
102
RTVSPost2010PropOp45
 70
     1
102
RTVSPost2010Prop46
 90
       50
102
RTVSPost2010PropOp46
 70
     1
102
RTVSPost2010Prop47
 90
       50
102
RTVSPost2010PropOp47
 70
     1
102
RTVSPost2010Prop48
 90
       50
102
RTVSPost2010PropOp48
 70
     1
102
RTVSPost2010Prop49
280
     0
102
RTVSPost2010PropOp49
 70
     1
102
RTVSPost2010Prop50
 90
       50
102
RTVSPost2010PropOp50
 70
     1
102
RTVSPost2010Prop51ColorIndex
 90
      256
102
RTVSPost2010Prop51ColorRGB
 90
-16777216
102
RTVSPost2010PropOp51
 70
     0
102
RTVSPost2010Prop52
140
1.0
102
RTVSPost2010PropOp52
 70
     0
102
RTVSPost2010Prop53
 90
        2
102
RTVSPost2010PropOp53
 70
     1
102
RTVSPost2010Prop54
  1
strokes_ogs.tif
102
RTVSPost2010PropOp54
 70
     1
102
RTVSPost2010Prop55
280
     0
102
RTVSPost2010PropOp55
 70
     1
102
RTVSPost2010Prop56
140
1.0
102
RTVSPost2010PropOp56
 70
     1
102
RTVSPost2010Prop57
140
1.0
102
RTVSPost2010PropOp57
 70
     1
102
RTVSPropertyOp0
 70
     1
102
RTVSPropertyOp1
 70
     1
102
RTVSPropertyOp2
 70
     1
102
RTVSPropertyOp3
 70
     1
102
RTVSPropertyOp4
 70
     1
102
RTVSPropertyOp5
 70
     1
102
RTVSPropertyOp6
 70
     1
102
RTVSPropertyOp7
 70
     1
102
RTVSPropertyOp8
 70
     1
102
RTVSPropertyOp9
 70
     1
102
RTVSPropertyOp10
 70
     1
102
RTVSPropertyOp11
 70
     1
102
RTVSPropertyOp12
 70
     1
102
RTVSPropertyOp13
 70
     1
102
RTVSPropertyOp14
 70
     1
102
RTVSPropertyOp15
 70
     1
102
RTVSPropertyOp16
 70
     1
102
RTVSPropertyOp17
 70
     1
102
RTVSPropertyOp18
 70
     1
102
RTVSPropertyOp19
 70
     1
102
RTVSPropertyOp20
 70
     1
102
RTVSPropertyOp21
 70
     1
102
RTVSPropertyOp22
 70
     1
102
RTVSPropertyOp23
 70
     1
102
RTVSPropertyOp24
 70
     1
102
RTVSPropertyOp25
 70
     1
102
RTVSPropertyOp26
 70
     1
102
RTVSPropertyOp27
 70
     1
102
RTVSPropertyOp28
 70
     1
102
RTVSPropertyOp29
 70
     1
102
RTVSPropertyOp30
 70
     1
102
RTVSPropertyOp31
 70
     1
102
RTVSPropertyOp32
 70
     1
102
RTVSPropertyOp33
 70
     1
102
RTVSPropertyOp34
 70
     1
102
RTVSPropertyOp35
 70
     1
102
RTVSPropertyOp36
 70
     1
102
RTVSPropertyOp37
 70
     1
102
RTVSPropertyOp38
 70
     1
102
RTVSPropertyOp39
 70
     1
102
RTVSPropertyOp40
 70
     1
102
RTVSPropertyOp41
 70
     1
102
RTVSPropertyOp42
 70
     1
102
RTVSPropertyOp43
 70
     1
102
RTVSPropertyOp44
 70
     1
102
RTVSPropertyOp45
 70
     1
102
RTVSPropertyOp46
 70
     1
102
RTVSPropertyOp47
 70
     1
102
RTVSPropertyOp48
 70
     1
102
RTVSPropertyOp49
 70
     1
102
RTVSPropertyOp50
 70
     1
102
RTVSPropertyOp51
 70
     0
102
RTVSPropertyOp52
 70
     0
102
RTVSPropertyOp53
 70
     1
102
RTVSPropertyOp54
 70
     1
102
RTVSPropertyOp55
 70
     1
102
RTVSPropertyOp56
 70
     1
102
RTVSPropertyOp57
 70
     1
102
RTVSPropertyOp58
 70
     1
102
RTVSPropertyOp59
 70
     1
102
RTVSPropertyOp60
 70
     1
102
RTVSPropertyOp61
 70
     1
102
RTVSPropertyOp62
 70
     1
  0
XRECORD
  5
3D53
102
{ACAD_REACTORS
330
3D52
102
}
330
3D52
100
AcDbXrecord
280
     1
102
RTVSPost2010Prop28
280
     0
102
RTVSPost2010PropOp28
 70
     1
102
RTVSPost2010Prop29
280
     1
102
RTVSPost2010PropOp29
 70
     1
102
RTVSPost2010Prop30
280
     1
102
RTVSPost2010PropOp30
 70
     1
102
RTVSPost2010Prop31
280
     0
102
RTVSPost2010PropOp31
 70
     1
102
RTVSPost2010Prop32
280
     0
102
RTVSPost2010PropOp32
 70
     1
102
RTVSPost2010Prop33
280
     0
102
RTVSPost2010PropOp33
 70
     1
102
RTVSPost2010Prop34
280
     0
102
RTVSPost2010PropOp34
 70
     1
102
RTVSPost2010Prop35
280
     0
102
RTVSPost2010PropOp35
 70
     1
102
RTVSPost2010Prop36
280
     0
102
RTVSPost2010PropOp36
 70
     1
102
RTVSPost2010Prop37
 90
       50
102
RTVSPost2010PropOp37
 70
     0
102
RTVSPost2010Prop38
140
0.0
102
RTVSPost2010PropOp38
 70
     0
102
RTVSPost2010Prop39
140
1.0
102
RTVSPost2010PropOp39
 70
     0
102
RTVSPost2010Prop40
 90
        0
102
RTVSPost2010PropOp40
 70
     0
102
RTVSPost2010Prop41ColorIndex
 90
       18
102
RTVSPost2010Prop41ColorRGB
 90
        0
102
RTVSPost2010PropOp41
 70
     0
102
RTVSPost2010Prop42
 90
       50
102
RTVSPost2010PropOp42
 70
     0
102
RTVSPost2010Prop43
 90
        3
102
RTVSPost2010PropOp43
 70
     0
102
RTVSPost2010Prop44ColorIndex
 90
        5
102
RTVSPost2010Prop44ColorRGB
 90
      255
102
RTVSPost2010PropOp44
 70
     0
102
RTVSPost2010Prop45
280
     0
102
RTVSPost2010PropOp45
 70
     1
102
RTVSPost2010Prop46
 90
       50
102
RTVSPost2010PropOp46
 70
     0
102
RTVSPost2010Prop47
 90
       50
102
RTVSPost2010PropOp47
 70
     0
102
RTVSPost2010Prop48
 90
       50
102
RTVSPost2010PropOp48
 70
     0
102
RTVSPost2010Prop49
280
     0
102
RTVSPost2010PropOp49
 70
     1
102
RTVSPost2010Prop50
 90
       50
102
RTVSPost2010PropOp50
 70
     0
102
RTVSPost2010Prop51ColorIndex
 90
      256
102
RTVSPost2010Prop51ColorRGB
 90
-16777216
102
RTVSPost2010PropOp51
 70
     0
102
RTVSPost2010Prop52
140
1.0
102
RTVSPost2010PropOp52
 70
     0
102
RTVSPost2010Prop53
 90
        2
102
RTVSPost2010PropOp53
 70
     0
102
RTVSPost2010Prop54
  1
strokes_ogs.tif
102
RTVSPost2010PropOp54
 70
     0
102
RTVSPost2010Prop55
280
     0
102
RTVSPost2010PropOp55
 70
     1
102
RTVSPost2010Prop56
140
1.0
102
RTVSPost2010PropOp56
 70
     0
102
RTVSPost2010Prop57
140
1.0
102
RTVSPost2010PropOp57
 70
     0
102
RTVSPropertyOp0
 70
     0
102
RTVSPropertyOp1
 70
     0
102
RTVSPropertyOp2
 70
     0
102
RTVSPropertyOp3
 70
     0
102
RTVSPropertyOp4
 70
     0
102
RTVSPropertyOp5
 70
     0
102
RTVSPropertyOp6
 70
     0
102
RTVSPropertyOp7
 70
     0
102
RTVSPropertyOp8
 70
     0
102
RTVSPropertyOp9
 70
     0
102
RTVSPropertyOp10
 70
     0
102
RTVSPropertyOp11
 70
     0
102
RTVSPropertyOp12
 70
     0
102
RTVSPropertyOp13
 70
     0
102
RTVSPropertyOp14
 70
     2
102
RTVSPropertyOp15
 70
     0
102
RTVSPropertyOp16
 70
     0
102
RTVSPropertyOp17
 70
     0
102
RTVSPropertyOp18
 70
     0
102
RTVSPropertyOp19
 70
     0
102
RTVSPropertyOp20
 70
     0
102
RTVSPropertyOp21
 70
     0
102
RTVSPropertyOp22
 70
     0
102
RTVSPropertyOp23
 70
     0
102
RTVSPropertyOp24
 70
     0
102
RTVSPropertyOp25
 70
     0
102
RTVSPropertyOp26
 70
     0
102
RTVSPropertyOp27
 70
     0
102
RTVSPropertyOp28
 70
     1
102
RTVSPropertyOp29
 70
     1
102
RTVSPropertyOp30
 70
     1
102
RTVSPropertyOp31
 70
     1
102
RTVSPropertyOp32
 70
     1
102
RTVSPropertyOp33
 70
     1
102
RTVSPropertyOp34
 70
     1
102
RTVSPropertyOp35
 70
     1
102
RTVSPropertyOp36
 70
     1
102
RTVSPropertyOp37
 70
     0
102
RTVSPropertyOp38
 70
     0
102
RTVSPropertyOp39
 70
     0
102
RTVSPropertyOp40
 70
     0
102
RTVSPropertyOp41
 70
     0
102
RTVSPropertyOp42
 70
     0
102
RTVSPropertyOp43
 70
     0
102
RTVSPropertyOp44
 70
     0
102
RTVSPropertyOp45
 70
     1
102
RTVSPropertyOp46
 70
     0
102
RTVSPropertyOp47
 70
     0
102
RTVSPropertyOp48
 70
     0
102
RTVSPropertyOp49
 70
     1
102
RTVSPropertyOp50
 70
     0
102
RTVSPropertyOp51
 70
     0
102
RTVSPropertyOp52
 70
     0
102
RTVSPropertyOp53
 70
     0
102
RTVSPropertyOp54
 70
     0
102
RTVSPropertyOp55
 70
     1
102
RTVSPropertyOp56
 70
     0
102
RTVSPropertyOp57
 70
     0
102
RTVSPropertyOp58
 70
     0
102
RTVSPropertyOp59
 70
     0
102
RTVSPropertyOp60
 70
     0
102
RTVSPropertyOp61
 70
     0
102
RTVSPropertyOp62
 70
     0
  0
XRECORD
  5
3D39
102
{ACAD_REACTORS
330
3D38
102
}
330
3D38
100
AcDbXrecord
280
     1
102
RTVSPost2010Prop28
280
     0
102
RTVSPost2010PropOp28
 70
     1
102
RTVSPost2010Prop29
280
     1
102
RTVSPost2010PropOp29
 70
     1
102
RTVSPost2010Prop30
280
     1
102
RTVSPost2010PropOp30
 70
     1
102
RTVSPost2010Prop31
280
     0
102
RTVSPost2010PropOp31
 70
     1
102
RTVSPost2010Prop32
280
     0
102
RTVSPost2010PropOp32
 70
     1
102
RTVSPost2010Prop33
280
     0
102
RTVSPost2010PropOp33
 70
     1
102
RTVSPost2010Prop34
280
     0
102
RTVSPost2010PropOp34
 70
     1
102
RTVSPost2010Prop35
280
     0
102
RTVSPost2010PropOp35
 70
     1
102
RTVSPost2010Prop36
280
     0
102
RTVSPost2010PropOp36
 70
     1
102
RTVSPost2010Prop37
 90
       50
102
RTVSPost2010PropOp37
 70
     1
102
RTVSPost2010Prop38
140
0.0
102
RTVSPost2010PropOp38
 70
     1
102
RTVSPost2010Prop39
140
1.0
102
RTVSPost2010PropOp39
 70
     1
102
RTVSPost2010Prop40
 90
        0
102
RTVSPost2010PropOp40
 70
     1
102
RTVSPost2010Prop41ColorIndex
 90
       18
102
RTVSPost2010Prop41ColorRGB
 90
        0
102
RTVSPost2010PropOp41
 70
     1
102
RTVSPost2010Prop42
 90
       50
102
RTVSPost2010PropOp42
 70
     1
102
RTVSPost2010Prop43
 90
        3
102
RTVSPost2010PropOp43
 70
     1
102
RTVSPost2010Prop44ColorIndex
 90
        5
102
RTVSPost2010Prop44ColorRGB
 90
      255
102
RTVSPost2010PropOp44
 70
     1
102
RTVSPost2010Prop45
280
     0
102
RTVSPost2010PropOp45
 70
     1
102
RTVSPost2010Prop46
 90
       50
102
RTVSPost2010PropOp46
 70
     1
102
RTVSPost2010Prop47
 90
       50
102
RTVSPost2010PropOp47
 70
     1
102
RTVSPost2010Prop48
 90
       50
102
RTVSPost2010PropOp48
 70
     1
102
RTVSPost2010Prop49
280
     0
102
RTVSPost2010PropOp49
 70
     1
102
RTVSPost2010Prop50
 90
       50
102
RTVSPost2010PropOp50
 70
     1
102
RTVSPost2010Prop51ColorIndex
 90
      256
102
RTVSPost2010Prop51ColorRGB
 90
-16777216
102
RTVSPost2010PropOp51
 70
     0
102
RTVSPost2010Prop52
140
1.0
102
RTVSPost2010PropOp52
 70
     0
102
RTVSPost2010Prop53
 90
        2
102
RTVSPost2010PropOp53
 70
     1
102
RTVSPost2010Prop54
  1
strokes_ogs.tif
102
RTVSPost2010PropOp54
 70
     1
102
RTVSPost2010Prop55
280
     0
102
RTVSPost2010PropOp55
 70
     1
102
RTVSPost2010Prop56
140
1.0
102
RTVSPost2010PropOp56
 70
     1
102
RTVSPost2010Prop57
140
1.0
102
RTVSPost2010PropOp57
 70
     1
102
RTVSPropertyOp0
 70
     1
102
RTVSPropertyOp1
 70
     1
102
RTVSPropertyOp2
 70
     1
102
RTVSPropertyOp3
 70
     1
102
RTVSPropertyOp4
 70
     1
102
RTVSPropertyOp5
 70
     1
102
RTVSPropertyOp6
 70
     1
102
RTVSPropertyOp7
 70
     1
102
RTVSPropertyOp8
 70
     1
102
RTVSPropertyOp9
 70
     1
102
RTVSPropertyOp10
 70
     1
102
RTVSPropertyOp11
 70
     1
102
RTVSPropertyOp12
 70
     1
102
RTVSPropertyOp13
 70
     1
102
RTVSPropertyOp14
 70
     1
102
RTVSPropertyOp15
 70
     1
102
RTVSPropertyOp16
 70
     1
102
RTVSPropertyOp17
 70
     1
102
RTVSPropertyOp18
 70
     1
102
RTVSPropertyOp19
 70
     1
102
RTVSPropertyOp20
 70
     1
102
RTVSPropertyOp21
 70
     1
102
RTVSPropertyOp22
 70
     1
102
RTVSPropertyOp23
 70
     1
102
RTVSPropertyOp24
 70
     1
102
RTVSPropertyOp25
 70
     1
102
RTVSPropertyOp26
 70
     1
102
RTVSPropertyOp27
 70
     1
102
RTVSPropertyOp28
 70
     1
102
RTVSPropertyOp29
 70
     1
102
RTVSPropertyOp30
 70
     1
102
RTVSPropertyOp31
 70
     1
102
RTVSPropertyOp32
 70
     1
102
RTVSPropertyOp33
 70
     1
102
RTVSPropertyOp34
 70
     1
102
RTVSPropertyOp35
 70
     1
102
RTVSPropertyOp36
 70
     1
102
RTVSPropertyOp37
 70
     1
102
RTVSPropertyOp38
 70
     1
102
RTVSPropertyOp39
 70
     1
102
RTVSPropertyOp40
 70
     1
102
RTVSPropertyOp41
 70
     1
102
RTVSPropertyOp42
 70
     1
102
RTVSPropertyOp43
 70
     1
102
RTVSPropertyOp44
 70
     1
102
RTVSPropertyOp45
 70
     1
102
RTVSPropertyOp46
 70
     1
102
RTVSPropertyOp47
 70
     1
102
RTVSPropertyOp48
 70
     1
102
RTVSPropertyOp49
 70
     1
102
RTVSPropertyOp50
 70
     1
102
RTVSPropertyOp51
 70
     0
102
RTVSPropertyOp52
 70
     0
102
RTVSPropertyOp53
 70
     1
102
RTVSPropertyOp54
 70
     1
102
RTVSPropertyOp55
 70
     1
102
RTVSPropertyOp56
 70
     1
102
RTVSPropertyOp57
 70
     1
102
RTVSPropertyOp58
 70
     1
102
RTVSPropertyOp59
 70
     1
102
RTVSPropertyOp60
 70
     1
102
RTVSPropertyOp61
 70
     1
102
RTVSPropertyOp62
 70
     1
  0
XRECORD
  5
3D4F
102
{ACAD_REACTORS
330
3D4E
102
}
330
3D4E
100
AcDbXrecord
280
     1
102
RTVSPost2010Prop28
280
     0
102
RTVSPost2010PropOp28
 70
     1
102
RTVSPost2010Prop29
280
     1
102
RTVSPost2010PropOp29
 70
     1
102
RTVSPost2010Prop30
280
     1
102
RTVSPost2010PropOp30
 70
     1
102
RTVSPost2010Prop31
280
     0
102
RTVSPost2010PropOp31
 70
     1
102
RTVSPost2010Prop32
280
     0
102
RTVSPost2010PropOp32
 70
     1
102
RTVSPost2010Prop33
280
     0
102
RTVSPost2010PropOp33
 70
     1
102
RTVSPost2010Prop34
280
     0
102
RTVSPost2010PropOp34
 70
     1
102
RTVSPost2010Prop35
280
     0
102
RTVSPost2010PropOp35
 70
     1
102
RTVSPost2010Prop36
280
     0
102
RTVSPost2010PropOp36
 70
     1
102
RTVSPost2010Prop37
 90
       50
102
RTVSPost2010PropOp37
 70
     1
102
RTVSPost2010Prop38
140
0.0
102
RTVSPost2010PropOp38
 70
     1
102
RTVSPost2010Prop39
140
1.0
102
RTVSPost2010PropOp39
 70
     1
102
RTVSPost2010Prop40
 90
        0
102
RTVSPost2010PropOp40
 70
     1
102
RTVSPost2010Prop41ColorIndex
 90
       18
102
RTVSPost2010Prop41ColorRGB
 90
        0
102
RTVSPost2010PropOp41
 70
     1
102
RTVSPost2010Prop42
 90
       50
102
RTVSPost2010PropOp42
 70
     1
102
RTVSPost2010Prop43
 90
        3
102
RTVSPost2010PropOp43
 70
     1
102
RTVSPost2010Prop44ColorIndex
 90
        5
102
RTVSPost2010Prop44ColorRGB
 90
      255
102
RTVSPost2010PropOp44
 70
     1
102
RTVSPost2010Prop45
280
     0
102
RTVSPost2010PropOp45
 70
     1
102
RTVSPost2010Prop46
 90
       50
102
RTVSPost2010PropOp46
 70
     1
102
RTVSPost2010Prop47
 90
       50
102
RTVSPost2010PropOp47
 70
     1
102
RTVSPost2010Prop48
 90
       50
102
RTVSPost2010PropOp48
 70
     1
102
RTVSPost2010Prop49
280
     0
102
RTVSPost2010PropOp49
 70
     1
102
RTVSPost2010Prop50
 90
       50
102
RTVSPost2010PropOp50
 70
     1
102
RTVSPost2010Prop51ColorIndex
 90
      256
102
RTVSPost2010Prop51ColorRGB
 90
-16777216
102
RTVSPost2010PropOp51
 70
     0
102
RTVSPost2010Prop52
140
1.0
102
RTVSPost2010PropOp52
 70
     0
102
RTVSPost2010Prop53
 90
        2
102
RTVSPost2010PropOp53
 70
     1
102
RTVSPost2010Prop54
  1
strokes_ogs.tif
102
RTVSPost2010PropOp54
 70
     1
102
RTVSPost2010Prop55
280
     0
102
RTVSPost2010PropOp55
 70
     1
102
RTVSPost2010Prop56
140
1.0
102
RTVSPost2010PropOp56
 70
     1
102
RTVSPost2010Prop57
140
1.0
102
RTVSPost2010PropOp57
 70
     1
102
RTVSPropertyOp0
 70
     1
102
RTVSPropertyOp1
 70
     1
102
RTVSPropertyOp2
 70
     1
102
RTVSPropertyOp3
 70
     1
102
RTVSPropertyOp4
 70
     1
102
RTVSPropertyOp5
 70
     1
102
RTVSPropertyOp6
 70
     1
102
RTVSPropertyOp7
 70
     1
102
RTVSPropertyOp8
 70
     1
102
RTVSPropertyOp9
 70
     1
102
RTVSPropertyOp10
 70
     1
102
RTVSPropertyOp11
 70
     1
102
RTVSPropertyOp12
 70
     1
102
RTVSPropertyOp13
 70
     1
102
RTVSPropertyOp14
 70
     1
102
RTVSPropertyOp15
 70
     1
102
RTVSPropertyOp16
 70
     1
102
RTVSPropertyOp17
 70
     1
102
RTVSPropertyOp18
 70
     1
102
RTVSPropertyOp19
 70
     1
102
RTVSPropertyOp20
 70
     1
102
RTVSPropertyOp21
 70
     1
102
RTVSPropertyOp22
 70
     1
102
RTVSPropertyOp23
 70
     1
102
RTVSPropertyOp24
 70
     1
102
RTVSPropertyOp25
 70
     1
102
RTVSPropertyOp26
 70
     1
102
RTVSPropertyOp27
 70
     1
102
RTVSPropertyOp28
 70
     1
102
RTVSPropertyOp29
 70
     1
102
RTVSPropertyOp30
 70
     1
102
RTVSPropertyOp31
 70
     1
102
RTVSPropertyOp32
 70
     1
102
RTVSPropertyOp33
 70
     1
102
RTVSPropertyOp34
 70
     1
102
RTVSPropertyOp35
 70
     1
102
RTVSPropertyOp36
 70
     1
102
RTVSPropertyOp37
 70
     1
102
RTVSPropertyOp38
 70
     1
102
RTVSPropertyOp39
 70
     1
102
RTVSPropertyOp40
 70
     1
102
RTVSPropertyOp41
 70
     1
102
RTVSPropertyOp42
 70
     1
102
RTVSPropertyOp43
 70
     1
102
RTVSPropertyOp44
 70
     1
102
RTVSPropertyOp45
 70
     1
102
RTVSPropertyOp46
 70
     1
102
RTVSPropertyOp47
 70
     1
102
RTVSPropertyOp48
 70
     1
102
RTVSPropertyOp49
 70
     1
102
RTVSPropertyOp50
 70
     1
102
RTVSPropertyOp51
 70
     0
102
RTVSPropertyOp52
 70
     0
102
RTVSPropertyOp53
 70
     1
102
RTVSPropertyOp54
 70
     1
102
RTVSPropertyOp55
 70
     1
102
RTVSPropertyOp56
 70
     1
102
RTVSPropertyOp57
 70
     1
102
RTVSPropertyOp58
 70
     1
102
RTVSPropertyOp59
 70
     1
102
RTVSPropertyOp60
 70
     1
102
RTVSPropertyOp61
 70
     1
102
RTVSPropertyOp62
 70
     1
  0
XRECORD
  5
3D4D
102
{ACAD_REACTORS
330
3D4C
102
}
330
3D4C
100
AcDbXrecord
280
     1
102
RTVSPost2010Prop28
280
     0
102
RTVSPost2010PropOp28
 70
     1
102
RTVSPost2010Prop29
280
     1
102
RTVSPost2010PropOp29
 70
     1
102
RTVSPost2010Prop30
280
     1
102
RTVSPost2010PropOp30
 70
     1
102
RTVSPost2010Prop31
280
     0
102
RTVSPost2010PropOp31
 70
     1
102
RTVSPost2010Prop32
280
     0
102
RTVSPost2010PropOp32
 70
     1
102
RTVSPost2010Prop33
280
     0
102
RTVSPost2010PropOp33
 70
     1
102
RTVSPost2010Prop34
280
     0
102
RTVSPost2010PropOp34
 70
     1
102
RTVSPost2010Prop35
280
     0
102
RTVSPost2010PropOp35
 70
     1
102
RTVSPost2010Prop36
280
     0
102
RTVSPost2010PropOp36
 70
     1
102
RTVSPost2010Prop37
 90
       50
102
RTVSPost2010PropOp37
 70
     1
102
RTVSPost2010Prop38
140
0.0
102
RTVSPost2010PropOp38
 70
     1
102
RTVSPost2010Prop39
140
1.0
102
RTVSPost2010PropOp39
 70
     1
102
RTVSPost2010Prop40
 90
        0
102
RTVSPost2010PropOp40
 70
     1
102
RTVSPost2010Prop41ColorIndex
 90
       18
102
RTVSPost2010Prop41ColorRGB
 90
        0
102
RTVSPost2010PropOp41
 70
     1
102
RTVSPost2010Prop42
 90
       50
102
RTVSPost2010PropOp42
 70
     1
102
RTVSPost2010Prop43
 90
        3
102
RTVSPost2010PropOp43
 70
     1
102
RTVSPost2010Prop44ColorIndex
 90
        5
102
RTVSPost2010Prop44ColorRGB
 90
      255
102
RTVSPost2010PropOp44
 70
     1
102
RTVSPost2010Prop45
280
     0
102
RTVSPost2010PropOp45
 70
     1
102
RTVSPost2010Prop46
 90
       50
102
RTVSPost2010PropOp46
 70
     1
102
RTVSPost2010Prop47
 90
       50
102
RTVSPost2010PropOp47
 70
     1
102
RTVSPost2010Prop48
 90
       50
102
RTVSPost2010PropOp48
 70
     1
102
RTVSPost2010Prop49
280
     0
102
RTVSPost2010PropOp49
 70
     1
102
RTVSPost2010Prop50
 90
       50
102
RTVSPost2010PropOp50
 70
     1
102
RTVSPost2010Prop51ColorIndex
 90
      256
102
RTVSPost2010Prop51ColorRGB
 90
-16777216
102
RTVSPost2010PropOp51
 70
     0
102
RTVSPost2010Prop52
140
1.0
102
RTVSPost2010PropOp52
 70
     0
102
RTVSPost2010Prop53
 90
        2
102
RTVSPost2010PropOp53
 70
     1
102
RTVSPost2010Prop54
  1
strokes_ogs.tif
102
RTVSPost2010PropOp54
 70
     1
102
RTVSPost2010Prop55
280
     0
102
RTVSPost2010PropOp55
 70
     1
102
RTVSPost2010Prop56
140
1.0
102
RTVSPost2010PropOp56
 70
     1
102
RTVSPost2010Prop57
140
1.0
102
RTVSPost2010PropOp57
 70
     1
102
RTVSPropertyOp0
 70
     1
102
RTVSPropertyOp1
 70
     1
102
RTVSPropertyOp2
 70
     1
102
RTVSPropertyOp3
 70
     1
102
RTVSPropertyOp4
 70
     1
102
RTVSPropertyOp5
 70
     1
102
RTVSPropertyOp6
 70
     1
102
RTVSPropertyOp7
 70
     1
102
RTVSPropertyOp8
 70
     1
102
RTVSPropertyOp9
 70
     1
102
RTVSPropertyOp10
 70
     1
102
RTVSPropertyOp11
 70
     1
102
RTVSPropertyOp12
 70
     1
102
RTVSPropertyOp13
 70
     1
102
RTVSPropertyOp14
 70
     1
102
RTVSPropertyOp15
 70
     1
102
RTVSPropertyOp16
 70
     1
102
RTVSPropertyOp17
 70
     1
102
RTVSPropertyOp18
 70
     1
102
RTVSPropertyOp19
 70
     1
102
RTVSPropertyOp20
 70
     1
102
RTVSPropertyOp21
 70
     1
102
RTVSPropertyOp22
 70
     1
102
RTVSPropertyOp23
 70
     1
102
RTVSPropertyOp24
 70
     1
102
RTVSPropertyOp25
 70
     1
102
RTVSPropertyOp26
 70
     1
102
RTVSPropertyOp27
 70
     1
102
RTVSPropertyOp28
 70
     1
102
RTVSPropertyOp29
 70
     1
102
RTVSPropertyOp30
 70
     1
102
RTVSPropertyOp31
 70
     1
102
RTVSPropertyOp32
 70
     1
102
RTVSPropertyOp33
 70
     1
102
RTVSPropertyOp34
 70
     1
102
RTVSPropertyOp35
 70
     1
102
RTVSPropertyOp36
 70
     1
102
RTVSPropertyOp37
 70
     1
102
RTVSPropertyOp38
 70
     1
102
RTVSPropertyOp39
 70
     1
102
RTVSPropertyOp40
 70
     1
102
RTVSPropertyOp41
 70
     1
102
RTVSPropertyOp42
 70
     1
102
RTVSPropertyOp43
 70
     1
102
RTVSPropertyOp44
 70
     1
102
RTVSPropertyOp45
 70
     1
102
RTVSPropertyOp46
 70
     1
102
RTVSPropertyOp47
 70
     1
102
RTVSPropertyOp48
 70
     1
102
RTVSPropertyOp49
 70
     1
102
RTVSPropertyOp50
 70
     1
102
RTVSPropertyOp51
 70
     0
102
RTVSPropertyOp52
 70
     0
102
RTVSPropertyOp53
 70
     1
102
RTVSPropertyOp54
 70
     1
102
RTVSPropertyOp55
 70
     1
102
RTVSPropertyOp56
 70
     1
102
RTVSPropertyOp57
 70
     1
102
RTVSPropertyOp58
 70
     1
102
RTVSPropertyOp59
 70
     1
102
RTVSPropertyOp60
 70
     1
102
RTVSPropertyOp61
 70
     1
102
RTVSPropertyOp62
 70
     1
  0
XRECORD
  5
3D47
102
{ACAD_REACTORS
330
3D46
102
}
330
3D46
100
AcDbXrecord
280
     1
102
RTVSPost2010Prop28
280
     0
102
RTVSPost2010PropOp28
 70
     1
102
RTVSPost2010Prop29
280
     1
102
RTVSPost2010PropOp29
 70
     1
102
RTVSPost2010Prop30
280
     1
102
RTVSPost2010PropOp30
 70
     1
102
RTVSPost2010Prop31
280
     0
102
RTVSPost2010PropOp31
 70
     1
102
RTVSPost2010Prop32
280
     0
102
RTVSPost2010PropOp32
 70
     1
102
RTVSPost2010Prop33
280
     0
102
RTVSPost2010PropOp33
 70
     1
102
RTVSPost2010Prop34
280
     0
102
RTVSPost2010PropOp34
 70
     1
102
RTVSPost2010Prop35
280
     0
102
RTVSPost2010PropOp35
 70
     1
102
RTVSPost2010Prop36
280
     0
102
RTVSPost2010PropOp36
 70
     1
102
RTVSPost2010Prop37
 90
       50
102
RTVSPost2010PropOp37
 70
     1
102
RTVSPost2010Prop38
140
0.0
102
RTVSPost2010PropOp38
 70
     1
102
RTVSPost2010Prop39
140
1.0
102
RTVSPost2010PropOp39
 70
     1
102
RTVSPost2010Prop40
 90
        0
102
RTVSPost2010PropOp40
 70
     1
102
RTVSPost2010Prop41ColorIndex
 90
       18
102
RTVSPost2010Prop41ColorRGB
 90
        0
102
RTVSPost2010PropOp41
 70
     1
102
RTVSPost2010Prop42
 90
       50
102
RTVSPost2010PropOp42
 70
     1
102
RTVSPost2010Prop43
 90
        3
102
RTVSPost2010PropOp43
 70
     1
102
RTVSPost2010Prop44ColorIndex
 90
        5
102
RTVSPost2010Prop44ColorRGB
 90
      255
102
RTVSPost2010PropOp44
 70
     1
102
RTVSPost2010Prop45
280
     0
102
RTVSPost2010PropOp45
 70
     1
102
RTVSPost2010Prop46
 90
       50
102
RTVSPost2010PropOp46
 70
     1
102
RTVSPost2010Prop47
 90
       50
102
RTVSPost2010PropOp47
 70
     1
102
RTVSPost2010Prop48
 90
       50
102
RTVSPost2010PropOp48
 70
     1
102
RTVSPost2010Prop49
280
     0
102
RTVSPost2010PropOp49
 70
     1
102
RTVSPost2010Prop50
 90
       50
102
RTVSPost2010PropOp50
 70
     1
102
RTVSPost2010Prop51ColorIndex
 90
      256
102
RTVSPost2010Prop51ColorRGB
 90
-16777216
102
RTVSPost2010PropOp51
 70
     0
102
RTVSPost2010Prop52
140
1.0
102
RTVSPost2010PropOp52
 70
     0
102
RTVSPost2010Prop53
 90
        2
102
RTVSPost2010PropOp53
 70
     1
102
RTVSPost2010Prop54
  1
strokes_ogs.tif
102
RTVSPost2010PropOp54
 70
     1
102
RTVSPost2010Prop55
280
     0
102
RTVSPost2010PropOp55
 70
     1
102
RTVSPost2010Prop56
140
1.0
102
RTVSPost2010PropOp56
 70
     1
102
RTVSPost2010Prop57
140
1.0
102
RTVSPost2010PropOp57
 70
     1
102
RTVSPropertyOp0
 70
     1
102
RTVSPropertyOp1
 70
     1
102
RTVSPropertyOp2
 70
     1
102
RTVSPropertyOp3
 70
     1
102
RTVSPropertyOp4
 70
     1
102
RTVSPropertyOp5
 70
     1
102
RTVSPropertyOp6
 70
     1
102
RTVSPropertyOp7
 70
     1
102
RTVSPropertyOp8
 70
     1
102
RTVSPropertyOp9
 70
     1
102
RTVSPropertyOp10
 70
     1
102
RTVSPropertyOp11
 70
     1
102
RTVSPropertyOp12
 70
     1
102
RTVSPropertyOp13
 70
     1
102
RTVSPropertyOp14
 70
     1
102
RTVSPropertyOp15
 70
     1
102
RTVSPropertyOp16
 70
     1
102
RTVSPropertyOp17
 70
     1
102
RTVSPropertyOp18
 70
     1
102
RTVSPropertyOp19
 70
     1
102
RTVSPropertyOp20
 70
     1
102
RTVSPropertyOp21
 70
     1
102
RTVSPropertyOp22
 70
     1
102
RTVSPropertyOp23
 70
     1
102
RTVSPropertyOp24
 70
     1
102
RTVSPropertyOp25
 70
     1
102
RTVSPropertyOp26
 70
     1
102
RTVSPropertyOp27
 70
     1
102
RTVSPropertyOp28
 70
     1
102
RTVSPropertyOp29
 70
     1
102
RTVSPropertyOp30
 70
     1
102
RTVSPropertyOp31
 70
     1
102
RTVSPropertyOp32
 70
     1
102
RTVSPropertyOp33
 70
     1
102
RTVSPropertyOp34
 70
     1
102
RTVSPropertyOp35
 70
     1
102
RTVSPropertyOp36
 70
     1
102
RTVSPropertyOp37
 70
     1
102
RTVSPropertyOp38
 70
     1
102
RTVSPropertyOp39
 70
     1
102
RTVSPropertyOp40
 70
     1
102
RTVSPropertyOp41
 70
     1
102
RTVSPropertyOp42
 70
     1
102
RTVSPropertyOp43
 70
     1
102
RTVSPropertyOp44
 70
     1
102
RTVSPropertyOp45
 70
     1
102
RTVSPropertyOp46
 70
     1
102
RTVSPropertyOp47
 70
     1
102
RTVSPropertyOp48
 70
     1
102
RTVSPropertyOp49
 70
     1
102
RTVSPropertyOp50
 70
     1
102
RTVSPropertyOp51
 70
     0
102
RTVSPropertyOp52
 70
     0
102
RTVSPropertyOp53
 70
     1
102
RTVSPropertyOp54
 70
     1
102
RTVSPropertyOp55
 70
     1
102
RTVSPropertyOp56
 70
     1
102
RTVSPropertyOp57
 70
     1
102
RTVSPropertyOp58
 70
     1
102
RTVSPropertyOp59
 70
     1
102
RTVSPropertyOp60
 70
     1
102
RTVSPropertyOp61
 70
     1
102
RTVSPropertyOp62
 70
     1
  0
XRECORD
  5
3D49
102
{ACAD_REACTORS
330
3D48
102
}
330
3D48
100
AcDbXrecord
280
     1
102
RTVSPost2010Prop28
280
     0
102
RTVSPost2010PropOp28
 70
     1
102
RTVSPost2010Prop29
280
     1
102
RTVSPost2010PropOp29
 70
     1
102
RTVSPost2010Prop30
280
     1
102
RTVSPost2010PropOp30
 70
     1
102
RTVSPost2010Prop31
280
     0
102
RTVSPost2010PropOp31
 70
     1
102
RTVSPost2010Prop32
280
     0
102
RTVSPost2010PropOp32
 70
     1
102
RTVSPost2010Prop33
280
     0
102
RTVSPost2010PropOp33
 70
     1
102
RTVSPost2010Prop34
280
     0
102
RTVSPost2010PropOp34
 70
     1
102
RTVSPost2010Prop35
280
     0
102
RTVSPost2010PropOp35
 70
     1
102
RTVSPost2010Prop36
280
     0
102
RTVSPost2010PropOp36
 70
     1
102
RTVSPost2010Prop37
 90
       50
102
RTVSPost2010PropOp37
 70
     1
102
RTVSPost2010Prop38
140
0.0
102
RTVSPost2010PropOp38
 70
     1
102
RTVSPost2010Prop39
140
1.0
102
RTVSPost2010PropOp39
 70
     1
102
RTVSPost2010Prop40
 90
        0
102
RTVSPost2010PropOp40
 70
     1
102
RTVSPost2010Prop41ColorIndex
 90
       18
102
RTVSPost2010Prop41ColorRGB
 90
        0
102
RTVSPost2010PropOp41
 70
     1
102
RTVSPost2010Prop42
 90
       50
102
RTVSPost2010PropOp42
 70
     1
102
RTVSPost2010Prop43
 90
        3
102
RTVSPost2010PropOp43
 70
     1
102
RTVSPost2010Prop44ColorIndex
 90
        5
102
RTVSPost2010Prop44ColorRGB
 90
      255
102
RTVSPost2010PropOp44
 70
     1
102
RTVSPost2010Prop45
280
     0
102
RTVSPost2010PropOp45
 70
     1
102
RTVSPost2010Prop46
 90
       50
102
RTVSPost2010PropOp46
 70
     1
102
RTVSPost2010Prop47
 90
       50
102
RTVSPost2010PropOp47
 70
     1
102
RTVSPost2010Prop48
 90
       50
102
RTVSPost2010PropOp48
 70
     1
102
RTVSPost2010Prop49
280
     0
102
RTVSPost2010PropOp49
 70
     1
102
RTVSPost2010Prop50
 90
       50
102
RTVSPost2010PropOp50
 70
     1
102
RTVSPost2010Prop51ColorIndex
 90
      256
102
RTVSPost2010Prop51ColorRGB
 90
-16777216
102
RTVSPost2010PropOp51
 70
     0
102
RTVSPost2010Prop52
140
1.0
102
RTVSPost2010PropOp52
 70
     0
102
RTVSPost2010Prop53
 90
        2
102
RTVSPost2010PropOp53
 70
     1
102
RTVSPost2010Prop54
  1
strokes_ogs.tif
102
RTVSPost2010PropOp54
 70
     1
102
RTVSPost2010Prop55
280
     0
102
RTVSPost2010PropOp55
 70
     1
102
RTVSPost2010Prop56
140
1.0
102
RTVSPost2010PropOp56
 70
     1
102
RTVSPost2010Prop57
140
1.0
102
RTVSPost2010PropOp57
 70
     1
102
RTVSPropertyOp0
 70
     1
102
RTVSPropertyOp1
 70
     1
102
RTVSPropertyOp2
 70
     1
102
RTVSPropertyOp3
 70
     1
102
RTVSPropertyOp4
 70
     1
102
RTVSPropertyOp5
 70
     1
102
RTVSPropertyOp6
 70
     1
102
RTVSPropertyOp7
 70
     1
102
RTVSPropertyOp8
 70
     1
102
RTVSPropertyOp9
 70
     1
102
RTVSPropertyOp10
 70
     1
102
RTVSPropertyOp11
 70
     1
102
RTVSPropertyOp12
 70
     1
102
RTVSPropertyOp13
 70
     1
102
RTVSPropertyOp14
 70
     1
102
RTVSPropertyOp15
 70
     1
102
RTVSPropertyOp16
 70
     1
102
RTVSPropertyOp17
 70
     1
102
RTVSPropertyOp18
 70
     1
102
RTVSPropertyOp19
 70
     1
102
RTVSPropertyOp20
 70
     1
102
RTVSPropertyOp21
 70
     1
102
RTVSPropertyOp22
 70
     1
102
RTVSPropertyOp23
 70
     1
102
RTVSPropertyOp24
 70
     1
102
RTVSPropertyOp25
 70
     1
102
RTVSPropertyOp26
 70
     1
102
RTVSPropertyOp27
 70
     1
102
RTVSPropertyOp28
 70
     1
102
RTVSPropertyOp29
 70
     1
102
RTVSPropertyOp30
 70
     1
102
RTVSPropertyOp31
 70
     1
102
RTVSPropertyOp32
 70
     1
102
RTVSPropertyOp33
 70
     1
102
RTVSPropertyOp34
 70
     1
102
RTVSPropertyOp35
 70
     1
102
RTVSPropertyOp36
 70
     1
102
RTVSPropertyOp37
 70
     1
102
RTVSPropertyOp38
 70
     1
102
RTVSPropertyOp39
 70
     1
102
RTVSPropertyOp40
 70
     1
102
RTVSPropertyOp41
 70
     1
102
RTVSPropertyOp42
 70
     1
102
RTVSPropertyOp43
 70
     1
102
RTVSPropertyOp44
 70
     1
102
RTVSPropertyOp45
 70
     1
102
RTVSPropertyOp46
 70
     1
102
RTVSPropertyOp47
 70
     1
102
RTVSPropertyOp48
 70
     1
102
RTVSPropertyOp49
 70
     1
102
RTVSPropertyOp50
 70
     1
102
RTVSPropertyOp51
 70
     0
102
RTVSPropertyOp52
 70
     0
102
RTVSPropertyOp53
 70
     1
102
RTVSPropertyOp54
 70
     1
102
RTVSPropertyOp55
 70
     1
102
RTVSPropertyOp56
 70
     1
102
RTVSPropertyOp57
 70
     1
102
RTVSPropertyOp58
 70
     1
102
RTVSPropertyOp59
 70
     1
102
RTVSPropertyOp60
 70
     1
102
RTVSPropertyOp61
 70
     1
102
RTVSPropertyOp62
 70
     1
  0
XRECORD
  5
3D3F
102
{ACAD_REACTORS
330
3D3E
102
}
330
3D3E
100
AcDbXrecord
280
     1
102
RTVSPost2010Prop28
280
     0
102
RTVSPost2010PropOp28
 70
     1
102
RTVSPost2010Prop29
280
     1
102
RTVSPost2010PropOp29
 70
     1
102
RTVSPost2010Prop30
280
     1
102
RTVSPost2010PropOp30
 70
     1
102
RTVSPost2010Prop31
280
     0
102
RTVSPost2010PropOp31
 70
     1
102
RTVSPost2010Prop32
280
     0
102
RTVSPost2010PropOp32
 70
     1
102
RTVSPost2010Prop33
280
     0
102
RTVSPost2010PropOp33
 70
     1
102
RTVSPost2010Prop34
280
     0
102
RTVSPost2010PropOp34
 70
     1
102
RTVSPost2010Prop35
280
     0
102
RTVSPost2010PropOp35
 70
     1
102
RTVSPost2010Prop36
280
     0
102
RTVSPost2010PropOp36
 70
     1
102
RTVSPost2010Prop37
 90
       50
102
RTVSPost2010PropOp37
 70
     1
102
RTVSPost2010Prop38
140
0.0
102
RTVSPost2010PropOp38
 70
     1
102
RTVSPost2010Prop39
140
1.0
102
RTVSPost2010PropOp39
 70
     1
102
RTVSPost2010Prop40
 90
        0
102
RTVSPost2010PropOp40
 70
     1
102
RTVSPost2010Prop41ColorIndex
 90
       18
102
RTVSPost2010Prop41ColorRGB
 90
        0
102
RTVSPost2010PropOp41
 70
     1
102
RTVSPost2010Prop42
 90
       50
102
RTVSPost2010PropOp42
 70
     1
102
RTVSPost2010Prop43
 90
        3
102
RTVSPost2010PropOp43
 70
     1
102
RTVSPost2010Prop44ColorIndex
 90
        5
102
RTVSPost2010Prop44ColorRGB
 90
      255
102
RTVSPost2010PropOp44
 70
     1
102
RTVSPost2010Prop45
280
     0
102
RTVSPost2010PropOp45
 70
     1
102
RTVSPost2010Prop46
 90
       50
102
RTVSPost2010PropOp46
 70
     1
102
RTVSPost2010Prop47
 90
       50
102
RTVSPost2010PropOp47
 70
     1
102
RTVSPost2010Prop48
 90
       50
102
RTVSPost2010PropOp48
 70
     1
102
RTVSPost2010Prop49
280
     0
102
RTVSPost2010PropOp49
 70
     1
102
RTVSPost2010Prop50
 90
       50
102
RTVSPost2010PropOp50
 70
     1
102
RTVSPost2010Prop51ColorIndex
 90
      256
102
RTVSPost2010Prop51ColorRGB
 90
-16777216
102
RTVSPost2010PropOp51
 70
     0
102
RTVSPost2010Prop52
140
1.0
102
RTVSPost2010PropOp52
 70
     0
102
RTVSPost2010Prop53
 90
        2
102
RTVSPost2010PropOp53
 70
     1
102
RTVSPost2010Prop54
  1
strokes_ogs.tif
102
RTVSPost2010PropOp54
 70
     1
102
RTVSPost2010Prop55
280
     0
102
RTVSPost2010PropOp55
 70
     1
102
RTVSPost2010Prop56
140
1.0
102
RTVSPost2010PropOp56
 70
     1
102
RTVSPost2010Prop57
140
1.0
102
RTVSPost2010PropOp57
 70
     1
102
RTVSPropertyOp0
 70
     1
102
RTVSPropertyOp1
 70
     1
102
RTVSPropertyOp2
 70
     1
102
RTVSPropertyOp3
 70
     1
102
RTVSPropertyOp4
 70
     1
102
RTVSPropertyOp5
 70
     1
102
RTVSPropertyOp6
 70
     1
102
RTVSPropertyOp7
 70
     1
102
RTVSPropertyOp8
 70
     1
102
RTVSPropertyOp9
 70
     1
102
RTVSPropertyOp10
 70
     1
102
RTVSPropertyOp11
 70
     1
102
RTVSPropertyOp12
 70
     1
102
RTVSPropertyOp13
 70
     1
102
RTVSPropertyOp14
 70
     1
102
RTVSPropertyOp15
 70
     1
102
RTVSPropertyOp16
 70
     1
102
RTVSPropertyOp17
 70
     1
102
RTVSPropertyOp18
 70
     1
102
RTVSPropertyOp19
 70
     1
102
RTVSPropertyOp20
 70
     1
102
RTVSPropertyOp21
 70
     1
102
RTVSPropertyOp22
 70
     1
102
RTVSPropertyOp23
 70
     1
102
RTVSPropertyOp24
 70
     1
102
RTVSPropertyOp25
 70
     1
102
RTVSPropertyOp26
 70
     1
102
RTVSPropertyOp27
 70
     1
102
RTVSPropertyOp28
 70
     1
102
RTVSPropertyOp29
 70
     1
102
RTVSPropertyOp30
 70
     1
102
RTVSPropertyOp31
 70
     1
102
RTVSPropertyOp32
 70
     1
102
RTVSPropertyOp33
 70
     1
102
RTVSPropertyOp34
 70
     1
102
RTVSPropertyOp35
 70
     1
102
RTVSPropertyOp36
 70
     1
102
RTVSPropertyOp37
 70
     1
102
RTVSPropertyOp38
 70
     1
102
RTVSPropertyOp39
 70
     1
102
RTVSPropertyOp40
 70
     1
102
RTVSPropertyOp41
 70
     1
102
RTVSPropertyOp42
 70
     1
102
RTVSPropertyOp43
 70
     1
102
RTVSPropertyOp44
 70
     1
102
RTVSPropertyOp45
 70
     1
102
RTVSPropertyOp46
 70
     1
102
RTVSPropertyOp47
 70
     1
102
RTVSPropertyOp48
 70
     1
102
RTVSPropertyOp49
 70
     1
102
RTVSPropertyOp50
 70
     1
102
RTVSPropertyOp51
 70
     0
102
RTVSPropertyOp52
 70
     0
102
RTVSPropertyOp53
 70
     1
102
RTVSPropertyOp54
 70
     1
102
RTVSPropertyOp55
 70
     1
102
RTVSPropertyOp56
 70
     1
102
RTVSPropertyOp57
 70
     1
102
RTVSPropertyOp58
 70
     1
102
RTVSPropertyOp59
 70
     1
102
RTVSPropertyOp60
 70
     1
102
RTVSPropertyOp61
 70
     1
102
RTVSPropertyOp62
 70
     1
  0
XRECORD
  5
3D33
102
{ACAD_REACTORS
330
3D32
102
}
330
3D32
100
AcDbXrecord
280
     1
102
RTVSPost2010Prop28
280
     0
102
RTVSPost2010PropOp28
 70
     1
102
RTVSPost2010Prop29
280
     1
102
RTVSPost2010PropOp29
 70
     1
102
RTVSPost2010Prop30
280
     1
102
RTVSPost2010PropOp30
 70
     1
102
RTVSPost2010Prop31
280
     0
102
RTVSPost2010PropOp31
 70
     1
102
RTVSPost2010Prop32
280
     0
102
RTVSPost2010PropOp32
 70
     1
102
RTVSPost2010Prop33
280
     0
102
RTVSPost2010PropOp33
 70
     1
102
RTVSPost2010Prop34
280
     0
102
RTVSPost2010PropOp34
 70
     1
102
RTVSPost2010Prop35
280
     0
102
RTVSPost2010PropOp35
 70
     1
102
RTVSPost2010Prop36
280
     0
102
RTVSPost2010PropOp36
 70
     1
102
RTVSPost2010Prop37
 90
       50
102
RTVSPost2010PropOp37
 70
     1
102
RTVSPost2010Prop38
140
0.0
102
RTVSPost2010PropOp38
 70
     1
102
RTVSPost2010Prop39
140
1.0
102
RTVSPost2010PropOp39
 70
     1
102
RTVSPost2010Prop40
 90
        0
102
RTVSPost2010PropOp40
 70
     1
102
RTVSPost2010Prop41ColorIndex
 90
       18
102
RTVSPost2010Prop41ColorRGB
 90
        0
102
RTVSPost2010PropOp41
 70
     1
102
RTVSPost2010Prop42
 90
       50
102
RTVSPost2010PropOp42
 70
     1
102
RTVSPost2010Prop43
 90
        3
102
RTVSPost2010PropOp43
 70
     1
102
RTVSPost2010Prop44ColorIndex
 90
        5
102
RTVSPost2010Prop44ColorRGB
 90
      255
102
RTVSPost2010PropOp44
 70
     1
102
RTVSPost2010Prop45
280
     0
102
RTVSPost2010PropOp45
 70
     1
102
RTVSPost2010Prop46
 90
       50
102
RTVSPost2010PropOp46
 70
     1
102
RTVSPost2010Prop47
 90
       50
102
RTVSPost2010PropOp47
 70
     1
102
RTVSPost2010Prop48
 90
       50
102
RTVSPost2010PropOp48
 70
     1
102
RTVSPost2010Prop49
280
     0
102
RTVSPost2010PropOp49
 70
     1
102
RTVSPost2010Prop50
 90
       50
102
RTVSPost2010PropOp50
 70
     1
102
RTVSPost2010Prop51ColorIndex
 90
      256
102
RTVSPost2010Prop51ColorRGB
 90
-16777216
102
RTVSPost2010PropOp51
 70
     0
102
RTVSPost2010Prop52
140
1.0
102
RTVSPost2010PropOp52
 70
     0
102
RTVSPost2010Prop53
 90
        2
102
RTVSPost2010PropOp53
 70
     1
102
RTVSPost2010Prop54
  1
strokes_ogs.tif
102
RTVSPost2010PropOp54
 70
     1
102
RTVSPost2010Prop55
280
     0
102
RTVSPost2010PropOp55
 70
     1
102
RTVSPost2010Prop56
140
1.0
102
RTVSPost2010PropOp56
 70
     1
102
RTVSPost2010Prop57
140
1.0
102
RTVSPost2010PropOp57
 70
     1
102
RTVSPropertyOp0
 70
     1
102
RTVSPropertyOp1
 70
     1
102
RTVSPropertyOp2
 70
     1
102
RTVSPropertyOp3
 70
     1
102
RTVSPropertyOp4
 70
     1
102
RTVSPropertyOp5
 70
     1
102
RTVSPropertyOp6
 70
     1
102
RTVSPropertyOp7
 70
     1
102
RTVSPropertyOp8
 70
     1
102
RTVSPropertyOp9
 70
     1
102
RTVSPropertyOp10
 70
     1
102
RTVSPropertyOp11
 70
     1
102
RTVSPropertyOp12
 70
     1
102
RTVSPropertyOp13
 70
     1
102
RTVSPropertyOp14
 70
     1
102
RTVSPropertyOp15
 70
     1
102
RTVSPropertyOp16
 70
     1
102
RTVSPropertyOp17
 70
     1
102
RTVSPropertyOp18
 70
     1
102
RTVSPropertyOp19
 70
     1
102
RTVSPropertyOp20
 70
     1
102
RTVSPropertyOp21
 70
     1
102
RTVSPropertyOp22
 70
     1
102
RTVSPropertyOp23
 70
     1
102
RTVSPropertyOp24
 70
     1
102
RTVSPropertyOp25
 70
     1
102
RTVSPropertyOp26
 70
     1
102
RTVSPropertyOp27
 70
     1
102
RTVSPropertyOp28
 70
     1
102
RTVSPropertyOp29
 70
     1
102
RTVSPropertyOp30
 70
     1
102
RTVSPropertyOp31
 70
     1
102
RTVSPropertyOp32
 70
     1
102
RTVSPropertyOp33
 70
     1
102
RTVSPropertyOp34
 70
     1
102
RTVSPropertyOp35
 70
     1
102
RTVSPropertyOp36
 70
     1
102
RTVSPropertyOp37
 70
     1
102
RTVSPropertyOp38
 70
     1
102
RTVSPropertyOp39
 70
     1
102
RTVSPropertyOp40
 70
     1
102
RTVSPropertyOp41
 70
     1
102
RTVSPropertyOp42
 70
     1
102
RTVSPropertyOp43
 70
     1
102
RTVSPropertyOp44
 70
     1
102
RTVSPropertyOp45
 70
     1
102
RTVSPropertyOp46
 70
     1
102
RTVSPropertyOp47
 70
     1
102
RTVSPropertyOp48
 70
     1
102
RTVSPropertyOp49
 70
     1
102
RTVSPropertyOp50
 70
     1
102
RTVSPropertyOp51
 70
     0
102
RTVSPropertyOp52
 70
     0
102
RTVSPropertyOp53
 70
     1
102
RTVSPropertyOp54
 70
     1
102
RTVSPropertyOp55
 70
     1
102
RTVSPropertyOp56
 70
     1
102
RTVSPropertyOp57
 70
     1
102
RTVSPropertyOp58
 70
     1
102
RTVSPropertyOp59
 70
     1
102
RTVSPropertyOp60
 70
     1
102
RTVSPropertyOp61
 70
     1
102
RTVSPropertyOp62
 70
     1
  0
XRECORD
  5
3D4B
102
{ACAD_REACTORS
330
3D4A
102
}
330
3D4A
100
AcDbXrecord
280
     1
102
RTVSPost2010Prop28
280
     0
102
RTVSPost2010PropOp28
 70
     1
102
RTVSPost2010Prop29
280
     1
102
RTVSPost2010PropOp29
 70
     1
102
RTVSPost2010Prop30
280
     1
102
RTVSPost2010PropOp30
 70
     1
102
RTVSPost2010Prop31
280
     0
102
RTVSPost2010PropOp31
 70
     1
102
RTVSPost2010Prop32
280
     0
102
RTVSPost2010PropOp32
 70
     1
102
RTVSPost2010Prop33
280
     0
102
RTVSPost2010PropOp33
 70
     1
102
RTVSPost2010Prop34
280
     0
102
RTVSPost2010PropOp34
 70
     1
102
RTVSPost2010Prop35
280
     0
102
RTVSPost2010PropOp35
 70
     1
102
RTVSPost2010Prop36
280
     0
102
RTVSPost2010PropOp36
 70
     1
102
RTVSPost2010Prop37
 90
       50
102
RTVSPost2010PropOp37
 70
     1
102
RTVSPost2010Prop38
140
0.0
102
RTVSPost2010PropOp38
 70
     1
102
RTVSPost2010Prop39
140
1.0
102
RTVSPost2010PropOp39
 70
     1
102
RTVSPost2010Prop40
 90
        0
102
RTVSPost2010PropOp40
 70
     1
102
RTVSPost2010Prop41ColorIndex
 90
       18
102
RTVSPost2010Prop41ColorRGB
 90
        0
102
RTVSPost2010PropOp41
 70
     1
102
RTVSPost2010Prop42
 90
       50
102
RTVSPost2010PropOp42
 70
     1
102
RTVSPost2010Prop43
 90
        3
102
RTVSPost2010PropOp43
 70
     1
102
RTVSPost2010Prop44ColorIndex
 90
        5
102
RTVSPost2010Prop44ColorRGB
 90
      255
102
RTVSPost2010PropOp44
 70
     1
102
RTVSPost2010Prop45
280
     0
102
RTVSPost2010PropOp45
 70
     1
102
RTVSPost2010Prop46
 90
       50
102
RTVSPost2010PropOp46
 70
     1
102
RTVSPost2010Prop47
 90
       50
102
RTVSPost2010PropOp47
 70
     1
102
RTVSPost2010Prop48
 90
       50
102
RTVSPost2010PropOp48
 70
     1
102
RTVSPost2010Prop49
280
     0
102
RTVSPost2010PropOp49
 70
     1
102
RTVSPost2010Prop50
 90
       50
102
RTVSPost2010PropOp50
 70
     1
102
RTVSPost2010Prop51ColorIndex
 90
      256
102
RTVSPost2010Prop51ColorRGB
 90
-16777216
102
RTVSPost2010PropOp51
 70
     0
102
RTVSPost2010Prop52
140
1.0
102
RTVSPost2010PropOp52
 70
     0
102
RTVSPost2010Prop53
 90
        2
102
RTVSPost2010PropOp53
 70
     1
102
RTVSPost2010Prop54
  1
strokes_ogs.tif
102
RTVSPost2010PropOp54
 70
     1
102
RTVSPost2010Prop55
280
     0
102
RTVSPost2010PropOp55
 70
     1
102
RTVSPost2010Prop56
140
1.0
102
RTVSPost2010PropOp56
 70
     1
102
RTVSPost2010Prop57
140
1.0
102
RTVSPost2010PropOp57
 70
     1
102
RTVSPropertyOp0
 70
     1
102
RTVSPropertyOp1
 70
     1
102
RTVSPropertyOp2
 70
     1
102
RTVSPropertyOp3
 70
     1
102
RTVSPropertyOp4
 70
     1
102
RTVSPropertyOp5
 70
     1
102
RTVSPropertyOp6
 70
     1
102
RTVSPropertyOp7
 70
     1
102
RTVSPropertyOp8
 70
     1
102
RTVSPropertyOp9
 70
     1
102
RTVSPropertyOp10
 70
     1
102
RTVSPropertyOp11
 70
     1
102
RTVSPropertyOp12
 70
     1
102
RTVSPropertyOp13
 70
     1
102
RTVSPropertyOp14
 70
     1
102
RTVSPropertyOp15
 70
     1
102
RTVSPropertyOp16
 70
     1
102
RTVSPropertyOp17
 70
     1
102
RTVSPropertyOp18
 70
     1
102
RTVSPropertyOp19
 70
     1
102
RTVSPropertyOp20
 70
     1
102
RTVSPropertyOp21
 70
     1
102
RTVSPropertyOp22
 70
     1
102
RTVSPropertyOp23
 70
     1
102
RTVSPropertyOp24
 70
     1
102
RTVSPropertyOp25
 70
     1
102
RTVSPropertyOp26
 70
     1
102
RTVSPropertyOp27
 70
     1
102
RTVSPropertyOp28
 70
     1
102
RTVSPropertyOp29
 70
     1
102
RTVSPropertyOp30
 70
     1
102
RTVSPropertyOp31
 70
     1
102
RTVSPropertyOp32
 70
     1
102
RTVSPropertyOp33
 70
     1
102
RTVSPropertyOp34
 70
     1
102
RTVSPropertyOp35
 70
     1
102
RTVSPropertyOp36
 70
     1
102
RTVSPropertyOp37
 70
     1
102
RTVSPropertyOp38
 70
     1
102
RTVSPropertyOp39
 70
     1
102
RTVSPropertyOp40
 70
     1
102
RTVSPropertyOp41
 70
     1
102
RTVSPropertyOp42
 70
     1
102
RTVSPropertyOp43
 70
     1
102
RTVSPropertyOp44
 70
     1
102
RTVSPropertyOp45
 70
     1
102
RTVSPropertyOp46
 70
     1
102
RTVSPropertyOp47
 70
     1
102
RTVSPropertyOp48
 70
     1
102
RTVSPropertyOp49
 70
     1
102
RTVSPropertyOp50
 70
     1
102
RTVSPropertyOp51
 70
     0
102
RTVSPropertyOp52
 70
     0
102
RTVSPropertyOp53
 70
     1
102
RTVSPropertyOp54
 70
     1
102
RTVSPropertyOp55
 70
     1
102
RTVSPropertyOp56
 70
     1
102
RTVSPropertyOp57
 70
     1
102
RTVSPropertyOp58
 70
     1
102
RTVSPropertyOp59
 70
     1
102
RTVSPropertyOp60
 70
     1
102
RTVSPropertyOp61
 70
     1
102
RTVSPropertyOp62
 70
     1
  0
ENDSEC
  0
EOF
