  0
SECTION
  2
HEADER
  9
$ACADVER
  1
AC1015
  9
$ACADMAINTVER
 70
    20
  9
$DWGCODEPAGE
  3
ANSI_932
  9
$INSBASE
 10
0.0
 20
0.0
 30
0.0
  9
$EXTMIN
 10
10.0
 20
9.999999999999998
 30
0.0
  9
$EXTMAX
 10
466.93227
 20
231.0
 30
0.0
  9
$LIMMIN
 10
0.0
 20
0.0
  9
$LIMMAX
 10
495.0
 20
341.25
  9
$ORTHOMODE
 70
     1
  9
$REGENMODE
 70
     1
  9
$FILLMODE
 70
     1
  9
$QTEXTMODE
 70
     0
  9
$MIRRTEXT
 70
     1
  9
$LTSCALE
 40
20.0
  9
$ATTMODE
 70
     1
  9
$TEXTSIZE
 40
5.0
  9
$TRACEWID
 40
1.0
  9
$TEXTSTYLE
  7
STANDARD
  9
$CLAYER
  8
0
  9
$CELTYPE
  6
BYLAYER
  9
$CECOLOR
 62
   256
  9
$CELTSCALE
 40
1.0
  9
$DISPSILH
 70
     0
  9
$DIMSCALE
 40
1.0
  9
$DIMASZ
 40
2.5
  9
$DIMEXO
 40
1.0
  9
$DIMDLI
 40
10.0
  9
$DIMRND
 40
0.0
  9
$DIMDLE
 40
0.0
  9
$DIMEXE
 40
1.0
  9
$DIMTP
 40
0.0
  9
$DIMTM
 40
0.0
  9
$DIMTXT
 40
3.2
  9
$DIMCEN
 40
0.0
  9
$DIMTSZ
 40
0.0
  9
$DIMTOL
 70
     0
  9
$DIMLIM
 70
     0
  9
$DIMTIH
 70
     0
  9
$DIMTOH
 70
     0
  9
$DIMSE1
 70
     0
  9
$DIMSE2
 70
     0
  9
$DIMTAD
 70
     3
  9
$DIMZIN
 70
     8
  9
$DIMBLK
  1

  9
$DIMASO
 70
     1
  9
$DIMSHO
 70
     1
  9
$DIMPOST
  1

  9
$DIMAPOST
  1

  9
$DIMALT
 70
     0
  9
$DIMALTD
 70
     2
  9
$DIMALTF
 40
25.4
  9
$DIMLFAC
 40
1.0
  9
$DIMTOFL
 70
     1
  9
$DIMTVP
 40
0.0
  9
$DIMTIX
 70
     0
  9
$DIMSOXD
 70
     0
  9
$DIMSAH
 70
     1
  9
$DIMBLK1
  1
OPEN
  9
$DIMBLK2
  1
OPEN
  9
$DIMSTYLE
  2
STANDARD
  9
$DIMCLRD
 70
     0
  9
$DIMCLRE
 70
     0
  9
$DIMCLRT
 70
     0
  9
$DIMTFAC
 40
1.0
  9
$DIMGAP
 40
1.0
  9
$DIMJUST
 70
     0
  9
$DIMSD1
 70
     0
  9
$DIMSD2
 70
     0
  9
$DIMTOLJ
 70
     1
  9
$DIMTZIN
 70
     0
  9
$DIMALTZ
 70
     0
  9
$DIMALTTZ
 70
     0
  9
$DIMUPT
 70
     0
  9
$DIMDEC
 70
     4
  9
$DIMTDEC
 70
     4
  9
$DIMALTU
 70
     2
  9
$DIMALTTD
 70
     2
  9
$DIMTXSTY
  7
STANDARD
  9
$DIMAUNIT
 70
     0
  9
$DIMADEC
 70
     0
  9
$DIMALTRND
 40
0.0
  9
$DIMAZIN
 70
     0
  9
$DIMDSEP
 70
    46
  9
$DIMATFIT
 70
     3
  9
$DIMFRAC
 70
     0
  9
$DIMLDRBLK
  1
OPEN
  9
$DIMLUNIT
 70
     2
  9
$DIMLWD
 70
    -2
  9
$DIMLWE
 70
    -2
  9
$DIMTMOVE
 70
     0
  9
$LUNITS
 70
     2
  9
$LUPREC
 70
     4
  9
$SKETCHINC
 40
1.0
  9
$FILLETRAD
 40
0.0
  9
$AUNITS
 70
     0
  9
$AUPREC
 70
     2
  9
$MENU
  1
.
  9
$ELEVATION
 40
0.0
  9
$PELEVATION
 40
0.0
  9
$THICKNESS
 40
0.0
  9
$LIMCHECK
 70
     0
  9
$CHAMFERA
 40
10.0
  9
$CHAMFERB
 40
10.0
  9
$CHAMFERC
 40
0.0
  9
$CHAMFERD
 40
0.0
  9
$SKPOLY
 70
     0
  9
$TDCREATE
 40
2451368.490193403
  9
$TDUCREATE
 40
2451368.115193403
  9
$TDUPDATE
 40
2457192.642603275
  9
$TDUUPDATE
 40
2457192.267603276
  9
$TDINDWG
 40
0.0000149884
  9
$TDUSRTIMER
 40
0.0000146644
  9
$USRTIMER
 70
     1
  9
$ANGBASE
 50
0.0
  9
$ANGDIR
 70
     0
  9
$PDMODE
 70
     0
  9
$PDSIZE
 40
0.0
  9
$PLINEWID
 40
0.0
  9
$SPLFRAME
 70
     0
  9
$SPLINETYPE
 70
     6
  9
$SPLINESEGS
 70
     8
  9
$HANDSEED
  5
A948
  9
$SURFTAB1
 70
     6
  9
$SURFTAB2
 70
     6
  9
$SURFTYPE
 70
     6
  9
$SURFU
 70
     6
  9
$SURFV
 70
     6
  9
$UCSBASE
  2

  9
$UCSNAME
  2

  9
$UCSORG
 10
0.0
 20
0.0
 30
0.0
  9
$UCSXDIR
 10
1.0
 20
0.0
 30
0.0
  9
$UCSYDIR
 10
0.0
 20
1.0
 30
0.0
  9
$UCSORTHOREF
  2

  9
$UCSORTHOVIEW
 70
     0
  9
$UCSORGTOP
 10
0.0
 20
0.0
 30
0.0
  9
$UCSORGBOTTOM
 10
0.0
 20
0.0
 30
0.0
  9
$UCSORGLEFT
 10
0.0
 20
0.0
 30
0.0
  9
$UCSORGRIGHT
 10
0.0
 20
0.0
 30
0.0
  9
$UCSORGFRONT
 10
0.0
 20
0.0
 30
0.0
  9
$UCSORGBACK
 10
0.0
 20
0.0
 30
0.0
  9
$PUCSBASE
  2

  9
$PUCSNAME
  2

  9
$PUCSORG
 10
0.0
 20
0.0
 30
0.0
  9
$PUCSXDIR
 10
1.0
 20
0.0
 30
0.0
  9
$PUCSYDIR
 10
0.0
 20
1.0
 30
0.0
  9
$PUCSORTHOREF
  2

  9
$PUCSORTHOVIEW
 70
     0
  9
$PUCSORGTOP
 10
0.0
 20
0.0
 30
0.0
  9
$PUCSORGBOTTOM
 10
0.0
 20
0.0
 30
0.0
  9
$PUCSORGLEFT
 10
0.0
 20
0.0
 30
0.0
  9
$PUCSORGRIGHT
 10
0.0
 20
0.0
 30
0.0
  9
$PUCSORGFRONT
 10
0.0
 20
0.0
 30
0.0
  9
$PUCSORGBACK
 10
0.0
 20
0.0
 30
0.0
  9
$USERI1
 70
     0
  9
$USERI2
 70
     0
  9
$USERI3
 70
     0
  9
$USERI4
 70
     0
  9
$USERI5
 70
     0
  9
$USERR1
 40
0.0
  9
$USERR2
 40
0.0
  9
$USERR3
 40
0.0
  9
$USERR4
 40
0.0
  9
$USERR5
 40
0.0
  9
$WORLDVIEW
 70
     1
  9
$SHADEDGE
 70
     3
  9
$SHADEDIF
 70
    70
  9
$TILEMODE
 70
     1
  9
$MAXACTVP
 70
    16
  9
$PINSBASE
 10
0.0
 20
0.0
 30
0.0
  9
$PLIMCHECK
 70
     0
  9
$PEXTMIN
 10
1.000000000000000E+20
 20
1.000000000000000E+20
 30
1.000000000000000E+20
  9
$PEXTMAX
 10
-1.000000000000000E+20
 20
-1.000000000000000E+20
 30
-1.000000000000000E+20
  9
$PLIMMIN
 10
0.0
 20
0.0
  9
$PLIMMAX
 10
420.0
 20
297.0
  9
$UNITMODE
 70
     0
  9
$VISRETAIN
 70
     0
  9
$PLINEGEN
 70
     0
  9
$PSLTSCALE
 70
     0
  9
$TREEDEPTH
 70
  3020
  9
$CMLSTYLE
  2
STANDARD
  9
$CMLJUST
 70
     0
  9
$CMLSCALE
 40
1.0
  9
$PROXYGRAPHICS
 70
     1
  9
$MEASUREMENT
 70
     0
  9
$CELWEIGHT
370
    -1
  9
$ENDCAPS
280
     0
  9
$JOINSTYLE
280
     0
  9
$LWDISPLAY
290
     0
  9
$INSUNITS
 70
     0
  9
$HYPERLINKBASE
  1

  9
$STYLESHEET
  1

  9
$XEDIT
290
     1
  9
$CEPSNTYPE
380
     0
  9
$PSTYLEMODE
290
     1
  9
$FINGERPRINTGUID
  2
{568C0F76-D80D-4828-B8EB-860B126D242C}
  9
$VERSIONGUID
  2
{F7776AD7-EF0C-4B82-A951-2DA44E892B0B}
  9
$EXTNAMES
290
     1
  9
$PSVPSCALE
 40
0.0
  9
$OLESTARTUP
290
     0
  0
ENDSEC
  0
SECTION
  2
CLASSES
  0
CLASS
  1
ACDBDICTIONARYWDFLT
  2
AcDbDictionaryWithDefault
  3
ObjectDBX Classes
 90
        0
280
     0
281
     0
  0
CLASS
  1
ACDBPLACEHOLDER
  2
AcDbPlaceHolder
  3
ObjectDBX Classes
 90
        0
280
     0
281
     0
  0
CLASS
  1
LAYOUT
  2
AcDbLayout
  3
ObjectDBX Classes
 90
        0
280
     0
281
     0
  0
CLASS
  1
DICTIONARYVAR
  2
AcDbDictionaryVar
  3
ObjectDBX Classes
 90
        0
280
     0
281
     0
  0
CLASS
  1
MATERIAL
  2
AcDbMaterial
  3
ObjectDBX Classes
 90
     1153
280
     0
281
     0
  0
CLASS
  1
VISUALSTYLE
  2
AcDbVisualStyle
  3
ObjectDBX Classes
 90
     4095
280
     0
281
     0
  0
CLASS
  1
TABLESTYLE
  2
AcDbTableStyle
  3
ObjectDBX Classes
 90
     4095
280
     0
281
     0
  0
CLASS
  1
SCALE
  2
AcDbScale
  3
ObjectDBX Classes
 90
     1153
280
     0
281
     0
  0
CLASS
  1
MLEADERSTYLE
  2
AcDbMLeaderStyle
  3
ACDB_MLEADERSTYLE_CLASS
 90
     4095
280
     0
281
     0
  0
CLASS
  1
ACDBSECTIONVIEWSTYLE
  2
AcDbSectionViewStyle
  3
ObjectDBX Classes
 90
     1025
280
     0
281
     0
  0
CLASS
  1
ACDBDETAILVIEWSTYLE
  2
AcDbDetailViewStyle
  3
ObjectDBX Classes
 90
     1025
280
     0
281
     0
  0
CLASS
  1
CELLSTYLEMAP
  2
AcDbCellStyleMap
  3
ObjectDBX Classes
 90
     1152
280
     0
281
     0
  0
ENDSEC
  0
SECTION
  2
TABLES
  0
TABLE
  2
VPORT
  5
A651
330
0
100
AcDbSymbolTable
 70
     1
  0
VPORT
  5
A891
330
A651
100
AcDbSymbolTableRecord
100
AcDbViewportTableRecord
  2
*ACTIVE
 70
     0
 10
0.0
 20
0.0
 11
1.0
 21
1.0
 12
317.1508549396074
 22
120.4940135688159
 13
0.0
 23
0.0
 14
10.0
 24
10.0
 15
10.0
 25
10.0
 16
0.0
 26
0.0
 36
1.0
 17
0.0
 27
0.0
 37
0.0
 40
262.6659058721866
 41
1.899603698811096
 42
50.0
 43
0.0
 44
0.0
 50
0.0
 51
0.0
 71
     0
 72
   100
 73
     1
 74
     0
 75
     0
 76
     0
 77
     0
 78
     0
281
     0
 65
     1
110
0.0
120
0.0
130
0.0
111
1.0
121
0.0
131
0.0
112
0.0
122
1.0
132
0.0
 79
     0
146
0.0
1001
ACAD_NAV_VCDISPLAY
1070
     3
  0
ENDTAB
  0
TABLE
  2
LTYPE
  5
A64E
330
0
100
AcDbSymbolTable
 70
     4
  0
LTYPE
  5
A65C
330
A64E
100
AcDbSymbolTableRecord
100
AcDbLinetypeTableRecord
  2
BYBLOCK
 70
     0
  3

 72
    65
 73
     0
 40
0.0
  0
LTYPE
  5
A65D
330
A64E
100
AcDbSymbolTableRecord
100
AcDbLinetypeTableRecord
  2
BYLAYER
 70
     0
  3

 72
    65
 73
     0
 40
0.0
  0
LTYPE
  5
A65E
330
A64E
100
AcDbSymbolTableRecord
100
AcDbLinetypeTableRecord
  2
CONTINUOUS
 70
     0
  3
Solid line
 72
    65
 73
     0
 40
0.0
  0
LTYPE
  5
A66C
330
A64E
100
AcDbSymbolTableRecord
100
AcDbLinetypeTableRecord
  2
DASHED
 70
     0
  3
__ __ __ __ __ __ __ __ __ __ __ __ __ __ __ __
 72
    65
 73
     2
 40
0.75
 49
0.5
 74
     0
 49
-0.25
 74
     0
  0
LTYPE
  5
A66D
330
A64E
100
AcDbSymbolTableRecord
100
AcDbLinetypeTableRecord
  2
CENTER
 70
     0
  3
____ _ ____ _ ____ _ ____ _ ____ _ ____ _ ____ 
 72
    65
 73
     4
 40
2.0
 49
1.25
 74
     0
 49
-0.25
 74
     0
 49
0.25
 74
     0
 49
-0.25
 74
     0
  0
LTYPE
  5
A66E
330
A64E
100
AcDbSymbolTableRecord
100
AcDbLinetypeTableRecord
  2
PHANTOM
 70
     0
  3
______  __  __  ______  __  __  ______  __  __ 
 72
    65
 73
     6
 40
2.5
 49
1.25
 74
     0
 49
-0.25
 74
     0
 49
0.25
 74
     0
 49
-0.25
 74
     0
 49
0.25
 74
     0
 49
-0.25
 74
     0
  0
ENDTAB
  0
TABLE
  2
LAYER
  5
A64B
330
0
100
AcDbSymbolTable
 70
     8
  0
LAYER
  5
A659
102
{ACAD_XDICTIONARY
360
A8EC
102
}
330
A64B
100
AcDbSymbolTableRecord
100
AcDbLayerTableRecord
  2
0
 70
     0
 62
     7
  6
CONTINUOUS
370
    -3
390
A89A
  0
LAYER
  5
A66F
102
{ACAD_XDICTIONARY
360
A8EE
102
}
330
A64B
100
AcDbSymbolTableRecord
100
AcDbLayerTableRecord
  2
4
 70
     0
 62
     1
  6
CENTER
370
    -3
390
A89A
  0
LAYER
  5
A670
102
{ACAD_XDICTIONARY
360
A8F0
102
}
330
A64B
100
AcDbSymbolTableRecord
100
AcDbLayerTableRecord
  2
5
 70
     0
 62
     6
  6
PHANTOM
370
    -3
390
A89A
  0
LAYER
  5
A671
102
{ACAD_XDICTIONARY
360
A8F2
102
}
330
A64B
100
AcDbSymbolTableRecord
100
AcDbLayerTableRecord
  2
1
 70
     0
 62
     7
  6
CONTINUOUS
370
    -3
390
A89A
  0
LAYER
  5
A672
102
{ACAD_XDICTIONARY
360
A8F4
102
}
330
A64B
100
AcDbSymbolTableRecord
100
AcDbLayerTableRecord
  2
2
 70
     0
 62
     4
  6
CONTINUOUS
370
    -3
390
A89A
  0
LAYER
  5
A673
102
{ACAD_XDICTIONARY
360
A8F6
102
}
330
A64B
100
AcDbSymbolTableRecord
100
AcDbLayerTableRecord
  2
3
 70
     0
 62
     2
  6
DASHED
370
    -3
390
A89A
  0
LAYER
  5
A674
102
{ACAD_XDICTIONARY
360
A8F8
102
}
330
A64B
100
AcDbSymbolTableRecord
100
AcDbLayerTableRecord
  2
6
 70
     0
 62
     5
  6
CONTINUOUS
370
    -3
390
A89A
  0
LAYER
  5
A675
102
{ACAD_XDICTIONARY
360
A8FA
102
}
330
A64B
100
AcDbSymbolTableRecord
100
AcDbLayerTableRecord
  2
7
 70
     0
 62
     3
  6
CONTINUOUS
370
    -3
390
A89A
  0
ENDTAB
  0
TABLE
  2
STYLE
  5
A64C
330
0
100
AcDbSymbolTable
 70
     1
  0
STYLE
  5
A65A
330
A64C
100
AcDbSymbolTableRecord
100
AcDbTextStyleTableRecord
  2
STANDARD
 70
     0
 40
0.0
 41
1.0
 50
0.0
 71
     0
 42
5.0
  3
txt
  4

  0
ENDTAB
  0
TABLE
  2
VIEW
  5
A64F
330
0
100
AcDbSymbolTable
 70
     0
  0
ENDTAB
  0
TABLE
  2
UCS
  5
A650
330
0
100
AcDbSymbolTable
 70
     0
  0
ENDTAB
  0
TABLE
  2
APPID
  5
A652
330
0
100
AcDbSymbolTable
 70
     3
  0
APPID
  5
A65B
330
A652
100
AcDbSymbolTableRecord
100
AcDbRegAppTableRecord
  2
ACAD
 70
     0
  0
APPID
  5
A906
330
A652
100
AcDbSymbolTableRecord
100
AcDbRegAppTableRecord
  2
ACAD_NAV_VCDISPLAY
 70
     0
  0
APPID
  5
A93F
330
A652
100
AcDbSymbolTableRecord
100
AcDbRegAppTableRecord
  2
ACAD_MLEADERVER
 70
     0
  0
ENDTAB
  0
TABLE
  2
DIMSTYLE
  5
A653
330
0
100
AcDbSymbolTable
 70
     1
100
AcDbDimStyleTable
 71
     0
  0
DIMSTYLE
105
A677
330
A653
100
AcDbSymbolTableRecord
100
AcDbDimStyleTableRecord
  2
STANDARD
 70
     0
 41
2.5
 42
1.0
 43
10.0
 44
1.0
 73
     0
 74
     0
 77
     3
 78
     8
140
3.2
141
0.0
147
1.0
172
     1
173
     1
284
     8
285
     8
286
     8
340
A65A
  0
ENDTAB
  0
TABLE
  2
BLOCK_RECORD
  5
A64A
330
0
100
AcDbSymbolTable
 70
     1
  0
BLOCK_RECORD
  5
A667
102
{ACAD_XDICTIONARY
360
A894
102
}
330
A64A
100
AcDbSymbolTableRecord
100
AcDbBlockTableRecord
  2
*MODEL_SPACE
340
A8E8
  0
BLOCK_RECORD
  5
A663
102
{ACAD_XDICTIONARY
360
A892
102
}
330
A64A
100
AcDbSymbolTableRecord
100
AcDbBlockTableRecord
  2
*PAPER_SPACE
340
A8E9
  0
BLOCK_RECORD
  5
A67F
330
A64A
100
AcDbSymbolTableRecord
100
AcDbBlockTableRecord
  2
_OPEN
340
0
  0
ENDTAB
  0
ENDSEC
  0
SECTION
  2
BLOCKS
  0
BLOCK
  5
A668
330
A667
100
AcDbEntity
  8
0
100
AcDbBlockBegin
  2
*MODEL_SPACE
 70
     0
 10
0.0
 20
0.0
 30
0.0
  3
*MODEL_SPACE
  1

  0
ENDBLK
  5
A669
330
A667
100
AcDbEntity
  8
0
100
AcDbBlockEnd
  0
BLOCK
  5
A664
330
A663
100
AcDbEntity
 67
     1
  8
0
100
AcDbBlockBegin
  2
*PAPER_SPACE
 70
     0
 10
0.0
 20
0.0
 30
0.0
  3
*PAPER_SPACE
  1

  0
ENDBLK
  5
A665
330
A663
100
AcDbEntity
 67
     1
  8
0
100
AcDbBlockEnd
  0
BLOCK
  5
A680
330
A67F
100
AcDbEntity
  8
0
100
AcDbBlockBegin
  2
_OPEN
 70
     0
 10
0.0
 20
0.0
 30
0.0
  3
_OPEN
  1

  0
LINE
  5
A681
330
A67F
100
AcDbEntity
  8
0
  6
ByBlock
 62
     0
100
AcDbLine
 10
-1.0
 20
0.166667
 30
0.0
 11
0.0
 21
0.0
 31
0.0
  0
LINE
  5
A682
330
A67F
100
AcDbEntity
  8
0
  6
ByBlock
 62
     0
100
AcDbLine
 10
0.0
 20
0.0
 30
0.0
 11
-1.0
 21
-0.166667
 31
0.0
  0
LINE
  5
A683
330
A67F
100
AcDbEntity
  8
0
  6
ByBlock
 62
     0
100
AcDbLine
 10
0.0
 20
0.0
 30
0.0
 11
-1.0
 21
0.0
 31
0.0
  0
ENDBLK
  5
A684
330
A67F
100
AcDbEntity
  8
0
100
AcDbBlockEnd
  0
ENDSEC
  0
SECTION
  2
ENTITIES
  0
TEXT
  5
A685
330
A667
100
AcDbEntity
  8
7
  6
Continuous
100
AcDbText
 10
10.0
 20
18.0
 30
0.0
 40
3.0
  1
TYPE No.THA-418-2A
100
AcDbText
  0
TEXT
  5
A686
330
A667
100
AcDbEntity
  8
7
  6
Continuous
100
AcDbText
 10
10.0
 20
26.0
 30
0.0
 40
3.0
  1
CODE No.3578
100
AcDbText
  0
TEXT
  5
A687
330
A667
100
AcDbEntity
  8
1
  6
Continuous
100
AcDbText
 10
10.0
 20
10.0
 30
0.0
 40
1.399999999999999
  1
LAYER
100
AcDbText
  0
TEXT
  5
A688
330
A667
100
AcDbEntity
  8
1
  6
Continuous
100
AcDbText
 10
17.97951099999998
 20
10.04873699999998
 30
0.0
 40
1.399999999999999
  1
1
100
AcDbText
  0
TEXT
  5
A689
330
A667
100
AcDbEntity
  8
7
  6
Continuous
100
AcDbText
 10
29.97951099999999
 20
10.04873699999998
 30
0.0
 40
1.399999999999999
  1
7
100
AcDbText
  0
TEXT
  5
A68A
330
A667
100
AcDbEntity
  8
4
  6
CENTER
100
AcDbText
 10
23.97951099999999
 20
10.04873699999998
 30
0.0
 40
1.399999999999999
  1
4
100
AcDbText
  0
TEXT
  5
A68B
330
A667
100
AcDbEntity
  8
3
  6
DASHED
100
AcDbText
 10
21.979511
 20
10.04873699999998
 30
0.0
 40
1.399999999999999
  1
3
100
AcDbText
  0
TEXT
  5
A68C
330
A667
100
AcDbEntity
  8
2
  6
Continuous
100
AcDbText
 10
19.97951099999999
 20
10.04873699999998
 30
0.0
 40
1.399999999999999
  1
2
100
AcDbText
  0
TEXT
  5
A68D
330
A667
100
AcDbEntity
  8
6
  6
Continuous
100
AcDbText
 10
27.979511
 20
10.04873699999998
 30
0.0
 40
1.399999999999999
  1
6
100
AcDbText
  0
TEXT
  5
A68E
330
A667
100
AcDbEntity
  8
5
  6
PHANTOM
100
AcDbText
 10
25.97951099999999
 20
10.04873699999998
 30
0.0
 40
1.399999999999999
  1
5
100
AcDbText
  0
CIRCLE
  5
A68F
330
A667
100
AcDbEntity
  8
1
  6
Continuous
100
AcDbCircle
 10
40.0
 20
136.0
 30
0.0
 40
15.0
  0
LINE
  5
A690
330
A667
100
AcDbEntity
  8
4
  6
CENTER
100
AcDbLine
 10
40.0
 20
155.0
 30
0.0
 11
40.0
 21
117.0
 31
0.0
  0
LINE
  5
A691
330
A667
100
AcDbEntity
  8
1
  6
Continuous
100
AcDbLine
 10
41.7
 20
125.0
 30
0.0
 11
38.3
 21
125.0
 31
0.0
  0
ARC
  5
A692
330
A667
100
AcDbEntity
  8
1
  6
Continuous
100
AcDbCircle
 10
40.0
 20
129.6999999999999
 30
0.0
 40
0.3
100
AcDbArc
 50
21.124719
 51
158.875281
  0
ARC
  5
A693
330
A667
100
AcDbEntity
  8
1
  6
Continuous
100
AcDbCircle
 10
38.3
 20
125.2999999999999
 30
0.0
 40
0.3
100
AcDbArc
 50
158.875281
 51
270.0
  0
ARC
  5
A694
330
A667
100
AcDbEntity
  8
1
  6
Continuous
100
AcDbCircle
 10
41.7
 20
125.2999999999999
 30
0.0
 40
0.3
100
AcDbArc
 50
270.0
 51
21.124719
  0
LINE
  5
A695
330
A667
100
AcDbEntity
  8
1
  6
Continuous
100
AcDbLine
 10
39.72016099999999
 20
129.80812
 30
0.0
 11
38.020161
 21
125.4081199999999
 31
0.0
  0
LINE
  5
A696
330
A667
100
AcDbEntity
  8
1
  6
Continuous
100
AcDbLine
 10
40.27984
 20
129.80812
 30
0.0
 11
41.97984
 21
125.4081199999999
 31
0.0
  0
CIRCLE
  5
A697
330
A667
100
AcDbEntity
  8
1
  6
Continuous
100
AcDbCircle
 10
40.0
 20
136.0
 30
0.0
 40
13.0
  0
LINE
  5
A698
330
A667
100
AcDbEntity
  8
1
  6
Continuous
100
AcDbLine
 10
125.14408
 20
149.0
 30
0.0
 11
125.14408
 21
123.0
 31
0.0
  0
LINE
  5
A699
330
A667
100
AcDbEntity
  8
4
  6
CENTER
100
AcDbLine
 10
156.1440799999998
 20
136.0
 30
0.0
 11
122.14408
 21
136.0
 31
0.0
  0
LINE
  5
A69A
330
A667
100
AcDbEntity
  8
1
  6
Continuous
100
AcDbLine
 10
126.14408
 20
151.0
 30
0.0
 11
132.64408
 21
151.0
 31
0.0
  0
LINE
  5
A69B
330
A667
100
AcDbEntity
  8
1
  6
Continuous
100
AcDbLine
 10
127.04408
 20
126.0
 30
0.0
 11
127.04408
 21
121.0
 31
0.0
  0
LINE
  5
A69C
330
A667
100
AcDbEntity
  8
1
  6
Continuous
100
AcDbLine
 10
130.1440799999998
 20
126.0
 30
0.0
 11
127.04408
 21
126.0
 31
0.0
  0
LINE
  5
A69D
330
A667
100
AcDbEntity
  8
1
  6
Continuous
100
AcDbLine
 10
126.14408
 20
121.0
 30
0.0
 11
127.04408
 21
121.0
 31
0.0
  0
LINE
  5
A69E
330
A667
100
AcDbEntity
  8
1
  6
Continuous
100
AcDbLine
 10
130.1440799999998
 20
121.0
 30
0.0
 11
132.64408
 21
121.0
 31
0.0
  0
LINE
  5
A69F
330
A667
100
AcDbEntity
  8
1
  6
Continuous
100
AcDbLine
 10
132.64408
 20
151.0
 30
0.0
 11
132.64408
 21
121.0
 31
0.0
  0
LINE
  5
A6A0
330
A667
100
AcDbEntity
  8
1
  6
Continuous
100
AcDbLine
 10
126.14408
 20
151.0
 30
0.0
 11
125.14408
 21
149.0
 31
0.0
  0
LINE
  5
A6A1
330
A667
100
AcDbEntity
  8
1
  6
Continuous
100
AcDbLine
 10
125.14408
 20
123.0
 30
0.0
 11
126.14408
 21
121.0
 31
0.0
  0
LINE
  5
A6A2
330
A667
100
AcDbEntity
  8
1
  6
Continuous
100
AcDbLine
 10
132.7440799999999
 20
124.0
 30
0.0
 11
132.64408
 21
124.0
 31
0.0
  0
LINE
  5
A6A3
330
A667
100
AcDbEntity
  8
1
  6
Continuous
100
AcDbLine
 10
132.7440799999999
 20
148.0
 30
0.0
 11
132.64408
 21
148.0
 31
0.0
  0
LINE
  5
A6A4
330
A667
100
AcDbEntity
  8
1
  6
Continuous
100
AcDbLine
 10
152.84408
 20
140.9497479999998
 30
0.0
 11
151.14408
 21
140.9497479999998
 31
0.0
  0
LINE
  5
A6A5
330
A667
100
AcDbEntity
  8
1
  6
Continuous
100
AcDbLine
 10
152.84408
 20
136.707107
 30
0.0
 11
151.14408
 21
136.707107
 31
0.0
  0
LINE
  5
A6A6
330
A667
100
AcDbEntity
  8
1
  6
Continuous
100
AcDbLine
 10
152.84408
 20
135.2928939999999
 30
0.0
 11
151.14408
 21
135.2928939999999
 31
0.0
  0
LINE
  5
A6A7
330
A667
100
AcDbEntity
  8
1
  6
Continuous
100
AcDbLine
 10
152.84408
 20
131.0502529999999
 30
0.0
 11
151.14408
 21
131.0502529999999
 31
0.0
  0
LINE
  5
A6A8
330
A667
100
AcDbEntity
  8
1
  6
Continuous
100
AcDbLine
 10
153.14408
 20
140.6999999999999
 30
0.0
 11
153.14408
 21
131.3
 31
0.0
  0
ARC
  5
A6A9
330
A667
100
AcDbEntity
  8
1
  6
Continuous
100
AcDbCircle
 10
152.84408
 20
140.6999999999999
 30
0.0
 40
0.3
100
AcDbArc
 50
0.0
 51
90.0
  0
ARC
  5
A6AA
330
A667
100
AcDbEntity
  8
1
  6
Continuous
100
AcDbCircle
 10
152.84408
 20
131.3
 30
0.0
 40
0.3
100
AcDbArc
 50
270.0
 51
0.0
  0
LINE
  5
A6AB
330
A667
100
AcDbEntity
  8
2
  6
Continuous
100
AcDbLine
 10
152.84408
 20
135.2928939999999
 30
0.0
 11
151.14408
 21
133.3435719999999
 31
0.0
  0
LINE
  5
A6AC
330
A667
100
AcDbEntity
  8
2
  6
Continuous
100
AcDbLine
 10
152.84408
 20
140.9497479999998
 30
0.0
 11
151.14408
 21
139.000427
 31
0.0
  0
LINE
  5
A6AD
330
A667
100
AcDbEntity
  8
2
  6
Continuous
100
AcDbLine
 10
151.14408
 20
138.656429
 30
0.0
 11
152.84408
 21
136.707107
 31
0.0
  0
LINE
  5
A6AE
330
A667
100
AcDbEntity
  8
2
  6
Continuous
100
AcDbLine
 10
151.14408
 20
132.9995739999999
 30
0.0
 11
152.84408
 21
131.0502529999999
 31
0.0
  0
LINE
  5
A6AF
330
A667
100
AcDbEntity
  8
1
  6
Continuous
100
AcDbLine
 10
132.7440799999999
 20
151.0
 30
0.0
 11
137.14408
 21
151.0
 31
0.0
  0
LINE
  5
A6B0
330
A667
100
AcDbEntity
  8
1
  6
Continuous
100
AcDbLine
 10
132.7440799999999
 20
121.0
 30
0.0
 11
137.14408
 21
121.0
 31
0.0
  0
LINE
  5
A6B1
330
A667
100
AcDbEntity
  8
1
  6
Continuous
100
AcDbLine
 10
137.14408
 20
151.0
 30
0.0
 11
137.14408
 21
121.0
 31
0.0
  0
LINE
  5
A6B2
330
A667
100
AcDbEntity
  8
1
  6
Continuous
100
AcDbLine
 10
148.64408
 20
126.0
 30
0.0
 11
147.14408
 21
126.0
 31
0.0
  0
LINE
  5
A6B3
330
A667
100
AcDbEntity
  8
1
  6
Continuous
100
AcDbLine
 10
150.14408
 20
146.0
 30
0.0
 11
147.14408
 21
146.0
 31
0.0
  0
LINE
  5
A6B4
330
A667
100
AcDbEntity
  8
1
  6
Continuous
100
AcDbLine
 10
147.14408
 20
126.0
 30
0.0
 11
146.14408
 21
125.0
 31
0.0
  0
LINE
  5
A6B5
330
A667
100
AcDbEntity
  8
1
  6
Continuous
100
AcDbLine
 10
146.14408
 20
147.0
 30
0.0
 11
147.14408
 21
146.0
 31
0.0
  0
LINE
  5
A6B6
330
A667
100
AcDbEntity
  8
1
  6
Continuous
100
AcDbLine
 10
150.64408
 20
143.3612159999998
 30
0.0
 11
148.64408
 21
143.3612159999998
 31
0.0
  0
LINE
  5
A6B7
330
A667
100
AcDbEntity
  8
1
  6
Continuous
100
AcDbLine
 10
150.64408
 20
145.5
 30
0.0
 11
150.64408
 21
143.3612159999998
 31
0.0
  0
LINE
  5
A6B8
330
A667
100
AcDbEntity
  8
1
  6
Continuous
100
AcDbLine
 10
150.14408
 20
146.0
 30
0.0
 11
150.64408
 21
145.5
 31
0.0
  0
LINE
  5
A6B9
330
A667
100
AcDbEntity
  8
2
  6
Continuous
100
AcDbLine
 10
138.14408
 20
146.69315
 30
0.0
 11
138.5505049999999
 21
146.4584999999999
 31
0.0
  0
LINE
  5
A6BA
330
A667
100
AcDbEntity
  8
2
  6
Continuous
100
AcDbLine
 10
138.14408
 20
125.306851
 30
0.0
 11
138.5505049999999
 21
125.5414999999999
 31
0.0
  0
LINE
  5
A6BB
330
A667
100
AcDbEntity
  8
1
  6
Continuous
100
AcDbLine
 10
138.5505049999999
 20
141.5452689999999
 30
0.0
 11
138.5505049999999
 21
141.5998049999998
 31
0.0
  0
LINE
  5
A6BC
330
A667
100
AcDbEntity
  8
1
  6
Continuous
100
AcDbLine
 10
138.5505049999999
 20
130.454732
 30
0.0
 11
138.5505049999999
 21
125.0
 31
0.0
  0
LINE
  5
A6BD
330
A667
100
AcDbEntity
  8
1
  6
Continuous
100
AcDbLine
 10
146.14408
 20
147.0
 30
0.0
 11
146.14408
 21
141.5452689999999
 31
0.0
  0
LINE
  5
A6BE
330
A667
100
AcDbEntity
  8
1
  6
Continuous
100
AcDbLine
 10
146.14408
 20
125.0
 30
0.0
 11
146.14408
 21
130.454732
 31
0.0
  0
LINE
  5
A6BF
330
A667
100
AcDbEntity
  8
1
  6
Continuous
100
AcDbLine
 10
132.7440799999999
 20
151.0
 30
0.0
 11
132.7440799999999
 21
121.0
 31
0.0
  0
LINE
  5
A6C0
330
A667
100
AcDbEntity
  8
1
  6
Continuous
100
AcDbLine
 10
148.64408
 20
144.660254
 30
0.0
 11
148.64408
 21
126.0
 31
0.0
  0
LINE
  5
A6C1
330
A667
100
AcDbEntity
  8
1
  6
Continuous
100
AcDbLine
 10
130.1440799999998
 20
126.0
 30
0.0
 11
130.1440799999998
 21
121.0
 31
0.0
  0
LINE
  5
A6C2
330
A667
100
AcDbEntity
  8
1
  6
Continuous
100
AcDbLine
 10
194.8425029999999
 20
152.743158
 30
0.0
 11
194.8425029999999
 21
119.2568429999999
 31
0.0
  0
LINE
  5
A6C3
330
A667
100
AcDbEntity
  8
1
  6
Continuous
100
AcDbLine
 10
198.342503
 20
150.5
 30
0.0
 11
198.342503
 21
121.5
 31
0.0
  0
LINE
  5
A6C4
330
A667
100
AcDbEntity
  8
1
  6
Continuous
100
AcDbLine
 10
197.741451
 20
152.743158
 30
0.0
 11
194.8425029999999
 21
152.743158
 31
0.0
  0
LINE
  5
A6C5
330
A667
100
AcDbEntity
  8
1
  6
Continuous
100
AcDbLine
 10
198.342503
 20
150.5
 30
0.0
 11
197.741451
 21
152.743158
 31
0.0
  0
LINE
  5
A6C6
330
A667
100
AcDbEntity
  8
1
  6
Continuous
100
AcDbLine
 10
286.0809409999998
 20
132.9218189999999
 30
0.0
 11
285.623468
 21
132.755312
 31
0.0
  0
ARC
  5
A6C7
330
A667
100
AcDbEntity
  8
1
  6
Continuous
100
AcDbCircle
 10
285.794478
 20
132.2854659999999
 30
0.0
 40
0.5
100
AcDbArc
 50
110.0
 51
203.016961
  0
ARC
  5
A6C8
330
A667
100
AcDbEntity
  8
1
  6
Continuous
100
AcDbCircle
 10
299.714604
 20
143.9658389999999
 30
0.0
 40
0.5
100
AcDbArc
 50
56.98303899999999
 51
150.0
  0
LINE
  5
A6C9
330
A667
100
AcDbEntity
  8
1
  6
Continuous
100
AcDbLine
 10
151.14408
 20
144.4658389999998
 30
0.0
 11
150.64408
 21
144.4658389999998
 31
0.0
  0
LINE
  5
A6CA
330
A667
100
AcDbEntity
  8
1
  6
Continuous
100
AcDbLine
 10
151.14408
 20
144.0
 30
0.0
 11
150.64408
 21
144.0
 31
0.0
  0
LINE
  5
A6CB
330
A667
100
AcDbEntity
  8
1
  6
Continuous
100
AcDbLine
 10
149.14408
 20
143.3612159999998
 30
0.0
 11
149.14408
 21
126.5
 31
0.0
  0
LINE
  5
A6CC
330
A667
100
AcDbEntity
  8
1
  6
Continuous
100
AcDbLine
 10
151.14408
 20
144.4658389999998
 30
0.0
 11
151.14408
 21
126.5
 31
0.0
  0
LINE
  5
A6CD
330
A667
100
AcDbEntity
  8
1
  6
Continuous
100
AcDbLine
 10
138.14408
 20
150.0
 30
0.0
 11
138.14408
 21
122.0
 31
0.0
  0
LINE
  5
A6CE
330
A667
100
AcDbEntity
  8
1
  6
Continuous
100
AcDbLine
 10
137.14408
 20
150.0
 30
0.0
 11
138.14408
 21
150.0
 31
0.0
  0
LINE
  5
A6CF
330
A667
100
AcDbEntity
  8
1
  6
Continuous
100
AcDbLine
 10
137.14408
 20
122.0
 30
0.0
 11
138.14408
 21
122.0
 31
0.0
  0
ARC
  5
A6D0
330
A667
100
AcDbEntity
  8
1
  6
Continuous
100
AcDbCircle
 10
294.538175
 20
136.0
 30
0.0
 40
15.0
100
AcDbArc
 50
345.1648879999999
 51
14.83511199999999
  0
LINE
  5
A6D1
330
A667
100
AcDbEntity
  8
1
  6
Continuous
100
AcDbLine
 10
285.038175
 20
141.5452689999999
 30
0.0
 11
285.038175
 21
130.454732
 31
0.0
  0
LINE
  5
A6D2
330
A667
100
AcDbEntity
  8
1
  6
Continuous
100
AcDbLine
 10
304.038175
 20
141.5452689999999
 30
0.0
 11
304.038175
 21
130.454732
 31
0.0
  0
ARC
  5
A6D3
330
A667
100
AcDbEntity
  8
1
  6
Continuous
100
AcDbCircle
 10
294.538175
 20
136.0
 30
0.0
 40
11.0
100
AcDbArc
 50
210.2726409999999
 51
329.7273589999999
  0
ARC
  5
A6D4
330
A667
100
AcDbEntity
  8
2
  6
Continuous
100
AcDbCircle
 10
294.538175
 20
136.0
 30
0.0
 40
11.0
100
AcDbArc
 50
329.7273589999999
 51
30.272641
  0
ARC
  5
A6D5
330
A667
100
AcDbEntity
  8
1
  6
Continuous
100
AcDbCircle
 10
294.538175
 20
136.0
 30
0.0
 40
10.0
100
AcDbArc
 50
198.194872
 51
341.8051279999999
  0
ARC
  5
A6D6
330
A667
100
AcDbEntity
  8
1
  6
Continuous
100
AcDbCircle
 10
294.538175
 20
136.0
 30
0.0
 40
10.0
100
AcDbArc
 50
18.194872
 51
161.8051279999999
  0
LINE
  5
A6D7
330
A667
100
AcDbEntity
  8
1
  6
Continuous
100
AcDbLine
 10
290.038175
 20
143.794229
 30
0.0
 11
289.538175
 21
144.660255
 31
0.0
  0
LINE
  5
A6D8
330
A667
100
AcDbEntity
  8
1
  6
Continuous
100
AcDbLine
 10
299.038175
 20
143.794229
 30
0.0
 11
299.538175
 21
144.660255
 31
0.0
  0
ARC
  5
A6D9
330
A667
100
AcDbEntity
  8
1
  6
Continuous
100
AcDbCircle
 10
294.538175
 20
136.0
 30
0.0
 40
9.5
100
AcDbArc
 50
60.0
 51
119.9999999999999
  0
LINE
  5
A6DA
330
A667
100
AcDbEntity
  8
1
  6
Continuous
100
AcDbLine
 10
297.6606739999999
 20
126.5
 30
0.0
 11
291.4156759999999
 21
126.5
 31
0.0
  0
LINE
  5
A6DB
330
A667
100
AcDbEntity
  8
1
  6
Continuous
100
AcDbLine
 10
126.14408
 20
151.0
 30
0.0
 11
126.14408
 21
121.0
 31
0.0
  0
LINE
  5
A6DC
330
A667
100
AcDbEntity
  8
1
  6
Continuous
100
AcDbLine
 10
147.14408
 20
132.8775009999999
 30
0.0
 11
147.14408
 21
126.0
 31
0.0
  0
LINE
  5
A6DD
330
A667
100
AcDbEntity
  8
1
  6
Continuous
100
AcDbLine
 10
147.14408
 20
146.0
 30
0.0
 11
147.14408
 21
139.1224989999997
 31
0.0
  0
LINE
  5
A6DE
330
A667
100
AcDbEntity
  8
1
  6
Continuous
100
AcDbLine
 10
148.64408
 20
139.1224989999997
 30
0.0
 11
147.14408
 21
139.1224989999997
 31
0.0
  0
LINE
  5
A6DF
330
A667
100
AcDbEntity
  8
1
  6
Continuous
100
AcDbLine
 10
146.14408
 20
141.5452689999999
 30
0.0
 11
147.14408
 21
139.1224989999997
 31
0.0
  0
LINE
  5
A6E0
330
A667
100
AcDbEntity
  8
1
  6
Continuous
100
AcDbLine
 10
148.64408
 20
132.8775009999999
 30
0.0
 11
147.14408
 21
132.8775009999999
 31
0.0
  0
LINE
  5
A6E1
330
A667
100
AcDbEntity
  8
1
  6
Continuous
100
AcDbLine
 10
147.14408
 20
132.8775009999999
 30
0.0
 11
146.14408
 21
130.454732
 31
0.0
  0
LINE
  5
A6E2
330
A667
100
AcDbEntity
  8
1
  6
Continuous
100
AcDbLine
 10
138.5505049999999
 20
141.5452689999999
 30
0.0
 11
138.5505049999999
 21
147.0
 31
0.0
  0
LINE
  5
A6E3
330
A667
100
AcDbEntity
  8
1
  6
Continuous
100
AcDbLine
 10
146.14408
 20
141.5452689999999
 30
0.0
 11
138.14408
 21
141.5452689999999
 31
0.0
  0
LINE
  5
A6E4
330
A667
100
AcDbEntity
  8
1
  6
Continuous
100
AcDbLine
 10
146.14408
 20
130.454732
 30
0.0
 11
138.14408
 21
130.454732
 31
0.0
  0
LINE
  5
A6E5
330
A667
100
AcDbEntity
  8
2
  6
Continuous
100
AcDbLine
 10
146.6855799999999
 20
125.5414999999999
 30
0.0
 11
138.5505049999999
 21
125.5414999999999
 31
0.0
  0
LINE
  5
A6E6
330
A667
100
AcDbEntity
  8
1
  6
Continuous
100
AcDbLine
 10
146.14408
 20
125.0
 30
0.0
 11
138.14408
 21
125.0
 31
0.0
  0
LINE
  5
A6E7
330
A667
100
AcDbEntity
  8
1
  6
Continuous
100
AcDbLine
 10
146.14408
 20
147.0
 30
0.0
 11
138.14408
 21
147.0
 31
0.0
  0
LINE
  5
A6E8
330
A667
100
AcDbEntity
  8
2
  6
Continuous
100
AcDbLine
 10
146.6855799999999
 20
146.4584999999999
 30
0.0
 11
138.5505049999999
 21
146.4584999999999
 31
0.0
  0
LINE
  5
A6E9
330
A667
100
AcDbEntity
  8
1
  6
Continuous
100
AcDbLine
 10
149.14408
 20
131.0
 30
0.0
 11
148.64408
 21
131.0
 31
0.0
  0
LINE
  5
A6EA
330
A667
100
AcDbEntity
  8
1
  6
Continuous
100
AcDbLine
 10
152.84408
 20
131.0
 30
0.0
 11
151.14408
 21
131.0
 31
0.0
  0
LINE
  5
A6EB
330
A667
100
AcDbEntity
  8
1
  6
Continuous
100
AcDbLine
 10
149.14408
 20
141.0
 30
0.0
 11
148.64408
 21
141.0
 31
0.0
  0
LINE
  5
A6EC
330
A667
100
AcDbEntity
  8
1
  6
Continuous
100
AcDbLine
 10
152.84408
 20
141.0
 30
0.0
 11
151.14408
 21
141.0
 31
0.0
  0
LINE
  5
A6ED
330
A667
100
AcDbEntity
  8
1
  6
Continuous
100
AcDbLine
 10
150.14408
 20
146.0
 30
0.0
 11
150.14408
 21
144.660254
 31
0.0
  0
LINE
  5
A6EE
330
A667
100
AcDbEntity
  8
2
  6
Continuous
100
AcDbLine
 10
138.14408
 20
140.79155
 30
0.0
 11
148.64408
 21
132.8775009999999
 31
0.0
  0
LINE
  5
A6EF
330
A667
100
AcDbEntity
  8
2
  6
Continuous
100
AcDbLine
 10
148.64408
 20
139.1224989999997
 30
0.0
 11
138.14408
 21
131.2084529999999
 31
0.0
  0
LINE
  5
A6F0
330
A667
100
AcDbEntity
  8
1
  6
Continuous
100
AcDbLine
 10
211.8573979999999
 20
145.0
 30
0.0
 11
211.8573979999999
 21
127.0
 31
0.0
  0
LINE
  5
A6F1
330
A667
100
AcDbEntity
  8
1
  6
Continuous
100
AcDbLine
 10
212.857398
 20
145.0
 30
0.0
 11
212.857398
 21
127.0
 31
0.0
  0
LINE
  5
A6F2
330
A667
100
AcDbEntity
  8
1
  6
Continuous
100
AcDbLine
 10
211.8573979999999
 20
145.0
 30
0.0
 11
212.857398
 21
145.0
 31
0.0
  0
LINE
  5
A6F3
330
A667
100
AcDbEntity
  8
1
  6
Continuous
100
AcDbLine
 10
211.8573979999999
 20
127.0
 30
0.0
 11
212.857398
 21
127.0
 31
0.0
  0
LINE
  5
A6F4
330
A667
100
AcDbEntity
  8
1
  6
Continuous
100
AcDbLine
 10
29.42396699999999
 20
146.6370819999999
 30
0.0
 11
25.5
 21
144.3715789999999
 31
0.0
  0
LINE
  5
A6F5
330
A667
100
AcDbEntity
  8
1
  6
Continuous
100
AcDbLine
 10
40.0
 20
152.743158
 30
0.0
 11
36.076034
 21
150.477655
 31
0.0
  0
LINE
  5
A6F6
330
A667
100
AcDbEntity
  8
1
  6
Continuous
100
AcDbLine
 10
40.0
 20
152.743158
 30
0.0
 11
43.92396699999999
 21
150.477655
 31
0.0
  0
LINE
  5
A6F7
330
A667
100
AcDbEntity
  8
1
  6
Continuous
100
AcDbLine
 10
50.576034
 20
146.6370819999999
 30
0.0
 11
54.5
 21
144.3715789999999
 31
0.0
  0
LINE
  5
A6F8
330
A667
100
AcDbEntity
  8
1
  6
Continuous
100
AcDbLine
 10
54.5
 20
127.6284219999999
 30
0.0
 11
54.5
 21
132.159428
 31
0.0
  0
LINE
  5
A6F9
330
A667
100
AcDbEntity
  8
1
  6
Continuous
100
AcDbLine
 10
54.5
 20
139.840573
 30
0.0
 11
54.5
 21
144.3715789999999
 31
0.0
  0
LINE
  5
A6FA
330
A667
100
AcDbEntity
  8
1
  6
Continuous
100
AcDbLine
 10
43.92396699999999
 20
121.522346
 30
0.0
 11
40.0
 21
119.2568429999999
 31
0.0
  0
LINE
  5
A6FB
330
A667
100
AcDbEntity
  8
1
  6
Continuous
100
AcDbLine
 10
54.5
 20
127.6284219999999
 30
0.0
 11
50.576034
 21
125.3629189999999
 31
0.0
  0
LINE
  5
A6FC
330
A667
100
AcDbEntity
  8
1
  6
Continuous
100
AcDbLine
 10
25.5
 20
127.6284219999999
 30
0.0
 11
29.42396699999999
 21
125.3629189999999
 31
0.0
  0
LINE
  5
A6FD
330
A667
100
AcDbEntity
  8
1
  6
Continuous
100
AcDbLine
 10
36.076034
 20
121.522346
 30
0.0
 11
40.0
 21
119.2568429999999
 31
0.0
  0
LINE
  5
A6FE
330
A667
100
AcDbEntity
  8
1
  6
Continuous
100
AcDbLine
 10
25.5
 20
127.6284219999999
 30
0.0
 11
25.5
 21
132.159428
 31
0.0
  0
LINE
  5
A6FF
330
A667
100
AcDbEntity
  8
1
  6
Continuous
100
AcDbLine
 10
25.5
 20
139.840573
 30
0.0
 11
25.5
 21
144.3715789999999
 31
0.0
  0
LINE
  5
A700
330
A667
100
AcDbEntity
  8
4
  6
CENTER
100
AcDbLine
 10
21.0
 20
136.0
 30
0.0
 11
59.0
 21
136.0
 31
0.0
  0
LINE
  5
A701
330
A667
100
AcDbEntity
  8
1
  6
Continuous
100
AcDbLine
 10
193.042503
 20
123.65
 30
0.0
 11
193.042503
 21
148.35
 31
0.0
  0
LINE
  5
A702
330
A667
100
AcDbEntity
  8
1
  6
Continuous
100
AcDbLine
 10
229.56544
 20
140.5999999999999
 30
0.0
 11
228.2654399999999
 21
140.5999999999999
 31
0.0
  0
LINE
  5
A703
330
A667
100
AcDbEntity
  8
1
  6
Continuous
100
AcDbLine
 10
229.56544
 20
131.4
 30
0.0
 11
228.2654399999999
 21
131.4
 31
0.0
  0
LINE
  5
A704
330
A667
100
AcDbEntity
  8
1
  6
Continuous
100
AcDbLine
 10
228.2654399999999
 20
141.0
 30
0.0
 11
228.2654399999999
 21
131.0
 31
0.0
  0
LINE
  5
A705
330
A667
100
AcDbEntity
  8
1
  6
Continuous
100
AcDbLine
 10
228.2654399999999
 20
141.0
 30
0.0
 11
227.2654399999999
 21
141.0
 31
0.0
  0
LINE
  5
A706
330
A667
100
AcDbEntity
  8
1
  6
Continuous
100
AcDbLine
 10
228.2654399999999
 20
131.0
 30
0.0
 11
227.2654399999999
 21
131.0
 31
0.0
  0
LINE
  5
A707
330
A667
100
AcDbEntity
  8
4
  6
CENTER
100
AcDbLine
 10
236.1422609999999
 20
136.0
 30
0.0
 11
189.3336109999999
 21
136.0
 31
0.0
  0
LINE
  5
A708
330
A667
100
AcDbEntity
  8
1
  6
Continuous
100
AcDbLine
 10
227.2654399999999
 20
141.0
 30
0.0
 11
227.2654399999999
 21
131.0
 31
0.0
  0
LINE
  5
A709
330
A667
100
AcDbEntity
  8
1
  6
Continuous
100
AcDbLine
 10
130.1440799999998
 20
124.7999999999999
 30
0.0
 11
129.1440799999998
 21
124.7999999999999
 31
0.0
  0
LINE
  5
A70A
330
A667
100
AcDbEntity
  8
1
  6
Continuous
100
AcDbLine
 10
128.64408
 20
126.0
 30
0.0
 11
128.64408
 21
125.2999999999999
 31
0.0
  0
ARC
  5
A70B
330
A667
100
AcDbEntity
  8
1
  6
Continuous
100
AcDbCircle
 10
129.1440799999998
 20
125.2999999999999
 30
0.0
 40
0.5
100
AcDbArc
 50
180.0
 51
270.0
  0
ARC
  5
A70C
330
A667
100
AcDbEntity
  8
1
  6
Continuous
100
AcDbCircle
 10
193.9425029999999
 20
123.5999999999998
 30
0.0
 40
0.9
100
AcDbArc
 50
180.0
 51
0.0
  0
ARC
  5
A70D
330
A667
100
AcDbEntity
  8
1
  6
Continuous
100
AcDbCircle
 10
193.9425029999999
 20
148.3999999999998
 30
0.0
 40
0.9
100
AcDbArc
 50
0.0
 51
180.0
  0
ARC
  5
A70E
330
A667
100
AcDbEntity
  8
1
  6
Continuous
100
AcDbCircle
 10
301.609243
 20
128.928933
 30
0.0
 40
2.0
100
AcDbArc
 50
72.818139
 51
80.09962299999996
  0
ARC
  5
A70F
330
A667
100
AcDbEntity
  8
1
  6
Continuous
100
AcDbCircle
 10
298.743127
 20
128.0427159999999
 30
0.0
 40
1.0
100
AcDbArc
 50
297.85379
 51
17.18186099999999
  0
ARC
  5
A710
330
A667
100
AcDbEntity
  8
1
  6
Continuous
100
AcDbCircle
 10
302.49546
 20
131.795048
 30
0.0
 40
1.0
100
AcDbArc
 50
252.8181389999998
 51
332.14621
  0
LINE
  5
A711
330
A667
100
AcDbEntity
  8
1
  6
Continuous
100
AcDbLine
 10
229.56544
 20
136.0
 30
0.0
 11
228.2654399999999
 21
134.6999999999999
 31
0.0
  0
LINE
  5
A712
330
A667
100
AcDbEntity
  8
1
  6
Continuous
100
AcDbLine
 10
229.56544
 20
137.3
 30
0.0
 11
228.2654399999999
 21
136.0
 31
0.0
  0
ARC
  5
A713
330
A667
100
AcDbEntity
  8
1
  6
Continuous
100
AcDbCircle
 10
225.424395
 20
136.0004999999999
 30
0.0
 40
7.641045
100
AcDbArc
 50
342.4072529999999
 51
17.59274699999998
  0
LINE
  5
A714
330
A667
100
AcDbEntity
  8
1
  6
Continuous
100
AcDbLine
 10
229.56544
 20
131.3809999999998
 30
0.0
 11
229.56544
 21
140.619
 31
0.0
  0
LINE
  5
A715
330
A667
100
AcDbEntity
  8
1
  6
Continuous
100
AcDbLine
 10
233.0654399999999
 20
132.0
 30
0.0
 11
233.0654399999999
 21
140.0
 31
0.0
  0
LINE
  5
A716
330
A667
100
AcDbEntity
  8
1
  6
Continuous
100
AcDbLine
 10
232.7080599999999
 20
140.619
 30
0.0
 11
229.56544
 21
140.619
 31
0.0
  0
LINE
  5
A717
330
A667
100
AcDbEntity
  8
1
  6
Continuous
100
AcDbLine
 10
232.7080599999999
 20
138.3099999999998
 30
0.0
 11
229.56544
 21
138.3099999999998
 31
0.0
  0
LINE
  5
A718
330
A667
100
AcDbEntity
  8
1
  6
Continuous
100
AcDbLine
 10
233.0654399999999
 20
140.0
 30
0.0
 11
232.7080599999999
 21
140.619
 31
0.0
  0
ARC
  5
A719
330
A667
100
AcDbEntity
  8
1
  6
Continuous
100
AcDbCircle
 10
231.0203529999999
 20
139.464
 30
0.0
 40
2.045087
100
AcDbArc
 50
325.6137989999999
 51
25.61379899999999
  0
LINE
  5
A71A
330
A667
100
AcDbEntity
  8
1
  6
Continuous
100
AcDbLine
 10
232.7080599999999
 20
133.691
 30
0.0
 11
229.56544
 21
133.691
 31
0.0
  0
LINE
  5
A71B
330
A667
100
AcDbEntity
  8
1
  6
Continuous
100
AcDbLine
 10
232.7080599999999
 20
131.3809999999998
 30
0.0
 11
229.56544
 21
131.3809999999998
 31
0.0
  0
ARC
  5
A71C
330
A667
100
AcDbEntity
  8
1
  6
Continuous
100
AcDbCircle
 10
231.0203529999999
 20
132.536
 30
0.0
 40
2.045087
100
AcDbArc
 50
334.3862009999999
 51
34.386201
  0
LINE
  5
A71D
330
A667
100
AcDbEntity
  8
1
  6
Continuous
100
AcDbLine
 10
233.0654399999999
 20
132.0
 30
0.0
 11
232.7080599999999
 21
131.3809999999998
 31
0.0
  0
LINE
  5
A71E
330
A667
100
AcDbEntity
  8
1
  6
Continuous
100
AcDbLine
 10
151.14408
 20
133.2638389999999
 30
0.0
 11
149.14408
 21
133.2638389999999
 31
0.0
  0
LINE
  5
A71F
330
A667
100
AcDbEntity
  8
1
  6
Continuous
100
AcDbLine
 10
151.14408
 20
132.2854659999999
 30
0.0
 11
149.14408
 21
132.2854659999999
 31
0.0
  0
LINE
  5
A720
330
A667
100
AcDbEntity
  8
1
  6
Continuous
100
AcDbLine
 10
151.14408
 20
126.5
 30
0.0
 11
149.14408
 21
126.5
 31
0.0
  0
LINE
  5
A721
330
A667
100
AcDbEntity
  8
1
  6
Continuous
100
AcDbLine
 10
150.14408
 20
144.660254
 30
0.0
 11
148.64408
 21
144.660254
 31
0.0
  0
LINE
  5
A722
330
A667
100
AcDbEntity
  8
1
  6
Continuous
100
AcDbLine
 10
150.14408
 20
144.660254
 30
0.0
 11
150.64408
 21
144.160254
 31
0.0
  0
LINE
  5
A723
330
A667
100
AcDbEntity
  8
1
  6
Continuous
100
AcDbLine
 10
132.64408
 20
71.0
 30
0.0
 11
132.64408
 21
41.0
 31
0.0
  0
LINE
  5
A724
330
A667
100
AcDbEntity
  8
1
  6
Continuous
100
AcDbLine
 10
132.7440799999999
 20
71.0
 30
0.0
 11
132.7440799999999
 21
41.0
 31
0.0
  0
LINE
  5
A725
330
A667
100
AcDbEntity
  8
1
  6
Continuous
100
AcDbLine
 10
137.14408
 20
71.0
 30
0.0
 11
137.14408
 21
41.0
 31
0.0
  0
LINE
  5
A726
330
A667
100
AcDbEntity
  8
1
  6
Continuous
100
AcDbLine
 10
125.14408
 20
69.0
 30
0.0
 11
125.14408
 21
43.0
 31
0.0
  0
LINE
  5
A727
330
A667
100
AcDbEntity
  8
1
  6
Continuous
100
AcDbLine
 10
138.14408
 20
70.0
 30
0.0
 11
138.14408
 21
42.0
 31
0.0
  0
LINE
  5
A728
330
A667
100
AcDbEntity
  8
1
  6
Continuous
100
AcDbLine
 10
126.14408
 20
71.0
 30
0.0
 11
126.14408
 21
41.0
 31
0.0
  0
LINE
  5
A729
330
A667
100
AcDbEntity
  8
1
  6
Continuous
100
AcDbLine
 10
132.7440799999999
 20
41.0
 30
0.0
 11
137.14408
 21
41.0
 31
0.0
  0
LINE
  5
A72A
330
A667
100
AcDbEntity
  8
4
  6
CENTER
100
AcDbLine
 10
156.1440799999998
 20
56.0
 30
0.0
 11
122.14408
 21
56.0
 31
0.0
  0
LINE
  5
A72B
330
A667
100
AcDbEntity
  8
1
  6
Continuous
100
AcDbLine
 10
127.04408
 20
67.18034
 30
0.0
 11
127.04408
 21
44.81965999999999
 31
0.0
  0
LINE
  5
A72C
330
A667
100
AcDbEntity
  8
1
  6
Continuous
100
AcDbLine
 10
130.1440799999998
 20
67.18034
 30
0.0
 11
130.1440799999998
 21
44.81965999999999
 31
0.0
  0
LINE
  5
A72D
330
A667
100
AcDbEntity
  8
1
  6
Continuous
100
AcDbLine
 10
126.14408
 20
41.0
 30
0.0
 11
132.64408
 21
41.0
 31
0.0
  0
LINE
  5
A72E
330
A667
100
AcDbEntity
  8
1
  6
Continuous
100
AcDbLine
 10
125.14408
 20
43.0
 30
0.0
 11
126.14408
 21
41.0
 31
0.0
  0
LINE
  5
A72F
330
A667
100
AcDbEntity
  8
1
  6
Continuous
100
AcDbLine
 10
132.7440799999999
 20
44.0
 30
0.0
 11
132.64408
 21
44.0
 31
0.0
  0
LINE
  5
A730
330
A667
100
AcDbEntity
  8
1
  6
Continuous
100
AcDbLine
 10
128.64408
 20
57.95
 30
0.0
 11
128.64408
 21
56.65
 31
0.0
  0
LINE
  5
A731
330
A667
100
AcDbEntity
  8
1
  6
Continuous
100
AcDbLine
 10
137.14408
 20
42.0
 30
0.0
 11
138.14408
 21
42.0
 31
0.0
  0
LINE
  5
A732
330
A667
100
AcDbEntity
  8
1
  6
Continuous
100
AcDbLine
 10
151.14408
 20
46.5
 30
0.0
 11
149.14408
 21
46.5
 31
0.0
  0
LINE
  5
A733
330
A667
100
AcDbEntity
  8
1
  6
Continuous
100
AcDbLine
 10
148.64408
 20
65.5
 30
0.0
 11
148.64408
 21
46.5
 31
0.0
  0
LINE
  5
A734
330
A667
100
AcDbEntity
  8
1
  6
Continuous
100
AcDbLine
 10
149.14408
 20
65.243697
 30
0.0
 11
149.14408
 21
46.5
 31
0.0
  0
LINE
  5
A735
330
A667
100
AcDbEntity
  8
1
  6
Continuous
100
AcDbLine
 10
149.14408
 20
61.0
 30
0.0
 11
148.64408
 21
61.0
 31
0.0
  0
LINE
  5
A736
330
A667
100
AcDbEntity
  8
1
  6
Continuous
100
AcDbLine
 10
138.5505049999999
 20
65.5
 30
0.0
 11
138.5505049999999
 21
46.5
 31
0.0
  0
LINE
  5
A737
330
A667
100
AcDbEntity
  8
1
  6
Continuous
100
AcDbLine
 10
146.14408
 20
46.5
 30
0.0
 11
146.14408
 21
65.5
 31
0.0
  0
LINE
  5
A738
330
A667
100
AcDbEntity
  8
1
  6
Continuous
100
AcDbLine
 10
147.14408
 20
65.5
 30
0.0
 11
147.14408
 21
46.5
 31
0.0
  0
LINE
  5
A739
330
A667
100
AcDbEntity
  8
1
  6
Continuous
100
AcDbLine
 10
149.14408
 20
51.0
 30
0.0
 11
148.64408
 21
51.0
 31
0.0
  0
LINE
  5
A73A
330
A667
100
AcDbEntity
  8
1
  6
Continuous
100
AcDbLine
 10
151.14408
 20
65.243697
 30
0.0
 11
151.14408
 21
46.5
 31
0.0
  0
LINE
  5
A73B
330
A667
100
AcDbEntity
  8
1
  6
Continuous
100
AcDbLine
 10
152.84408
 20
60.949748
 30
0.0
 11
151.14408
 21
60.949748
 31
0.0
  0
LINE
  5
A73C
330
A667
100
AcDbEntity
  8
1
  6
Continuous
100
AcDbLine
 10
152.84408
 20
56.70710699999999
 30
0.0
 11
151.14408
 21
56.70710699999999
 31
0.0
  0
ARC
  5
A73D
330
A667
100
AcDbEntity
  8
1
  6
Continuous
100
AcDbCircle
 10
152.84408
 20
60.7
 30
0.0
 40
0.3
100
AcDbArc
 50
0.0
 51
90.0
  0
LINE
  5
A73E
330
A667
100
AcDbEntity
  8
2
  6
Continuous
100
AcDbLine
 10
152.84408
 20
60.949748
 30
0.0
 11
151.14408
 21
59.000427
 31
0.0
  0
LINE
  5
A73F
330
A667
100
AcDbEntity
  8
2
  6
Continuous
100
AcDbLine
 10
151.14408
 20
58.656429
 30
0.0
 11
152.84408
 21
56.70710699999999
 31
0.0
  0
LINE
  5
A740
330
A667
100
AcDbEntity
  8
1
  6
Continuous
100
AcDbLine
 10
152.84408
 20
61.0
 30
0.0
 11
151.14408
 21
61.0
 31
0.0
  0
LINE
  5
A741
330
A667
100
AcDbEntity
  8
1
  6
Continuous
100
AcDbLine
 10
152.84408
 20
55.29289399999999
 30
0.0
 11
151.14408
 21
55.29289399999999
 31
0.0
  0
LINE
  5
A742
330
A667
100
AcDbEntity
  8
1
  6
Continuous
100
AcDbLine
 10
152.84408
 20
51.05025300000001
 30
0.0
 11
151.14408
 21
51.05025300000001
 31
0.0
  0
ARC
  5
A743
330
A667
100
AcDbEntity
  8
1
  6
Continuous
100
AcDbCircle
 10
152.84408
 20
51.29999999999999
 30
0.0
 40
0.3
100
AcDbArc
 50
270.0
 51
0.0
  0
LINE
  5
A744
330
A667
100
AcDbEntity
  8
2
  6
Continuous
100
AcDbLine
 10
152.84408
 20
55.29289399999999
 30
0.0
 11
151.14408
 21
53.34357199999999
 31
0.0
  0
LINE
  5
A745
330
A667
100
AcDbEntity
  8
2
  6
Continuous
100
AcDbLine
 10
151.14408
 20
52.999574
 30
0.0
 11
152.84408
 21
51.05025300000001
 31
0.0
  0
LINE
  5
A746
330
A667
100
AcDbEntity
  8
1
  6
Continuous
100
AcDbLine
 10
152.84408
 20
51.0
 30
0.0
 11
151.14408
 21
51.0
 31
0.0
  0
LINE
  5
A747
330
A667
100
AcDbEntity
  8
1
  6
Continuous
100
AcDbLine
 10
153.14408
 20
60.7
 30
0.0
 11
153.14408
 21
51.29999999999999
 31
0.0
  0
LINE
  5
A748
330
A667
100
AcDbEntity
  8
1
  6
Continuous
100
AcDbLine
 10
132.7440799999999
 20
71.0
 30
0.0
 11
137.14408
 21
71.0
 31
0.0
  0
LINE
  5
A749
330
A667
100
AcDbEntity
  8
1
  6
Continuous
100
AcDbLine
 10
126.14408
 20
71.0
 30
0.0
 11
132.64408
 21
71.0
 31
0.0
  0
LINE
  5
A74A
330
A667
100
AcDbEntity
  8
1
  6
Continuous
100
AcDbLine
 10
126.14408
 20
71.0
 30
0.0
 11
125.14408
 21
69.0
 31
0.0
  0
LINE
  5
A74B
330
A667
100
AcDbEntity
  8
1
  6
Continuous
100
AcDbLine
 10
132.7440799999999
 20
68.0
 30
0.0
 11
132.64408
 21
68.0
 31
0.0
  0
LINE
  5
A74C
330
A667
100
AcDbEntity
  8
1
  6
Continuous
100
AcDbLine
 10
137.14408
 20
70.0
 30
0.0
 11
138.14408
 21
70.0
 31
0.0
  0
LINE
  5
A74D
330
A667
100
AcDbEntity
  8
1
  6
Continuous
100
AcDbLine
 10
193.042503
 20
43.65
 30
0.0
 11
193.042503
 21
68.34999999999999
 31
0.0
  0
LINE
  5
A74E
330
A667
100
AcDbEntity
  8
1
  6
Continuous
100
AcDbLine
 10
198.342503
 20
70.5
 30
0.0
 11
198.342503
 21
41.5
 31
0.0
  0
LINE
  5
A74F
330
A667
100
AcDbEntity
  8
1
  6
Continuous
100
AcDbLine
 10
194.8425029999999
 20
70.5
 30
0.0
 11
194.8425029999999
 21
41.5
 31
0.0
  0
LINE
  5
A750
330
A667
100
AcDbEntity
  8
4
  6
CENTER
100
AcDbLine
 10
236.1422609999999
 20
56.0
 30
0.0
 11
189.3336109999999
 21
56.0
 31
0.0
  0
ARC
  5
A751
330
A667
100
AcDbEntity
  8
1
  6
Continuous
100
AcDbCircle
 10
193.9425029999999
 20
43.6
 30
0.0
 40
0.9
100
AcDbArc
 50
180.0
 51
0.0
  0
LINE
  5
A752
330
A667
100
AcDbEntity
  8
1
  6
Continuous
100
AcDbLine
 10
197.741451
 20
56.0
 30
0.0
 11
194.8425029999999
 21
56.0
 31
0.0
  0
LINE
  5
A753
330
A667
100
AcDbEntity
  8
1
  6
Continuous
100
AcDbLine
 10
211.8573979999999
 20
65.0
 30
0.0
 11
212.857398
 21
65.0
 31
0.0
  0
LINE
  5
A754
330
A667
100
AcDbEntity
  8
1
  6
Continuous
100
AcDbLine
 10
211.8573979999999
 20
47.0
 30
0.0
 11
212.857398
 21
47.0
 31
0.0
  0
LINE
  5
A755
330
A667
100
AcDbEntity
  8
1
  6
Continuous
100
AcDbLine
 10
211.8573979999999
 20
65.0
 30
0.0
 11
211.8573979999999
 21
47.0
 31
0.0
  0
LINE
  5
A756
330
A667
100
AcDbEntity
  8
1
  6
Continuous
100
AcDbLine
 10
212.857398
 20
65.0
 30
0.0
 11
212.857398
 21
47.0
 31
0.0
  0
LINE
  5
A757
330
A667
100
AcDbEntity
  8
1
  6
Continuous
100
AcDbLine
 10
229.56544
 20
60.6
 30
0.0
 11
228.2654399999999
 21
60.6
 31
0.0
  0
LINE
  5
A758
330
A667
100
AcDbEntity
  8
1
  6
Continuous
100
AcDbLine
 10
228.2654399999999
 20
61.0
 30
0.0
 11
227.2654399999999
 21
61.0
 31
0.0
  0
LINE
  5
A759
330
A667
100
AcDbEntity
  8
1
  6
Continuous
100
AcDbLine
 10
229.56544
 20
51.4
 30
0.0
 11
228.2654399999999
 21
51.4
 31
0.0
  0
LINE
  5
A75A
330
A667
100
AcDbEntity
  8
1
  6
Continuous
100
AcDbLine
 10
228.2654399999999
 20
51.0
 30
0.0
 11
227.2654399999999
 21
51.0
 31
0.0
  0
LINE
  5
A75B
330
A667
100
AcDbEntity
  8
1
  6
Continuous
100
AcDbLine
 10
228.2654399999999
 20
61.0
 30
0.0
 11
228.2654399999999
 21
51.0
 31
0.0
  0
LINE
  5
A75C
330
A667
100
AcDbEntity
  8
1
  6
Continuous
100
AcDbLine
 10
227.2654399999999
 20
61.0
 30
0.0
 11
227.2654399999999
 21
51.0
 31
0.0
  0
LINE
  5
A75D
330
A667
100
AcDbEntity
  8
1
  6
Continuous
100
AcDbLine
 10
229.56544
 20
57.3
 30
0.0
 11
228.2654399999999
 21
56.0
 31
0.0
  0
LINE
  5
A75E
330
A667
100
AcDbEntity
  8
1
  6
Continuous
100
AcDbLine
 10
229.56544
 20
56.0
 30
0.0
 11
228.2654399999999
 21
54.7
 31
0.0
  0
LINE
  5
A75F
330
A667
100
AcDbEntity
  8
1
  6
Continuous
100
AcDbLine
 10
229.56544
 20
51.381
 30
0.0
 11
229.56544
 21
60.619
 31
0.0
  0
ARC
  5
A760
330
A667
100
AcDbEntity
  8
1
  6
Continuous
100
AcDbCircle
 10
193.9425029999999
 20
68.4
 30
0.0
 40
0.9
100
AcDbArc
 50
0.0
 51
180.0
  0
LINE
  5
A761
330
A667
100
AcDbEntity
  8
1
  6
Continuous
100
AcDbLine
 10
232.7080599999999
 20
56.0
 30
0.0
 11
229.56544
 21
56.0
 31
0.0
  0
LINE
  5
A762
330
A667
100
AcDbEntity
  8
1
  6
Continuous
100
AcDbLine
 10
229.56544
 20
52.0
 30
0.0
 11
233.0654399999999
 21
52.0
 31
0.0
  0
LINE
  5
A763
330
A667
100
AcDbEntity
  8
1
  6
Continuous
100
AcDbLine
 10
229.56544
 20
60.0
 30
0.0
 11
233.0654399999999
 21
60.0
 31
0.0
  0
ARC
  5
A764
330
A667
100
AcDbEntity
  8
1
  6
Continuous
100
AcDbCircle
 10
227.2904629999999
 20
58.0
 30
0.0
 40
5.774976999999998
100
AcDbArc
 50
339.7375
 51
20.2625
  0
LINE
  5
A765
330
A667
100
AcDbEntity
  8
1
  6
Continuous
100
AcDbLine
 10
233.0654399999999
 20
52.0
 30
0.0
 11
233.0654399999999
 21
60.0
 31
0.0
  0
ARC
  5
A766
330
A667
100
AcDbEntity
  8
1
  6
Continuous
100
AcDbCircle
 10
227.2904629999999
 20
54.0
 30
0.0
 40
5.774976999999998
100
AcDbArc
 50
339.7375
 51
20.2625
  0
LINE
  5
A767
330
A667
100
AcDbEntity
  8
1
  6
Continuous
100
AcDbLine
 10
198.342503
 20
70.5
 30
0.0
 11
194.8425029999999
 21
70.5
 31
0.0
  0
LINE
  5
A768
330
A667
100
AcDbEntity
  8
1
  6
Continuous
100
AcDbLine
 10
198.342503
 20
41.5
 30
0.0
 11
194.8425029999999
 21
41.5
 31
0.0
  0
ARC
  5
A769
330
A667
100
AcDbEntity
  8
1
  6
Continuous
100
AcDbCircle
 10
154.2371729999999
 20
63.25
 30
0.0
 40
44.104248
100
AcDbArc
 50
350.538591
 51
9.461408999999999
  0
ARC
  5
A76A
330
A667
100
AcDbEntity
  8
1
  6
Continuous
100
AcDbCircle
 10
154.2371729999999
 20
48.75
 30
0.0
 40
44.104248
100
AcDbArc
 50
350.538591
 51
9.461408999999999
  0
LINE
  5
A76B
330
A667
100
AcDbEntity
  8
1
  6
Continuous
100
AcDbLine
 10
194.8425029999999
 20
56.0
 30
0.0
 11
193.042503
 21
54.2
 31
0.0
  0
LINE
  5
A76C
330
A667
100
AcDbEntity
  8
1
  6
Continuous
100
AcDbLine
 10
194.8425029999999
 20
57.8
 30
0.0
 11
193.042503
 21
56.0
 31
0.0
  0
LINE
  5
A76D
330
A667
100
AcDbEntity
  8
1
  6
Continuous
100
AcDbLine
 10
194.8425029999999
 20
136.0
 30
0.0
 11
193.042503
 21
134.1999999999998
 31
0.0
  0
LINE
  5
A76E
330
A667
100
AcDbEntity
  8
1
  6
Continuous
100
AcDbLine
 10
194.8425029999999
 20
137.8
 30
0.0
 11
193.042503
 21
136.0
 31
0.0
  0
LINE
  5
A76F
330
A667
100
AcDbEntity
  8
1
  6
Continuous
100
AcDbLine
 10
130.1440799999998
 20
65.09999999999999
 30
0.0
 11
127.04408
 21
65.09999999999999
 31
0.0
  0
LINE
  5
A770
330
A667
100
AcDbEntity
  8
1
  6
Continuous
100
AcDbLine
 10
130.1440799999998
 20
46.9
 30
0.0
 11
127.04408
 21
46.9
 31
0.0
  0
LINE
  5
A771
330
A667
100
AcDbEntity
  8
1
  6
Continuous
100
AcDbLine
 10
127.04408
 20
67.18034
 30
0.0
 11
130.1440799999998
 21
67.18034
 31
0.0
  0
LINE
  5
A772
330
A667
100
AcDbEntity
  8
1
  6
Continuous
100
AcDbLine
 10
127.04408
 20
44.81965999999999
 30
0.0
 11
130.1440799999998
 21
44.81965999999999
 31
0.0
  0
LINE
  5
A773
330
A667
100
AcDbEntity
  8
1
  6
Continuous
100
AcDbLine
 10
130.1440799999998
 20
58.45
 30
0.0
 11
129.1440799999998
 21
58.45
 31
0.0
  0
LINE
  5
A774
330
A667
100
AcDbEntity
  8
1
  6
Continuous
100
AcDbLine
 10
130.1440799999998
 20
56.15
 30
0.0
 11
129.1440799999998
 21
56.15
 31
0.0
  0
ARC
  5
A775
330
A667
100
AcDbEntity
  8
1
  6
Continuous
100
AcDbCircle
 10
129.1440799999998
 20
57.95
 30
0.0
 40
0.5
100
AcDbArc
 50
90.0
 51
180.0
  0
ARC
  5
A776
330
A667
100
AcDbEntity
  8
1
  6
Continuous
100
AcDbCircle
 10
129.1440799999998
 20
56.65
 30
0.0
 40
0.5
100
AcDbArc
 50
180.0
 51
270.0
  0
LINE
  5
A777
330
A667
100
AcDbEntity
  8
1
  6
Continuous
100
AcDbLine
 10
148.64408
 20
65.5
 30
0.0
 11
138.14408
 21
65.5
 31
0.0
  0
LINE
  5
A778
330
A667
100
AcDbEntity
  8
1
  6
Continuous
100
AcDbLine
 10
148.64408
 20
46.5
 30
0.0
 11
138.14408
 21
46.5
 31
0.0
  0
LINE
  5
A779
330
A667
100
AcDbEntity
  8
1
  6
Continuous
100
AcDbLine
 10
151.14408
 20
65.243697
 30
0.0
 11
149.14408
 21
65.243697
 31
0.0
  0
LINE
  5
A77A
330
A667
100
AcDbEntity
  8
1
  6
Continuous
100
AcDbLine
 10
151.14408
 20
59.12249899999999
 30
0.0
 11
149.14408
 21
59.12249899999999
 31
0.0
  0
LINE
  5
A77B
330
A667
100
AcDbEntity
  8
1
  6
Continuous
100
AcDbLine
 10
151.14408
 20
52.877501
 30
0.0
 11
149.14408
 21
52.877501
 31
0.0
  0
LINE
  5
A77C
330
A667
100
AcDbEntity
  8
1
  6
Continuous
100
AcDbLine
 10
151.14408
 20
50.795048
 30
0.0
 11
149.14408
 21
50.795048
 31
0.0
  0
LINE
  5
A77D
330
A667
100
AcDbEntity
  8
1
  6
Continuous
100
AcDbLine
 10
151.14408
 20
48.042715
 30
0.0
 11
149.14408
 21
48.042715
 31
0.0
  0
LINE
  5
A77E
330
A667
100
AcDbEntity
  8
1
  6
Continuous
100
AcDbLine
 10
153.14408
 20
220.6999999999999
 30
0.0
 11
153.14408
 21
211.2999999999999
 31
0.0
  0
LINE
  5
A77F
330
A667
100
AcDbEntity
  8
1
  6
Continuous
100
AcDbLine
 10
151.14408
 20
206.756303
 30
0.0
 11
151.14408
 21
225.4999999999999
 31
0.0
  0
LINE
  5
A780
330
A667
100
AcDbEntity
  8
1
  6
Continuous
100
AcDbLine
 10
149.14408
 20
206.756303
 30
0.0
 11
149.14408
 21
211.0
 31
0.0
  0
LINE
  5
A781
330
A667
100
AcDbEntity
  8
1
  6
Continuous
100
AcDbLine
 10
147.14408
 20
225.4999999999999
 30
0.0
 11
147.14408
 21
206.4999999999999
 31
0.0
  0
LINE
  5
A782
330
A667
100
AcDbEntity
  8
1
  6
Continuous
100
AcDbLine
 10
146.14408
 20
206.4999999999999
 30
0.0
 11
146.14408
 21
225.4999999999999
 31
0.0
  0
LINE
  5
A783
330
A667
100
AcDbEntity
  8
1
  6
Continuous
100
AcDbLine
 10
138.5505049999999
 20
225.4999999999999
 30
0.0
 11
138.5505049999999
 21
206.4999999999999
 31
0.0
  0
LINE
  5
A784
330
A667
100
AcDbEntity
  8
1
  6
Continuous
100
AcDbLine
 10
148.64408
 20
225.4999999999999
 30
0.0
 11
148.64408
 21
221.0
 31
0.0
  0
LINE
  5
A785
330
A667
100
AcDbEntity
  8
1
  6
Continuous
100
AcDbLine
 10
126.14408
 20
231.0
 30
0.0
 11
126.14408
 21
201.0
 31
0.0
  0
LINE
  5
A786
330
A667
100
AcDbEntity
  8
1
  6
Continuous
100
AcDbLine
 10
125.14408
 20
229.0
 30
0.0
 11
125.14408
 21
203.0
 31
0.0
  0
LINE
  5
A787
330
A667
100
AcDbEntity
  8
1
  6
Continuous
100
AcDbLine
 10
132.7440799999999
 20
231.0
 30
0.0
 11
132.7440799999999
 21
201.0
 31
0.0
  0
LINE
  5
A788
330
A667
100
AcDbEntity
  8
1
  6
Continuous
100
AcDbLine
 10
132.64408
 20
231.0
 30
0.0
 11
132.64408
 21
201.0
 31
0.0
  0
LINE
  5
A789
330
A667
100
AcDbEntity
  8
1
  6
Continuous
100
AcDbLine
 10
138.14408
 20
230.0
 30
0.0
 11
138.14408
 21
202.0
 31
0.0
  0
LINE
  5
A78A
330
A667
100
AcDbEntity
  8
1
  6
Continuous
100
AcDbLine
 10
137.14408
 20
231.0
 30
0.0
 11
137.14408
 21
201.0
 31
0.0
  0
LINE
  5
A78B
330
A667
100
AcDbEntity
  8
4
  6
CENTER
100
AcDbLine
 10
156.1440799999998
 20
216.0
 30
0.0
 11
122.14408
 21
216.0
 31
0.0
  0
LINE
  5
A78C
330
A667
100
AcDbEntity
  8
1
  6
Continuous
100
AcDbLine
 10
132.7440799999999
 20
201.0
 30
0.0
 11
137.14408
 21
201.0
 31
0.0
  0
LINE
  5
A78D
330
A667
100
AcDbEntity
  8
1
  6
Continuous
100
AcDbLine
 10
126.14408
 20
201.0
 30
0.0
 11
132.64408
 21
201.0
 31
0.0
  0
LINE
  5
A78E
330
A667
100
AcDbEntity
  8
1
  6
Continuous
100
AcDbLine
 10
132.7440799999999
 20
204.0
 30
0.0
 11
132.64408
 21
204.0
 31
0.0
  0
LINE
  5
A78F
330
A667
100
AcDbEntity
  8
1
  6
Continuous
100
AcDbLine
 10
125.14408
 20
203.0
 30
0.0
 11
126.14408
 21
201.0
 31
0.0
  0
LINE
  5
A790
330
A667
100
AcDbEntity
  8
1
  6
Continuous
100
AcDbLine
 10
151.14408
 20
225.4999999999999
 30
0.0
 11
149.14408
 21
225.4999999999999
 31
0.0
  0
LINE
  5
A791
330
A667
100
AcDbEntity
  8
1
  6
Continuous
100
AcDbLine
 10
150.64408
 20
211.0
 30
0.0
 11
148.64408
 21
211.0
 31
0.0
  0
LINE
  5
A792
330
A667
100
AcDbEntity
  8
1
  6
Continuous
100
AcDbLine
 10
148.64408
 20
206.4999999999999
 30
0.0
 11
138.14408
 21
206.4999999999999
 31
0.0
  0
LINE
  5
A793
330
A667
100
AcDbEntity
  8
1
  6
Continuous
100
AcDbLine
 10
137.14408
 20
202.0
 30
0.0
 11
138.14408
 21
202.0
 31
0.0
  0
LINE
  5
A794
330
A667
100
AcDbEntity
  8
2
  6
Continuous
100
AcDbLine
 10
151.14408
 20
218.656429
 30
0.0
 11
152.84408
 21
216.7071069999999
 31
0.0
  0
LINE
  5
A795
330
A667
100
AcDbEntity
  8
1
  6
Continuous
100
AcDbLine
 10
152.84408
 20
211.0
 30
0.0
 11
151.14408
 21
211.0
 31
0.0
  0
LINE
  5
A796
330
A667
100
AcDbEntity
  8
2
  6
Continuous
100
AcDbLine
 10
151.14408
 20
212.999574
 30
0.0
 11
152.84408
 21
211.0502529999999
 31
0.0
  0
LINE
  5
A797
330
A667
100
AcDbEntity
  8
2
  6
Continuous
100
AcDbLine
 10
152.84408
 20
215.2928939999999
 30
0.0
 11
151.14408
 21
213.343572
 31
0.0
  0
ARC
  5
A798
330
A667
100
AcDbEntity
  8
1
  6
Continuous
100
AcDbCircle
 10
152.84408
 20
211.2999999999999
 30
0.0
 40
0.3
100
AcDbArc
 50
270.0
 51
0.0
  0
LINE
  5
A799
330
A667
100
AcDbEntity
  8
1
  6
Continuous
100
AcDbLine
 10
152.84408
 20
211.0502529999999
 30
0.0
 11
151.14408
 21
211.0502529999999
 31
0.0
  0
LINE
  5
A79A
330
A667
100
AcDbEntity
  8
1
  6
Continuous
100
AcDbLine
 10
152.84408
 20
215.2928939999999
 30
0.0
 11
151.14408
 21
215.2928939999999
 31
0.0
  0
LINE
  5
A79B
330
A667
100
AcDbEntity
  8
1
  6
Continuous
100
AcDbLine
 10
152.84408
 20
216.7071069999999
 30
0.0
 11
151.14408
 21
216.7071069999999
 31
0.0
  0
LINE
  5
A79C
330
A667
100
AcDbEntity
  8
1
  6
Continuous
100
AcDbLine
 10
132.7440799999999
 20
231.0
 30
0.0
 11
137.14408
 21
231.0
 31
0.0
  0
LINE
  5
A79D
330
A667
100
AcDbEntity
  8
1
  6
Continuous
100
AcDbLine
 10
126.14408
 20
231.0
 30
0.0
 11
125.14408
 21
229.0
 31
0.0
  0
LINE
  5
A79E
330
A667
100
AcDbEntity
  8
1
  6
Continuous
100
AcDbLine
 10
126.14408
 20
231.0
 30
0.0
 11
132.64408
 21
231.0
 31
0.0
  0
LINE
  5
A79F
330
A667
100
AcDbEntity
  8
1
  6
Continuous
100
AcDbLine
 10
132.7440799999999
 20
228.0
 30
0.0
 11
132.64408
 21
228.0
 31
0.0
  0
LINE
  5
A7A0
330
A667
100
AcDbEntity
  8
1
  6
Continuous
100
AcDbLine
 10
151.14408
 20
206.756303
 30
0.0
 11
149.14408
 21
206.756303
 31
0.0
  0
LINE
  5
A7A1
330
A667
100
AcDbEntity
  8
1
  6
Continuous
100
AcDbLine
 10
137.14408
 20
230.0
 30
0.0
 11
138.14408
 21
230.0
 31
0.0
  0
LINE
  5
A7A2
330
A667
100
AcDbEntity
  8
1
  6
Continuous
100
AcDbLine
 10
148.64408
 20
225.4999999999999
 30
0.0
 11
138.14408
 21
225.4999999999999
 31
0.0
  0
LINE
  5
A7A3
330
A667
100
AcDbEntity
  8
1
  6
Continuous
100
AcDbLine
 10
150.64408
 20
221.0
 30
0.0
 11
148.64408
 21
221.0
 31
0.0
  0
LINE
  5
A7A4
330
A667
100
AcDbEntity
  8
1
  6
Continuous
100
AcDbLine
 10
152.84408
 20
221.0
 30
0.0
 11
151.14408
 21
221.0
 31
0.0
  0
LINE
  5
A7A5
330
A667
100
AcDbEntity
  8
2
  6
Continuous
100
AcDbLine
 10
152.84408
 20
220.949748
 30
0.0
 11
151.14408
 21
219.000427
 31
0.0
  0
ARC
  5
A7A6
330
A667
100
AcDbEntity
  8
1
  6
Continuous
100
AcDbCircle
 10
152.84408
 20
220.6999999999999
 30
0.0
 40
0.3
100
AcDbArc
 50
0.0
 51
90.0
  0
LINE
  5
A7A7
330
A667
100
AcDbEntity
  8
1
  6
Continuous
100
AcDbLine
 10
152.84408
 20
220.949748
 30
0.0
 11
151.14408
 21
220.949748
 31
0.0
  0
LINE
  5
A7A8
330
A667
100
AcDbEntity
  8
1
  6
Continuous
100
AcDbLine
 10
233.0654399999999
 20
212.0
 30
0.0
 11
233.0654399999999
 21
220.0
 31
0.0
  0
ARC
  5
A7A9
330
A667
100
AcDbEntity
  8
1
  6
Continuous
100
AcDbCircle
 10
227.2904629999999
 20
218.0
 30
0.0
 40
5.774976999999998
100
AcDbArc
 50
339.7375
 51
20.2625
  0
LINE
  5
A7AA
330
A667
100
AcDbEntity
  8
1
  6
Continuous
100
AcDbLine
 10
229.56544
 20
211.3809999999999
 30
0.0
 11
229.56544
 21
220.619
 31
0.0
  0
LINE
  5
A7AB
330
A667
100
AcDbEntity
  8
1
  6
Continuous
100
AcDbLine
 10
227.2654399999999
 20
221.0
 30
0.0
 11
227.2654399999999
 21
211.0
 31
0.0
  0
LINE
  5
A7AC
330
A667
100
AcDbEntity
  8
1
  6
Continuous
100
AcDbLine
 10
228.2654399999999
 20
221.0
 30
0.0
 11
228.2654399999999
 21
211.0
 31
0.0
  0
LINE
  5
A7AD
330
A667
100
AcDbEntity
  8
1
  6
Continuous
100
AcDbLine
 10
212.857398
 20
225.0
 30
0.0
 11
212.857398
 21
207.0
 31
0.0
  0
LINE
  5
A7AE
330
A667
100
AcDbEntity
  8
1
  6
Continuous
100
AcDbLine
 10
211.8573979999999
 20
225.0
 30
0.0
 11
211.8573979999999
 21
207.0
 31
0.0
  0
LINE
  5
A7AF
330
A667
100
AcDbEntity
  8
1
  6
Continuous
100
AcDbLine
 10
193.042503
 20
203.65
 30
0.0
 11
193.042503
 21
228.35
 31
0.0
  0
ARC
  5
A7B0
330
A667
100
AcDbEntity
  8
1
  6
Continuous
100
AcDbCircle
 10
154.2371729999999
 20
223.2499999999999
 30
0.0
 40
44.104248
100
AcDbArc
 50
350.538591
 51
9.461408999999999
  0
LINE
  5
A7B1
330
A667
100
AcDbEntity
  8
1
  6
Continuous
100
AcDbLine
 10
194.8425029999999
 20
230.5
 30
0.0
 11
194.8425029999999
 21
201.5
 31
0.0
  0
LINE
  5
A7B2
330
A667
100
AcDbEntity
  8
1
  6
Continuous
100
AcDbLine
 10
198.342503
 20
230.5
 30
0.0
 11
198.342503
 21
201.5
 31
0.0
  0
LINE
  5
A7B3
330
A667
100
AcDbEntity
  8
1
  6
Continuous
100
AcDbLine
 10
229.56544
 20
212.0
 30
0.0
 11
233.0654399999999
 21
212.0
 31
0.0
  0
LINE
  5
A7B4
330
A667
100
AcDbEntity
  8
1
  6
Continuous
100
AcDbLine
 10
232.7080599999999
 20
216.0
 30
0.0
 11
229.56544
 21
216.0
 31
0.0
  0
LINE
  5
A7B5
330
A667
100
AcDbEntity
  8
4
  6
CENTER
100
AcDbLine
 10
236.1422609999999
 20
216.0
 30
0.0
 11
189.3336109999999
 21
216.0
 31
0.0
  0
ARC
  5
A7B6
330
A667
100
AcDbEntity
  8
1
  6
Continuous
100
AcDbCircle
 10
154.2371729999999
 20
208.7499999999999
 30
0.0
 40
44.104248
100
AcDbArc
 50
350.538591
 51
9.461408999999999
  0
LINE
  5
A7B7
330
A667
100
AcDbEntity
  8
1
  6
Continuous
100
AcDbLine
 10
198.342503
 20
201.5
 30
0.0
 11
194.8425029999999
 21
201.5
 31
0.0
  0
LINE
  5
A7B8
330
A667
100
AcDbEntity
  8
1
  6
Continuous
100
AcDbLine
 10
194.8425029999999
 20
217.8
 30
0.0
 11
193.042503
 21
216.0
 31
0.0
  0
LINE
  5
A7B9
330
A667
100
AcDbEntity
  8
1
  6
Continuous
100
AcDbLine
 10
194.8425029999999
 20
216.0
 30
0.0
 11
193.042503
 21
214.1999999999999
 31
0.0
  0
ARC
  5
A7BA
330
A667
100
AcDbEntity
  8
1
  6
Continuous
100
AcDbCircle
 10
193.9425029999999
 20
203.6
 30
0.0
 40
0.9
100
AcDbArc
 50
180.0
 51
0.0
  0
LINE
  5
A7BB
330
A667
100
AcDbEntity
  8
1
  6
Continuous
100
AcDbLine
 10
211.8573979999999
 20
207.0
 30
0.0
 11
212.857398
 21
207.0
 31
0.0
  0
LINE
  5
A7BC
330
A667
100
AcDbEntity
  8
1
  6
Continuous
100
AcDbLine
 10
229.56544
 20
217.3
 30
0.0
 11
228.2654399999999
 21
216.0
 31
0.0
  0
LINE
  5
A7BD
330
A667
100
AcDbEntity
  8
1
  6
Continuous
100
AcDbLine
 10
229.56544
 20
216.0
 30
0.0
 11
228.2654399999999
 21
214.6999999999999
 31
0.0
  0
LINE
  5
A7BE
330
A667
100
AcDbEntity
  8
1
  6
Continuous
100
AcDbLine
 10
228.2654399999999
 20
211.0
 30
0.0
 11
227.2654399999999
 21
211.0
 31
0.0
  0
LINE
  5
A7BF
330
A667
100
AcDbEntity
  8
1
  6
Continuous
100
AcDbLine
 10
229.56544
 20
211.3999999999998
 30
0.0
 11
228.2654399999999
 21
211.3999999999998
 31
0.0
  0
ARC
  5
A7C0
330
A667
100
AcDbEntity
  8
1
  6
Continuous
100
AcDbCircle
 10
227.2904629999999
 20
214.0
 30
0.0
 40
5.774976999999998
100
AcDbArc
 50
339.7375
 51
20.2625
  0
LINE
  5
A7C1
330
A667
100
AcDbEntity
  8
1
  6
Continuous
100
AcDbLine
 10
229.56544
 20
220.0
 30
0.0
 11
233.0654399999999
 21
220.0
 31
0.0
  0
LINE
  5
A7C2
330
A667
100
AcDbEntity
  8
1
  6
Continuous
100
AcDbLine
 10
198.342503
 20
230.5
 30
0.0
 11
194.8425029999999
 21
230.5
 31
0.0
  0
ARC
  5
A7C3
330
A667
100
AcDbEntity
  8
1
  6
Continuous
100
AcDbCircle
 10
193.9425029999999
 20
228.4
 30
0.0
 40
0.9
100
AcDbArc
 50
0.0
 51
180.0
  0
LINE
  5
A7C4
330
A667
100
AcDbEntity
  8
1
  6
Continuous
100
AcDbLine
 10
211.8573979999999
 20
225.0
 30
0.0
 11
212.857398
 21
225.0
 31
0.0
  0
LINE
  5
A7C5
330
A667
100
AcDbEntity
  8
1
  6
Continuous
100
AcDbLine
 10
228.2654399999999
 20
221.0
 30
0.0
 11
227.2654399999999
 21
221.0
 31
0.0
  0
LINE
  5
A7C6
330
A667
100
AcDbEntity
  8
1
  6
Continuous
100
AcDbLine
 10
229.56544
 20
220.5999999999999
 30
0.0
 11
228.2654399999999
 21
220.5999999999999
 31
0.0
  0
LINE
  5
A7C7
330
A667
100
AcDbEntity
  8
1
  6
Continuous
100
AcDbLine
 10
148.64408
 20
211.0
 30
0.0
 11
148.64408
 21
206.4999999999999
 31
0.0
  0
LINE
  5
A7C8
330
A667
100
AcDbEntity
  8
1
  6
Continuous
100
AcDbLine
 10
150.64408
 20
221.0
 30
0.0
 11
150.64408
 21
211.0
 31
0.0
  0
LINE
  5
A7C9
330
A667
100
AcDbEntity
  8
1
  6
Continuous
100
AcDbLine
 10
149.14408
 20
221.0
 30
0.0
 11
149.14408
 21
225.4999999999999
 31
0.0
  0
LINE
  5
A7CA
330
A667
100
AcDbEntity
  8
1
  6
Continuous
100
AcDbLine
 10
150.14408
 20
221.0
 30
0.0
 11
150.14408
 21
211.0
 31
0.0
  0
LINE
  5
A7CB
330
A667
100
AcDbEntity
  8
1
  6
Continuous
100
AcDbLine
 10
151.14408
 20
221.176429
 30
0.0
 11
149.14408
 21
221.176429
 31
0.0
  0
LINE
  5
A7CC
330
A667
100
AcDbEntity
  8
1
  6
Continuous
100
AcDbLine
 10
151.14408
 20
220.0
 30
0.0
 11
150.64408
 21
220.0
 31
0.0
  0
LINE
  5
A7CD
330
A667
100
AcDbEntity
  8
1
  6
Continuous
100
AcDbLine
 10
151.14408
 20
208.0
 30
0.0
 11
149.14408
 21
208.0
 31
0.0
  0
LINE
  5
A7CE
330
A667
100
AcDbEntity
  8
1
  6
Continuous
100
AcDbLine
 10
456.4322699999998
 20
151.0
 30
0.0
 11
456.4322699999998
 21
121.0
 31
0.0
  0
LINE
  5
A7CF
330
A667
100
AcDbEntity
  8
1
  6
Continuous
100
AcDbLine
 10
456.3322699999998
 20
151.0
 30
0.0
 11
456.3322699999998
 21
121.0
 31
0.0
  0
LINE
  5
A7D0
330
A667
100
AcDbEntity
  8
1
  6
Continuous
100
AcDbLine
 10
451.93227
 20
151.0
 30
0.0
 11
451.93227
 21
121.0
 31
0.0
  0
LINE
  5
A7D1
330
A667
100
AcDbEntity
  8
1
  6
Continuous
100
AcDbLine
 10
442.93227
 20
147.0
 30
0.0
 11
441.93227
 21
146.0
 31
0.0
  0
LINE
  5
A7D2
330
A667
100
AcDbEntity
  8
1
  6
Continuous
100
AcDbLine
 10
442.93227
 20
147.0
 30
0.0
 11
442.93227
 21
141.5452689999999
 31
0.0
  0
LINE
  5
A7D3
330
A667
100
AcDbEntity
  8
1
  6
Continuous
100
AcDbLine
 10
450.525845
 20
141.5452689999999
 30
0.0
 11
450.525845
 21
147.0
 31
0.0
  0
LINE
  5
A7D4
330
A667
100
AcDbEntity
  8
1
  6
Continuous
100
AcDbLine
 10
463.93227
 20
149.0
 30
0.0
 11
463.93227
 21
123.0
 31
0.0
  0
LINE
  5
A7D5
330
A667
100
AcDbEntity
  8
1
  6
Continuous
100
AcDbLine
 10
450.93227
 20
150.0
 30
0.0
 11
450.93227
 21
122.0
 31
0.0
  0
LINE
  5
A7D6
330
A667
100
AcDbEntity
  8
1
  6
Continuous
100
AcDbLine
 10
462.93227
 20
151.0
 30
0.0
 11
462.93227
 21
121.0
 31
0.0
  0
LINE
  5
A7D7
330
A667
100
AcDbEntity
  8
1
  6
Continuous
100
AcDbLine
 10
456.3322699999998
 20
121.0
 30
0.0
 11
451.93227
 21
121.0
 31
0.0
  0
LINE
  5
A7D8
330
A667
100
AcDbEntity
  8
4
  6
CENTER
100
AcDbLine
 10
432.93227
 20
136.0
 30
0.0
 11
466.93227
 21
136.0
 31
0.0
  0
LINE
  5
A7D9
330
A667
100
AcDbEntity
  8
1
  6
Continuous
100
AcDbLine
 10
462.03227
 20
126.0
 30
0.0
 11
462.03227
 21
121.0
 31
0.0
  0
LINE
  5
A7DA
330
A667
100
AcDbEntity
  8
1
  6
Continuous
100
AcDbLine
 10
458.93227
 20
126.0
 30
0.0
 11
458.93227
 21
121.0
 31
0.0
  0
ARC
  5
A7DB
330
A667
100
AcDbEntity
  8
1
  6
Continuous
100
AcDbCircle
 10
459.93227
 20
125.2999999999999
 30
0.0
 40
0.5
100
AcDbArc
 50
270.0
 51
0.0
  0
LINE
  5
A7DC
330
A667
100
AcDbEntity
  8
1
  6
Continuous
100
AcDbLine
 10
458.93227
 20
121.0
 30
0.0
 11
456.4322699999998
 21
121.0
 31
0.0
  0
LINE
  5
A7DD
330
A667
100
AcDbEntity
  8
1
  6
Continuous
100
AcDbLine
 10
462.93227
 20
121.0
 30
0.0
 11
462.03227
 21
121.0
 31
0.0
  0
LINE
  5
A7DE
330
A667
100
AcDbEntity
  8
1
  6
Continuous
100
AcDbLine
 10
463.93227
 20
123.0
 30
0.0
 11
462.93227
 21
121.0
 31
0.0
  0
LINE
  5
A7DF
330
A667
100
AcDbEntity
  8
1
  6
Continuous
100
AcDbLine
 10
456.3322699999998
 20
124.0
 30
0.0
 11
456.4322699999998
 21
124.0
 31
0.0
  0
LINE
  5
A7E0
330
A667
100
AcDbEntity
  8
1
  6
Continuous
100
AcDbLine
 10
458.93227
 20
126.0
 30
0.0
 11
462.03227
 21
126.0
 31
0.0
  0
LINE
  5
A7E1
330
A667
100
AcDbEntity
  8
1
  6
Continuous
100
AcDbLine
 10
458.93227
 20
124.7999999999999
 30
0.0
 11
459.93227
 21
124.7999999999999
 31
0.0
  0
LINE
  5
A7E2
330
A667
100
AcDbEntity
  8
1
  6
Continuous
100
AcDbLine
 10
460.4322699999998
 20
126.0
 30
0.0
 11
460.4322699999998
 21
125.2999999999999
 31
0.0
  0
LINE
  5
A7E3
330
A667
100
AcDbEntity
  8
1
  6
Continuous
100
AcDbLine
 10
451.93227
 20
122.0
 30
0.0
 11
450.93227
 21
122.0
 31
0.0
  0
LINE
  5
A7E4
330
A667
100
AcDbEntity
  8
1
  6
Continuous
100
AcDbLine
 10
438.93227
 20
144.660254
 30
0.0
 11
440.43227
 21
144.660254
 31
0.0
  0
LINE
  5
A7E5
330
A667
100
AcDbEntity
  8
1
  6
Continuous
100
AcDbLine
 10
439.9322699999998
 20
143.3612159999998
 30
0.0
 11
440.43227
 21
143.3612159999998
 31
0.0
  0
LINE
  5
A7E6
330
A667
100
AcDbEntity
  8
1
  6
Continuous
100
AcDbLine
 10
437.93227
 20
126.5
 30
0.0
 11
439.9322699999998
 21
126.5
 31
0.0
  0
LINE
  5
A7E7
330
A667
100
AcDbEntity
  8
1
  6
Continuous
100
AcDbLine
 10
438.93227
 20
146.0
 30
0.0
 11
441.93227
 21
146.0
 31
0.0
  0
LINE
  5
A7E8
330
A667
100
AcDbEntity
  8
1
  6
Continuous
100
AcDbLine
 10
440.43227
 20
144.660254
 30
0.0
 11
440.43227
 21
126.0
 31
0.0
  0
LINE
  5
A7E9
330
A667
100
AcDbEntity
  8
1
  6
Continuous
100
AcDbLine
 10
439.9322699999998
 20
144.4658389999998
 30
0.0
 11
439.9322699999998
 21
126.5
 31
0.0
  0
LINE
  5
A7EA
330
A667
100
AcDbEntity
  8
2
  6
Continuous
100
AcDbLine
 10
450.93227
 20
125.306851
 30
0.0
 11
450.525845
 21
125.5414999999999
 31
0.0
  0
LINE
  5
A7EB
330
A667
100
AcDbEntity
  8
2
  6
Continuous
100
AcDbLine
 10
442.3907699999999
 20
125.5414999999999
 30
0.0
 11
450.525845
 21
125.5414999999999
 31
0.0
  0
LINE
  5
A7EC
330
A667
100
AcDbEntity
  8
2
  6
Continuous
100
AcDbLine
 10
450.93227
 20
146.69315
 30
0.0
 11
450.525845
 21
146.4584999999999
 31
0.0
  0
LINE
  5
A7ED
330
A667
100
AcDbEntity
  8
2
  6
Continuous
100
AcDbLine
 10
442.3907699999999
 20
146.4584999999999
 30
0.0
 11
450.525845
 21
146.4584999999999
 31
0.0
  0
LINE
  5
A7EE
330
A667
100
AcDbEntity
  8
1
  6
Continuous
100
AcDbLine
 10
442.93227
 20
130.454732
 30
0.0
 11
450.93227
 21
130.454732
 31
0.0
  0
LINE
  5
A7EF
330
A667
100
AcDbEntity
  8
2
  6
Continuous
100
AcDbLine
 10
450.93227
 20
140.79155
 30
0.0
 11
440.43227
 21
132.8775009999999
 31
0.0
  0
LINE
  5
A7F0
330
A667
100
AcDbEntity
  8
2
  6
Continuous
100
AcDbLine
 10
440.43227
 20
139.1224989999997
 30
0.0
 11
450.93227
 21
131.2084529999999
 31
0.0
  0
LINE
  5
A7F1
330
A667
100
AcDbEntity
  8
1
  6
Continuous
100
AcDbLine
 10
442.93227
 20
141.5452689999999
 30
0.0
 11
450.93227
 21
141.5452689999999
 31
0.0
  0
LINE
  5
A7F2
330
A667
100
AcDbEntity
  8
1
  6
Continuous
100
AcDbLine
 10
442.93227
 20
125.0
 30
0.0
 11
450.93227
 21
125.0
 31
0.0
  0
LINE
  5
A7F3
330
A667
100
AcDbEntity
  8
1
  6
Continuous
100
AcDbLine
 10
450.525845
 20
141.5452689999999
 30
0.0
 11
450.525845
 21
141.5998049999998
 31
0.0
  0
LINE
  5
A7F4
330
A667
100
AcDbEntity
  8
1
  6
Continuous
100
AcDbLine
 10
441.93227
 20
146.0
 30
0.0
 11
441.93227
 21
139.1224989999997
 31
0.0
  0
LINE
  5
A7F5
330
A667
100
AcDbEntity
  8
1
  6
Continuous
100
AcDbLine
 10
440.43227
 20
139.1224989999997
 30
0.0
 11
441.93227
 21
139.1224989999997
 31
0.0
  0
LINE
  5
A7F6
330
A667
100
AcDbEntity
  8
1
  6
Continuous
100
AcDbLine
 10
442.93227
 20
141.5452689999999
 30
0.0
 11
441.93227
 21
139.1224989999997
 31
0.0
  0
LINE
  5
A7F7
330
A667
100
AcDbEntity
  8
1
  6
Continuous
100
AcDbLine
 10
439.9322699999998
 20
141.0
 30
0.0
 11
440.43227
 21
141.0
 31
0.0
  0
LINE
  5
A7F8
330
A667
100
AcDbEntity
  8
1
  6
Continuous
100
AcDbLine
 10
440.43227
 20
126.0
 30
0.0
 11
441.93227
 21
126.0
 31
0.0
  0
LINE
  5
A7F9
330
A667
100
AcDbEntity
  8
1
  6
Continuous
100
AcDbLine
 10
441.93227
 20
126.0
 30
0.0
 11
442.93227
 21
125.0
 31
0.0
  0
LINE
  5
A7FA
330
A667
100
AcDbEntity
  8
1
  6
Continuous
100
AcDbLine
 10
450.525845
 20
130.454732
 30
0.0
 11
450.525845
 21
125.0
 31
0.0
  0
LINE
  5
A7FB
330
A667
100
AcDbEntity
  8
1
  6
Continuous
100
AcDbLine
 10
442.93227
 20
125.0
 30
0.0
 11
442.93227
 21
130.454732
 31
0.0
  0
LINE
  5
A7FC
330
A667
100
AcDbEntity
  8
1
  6
Continuous
100
AcDbLine
 10
441.93227
 20
132.8775009999999
 30
0.0
 11
441.93227
 21
126.0
 31
0.0
  0
LINE
  5
A7FD
330
A667
100
AcDbEntity
  8
1
  6
Continuous
100
AcDbLine
 10
440.43227
 20
132.8775009999999
 30
0.0
 11
441.93227
 21
132.8775009999999
 31
0.0
  0
LINE
  5
A7FE
330
A667
100
AcDbEntity
  8
1
  6
Continuous
100
AcDbLine
 10
441.93227
 20
132.8775009999999
 30
0.0
 11
442.93227
 21
130.454732
 31
0.0
  0
LINE
  5
A7FF
330
A667
100
AcDbEntity
  8
1
  6
Continuous
100
AcDbLine
 10
439.9322699999998
 20
131.0
 30
0.0
 11
440.43227
 21
131.0
 31
0.0
  0
LINE
  5
A800
330
A667
100
AcDbEntity
  8
1
  6
Continuous
100
AcDbLine
 10
438.93227
 20
144.660254
 30
0.0
 11
438.737855
 21
144.4658389999998
 31
0.0
  0
LINE
  5
A801
330
A667
100
AcDbEntity
  8
1
  6
Continuous
100
AcDbLine
 10
438.43227
 20
145.5
 30
0.0
 11
438.43227
 21
144.4658389999998
 31
0.0
  0
LINE
  5
A802
330
A667
100
AcDbEntity
  8
1
  6
Continuous
100
AcDbLine
 10
438.93227
 20
146.0
 30
0.0
 11
438.93227
 21
144.660254
 31
0.0
  0
LINE
  5
A803
330
A667
100
AcDbEntity
  8
1
  6
Continuous
100
AcDbLine
 10
437.93227
 20
144.4658389999998
 30
0.0
 11
437.93227
 21
126.5
 31
0.0
  0
LINE
  5
A804
330
A667
100
AcDbEntity
  8
1
  6
Continuous
100
AcDbLine
 10
436.2322699999999
 20
140.9497479999998
 30
0.0
 11
437.93227
 21
140.9497479999998
 31
0.0
  0
LINE
  5
A805
330
A667
100
AcDbEntity
  8
1
  6
Continuous
100
AcDbLine
 10
436.2322699999999
 20
136.707107
 30
0.0
 11
437.93227
 21
136.707107
 31
0.0
  0
ARC
  5
A806
330
A667
100
AcDbEntity
  8
1
  6
Continuous
100
AcDbCircle
 10
436.2322699999999
 20
140.6999999999999
 30
0.0
 40
0.3
100
AcDbArc
 50
90.0
 51
180.0
  0
LINE
  5
A807
330
A667
100
AcDbEntity
  8
2
  6
Continuous
100
AcDbLine
 10
436.2322699999999
 20
140.9497479999998
 30
0.0
 11
437.93227
 21
139.000427
 31
0.0
  0
LINE
  5
A808
330
A667
100
AcDbEntity
  8
2
  6
Continuous
100
AcDbLine
 10
437.93227
 20
138.656429
 30
0.0
 11
436.2322699999999
 21
136.707107
 31
0.0
  0
LINE
  5
A809
330
A667
100
AcDbEntity
  8
1
  6
Continuous
100
AcDbLine
 10
438.93227
 20
146.0
 30
0.0
 11
438.43227
 21
145.5
 31
0.0
  0
LINE
  5
A80A
330
A667
100
AcDbEntity
  8
1
  6
Continuous
100
AcDbLine
 10
437.93227
 20
144.4658389999998
 30
0.0
 11
439.9322699999998
 21
144.4658389999998
 31
0.0
  0
LINE
  5
A80B
330
A667
100
AcDbEntity
  8
1
  6
Continuous
100
AcDbLine
 10
436.2322699999999
 20
141.0
 30
0.0
 11
437.93227
 21
141.0
 31
0.0
  0
LINE
  5
A80C
330
A667
100
AcDbEntity
  8
1
  6
Continuous
100
AcDbLine
 10
436.2322699999999
 20
135.2928939999999
 30
0.0
 11
437.93227
 21
135.2928939999999
 31
0.0
  0
LINE
  5
A80D
330
A667
100
AcDbEntity
  8
1
  6
Continuous
100
AcDbLine
 10
436.2322699999999
 20
131.0502529999999
 30
0.0
 11
437.93227
 21
131.0502529999999
 31
0.0
  0
ARC
  5
A80E
330
A667
100
AcDbEntity
  8
1
  6
Continuous
100
AcDbCircle
 10
436.2322699999999
 20
131.3
 30
0.0
 40
0.3
100
AcDbArc
 50
180.0
 51
270.0
  0
LINE
  5
A80F
330
A667
100
AcDbEntity
  8
2
  6
Continuous
100
AcDbLine
 10
436.2322699999999
 20
135.2928939999999
 30
0.0
 11
437.93227
 21
133.3435719999999
 31
0.0
  0
LINE
  5
A810
330
A667
100
AcDbEntity
  8
2
  6
Continuous
100
AcDbLine
 10
437.93227
 20
132.9995739999999
 30
0.0
 11
436.2322699999999
 21
131.0502529999999
 31
0.0
  0
LINE
  5
A811
330
A667
100
AcDbEntity
  8
1
  6
Continuous
100
AcDbLine
 10
436.2322699999999
 20
131.0
 30
0.0
 11
437.93227
 21
131.0
 31
0.0
  0
LINE
  5
A812
330
A667
100
AcDbEntity
  8
1
  6
Continuous
100
AcDbLine
 10
435.9322699999998
 20
140.6999999999999
 30
0.0
 11
435.9322699999998
 21
131.3
 31
0.0
  0
LINE
  5
A813
330
A667
100
AcDbEntity
  8
1
  6
Continuous
100
AcDbLine
 10
456.3322699999998
 20
151.0
 30
0.0
 11
451.93227
 21
151.0
 31
0.0
  0
LINE
  5
A814
330
A667
100
AcDbEntity
  8
1
  6
Continuous
100
AcDbLine
 10
462.93227
 20
151.0
 30
0.0
 11
456.4322699999998
 21
151.0
 31
0.0
  0
LINE
  5
A815
330
A667
100
AcDbEntity
  8
1
  6
Continuous
100
AcDbLine
 10
462.93227
 20
151.0
 30
0.0
 11
463.93227
 21
149.0
 31
0.0
  0
LINE
  5
A816
330
A667
100
AcDbEntity
  8
1
  6
Continuous
100
AcDbLine
 10
456.3322699999998
 20
148.0
 30
0.0
 11
456.4322699999998
 21
148.0
 31
0.0
  0
LINE
  5
A817
330
A667
100
AcDbEntity
  8
1
  6
Continuous
100
AcDbLine
 10
442.93227
 20
147.0
 30
0.0
 11
450.93227
 21
147.0
 31
0.0
  0
LINE
  5
A818
330
A667
100
AcDbEntity
  8
1
  6
Continuous
100
AcDbLine
 10
451.93227
 20
150.0
 30
0.0
 11
450.93227
 21
150.0
 31
0.0
  0
LINE
  5
A819
330
A667
100
AcDbEntity
  8
1
  6
Continuous
100
AcDbLine
 10
396.0338469999999
 20
123.65
 30
0.0
 11
396.0338469999999
 21
148.35
 31
0.0
  0
LINE
  5
A81A
330
A667
100
AcDbEntity
  8
1
  6
Continuous
100
AcDbLine
 10
356.3682899999998
 20
140.619
 30
0.0
 11
359.51091
 21
140.619
 31
0.0
  0
LINE
  5
A81B
330
A667
100
AcDbEntity
  8
1
  6
Continuous
100
AcDbLine
 10
356.3682899999998
 20
138.3099999999998
 30
0.0
 11
359.51091
 21
138.3099999999998
 31
0.0
  0
LINE
  5
A81C
330
A667
100
AcDbEntity
  8
1
  6
Continuous
100
AcDbLine
 10
356.3682899999998
 20
133.691
 30
0.0
 11
359.51091
 21
133.691
 31
0.0
  0
LINE
  5
A81D
330
A667
100
AcDbEntity
  8
1
  6
Continuous
100
AcDbLine
 10
356.3682899999998
 20
131.3809999999998
 30
0.0
 11
359.51091
 21
131.3809999999998
 31
0.0
  0
LINE
  5
A81E
330
A667
100
AcDbEntity
  8
4
  6
CENTER
100
AcDbLine
 10
352.9340889999998
 20
136.0
 30
0.0
 11
399.742739
 21
136.0
 31
0.0
  0
ARC
  5
A81F
330
A667
100
AcDbEntity
  8
1
  6
Continuous
100
AcDbCircle
 10
395.1338469999998
 20
123.5999999999998
 30
0.0
 40
0.9
100
AcDbArc
 50
180.0
 51
0.0
  0
LINE
  5
A820
330
A667
100
AcDbEntity
  8
1
  6
Continuous
100
AcDbLine
 10
394.233847
 20
136.0
 30
0.0
 11
396.0338469999999
 21
137.8
 31
0.0
  0
LINE
  5
A821
330
A667
100
AcDbEntity
  8
1
  6
Continuous
100
AcDbLine
 10
394.233847
 20
134.1999999999998
 30
0.0
 11
396.0338469999999
 21
136.0
 31
0.0
  0
LINE
  5
A822
330
A667
100
AcDbEntity
  8
1
  6
Continuous
100
AcDbLine
 10
377.2189519999998
 20
145.0
 30
0.0
 11
376.218952
 21
145.0
 31
0.0
  0
LINE
  5
A823
330
A667
100
AcDbEntity
  8
1
  6
Continuous
100
AcDbLine
 10
377.2189519999998
 20
127.0
 30
0.0
 11
376.218952
 21
127.0
 31
0.0
  0
LINE
  5
A824
330
A667
100
AcDbEntity
  8
1
  6
Continuous
100
AcDbLine
 10
377.2189519999998
 20
145.0
 30
0.0
 11
377.2189519999998
 21
127.0
 31
0.0
  0
LINE
  5
A825
330
A667
100
AcDbEntity
  8
1
  6
Continuous
100
AcDbLine
 10
376.218952
 20
145.0
 30
0.0
 11
376.218952
 21
127.0
 31
0.0
  0
LINE
  5
A826
330
A667
100
AcDbEntity
  8
1
  6
Continuous
100
AcDbLine
 10
359.51091
 20
140.5999999999999
 30
0.0
 11
360.81091
 21
140.5999999999999
 31
0.0
  0
LINE
  5
A827
330
A667
100
AcDbEntity
  8
1
  6
Continuous
100
AcDbLine
 10
360.81091
 20
141.0
 30
0.0
 11
361.8109099999998
 21
141.0
 31
0.0
  0
LINE
  5
A828
330
A667
100
AcDbEntity
  8
1
  6
Continuous
100
AcDbLine
 10
359.51091
 20
131.4
 30
0.0
 11
360.81091
 21
131.4
 31
0.0
  0
LINE
  5
A829
330
A667
100
AcDbEntity
  8
1
  6
Continuous
100
AcDbLine
 10
360.81091
 20
131.0
 30
0.0
 11
361.8109099999998
 21
131.0
 31
0.0
  0
LINE
  5
A82A
330
A667
100
AcDbEntity
  8
1
  6
Continuous
100
AcDbLine
 10
360.81091
 20
141.0
 30
0.0
 11
360.81091
 21
131.0
 31
0.0
  0
LINE
  5
A82B
330
A667
100
AcDbEntity
  8
1
  6
Continuous
100
AcDbLine
 10
361.8109099999998
 20
141.0
 30
0.0
 11
361.8109099999998
 21
131.0
 31
0.0
  0
LINE
  5
A82C
330
A667
100
AcDbEntity
  8
1
  6
Continuous
100
AcDbLine
 10
359.51091
 20
134.6999999999999
 30
0.0
 11
360.81091
 21
136.0
 31
0.0
  0
LINE
  5
A82D
330
A667
100
AcDbEntity
  8
1
  6
Continuous
100
AcDbLine
 10
359.51091
 20
136.0
 30
0.0
 11
360.81091
 21
137.3
 31
0.0
  0
LINE
  5
A82E
330
A667
100
AcDbEntity
  8
1
  6
Continuous
100
AcDbLine
 10
359.51091
 20
131.3809999999998
 30
0.0
 11
359.51091
 21
140.619
 31
0.0
  0
ARC
  5
A82F
330
A667
100
AcDbEntity
  8
1
  6
Continuous
100
AcDbCircle
 10
363.651955
 20
136.0004999999999
 30
0.0
 40
7.641045
100
AcDbArc
 50
162.407253
 51
197.592747
  0
LINE
  5
A830
330
A667
100
AcDbEntity
  8
1
  6
Continuous
100
AcDbLine
 10
356.01091
 20
132.0
 30
0.0
 11
356.01091
 21
140.0
 31
0.0
  0
LINE
  5
A831
330
A667
100
AcDbEntity
  8
1
  6
Continuous
100
AcDbLine
 10
356.01091
 20
140.0
 30
0.0
 11
356.3682899999998
 21
140.619
 31
0.0
  0
ARC
  5
A832
330
A667
100
AcDbEntity
  8
1
  6
Continuous
100
AcDbCircle
 10
358.0559969999998
 20
139.464
 30
0.0
 40
2.045087
100
AcDbArc
 50
154.3862009999998
 51
214.3862009999998
  0
ARC
  5
A833
330
A667
100
AcDbEntity
  8
1
  6
Continuous
100
AcDbCircle
 10
358.0559969999998
 20
132.536
 30
0.0
 40
2.045087
100
AcDbArc
 50
145.613799
 51
205.613799
  0
LINE
  5
A834
330
A667
100
AcDbEntity
  8
1
  6
Continuous
100
AcDbLine
 10
356.01091
 20
132.0
 30
0.0
 11
356.3682899999998
 21
131.3809999999998
 31
0.0
  0
ARC
  5
A835
330
A667
100
AcDbEntity
  8
1
  6
Continuous
100
AcDbCircle
 10
395.1338469999998
 20
148.3999999999998
 30
0.0
 40
0.9
100
AcDbArc
 50
0.0
 51
180.0
  0
LINE
  5
A836
330
A667
100
AcDbEntity
  8
1
  6
Continuous
100
AcDbLine
 10
437.93227
 20
139.1224989999997
 30
0.0
 11
439.9322699999998
 21
139.1224989999997
 31
0.0
  0
LINE
  5
A837
330
A667
100
AcDbEntity
  8
1
  6
Continuous
100
AcDbLine
 10
437.93227
 20
132.8775009999999
 30
0.0
 11
439.9322699999998
 21
132.8775009999999
 31
0.0
  0
LINE
  5
A838
330
A667
100
AcDbEntity
  8
1
  6
Continuous
100
AcDbLine
 10
437.93227
 20
130.795048
 30
0.0
 11
439.9322699999998
 21
130.795048
 31
0.0
  0
LINE
  5
A839
330
A667
100
AcDbEntity
  8
1
  6
Continuous
100
AcDbLine
 10
437.93227
 20
128.0427159999999
 30
0.0
 11
439.9322699999998
 21
128.0427159999999
 31
0.0
  0
LINE
  5
A83A
330
A667
100
AcDbEntity
  8
1
  6
Continuous
100
AcDbLine
 10
294.5381759999999
 20
152.743157
 30
0.0
 11
309.038175
 21
144.371581
 31
0.0
  0
LINE
  5
A83B
330
A667
100
AcDbEntity
  8
1
  6
Continuous
100
AcDbLine
 10
309.038175
 20
127.6284219999999
 30
0.0
 11
309.038175
 21
144.371581
 31
0.0
  0
LINE
  5
A83C
330
A667
100
AcDbEntity
  8
1
  6
Continuous
100
AcDbLine
 10
309.038175
 20
127.6284219999999
 30
0.0
 11
294.5381759999999
 21
119.2568429999999
 31
0.0
  0
LINE
  5
A83D
330
A667
100
AcDbEntity
  8
1
  6
Continuous
100
AcDbLine
 10
280.038175
 20
127.6284229999999
 30
0.0
 11
294.5381759999999
 21
119.2568429999999
 31
0.0
  0
LINE
  5
A83E
330
A667
100
AcDbEntity
  8
1
  6
Continuous
100
AcDbLine
 10
280.038175
 20
127.6284229999999
 30
0.0
 11
280.038175
 21
144.3715789999999
 31
0.0
  0
LINE
  5
A83F
330
A667
100
AcDbEntity
  8
1
  6
Continuous
100
AcDbLine
 10
294.5381759999999
 20
152.743157
 30
0.0
 11
280.038175
 21
144.3715789999999
 31
0.0
  0
LINE
  5
A840
330
A667
100
AcDbEntity
  8
4
  6
CENTER
100
AcDbLine
 10
275.538175
 20
136.0
 30
0.0
 11
313.538175
 21
136.0
 31
0.0
  0
LINE
  5
A841
330
A667
100
AcDbEntity
  8
4
  6
CENTER
100
AcDbLine
 10
294.538175
 20
155.0
 30
0.0
 11
294.538175
 21
117.0
 31
0.0
  0
ARC
  5
A842
330
A667
100
AcDbEntity
  8
1
  6
Continuous
100
AcDbCircle
 10
294.538175
 20
136.0
 30
0.0
 40
15.0
100
AcDbArc
 50
45.16490499999998
 51
74.835104
  0
ARC
  5
A843
330
A667
100
AcDbEntity
  8
1
  6
Continuous
100
AcDbCircle
 10
294.538175
 20
136.0
 30
0.0
 40
15.0
100
AcDbArc
 50
105.164876
 51
134.8351159999999
  0
ARC
  5
A844
330
A667
100
AcDbEntity
  8
1
  6
Continuous
100
AcDbCircle
 10
294.538175
 20
136.0
 30
0.0
 40
15.0
100
AcDbArc
 50
165.1648879999999
 51
194.835112
  0
ARC
  5
A845
330
A667
100
AcDbEntity
  8
1
  6
Continuous
100
AcDbCircle
 10
294.538175
 20
136.0
 30
0.0
 40
15.0
100
AcDbArc
 50
225.164872
 51
254.8351240000001
  0
ARC
  5
A846
330
A667
100
AcDbEntity
  8
1
  6
Continuous
100
AcDbCircle
 10
294.538175
 20
136.0
 30
0.0
 40
15.0
100
AcDbArc
 50
285.1648829999998
 51
314.835121
  0
CIRCLE
  5
A847
330
A667
100
AcDbEntity
  8
1
  6
Continuous
100
AcDbCircle
 10
294.538175
 20
136.0
 30
0.0
 40
9.0
  0
ARC
  5
A848
330
A667
100
AcDbEntity
  8
1
  6
Continuous
100
AcDbCircle
 10
301.609243
 20
128.928933
 30
0.0
 40
2.0
100
AcDbArc
 50
189.900386
 51
197.181861
  0
CIRCLE
  5
A849
330
A667
100
AcDbEntity
  8
1
  6
Continuous
100
AcDbCircle
 10
294.538175
 20
136.0
 30
0.0
 40
5.0
  0
ARC
  5
A84A
330
A667
100
AcDbEntity
  8
1
  6
Continuous
100
AcDbCircle
 10
294.538175
 20
136.0
 30
0.0
 40
4.599999999999997
100
AcDbArc
 50
90.412368
 51
149.6005
  0
ARC
  5
A84B
330
A667
100
AcDbEntity
  8
2
  6
Continuous
100
AcDbCircle
 10
294.538175
 20
136.0
 30
0.0
 40
10.4585
100
AcDbArc
 50
204.7213979999999
 51
335.2786019999999
  0
ARC
  5
A84C
330
A667
100
AcDbEntity
  8
1
  6
Continuous
100
AcDbCircle
 10
294.538175
 20
136.0
 30
0.0
 40
10.4585
100
AcDbArc
 50
335.2786019999999
 51
24.721398
  0
ARC
  5
A84D
330
A667
100
AcDbEntity
  8
1
  6
Continuous
100
AcDbCircle
 10
294.538175
 20
136.0
 30
0.0
 40
11.0
100
AcDbArc
 50
30.272641
 51
149.7273589999998
  0
ARC
  5
A84E
330
A667
100
AcDbEntity
  8
2
  6
Continuous
100
AcDbCircle
 10
294.538175
 20
136.0
 30
0.0
 40
10.4585
100
AcDbArc
 50
24.721398
 51
155.278602
  0
ARC
  5
A84F
330
A667
100
AcDbEntity
  8
1
  6
Continuous
100
AcDbCircle
 10
294.538175
 20
136.0
 30
0.0
 40
10.4585
100
AcDbArc
 50
155.278602
 51
204.7213979999999
  0
ARC
  5
A850
330
A667
100
AcDbEntity
  8
2
  6
Continuous
100
AcDbCircle
 10
294.538175
 20
136.0
 30
0.0
 40
11.0
100
AcDbArc
 50
149.7273589999998
 51
210.2726409999999
  0
CIRCLE
  5
A851
330
A667
100
AcDbEntity
  8
1
  6
Continuous
100
AcDbCircle
 10
294.538175
 20
136.0
 30
0.0
 40
4.0
  0
LINE
  5
A852
330
A667
100
AcDbEntity
  8
1
  6
Continuous
100
AcDbLine
 10
294.538175
 20
140.619
 30
0.0
 11
298.538175
 21
138.3089999999999
 31
0.0
  0
LINE
  5
A853
330
A667
100
AcDbEntity
  8
1
  6
Continuous
100
AcDbLine
 10
298.538175
 20
133.691
 30
0.0
 11
294.538175
 21
131.3809999999998
 31
0.0
  0
LINE
  5
A854
330
A667
100
AcDbEntity
  8
1
  6
Continuous
100
AcDbLine
 10
290.538175
 20
133.6899999999999
 30
0.0
 11
294.538175
 21
131.3809999999998
 31
0.0
  0
LINE
  5
A855
330
A667
100
AcDbEntity
  8
1
  6
Continuous
100
AcDbLine
 10
294.538175
 20
140.619
 30
0.0
 11
290.538175
 21
138.3089999999999
 31
0.0
  0
LINE
  5
A856
330
A667
100
AcDbEntity
  8
1
  6
Continuous
100
AcDbLine
 10
298.538175
 20
133.6899999999999
 30
0.0
 11
298.538175
 21
138.3089999999999
 31
0.0
  0
LINE
  5
A857
330
A667
100
AcDbEntity
  8
1
  6
Continuous
100
AcDbLine
 10
290.538175
 20
133.6899999999999
 30
0.0
 11
290.538175
 21
138.3089999999999
 31
0.0
  0
ARC
  5
A858
330
A667
100
AcDbEntity
  8
1
  6
Continuous
100
AcDbCircle
 10
294.538175
 20
136.0
 30
0.0
 40
4.599999999999997
100
AcDbArc
 50
30.3995
 51
89.58763199999998
  0
ARC
  5
A859
330
A667
100
AcDbEntity
  8
1
  6
Continuous
100
AcDbCircle
 10
294.538175
 20
136.0
 30
0.0
 40
4.599999999999997
100
AcDbArc
 50
330.408154
 51
29.591846
  0
ARC
  5
A85A
330
A667
100
AcDbEntity
  8
1
  6
Continuous
100
AcDbCircle
 10
294.538175
 20
136.0
 30
0.0
 40
4.599999999999997
100
AcDbArc
 50
270.412368
 51
329.6005
  0
ARC
  5
A85B
330
A667
100
AcDbEntity
  8
1
  6
Continuous
100
AcDbCircle
 10
294.538175
 20
136.0
 30
0.0
 40
4.599999999999997
100
AcDbArc
 50
210.421167
 51
269.5874509999999
  0
ARC
  5
A85C
330
A667
100
AcDbEntity
  8
1
  6
Continuous
100
AcDbCircle
 10
294.538175
 20
136.0
 30
0.0
 40
4.599999999999997
100
AcDbArc
 50
150.408154
 51
209.591846
  0
CIRCLE
  5
A85D
330
A667
100
AcDbEntity
  8
1
  6
Continuous
100
AcDbCircle
 10
294.538175
 20
136.0
 30
0.0
 40
3.1
  0
ARC
  5
A85E
330
A667
100
AcDbEntity
  8
1
  6
Continuous
100
AcDbCircle
 10
294.538175
 20
136.0
 30
0.0
 40
2.399999999999999
100
AcDbArc
 50
34.92134199999998
 51
55.078658
  0
LINE
  5
A85F
330
A667
100
AcDbEntity
  8
1
  6
Continuous
100
AcDbLine
 10
295.912058
 20
137.9678529999999
 30
0.0
 11
295.127896
 21
137.210596
 31
0.0
  0
LINE
  5
A860
330
A667
100
AcDbEntity
  8
1
  6
Continuous
100
AcDbLine
 10
293.1642919999998
 20
137.9678529999999
 30
0.0
 11
293.948454
 21
137.210596
 31
0.0
  0
ARC
  5
A861
330
A667
100
AcDbEntity
  8
1
  6
Continuous
100
AcDbCircle
 10
294.538175
 20
136.0
 30
0.0
 40
2.399999999999999
100
AcDbArc
 50
124.921342
 51
145.0786579999999
  0
ARC
  5
A862
330
A667
100
AcDbEntity
  8
1
  6
Continuous
100
AcDbCircle
 10
294.538175
 20
136.0
 30
0.0
 40
2.399999999999999
100
AcDbArc
 50
214.921342
 51
235.0786579999999
  0
LINE
  5
A863
330
A667
100
AcDbEntity
  8
1
  6
Continuous
100
AcDbLine
 10
292.5703219999999
 20
134.626117
 30
0.0
 11
293.327579
 21
135.410279
 31
0.0
  0
LINE
  5
A864
330
A667
100
AcDbEntity
  8
1
  6
Continuous
100
AcDbLine
 10
292.5703219999999
 20
137.373883
 30
0.0
 11
293.327579
 21
136.5897209999999
 31
0.0
  0
ARC
  5
A865
330
A667
100
AcDbEntity
  8
1
  6
Continuous
100
AcDbCircle
 10
294.538175
 20
136.0
 30
0.0
 40
2.399999999999999
100
AcDbArc
 50
304.921342
 51
325.078658
  0
LINE
  5
A866
330
A667
100
AcDbEntity
  8
1
  6
Continuous
100
AcDbLine
 10
296.5060279999999
 20
137.373883
 30
0.0
 11
295.7487709999999
 21
136.5897209999999
 31
0.0
  0
LINE
  5
A867
330
A667
100
AcDbEntity
  8
1
  6
Continuous
100
AcDbLine
 10
295.53413
 20
136.0
 30
0.0
 11
295.7487709999999
 21
136.5897209999999
 31
0.0
  0
LINE
  5
A868
330
A667
100
AcDbEntity
  8
1
  6
Continuous
100
AcDbLine
 10
296.5060279999999
 20
134.626117
 30
0.0
 11
295.7487709999999
 21
135.410279
 31
0.0
  0
LINE
  5
A869
330
A667
100
AcDbEntity
  8
1
  6
Continuous
100
AcDbLine
 10
295.53413
 20
136.0
 30
0.0
 11
295.7487709999999
 21
135.410279
 31
0.0
  0
LINE
  5
A86A
330
A667
100
AcDbEntity
  8
1
  6
Continuous
100
AcDbLine
 10
295.912058
 20
134.032147
 30
0.0
 11
295.127896
 21
134.7894039999999
 31
0.0
  0
LINE
  5
A86B
330
A667
100
AcDbEntity
  8
1
  6
Continuous
100
AcDbLine
 10
294.538175
 20
135.0040449999999
 30
0.0
 11
295.127896
 21
134.7894039999999
 31
0.0
  0
LINE
  5
A86C
330
A667
100
AcDbEntity
  8
1
  6
Continuous
100
AcDbLine
 10
293.1642919999998
 20
134.032147
 30
0.0
 11
293.948454
 21
134.7894039999999
 31
0.0
  0
LINE
  5
A86D
330
A667
100
AcDbEntity
  8
1
  6
Continuous
100
AcDbLine
 10
294.538175
 20
135.0040449999999
 30
0.0
 11
293.948454
 21
134.7894039999999
 31
0.0
  0
LINE
  5
A86E
330
A667
100
AcDbEntity
  8
1
  6
Continuous
100
AcDbLine
 10
293.5422200000001
 20
136.0
 30
0.0
 11
293.327579
 21
135.410279
 31
0.0
  0
LINE
  5
A86F
330
A667
100
AcDbEntity
  8
1
  6
Continuous
100
AcDbLine
 10
293.5422200000001
 20
136.0
 30
0.0
 11
293.327579
 21
136.5897209999999
 31
0.0
  0
LINE
  5
A870
330
A667
100
AcDbEntity
  8
1
  6
Continuous
100
AcDbLine
 10
294.538175
 20
136.995955
 30
0.0
 11
293.948454
 21
137.210596
 31
0.0
  0
LINE
  5
A871
330
A667
100
AcDbEntity
  8
1
  6
Continuous
100
AcDbLine
 10
294.538175
 20
136.995955
 30
0.0
 11
295.127896
 21
137.210596
 31
0.0
  0
CIRCLE
  5
A872
330
A667
100
AcDbEntity
  8
1
  6
Continuous
100
AcDbCircle
 10
294.538175
 20
136.0
 30
0.0
 40
14.5
  0
LINE
  5
A873
330
A667
100
AcDbEntity
  8
1
  6
Continuous
100
AcDbLine
 10
197.741451
 20
144.3715789999999
 30
0.0
 11
194.8425029999999
 21
144.3715789999999
 31
0.0
  0
LINE
  5
A874
330
A667
100
AcDbEntity
  8
1
  6
Continuous
100
AcDbLine
 10
197.741451
 20
127.6284229999999
 30
0.0
 11
194.8425029999999
 21
127.6284229999999
 31
0.0
  0
ARC
  5
A875
330
A667
100
AcDbEntity
  8
1
  6
Continuous
100
AcDbCircle
 10
183.466849
 20
148.5573679999999
 30
0.0
 40
14.875654
100
AcDbArc
 50
343.657102
 51
13.657108
  0
ARC
  5
A876
330
A667
100
AcDbEntity
  8
1
  6
Continuous
100
AcDbCircle
 10
139.7414759999997
 20
136.000001
 30
0.0
 40
58.601027
100
AcDbArc
 50
351.7867859999999
 51
8.213214
  0
ARC
  5
A877
330
A667
100
AcDbEntity
  8
1
  6
Continuous
100
AcDbCircle
 10
183.466849
 20
123.442632
 30
0.0
 40
14.875654
100
AcDbArc
 50
346.342892
 51
16.342898
  0
LINE
  5
A878
330
A667
100
AcDbEntity
  8
1
  6
Continuous
100
AcDbLine
 10
198.342503
 20
121.5
 30
0.0
 11
197.741451
 21
119.2568419999999
 31
0.0
  0
LINE
  5
A879
330
A667
100
AcDbEntity
  8
1
  6
Continuous
100
AcDbLine
 10
197.741451
 20
119.2568419999999
 30
0.0
 11
194.8425029999999
 21
119.2568419999999
 31
0.0
  0
LINE
  5
A87A
330
A667
100
AcDbEntity
  8
1
  6
Continuous
100
AcDbLine
 10
390.733847
 20
150.5
 30
0.0
 11
390.733847
 21
121.5
 31
0.0
  0
LINE
  5
A87B
330
A667
100
AcDbEntity
  8
1
  6
Continuous
100
AcDbLine
 10
394.233847
 20
152.743158
 30
0.0
 11
394.233847
 21
119.2568429999999
 31
0.0
  0
ARC
  5
A87C
330
A667
100
AcDbEntity
  8
1
  6
Continuous
100
AcDbCircle
 10
405.6095009999998
 20
148.5573679999999
 30
0.0
 40
14.875654
100
AcDbArc
 50
166.342892
 51
196.3428979999999
  0
LINE
  5
A87D
330
A667
100
AcDbEntity
  8
1
  6
Continuous
100
AcDbLine
 10
391.334899
 20
152.743158
 30
0.0
 11
394.233847
 21
152.743158
 31
0.0
  0
LINE
  5
A87E
330
A667
100
AcDbEntity
  8
1
  6
Continuous
100
AcDbLine
 10
390.733847
 20
150.5
 30
0.0
 11
391.334899
 21
152.743158
 31
0.0
  0
ARC
  5
A87F
330
A667
100
AcDbEntity
  8
1
  6
Continuous
100
AcDbCircle
 10
449.334874
 20
136.000001
 30
0.0
 40
58.601027
100
AcDbArc
 50
171.786786
 51
188.213214
  0
LINE
  5
A880
330
A667
100
AcDbEntity
  8
1
  6
Continuous
100
AcDbLine
 10
391.334899
 20
144.3715789999999
 30
0.0
 11
394.233847
 21
144.3715789999999
 31
0.0
  0
LINE
  5
A881
330
A667
100
AcDbEntity
  8
1
  6
Continuous
100
AcDbLine
 10
391.334899
 20
119.2568419999999
 30
0.0
 11
394.233847
 21
119.2568419999999
 31
0.0
  0
LINE
  5
A882
330
A667
100
AcDbEntity
  8
1
  6
Continuous
100
AcDbLine
 10
390.733847
 20
121.5
 30
0.0
 11
391.334899
 21
119.2568419999999
 31
0.0
  0
ARC
  5
A883
330
A667
100
AcDbEntity
  8
1
  6
Continuous
100
AcDbCircle
 10
405.6095009999998
 20
123.442632
 30
0.0
 40
14.875654
100
AcDbArc
 50
163.657102
 51
193.657108
  0
LINE
  5
A884
330
A667
100
AcDbEntity
  8
1
  6
Continuous
100
AcDbLine
 10
391.334899
 20
127.6284229999999
 30
0.0
 11
394.233847
 21
127.6284229999999
 31
0.0
  0
LINE
  5
A885
330
A667
100
AcDbEntity
  8
1
  6
Continuous
100
AcDbLine
 10
197.741451
 20
216.0
 30
0.0
 11
194.8425029999999
 21
216.0
 31
0.0
  0
ENDSEC
  0
SECTION
  2
OBJECTS
  0
DICTIONARY
  5
A655
330
0
100
AcDbDictionary
281
     1
  3
ACAD_CIP_PREVIOUS_PRODUCT_INFO
350
A8EB
  3
ACAD_COLOR
350
A8CD
  3
ACAD_DETAILVIEWSTYLE
350
A8E6
  3
ACAD_GROUP
350
A656
  3
ACAD_LAYOUT
350
A662
  3
ACAD_MATERIAL
350
A89B
  3
ACAD_MLEADERSTYLE
350
A8E2
  3
ACAD_MLINESTYLE
350
A65F
  3
ACAD_PLOTSETTINGS
350
A661
  3
ACAD_PLOTSTYLENAME
350
A899
  3
ACAD_SCALELIST
350
A8D0
  3
ACAD_SECTIONVIEWSTYLE
350
A8E4
  3
ACAD_TABLESTYLE
350
A8CE
  3
ACAD_VISUALSTYLE
350
A8B4
  3
ACDB_RECOMPOSE_DATA
350
A909
  3
AcDbVariableDictionary
350
A8FC
  3
DWGPROPS
350
A90A
  0
DICTIONARY
  5
A8EC
330
A659
100
AcDbDictionary
280
     1
281
     1
  3
ADSK_XREC_LAYER_RECONCILED
360
A8ED
  0
DICTIONARY
  5
A8EE
330
A66F
100
AcDbDictionary
280
     1
281
     1
  3
ADSK_XREC_LAYER_RECONCILED
360
A8EF
  0
DICTIONARY
  5
A8F0
330
A670
100
AcDbDictionary
280
     1
281
     1
  3
ADSK_XREC_LAYER_RECONCILED
360
A8F1
  0
DICTIONARY
  5
A8F2
330
A671
100
AcDbDictionary
280
     1
281
     1
  3
ADSK_XREC_LAYER_RECONCILED
360
A8F3
  0
DICTIONARY
  5
A8F4
330
A672
100
AcDbDictionary
280
     1
281
     1
  3
ADSK_XREC_LAYER_RECONCILED
360
A8F5
  0
DICTIONARY
  5
A8F6
330
A673
100
AcDbDictionary
280
     1
281
     1
  3
ADSK_XREC_LAYER_RECONCILED
360
A8F7
  0
DICTIONARY
  5
A8F8
330
A674
100
AcDbDictionary
280
     1
281
     1
  3
ADSK_XREC_LAYER_RECONCILED
360
A8F9
  0
DICTIONARY
  5
A8FA
330
A675
100
AcDbDictionary
280
     1
281
     1
  3
ADSK_XREC_LAYER_RECONCILED
360
A8FB
  0
DICTIONARY
  5
A894
330
A667
100
AcDbDictionary
281
     1
  3
ACAD_LAYOUTSELFREF
350
A895
  0
DICTIONARY
  5
A892
330
A663
100
AcDbDictionary
281
     1
  3
ACAD_LAYOUTSELFREF
350
A893
  0
XRECORD
  5
A8EB
102
{ACAD_REACTORS
330
A655
102
}
330
A655
100
AcDbXrecord
280
     1
300
ACDLT
300
2014
300
ACDLT_F_S
  0
DICTIONARY
  5
A8CD
102
{ACAD_REACTORS
330
A655
102
}
330
A655
100
AcDbDictionary
281
     1
  0
DICTIONARY
  5
A8E6
102
{ACAD_REACTORS
330
A655
102
}
330
A655
100
AcDbDictionary
281
     1
  3
Imperial24
350
A8E7
  0
DICTIONARY
  5
A656
102
{ACAD_REACTORS
330
A655
102
}
330
A655
100
AcDbDictionary
281
     1
  0
DICTIONARY
  5
A662
102
{ACAD_REACTORS
330
A655
102
}
330
A655
100
AcDbDictionary
281
     1
  3
Model
350
A8E8
  3
レイアウト1
350
A8E9
  0
DICTIONARY
  5
A89B
102
{ACAD_REACTORS
330
A655
102
}
330
A655
100
AcDbDictionary
281
     1
  3
ByBlock
350
A8A4
  3
ByLayer
350
A89C
  3
Global
350
A8AC
  0
DICTIONARY
  5
A8E2
102
{ACAD_REACTORS
330
A655
102
}
330
A655
100
AcDbDictionary
281
     1
  3
Standard
350
A8E3
  0
DICTIONARY
  5
A65F
102
{ACAD_REACTORS
330
A655
102
}
330
A655
100
AcDbDictionary
281
     1
  3
STANDARD
350
A660
  0
DICTIONARY
  5
A661
102
{ACAD_REACTORS
330
A655
102
}
330
A655
100
AcDbDictionary
281
     1
  0
ACDBDICTIONARYWDFLT
  5
A899
102
{ACAD_REACTORS
330
A655
102
}
330
A655
100
AcDbDictionary
281
     1
  3
Normal
350
A89A
100
AcDbDictionaryWithDefault
340
A89A
  0
DICTIONARY
  5
A8D0
102
{ACAD_REACTORS
330
A655
102
}
330
A655
100
AcDbDictionary
281
     1
  3
A0
350
A8D1
  3
A1
350
A8D2
  3
A2
350
A8D3
  3
A3
350
A8D4
  3
A4
350
A8D5
  3
A5
350
A8D6
  3
A6
350
A8D7
  3
A7
350
A8D8
  3
A8
350
A8D9
  3
A9
350
A8DA
  3
B0
350
A8DB
  3
B1
350
A8DC
  3
B2
350
A8DD
  3
B3
350
A8DE
  3
B4
350
A8DF
  3
B5
350
A8E0
  3
B6
350
A8E1
  0
DICTIONARY
  5
A8E4
102
{ACAD_REACTORS
330
A655
102
}
330
A655
100
AcDbDictionary
281
     1
  3
Imperial24
350
A8E5
  0
DICTIONARY
  5
A8CE
102
{ACAD_REACTORS
330
A655
102
}
330
A655
100
AcDbDictionary
281
     1
  3
Standard
350
A8CF
  0
DICTIONARY
  5
A8B4
102
{ACAD_REACTORS
330
A655
102
}
330
A655
100
AcDbDictionary
281
     1
  3
2dWireframe
350
A8BA
  3
Basic
350
A8B9
  3
Brighten
350
A8C0
  3
ColorChange
350
A8C4
  3
Conceptual
350
A8BD
  3
Dim
350
A8BF
  3
EdgeColorOff
350
A8CC
  3
Facepattern
350
A8C3
  3
Flat
350
A8B5
  3
FlatWithEdges
350
A8B6
  3
Gouraud
350
A8B7
  3
GouraudWithEdges
350
A8B8
  3
Hidden
350
A8BC
  3
JitterOff
350
A8CA
  3
Linepattern
350
A8C2
  3
OverhangOff
350
A8CB
  3
Realistic
350
A8BE
  3
Shaded
350
A8C9
  3
Shaded with edges
350
A8C8
  3
Shades of Gray
350
A8C5
  3
Sketchy
350
A8C6
  3
Thicken
350
A8C1
  3
Wireframe
350
A8BB
  3
X-Ray
350
A8C7
  0
XRECORD
  5
A909
102
{ACAD_REACTORS
330
A655
102
}
330
A655
100
AcDbXrecord
280
     1
 90
        1
330
A8CF
  0
DICTIONARY
  5
A8FC
102
{ACAD_REACTORS
330
A655
102
}
330
A655
100
AcDbDictionary
281
     1
  3
CANNOSCALE
350
A901
  3
CMLEADERSTYLE
350
A8FE
  3
CTABLESTYLE
350
A8FD
  3
CVIEWDETAILSTYLE
350
A8FF
  3
CVIEWSECTIONSTYLE
350
A900
  3
DIMASSOC
350
A904
  3
INDEXCTL
350
A903
  3
SORTENTS
350
A902
  3
XCLIPFRAME
350
A905
  0
XRECORD
  5
A90A
102
{ACAD_REACTORS
330
A655
102
}
330
A655
100
AcDbXrecord
280
     1
  1
DWGPROPS COOKIE
  2

  3

  4

  6

  7

  8
Yoshitsune
  9

300
=
301
=
302
=
303
=
304
=
305
=
306
=
307
=
308
=
309
=
 40
0.0000143171296296
 41
2451368.490193403
 42
2457192.642603275
  1

 90
        0
  0
XRECORD
  5
A8ED
102
{ACAD_REACTORS
330
A8EC
102
}
330
A8EC
100
AcDbXrecord
280
     1
290
     1
  0
XRECORD
  5
A8EF
102
{ACAD_REACTORS
330
A8EE
102
}
330
A8EE
100
AcDbXrecord
280
     1
290
     1
  0
XRECORD
  5
A8F1
102
{ACAD_REACTORS
330
A8F0
102
}
330
A8F0
100
AcDbXrecord
280
     1
290
     1
  0
XRECORD
  5
A8F3
102
{ACAD_REACTORS
330
A8F2
102
}
330
A8F2
100
AcDbXrecord
280
     1
290
     1
  0
XRECORD
  5
A8F5
102
{ACAD_REACTORS
330
A8F4
102
}
330
A8F4
100
AcDbXrecord
280
     1
290
     1
  0
XRECORD
  5
A8F7
102
{ACAD_REACTORS
330
A8F6
102
}
330
A8F6
100
AcDbXrecord
280
     1
290
     1
  0
XRECORD
  5
A8F9
102
{ACAD_REACTORS
330
A8F8
102
}
330
A8F8
100
AcDbXrecord
280
     1
290
     1
  0
XRECORD
  5
A8FB
102
{ACAD_REACTORS
330
A8FA
102
}
330
A8FA
100
AcDbXrecord
280
     1
290
     1
  0
XRECORD
  5
A895
102
{ACAD_REACTORS
330
A894
102
}
330
A894
100
AcDbXrecord
280
     1
340
A667
  0
XRECORD
  5
A893
102
{ACAD_REACTORS
330
A892
102
}
330
A892
100
AcDbXrecord
280
     1
340
A663
  0
ACDBDETAILVIEWSTYLE
  5
A8E7
102
{ACAD_XDICTIONARY
360
A942
102
}
102
{ACAD_REACTORS
330
A8E6
102
}
330
A8E6
100
AcDbModelDocViewStyle
 70
     0
  3
Imperial24
290
     0
100
AcDbDetailViewStyle
 70
     0
 71
     0
 90
        3
 71
     1
340
A65A
 40
0.24
340
0
 40
0.24
300

 40
0.36
280
     3
 71
     2
340
A65E
 90
       25
 71
     3
340
A65A
 40
0.24
 90
        1
 40
0.75
 90
        1
300
%<\AcVar ViewType \f "%tc1">% %<\AcVar ViewDetailId>%\PSCALE %<\AcVar ViewScale \f "%sn">%
 71
     4
340
A65E
 90
       25
340
A65E
 90
       25
280
     0
  0
LAYOUT
  5
A8E8
102
{ACAD_XDICTIONARY
360
A944
102
}
102
{ACAD_REACTORS
330
A662
102
}
330
A662
100
AcDbPlotSettings
  1

  2
Canon LBP9100C
  4

  6

 40
0.0
 41
0.0
 42
0.0
 43
0.0
 44
0.0
 45
0.0
 46
0.0
 47
0.0
 48
0.0
 49
0.0
140
0.0
141
0.0
142
1.0
143
1.0
 70
  1712
 72
     0
 73
     0
 74
     0
  7

 75
     0
147
1.0
148
0.0
149
0.0
100
AcDbLayout
  1
Model
 70
     1
 71
     0
 10
0.0
 20
0.0
 11
12.0
 21
9.0
 12
0.0
 22
0.0
 32
0.0
 14
0.0
 24
0.0
 34
0.0
 15
0.0
 25
0.0
 35
0.0
146
0.0
 13
0.0
 23
0.0
 33
0.0
 16
1.0
 26
0.0
 36
0.0
 17
0.0
 27
1.0
 37
0.0
 76
     0
330
A667
331
A891
  0
LAYOUT
  5
A8E9
102
{ACAD_XDICTIONARY
360
A946
102
}
102
{ACAD_REACTORS
330
A662
102
}
330
A662
100
AcDbPlotSettings
  1

  2
Canon LBP9100C
  4

  6

 40
0.0
 41
0.0
 42
0.0
 43
0.0
 44
0.0
 45
0.0
 46
0.0
 47
0.0
 48
0.0
 49
0.0
140
0.0
141
0.0
142
1.0
143
1.0
 70
   688
 72
     0
 73
     0
 74
     5
  7

 75
    16
147
1.0
148
0.0
149
0.0
100
AcDbLayout
  1
レイアウト1
 70
     0
 71
     1
 10
0.0
 20
0.0
 11
420.0
 21
297.0
 12
0.0
 22
0.0
 32
0.0
 14
1.000000000000000E+20
 24
1.000000000000000E+20
 34
1.000000000000000E+20
 15
-1.000000000000000E+20
 25
-1.000000000000000E+20
 35
-1.000000000000000E+20
146
0.0
 13
0.0
 23
0.0
 33
0.0
 16
1.0
 26
0.0
 36
0.0
 17
0.0
 27
1.0
 37
0.0
 76
     0
330
A663
  0
MATERIAL
  5
A8A4
102
{ACAD_XDICTIONARY
360
A8A5
102
}
102
{ACAD_REACTORS
330
A89B
102
}
330
A89B
100
AcDbMaterial
  1
ByBlock
 72
     0
 43
0.0208333333333333
 43
0.0
 43
0.0
 43
0.0
 43
0.0
 43
0.0208333333333333
 43
0.0
 43
0.0
 43
0.0
 43
0.0
 43
1.0
 43
0.0
 43
0.0
 43
0.0
 43
0.0
 43
1.0
 77
     0
 47
0.0208333333333333
 47
0.0
 47
0.0
 47
0.0
 47
0.0
 47
0.0208333333333333
 47
0.0
 47
0.0
 47
0.0
 47
0.0
 47
1.0
 47
0.0
 47
0.0
 47
0.0
 47
0.0
 47
1.0
171
     0
 49
0.0208333333333333
 49
0.0
 49
0.0
 49
0.0
 49
0.0
 49
0.0208333333333333
 49
0.0
 49
0.0
 49
0.0
 49
0.0
 49
1.0
 49
0.0
 49
0.0
 49
0.0
 49
0.0
 49
1.0
175
     0
142
0.0208333333333333
142
0.0
142
0.0
142
0.0
142
0.0
142
0.0208333333333333
142
0.0
142
0.0
142
0.0
142
0.0
142
1.0
142
0.0
142
0.0
142
0.0
142
0.0
142
1.0
179
     0
144
0.0208333333333333
144
0.0
144
0.0
144
0.0
144
0.0
144
0.0208333333333333
144
0.0
144
0.0
144
0.0
144
0.0
144
1.0
144
0.0
144
0.0
144
0.0
144
0.0
144
1.0
147
0.0208333333333333
147
0.0
147
0.0
147
0.0
147
0.0
147
0.0208333333333333
147
0.0
147
0.0
147
0.0
147
0.0
147
1.0
147
0.0
147
0.0
147
0.0
147
0.0
147
1.0
  0
MATERIAL
  5
A89C
102
{ACAD_XDICTIONARY
360
A89D
102
}
102
{ACAD_REACTORS
330
A89B
102
}
330
A89B
100
AcDbMaterial
  1
ByLayer
 72
     0
 43
0.0208333333333333
 43
0.0
 43
0.0
 43
0.0
 43
0.0
 43
0.0208333333333333
 43
0.0
 43
0.0
 43
0.0
 43
0.0
 43
1.0
 43
0.0
 43
0.0
 43
0.0
 43
0.0
 43
1.0
 77
     0
 47
0.0208333333333333
 47
0.0
 47
0.0
 47
0.0
 47
0.0
 47
0.0208333333333333
 47
0.0
 47
0.0
 47
0.0
 47
0.0
 47
1.0
 47
0.0
 47
0.0
 47
0.0
 47
0.0
 47
1.0
171
     0
 49
0.0208333333333333
 49
0.0
 49
0.0
 49
0.0
 49
0.0
 49
0.0208333333333333
 49
0.0
 49
0.0
 49
0.0
 49
0.0
 49
1.0
 49
0.0
 49
0.0
 49
0.0
 49
0.0
 49
1.0
175
     0
142
0.0208333333333333
142
0.0
142
0.0
142
0.0
142
0.0
142
0.0208333333333333
142
0.0
142
0.0
142
0.0
142
0.0
142
1.0
142
0.0
142
0.0
142
0.0
142
0.0
142
1.0
179
     0
144
0.0208333333333333
144
0.0
144
0.0
144
0.0
144
0.0
144
0.0208333333333333
144
0.0
144
0.0
144
0.0
144
0.0
144
1.0
144
0.0
144
0.0
144
0.0
144
0.0
144
1.0
147
0.0208333333333333
147
0.0
147
0.0
147
0.0
147
0.0
147
0.0208333333333333
147
0.0
147
0.0
147
0.0
147
0.0
147
1.0
147
0.0
147
0.0
147
0.0
147
0.0
147
1.0
  0
MATERIAL
  5
A8AC
102
{ACAD_XDICTIONARY
360
A8AD
102
}
102
{ACAD_REACTORS
330
A89B
102
}
330
A89B
100
AcDbMaterial
  1
Global
 72
     0
 43
0.0208333333333333
 43
0.0
 43
0.0
 43
0.0
 43
0.0
 43
0.0208333333333333
 43
0.0
 43
0.0
 43
0.0
 43
0.0
 43
1.0
 43
0.0
 43
0.0
 43
0.0
 43
0.0
 43
1.0
 77
     0
 47
0.0208333333333333
 47
0.0
 47
0.0
 47
0.0
 47
0.0
 47
0.0208333333333333
 47
0.0
 47
0.0
 47
0.0
 47
0.0
 47
1.0
 47
0.0
 47
0.0
 47
0.0
 47
0.0
 47
1.0
171
     0
 49
0.0208333333333333
 49
0.0
 49
0.0
 49
0.0
 49
0.0
 49
0.0208333333333333
 49
0.0
 49
0.0
 49
0.0
 49
0.0
 49
1.0
 49
0.0
 49
0.0
 49
0.0
 49
0.0
 49
1.0
175
     0
142
0.0208333333333333
142
0.0
142
0.0
142
0.0
142
0.0
142
0.0208333333333333
142
0.0
142
0.0
142
0.0
142
0.0
142
1.0
142
0.0
142
0.0
142
0.0
142
0.0
142
1.0
179
     0
144
0.0208333333333333
144
0.0
144
0.0
144
0.0
144
0.0
144
0.0208333333333333
144
0.0
144
0.0
144
0.0
144
0.0
144
1.0
144
0.0
144
0.0
144
0.0
144
0.0
144
1.0
147
0.0208333333333333
147
0.0
147
0.0
147
0.0
147
0.0
147
0.0208333333333333
147
0.0
147
0.0
147
0.0
147
0.0
147
1.0
147
0.0
147
0.0
147
0.0
147
0.0
147
1.0
  0
MLEADERSTYLE
  5
A8E3
102
{ACAD_REACTORS
330
A8E2
102
}
330
A8E2
100
AcDbMLeaderStyle
170
     2
171
     1
172
     0
 90
        2
 40
0.0
 41
0.0
173
     1
 91
-1056964608
340
A65C
 92
       -2
290
     1
 42
0.09
291
     1
 43
0.36
  3
Standard
 44
0.18
300

342
A65A
174
     1
178
     6
175
     1
176
     0
 93
-1056964608
 45
0.18
292
     0
297
     0
 46
0.18
 94
-1056964608
 47
1.0
 49
1.0
140
1.0
293
     1
141
0.0
294
     1
177
     0
142
1.0
295
     0
296
     0
143
0.125
1001
ACAD_MLEADERVER
1070
     2
  0
MLINESTYLE
  5
A660
102
{ACAD_REACTORS
330
A65F
102
}
330
A65F
100
AcDbMlineStyle
  2
STANDARD
 70
     0
  3

 62
   256
 51
90.0
 52
90.0
 71
     2
 49
0.5
 62
   256
  6
BYLAYER
 49
-0.5
 62
   256
  6
BYLAYER
  0
ACDBPLACEHOLDER
  5
A89A
102
{ACAD_REACTORS
330
A899
102
}
330
A899
  0
SCALE
  5
A8D1
102
{ACAD_REACTORS
330
A8D0
102
}
330
A8D0
100
AcDbScale
 70
     0
300
1:1
140
1.0
141
1.0
290
     1
  0
SCALE
  5
A8D2
102
{ACAD_REACTORS
330
A8D0
102
}
330
A8D0
100
AcDbScale
 70
     0
300
1/128" = 1'-0"
140
0.0078125
141
12.0
290
     0
  0
SCALE
  5
A8D3
102
{ACAD_REACTORS
330
A8D0
102
}
330
A8D0
100
AcDbScale
 70
     0
300
1/64" = 1'-0"
140
0.015625
141
12.0
290
     0
  0
SCALE
  5
A8D4
102
{ACAD_REACTORS
330
A8D0
102
}
330
A8D0
100
AcDbScale
 70
     0
300
1/32" = 1'-0"
140
0.03125
141
12.0
290
     0
  0
SCALE
  5
A8D5
102
{ACAD_REACTORS
330
A8D0
102
}
330
A8D0
100
AcDbScale
 70
     0
300
1/16" = 1'-0"
140
0.0625
141
12.0
290
     0
  0
SCALE
  5
A8D6
102
{ACAD_REACTORS
330
A8D0
102
}
330
A8D0
100
AcDbScale
 70
     0
300
3/32" = 1'-0"
140
0.09375
141
12.0
290
     0
  0
SCALE
  5
A8D7
102
{ACAD_REACTORS
330
A8D0
102
}
330
A8D0
100
AcDbScale
 70
     0
300
1/8" = 1'-0"
140
0.125
141
12.0
290
     0
  0
SCALE
  5
A8D8
102
{ACAD_REACTORS
330
A8D0
102
}
330
A8D0
100
AcDbScale
 70
     0
300
3/16" = 1'-0"
140
0.1875
141
12.0
290
     0
  0
SCALE
  5
A8D9
102
{ACAD_REACTORS
330
A8D0
102
}
330
A8D0
100
AcDbScale
 70
     0
300
1/4" = 1'-0"
140
0.25
141
12.0
290
     0
  0
SCALE
  5
A8DA
102
{ACAD_REACTORS
330
A8D0
102
}
330
A8D0
100
AcDbScale
 70
     0
300
3/8" = 1'-0"
140
0.375
141
12.0
290
     0
  0
SCALE
  5
A8DB
102
{ACAD_REACTORS
330
A8D0
102
}
330
A8D0
100
AcDbScale
 70
     0
300
1/2" = 1'-0"
140
0.5
141
12.0
290
     0
  0
SCALE
  5
A8DC
102
{ACAD_REACTORS
330
A8D0
102
}
330
A8D0
100
AcDbScale
 70
     0
300
3/4" = 1'-0"
140
0.75
141
12.0
290
     0
  0
SCALE
  5
A8DD
102
{ACAD_REACTORS
330
A8D0
102
}
330
A8D0
100
AcDbScale
 70
     0
300
1" = 1'-0"
140
1.0
141
12.0
290
     0
  0
SCALE
  5
A8DE
102
{ACAD_REACTORS
330
A8D0
102
}
330
A8D0
100
AcDbScale
 70
     0
300
1-1/2" = 1'-0"
140
1.5
141
12.0
290
     0
  0
SCALE
  5
A8DF
102
{ACAD_REACTORS
330
A8D0
102
}
330
A8D0
100
AcDbScale
 70
     0
300
3" = 1'-0"
140
3.0
141
12.0
290
     0
  0
SCALE
  5
A8E0
102
{ACAD_REACTORS
330
A8D0
102
}
330
A8D0
100
AcDbScale
 70
     0
300
6" = 1'-0"
140
6.0
141
12.0
290
     0
  0
SCALE
  5
A8E1
102
{ACAD_REACTORS
330
A8D0
102
}
330
A8D0
100
AcDbScale
 70
     0
300
1'-0" = 1'-0"
140
12.0
141
12.0
290
     0
  0
ACDBSECTIONVIEWSTYLE
  5
A8E5
102
{ACAD_XDICTIONARY
360
A940
102
}
102
{ACAD_REACTORS
330
A8E4
102
}
330
A8E4
100
AcDbModelDocViewStyle
 70
     0
  3
Imperial24
290
     0
100
AcDbSectionViewStyle
 70
     0
 71
     0
 90
       78
 71
     1
340
A65A
 40
0.24
340
0
340
0
 40
0.24
300
I, O, Q, S, X, Z
 40
0.48
 90
        3
 40
0.18
 90
        1
 71
     2
340
A65E
 90
       25
340
A65E
 90
       50
 40
0.24
 40
0.0
 40
0.24
 71
     3
340
A65A
 40
0.24
 90
        1
 40
0.75
 90
        1
300
%<\AcVar ViewType \f "%tc1">% %<\AcVar ViewSectionStartId>%-%<\AcVar ViewSectionEndId>%\PSCALE %<\AcVar ViewScale \f "%sn">%
 71
     4
300
ANSI31
 40
1.0
 90
        0
290
     0
290
     0
 90
        6
 40
0.0
 40
1.570796326794896
 40
0.2617993877991494
 40
1.308996938995747
 40
-0.2617993877991494
 40
1.832595714594046
  0
TABLESTYLE
  5
A8CF
102
{ACAD_XDICTIONARY
360
A907
102
}
102
{ACAD_REACTORS
330
A8CE
102
}
330
A8CE
100
AcDbTableStyle
  3
Standard
 70
     0
 71
     0
 40
0.06
 41
0.06
280
     0
281
     0
  7
STANDARD
140
0.18
170
     2
 62
     0
 63
     7
283
     0
274
    -2
284
     1
 64
     0
275
    -2
285
     1
 65
     0
276
    -2
286
     1
 66
     0
277
    -2
287
     1
 67
     0
278
    -2
288
     1
 68
     0
279
    -2
289
     1
 69
     0
  7
STANDARD
140
0.25
170
     5
 62
     0
 63
     7
283
     0
274
    -2
284
     1
 64
     0
275
    -2
285
     1
 65
     0
276
    -2
286
     1
 66
     0
277
    -2
287
     1
 67
     0
278
    -2
288
     1
 68
     0
279
    -2
289
     1
 69
     0
  7
STANDARD
140
0.18
170
     5
 62
     0
 63
     7
283
     0
274
    -2
284
     1
 64
     0
275
    -2
285
     1
 65
     0
276
    -2
286
     1
 66
     0
277
    -2
287
     1
 67
     0
278
    -2
288
     1
 68
     0
279
    -2
289
     1
 69
     0
  0
VISUALSTYLE
  5
A8BA
102
{ACAD_XDICTIONARY
360
A918
102
}
102
{ACAD_REACTORS
330
A8B4
102
}
330
A8B4
100
AcDbVisualStyle
  2
2dWireframe
 70
     4
 71
     0
 72
     2
 73
     0
 90
        0
 40
-0.6
 41
-30.0
 62
     5
 63
     7
 74
     1
 91
        4
 64
     7
 65
   257
 75
     1
175
     1
 42
1.0
 92
        0
 66
   257
 43
1.0
 76
     1
 77
     6
 78
     2
 67
     7
 79
     5
170
     0
171
     0
290
     0
174
     0
 93
        1
 44
0.0
173
     0
291
     0
 45
0.0
1001
ACAD
1000
AcDbSavedByObjectVersion
1070
     0
  0
VISUALSTYLE
  5
A8B9
102
{ACAD_XDICTIONARY
360
A916
102
}
102
{ACAD_REACTORS
330
A8B4
102
}
330
A8B4
100
AcDbVisualStyle
  2
Basic
 70
     7
 71
     1
 72
     0
 73
     1
 90
        0
 40
-0.6
 41
-30.0
 62
     5
 63
     7
 74
     0
 91
        4
 64
     7
 65
   257
 75
     1
175
     1
 42
1.0
 92
        8
 66
     7
 43
1.0
 76
     1
 77
     6
 78
     2
 67
     7
 79
     5
170
     0
171
     0
290
     0
174
     0
 93
        1
 44
0.0
173
     0
291
     1
 45
0.0
1001
ACAD
1000
AcDbSavedByObjectVersion
1070
     0
  0
VISUALSTYLE
  5
A8C0
102
{ACAD_XDICTIONARY
360
A924
102
}
102
{ACAD_REACTORS
330
A8B4
102
}
330
A8B4
100
AcDbVisualStyle
  2
Brighten
 70
    12
 71
     2
 72
     2
 73
     0
 90
        0
 40
-0.6
 41
-30.0
 62
     5
 63
     7
 74
     1
 91
        4
 64
     7
 65
   257
 75
     1
175
     1
 42
1.0
 92
        8
 66
     7
 43
1.0
 76
     1
 77
     6
 78
     2
 67
     7
 79
     5
170
     0
171
     0
290
     0
174
     0
 93
        1
 44
50.0
173
     0
291
     1
 45
0.0
1001
ACAD
1000
AcDbSavedByObjectVersion
1070
     0
  0
VISUALSTYLE
  5
A8C4
102
{ACAD_XDICTIONARY
360
A92C
102
}
102
{ACAD_REACTORS
330
A8B4
102
}
330
A8B4
100
AcDbVisualStyle
  2
ColorChange
 70
    16
 71
     2
 72
     2
 73
     3
 90
        0
 40
-0.6
 41
-30.0
 62
     5
 63
     8
 74
     1
 91
        4
 64
     7
 65
   257
 75
     1
175
     1
 42
1.0
 92
        8
 66
     8
 43
1.0
 76
     1
 77
     6
 78
     2
 67
     7
 79
     5
170
     0
171
     0
290
     0
174
     0
 93
        1
 44
0.0
173
     0
291
     1
 45
0.0
1001
ACAD
1000
AcDbSavedByObjectVersion
1070
     0
  0
VISUALSTYLE
  5
A8BD
102
{ACAD_XDICTIONARY
360
A91E
102
}
102
{ACAD_REACTORS
330
A8B4
102
}
330
A8B4
100
AcDbVisualStyle
  2
Conceptual
 70
     9
 71
     3
 72
     2
 73
     0
 90
        0
 40
-0.6
 41
-30.0
 62
     5
 63
     7
 74
     2
 91
        2
 64
     7
 65
   257
 75
     1
175
     1
 42
179.0
 92
        8
 66
     7
 43
1.0
 76
     1
 77
     6
 78
     2
 67
     7
 79
     3
170
     0
171
     0
290
     0
174
     0
 93
        1
 44
0.0
173
     0
291
     0
 45
0.0
1001
ACAD
1000
AcDbSavedByObjectVersion
1070
     0
  0
VISUALSTYLE
  5
A8BF
102
{ACAD_XDICTIONARY
360
A922
102
}
102
{ACAD_REACTORS
330
A8B4
102
}
330
A8B4
100
AcDbVisualStyle
  2
Dim
 70
    11
 71
     2
 72
     2
 73
     0
 90
        0
 40
-0.6
 41
-30.0
 62
     5
 63
     7
 74
     1
 91
        4
 64
     7
 65
   257
 75
     1
175
     1
 42
1.0
 92
        8
 66
     7
 43
1.0
 76
     1
 77
     6
 78
     2
 67
     7
 79
     5
170
     0
171
     0
290
     0
174
     0
 93
        1
 44
-50.0
173
     0
291
     1
 45
0.0
1001
ACAD
1000
AcDbSavedByObjectVersion
1070
     0
  0
VISUALSTYLE
  5
A8CC
102
{ACAD_XDICTIONARY
360
A93C
102
}
102
{ACAD_REACTORS
330
A8B4
102
}
330
A8B4
100
AcDbVisualStyle
  2
EdgeColorOff
 70
    22
 71
     2
 72
     2
 73
     0
 90
        0
 40
-0.6
 41
-30.0
 62
     5
 63
     7
 74
     1
 91
        4
 64
     7
 65
   257
 75
     1
175
     1
 42
1.0
 92
        8
 66
     7
 43
1.0
 76
     1
 77
     6
 78
     2
 67
     7
 79
     5
170
     0
171
     0
290
     0
174
     0
 93
        1
 44
0.0
173
     0
291
     1
 45
0.0
1001
ACAD
1000
AcDbSavedByObjectVersion
1070
     0
  0
VISUALSTYLE
  5
A8C3
102
{ACAD_XDICTIONARY
360
A92A
102
}
102
{ACAD_REACTORS
330
A8B4
102
}
330
A8B4
100
AcDbVisualStyle
  2
Facepattern
 70
    15
 71
     2
 72
     2
 73
     0
 90
        0
 40
-0.6
 41
-30.0
 62
     5
 63
     7
 74
     1
 91
        4
 64
     7
 65
   257
 75
     1
175
     1
 42
1.0
 92
        8
 66
     7
 43
1.0
 76
     1
 77
     6
 78
     2
 67
     7
 79
     5
170
     0
171
     0
290
     0
174
     0
 93
        1
 44
0.0
173
     0
291
     1
 45
0.0
1001
ACAD
1000
AcDbSavedByObjectVersion
1070
     0
  0
VISUALSTYLE
  5
A8B5
102
{ACAD_XDICTIONARY
360
A90E
102
}
102
{ACAD_REACTORS
330
A8B4
102
}
330
A8B4
100
AcDbVisualStyle
  2
Flat
 70
     0
 71
     2
 72
     1
 73
     1
 90
        2
 40
-0.6
 41
30.0
 62
     5
 63
     7
 74
     0
 91
        0
 64
     7
 65
   257
 75
     1
175
     1
 42
1.0
 92
        8
 66
     7
 43
1.0
 76
     1
 77
     6
 78
     2
 67
     7
 79
     5
170
     0
171
     0
290
     0
174
     0
 93
       13
 44
0.0
173
     0
291
     1
 45
0.0
1001
ACAD
1000
AcDbSavedByObjectVersion
1070
     0
  0
VISUALSTYLE
  5
A8B6
102
{ACAD_XDICTIONARY
360
A910
102
}
102
{ACAD_REACTORS
330
A8B4
102
}
330
A8B4
100
AcDbVisualStyle
  2
FlatWithEdges
 70
     1
 71
     2
 72
     1
 73
     1
 90
        2
 40
-0.6
 41
30.0
 62
     5
 63
     7
 74
     1
 91
        0
 64
     7
 65
   257
 75
     1
175
     1
 42
1.0
 92
        0
 66
   257
 43
1.0
 76
     1
 77
     6
 78
     2
 67
     7
 79
     5
170
     0
171
     0
290
     0
174
     0
 93
       13
 44
0.0
173
     0
291
     1
 45
0.0
1001
ACAD
1000
AcDbSavedByObjectVersion
1070
     0
  0
VISUALSTYLE
  5
A8B7
102
{ACAD_XDICTIONARY
360
A912
102
}
102
{ACAD_REACTORS
330
A8B4
102
}
330
A8B4
100
AcDbVisualStyle
  2
Gouraud
 70
     2
 71
     2
 72
     2
 73
     1
 90
        2
 40
-0.6
 41
30.0
 62
     5
 63
     7
 74
     0
 91
        0
 64
     7
 65
   257
 75
     1
175
     1
 42
1.0
 92
        0
 66
     7
 43
1.0
 76
     1
 77
     6
 78
     2
 67
     7
 79
     5
170
     0
171
     0
290
     0
174
     0
 93
       13
 44
0.0
173
     0
291
     1
 45
0.0
1001
ACAD
1000
AcDbSavedByObjectVersion
1070
     0
  0
VISUALSTYLE
  5
A8B8
102
{ACAD_XDICTIONARY
360
A914
102
}
102
{ACAD_REACTORS
330
A8B4
102
}
330
A8B4
100
AcDbVisualStyle
  2
GouraudWithEdges
 70
     3
 71
     2
 72
     2
 73
     1
 90
        2
 40
-0.6
 41
30.0
 62
     5
 63
     7
 74
     1
 91
        0
 64
     7
 65
   257
 75
     1
175
     1
 42
1.0
 92
        0
 66
   257
 43
1.0
 76
     1
 77
     6
 78
     2
 67
     7
 79
     5
170
     0
171
     0
290
     0
174
     0
 93
       13
 44
0.0
173
     0
291
     1
 45
0.0
1001
ACAD
1000
AcDbSavedByObjectVersion
1070
     0
  0
VISUALSTYLE
  5
A8BC
102
{ACAD_XDICTIONARY
360
A91C
102
}
102
{ACAD_REACTORS
330
A8B4
102
}
330
A8B4
100
AcDbVisualStyle
  2
Hidden
 70
     6
 71
     1
 72
     2
 73
     2
 90
        0
 40
-0.6
 41
-30.0
 62
     5
 63
     7
 74
     2
 91
        2
 64
     7
 65
   257
 75
     2
175
     1
 42
40.0
 92
        0
 66
   257
 43
1.0
 76
     1
 77
     6
 78
     2
 67
     7
 79
     3
170
     0
171
     0
290
     0
174
     0
 93
        1
 44
0.0
173
     0
291
     0
 45
0.0
1001
ACAD
1000
AcDbSavedByObjectVersion
1070
     0
  0
VISUALSTYLE
  5
A8CA
102
{ACAD_XDICTIONARY
360
A938
102
}
102
{ACAD_REACTORS
330
A8B4
102
}
330
A8B4
100
AcDbVisualStyle
  2
JitterOff
 70
    20
 71
     2
 72
     2
 73
     0
 90
        0
 40
-0.6
 41
-30.0
 62
     5
 63
     7
 74
     1
 91
        4
 64
     7
 65
   257
 75
     1
175
     1
 42
1.0
 92
       10
 66
     7
 43
1.0
 76
     1
 77
     6
 78
     2
 67
     7
 79
     5
170
     0
171
     0
290
     0
174
     0
 93
        1
 44
0.0
173
     0
291
     1
 45
0.0
1001
ACAD
1000
AcDbSavedByObjectVersion
1070
     0
  0
VISUALSTYLE
  5
A8C2
102
{ACAD_XDICTIONARY
360
A928
102
}
102
{ACAD_REACTORS
330
A8B4
102
}
330
A8B4
100
AcDbVisualStyle
  2
Linepattern
 70
    14
 71
     2
 72
     2
 73
     0
 90
        0
 40
-0.6
 41
-30.0
 62
     5
 63
     7
 74
     1
 91
        4
 64
     7
 65
   257
 75
     7
175
     7
 42
1.0
 92
        8
 66
     7
 43
1.0
 76
     1
 77
     6
 78
     2
 67
     7
 79
     5
170
     0
171
     0
290
     0
174
     0
 93
        1
 44
0.0
173
     0
291
     1
 45
0.0
1001
ACAD
1000
AcDbSavedByObjectVersion
1070
     0
  0
VISUALSTYLE
  5
A8CB
102
{ACAD_XDICTIONARY
360
A93A
102
}
102
{ACAD_REACTORS
330
A8B4
102
}
330
A8B4
100
AcDbVisualStyle
  2
OverhangOff
 70
    21
 71
     2
 72
     2
 73
     0
 90
        0
 40
-0.6
 41
-30.0
 62
     5
 63
     7
 74
     1
 91
        4
 64
     7
 65
   257
 75
     1
175
     1
 42
1.0
 92
        9
 66
     7
 43
1.0
 76
     1
 77
     6
 78
     2
 67
     7
 79
     5
170
     0
171
     0
290
     0
174
     0
 93
        1
 44
0.0
173
     0
291
     1
 45
0.0
1001
ACAD
1000
AcDbSavedByObjectVersion
1070
     0
  0
VISUALSTYLE
  5
A8BE
102
{ACAD_XDICTIONARY
360
A920
102
}
102
{ACAD_REACTORS
330
A8B4
102
}
330
A8B4
100
AcDbVisualStyle
  2
Realistic
 70
     8
 71
     2
 72
     3
 73
     0
 90
        2
 40
-0.6
 41
30.0
 62
     5
 63
     7
 74
     0
 91
        0
 64
     7
 65
   257
 75
     1
175
     1
 42
1.0
 92
        8
 66
   257
 43
1.0
 76
     1
 77
     6
 78
     2
 67
     7
 79
     3
170
     0
171
     0
290
     0
174
     0
 93
       13
 44
0.0
173
     0
291
     0
 45
0.0
1001
ACAD
1000
AcDbSavedByObjectVersion
1070
     0
  0
VISUALSTYLE
  5
A8C9
102
{ACAD_XDICTIONARY
360
A936
102
}
102
{ACAD_REACTORS
330
A8B4
102
}
330
A8B4
100
AcDbVisualStyle
  2
Shaded
 70
    27
 71
     2
 72
     2
 73
     1
 90
        2
 40
-0.6
 41
30.0
 62
     5
 63
     7
 74
     0
 91
        4
 64
     7
 65
   257
 75
     1
175
     1
 42
1.0
 92
        8
 66
   257
 43
1.0
 76
     1
 77
     6
 78
     2
 67
     8
 79
     3
170
     0
171
     0
290
     0
174
     0
 93
        5
 44
0.0
173
     0
291
     0
 45
0.0
1001
ACAD
1000
AcDbSavedByObjectVersion
1070
     0
  0
VISUALSTYLE
  5
A8C8
102
{ACAD_XDICTIONARY
360
A934
102
}
102
{ACAD_REACTORS
330
A8B4
102
}
330
A8B4
100
AcDbVisualStyle
  2
Shaded with edges
 70
    26
 71
     2
 72
     2
 73
     1
 90
        2
 40
-0.6
 41
30.0
 62
     5
 63
     7
 74
     1
 91
       10
 64
     7
 65
   257
 75
     2
175
     1
 42
1.0
 92
        8
 66
   257
 43
1.0
 76
     1
 77
     6
 78
     2
 67
     7
 79
     3
170
     0
171
     0
290
     0
174
     0
 93
        5
 44
0.0
173
     0
291
     0
 45
0.0
1001
ACAD
1000
AcDbSavedByObjectVersion
1070
     0
  0
VISUALSTYLE
  5
A8C5
102
{ACAD_XDICTIONARY
360
A92E
102
}
102
{ACAD_REACTORS
330
A8B4
102
}
330
A8B4
100
AcDbVisualStyle
  2
Shades of Gray
 70
    23
 71
     2
 72
     2
 73
     3
 90
        0
 40
-0.6
 41
-30.0
 62
     5
 63
     7
 74
     2
 91
        2
 64
     7
 65
     7
 75
     1
175
     1
 42
40.0
 92
        8
 66
     7
 43
1.0
 76
     1
 77
     6
 78
     2
 67
     7
 79
     3
170
     0
171
     0
290
     0
174
     0
 93
        1
 44
0.0
173
     0
291
     0
 45
0.0
1001
ACAD
1000
AcDbSavedByObjectVersion
1070
     0
  0
VISUALSTYLE
  5
A8C6
102
{ACAD_XDICTIONARY
360
A930
102
}
102
{ACAD_REACTORS
330
A8B4
102
}
330
A8B4
100
AcDbVisualStyle
  2
Sketchy
 70
    24
 71
     1
 72
     2
 73
     2
 90
        0
 40
-0.6
 41
-30.0
 62
     5
 63
     7
 74
     2
 91
        2
 64
     7
 65
     7
 75
     1
175
     1
 42
40.0
 92
       11
 66
     7
 43
1.0
 76
     1
 77
     6
 78
     2
 67
     7
 79
     6
170
     0
171
     0
290
     0
174
     0
 93
        1
 44
0.0
173
     0
291
     0
 45
0.0
1001
ACAD
1000
AcDbSavedByObjectVersion
1070
     0
  0
VISUALSTYLE
  5
A8C1
102
{ACAD_XDICTIONARY
360
A926
102
}
102
{ACAD_REACTORS
330
A8B4
102
}
330
A8B4
100
AcDbVisualStyle
  2
Thicken
 70
    13
 71
     2
 72
     2
 73
     0
 90
        0
 40
-0.6
 41
-30.0
 62
     5
 63
     7
 74
     1
 91
        4
 64
     7
 65
   257
 75
     1
175
     1
 42
1.0
 92
       12
 66
     7
 43
1.0
 76
     1
 77
     6
 78
     2
 67
     7
 79
     5
170
     0
171
     0
290
     0
174
     0
 93
        1
 44
0.0
173
     0
291
     1
 45
0.0
1001
ACAD
1000
AcDbSavedByObjectVersion
1070
     0
  0
VISUALSTYLE
  5
A8BB
102
{ACAD_XDICTIONARY
360
A91A
102
}
102
{ACAD_REACTORS
330
A8B4
102
}
330
A8B4
100
AcDbVisualStyle
  2
Wireframe
 70
     5
 71
     0
 72
     2
 73
     0
 90
        0
 40
-0.6
 41
-30.0
 62
     5
 63
     7
 74
     1
 91
        4
 64
     7
 65
   257
 75
     1
175
     1
 42
1.0
 92
        0
 66
   257
 43
1.0
 76
     1
 77
     6
 78
     2
 67
     7
 79
     3
170
     0
171
     0
290
     0
174
     0
 93
        1
 44
0.0
173
     0
291
     0
 45
0.0
1001
ACAD
1000
AcDbSavedByObjectVersion
1070
     0
  0
VISUALSTYLE
  5
A8C7
102
{ACAD_XDICTIONARY
360
A932
102
}
102
{ACAD_REACTORS
330
A8B4
102
}
330
A8B4
100
AcDbVisualStyle
  2
X-Ray
 70
    25
 71
     2
 72
     2
 73
     1
 90
        1
 40
0.5
 41
-30.0
 62
     5
 63
     7
 74
     1
 91
        0
 64
     7
 65
   257
 75
     1
175
     1
 42
1.0
 92
        8
 66
     7
 43
1.0
 76
     1
 77
     6
 78
     2
 67
     7
 79
     3
170
     0
171
     0
290
     0
174
     0
 93
       13
 44
0.0
173
     0
291
     0
 45
0.0
1001
ACAD
1000
AcDbSavedByObjectVersion
1070
     0
  0
DICTIONARYVAR
  5
A901
102
{ACAD_REACTORS
330
A8FC
102
}
330
A8FC
100
DictionaryVariables
280
     0
  1
1:1
  0
DICTIONARYVAR
  5
A8FE
102
{ACAD_REACTORS
330
A8FC
102
}
330
A8FC
100
DictionaryVariables
280
     0
  1
STANDARD
  0
DICTIONARYVAR
  5
A8FD
102
{ACAD_REACTORS
330
A8FC
102
}
330
A8FC
100
DictionaryVariables
280
     0
  1
STANDARD
  0
DICTIONARYVAR
  5
A8FF
102
{ACAD_REACTORS
330
A8FC
102
}
330
A8FC
100
DictionaryVariables
280
     0
  1
Imperial24
  0
DICTIONARYVAR
  5
A900
102
{ACAD_REACTORS
330
A8FC
102
}
330
A8FC
100
DictionaryVariables
280
     0
  1
Imperial24
  0
DICTIONARYVAR
  5
A904
102
{ACAD_REACTORS
330
A8FC
102
}
330
A8FC
100
DictionaryVariables
280
     0
  1
1
  0
DICTIONARYVAR
  5
A903
102
{ACAD_REACTORS
330
A8FC
102
}
330
A8FC
100
DictionaryVariables
280
     0
  1
0
  0
DICTIONARYVAR
  5
A902
102
{ACAD_REACTORS
330
A8FC
102
}
330
A8FC
100
DictionaryVariables
280
     0
  1
127
  0
DICTIONARYVAR
  5
A905
102
{ACAD_REACTORS
330
A8FC
102
}
330
A8FC
100
DictionaryVariables
280
     0
  1
2
  0
DICTIONARY
  5
A942
330
A8E7
100
AcDbDictionary
280
     1
281
     1
  3
ACAD_XREC_ROUNDTRIP
360
A943
  0
DICTIONARY
  5
A944
330
A8E8
100
AcDbDictionary
280
     1
281
     1
  3
ACAD_XREC_ROUNDTRIP
360
A945
  0
DICTIONARY
  5
A946
330
A8E9
100
AcDbDictionary
280
     1
281
     1
  3
ACAD_XREC_ROUNDTRIP
360
A947
  0
DICTIONARY
  5
A8A5
330
A8A4
100
AcDbDictionary
280
     1
281
     1
  3
ACAD_XREC_ROUNDTRIP
360
A90C
  3
BUMPTILE
360
A8A7
  3
DIFFUSETILE
360
A8A6
  3
OPACITYTILE
360
A8AA
  3
REFLECTIONTILE
360
A8A9
  3
REFRACTIONTILE
360
A8AB
  3
SPECULARTILE
360
A8A8
  0
DICTIONARY
  5
A89D
330
A89C
100
AcDbDictionary
280
     1
281
     1
  3
ACAD_XREC_ROUNDTRIP
360
A90B
  3
BUMPTILE
360
A89F
  3
DIFFUSETILE
360
A89E
  3
OPACITYTILE
360
A8A2
  3
REFLECTIONTILE
360
A8A1
  3
REFRACTIONTILE
360
A8A3
  3
SPECULARTILE
360
A8A0
  0
DICTIONARY
  5
A8AD
330
A8AC
100
AcDbDictionary
280
     1
281
     1
  3
ACAD_XREC_ROUNDTRIP
360
A90D
  3
BUMPTILE
360
A8AF
  3
DIFFUSETILE
360
A8AE
  3
OPACITYTILE
360
A8B2
  3
REFLECTIONTILE
360
A8B1
  3
REFRACTIONTILE
360
A8B3
  3
SPECULARTILE
360
A8B0
  0
DICTIONARY
  5
A940
330
A8E5
100
AcDbDictionary
280
     1
281
     1
  3
ACAD_XREC_ROUNDTRIP
360
A941
  0
DICTIONARY
  5
A907
330
A8CF
100
AcDbDictionary
280
     1
281
     1
  3
ACAD_ROUNDTRIP_2008_TABLESTYLE_CELLSTYLEMAP
360
A908
  3
ACAD_XREC_ROUNDTRIP
360
A93E
  0
DICTIONARY
  5
A918
330
A8BA
100
AcDbDictionary
280
     1
281
     1
  3
ACAD_XREC_ROUNDTRIP
360
A919
  0
DICTIONARY
  5
A916
330
A8B9
100
AcDbDictionary
280
     1
281
     1
  3
ACAD_XREC_ROUNDTRIP
360
A917
  0
DICTIONARY
  5
A924
330
A8C0
100
AcDbDictionary
280
     1
281
     1
  3
ACAD_XREC_ROUNDTRIP
360
A925
  0
DICTIONARY
  5
A92C
330
A8C4
100
AcDbDictionary
280
     1
281
     1
  3
ACAD_XREC_ROUNDTRIP
360
A92D
  0
DICTIONARY
  5
A91E
330
A8BD
100
AcDbDictionary
280
     1
281
     1
  3
ACAD_XREC_ROUNDTRIP
360
A91F
  0
DICTIONARY
  5
A922
330
A8BF
100
AcDbDictionary
280
     1
281
     1
  3
ACAD_XREC_ROUNDTRIP
360
A923
  0
DICTIONARY
  5
A93C
330
A8CC
100
AcDbDictionary
280
     1
281
     1
  3
ACAD_XREC_ROUNDTRIP
360
A93D
  0
DICTIONARY
  5
A92A
330
A8C3
100
AcDbDictionary
280
     1
281
     1
  3
ACAD_XREC_ROUNDTRIP
360
A92B
  0
DICTIONARY
  5
A90E
330
A8B5
100
AcDbDictionary
280
     1
281
     1
  3
ACAD_XREC_ROUNDTRIP
360
A90F
  0
DICTIONARY
  5
A910
330
A8B6
100
AcDbDictionary
280
     1
281
     1
  3
ACAD_XREC_ROUNDTRIP
360
A911
  0
DICTIONARY
  5
A912
330
A8B7
100
AcDbDictionary
280
     1
281
     1
  3
ACAD_XREC_ROUNDTRIP
360
A913
  0
DICTIONARY
  5
A914
330
A8B8
100
AcDbDictionary
280
     1
281
     1
  3
ACAD_XREC_ROUNDTRIP
360
A915
  0
DICTIONARY
  5
A91C
330
A8BC
100
AcDbDictionary
280
     1
281
     1
  3
ACAD_XREC_ROUNDTRIP
360
A91D
  0
DICTIONARY
  5
A938
330
A8CA
100
AcDbDictionary
280
     1
281
     1
  3
ACAD_XREC_ROUNDTRIP
360
A939
  0
DICTIONARY
  5
A928
330
A8C2
100
AcDbDictionary
280
     1
281
     1
  3
ACAD_XREC_ROUNDTRIP
360
A929
  0
DICTIONARY
  5
A93A
330
A8CB
100
AcDbDictionary
280
     1
281
     1
  3
ACAD_XREC_ROUNDTRIP
360
A93B
  0
DICTIONARY
  5
A920
330
A8BE
100
AcDbDictionary
280
     1
281
     1
  3
ACAD_XREC_ROUNDTRIP
360
A921
  0
DICTIONARY
  5
A936
330
A8C9
100
AcDbDictionary
280
     1
281
     1
  3
ACAD_XREC_ROUNDTRIP
360
A937
  0
DICTIONARY
  5
A934
330
A8C8
100
AcDbDictionary
280
     1
281
     1
  3
ACAD_XREC_ROUNDTRIP
360
A935
  0
DICTIONARY
  5
A92E
330
A8C5
100
AcDbDictionary
280
     1
281
     1
  3
ACAD_XREC_ROUNDTRIP
360
A92F
  0
DICTIONARY
  5
A930
330
A8C6
100
AcDbDictionary
280
     1
281
     1
  3
ACAD_XREC_ROUNDTRIP
360
A931
  0
DICTIONARY
  5
A926
330
A8C1
100
AcDbDictionary
280
     1
281
     1
  3
ACAD_XREC_ROUNDTRIP
360
A927
  0
DICTIONARY
  5
A91A
330
A8BB
100
AcDbDictionary
280
     1
281
     1
  3
ACAD_XREC_ROUNDTRIP
360
A91B
  0
DICTIONARY
  5
A932
330
A8C7
100
AcDbDictionary
280
     1
281
     1
  3
ACAD_XREC_ROUNDTRIP
360
A933
  0
XRECORD
  5
A943
102
{ACAD_REACTORS
330
A942
102
}
330
A942
100
AcDbXrecord
280
     1
102
DISPLAYNAME
  1
Imperial24
102
FLAGS
 90
        0
  0
XRECORD
  5
A945
102
{ACAD_REACTORS
330
A944
102
}
330
A944
100
AcDbXrecord
280
     1
102
SHADEPLOT
 70
     0
102
SHADEPLOTRESLEVEL
 70
     2
102
SHADEPLOTCUSTOMDPI
 70
   300
  0
XRECORD
  5
A947
102
{ACAD_REACTORS
330
A946
102
}
330
A946
100
AcDbXrecord
280
     1
102
SHADEPLOT
 70
     0
102
SHADEPLOTRESLEVEL
 70
     2
102
SHADEPLOTCUSTOMDPI
 70
   300
  0
XRECORD
  5
A90C
102
{ACAD_REACTORS
330
A8A5
102
}
330
A8A5
100
AcDbXrecord
280
     1
102
MATERIAL
148
0.0
149
0.0
149
0.0
 93
        0
 94
      127
282
     0
 72
     0
 77
     0
171
     0
175
     0
179
     0
273
     0
  0
XRECORD
  5
A8A7
102
{ACAD_REACTORS
330
A8A5
102
}
330
A8A5
100
AcDbXrecord
280
     1
270
     1
271
     1
  0
XRECORD
  5
A8A6
102
{ACAD_REACTORS
330
A8A5
102
}
330
A8A5
100
AcDbXrecord
280
     1
270
     1
271
     1
  0
XRECORD
  5
A8AA
102
{ACAD_REACTORS
330
A8A5
102
}
330
A8A5
100
AcDbXrecord
280
     1
270
     1
271
     1
  0
XRECORD
  5
A8A9
102
{ACAD_REACTORS
330
A8A5
102
}
330
A8A5
100
AcDbXrecord
280
     1
270
     1
271
     1
  0
XRECORD
  5
A8AB
102
{ACAD_REACTORS
330
A8A5
102
}
330
A8A5
100
AcDbXrecord
280
     1
270
     1
271
     1
  0
XRECORD
  5
A8A8
102
{ACAD_REACTORS
330
A8A5
102
}
330
A8A5
100
AcDbXrecord
280
     1
270
     1
271
     1
  0
XRECORD
  5
A90B
102
{ACAD_REACTORS
330
A89D
102
}
330
A89D
100
AcDbXrecord
280
     1
102
MATERIAL
148
0.0
149
0.0
149
0.0
 93
        0
 94
      127
282
     0
 72
     0
 77
     0
171
     0
175
     0
179
     0
273
     0
  0
XRECORD
  5
A89F
102
{ACAD_REACTORS
330
A89D
102
}
330
A89D
100
AcDbXrecord
280
     1
270
     1
271
     1
  0
XRECORD
  5
A89E
102
{ACAD_REACTORS
330
A89D
102
}
330
A89D
100
AcDbXrecord
280
     1
270
     1
271
     1
  0
XRECORD
  5
A8A2
102
{ACAD_REACTORS
330
A89D
102
}
330
A89D
100
AcDbXrecord
280
     1
270
     1
271
     1
  0
XRECORD
  5
A8A1
102
{ACAD_REACTORS
330
A89D
102
}
330
A89D
100
AcDbXrecord
280
     1
270
     1
271
     1
  0
XRECORD
  5
A8A3
102
{ACAD_REACTORS
330
A89D
102
}
330
A89D
100
AcDbXrecord
280
     1
270
     1
271
     1
  0
XRECORD
  5
A8A0
102
{ACAD_REACTORS
330
A89D
102
}
330
A89D
100
AcDbXrecord
280
     1
270
     1
271
     1
  0
XRECORD
  5
A90D
102
{ACAD_REACTORS
330
A8AD
102
}
330
A8AD
100
AcDbXrecord
280
     1
102
MATERIAL
148
0.0
149
0.0
149
0.0
 93
        0
 94
      127
282
     0
 72
     0
 77
     0
171
     0
175
     0
179
     0
273
     0
  0
XRECORD
  5
A8AF
102
{ACAD_REACTORS
330
A8AD
102
}
330
A8AD
100
AcDbXrecord
280
     1
270
     1
271
     1
  0
XRECORD
  5
A8AE
102
{ACAD_REACTORS
330
A8AD
102
}
330
A8AD
100
AcDbXrecord
280
     1
270
     1
271
     1
  0
XRECORD
  5
A8B2
102
{ACAD_REACTORS
330
A8AD
102
}
330
A8AD
100
AcDbXrecord
280
     1
270
     1
271
     1
  0
XRECORD
  5
A8B1
102
{ACAD_REACTORS
330
A8AD
102
}
330
A8AD
100
AcDbXrecord
280
     1
270
     1
271
     1
  0
XRECORD
  5
A8B3
102
{ACAD_REACTORS
330
A8AD
102
}
330
A8AD
100
AcDbXrecord
280
     1
270
     1
271
     1
  0
XRECORD
  5
A8B0
102
{ACAD_REACTORS
330
A8AD
102
}
330
A8AD
100
AcDbXrecord
280
     1
270
     1
271
     1
  0
XRECORD
  5
A941
102
{ACAD_REACTORS
330
A940
102
}
330
A940
100
AcDbXrecord
280
     1
102
DISPLAYNAME
  1
Imperial24
102
FLAGS
 90
        0
  0
CELLSTYLEMAP
  5
A908
102
{ACAD_REACTORS
330
A907
102
}
330
A907
100
AcDbCellStyleMap
 90
        3
300
CELLSTYLE
  1
TABLEFORMAT_BEGIN
 90
        5
170
     1
 91
        0
 92
    32768
 62
   257
 93
        1
300
CONTENTFORMAT
  1
CONTENTFORMAT_BEGIN
 90
        0
 91
        0
 92
      512
 93
        0
300

 40
0.0
140
1.0
 94
        5
 62
     0
340
A65A
144
0.25
309
CONTENTFORMAT_END
171
     0
 94
        0
309
TABLEFORMAT_END
  1
CELLSTYLE_BEGIN
 90
        1
 91
        1
300
_TITLE
309
CELLSTYLE_END
300
CELLSTYLE
  1
TABLEFORMAT_BEGIN
 90
        5
170
     1
 91
        0
 92
        0
 62
   257
 93
        1
300
CONTENTFORMAT
  1
CONTENTFORMAT_BEGIN
 90
        0
 91
        0
 92
      512
 93
        0
300

 40
0.0
140
1.0
 94
        5
 62
     0
340
A65A
144
0.18
309
CONTENTFORMAT_END
171
     0
 94
        0
309
TABLEFORMAT_END
  1
CELLSTYLE_BEGIN
 90
        2
 91
        1
300
_HEADER
309
CELLSTYLE_END
300
CELLSTYLE
  1
TABLEFORMAT_BEGIN
 90
        5
170
     1
 91
        0
 92
        0
 62
   257
 93
        1
300
CONTENTFORMAT
  1
CONTENTFORMAT_BEGIN
 90
        0
 91
        0
 92
      512
 93
        0
300

 40
0.0
140
1.0
 94
        2
 62
     0
340
A65A
144
0.18
309
CONTENTFORMAT_END
171
     0
 94
        0
309
TABLEFORMAT_END
  1
CELLSTYLE_BEGIN
 90
        3
 91
        2
300
_DATA
309
CELLSTYLE_END
  0
XRECORD
  5
A93E
102
{ACAD_REACTORS
330
A907
102
}
330
A907
100
AcDbXrecord
280
     1
102
ACAD_ROUNDTRIP_PRE2007_TABLESTYLE
 90
      512
 91
        0
  1

 92
      512
 93
        0
  2

 94
      512
 95
        0
  3

  0
XRECORD
  5
A919
102
{ACAD_REACTORS
330
A918
102
}
330
A918
100
AcDbXrecord
280
     1
102
RTVSPost2010Prop28
280
     1
102
RTVSPost2010PropOp28
 70
     1
102
RTVSPost2010Prop29
280
     1
102
RTVSPost2010PropOp29
 70
     1
102
RTVSPost2010Prop30
280
     0
102
RTVSPost2010PropOp30
 70
     1
102
RTVSPost2010Prop31
280
     0
102
RTVSPost2010PropOp31
 70
     1
102
RTVSPost2010Prop32
280
     0
102
RTVSPost2010PropOp32
 70
     1
102
RTVSPost2010Prop33
280
     0
102
RTVSPost2010PropOp33
 70
     1
102
RTVSPost2010Prop34
280
     0
102
RTVSPost2010PropOp34
 70
     1
102
RTVSPost2010Prop35
280
     0
102
RTVSPost2010PropOp35
 70
     1
102
RTVSPost2010Prop36
280
     0
102
RTVSPost2010PropOp36
 70
     1
102
RTVSPost2010Prop37
 90
       50
102
RTVSPost2010PropOp37
 70
     1
102
RTVSPost2010Prop38
140
0.0
102
RTVSPost2010PropOp38
 70
     1
102
RTVSPost2010Prop39
140
1.0
102
RTVSPost2010PropOp39
 70
     1
102
RTVSPost2010Prop40
 90
        0
102
RTVSPost2010PropOp40
 70
     1
102
RTVSPost2010Prop41ColorIndex
 90
       18
102
RTVSPost2010Prop41ColorRGB
 90
        0
102
RTVSPost2010PropOp41
 70
     1
102
RTVSPost2010Prop42
 90
       50
102
RTVSPost2010PropOp42
 70
     1
102
RTVSPost2010Prop43
 90
        3
102
RTVSPost2010PropOp43
 70
     1
102
RTVSPost2010Prop44ColorIndex
 90
        5
102
RTVSPost2010Prop44ColorRGB
 90
      255
102
RTVSPost2010PropOp44
 70
     1
102
RTVSPost2010Prop45
280
     0
102
RTVSPost2010PropOp45
 70
     1
102
RTVSPost2010Prop46
 90
       50
102
RTVSPost2010PropOp46
 70
     1
102
RTVSPost2010Prop47
 90
       50
102
RTVSPost2010PropOp47
 70
     1
102
RTVSPost2010Prop48
 90
       50
102
RTVSPost2010PropOp48
 70
     1
102
RTVSPost2010Prop49
280
     0
102
RTVSPost2010PropOp49
 70
     1
102
RTVSPost2010Prop50
 90
       50
102
RTVSPost2010PropOp50
 70
     1
102
RTVSPost2010Prop51ColorIndex
 90
      256
102
RTVSPost2010Prop51ColorRGB
 90
-16777216
102
RTVSPost2010PropOp51
 70
     0
102
RTVSPost2010Prop52
140
1.0
102
RTVSPost2010PropOp52
 70
     0
102
RTVSPost2010Prop53
 90
        2
102
RTVSPost2010PropOp53
 70
     1
102
RTVSPost2010Prop54
  1
strokes_ogs.tif
102
RTVSPost2010PropOp54
 70
     1
102
RTVSPost2010Prop55
280
     0
102
RTVSPost2010PropOp55
 70
     1
102
RTVSPost2010Prop56
140
1.0
102
RTVSPost2010PropOp56
 70
     1
102
RTVSPost2010Prop57
140
1.0
102
RTVSPost2010PropOp57
 70
     1
102
RTVSPropertyOp0
 70
     1
102
RTVSPropertyOp1
 70
     1
102
RTVSPropertyOp2
 70
     1
102
RTVSPropertyOp3
 70
     1
102
RTVSPropertyOp4
 70
     1
102
RTVSPropertyOp5
 70
     1
102
RTVSPropertyOp6
 70
     1
102
RTVSPropertyOp7
 70
     1
102
RTVSPropertyOp8
 70
     1
102
RTVSPropertyOp9
 70
     1
102
RTVSPropertyOp10
 70
     1
102
RTVSPropertyOp11
 70
     1
102
RTVSPropertyOp12
 70
     1
102
RTVSPropertyOp13
 70
     1
102
RTVSPropertyOp14
 70
     1
102
RTVSPropertyOp15
 70
     1
102
RTVSPropertyOp16
 70
     1
102
RTVSPropertyOp17
 70
     1
102
RTVSPropertyOp18
 70
     1
102
RTVSPropertyOp19
 70
     1
102
RTVSPropertyOp20
 70
     1
102
RTVSPropertyOp21
 70
     1
102
RTVSPropertyOp22
 70
     1
102
RTVSPropertyOp23
 70
     1
102
RTVSPropertyOp24
 70
     1
102
RTVSPropertyOp25
 70
     1
102
RTVSPropertyOp26
 70
     1
102
RTVSPropertyOp27
 70
     1
102
RTVSPropertyOp28
 70
     1
102
RTVSPropertyOp29
 70
     1
102
RTVSPropertyOp30
 70
     1
102
RTVSPropertyOp31
 70
     1
102
RTVSPropertyOp32
 70
     1
102
RTVSPropertyOp33
 70
     1
102
RTVSPropertyOp34
 70
     1
102
RTVSPropertyOp35
 70
     1
102
RTVSPropertyOp36
 70
     1
102
RTVSPropertyOp37
 70
     1
102
RTVSPropertyOp38
 70
     1
102
RTVSPropertyOp39
 70
     1
102
RTVSPropertyOp40
 70
     1
102
RTVSPropertyOp41
 70
     1
102
RTVSPropertyOp42
 70
     1
102
RTVSPropertyOp43
 70
     1
102
RTVSPropertyOp44
 70
     1
102
RTVSPropertyOp45
 70
     1
102
RTVSPropertyOp46
 70
     1
102
RTVSPropertyOp47
 70
     1
102
RTVSPropertyOp48
 70
     1
102
RTVSPropertyOp49
 70
     1
102
RTVSPropertyOp50
 70
     1
102
RTVSPropertyOp51
 70
     0
102
RTVSPropertyOp52
 70
     0
102
RTVSPropertyOp53
 70
     1
102
RTVSPropertyOp54
 70
     1
102
RTVSPropertyOp55
 70
     1
102
RTVSPropertyOp56
 70
     1
102
RTVSPropertyOp57
 70
     1
102
RTVSPropertyOp58
 70
     1
102
RTVSPropertyOp59
 70
     1
102
RTVSPropertyOp60
 70
     1
102
RTVSPropertyOp61
 70
     1
102
RTVSPropertyOp62
 70
     1
  0
XRECORD
  5
A917
102
{ACAD_REACTORS
330
A916
102
}
330
A916
100
AcDbXrecord
280
     1
102
RTVSPost2010Prop28
280
     0
102
RTVSPost2010PropOp28
 70
     1
102
RTVSPost2010Prop29
280
     1
102
RTVSPost2010PropOp29
 70
     1
102
RTVSPost2010Prop30
280
     1
102
RTVSPost2010PropOp30
 70
     1
102
RTVSPost2010Prop31
280
     0
102
RTVSPost2010PropOp31
 70
     1
102
RTVSPost2010Prop32
280
     0
102
RTVSPost2010PropOp32
 70
     1
102
RTVSPost2010Prop33
280
     0
102
RTVSPost2010PropOp33
 70
     1
102
RTVSPost2010Prop34
280
     0
102
RTVSPost2010PropOp34
 70
     1
102
RTVSPost2010Prop35
280
     0
102
RTVSPost2010PropOp35
 70
     1
102
RTVSPost2010Prop36
280
     0
102
RTVSPost2010PropOp36
 70
     1
102
RTVSPost2010Prop37
 90
       50
102
RTVSPost2010PropOp37
 70
     1
102
RTVSPost2010Prop38
140
0.0
102
RTVSPost2010PropOp38
 70
     1
102
RTVSPost2010Prop39
140
1.0
102
RTVSPost2010PropOp39
 70
     1
102
RTVSPost2010Prop40
 90
        0
102
RTVSPost2010PropOp40
 70
     1
102
RTVSPost2010Prop41ColorIndex
 90
       18
102
RTVSPost2010Prop41ColorRGB
 90
        0
102
RTVSPost2010PropOp41
 70
     1
102
RTVSPost2010Prop42
 90
       50
102
RTVSPost2010PropOp42
 70
     1
102
RTVSPost2010Prop43
 90
        3
102
RTVSPost2010PropOp43
 70
     1
102
RTVSPost2010Prop44ColorIndex
 90
        5
102
RTVSPost2010Prop44ColorRGB
 90
      255
102
RTVSPost2010PropOp44
 70
     1
102
RTVSPost2010Prop45
280
     0
102
RTVSPost2010PropOp45
 70
     1
102
RTVSPost2010Prop46
 90
       50
102
RTVSPost2010PropOp46
 70
     1
102
RTVSPost2010Prop47
 90
       50
102
RTVSPost2010PropOp47
 70
     1
102
RTVSPost2010Prop48
 90
       50
102
RTVSPost2010PropOp48
 70
     1
102
RTVSPost2010Prop49
280
     0
102
RTVSPost2010PropOp49
 70
     1
102
RTVSPost2010Prop50
 90
       50
102
RTVSPost2010PropOp50
 70
     1
102
RTVSPost2010Prop51ColorIndex
 90
      256
102
RTVSPost2010Prop51ColorRGB
 90
-16777216
102
RTVSPost2010PropOp51
 70
     0
102
RTVSPost2010Prop52
140
1.0
102
RTVSPost2010PropOp52
 70
     0
102
RTVSPost2010Prop53
 90
        2
102
RTVSPost2010PropOp53
 70
     1
102
RTVSPost2010Prop54
  1
strokes_ogs.tif
102
RTVSPost2010PropOp54
 70
     1
102
RTVSPost2010Prop55
280
     0
102
RTVSPost2010PropOp55
 70
     1
102
RTVSPost2010Prop56
140
1.0
102
RTVSPost2010PropOp56
 70
     1
102
RTVSPost2010Prop57
140
1.0
102
RTVSPost2010PropOp57
 70
     1
102
RTVSPropertyOp0
 70
     1
102
RTVSPropertyOp1
 70
     1
102
RTVSPropertyOp2
 70
     1
102
RTVSPropertyOp3
 70
     1
102
RTVSPropertyOp4
 70
     1
102
RTVSPropertyOp5
 70
     1
102
RTVSPropertyOp6
 70
     1
102
RTVSPropertyOp7
 70
     1
102
RTVSPropertyOp8
 70
     1
102
RTVSPropertyOp9
 70
     1
102
RTVSPropertyOp10
 70
     1
102
RTVSPropertyOp11
 70
     1
102
RTVSPropertyOp12
 70
     1
102
RTVSPropertyOp13
 70
     1
102
RTVSPropertyOp14
 70
     1
102
RTVSPropertyOp15
 70
     1
102
RTVSPropertyOp16
 70
     1
102
RTVSPropertyOp17
 70
     1
102
RTVSPropertyOp18
 70
     1
102
RTVSPropertyOp19
 70
     1
102
RTVSPropertyOp20
 70
     1
102
RTVSPropertyOp21
 70
     1
102
RTVSPropertyOp22
 70
     1
102
RTVSPropertyOp23
 70
     1
102
RTVSPropertyOp24
 70
     1
102
RTVSPropertyOp25
 70
     1
102
RTVSPropertyOp26
 70
     1
102
RTVSPropertyOp27
 70
     1
102
RTVSPropertyOp28
 70
     1
102
RTVSPropertyOp29
 70
     1
102
RTVSPropertyOp30
 70
     1
102
RTVSPropertyOp31
 70
     1
102
RTVSPropertyOp32
 70
     1
102
RTVSPropertyOp33
 70
     1
102
RTVSPropertyOp34
 70
     1
102
RTVSPropertyOp35
 70
     1
102
RTVSPropertyOp36
 70
     1
102
RTVSPropertyOp37
 70
     1
102
RTVSPropertyOp38
 70
     1
102
RTVSPropertyOp39
 70
     1
102
RTVSPropertyOp40
 70
     1
102
RTVSPropertyOp41
 70
     1
102
RTVSPropertyOp42
 70
     1
102
RTVSPropertyOp43
 70
     1
102
RTVSPropertyOp44
 70
     1
102
RTVSPropertyOp45
 70
     1
102
RTVSPropertyOp46
 70
     1
102
RTVSPropertyOp47
 70
     1
102
RTVSPropertyOp48
 70
     1
102
RTVSPropertyOp49
 70
     1
102
RTVSPropertyOp50
 70
     1
102
RTVSPropertyOp51
 70
     0
102
RTVSPropertyOp52
 70
     0
102
RTVSPropertyOp53
 70
     1
102
RTVSPropertyOp54
 70
     1
102
RTVSPropertyOp55
 70
     1
102
RTVSPropertyOp56
 70
     1
102
RTVSPropertyOp57
 70
     1
102
RTVSPropertyOp58
 70
     1
102
RTVSPropertyOp59
 70
     1
102
RTVSPropertyOp60
 70
     1
102
RTVSPropertyOp61
 70
     1
102
RTVSPropertyOp62
 70
     1
  0
XRECORD
  5
A925
102
{ACAD_REACTORS
330
A924
102
}
330
A924
100
AcDbXrecord
280
     1
102
RTVSPost2010Prop28
280
     0
102
RTVSPost2010PropOp28
 70
     1
102
RTVSPost2010Prop29
280
     1
102
RTVSPost2010PropOp29
 70
     1
102
RTVSPost2010Prop30
280
     1
102
RTVSPost2010PropOp30
 70
     1
102
RTVSPost2010Prop31
280
     0
102
RTVSPost2010PropOp31
 70
     1
102
RTVSPost2010Prop32
280
     0
102
RTVSPost2010PropOp32
 70
     1
102
RTVSPost2010Prop33
280
     0
102
RTVSPost2010PropOp33
 70
     1
102
RTVSPost2010Prop34
280
     0
102
RTVSPost2010PropOp34
 70
     1
102
RTVSPost2010Prop35
280
     0
102
RTVSPost2010PropOp35
 70
     1
102
RTVSPost2010Prop36
280
     0
102
RTVSPost2010PropOp36
 70
     1
102
RTVSPost2010Prop37
 90
       50
102
RTVSPost2010PropOp37
 70
     1
102
RTVSPost2010Prop38
140
0.0
102
RTVSPost2010PropOp38
 70
     1
102
RTVSPost2010Prop39
140
1.0
102
RTVSPost2010PropOp39
 70
     1
102
RTVSPost2010Prop40
 90
        0
102
RTVSPost2010PropOp40
 70
     1
102
RTVSPost2010Prop41ColorIndex
 90
       18
102
RTVSPost2010Prop41ColorRGB
 90
        0
102
RTVSPost2010PropOp41
 70
     1
102
RTVSPost2010Prop42
 90
       50
102
RTVSPost2010PropOp42
 70
     1
102
RTVSPost2010Prop43
 90
        3
102
RTVSPost2010PropOp43
 70
     1
102
RTVSPost2010Prop44ColorIndex
 90
        5
102
RTVSPost2010Prop44ColorRGB
 90
      255
102
RTVSPost2010PropOp44
 70
     1
102
RTVSPost2010Prop45
280
     0
102
RTVSPost2010PropOp45
 70
     1
102
RTVSPost2010Prop46
 90
       50
102
RTVSPost2010PropOp46
 70
     1
102
RTVSPost2010Prop47
 90
       50
102
RTVSPost2010PropOp47
 70
     1
102
RTVSPost2010Prop48
 90
       50
102
RTVSPost2010PropOp48
 70
     1
102
RTVSPost2010Prop49
280
     0
102
RTVSPost2010PropOp49
 70
     1
102
RTVSPost2010Prop50
 90
       50
102
RTVSPost2010PropOp50
 70
     1
102
RTVSPost2010Prop51ColorIndex
 90
      256
102
RTVSPost2010Prop51ColorRGB
 90
-16777216
102
RTVSPost2010PropOp51
 70
     0
102
RTVSPost2010Prop52
140
1.0
102
RTVSPost2010PropOp52
 70
     0
102
RTVSPost2010Prop53
 90
        2
102
RTVSPost2010PropOp53
 70
     1
102
RTVSPost2010Prop54
  1
strokes_ogs.tif
102
RTVSPost2010PropOp54
 70
     1
102
RTVSPost2010Prop55
280
     0
102
RTVSPost2010PropOp55
 70
     1
102
RTVSPost2010Prop56
140
1.0
102
RTVSPost2010PropOp56
 70
     1
102
RTVSPost2010Prop57
140
1.0
102
RTVSPost2010PropOp57
 70
     1
102
RTVSPropertyOp0
 70
     1
102
RTVSPropertyOp1
 70
     1
102
RTVSPropertyOp2
 70
     1
102
RTVSPropertyOp3
 70
     1
102
RTVSPropertyOp4
 70
     1
102
RTVSPropertyOp5
 70
     1
102
RTVSPropertyOp6
 70
     1
102
RTVSPropertyOp7
 70
     1
102
RTVSPropertyOp8
 70
     1
102
RTVSPropertyOp9
 70
     1
102
RTVSPropertyOp10
 70
     1
102
RTVSPropertyOp11
 70
     1
102
RTVSPropertyOp12
 70
     1
102
RTVSPropertyOp13
 70
     1
102
RTVSPropertyOp14
 70
     1
102
RTVSPropertyOp15
 70
     1
102
RTVSPropertyOp16
 70
     1
102
RTVSPropertyOp17
 70
     1
102
RTVSPropertyOp18
 70
     1
102
RTVSPropertyOp19
 70
     1
102
RTVSPropertyOp20
 70
     1
102
RTVSPropertyOp21
 70
     1
102
RTVSPropertyOp22
 70
     1
102
RTVSPropertyOp23
 70
     1
102
RTVSPropertyOp24
 70
     1
102
RTVSPropertyOp25
 70
     1
102
RTVSPropertyOp26
 70
     1
102
RTVSPropertyOp27
 70
     1
102
RTVSPropertyOp28
 70
     1
102
RTVSPropertyOp29
 70
     1
102
RTVSPropertyOp30
 70
     1
102
RTVSPropertyOp31
 70
     1
102
RTVSPropertyOp32
 70
     1
102
RTVSPropertyOp33
 70
     1
102
RTVSPropertyOp34
 70
     1
102
RTVSPropertyOp35
 70
     1
102
RTVSPropertyOp36
 70
     1
102
RTVSPropertyOp37
 70
     1
102
RTVSPropertyOp38
 70
     1
102
RTVSPropertyOp39
 70
     1
102
RTVSPropertyOp40
 70
     1
102
RTVSPropertyOp41
 70
     1
102
RTVSPropertyOp42
 70
     1
102
RTVSPropertyOp43
 70
     1
102
RTVSPropertyOp44
 70
     1
102
RTVSPropertyOp45
 70
     1
102
RTVSPropertyOp46
 70
     1
102
RTVSPropertyOp47
 70
     1
102
RTVSPropertyOp48
 70
     1
102
RTVSPropertyOp49
 70
     1
102
RTVSPropertyOp50
 70
     1
102
RTVSPropertyOp51
 70
     0
102
RTVSPropertyOp52
 70
     0
102
RTVSPropertyOp53
 70
     1
102
RTVSPropertyOp54
 70
     1
102
RTVSPropertyOp55
 70
     1
102
RTVSPropertyOp56
 70
     1
102
RTVSPropertyOp57
 70
     1
102
RTVSPropertyOp58
 70
     1
102
RTVSPropertyOp59
 70
     1
102
RTVSPropertyOp60
 70
     1
102
RTVSPropertyOp61
 70
     1
102
RTVSPropertyOp62
 70
     1
  0
XRECORD
  5
A92D
102
{ACAD_REACTORS
330
A92C
102
}
330
A92C
100
AcDbXrecord
280
     1
102
RTVSPost2010Prop28
280
     0
102
RTVSPost2010PropOp28
 70
     1
102
RTVSPost2010Prop29
280
     1
102
RTVSPost2010PropOp29
 70
     1
102
RTVSPost2010Prop30
280
     1
102
RTVSPost2010PropOp30
 70
     1
102
RTVSPost2010Prop31
280
     0
102
RTVSPost2010PropOp31
 70
     1
102
RTVSPost2010Prop32
280
     0
102
RTVSPost2010PropOp32
 70
     1
102
RTVSPost2010Prop33
280
     0
102
RTVSPost2010PropOp33
 70
     1
102
RTVSPost2010Prop34
280
     0
102
RTVSPost2010PropOp34
 70
     1
102
RTVSPost2010Prop35
280
     0
102
RTVSPost2010PropOp35
 70
     1
102
RTVSPost2010Prop36
280
     0
102
RTVSPost2010PropOp36
 70
     1
102
RTVSPost2010Prop37
 90
       50
102
RTVSPost2010PropOp37
 70
     1
102
RTVSPost2010Prop38
140
0.0
102
RTVSPost2010PropOp38
 70
     1
102
RTVSPost2010Prop39
140
1.0
102
RTVSPost2010PropOp39
 70
     1
102
RTVSPost2010Prop40
 90
        0
102
RTVSPost2010PropOp40
 70
     1
102
RTVSPost2010Prop41ColorIndex
 90
       18
102
RTVSPost2010Prop41ColorRGB
 90
        0
102
RTVSPost2010PropOp41
 70
     1
102
RTVSPost2010Prop42
 90
       50
102
RTVSPost2010PropOp42
 70
     1
102
RTVSPost2010Prop43
 90
        3
102
RTVSPost2010PropOp43
 70
     1
102
RTVSPost2010Prop44ColorIndex
 90
        5
102
RTVSPost2010Prop44ColorRGB
 90
      255
102
RTVSPost2010PropOp44
 70
     1
102
RTVSPost2010Prop45
280
     0
102
RTVSPost2010PropOp45
 70
     1
102
RTVSPost2010Prop46
 90
       50
102
RTVSPost2010PropOp46
 70
     1
102
RTVSPost2010Prop47
 90
       50
102
RTVSPost2010PropOp47
 70
     1
102
RTVSPost2010Prop48
 90
       50
102
RTVSPost2010PropOp48
 70
     1
102
RTVSPost2010Prop49
280
     0
102
RTVSPost2010PropOp49
 70
     1
102
RTVSPost2010Prop50
 90
       50
102
RTVSPost2010PropOp50
 70
     1
102
RTVSPost2010Prop51ColorIndex
 90
      256
102
RTVSPost2010Prop51ColorRGB
 90
-16777216
102
RTVSPost2010PropOp51
 70
     0
102
RTVSPost2010Prop52
140
1.0
102
RTVSPost2010PropOp52
 70
     0
102
RTVSPost2010Prop53
 90
        2
102
RTVSPost2010PropOp53
 70
     1
102
RTVSPost2010Prop54
  1
strokes_ogs.tif
102
RTVSPost2010PropOp54
 70
     1
102
RTVSPost2010Prop55
280
     0
102
RTVSPost2010PropOp55
 70
     1
102
RTVSPost2010Prop56
140
1.0
102
RTVSPost2010PropOp56
 70
     1
102
RTVSPost2010Prop57
140
1.0
102
RTVSPost2010PropOp57
 70
     1
102
RTVSPropertyOp0
 70
     1
102
RTVSPropertyOp1
 70
     1
102
RTVSPropertyOp2
 70
     1
102
RTVSPropertyOp3
 70
     1
102
RTVSPropertyOp4
 70
     1
102
RTVSPropertyOp5
 70
     1
102
RTVSPropertyOp6
 70
     1
102
RTVSPropertyOp7
 70
     1
102
RTVSPropertyOp8
 70
     1
102
RTVSPropertyOp9
 70
     1
102
RTVSPropertyOp10
 70
     1
102
RTVSPropertyOp11
 70
     1
102
RTVSPropertyOp12
 70
     1
102
RTVSPropertyOp13
 70
     1
102
RTVSPropertyOp14
 70
     1
102
RTVSPropertyOp15
 70
     1
102
RTVSPropertyOp16
 70
     1
102
RTVSPropertyOp17
 70
     1
102
RTVSPropertyOp18
 70
     1
102
RTVSPropertyOp19
 70
     1
102
RTVSPropertyOp20
 70
     1
102
RTVSPropertyOp21
 70
     1
102
RTVSPropertyOp22
 70
     1
102
RTVSPropertyOp23
 70
     1
102
RTVSPropertyOp24
 70
     1
102
RTVSPropertyOp25
 70
     1
102
RTVSPropertyOp26
 70
     1
102
RTVSPropertyOp27
 70
     1
102
RTVSPropertyOp28
 70
     1
102
RTVSPropertyOp29
 70
     1
102
RTVSPropertyOp30
 70
     1
102
RTVSPropertyOp31
 70
     1
102
RTVSPropertyOp32
 70
     1
102
RTVSPropertyOp33
 70
     1
102
RTVSPropertyOp34
 70
     1
102
RTVSPropertyOp35
 70
     1
102
RTVSPropertyOp36
 70
     1
102
RTVSPropertyOp37
 70
     1
102
RTVSPropertyOp38
 70
     1
102
RTVSPropertyOp39
 70
     1
102
RTVSPropertyOp40
 70
     1
102
RTVSPropertyOp41
 70
     1
102
RTVSPropertyOp42
 70
     1
102
RTVSPropertyOp43
 70
     1
102
RTVSPropertyOp44
 70
     1
102
RTVSPropertyOp45
 70
     1
102
RTVSPropertyOp46
 70
     1
102
RTVSPropertyOp47
 70
     1
102
RTVSPropertyOp48
 70
     1
102
RTVSPropertyOp49
 70
     1
102
RTVSPropertyOp50
 70
     1
102
RTVSPropertyOp51
 70
     0
102
RTVSPropertyOp52
 70
     0
102
RTVSPropertyOp53
 70
     1
102
RTVSPropertyOp54
 70
     1
102
RTVSPropertyOp55
 70
     1
102
RTVSPropertyOp56
 70
     1
102
RTVSPropertyOp57
 70
     1
102
RTVSPropertyOp58
 70
     1
102
RTVSPropertyOp59
 70
     1
102
RTVSPropertyOp60
 70
     1
102
RTVSPropertyOp61
 70
     1
102
RTVSPropertyOp62
 70
     1
  0
XRECORD
  5
A91F
102
{ACAD_REACTORS
330
A91E
102
}
330
A91E
100
AcDbXrecord
280
     1
102
RTVSPost2010Prop28
280
     0
102
RTVSPost2010PropOp28
 70
     1
102
RTVSPost2010Prop29
280
     1
102
RTVSPost2010PropOp29
 70
     1
102
RTVSPost2010Prop30
280
     1
102
RTVSPost2010PropOp30
 70
     1
102
RTVSPost2010Prop31
280
     0
102
RTVSPost2010PropOp31
 70
     1
102
RTVSPost2010Prop32
280
     0
102
RTVSPost2010PropOp32
 70
     1
102
RTVSPost2010Prop33
280
     0
102
RTVSPost2010PropOp33
 70
     1
102
RTVSPost2010Prop34
280
     0
102
RTVSPost2010PropOp34
 70
     1
102
RTVSPost2010Prop35
280
     0
102
RTVSPost2010PropOp35
 70
     1
102
RTVSPost2010Prop36
280
     0
102
RTVSPost2010PropOp36
 70
     1
102
RTVSPost2010Prop37
 90
       50
102
RTVSPost2010PropOp37
 70
     1
102
RTVSPost2010Prop38
140
0.0
102
RTVSPost2010PropOp38
 70
     1
102
RTVSPost2010Prop39
140
1.0
102
RTVSPost2010PropOp39
 70
     1
102
RTVSPost2010Prop40
 90
        0
102
RTVSPost2010PropOp40
 70
     1
102
RTVSPost2010Prop41ColorIndex
 90
       18
102
RTVSPost2010Prop41ColorRGB
 90
        0
102
RTVSPost2010PropOp41
 70
     1
102
RTVSPost2010Prop42
 90
       50
102
RTVSPost2010PropOp42
 70
     1
102
RTVSPost2010Prop43
 90
        3
102
RTVSPost2010PropOp43
 70
     1
102
RTVSPost2010Prop44ColorIndex
 90
        5
102
RTVSPost2010Prop44ColorRGB
 90
      255
102
RTVSPost2010PropOp44
 70
     1
102
RTVSPost2010Prop45
280
     0
102
RTVSPost2010PropOp45
 70
     1
102
RTVSPost2010Prop46
 90
       50
102
RTVSPost2010PropOp46
 70
     1
102
RTVSPost2010Prop47
 90
       50
102
RTVSPost2010PropOp47
 70
     1
102
RTVSPost2010Prop48
 90
       50
102
RTVSPost2010PropOp48
 70
     1
102
RTVSPost2010Prop49
280
     0
102
RTVSPost2010PropOp49
 70
     1
102
RTVSPost2010Prop50
 90
       50
102
RTVSPost2010PropOp50
 70
     1
102
RTVSPost2010Prop51ColorIndex
 90
      256
102
RTVSPost2010Prop51ColorRGB
 90
-16777216
102
RTVSPost2010PropOp51
 70
     0
102
RTVSPost2010Prop52
140
1.0
102
RTVSPost2010PropOp52
 70
     0
102
RTVSPost2010Prop53
 90
        2
102
RTVSPost2010PropOp53
 70
     1
102
RTVSPost2010Prop54
  1
strokes_ogs.tif
102
RTVSPost2010PropOp54
 70
     1
102
RTVSPost2010Prop55
280
     0
102
RTVSPost2010PropOp55
 70
     1
102
RTVSPost2010Prop56
140
1.0
102
RTVSPost2010PropOp56
 70
     1
102
RTVSPost2010Prop57
140
1.0
102
RTVSPost2010PropOp57
 70
     1
102
RTVSPropertyOp0
 70
     1
102
RTVSPropertyOp1
 70
     1
102
RTVSPropertyOp2
 70
     1
102
RTVSPropertyOp3
 70
     1
102
RTVSPropertyOp4
 70
     1
102
RTVSPropertyOp5
 70
     1
102
RTVSPropertyOp6
 70
     1
102
RTVSPropertyOp7
 70
     1
102
RTVSPropertyOp8
 70
     1
102
RTVSPropertyOp9
 70
     1
102
RTVSPropertyOp10
 70
     1
102
RTVSPropertyOp11
 70
     1
102
RTVSPropertyOp12
 70
     1
102
RTVSPropertyOp13
 70
     1
102
RTVSPropertyOp14
 70
     1
102
RTVSPropertyOp15
 70
     1
102
RTVSPropertyOp16
 70
     1
102
RTVSPropertyOp17
 70
     1
102
RTVSPropertyOp18
 70
     1
102
RTVSPropertyOp19
 70
     1
102
RTVSPropertyOp20
 70
     1
102
RTVSPropertyOp21
 70
     1
102
RTVSPropertyOp22
 70
     1
102
RTVSPropertyOp23
 70
     1
102
RTVSPropertyOp24
 70
     1
102
RTVSPropertyOp25
 70
     1
102
RTVSPropertyOp26
 70
     1
102
RTVSPropertyOp27
 70
     1
102
RTVSPropertyOp28
 70
     1
102
RTVSPropertyOp29
 70
     1
102
RTVSPropertyOp30
 70
     1
102
RTVSPropertyOp31
 70
     1
102
RTVSPropertyOp32
 70
     1
102
RTVSPropertyOp33
 70
     1
102
RTVSPropertyOp34
 70
     1
102
RTVSPropertyOp35
 70
     1
102
RTVSPropertyOp36
 70
     1
102
RTVSPropertyOp37
 70
     1
102
RTVSPropertyOp38
 70
     1
102
RTVSPropertyOp39
 70
     1
102
RTVSPropertyOp40
 70
     1
102
RTVSPropertyOp41
 70
     1
102
RTVSPropertyOp42
 70
     1
102
RTVSPropertyOp43
 70
     1
102
RTVSPropertyOp44
 70
     1
102
RTVSPropertyOp45
 70
     1
102
RTVSPropertyOp46
 70
     1
102
RTVSPropertyOp47
 70
     1
102
RTVSPropertyOp48
 70
     1
102
RTVSPropertyOp49
 70
     1
102
RTVSPropertyOp50
 70
     1
102
RTVSPropertyOp51
 70
     0
102
RTVSPropertyOp52
 70
     0
102
RTVSPropertyOp53
 70
     1
102
RTVSPropertyOp54
 70
     1
102
RTVSPropertyOp55
 70
     1
102
RTVSPropertyOp56
 70
     1
102
RTVSPropertyOp57
 70
     1
102
RTVSPropertyOp58
 70
     1
102
RTVSPropertyOp59
 70
     1
102
RTVSPropertyOp60
 70
     1
102
RTVSPropertyOp61
 70
     1
102
RTVSPropertyOp62
 70
     1
  0
XRECORD
  5
A923
102
{ACAD_REACTORS
330
A922
102
}
330
A922
100
AcDbXrecord
280
     1
102
RTVSPost2010Prop28
280
     0
102
RTVSPost2010PropOp28
 70
     1
102
RTVSPost2010Prop29
280
     1
102
RTVSPost2010PropOp29
 70
     1
102
RTVSPost2010Prop30
280
     1
102
RTVSPost2010PropOp30
 70
     1
102
RTVSPost2010Prop31
280
     0
102
RTVSPost2010PropOp31
 70
     1
102
RTVSPost2010Prop32
280
     0
102
RTVSPost2010PropOp32
 70
     1
102
RTVSPost2010Prop33
280
     0
102
RTVSPost2010PropOp33
 70
     1
102
RTVSPost2010Prop34
280
     0
102
RTVSPost2010PropOp34
 70
     1
102
RTVSPost2010Prop35
280
     0
102
RTVSPost2010PropOp35
 70
     1
102
RTVSPost2010Prop36
280
     0
102
RTVSPost2010PropOp36
 70
     1
102
RTVSPost2010Prop37
 90
       50
102
RTVSPost2010PropOp37
 70
     1
102
RTVSPost2010Prop38
140
0.0
102
RTVSPost2010PropOp38
 70
     1
102
RTVSPost2010Prop39
140
1.0
102
RTVSPost2010PropOp39
 70
     1
102
RTVSPost2010Prop40
 90
        0
102
RTVSPost2010PropOp40
 70
     1
102
RTVSPost2010Prop41ColorIndex
 90
       18
102
RTVSPost2010Prop41ColorRGB
 90
        0
102
RTVSPost2010PropOp41
 70
     1
102
RTVSPost2010Prop42
 90
       50
102
RTVSPost2010PropOp42
 70
     1
102
RTVSPost2010Prop43
 90
        3
102
RTVSPost2010PropOp43
 70
     1
102
RTVSPost2010Prop44ColorIndex
 90
        5
102
RTVSPost2010Prop44ColorRGB
 90
      255
102
RTVSPost2010PropOp44
 70
     1
102
RTVSPost2010Prop45
280
     0
102
RTVSPost2010PropOp45
 70
     1
102
RTVSPost2010Prop46
 90
       50
102
RTVSPost2010PropOp46
 70
     1
102
RTVSPost2010Prop47
 90
       50
102
RTVSPost2010PropOp47
 70
     1
102
RTVSPost2010Prop48
 90
       50
102
RTVSPost2010PropOp48
 70
     1
102
RTVSPost2010Prop49
280
     0
102
RTVSPost2010PropOp49
 70
     1
102
RTVSPost2010Prop50
 90
       50
102
RTVSPost2010PropOp50
 70
     1
102
RTVSPost2010Prop51ColorIndex
 90
      256
102
RTVSPost2010Prop51ColorRGB
 90
-16777216
102
RTVSPost2010PropOp51
 70
     0
102
RTVSPost2010Prop52
140
1.0
102
RTVSPost2010PropOp52
 70
     0
102
RTVSPost2010Prop53
 90
        2
102
RTVSPost2010PropOp53
 70
     1
102
RTVSPost2010Prop54
  1
strokes_ogs.tif
102
RTVSPost2010PropOp54
 70
     1
102
RTVSPost2010Prop55
280
     0
102
RTVSPost2010PropOp55
 70
     1
102
RTVSPost2010Prop56
140
1.0
102
RTVSPost2010PropOp56
 70
     1
102
RTVSPost2010Prop57
140
1.0
102
RTVSPost2010PropOp57
 70
     1
102
RTVSPropertyOp0
 70
     1
102
RTVSPropertyOp1
 70
     1
102
RTVSPropertyOp2
 70
     1
102
RTVSPropertyOp3
 70
     1
102
RTVSPropertyOp4
 70
     1
102
RTVSPropertyOp5
 70
     1
102
RTVSPropertyOp6
 70
     1
102
RTVSPropertyOp7
 70
     1
102
RTVSPropertyOp8
 70
     1
102
RTVSPropertyOp9
 70
     1
102
RTVSPropertyOp10
 70
     1
102
RTVSPropertyOp11
 70
     1
102
RTVSPropertyOp12
 70
     1
102
RTVSPropertyOp13
 70
     1
102
RTVSPropertyOp14
 70
     1
102
RTVSPropertyOp15
 70
     1
102
RTVSPropertyOp16
 70
     1
102
RTVSPropertyOp17
 70
     1
102
RTVSPropertyOp18
 70
     1
102
RTVSPropertyOp19
 70
     1
102
RTVSPropertyOp20
 70
     1
102
RTVSPropertyOp21
 70
     1
102
RTVSPropertyOp22
 70
     1
102
RTVSPropertyOp23
 70
     1
102
RTVSPropertyOp24
 70
     1
102
RTVSPropertyOp25
 70
     1
102
RTVSPropertyOp26
 70
     1
102
RTVSPropertyOp27
 70
     1
102
RTVSPropertyOp28
 70
     1
102
RTVSPropertyOp29
 70
     1
102
RTVSPropertyOp30
 70
     1
102
RTVSPropertyOp31
 70
     1
102
RTVSPropertyOp32
 70
     1
102
RTVSPropertyOp33
 70
     1
102
RTVSPropertyOp34
 70
     1
102
RTVSPropertyOp35
 70
     1
102
RTVSPropertyOp36
 70
     1
102
RTVSPropertyOp37
 70
     1
102
RTVSPropertyOp38
 70
     1
102
RTVSPropertyOp39
 70
     1
102
RTVSPropertyOp40
 70
     1
102
RTVSPropertyOp41
 70
     1
102
RTVSPropertyOp42
 70
     1
102
RTVSPropertyOp43
 70
     1
102
RTVSPropertyOp44
 70
     1
102
RTVSPropertyOp45
 70
     1
102
RTVSPropertyOp46
 70
     1
102
RTVSPropertyOp47
 70
     1
102
RTVSPropertyOp48
 70
     1
102
RTVSPropertyOp49
 70
     1
102
RTVSPropertyOp50
 70
     1
102
RTVSPropertyOp51
 70
     0
102
RTVSPropertyOp52
 70
     0
102
RTVSPropertyOp53
 70
     1
102
RTVSPropertyOp54
 70
     1
102
RTVSPropertyOp55
 70
     1
102
RTVSPropertyOp56
 70
     1
102
RTVSPropertyOp57
 70
     1
102
RTVSPropertyOp58
 70
     1
102
RTVSPropertyOp59
 70
     1
102
RTVSPropertyOp60
 70
     1
102
RTVSPropertyOp61
 70
     1
102
RTVSPropertyOp62
 70
     1
  0
XRECORD
  5
A93D
102
{ACAD_REACTORS
330
A93C
102
}
330
A93C
100
AcDbXrecord
280
     1
102
RTVSPost2010Prop28
280
     0
102
RTVSPost2010PropOp28
 70
     1
102
RTVSPost2010Prop29
280
     1
102
RTVSPost2010PropOp29
 70
     1
102
RTVSPost2010Prop30
280
     1
102
RTVSPost2010PropOp30
 70
     1
102
RTVSPost2010Prop31
280
     0
102
RTVSPost2010PropOp31
 70
     1
102
RTVSPost2010Prop32
280
     0
102
RTVSPost2010PropOp32
 70
     1
102
RTVSPost2010Prop33
280
     0
102
RTVSPost2010PropOp33
 70
     1
102
RTVSPost2010Prop34
280
     0
102
RTVSPost2010PropOp34
 70
     1
102
RTVSPost2010Prop35
280
     0
102
RTVSPost2010PropOp35
 70
     1
102
RTVSPost2010Prop36
280
     0
102
RTVSPost2010PropOp36
 70
     1
102
RTVSPost2010Prop37
 90
       50
102
RTVSPost2010PropOp37
 70
     0
102
RTVSPost2010Prop38
140
0.0
102
RTVSPost2010PropOp38
 70
     0
102
RTVSPost2010Prop39
140
1.0
102
RTVSPost2010PropOp39
 70
     0
102
RTVSPost2010Prop40
 90
        0
102
RTVSPost2010PropOp40
 70
     0
102
RTVSPost2010Prop41ColorIndex
 90
       18
102
RTVSPost2010Prop41ColorRGB
 90
        0
102
RTVSPost2010PropOp41
 70
     0
102
RTVSPost2010Prop42
 90
       50
102
RTVSPost2010PropOp42
 70
     0
102
RTVSPost2010Prop43
 90
        3
102
RTVSPost2010PropOp43
 70
     0
102
RTVSPost2010Prop44ColorIndex
 90
        5
102
RTVSPost2010Prop44ColorRGB
 90
      255
102
RTVSPost2010PropOp44
 70
     0
102
RTVSPost2010Prop45
280
     0
102
RTVSPost2010PropOp45
 70
     1
102
RTVSPost2010Prop46
 90
       50
102
RTVSPost2010PropOp46
 70
     0
102
RTVSPost2010Prop47
 90
       50
102
RTVSPost2010PropOp47
 70
     0
102
RTVSPost2010Prop48
 90
       50
102
RTVSPost2010PropOp48
 70
     0
102
RTVSPost2010Prop49
280
     0
102
RTVSPost2010PropOp49
 70
     1
102
RTVSPost2010Prop50
 90
       50
102
RTVSPost2010PropOp50
 70
     0
102
RTVSPost2010Prop51ColorIndex
 90
      256
102
RTVSPost2010Prop51ColorRGB
 90
-16777216
102
RTVSPost2010PropOp51
 70
     0
102
RTVSPost2010Prop52
140
1.0
102
RTVSPost2010PropOp52
 70
     0
102
RTVSPost2010Prop53
 90
        2
102
RTVSPost2010PropOp53
 70
     0
102
RTVSPost2010Prop54
  1
strokes_ogs.tif
102
RTVSPost2010PropOp54
 70
     0
102
RTVSPost2010Prop55
280
     0
102
RTVSPost2010PropOp55
 70
     1
102
RTVSPost2010Prop56
140
1.0
102
RTVSPost2010PropOp56
 70
     0
102
RTVSPost2010Prop57
140
1.0
102
RTVSPost2010PropOp57
 70
     0
102
RTVSPropertyOp0
 70
     0
102
RTVSPropertyOp1
 70
     0
102
RTVSPropertyOp2
 70
     0
102
RTVSPropertyOp3
 70
     0
102
RTVSPropertyOp4
 70
     0
102
RTVSPropertyOp5
 70
     0
102
RTVSPropertyOp6
 70
     0
102
RTVSPropertyOp7
 70
     0
102
RTVSPropertyOp8
 70
     0
102
RTVSPropertyOp9
 70
     0
102
RTVSPropertyOp10
 70
     0
102
RTVSPropertyOp11
 70
     0
102
RTVSPropertyOp12
 70
     0
102
RTVSPropertyOp13
 70
     0
102
RTVSPropertyOp14
 70
     2
102
RTVSPropertyOp15
 70
     0
102
RTVSPropertyOp16
 70
     0
102
RTVSPropertyOp17
 70
     0
102
RTVSPropertyOp18
 70
     0
102
RTVSPropertyOp19
 70
     0
102
RTVSPropertyOp20
 70
     0
102
RTVSPropertyOp21
 70
     0
102
RTVSPropertyOp22
 70
     0
102
RTVSPropertyOp23
 70
     0
102
RTVSPropertyOp24
 70
     0
102
RTVSPropertyOp25
 70
     0
102
RTVSPropertyOp26
 70
     0
102
RTVSPropertyOp27
 70
     0
102
RTVSPropertyOp28
 70
     1
102
RTVSPropertyOp29
 70
     1
102
RTVSPropertyOp30
 70
     1
102
RTVSPropertyOp31
 70
     1
102
RTVSPropertyOp32
 70
     1
102
RTVSPropertyOp33
 70
     1
102
RTVSPropertyOp34
 70
     1
102
RTVSPropertyOp35
 70
     1
102
RTVSPropertyOp36
 70
     1
102
RTVSPropertyOp37
 70
     0
102
RTVSPropertyOp38
 70
     0
102
RTVSPropertyOp39
 70
     0
102
RTVSPropertyOp40
 70
     0
102
RTVSPropertyOp41
 70
     0
102
RTVSPropertyOp42
 70
     0
102
RTVSPropertyOp43
 70
     0
102
RTVSPropertyOp44
 70
     0
102
RTVSPropertyOp45
 70
     1
102
RTVSPropertyOp46
 70
     0
102
RTVSPropertyOp47
 70
     0
102
RTVSPropertyOp48
 70
     0
102
RTVSPropertyOp49
 70
     1
102
RTVSPropertyOp50
 70
     0
102
RTVSPropertyOp51
 70
     0
102
RTVSPropertyOp52
 70
     0
102
RTVSPropertyOp53
 70
     0
102
RTVSPropertyOp54
 70
     0
102
RTVSPropertyOp55
 70
     1
102
RTVSPropertyOp56
 70
     0
102
RTVSPropertyOp57
 70
     0
102
RTVSPropertyOp58
 70
     0
102
RTVSPropertyOp59
 70
     0
102
RTVSPropertyOp60
 70
     0
102
RTVSPropertyOp61
 70
     0
102
RTVSPropertyOp62
 70
     0
  0
XRECORD
  5
A92B
102
{ACAD_REACTORS
330
A92A
102
}
330
A92A
100
AcDbXrecord
280
     1
102
RTVSPost2010Prop28
280
     0
102
RTVSPost2010PropOp28
 70
     1
102
RTVSPost2010Prop29
280
     1
102
RTVSPost2010PropOp29
 70
     1
102
RTVSPost2010Prop30
280
     1
102
RTVSPost2010PropOp30
 70
     1
102
RTVSPost2010Prop31
280
     0
102
RTVSPost2010PropOp31
 70
     1
102
RTVSPost2010Prop32
280
     0
102
RTVSPost2010PropOp32
 70
     1
102
RTVSPost2010Prop33
280
     0
102
RTVSPost2010PropOp33
 70
     1
102
RTVSPost2010Prop34
280
     0
102
RTVSPost2010PropOp34
 70
     1
102
RTVSPost2010Prop35
280
     0
102
RTVSPost2010PropOp35
 70
     1
102
RTVSPost2010Prop36
280
     0
102
RTVSPost2010PropOp36
 70
     1
102
RTVSPost2010Prop37
 90
       50
102
RTVSPost2010PropOp37
 70
     1
102
RTVSPost2010Prop38
140
0.0
102
RTVSPost2010PropOp38
 70
     1
102
RTVSPost2010Prop39
140
1.0
102
RTVSPost2010PropOp39
 70
     1
102
RTVSPost2010Prop40
 90
        0
102
RTVSPost2010PropOp40
 70
     1
102
RTVSPost2010Prop41ColorIndex
 90
       18
102
RTVSPost2010Prop41ColorRGB
 90
        0
102
RTVSPost2010PropOp41
 70
     1
102
RTVSPost2010Prop42
 90
       50
102
RTVSPost2010PropOp42
 70
     1
102
RTVSPost2010Prop43
 90
        3
102
RTVSPost2010PropOp43
 70
     1
102
RTVSPost2010Prop44ColorIndex
 90
        5
102
RTVSPost2010Prop44ColorRGB
 90
      255
102
RTVSPost2010PropOp44
 70
     1
102
RTVSPost2010Prop45
280
     0
102
RTVSPost2010PropOp45
 70
     1
102
RTVSPost2010Prop46
 90
       50
102
RTVSPost2010PropOp46
 70
     1
102
RTVSPost2010Prop47
 90
       50
102
RTVSPost2010PropOp47
 70
     1
102
RTVSPost2010Prop48
 90
       50
102
RTVSPost2010PropOp48
 70
     1
102
RTVSPost2010Prop49
280
     0
102
RTVSPost2010PropOp49
 70
     1
102
RTVSPost2010Prop50
 90
       50
102
RTVSPost2010PropOp50
 70
     1
102
RTVSPost2010Prop51ColorIndex
 90
      256
102
RTVSPost2010Prop51ColorRGB
 90
-16777216
102
RTVSPost2010PropOp51
 70
     0
102
RTVSPost2010Prop52
140
1.0
102
RTVSPost2010PropOp52
 70
     0
102
RTVSPost2010Prop53
 90
        2
102
RTVSPost2010PropOp53
 70
     1
102
RTVSPost2010Prop54
  1
strokes_ogs.tif
102
RTVSPost2010PropOp54
 70
     1
102
RTVSPost2010Prop55
280
     0
102
RTVSPost2010PropOp55
 70
     1
102
RTVSPost2010Prop56
140
1.0
102
RTVSPost2010PropOp56
 70
     1
102
RTVSPost2010Prop57
140
1.0
102
RTVSPost2010PropOp57
 70
     1
102
RTVSPropertyOp0
 70
     1
102
RTVSPropertyOp1
 70
     1
102
RTVSPropertyOp2
 70
     1
102
RTVSPropertyOp3
 70
     1
102
RTVSPropertyOp4
 70
     1
102
RTVSPropertyOp5
 70
     1
102
RTVSPropertyOp6
 70
     1
102
RTVSPropertyOp7
 70
     1
102
RTVSPropertyOp8
 70
     1
102
RTVSPropertyOp9
 70
     1
102
RTVSPropertyOp10
 70
     1
102
RTVSPropertyOp11
 70
     1
102
RTVSPropertyOp12
 70
     1
102
RTVSPropertyOp13
 70
     1
102
RTVSPropertyOp14
 70
     1
102
RTVSPropertyOp15
 70
     1
102
RTVSPropertyOp16
 70
     1
102
RTVSPropertyOp17
 70
     1
102
RTVSPropertyOp18
 70
     1
102
RTVSPropertyOp19
 70
     1
102
RTVSPropertyOp20
 70
     1
102
RTVSPropertyOp21
 70
     1
102
RTVSPropertyOp22
 70
     1
102
RTVSPropertyOp23
 70
     1
102
RTVSPropertyOp24
 70
     1
102
RTVSPropertyOp25
 70
     1
102
RTVSPropertyOp26
 70
     1
102
RTVSPropertyOp27
 70
     1
102
RTVSPropertyOp28
 70
     1
102
RTVSPropertyOp29
 70
     1
102
RTVSPropertyOp30
 70
     1
102
RTVSPropertyOp31
 70
     1
102
RTVSPropertyOp32
 70
     1
102
RTVSPropertyOp33
 70
     1
102
RTVSPropertyOp34
 70
     1
102
RTVSPropertyOp35
 70
     1
102
RTVSPropertyOp36
 70
     1
102
RTVSPropertyOp37
 70
     1
102
RTVSPropertyOp38
 70
     1
102
RTVSPropertyOp39
 70
     1
102
RTVSPropertyOp40
 70
     1
102
RTVSPropertyOp41
 70
     1
102
RTVSPropertyOp42
 70
     1
102
RTVSPropertyOp43
 70
     1
102
RTVSPropertyOp44
 70
     1
102
RTVSPropertyOp45
 70
     1
102
RTVSPropertyOp46
 70
     1
102
RTVSPropertyOp47
 70
     1
102
RTVSPropertyOp48
 70
     1
102
RTVSPropertyOp49
 70
     1
102
RTVSPropertyOp50
 70
     1
102
RTVSPropertyOp51
 70
     0
102
RTVSPropertyOp52
 70
     0
102
RTVSPropertyOp53
 70
     1
102
RTVSPropertyOp54
 70
     1
102
RTVSPropertyOp55
 70
     1
102
RTVSPropertyOp56
 70
     1
102
RTVSPropertyOp57
 70
     1
102
RTVSPropertyOp58
 70
     1
102
RTVSPropertyOp59
 70
     1
102
RTVSPropertyOp60
 70
     1
102
RTVSPropertyOp61
 70
     1
102
RTVSPropertyOp62
 70
     1
  0
XRECORD
  5
A90F
102
{ACAD_REACTORS
330
A90E
102
}
330
A90E
100
AcDbXrecord
280
     1
102
RTVSPost2010Prop28
280
     0
102
RTVSPost2010PropOp28
 70
     1
102
RTVSPost2010Prop29
280
     1
102
RTVSPost2010PropOp29
 70
     1
102
RTVSPost2010Prop30
280
     1
102
RTVSPost2010PropOp30
 70
     1
102
RTVSPost2010Prop31
280
     0
102
RTVSPost2010PropOp31
 70
     1
102
RTVSPost2010Prop32
280
     0
102
RTVSPost2010PropOp32
 70
     1
102
RTVSPost2010Prop33
280
     0
102
RTVSPost2010PropOp33
 70
     1
102
RTVSPost2010Prop34
280
     0
102
RTVSPost2010PropOp34
 70
     1
102
RTVSPost2010Prop35
280
     0
102
RTVSPost2010PropOp35
 70
     1
102
RTVSPost2010Prop36
280
     0
102
RTVSPost2010PropOp36
 70
     1
102
RTVSPost2010Prop37
 90
       50
102
RTVSPost2010PropOp37
 70
     1
102
RTVSPost2010Prop38
140
0.0
102
RTVSPost2010PropOp38
 70
     1
102
RTVSPost2010Prop39
140
1.0
102
RTVSPost2010PropOp39
 70
     1
102
RTVSPost2010Prop40
 90
        0
102
RTVSPost2010PropOp40
 70
     1
102
RTVSPost2010Prop41ColorIndex
 90
       18
102
RTVSPost2010Prop41ColorRGB
 90
        0
102
RTVSPost2010PropOp41
 70
     1
102
RTVSPost2010Prop42
 90
       50
102
RTVSPost2010PropOp42
 70
     1
102
RTVSPost2010Prop43
 90
        3
102
RTVSPost2010PropOp43
 70
     1
102
RTVSPost2010Prop44ColorIndex
 90
        5
102
RTVSPost2010Prop44ColorRGB
 90
      255
102
RTVSPost2010PropOp44
 70
     1
102
RTVSPost2010Prop45
280
     0
102
RTVSPost2010PropOp45
 70
     1
102
RTVSPost2010Prop46
 90
       50
102
RTVSPost2010PropOp46
 70
     1
102
RTVSPost2010Prop47
 90
       50
102
RTVSPost2010PropOp47
 70
     1
102
RTVSPost2010Prop48
 90
       50
102
RTVSPost2010PropOp48
 70
     1
102
RTVSPost2010Prop49
280
     0
102
RTVSPost2010PropOp49
 70
     1
102
RTVSPost2010Prop50
 90
       50
102
RTVSPost2010PropOp50
 70
     1
102
RTVSPost2010Prop51ColorIndex
 90
      256
102
RTVSPost2010Prop51ColorRGB
 90
-16777216
102
RTVSPost2010PropOp51
 70
     0
102
RTVSPost2010Prop52
140
1.0
102
RTVSPost2010PropOp52
 70
     0
102
RTVSPost2010Prop53
 90
        2
102
RTVSPost2010PropOp53
 70
     1
102
RTVSPost2010Prop54
  1
strokes_ogs.tif
102
RTVSPost2010PropOp54
 70
     1
102
RTVSPost2010Prop55
280
     0
102
RTVSPost2010PropOp55
 70
     1
102
RTVSPost2010Prop56
140
1.0
102
RTVSPost2010PropOp56
 70
     1
102
RTVSPost2010Prop57
140
1.0
102
RTVSPost2010PropOp57
 70
     1
102
RTVSPropertyOp0
 70
     1
102
RTVSPropertyOp1
 70
     1
102
RTVSPropertyOp2
 70
     1
102
RTVSPropertyOp3
 70
     1
102
RTVSPropertyOp4
 70
     1
102
RTVSPropertyOp5
 70
     1
102
RTVSPropertyOp6
 70
     1
102
RTVSPropertyOp7
 70
     1
102
RTVSPropertyOp8
 70
     1
102
RTVSPropertyOp9
 70
     1
102
RTVSPropertyOp10
 70
     1
102
RTVSPropertyOp11
 70
     1
102
RTVSPropertyOp12
 70
     1
102
RTVSPropertyOp13
 70
     1
102
RTVSPropertyOp14
 70
     1
102
RTVSPropertyOp15
 70
     1
102
RTVSPropertyOp16
 70
     1
102
RTVSPropertyOp17
 70
     1
102
RTVSPropertyOp18
 70
     1
102
RTVSPropertyOp19
 70
     1
102
RTVSPropertyOp20
 70
     1
102
RTVSPropertyOp21
 70
     1
102
RTVSPropertyOp22
 70
     1
102
RTVSPropertyOp23
 70
     1
102
RTVSPropertyOp24
 70
     1
102
RTVSPropertyOp25
 70
     1
102
RTVSPropertyOp26
 70
     1
102
RTVSPropertyOp27
 70
     1
102
RTVSPropertyOp28
 70
     1
102
RTVSPropertyOp29
 70
     1
102
RTVSPropertyOp30
 70
     1
102
RTVSPropertyOp31
 70
     1
102
RTVSPropertyOp32
 70
     1
102
RTVSPropertyOp33
 70
     1
102
RTVSPropertyOp34
 70
     1
102
RTVSPropertyOp35
 70
     1
102
RTVSPropertyOp36
 70
     1
102
RTVSPropertyOp37
 70
     1
102
RTVSPropertyOp38
 70
     1
102
RTVSPropertyOp39
 70
     1
102
RTVSPropertyOp40
 70
     1
102
RTVSPropertyOp41
 70
     1
102
RTVSPropertyOp42
 70
     1
102
RTVSPropertyOp43
 70
     1
102
RTVSPropertyOp44
 70
     1
102
RTVSPropertyOp45
 70
     1
102
RTVSPropertyOp46
 70
     1
102
RTVSPropertyOp47
 70
     1
102
RTVSPropertyOp48
 70
     1
102
RTVSPropertyOp49
 70
     1
102
RTVSPropertyOp50
 70
     1
102
RTVSPropertyOp51
 70
     0
102
RTVSPropertyOp52
 70
     0
102
RTVSPropertyOp53
 70
     1
102
RTVSPropertyOp54
 70
     1
102
RTVSPropertyOp55
 70
     1
102
RTVSPropertyOp56
 70
     1
102
RTVSPropertyOp57
 70
     1
102
RTVSPropertyOp58
 70
     1
102
RTVSPropertyOp59
 70
     1
102
RTVSPropertyOp60
 70
     1
102
RTVSPropertyOp61
 70
     1
102
RTVSPropertyOp62
 70
     1
  0
XRECORD
  5
A911
102
{ACAD_REACTORS
330
A910
102
}
330
A910
100
AcDbXrecord
280
     1
102
RTVSPost2010Prop28
280
     0
102
RTVSPost2010PropOp28
 70
     1
102
RTVSPost2010Prop29
280
     1
102
RTVSPost2010PropOp29
 70
     1
102
RTVSPost2010Prop30
280
     1
102
RTVSPost2010PropOp30
 70
     1
102
RTVSPost2010Prop31
280
     0
102
RTVSPost2010PropOp31
 70
     1
102
RTVSPost2010Prop32
280
     0
102
RTVSPost2010PropOp32
 70
     1
102
RTVSPost2010Prop33
280
     0
102
RTVSPost2010PropOp33
 70
     1
102
RTVSPost2010Prop34
280
     0
102
RTVSPost2010PropOp34
 70
     1
102
RTVSPost2010Prop35
280
     0
102
RTVSPost2010PropOp35
 70
     1
102
RTVSPost2010Prop36
280
     0
102
RTVSPost2010PropOp36
 70
     1
102
RTVSPost2010Prop37
 90
       50
102
RTVSPost2010PropOp37
 70
     1
102
RTVSPost2010Prop38
140
0.0
102
RTVSPost2010PropOp38
 70
     1
102
RTVSPost2010Prop39
140
1.0
102
RTVSPost2010PropOp39
 70
     1
102
RTVSPost2010Prop40
 90
        0
102
RTVSPost2010PropOp40
 70
     1
102
RTVSPost2010Prop41ColorIndex
 90
       18
102
RTVSPost2010Prop41ColorRGB
 90
        0
102
RTVSPost2010PropOp41
 70
     1
102
RTVSPost2010Prop42
 90
       50
102
RTVSPost2010PropOp42
 70
     1
102
RTVSPost2010Prop43
 90
        3
102
RTVSPost2010PropOp43
 70
     1
102
RTVSPost2010Prop44ColorIndex
 90
        5
102
RTVSPost2010Prop44ColorRGB
 90
      255
102
RTVSPost2010PropOp44
 70
     1
102
RTVSPost2010Prop45
280
     0
102
RTVSPost2010PropOp45
 70
     1
102
RTVSPost2010Prop46
 90
       50
102
RTVSPost2010PropOp46
 70
     1
102
RTVSPost2010Prop47
 90
       50
102
RTVSPost2010PropOp47
 70
     1
102
RTVSPost2010Prop48
 90
       50
102
RTVSPost2010PropOp48
 70
     1
102
RTVSPost2010Prop49
280
     0
102
RTVSPost2010PropOp49
 70
     1
102
RTVSPost2010Prop50
 90
       50
102
RTVSPost2010PropOp50
 70
     1
102
RTVSPost2010Prop51ColorIndex
 90
      256
102
RTVSPost2010Prop51ColorRGB
 90
-16777216
102
RTVSPost2010PropOp51
 70
     0
102
RTVSPost2010Prop52
140
1.0
102
RTVSPost2010PropOp52
 70
     0
102
RTVSPost2010Prop53
 90
        2
102
RTVSPost2010PropOp53
 70
     1
102
RTVSPost2010Prop54
  1
strokes_ogs.tif
102
RTVSPost2010PropOp54
 70
     1
102
RTVSPost2010Prop55
280
     0
102
RTVSPost2010PropOp55
 70
     1
102
RTVSPost2010Prop56
140
1.0
102
RTVSPost2010PropOp56
 70
     1
102
RTVSPost2010Prop57
140
1.0
102
RTVSPost2010PropOp57
 70
     1
102
RTVSPropertyOp0
 70
     1
102
RTVSPropertyOp1
 70
     1
102
RTVSPropertyOp2
 70
     1
102
RTVSPropertyOp3
 70
     1
102
RTVSPropertyOp4
 70
     1
102
RTVSPropertyOp5
 70
     1
102
RTVSPropertyOp6
 70
     1
102
RTVSPropertyOp7
 70
     1
102
RTVSPropertyOp8
 70
     1
102
RTVSPropertyOp9
 70
     1
102
RTVSPropertyOp10
 70
     1
102
RTVSPropertyOp11
 70
     1
102
RTVSPropertyOp12
 70
     1
102
RTVSPropertyOp13
 70
     1
102
RTVSPropertyOp14
 70
     1
102
RTVSPropertyOp15
 70
     1
102
RTVSPropertyOp16
 70
     1
102
RTVSPropertyOp17
 70
     1
102
RTVSPropertyOp18
 70
     1
102
RTVSPropertyOp19
 70
     1
102
RTVSPropertyOp20
 70
     1
102
RTVSPropertyOp21
 70
     1
102
RTVSPropertyOp22
 70
     1
102
RTVSPropertyOp23
 70
     1
102
RTVSPropertyOp24
 70
     1
102
RTVSPropertyOp25
 70
     1
102
RTVSPropertyOp26
 70
     1
102
RTVSPropertyOp27
 70
     1
102
RTVSPropertyOp28
 70
     1
102
RTVSPropertyOp29
 70
     1
102
RTVSPropertyOp30
 70
     1
102
RTVSPropertyOp31
 70
     1
102
RTVSPropertyOp32
 70
     1
102
RTVSPropertyOp33
 70
     1
102
RTVSPropertyOp34
 70
     1
102
RTVSPropertyOp35
 70
     1
102
RTVSPropertyOp36
 70
     1
102
RTVSPropertyOp37
 70
     1
102
RTVSPropertyOp38
 70
     1
102
RTVSPropertyOp39
 70
     1
102
RTVSPropertyOp40
 70
     1
102
RTVSPropertyOp41
 70
     1
102
RTVSPropertyOp42
 70
     1
102
RTVSPropertyOp43
 70
     1
102
RTVSPropertyOp44
 70
     1
102
RTVSPropertyOp45
 70
     1
102
RTVSPropertyOp46
 70
     1
102
RTVSPropertyOp47
 70
     1
102
RTVSPropertyOp48
 70
     1
102
RTVSPropertyOp49
 70
     1
102
RTVSPropertyOp50
 70
     1
102
RTVSPropertyOp51
 70
     0
102
RTVSPropertyOp52
 70
     0
102
RTVSPropertyOp53
 70
     1
102
RTVSPropertyOp54
 70
     1
102
RTVSPropertyOp55
 70
     1
102
RTVSPropertyOp56
 70
     1
102
RTVSPropertyOp57
 70
     1
102
RTVSPropertyOp58
 70
     1
102
RTVSPropertyOp59
 70
     1
102
RTVSPropertyOp60
 70
     1
102
RTVSPropertyOp61
 70
     1
102
RTVSPropertyOp62
 70
     1
  0
XRECORD
  5
A913
102
{ACAD_REACTORS
330
A912
102
}
330
A912
100
AcDbXrecord
280
     1
102
RTVSPost2010Prop28
280
     0
102
RTVSPost2010PropOp28
 70
     1
102
RTVSPost2010Prop29
280
     1
102
RTVSPost2010PropOp29
 70
     1
102
RTVSPost2010Prop30
280
     1
102
RTVSPost2010PropOp30
 70
     1
102
RTVSPost2010Prop31
280
     0
102
RTVSPost2010PropOp31
 70
     1
102
RTVSPost2010Prop32
280
     0
102
RTVSPost2010PropOp32
 70
     1
102
RTVSPost2010Prop33
280
     0
102
RTVSPost2010PropOp33
 70
     1
102
RTVSPost2010Prop34
280
     0
102
RTVSPost2010PropOp34
 70
     1
102
RTVSPost2010Prop35
280
     0
102
RTVSPost2010PropOp35
 70
     1
102
RTVSPost2010Prop36
280
     0
102
RTVSPost2010PropOp36
 70
     1
102
RTVSPost2010Prop37
 90
       50
102
RTVSPost2010PropOp37
 70
     1
102
RTVSPost2010Prop38
140
0.0
102
RTVSPost2010PropOp38
 70
     1
102
RTVSPost2010Prop39
140
1.0
102
RTVSPost2010PropOp39
 70
     1
102
RTVSPost2010Prop40
 90
        0
102
RTVSPost2010PropOp40
 70
     1
102
RTVSPost2010Prop41ColorIndex
 90
       18
102
RTVSPost2010Prop41ColorRGB
 90
        0
102
RTVSPost2010PropOp41
 70
     1
102
RTVSPost2010Prop42
 90
       50
102
RTVSPost2010PropOp42
 70
     1
102
RTVSPost2010Prop43
 90
        3
102
RTVSPost2010PropOp43
 70
     1
102
RTVSPost2010Prop44ColorIndex
 90
        5
102
RTVSPost2010Prop44ColorRGB
 90
      255
102
RTVSPost2010PropOp44
 70
     1
102
RTVSPost2010Prop45
280
     0
102
RTVSPost2010PropOp45
 70
     1
102
RTVSPost2010Prop46
 90
       50
102
RTVSPost2010PropOp46
 70
     1
102
RTVSPost2010Prop47
 90
       50
102
RTVSPost2010PropOp47
 70
     1
102
RTVSPost2010Prop48
 90
       50
102
RTVSPost2010PropOp48
 70
     1
102
RTVSPost2010Prop49
280
     0
102
RTVSPost2010PropOp49
 70
     1
102
RTVSPost2010Prop50
 90
       50
102
RTVSPost2010PropOp50
 70
     1
102
RTVSPost2010Prop51ColorIndex
 90
      256
102
RTVSPost2010Prop51ColorRGB
 90
-16777216
102
RTVSPost2010PropOp51
 70
     0
102
RTVSPost2010Prop52
140
1.0
102
RTVSPost2010PropOp52
 70
     0
102
RTVSPost2010Prop53
 90
        2
102
RTVSPost2010PropOp53
 70
     1
102
RTVSPost2010Prop54
  1
strokes_ogs.tif
102
RTVSPost2010PropOp54
 70
     1
102
RTVSPost2010Prop55
280
     0
102
RTVSPost2010PropOp55
 70
     1
102
RTVSPost2010Prop56
140
1.0
102
RTVSPost2010PropOp56
 70
     1
102
RTVSPost2010Prop57
140
1.0
102
RTVSPost2010PropOp57
 70
     1
102
RTVSPropertyOp0
 70
     1
102
RTVSPropertyOp1
 70
     1
102
RTVSPropertyOp2
 70
     1
102
RTVSPropertyOp3
 70
     1
102
RTVSPropertyOp4
 70
     1
102
RTVSPropertyOp5
 70
     1
102
RTVSPropertyOp6
 70
     1
102
RTVSPropertyOp7
 70
     1
102
RTVSPropertyOp8
 70
     1
102
RTVSPropertyOp9
 70
     1
102
RTVSPropertyOp10
 70
     1
102
RTVSPropertyOp11
 70
     1
102
RTVSPropertyOp12
 70
     1
102
RTVSPropertyOp13
 70
     1
102
RTVSPropertyOp14
 70
     1
102
RTVSPropertyOp15
 70
     1
102
RTVSPropertyOp16
 70
     1
102
RTVSPropertyOp17
 70
     1
102
RTVSPropertyOp18
 70
     1
102
RTVSPropertyOp19
 70
     1
102
RTVSPropertyOp20
 70
     1
102
RTVSPropertyOp21
 70
     1
102
RTVSPropertyOp22
 70
     1
102
RTVSPropertyOp23
 70
     1
102
RTVSPropertyOp24
 70
     1
102
RTVSPropertyOp25
 70
     1
102
RTVSPropertyOp26
 70
     1
102
RTVSPropertyOp27
 70
     1
102
RTVSPropertyOp28
 70
     1
102
RTVSPropertyOp29
 70
     1
102
RTVSPropertyOp30
 70
     1
102
RTVSPropertyOp31
 70
     1
102
RTVSPropertyOp32
 70
     1
102
RTVSPropertyOp33
 70
     1
102
RTVSPropertyOp34
 70
     1
102
RTVSPropertyOp35
 70
     1
102
RTVSPropertyOp36
 70
     1
102
RTVSPropertyOp37
 70
     1
102
RTVSPropertyOp38
 70
     1
102
RTVSPropertyOp39
 70
     1
102
RTVSPropertyOp40
 70
     1
102
RTVSPropertyOp41
 70
     1
102
RTVSPropertyOp42
 70
     1
102
RTVSPropertyOp43
 70
     1
102
RTVSPropertyOp44
 70
     1
102
RTVSPropertyOp45
 70
     1
102
RTVSPropertyOp46
 70
     1
102
RTVSPropertyOp47
 70
     1
102
RTVSPropertyOp48
 70
     1
102
RTVSPropertyOp49
 70
     1
102
RTVSPropertyOp50
 70
     1
102
RTVSPropertyOp51
 70
     0
102
RTVSPropertyOp52
 70
     0
102
RTVSPropertyOp53
 70
     1
102
RTVSPropertyOp54
 70
     1
102
RTVSPropertyOp55
 70
     1
102
RTVSPropertyOp56
 70
     1
102
RTVSPropertyOp57
 70
     1
102
RTVSPropertyOp58
 70
     1
102
RTVSPropertyOp59
 70
     1
102
RTVSPropertyOp60
 70
     1
102
RTVSPropertyOp61
 70
     1
102
RTVSPropertyOp62
 70
     1
  0
XRECORD
  5
A915
102
{ACAD_REACTORS
330
A914
102
}
330
A914
100
AcDbXrecord
280
     1
102
RTVSPost2010Prop28
280
     0
102
RTVSPost2010PropOp28
 70
     1
102
RTVSPost2010Prop29
280
     1
102
RTVSPost2010PropOp29
 70
     1
102
RTVSPost2010Prop30
280
     1
102
RTVSPost2010PropOp30
 70
     1
102
RTVSPost2010Prop31
280
     0
102
RTVSPost2010PropOp31
 70
     1
102
RTVSPost2010Prop32
280
     0
102
RTVSPost2010PropOp32
 70
     1
102
RTVSPost2010Prop33
280
     0
102
RTVSPost2010PropOp33
 70
     1
102
RTVSPost2010Prop34
280
     0
102
RTVSPost2010PropOp34
 70
     1
102
RTVSPost2010Prop35
280
     0
102
RTVSPost2010PropOp35
 70
     1
102
RTVSPost2010Prop36
280
     0
102
RTVSPost2010PropOp36
 70
     1
102
RTVSPost2010Prop37
 90
       50
102
RTVSPost2010PropOp37
 70
     1
102
RTVSPost2010Prop38
140
0.0
102
RTVSPost2010PropOp38
 70
     1
102
RTVSPost2010Prop39
140
1.0
102
RTVSPost2010PropOp39
 70
     1
102
RTVSPost2010Prop40
 90
        0
102
RTVSPost2010PropOp40
 70
     1
102
RTVSPost2010Prop41ColorIndex
 90
       18
102
RTVSPost2010Prop41ColorRGB
 90
        0
102
RTVSPost2010PropOp41
 70
     1
102
RTVSPost2010Prop42
 90
       50
102
RTVSPost2010PropOp42
 70
     1
102
RTVSPost2010Prop43
 90
        3
102
RTVSPost2010PropOp43
 70
     1
102
RTVSPost2010Prop44ColorIndex
 90
        5
102
RTVSPost2010Prop44ColorRGB
 90
      255
102
RTVSPost2010PropOp44
 70
     1
102
RTVSPost2010Prop45
280
     0
102
RTVSPost2010PropOp45
 70
     1
102
RTVSPost2010Prop46
 90
       50
102
RTVSPost2010PropOp46
 70
     1
102
RTVSPost2010Prop47
 90
       50
102
RTVSPost2010PropOp47
 70
     1
102
RTVSPost2010Prop48
 90
       50
102
RTVSPost2010PropOp48
 70
     1
102
RTVSPost2010Prop49
280
     0
102
RTVSPost2010PropOp49
 70
     1
102
RTVSPost2010Prop50
 90
       50
102
RTVSPost2010PropOp50
 70
     1
102
RTVSPost2010Prop51ColorIndex
 90
      256
102
RTVSPost2010Prop51ColorRGB
 90
-16777216
102
RTVSPost2010PropOp51
 70
     0
102
RTVSPost2010Prop52
140
1.0
102
RTVSPost2010PropOp52
 70
     0
102
RTVSPost2010Prop53
 90
        2
102
RTVSPost2010PropOp53
 70
     1
102
RTVSPost2010Prop54
  1
strokes_ogs.tif
102
RTVSPost2010PropOp54
 70
     1
102
RTVSPost2010Prop55
280
     0
102
RTVSPost2010PropOp55
 70
     1
102
RTVSPost2010Prop56
140
1.0
102
RTVSPost2010PropOp56
 70
     1
102
RTVSPost2010Prop57
140
1.0
102
RTVSPost2010PropOp57
 70
     1
102
RTVSPropertyOp0
 70
     1
102
RTVSPropertyOp1
 70
     1
102
RTVSPropertyOp2
 70
     1
102
RTVSPropertyOp3
 70
     1
102
RTVSPropertyOp4
 70
     1
102
RTVSPropertyOp5
 70
     1
102
RTVSPropertyOp6
 70
     1
102
RTVSPropertyOp7
 70
     1
102
RTVSPropertyOp8
 70
     1
102
RTVSPropertyOp9
 70
     1
102
RTVSPropertyOp10
 70
     1
102
RTVSPropertyOp11
 70
     1
102
RTVSPropertyOp12
 70
     1
102
RTVSPropertyOp13
 70
     1
102
RTVSPropertyOp14
 70
     1
102
RTVSPropertyOp15
 70
     1
102
RTVSPropertyOp16
 70
     1
102
RTVSPropertyOp17
 70
     1
102
RTVSPropertyOp18
 70
     1
102
RTVSPropertyOp19
 70
     1
102
RTVSPropertyOp20
 70
     1
102
RTVSPropertyOp21
 70
     1
102
RTVSPropertyOp22
 70
     1
102
RTVSPropertyOp23
 70
     1
102
RTVSPropertyOp24
 70
     1
102
RTVSPropertyOp25
 70
     1
102
RTVSPropertyOp26
 70
     1
102
RTVSPropertyOp27
 70
     1
102
RTVSPropertyOp28
 70
     1
102
RTVSPropertyOp29
 70
     1
102
RTVSPropertyOp30
 70
     1
102
RTVSPropertyOp31
 70
     1
102
RTVSPropertyOp32
 70
     1
102
RTVSPropertyOp33
 70
     1
102
RTVSPropertyOp34
 70
     1
102
RTVSPropertyOp35
 70
     1
102
RTVSPropertyOp36
 70
     1
102
RTVSPropertyOp37
 70
     1
102
RTVSPropertyOp38
 70
     1
102
RTVSPropertyOp39
 70
     1
102
RTVSPropertyOp40
 70
     1
102
RTVSPropertyOp41
 70
     1
102
RTVSPropertyOp42
 70
     1
102
RTVSPropertyOp43
 70
     1
102
RTVSPropertyOp44
 70
     1
102
RTVSPropertyOp45
 70
     1
102
RTVSPropertyOp46
 70
     1
102
RTVSPropertyOp47
 70
     1
102
RTVSPropertyOp48
 70
     1
102
RTVSPropertyOp49
 70
     1
102
RTVSPropertyOp50
 70
     1
102
RTVSPropertyOp51
 70
     0
102
RTVSPropertyOp52
 70
     0
102
RTVSPropertyOp53
 70
     1
102
RTVSPropertyOp54
 70
     1
102
RTVSPropertyOp55
 70
     1
102
RTVSPropertyOp56
 70
     1
102
RTVSPropertyOp57
 70
     1
102
RTVSPropertyOp58
 70
     1
102
RTVSPropertyOp59
 70
     1
102
RTVSPropertyOp60
 70
     1
102
RTVSPropertyOp61
 70
     1
102
RTVSPropertyOp62
 70
     1
  0
XRECORD
  5
A91D
102
{ACAD_REACTORS
330
A91C
102
}
330
A91C
100
AcDbXrecord
280
     1
102
RTVSPost2010Prop28
280
     0
102
RTVSPost2010PropOp28
 70
     1
102
RTVSPost2010Prop29
280
     1
102
RTVSPost2010PropOp29
 70
     1
102
RTVSPost2010Prop30
280
     1
102
RTVSPost2010PropOp30
 70
     1
102
RTVSPost2010Prop31
280
     0
102
RTVSPost2010PropOp31
 70
     1
102
RTVSPost2010Prop32
280
     0
102
RTVSPost2010PropOp32
 70
     1
102
RTVSPost2010Prop33
280
     0
102
RTVSPost2010PropOp33
 70
     1
102
RTVSPost2010Prop34
280
     0
102
RTVSPost2010PropOp34
 70
     1
102
RTVSPost2010Prop35
280
     0
102
RTVSPost2010PropOp35
 70
     1
102
RTVSPost2010Prop36
280
     0
102
RTVSPost2010PropOp36
 70
     1
102
RTVSPost2010Prop37
 90
       50
102
RTVSPost2010PropOp37
 70
     1
102
RTVSPost2010Prop38
140
0.0
102
RTVSPost2010PropOp38
 70
     1
102
RTVSPost2010Prop39
140
1.0
102
RTVSPost2010PropOp39
 70
     1
102
RTVSPost2010Prop40
 90
        0
102
RTVSPost2010PropOp40
 70
     1
102
RTVSPost2010Prop41ColorIndex
 90
       18
102
RTVSPost2010Prop41ColorRGB
 90
        0
102
RTVSPost2010PropOp41
 70
     1
102
RTVSPost2010Prop42
 90
       50
102
RTVSPost2010PropOp42
 70
     1
102
RTVSPost2010Prop43
 90
        3
102
RTVSPost2010PropOp43
 70
     1
102
RTVSPost2010Prop44ColorIndex
 90
        5
102
RTVSPost2010Prop44ColorRGB
 90
      255
102
RTVSPost2010PropOp44
 70
     1
102
RTVSPost2010Prop45
280
     0
102
RTVSPost2010PropOp45
 70
     1
102
RTVSPost2010Prop46
 90
       50
102
RTVSPost2010PropOp46
 70
     1
102
RTVSPost2010Prop47
 90
       50
102
RTVSPost2010PropOp47
 70
     1
102
RTVSPost2010Prop48
 90
       50
102
RTVSPost2010PropOp48
 70
     1
102
RTVSPost2010Prop49
280
     0
102
RTVSPost2010PropOp49
 70
     1
102
RTVSPost2010Prop50
 90
       50
102
RTVSPost2010PropOp50
 70
     1
102
RTVSPost2010Prop51ColorIndex
 90
      256
102
RTVSPost2010Prop51ColorRGB
 90
-16777216
102
RTVSPost2010PropOp51
 70
     0
102
RTVSPost2010Prop52
140
1.0
102
RTVSPost2010PropOp52
 70
     0
102
RTVSPost2010Prop53
 90
        2
102
RTVSPost2010PropOp53
 70
     1
102
RTVSPost2010Prop54
  1
strokes_ogs.tif
102
RTVSPost2010PropOp54
 70
     1
102
RTVSPost2010Prop55
280
     0
102
RTVSPost2010PropOp55
 70
     1
102
RTVSPost2010Prop56
140
1.0
102
RTVSPost2010PropOp56
 70
     1
102
RTVSPost2010Prop57
140
1.0
102
RTVSPost2010PropOp57
 70
     1
102
RTVSPropertyOp0
 70
     1
102
RTVSPropertyOp1
 70
     1
102
RTVSPropertyOp2
 70
     1
102
RTVSPropertyOp3
 70
     1
102
RTVSPropertyOp4
 70
     1
102
RTVSPropertyOp5
 70
     1
102
RTVSPropertyOp6
 70
     1
102
RTVSPropertyOp7
 70
     1
102
RTVSPropertyOp8
 70
     1
102
RTVSPropertyOp9
 70
     1
102
RTVSPropertyOp10
 70
     1
102
RTVSPropertyOp11
 70
     1
102
RTVSPropertyOp12
 70
     1
102
RTVSPropertyOp13
 70
     1
102
RTVSPropertyOp14
 70
     1
102
RTVSPropertyOp15
 70
     1
102
RTVSPropertyOp16
 70
     1
102
RTVSPropertyOp17
 70
     1
102
RTVSPropertyOp18
 70
     1
102
RTVSPropertyOp19
 70
     1
102
RTVSPropertyOp20
 70
     1
102
RTVSPropertyOp21
 70
     1
102
RTVSPropertyOp22
 70
     1
102
RTVSPropertyOp23
 70
     1
102
RTVSPropertyOp24
 70
     1
102
RTVSPropertyOp25
 70
     1
102
RTVSPropertyOp26
 70
     1
102
RTVSPropertyOp27
 70
     1
102
RTVSPropertyOp28
 70
     1
102
RTVSPropertyOp29
 70
     1
102
RTVSPropertyOp30
 70
     1
102
RTVSPropertyOp31
 70
     1
102
RTVSPropertyOp32
 70
     1
102
RTVSPropertyOp33
 70
     1
102
RTVSPropertyOp34
 70
     1
102
RTVSPropertyOp35
 70
     1
102
RTVSPropertyOp36
 70
     1
102
RTVSPropertyOp37
 70
     1
102
RTVSPropertyOp38
 70
     1
102
RTVSPropertyOp39
 70
     1
102
RTVSPropertyOp40
 70
     1
102
RTVSPropertyOp41
 70
     1
102
RTVSPropertyOp42
 70
     1
102
RTVSPropertyOp43
 70
     1
102
RTVSPropertyOp44
 70
     1
102
RTVSPropertyOp45
 70
     1
102
RTVSPropertyOp46
 70
     1
102
RTVSPropertyOp47
 70
     1
102
RTVSPropertyOp48
 70
     1
102
RTVSPropertyOp49
 70
     1
102
RTVSPropertyOp50
 70
     1
102
RTVSPropertyOp51
 70
     0
102
RTVSPropertyOp52
 70
     0
102
RTVSPropertyOp53
 70
     1
102
RTVSPropertyOp54
 70
     1
102
RTVSPropertyOp55
 70
     1
102
RTVSPropertyOp56
 70
     1
102
RTVSPropertyOp57
 70
     1
102
RTVSPropertyOp58
 70
     1
102
RTVSPropertyOp59
 70
     1
102
RTVSPropertyOp60
 70
     1
102
RTVSPropertyOp61
 70
     1
102
RTVSPropertyOp62
 70
     1
  0
XRECORD
  5
A939
102
{ACAD_REACTORS
330
A938
102
}
330
A938
100
AcDbXrecord
280
     1
102
RTVSPost2010Prop28
280
     0
102
RTVSPost2010PropOp28
 70
     1
102
RTVSPost2010Prop29
280
     1
102
RTVSPost2010PropOp29
 70
     1
102
RTVSPost2010Prop30
280
     1
102
RTVSPost2010PropOp30
 70
     1
102
RTVSPost2010Prop31
280
     0
102
RTVSPost2010PropOp31
 70
     1
102
RTVSPost2010Prop32
280
     0
102
RTVSPost2010PropOp32
 70
     1
102
RTVSPost2010Prop33
280
     0
102
RTVSPost2010PropOp33
 70
     1
102
RTVSPost2010Prop34
280
     0
102
RTVSPost2010PropOp34
 70
     1
102
RTVSPost2010Prop35
280
     0
102
RTVSPost2010PropOp35
 70
     1
102
RTVSPost2010Prop36
280
     0
102
RTVSPost2010PropOp36
 70
     1
102
RTVSPost2010Prop37
 90
       50
102
RTVSPost2010PropOp37
 70
     0
102
RTVSPost2010Prop38
140
0.0
102
RTVSPost2010PropOp38
 70
     0
102
RTVSPost2010Prop39
140
1.0
102
RTVSPost2010PropOp39
 70
     0
102
RTVSPost2010Prop40
 90
        0
102
RTVSPost2010PropOp40
 70
     0
102
RTVSPost2010Prop41ColorIndex
 90
       18
102
RTVSPost2010Prop41ColorRGB
 90
        0
102
RTVSPost2010PropOp41
 70
     0
102
RTVSPost2010Prop42
 90
       50
102
RTVSPost2010PropOp42
 70
     0
102
RTVSPost2010Prop43
 90
        3
102
RTVSPost2010PropOp43
 70
     0
102
RTVSPost2010Prop44ColorIndex
 90
        5
102
RTVSPost2010Prop44ColorRGB
 90
      255
102
RTVSPost2010PropOp44
 70
     0
102
RTVSPost2010Prop45
280
     0
102
RTVSPost2010PropOp45
 70
     1
102
RTVSPost2010Prop46
 90
       50
102
RTVSPost2010PropOp46
 70
     0
102
RTVSPost2010Prop47
 90
       50
102
RTVSPost2010PropOp47
 70
     0
102
RTVSPost2010Prop48
 90
       50
102
RTVSPost2010PropOp48
 70
     0
102
RTVSPost2010Prop49
280
     0
102
RTVSPost2010PropOp49
 70
     1
102
RTVSPost2010Prop50
 90
       50
102
RTVSPost2010PropOp50
 70
     0
102
RTVSPost2010Prop51ColorIndex
 90
      256
102
RTVSPost2010Prop51ColorRGB
 90
-16777216
102
RTVSPost2010PropOp51
 70
     0
102
RTVSPost2010Prop52
140
1.0
102
RTVSPost2010PropOp52
 70
     0
102
RTVSPost2010Prop53
 90
        2
102
RTVSPost2010PropOp53
 70
     0
102
RTVSPost2010Prop54
  1
strokes_ogs.tif
102
RTVSPost2010PropOp54
 70
     0
102
RTVSPost2010Prop55
280
     0
102
RTVSPost2010PropOp55
 70
     1
102
RTVSPost2010Prop56
140
1.0
102
RTVSPost2010PropOp56
 70
     0
102
RTVSPost2010Prop57
140
1.0
102
RTVSPost2010PropOp57
 70
     0
102
RTVSPropertyOp0
 70
     0
102
RTVSPropertyOp1
 70
     0
102
RTVSPropertyOp2
 70
     0
102
RTVSPropertyOp3
 70
     0
102
RTVSPropertyOp4
 70
     0
102
RTVSPropertyOp5
 70
     0
102
RTVSPropertyOp6
 70
     0
102
RTVSPropertyOp7
 70
     0
102
RTVSPropertyOp8
 70
     0
102
RTVSPropertyOp9
 70
     0
102
RTVSPropertyOp10
 70
     0
102
RTVSPropertyOp11
 70
     0
102
RTVSPropertyOp12
 70
     0
102
RTVSPropertyOp13
 70
     0
102
RTVSPropertyOp14
 70
     2
102
RTVSPropertyOp15
 70
     0
102
RTVSPropertyOp16
 70
     0
102
RTVSPropertyOp17
 70
     0
102
RTVSPropertyOp18
 70
     0
102
RTVSPropertyOp19
 70
     0
102
RTVSPropertyOp20
 70
     0
102
RTVSPropertyOp21
 70
     0
102
RTVSPropertyOp22
 70
     0
102
RTVSPropertyOp23
 70
     0
102
RTVSPropertyOp24
 70
     0
102
RTVSPropertyOp25
 70
     0
102
RTVSPropertyOp26
 70
     0
102
RTVSPropertyOp27
 70
     0
102
RTVSPropertyOp28
 70
     1
102
RTVSPropertyOp29
 70
     1
102
RTVSPropertyOp30
 70
     1
102
RTVSPropertyOp31
 70
     1
102
RTVSPropertyOp32
 70
     1
102
RTVSPropertyOp33
 70
     1
102
RTVSPropertyOp34
 70
     1
102
RTVSPropertyOp35
 70
     1
102
RTVSPropertyOp36
 70
     1
102
RTVSPropertyOp37
 70
     0
102
RTVSPropertyOp38
 70
     0
102
RTVSPropertyOp39
 70
     0
102
RTVSPropertyOp40
 70
     0
102
RTVSPropertyOp41
 70
     0
102
RTVSPropertyOp42
 70
     0
102
RTVSPropertyOp43
 70
     0
102
RTVSPropertyOp44
 70
     0
102
RTVSPropertyOp45
 70
     1
102
RTVSPropertyOp46
 70
     0
102
RTVSPropertyOp47
 70
     0
102
RTVSPropertyOp48
 70
     0
102
RTVSPropertyOp49
 70
     1
102
RTVSPropertyOp50
 70
     0
102
RTVSPropertyOp51
 70
     0
102
RTVSPropertyOp52
 70
     0
102
RTVSPropertyOp53
 70
     0
102
RTVSPropertyOp54
 70
     0
102
RTVSPropertyOp55
 70
     1
102
RTVSPropertyOp56
 70
     0
102
RTVSPropertyOp57
 70
     0
102
RTVSPropertyOp58
 70
     0
102
RTVSPropertyOp59
 70
     0
102
RTVSPropertyOp60
 70
     0
102
RTVSPropertyOp61
 70
     0
102
RTVSPropertyOp62
 70
     0
  0
XRECORD
  5
A929
102
{ACAD_REACTORS
330
A928
102
}
330
A928
100
AcDbXrecord
280
     1
102
RTVSPost2010Prop28
280
     0
102
RTVSPost2010PropOp28
 70
     1
102
RTVSPost2010Prop29
280
     1
102
RTVSPost2010PropOp29
 70
     1
102
RTVSPost2010Prop30
280
     1
102
RTVSPost2010PropOp30
 70
     1
102
RTVSPost2010Prop31
280
     0
102
RTVSPost2010PropOp31
 70
     1
102
RTVSPost2010Prop32
280
     0
102
RTVSPost2010PropOp32
 70
     1
102
RTVSPost2010Prop33
280
     0
102
RTVSPost2010PropOp33
 70
     1
102
RTVSPost2010Prop34
280
     0
102
RTVSPost2010PropOp34
 70
     1
102
RTVSPost2010Prop35
280
     0
102
RTVSPost2010PropOp35
 70
     1
102
RTVSPost2010Prop36
280
     0
102
RTVSPost2010PropOp36
 70
     1
102
RTVSPost2010Prop37
 90
       50
102
RTVSPost2010PropOp37
 70
     1
102
RTVSPost2010Prop38
140
0.0
102
RTVSPost2010PropOp38
 70
     1
102
RTVSPost2010Prop39
140
1.0
102
RTVSPost2010PropOp39
 70
     1
102
RTVSPost2010Prop40
 90
        0
102
RTVSPost2010PropOp40
 70
     1
102
RTVSPost2010Prop41ColorIndex
 90
       18
102
RTVSPost2010Prop41ColorRGB
 90
        0
102
RTVSPost2010PropOp41
 70
     1
102
RTVSPost2010Prop42
 90
       50
102
RTVSPost2010PropOp42
 70
     1
102
RTVSPost2010Prop43
 90
        3
102
RTVSPost2010PropOp43
 70
     1
102
RTVSPost2010Prop44ColorIndex
 90
        5
102
RTVSPost2010Prop44ColorRGB
 90
      255
102
RTVSPost2010PropOp44
 70
     1
102
RTVSPost2010Prop45
280
     0
102
RTVSPost2010PropOp45
 70
     1
102
RTVSPost2010Prop46
 90
       50
102
RTVSPost2010PropOp46
 70
     1
102
RTVSPost2010Prop47
 90
       50
102
RTVSPost2010PropOp47
 70
     1
102
RTVSPost2010Prop48
 90
       50
102
RTVSPost2010PropOp48
 70
     1
102
RTVSPost2010Prop49
280
     0
102
RTVSPost2010PropOp49
 70
     1
102
RTVSPost2010Prop50
 90
       50
102
RTVSPost2010PropOp50
 70
     1
102
RTVSPost2010Prop51ColorIndex
 90
      256
102
RTVSPost2010Prop51ColorRGB
 90
-16777216
102
RTVSPost2010PropOp51
 70
     0
102
RTVSPost2010Prop52
140
1.0
102
RTVSPost2010PropOp52
 70
     0
102
RTVSPost2010Prop53
 90
        2
102
RTVSPost2010PropOp53
 70
     1
102
RTVSPost2010Prop54
  1
strokes_ogs.tif
102
RTVSPost2010PropOp54
 70
     1
102
RTVSPost2010Prop55
280
     0
102
RTVSPost2010PropOp55
 70
     1
102
RTVSPost2010Prop56
140
1.0
102
RTVSPost2010PropOp56
 70
     1
102
RTVSPost2010Prop57
140
1.0
102
RTVSPost2010PropOp57
 70
     1
102
RTVSPropertyOp0
 70
     1
102
RTVSPropertyOp1
 70
     1
102
RTVSPropertyOp2
 70
     1
102
RTVSPropertyOp3
 70
     1
102
RTVSPropertyOp4
 70
     1
102
RTVSPropertyOp5
 70
     1
102
RTVSPropertyOp6
 70
     1
102
RTVSPropertyOp7
 70
     1
102
RTVSPropertyOp8
 70
     1
102
RTVSPropertyOp9
 70
     1
102
RTVSPropertyOp10
 70
     1
102
RTVSPropertyOp11
 70
     1
102
RTVSPropertyOp12
 70
     1
102
RTVSPropertyOp13
 70
     1
102
RTVSPropertyOp14
 70
     1
102
RTVSPropertyOp15
 70
     1
102
RTVSPropertyOp16
 70
     1
102
RTVSPropertyOp17
 70
     1
102
RTVSPropertyOp18
 70
     1
102
RTVSPropertyOp19
 70
     1
102
RTVSPropertyOp20
 70
     1
102
RTVSPropertyOp21
 70
     1
102
RTVSPropertyOp22
 70
     1
102
RTVSPropertyOp23
 70
     1
102
RTVSPropertyOp24
 70
     1
102
RTVSPropertyOp25
 70
     1
102
RTVSPropertyOp26
 70
     1
102
RTVSPropertyOp27
 70
     1
102
RTVSPropertyOp28
 70
     1
102
RTVSPropertyOp29
 70
     1
102
RTVSPropertyOp30
 70
     1
102
RTVSPropertyOp31
 70
     1
102
RTVSPropertyOp32
 70
     1
102
RTVSPropertyOp33
 70
     1
102
RTVSPropertyOp34
 70
     1
102
RTVSPropertyOp35
 70
     1
102
RTVSPropertyOp36
 70
     1
102
RTVSPropertyOp37
 70
     1
102
RTVSPropertyOp38
 70
     1
102
RTVSPropertyOp39
 70
     1
102
RTVSPropertyOp40
 70
     1
102
RTVSPropertyOp41
 70
     1
102
RTVSPropertyOp42
 70
     1
102
RTVSPropertyOp43
 70
     1
102
RTVSPropertyOp44
 70
     1
102
RTVSPropertyOp45
 70
     1
102
RTVSPropertyOp46
 70
     1
102
RTVSPropertyOp47
 70
     1
102
RTVSPropertyOp48
 70
     1
102
RTVSPropertyOp49
 70
     1
102
RTVSPropertyOp50
 70
     1
102
RTVSPropertyOp51
 70
     0
102
RTVSPropertyOp52
 70
     0
102
RTVSPropertyOp53
 70
     1
102
RTVSPropertyOp54
 70
     1
102
RTVSPropertyOp55
 70
     1
102
RTVSPropertyOp56
 70
     1
102
RTVSPropertyOp57
 70
     1
102
RTVSPropertyOp58
 70
     1
102
RTVSPropertyOp59
 70
     1
102
RTVSPropertyOp60
 70
     1
102
RTVSPropertyOp61
 70
     1
102
RTVSPropertyOp62
 70
     1
  0
XRECORD
  5
A93B
102
{ACAD_REACTORS
330
A93A
102
}
330
A93A
100
AcDbXrecord
280
     1
102
RTVSPost2010Prop28
280
     0
102
RTVSPost2010PropOp28
 70
     1
102
RTVSPost2010Prop29
280
     1
102
RTVSPost2010PropOp29
 70
     1
102
RTVSPost2010Prop30
280
     1
102
RTVSPost2010PropOp30
 70
     1
102
RTVSPost2010Prop31
280
     0
102
RTVSPost2010PropOp31
 70
     1
102
RTVSPost2010Prop32
280
     0
102
RTVSPost2010PropOp32
 70
     1
102
RTVSPost2010Prop33
280
     0
102
RTVSPost2010PropOp33
 70
     1
102
RTVSPost2010Prop34
280
     0
102
RTVSPost2010PropOp34
 70
     1
102
RTVSPost2010Prop35
280
     0
102
RTVSPost2010PropOp35
 70
     1
102
RTVSPost2010Prop36
280
     0
102
RTVSPost2010PropOp36
 70
     1
102
RTVSPost2010Prop37
 90
       50
102
RTVSPost2010PropOp37
 70
     0
102
RTVSPost2010Prop38
140
0.0
102
RTVSPost2010PropOp38
 70
     0
102
RTVSPost2010Prop39
140
1.0
102
RTVSPost2010PropOp39
 70
     0
102
RTVSPost2010Prop40
 90
        0
102
RTVSPost2010PropOp40
 70
     0
102
RTVSPost2010Prop41ColorIndex
 90
       18
102
RTVSPost2010Prop41ColorRGB
 90
        0
102
RTVSPost2010PropOp41
 70
     0
102
RTVSPost2010Prop42
 90
       50
102
RTVSPost2010PropOp42
 70
     0
102
RTVSPost2010Prop43
 90
        3
102
RTVSPost2010PropOp43
 70
     0
102
RTVSPost2010Prop44ColorIndex
 90
        5
102
RTVSPost2010Prop44ColorRGB
 90
      255
102
RTVSPost2010PropOp44
 70
     0
102
RTVSPost2010Prop45
280
     0
102
RTVSPost2010PropOp45
 70
     1
102
RTVSPost2010Prop46
 90
       50
102
RTVSPost2010PropOp46
 70
     0
102
RTVSPost2010Prop47
 90
       50
102
RTVSPost2010PropOp47
 70
     0
102
RTVSPost2010Prop48
 90
       50
102
RTVSPost2010PropOp48
 70
     0
102
RTVSPost2010Prop49
280
     0
102
RTVSPost2010PropOp49
 70
     1
102
RTVSPost2010Prop50
 90
       50
102
RTVSPost2010PropOp50
 70
     0
102
RTVSPost2010Prop51ColorIndex
 90
      256
102
RTVSPost2010Prop51ColorRGB
 90
-16777216
102
RTVSPost2010PropOp51
 70
     0
102
RTVSPost2010Prop52
140
1.0
102
RTVSPost2010PropOp52
 70
     0
102
RTVSPost2010Prop53
 90
        2
102
RTVSPost2010PropOp53
 70
     0
102
RTVSPost2010Prop54
  1
strokes_ogs.tif
102
RTVSPost2010PropOp54
 70
     0
102
RTVSPost2010Prop55
280
     0
102
RTVSPost2010PropOp55
 70
     1
102
RTVSPost2010Prop56
140
1.0
102
RTVSPost2010PropOp56
 70
     0
102
RTVSPost2010Prop57
140
1.0
102
RTVSPost2010PropOp57
 70
     0
102
RTVSPropertyOp0
 70
     0
102
RTVSPropertyOp1
 70
     0
102
RTVSPropertyOp2
 70
     0
102
RTVSPropertyOp3
 70
     0
102
RTVSPropertyOp4
 70
     0
102
RTVSPropertyOp5
 70
     0
102
RTVSPropertyOp6
 70
     0
102
RTVSPropertyOp7
 70
     0
102
RTVSPropertyOp8
 70
     0
102
RTVSPropertyOp9
 70
     0
102
RTVSPropertyOp10
 70
     0
102
RTVSPropertyOp11
 70
     0
102
RTVSPropertyOp12
 70
     0
102
RTVSPropertyOp13
 70
     0
102
RTVSPropertyOp14
 70
     2
102
RTVSPropertyOp15
 70
     0
102
RTVSPropertyOp16
 70
     0
102
RTVSPropertyOp17
 70
     0
102
RTVSPropertyOp18
 70
     0
102
RTVSPropertyOp19
 70
     0
102
RTVSPropertyOp20
 70
     0
102
RTVSPropertyOp21
 70
     0
102
RTVSPropertyOp22
 70
     0
102
RTVSPropertyOp23
 70
     0
102
RTVSPropertyOp24
 70
     0
102
RTVSPropertyOp25
 70
     0
102
RTVSPropertyOp26
 70
     0
102
RTVSPropertyOp27
 70
     0
102
RTVSPropertyOp28
 70
     1
102
RTVSPropertyOp29
 70
     1
102
RTVSPropertyOp30
 70
     1
102
RTVSPropertyOp31
 70
     1
102
RTVSPropertyOp32
 70
     1
102
RTVSPropertyOp33
 70
     1
102
RTVSPropertyOp34
 70
     1
102
RTVSPropertyOp35
 70
     1
102
RTVSPropertyOp36
 70
     1
102
RTVSPropertyOp37
 70
     0
102
RTVSPropertyOp38
 70
     0
102
RTVSPropertyOp39
 70
     0
102
RTVSPropertyOp40
 70
     0
102
RTVSPropertyOp41
 70
     0
102
RTVSPropertyOp42
 70
     0
102
RTVSPropertyOp43
 70
     0
102
RTVSPropertyOp44
 70
     0
102
RTVSPropertyOp45
 70
     1
102
RTVSPropertyOp46
 70
     0
102
RTVSPropertyOp47
 70
     0
102
RTVSPropertyOp48
 70
     0
102
RTVSPropertyOp49
 70
     1
102
RTVSPropertyOp50
 70
     0
102
RTVSPropertyOp51
 70
     0
102
RTVSPropertyOp52
 70
     0
102
RTVSPropertyOp53
 70
     0
102
RTVSPropertyOp54
 70
     0
102
RTVSPropertyOp55
 70
     1
102
RTVSPropertyOp56
 70
     0
102
RTVSPropertyOp57
 70
     0
102
RTVSPropertyOp58
 70
     0
102
RTVSPropertyOp59
 70
     0
102
RTVSPropertyOp60
 70
     0
102
RTVSPropertyOp61
 70
     0
102
RTVSPropertyOp62
 70
     0
  0
XRECORD
  5
A921
102
{ACAD_REACTORS
330
A920
102
}
330
A920
100
AcDbXrecord
280
     1
102
RTVSPost2010Prop28
280
     0
102
RTVSPost2010PropOp28
 70
     1
102
RTVSPost2010Prop29
280
     1
102
RTVSPost2010PropOp29
 70
     1
102
RTVSPost2010Prop30
280
     1
102
RTVSPost2010PropOp30
 70
     1
102
RTVSPost2010Prop31
280
     0
102
RTVSPost2010PropOp31
 70
     1
102
RTVSPost2010Prop32
280
     0
102
RTVSPost2010PropOp32
 70
     1
102
RTVSPost2010Prop33
280
     0
102
RTVSPost2010PropOp33
 70
     1
102
RTVSPost2010Prop34
280
     0
102
RTVSPost2010PropOp34
 70
     1
102
RTVSPost2010Prop35
280
     0
102
RTVSPost2010PropOp35
 70
     1
102
RTVSPost2010Prop36
280
     0
102
RTVSPost2010PropOp36
 70
     1
102
RTVSPost2010Prop37
 90
       50
102
RTVSPost2010PropOp37
 70
     1
102
RTVSPost2010Prop38
140
0.0
102
RTVSPost2010PropOp38
 70
     1
102
RTVSPost2010Prop39
140
1.0
102
RTVSPost2010PropOp39
 70
     1
102
RTVSPost2010Prop40
 90
        0
102
RTVSPost2010PropOp40
 70
     1
102
RTVSPost2010Prop41ColorIndex
 90
       18
102
RTVSPost2010Prop41ColorRGB
 90
        0
102
RTVSPost2010PropOp41
 70
     1
102
RTVSPost2010Prop42
 90
       50
102
RTVSPost2010PropOp42
 70
     1
102
RTVSPost2010Prop43
 90
        3
102
RTVSPost2010PropOp43
 70
     1
102
RTVSPost2010Prop44ColorIndex
 90
        5
102
RTVSPost2010Prop44ColorRGB
 90
      255
102
RTVSPost2010PropOp44
 70
     1
102
RTVSPost2010Prop45
280
     0
102
RTVSPost2010PropOp45
 70
     1
102
RTVSPost2010Prop46
 90
       50
102
RTVSPost2010PropOp46
 70
     1
102
RTVSPost2010Prop47
 90
       50
102
RTVSPost2010PropOp47
 70
     1
102
RTVSPost2010Prop48
 90
       50
102
RTVSPost2010PropOp48
 70
     1
102
RTVSPost2010Prop49
280
     0
102
RTVSPost2010PropOp49
 70
     1
102
RTVSPost2010Prop50
 90
       50
102
RTVSPost2010PropOp50
 70
     1
102
RTVSPost2010Prop51ColorIndex
 90
      256
102
RTVSPost2010Prop51ColorRGB
 90
-16777216
102
RTVSPost2010PropOp51
 70
     0
102
RTVSPost2010Prop52
140
1.0
102
RTVSPost2010PropOp52
 70
     0
102
RTVSPost2010Prop53
 90
        2
102
RTVSPost2010PropOp53
 70
     1
102
RTVSPost2010Prop54
  1
strokes_ogs.tif
102
RTVSPost2010PropOp54
 70
     1
102
RTVSPost2010Prop55
280
     0
102
RTVSPost2010PropOp55
 70
     1
102
RTVSPost2010Prop56
140
1.0
102
RTVSPost2010PropOp56
 70
     1
102
RTVSPost2010Prop57
140
1.0
102
RTVSPost2010PropOp57
 70
     1
102
RTVSPropertyOp0
 70
     1
102
RTVSPropertyOp1
 70
     1
102
RTVSPropertyOp2
 70
     1
102
RTVSPropertyOp3
 70
     1
102
RTVSPropertyOp4
 70
     1
102
RTVSPropertyOp5
 70
     1
102
RTVSPropertyOp6
 70
     1
102
RTVSPropertyOp7
 70
     1
102
RTVSPropertyOp8
 70
     1
102
RTVSPropertyOp9
 70
     1
102
RTVSPropertyOp10
 70
     1
102
RTVSPropertyOp11
 70
     1
102
RTVSPropertyOp12
 70
     1
102
RTVSPropertyOp13
 70
     1
102
RTVSPropertyOp14
 70
     1
102
RTVSPropertyOp15
 70
     1
102
RTVSPropertyOp16
 70
     1
102
RTVSPropertyOp17
 70
     1
102
RTVSPropertyOp18
 70
     1
102
RTVSPropertyOp19
 70
     1
102
RTVSPropertyOp20
 70
     1
102
RTVSPropertyOp21
 70
     1
102
RTVSPropertyOp22
 70
     1
102
RTVSPropertyOp23
 70
     1
102
RTVSPropertyOp24
 70
     1
102
RTVSPropertyOp25
 70
     1
102
RTVSPropertyOp26
 70
     1
102
RTVSPropertyOp27
 70
     1
102
RTVSPropertyOp28
 70
     1
102
RTVSPropertyOp29
 70
     1
102
RTVSPropertyOp30
 70
     1
102
RTVSPropertyOp31
 70
     1
102
RTVSPropertyOp32
 70
     1
102
RTVSPropertyOp33
 70
     1
102
RTVSPropertyOp34
 70
     1
102
RTVSPropertyOp35
 70
     1
102
RTVSPropertyOp36
 70
     1
102
RTVSPropertyOp37
 70
     1
102
RTVSPropertyOp38
 70
     1
102
RTVSPropertyOp39
 70
     1
102
RTVSPropertyOp40
 70
     1
102
RTVSPropertyOp41
 70
     1
102
RTVSPropertyOp42
 70
     1
102
RTVSPropertyOp43
 70
     1
102
RTVSPropertyOp44
 70
     1
102
RTVSPropertyOp45
 70
     1
102
RTVSPropertyOp46
 70
     1
102
RTVSPropertyOp47
 70
     1
102
RTVSPropertyOp48
 70
     1
102
RTVSPropertyOp49
 70
     1
102
RTVSPropertyOp50
 70
     1
102
RTVSPropertyOp51
 70
     0
102
RTVSPropertyOp52
 70
     0
102
RTVSPropertyOp53
 70
     1
102
RTVSPropertyOp54
 70
     1
102
RTVSPropertyOp55
 70
     1
102
RTVSPropertyOp56
 70
     1
102
RTVSPropertyOp57
 70
     1
102
RTVSPropertyOp58
 70
     1
102
RTVSPropertyOp59
 70
     1
102
RTVSPropertyOp60
 70
     1
102
RTVSPropertyOp61
 70
     1
102
RTVSPropertyOp62
 70
     1
  0
XRECORD
  5
A937
102
{ACAD_REACTORS
330
A936
102
}
330
A936
100
AcDbXrecord
280
     1
102
RTVSPost2010Prop28
280
     0
102
RTVSPost2010PropOp28
 70
     1
102
RTVSPost2010Prop29
280
     1
102
RTVSPost2010PropOp29
 70
     1
102
RTVSPost2010Prop30
280
     1
102
RTVSPost2010PropOp30
 70
     1
102
RTVSPost2010Prop31
280
     0
102
RTVSPost2010PropOp31
 70
     1
102
RTVSPost2010Prop32
280
     0
102
RTVSPost2010PropOp32
 70
     1
102
RTVSPost2010Prop33
280
     0
102
RTVSPost2010PropOp33
 70
     1
102
RTVSPost2010Prop34
280
     0
102
RTVSPost2010PropOp34
 70
     1
102
RTVSPost2010Prop35
280
     0
102
RTVSPost2010PropOp35
 70
     1
102
RTVSPost2010Prop36
280
     0
102
RTVSPost2010PropOp36
 70
     1
102
RTVSPost2010Prop37
 90
       50
102
RTVSPost2010PropOp37
 70
     1
102
RTVSPost2010Prop38
140
0.0
102
RTVSPost2010PropOp38
 70
     1
102
RTVSPost2010Prop39
140
1.0
102
RTVSPost2010PropOp39
 70
     1
102
RTVSPost2010Prop40
 90
        0
102
RTVSPost2010PropOp40
 70
     1
102
RTVSPost2010Prop41ColorIndex
 90
       18
102
RTVSPost2010Prop41ColorRGB
 90
        0
102
RTVSPost2010PropOp41
 70
     1
102
RTVSPost2010Prop42
 90
       50
102
RTVSPost2010PropOp42
 70
     1
102
RTVSPost2010Prop43
 90
        3
102
RTVSPost2010PropOp43
 70
     1
102
RTVSPost2010Prop44ColorIndex
 90
        5
102
RTVSPost2010Prop44ColorRGB
 90
      255
102
RTVSPost2010PropOp44
 70
     1
102
RTVSPost2010Prop45
280
     0
102
RTVSPost2010PropOp45
 70
     1
102
RTVSPost2010Prop46
 90
       50
102
RTVSPost2010PropOp46
 70
     1
102
RTVSPost2010Prop47
 90
       50
102
RTVSPost2010PropOp47
 70
     1
102
RTVSPost2010Prop48
 90
       50
102
RTVSPost2010PropOp48
 70
     1
102
RTVSPost2010Prop49
280
     0
102
RTVSPost2010PropOp49
 70
     1
102
RTVSPost2010Prop50
 90
       50
102
RTVSPost2010PropOp50
 70
     1
102
RTVSPost2010Prop51ColorIndex
 90
      256
102
RTVSPost2010Prop51ColorRGB
 90
-16777216
102
RTVSPost2010PropOp51
 70
     0
102
RTVSPost2010Prop52
140
1.0
102
RTVSPost2010PropOp52
 70
     0
102
RTVSPost2010Prop53
 90
        2
102
RTVSPost2010PropOp53
 70
     1
102
RTVSPost2010Prop54
  1
strokes_ogs.tif
102
RTVSPost2010PropOp54
 70
     1
102
RTVSPost2010Prop55
280
     0
102
RTVSPost2010PropOp55
 70
     1
102
RTVSPost2010Prop56
140
1.0
102
RTVSPost2010PropOp56
 70
     1
102
RTVSPost2010Prop57
140
1.0
102
RTVSPost2010PropOp57
 70
     1
102
RTVSPropertyOp0
 70
     1
102
RTVSPropertyOp1
 70
     1
102
RTVSPropertyOp2
 70
     1
102
RTVSPropertyOp3
 70
     1
102
RTVSPropertyOp4
 70
     1
102
RTVSPropertyOp5
 70
     1
102
RTVSPropertyOp6
 70
     1
102
RTVSPropertyOp7
 70
     1
102
RTVSPropertyOp8
 70
     1
102
RTVSPropertyOp9
 70
     1
102
RTVSPropertyOp10
 70
     1
102
RTVSPropertyOp11
 70
     1
102
RTVSPropertyOp12
 70
     1
102
RTVSPropertyOp13
 70
     1
102
RTVSPropertyOp14
 70
     1
102
RTVSPropertyOp15
 70
     1
102
RTVSPropertyOp16
 70
     1
102
RTVSPropertyOp17
 70
     1
102
RTVSPropertyOp18
 70
     1
102
RTVSPropertyOp19
 70
     1
102
RTVSPropertyOp20
 70
     1
102
RTVSPropertyOp21
 70
     1
102
RTVSPropertyOp22
 70
     1
102
RTVSPropertyOp23
 70
     1
102
RTVSPropertyOp24
 70
     1
102
RTVSPropertyOp25
 70
     1
102
RTVSPropertyOp26
 70
     1
102
RTVSPropertyOp27
 70
     1
102
RTVSPropertyOp28
 70
     1
102
RTVSPropertyOp29
 70
     1
102
RTVSPropertyOp30
 70
     1
102
RTVSPropertyOp31
 70
     1
102
RTVSPropertyOp32
 70
     1
102
RTVSPropertyOp33
 70
     1
102
RTVSPropertyOp34
 70
     1
102
RTVSPropertyOp35
 70
     1
102
RTVSPropertyOp36
 70
     1
102
RTVSPropertyOp37
 70
     1
102
RTVSPropertyOp38
 70
     1
102
RTVSPropertyOp39
 70
     1
102
RTVSPropertyOp40
 70
     1
102
RTVSPropertyOp41
 70
     1
102
RTVSPropertyOp42
 70
     1
102
RTVSPropertyOp43
 70
     1
102
RTVSPropertyOp44
 70
     1
102
RTVSPropertyOp45
 70
     1
102
RTVSPropertyOp46
 70
     1
102
RTVSPropertyOp47
 70
     1
102
RTVSPropertyOp48
 70
     1
102
RTVSPropertyOp49
 70
     1
102
RTVSPropertyOp50
 70
     1
102
RTVSPropertyOp51
 70
     0
102
RTVSPropertyOp52
 70
     0
102
RTVSPropertyOp53
 70
     1
102
RTVSPropertyOp54
 70
     1
102
RTVSPropertyOp55
 70
     1
102
RTVSPropertyOp56
 70
     1
102
RTVSPropertyOp57
 70
     1
102
RTVSPropertyOp58
 70
     1
102
RTVSPropertyOp59
 70
     1
102
RTVSPropertyOp60
 70
     1
102
RTVSPropertyOp61
 70
     1
102
RTVSPropertyOp62
 70
     1
  0
XRECORD
  5
A935
102
{ACAD_REACTORS
330
A934
102
}
330
A934
100
AcDbXrecord
280
     1
102
RTVSPost2010Prop28
280
     0
102
RTVSPost2010PropOp28
 70
     1
102
RTVSPost2010Prop29
280
     1
102
RTVSPost2010PropOp29
 70
     1
102
RTVSPost2010Prop30
280
     1
102
RTVSPost2010PropOp30
 70
     1
102
RTVSPost2010Prop31
280
     0
102
RTVSPost2010PropOp31
 70
     1
102
RTVSPost2010Prop32
280
     0
102
RTVSPost2010PropOp32
 70
     1
102
RTVSPost2010Prop33
280
     0
102
RTVSPost2010PropOp33
 70
     1
102
RTVSPost2010Prop34
280
     0
102
RTVSPost2010PropOp34
 70
     1
102
RTVSPost2010Prop35
280
     0
102
RTVSPost2010PropOp35
 70
     1
102
RTVSPost2010Prop36
280
     0
102
RTVSPost2010PropOp36
 70
     1
102
RTVSPost2010Prop37
 90
       50
102
RTVSPost2010PropOp37
 70
     1
102
RTVSPost2010Prop38
140
0.0
102
RTVSPost2010PropOp38
 70
     1
102
RTVSPost2010Prop39
140
1.0
102
RTVSPost2010PropOp39
 70
     1
102
RTVSPost2010Prop40
 90
        0
102
RTVSPost2010PropOp40
 70
     1
102
RTVSPost2010Prop41ColorIndex
 90
       18
102
RTVSPost2010Prop41ColorRGB
 90
        0
102
RTVSPost2010PropOp41
 70
     1
102
RTVSPost2010Prop42
 90
       50
102
RTVSPost2010PropOp42
 70
     1
102
RTVSPost2010Prop43
 90
        3
102
RTVSPost2010PropOp43
 70
     1
102
RTVSPost2010Prop44ColorIndex
 90
        5
102
RTVSPost2010Prop44ColorRGB
 90
      255
102
RTVSPost2010PropOp44
 70
     1
102
RTVSPost2010Prop45
280
     0
102
RTVSPost2010PropOp45
 70
     1
102
RTVSPost2010Prop46
 90
       50
102
RTVSPost2010PropOp46
 70
     1
102
RTVSPost2010Prop47
 90
       50
102
RTVSPost2010PropOp47
 70
     1
102
RTVSPost2010Prop48
 90
       50
102
RTVSPost2010PropOp48
 70
     1
102
RTVSPost2010Prop49
280
     0
102
RTVSPost2010PropOp49
 70
     1
102
RTVSPost2010Prop50
 90
       50
102
RTVSPost2010PropOp50
 70
     1
102
RTVSPost2010Prop51ColorIndex
 90
      256
102
RTVSPost2010Prop51ColorRGB
 90
-16777216
102
RTVSPost2010PropOp51
 70
     0
102
RTVSPost2010Prop52
140
1.0
102
RTVSPost2010PropOp52
 70
     0
102
RTVSPost2010Prop53
 90
        2
102
RTVSPost2010PropOp53
 70
     1
102
RTVSPost2010Prop54
  1
strokes_ogs.tif
102
RTVSPost2010PropOp54
 70
     1
102
RTVSPost2010Prop55
280
     0
102
RTVSPost2010PropOp55
 70
     1
102
RTVSPost2010Prop56
140
1.0
102
RTVSPost2010PropOp56
 70
     1
102
RTVSPost2010Prop57
140
1.0
102
RTVSPost2010PropOp57
 70
     1
102
RTVSPropertyOp0
 70
     1
102
RTVSPropertyOp1
 70
     1
102
RTVSPropertyOp2
 70
     1
102
RTVSPropertyOp3
 70
     1
102
RTVSPropertyOp4
 70
     1
102
RTVSPropertyOp5
 70
     1
102
RTVSPropertyOp6
 70
     1
102
RTVSPropertyOp7
 70
     1
102
RTVSPropertyOp8
 70
     1
102
RTVSPropertyOp9
 70
     1
102
RTVSPropertyOp10
 70
     1
102
RTVSPropertyOp11
 70
     1
102
RTVSPropertyOp12
 70
     1
102
RTVSPropertyOp13
 70
     1
102
RTVSPropertyOp14
 70
     1
102
RTVSPropertyOp15
 70
     1
102
RTVSPropertyOp16
 70
     1
102
RTVSPropertyOp17
 70
     1
102
RTVSPropertyOp18
 70
     1
102
RTVSPropertyOp19
 70
     1
102
RTVSPropertyOp20
 70
     1
102
RTVSPropertyOp21
 70
     1
102
RTVSPropertyOp22
 70
     1
102
RTVSPropertyOp23
 70
     1
102
RTVSPropertyOp24
 70
     1
102
RTVSPropertyOp25
 70
     1
102
RTVSPropertyOp26
 70
     1
102
RTVSPropertyOp27
 70
     1
102
RTVSPropertyOp28
 70
     1
102
RTVSPropertyOp29
 70
     1
102
RTVSPropertyOp30
 70
     1
102
RTVSPropertyOp31
 70
     1
102
RTVSPropertyOp32
 70
     1
102
RTVSPropertyOp33
 70
     1
102
RTVSPropertyOp34
 70
     1
102
RTVSPropertyOp35
 70
     1
102
RTVSPropertyOp36
 70
     1
102
RTVSPropertyOp37
 70
     1
102
RTVSPropertyOp38
 70
     1
102
RTVSPropertyOp39
 70
     1
102
RTVSPropertyOp40
 70
     1
102
RTVSPropertyOp41
 70
     1
102
RTVSPropertyOp42
 70
     1
102
RTVSPropertyOp43
 70
     1
102
RTVSPropertyOp44
 70
     1
102
RTVSPropertyOp45
 70
     1
102
RTVSPropertyOp46
 70
     1
102
RTVSPropertyOp47
 70
     1
102
RTVSPropertyOp48
 70
     1
102
RTVSPropertyOp49
 70
     1
102
RTVSPropertyOp50
 70
     1
102
RTVSPropertyOp51
 70
     0
102
RTVSPropertyOp52
 70
     0
102
RTVSPropertyOp53
 70
     1
102
RTVSPropertyOp54
 70
     1
102
RTVSPropertyOp55
 70
     1
102
RTVSPropertyOp56
 70
     1
102
RTVSPropertyOp57
 70
     1
102
RTVSPropertyOp58
 70
     1
102
RTVSPropertyOp59
 70
     1
102
RTVSPropertyOp60
 70
     1
102
RTVSPropertyOp61
 70
     1
102
RTVSPropertyOp62
 70
     1
  0
XRECORD
  5
A92F
102
{ACAD_REACTORS
330
A92E
102
}
330
A92E
100
AcDbXrecord
280
     1
102
RTVSPost2010Prop28
280
     0
102
RTVSPost2010PropOp28
 70
     1
102
RTVSPost2010Prop29
280
     1
102
RTVSPost2010PropOp29
 70
     1
102
RTVSPost2010Prop30
280
     1
102
RTVSPost2010PropOp30
 70
     1
102
RTVSPost2010Prop31
280
     0
102
RTVSPost2010PropOp31
 70
     1
102
RTVSPost2010Prop32
280
     0
102
RTVSPost2010PropOp32
 70
     1
102
RTVSPost2010Prop33
280
     0
102
RTVSPost2010PropOp33
 70
     1
102
RTVSPost2010Prop34
280
     0
102
RTVSPost2010PropOp34
 70
     1
102
RTVSPost2010Prop35
280
     0
102
RTVSPost2010PropOp35
 70
     1
102
RTVSPost2010Prop36
280
     0
102
RTVSPost2010PropOp36
 70
     1
102
RTVSPost2010Prop37
 90
       50
102
RTVSPost2010PropOp37
 70
     1
102
RTVSPost2010Prop38
140
0.0
102
RTVSPost2010PropOp38
 70
     1
102
RTVSPost2010Prop39
140
1.0
102
RTVSPost2010PropOp39
 70
     1
102
RTVSPost2010Prop40
 90
        0
102
RTVSPost2010PropOp40
 70
     1
102
RTVSPost2010Prop41ColorIndex
 90
       18
102
RTVSPost2010Prop41ColorRGB
 90
        0
102
RTVSPost2010PropOp41
 70
     1
102
RTVSPost2010Prop42
 90
       50
102
RTVSPost2010PropOp42
 70
     1
102
RTVSPost2010Prop43
 90
        3
102
RTVSPost2010PropOp43
 70
     1
102
RTVSPost2010Prop44ColorIndex
 90
        5
102
RTVSPost2010Prop44ColorRGB
 90
      255
102
RTVSPost2010PropOp44
 70
     1
102
RTVSPost2010Prop45
280
     0
102
RTVSPost2010PropOp45
 70
     1
102
RTVSPost2010Prop46
 90
       50
102
RTVSPost2010PropOp46
 70
     1
102
RTVSPost2010Prop47
 90
       50
102
RTVSPost2010PropOp47
 70
     1
102
RTVSPost2010Prop48
 90
       50
102
RTVSPost2010PropOp48
 70
     1
102
RTVSPost2010Prop49
280
     0
102
RTVSPost2010PropOp49
 70
     1
102
RTVSPost2010Prop50
 90
       50
102
RTVSPost2010PropOp50
 70
     1
102
RTVSPost2010Prop51ColorIndex
 90
      256
102
RTVSPost2010Prop51ColorRGB
 90
-16777216
102
RTVSPost2010PropOp51
 70
     0
102
RTVSPost2010Prop52
140
1.0
102
RTVSPost2010PropOp52
 70
     0
102
RTVSPost2010Prop53
 90
        2
102
RTVSPost2010PropOp53
 70
     1
102
RTVSPost2010Prop54
  1
strokes_ogs.tif
102
RTVSPost2010PropOp54
 70
     1
102
RTVSPost2010Prop55
280
     0
102
RTVSPost2010PropOp55
 70
     1
102
RTVSPost2010Prop56
140
1.0
102
RTVSPost2010PropOp56
 70
     1
102
RTVSPost2010Prop57
140
1.0
102
RTVSPost2010PropOp57
 70
     1
102
RTVSPropertyOp0
 70
     1
102
RTVSPropertyOp1
 70
     1
102
RTVSPropertyOp2
 70
     1
102
RTVSPropertyOp3
 70
     1
102
RTVSPropertyOp4
 70
     1
102
RTVSPropertyOp5
 70
     1
102
RTVSPropertyOp6
 70
     1
102
RTVSPropertyOp7
 70
     1
102
RTVSPropertyOp8
 70
     1
102
RTVSPropertyOp9
 70
     1
102
RTVSPropertyOp10
 70
     1
102
RTVSPropertyOp11
 70
     1
102
RTVSPropertyOp12
 70
     1
102
RTVSPropertyOp13
 70
     1
102
RTVSPropertyOp14
 70
     1
102
RTVSPropertyOp15
 70
     1
102
RTVSPropertyOp16
 70
     1
102
RTVSPropertyOp17
 70
     1
102
RTVSPropertyOp18
 70
     1
102
RTVSPropertyOp19
 70
     1
102
RTVSPropertyOp20
 70
     1
102
RTVSPropertyOp21
 70
     1
102
RTVSPropertyOp22
 70
     1
102
RTVSPropertyOp23
 70
     1
102
RTVSPropertyOp24
 70
     1
102
RTVSPropertyOp25
 70
     1
102
RTVSPropertyOp26
 70
     1
102
RTVSPropertyOp27
 70
     1
102
RTVSPropertyOp28
 70
     1
102
RTVSPropertyOp29
 70
     1
102
RTVSPropertyOp30
 70
     1
102
RTVSPropertyOp31
 70
     1
102
RTVSPropertyOp32
 70
     1
102
RTVSPropertyOp33
 70
     1
102
RTVSPropertyOp34
 70
     1
102
RTVSPropertyOp35
 70
     1
102
RTVSPropertyOp36
 70
     1
102
RTVSPropertyOp37
 70
     1
102
RTVSPropertyOp38
 70
     1
102
RTVSPropertyOp39
 70
     1
102
RTVSPropertyOp40
 70
     1
102
RTVSPropertyOp41
 70
     1
102
RTVSPropertyOp42
 70
     1
102
RTVSPropertyOp43
 70
     1
102
RTVSPropertyOp44
 70
     1
102
RTVSPropertyOp45
 70
     1
102
RTVSPropertyOp46
 70
     1
102
RTVSPropertyOp47
 70
     1
102
RTVSPropertyOp48
 70
     1
102
RTVSPropertyOp49
 70
     1
102
RTVSPropertyOp50
 70
     1
102
RTVSPropertyOp51
 70
     0
102
RTVSPropertyOp52
 70
     0
102
RTVSPropertyOp53
 70
     1
102
RTVSPropertyOp54
 70
     1
102
RTVSPropertyOp55
 70
     1
102
RTVSPropertyOp56
 70
     1
102
RTVSPropertyOp57
 70
     1
102
RTVSPropertyOp58
 70
     1
102
RTVSPropertyOp59
 70
     1
102
RTVSPropertyOp60
 70
     1
102
RTVSPropertyOp61
 70
     1
102
RTVSPropertyOp62
 70
     1
  0
XRECORD
  5
A931
102
{ACAD_REACTORS
330
A930
102
}
330
A930
100
AcDbXrecord
280
     1
102
RTVSPost2010Prop28
280
     0
102
RTVSPost2010PropOp28
 70
     1
102
RTVSPost2010Prop29
280
     1
102
RTVSPost2010PropOp29
 70
     1
102
RTVSPost2010Prop30
280
     1
102
RTVSPost2010PropOp30
 70
     1
102
RTVSPost2010Prop31
280
     0
102
RTVSPost2010PropOp31
 70
     1
102
RTVSPost2010Prop32
280
     0
102
RTVSPost2010PropOp32
 70
     1
102
RTVSPost2010Prop33
280
     0
102
RTVSPost2010PropOp33
 70
     1
102
RTVSPost2010Prop34
280
     0
102
RTVSPost2010PropOp34
 70
     1
102
RTVSPost2010Prop35
280
     0
102
RTVSPost2010PropOp35
 70
     1
102
RTVSPost2010Prop36
280
     0
102
RTVSPost2010PropOp36
 70
     1
102
RTVSPost2010Prop37
 90
       50
102
RTVSPost2010PropOp37
 70
     1
102
RTVSPost2010Prop38
140
0.0
102
RTVSPost2010PropOp38
 70
     1
102
RTVSPost2010Prop39
140
1.0
102
RTVSPost2010PropOp39
 70
     1
102
RTVSPost2010Prop40
 90
        0
102
RTVSPost2010PropOp40
 70
     1
102
RTVSPost2010Prop41ColorIndex
 90
       18
102
RTVSPost2010Prop41ColorRGB
 90
        0
102
RTVSPost2010PropOp41
 70
     1
102
RTVSPost2010Prop42
 90
       50
102
RTVSPost2010PropOp42
 70
     1
102
RTVSPost2010Prop43
 90
        3
102
RTVSPost2010PropOp43
 70
     1
102
RTVSPost2010Prop44ColorIndex
 90
        5
102
RTVSPost2010Prop44ColorRGB
 90
      255
102
RTVSPost2010PropOp44
 70
     1
102
RTVSPost2010Prop45
280
     0
102
RTVSPost2010PropOp45
 70
     1
102
RTVSPost2010Prop46
 90
       50
102
RTVSPost2010PropOp46
 70
     1
102
RTVSPost2010Prop47
 90
       50
102
RTVSPost2010PropOp47
 70
     1
102
RTVSPost2010Prop48
 90
       50
102
RTVSPost2010PropOp48
 70
     1
102
RTVSPost2010Prop49
280
     0
102
RTVSPost2010PropOp49
 70
     1
102
RTVSPost2010Prop50
 90
       50
102
RTVSPost2010PropOp50
 70
     1
102
RTVSPost2010Prop51ColorIndex
 90
      256
102
RTVSPost2010Prop51ColorRGB
 90
-16777216
102
RTVSPost2010PropOp51
 70
     0
102
RTVSPost2010Prop52
140
1.0
102
RTVSPost2010PropOp52
 70
     0
102
RTVSPost2010Prop53
 90
        2
102
RTVSPost2010PropOp53
 70
     1
102
RTVSPost2010Prop54
  1
strokes_ogs.tif
102
RTVSPost2010PropOp54
 70
     1
102
RTVSPost2010Prop55
280
     0
102
RTVSPost2010PropOp55
 70
     1
102
RTVSPost2010Prop56
140
1.0
102
RTVSPost2010PropOp56
 70
     1
102
RTVSPost2010Prop57
140
1.0
102
RTVSPost2010PropOp57
 70
     1
102
RTVSPropertyOp0
 70
     1
102
RTVSPropertyOp1
 70
     1
102
RTVSPropertyOp2
 70
     1
102
RTVSPropertyOp3
 70
     1
102
RTVSPropertyOp4
 70
     1
102
RTVSPropertyOp5
 70
     1
102
RTVSPropertyOp6
 70
     1
102
RTVSPropertyOp7
 70
     1
102
RTVSPropertyOp8
 70
     1
102
RTVSPropertyOp9
 70
     1
102
RTVSPropertyOp10
 70
     1
102
RTVSPropertyOp11
 70
     1
102
RTVSPropertyOp12
 70
     1
102
RTVSPropertyOp13
 70
     1
102
RTVSPropertyOp14
 70
     1
102
RTVSPropertyOp15
 70
     1
102
RTVSPropertyOp16
 70
     1
102
RTVSPropertyOp17
 70
     1
102
RTVSPropertyOp18
 70
     1
102
RTVSPropertyOp19
 70
     1
102
RTVSPropertyOp20
 70
     1
102
RTVSPropertyOp21
 70
     1
102
RTVSPropertyOp22
 70
     1
102
RTVSPropertyOp23
 70
     1
102
RTVSPropertyOp24
 70
     1
102
RTVSPropertyOp25
 70
     1
102
RTVSPropertyOp26
 70
     1
102
RTVSPropertyOp27
 70
     1
102
RTVSPropertyOp28
 70
     1
102
RTVSPropertyOp29
 70
     1
102
RTVSPropertyOp30
 70
     1
102
RTVSPropertyOp31
 70
     1
102
RTVSPropertyOp32
 70
     1
102
RTVSPropertyOp33
 70
     1
102
RTVSPropertyOp34
 70
     1
102
RTVSPropertyOp35
 70
     1
102
RTVSPropertyOp36
 70
     1
102
RTVSPropertyOp37
 70
     1
102
RTVSPropertyOp38
 70
     1
102
RTVSPropertyOp39
 70
     1
102
RTVSPropertyOp40
 70
     1
102
RTVSPropertyOp41
 70
     1
102
RTVSPropertyOp42
 70
     1
102
RTVSPropertyOp43
 70
     1
102
RTVSPropertyOp44
 70
     1
102
RTVSPropertyOp45
 70
     1
102
RTVSPropertyOp46
 70
     1
102
RTVSPropertyOp47
 70
     1
102
RTVSPropertyOp48
 70
     1
102
RTVSPropertyOp49
 70
     1
102
RTVSPropertyOp50
 70
     1
102
RTVSPropertyOp51
 70
     0
102
RTVSPropertyOp52
 70
     0
102
RTVSPropertyOp53
 70
     1
102
RTVSPropertyOp54
 70
     1
102
RTVSPropertyOp55
 70
     1
102
RTVSPropertyOp56
 70
     1
102
RTVSPropertyOp57
 70
     1
102
RTVSPropertyOp58
 70
     1
102
RTVSPropertyOp59
 70
     1
102
RTVSPropertyOp60
 70
     1
102
RTVSPropertyOp61
 70
     1
102
RTVSPropertyOp62
 70
     1
  0
XRECORD
  5
A927
102
{ACAD_REACTORS
330
A926
102
}
330
A926
100
AcDbXrecord
280
     1
102
RTVSPost2010Prop28
280
     0
102
RTVSPost2010PropOp28
 70
     1
102
RTVSPost2010Prop29
280
     1
102
RTVSPost2010PropOp29
 70
     1
102
RTVSPost2010Prop30
280
     1
102
RTVSPost2010PropOp30
 70
     1
102
RTVSPost2010Prop31
280
     0
102
RTVSPost2010PropOp31
 70
     1
102
RTVSPost2010Prop32
280
     0
102
RTVSPost2010PropOp32
 70
     1
102
RTVSPost2010Prop33
280
     0
102
RTVSPost2010PropOp33
 70
     1
102
RTVSPost2010Prop34
280
     0
102
RTVSPost2010PropOp34
 70
     1
102
RTVSPost2010Prop35
280
     0
102
RTVSPost2010PropOp35
 70
     1
102
RTVSPost2010Prop36
280
     0
102
RTVSPost2010PropOp36
 70
     1
102
RTVSPost2010Prop37
 90
       50
102
RTVSPost2010PropOp37
 70
     1
102
RTVSPost2010Prop38
140
0.0
102
RTVSPost2010PropOp38
 70
     1
102
RTVSPost2010Prop39
140
1.0
102
RTVSPost2010PropOp39
 70
     1
102
RTVSPost2010Prop40
 90
        0
102
RTVSPost2010PropOp40
 70
     1
102
RTVSPost2010Prop41ColorIndex
 90
       18
102
RTVSPost2010Prop41ColorRGB
 90
        0
102
RTVSPost2010PropOp41
 70
     1
102
RTVSPost2010Prop42
 90
       50
102
RTVSPost2010PropOp42
 70
     1
102
RTVSPost2010Prop43
 90
        3
102
RTVSPost2010PropOp43
 70
     1
102
RTVSPost2010Prop44ColorIndex
 90
        5
102
RTVSPost2010Prop44ColorRGB
 90
      255
102
RTVSPost2010PropOp44
 70
     1
102
RTVSPost2010Prop45
280
     0
102
RTVSPost2010PropOp45
 70
     1
102
RTVSPost2010Prop46
 90
       50
102
RTVSPost2010PropOp46
 70
     1
102
RTVSPost2010Prop47
 90
       50
102
RTVSPost2010PropOp47
 70
     1
102
RTVSPost2010Prop48
 90
       50
102
RTVSPost2010PropOp48
 70
     1
102
RTVSPost2010Prop49
280
     0
102
RTVSPost2010PropOp49
 70
     1
102
RTVSPost2010Prop50
 90
       50
102
RTVSPost2010PropOp50
 70
     1
102
RTVSPost2010Prop51ColorIndex
 90
      256
102
RTVSPost2010Prop51ColorRGB
 90
-16777216
102
RTVSPost2010PropOp51
 70
     0
102
RTVSPost2010Prop52
140
1.0
102
RTVSPost2010PropOp52
 70
     0
102
RTVSPost2010Prop53
 90
        2
102
RTVSPost2010PropOp53
 70
     1
102
RTVSPost2010Prop54
  1
strokes_ogs.tif
102
RTVSPost2010PropOp54
 70
     1
102
RTVSPost2010Prop55
280
     0
102
RTVSPost2010PropOp55
 70
     1
102
RTVSPost2010Prop56
140
1.0
102
RTVSPost2010PropOp56
 70
     1
102
RTVSPost2010Prop57
140
1.0
102
RTVSPost2010PropOp57
 70
     1
102
RTVSPropertyOp0
 70
     1
102
RTVSPropertyOp1
 70
     1
102
RTVSPropertyOp2
 70
     1
102
RTVSPropertyOp3
 70
     1
102
RTVSPropertyOp4
 70
     1
102
RTVSPropertyOp5
 70
     1
102
RTVSPropertyOp6
 70
     1
102
RTVSPropertyOp7
 70
     1
102
RTVSPropertyOp8
 70
     1
102
RTVSPropertyOp9
 70
     1
102
RTVSPropertyOp10
 70
     1
102
RTVSPropertyOp11
 70
     1
102
RTVSPropertyOp12
 70
     1
102
RTVSPropertyOp13
 70
     1
102
RTVSPropertyOp14
 70
     1
102
RTVSPropertyOp15
 70
     1
102
RTVSPropertyOp16
 70
     1
102
RTVSPropertyOp17
 70
     1
102
RTVSPropertyOp18
 70
     1
102
RTVSPropertyOp19
 70
     1
102
RTVSPropertyOp20
 70
     1
102
RTVSPropertyOp21
 70
     1
102
RTVSPropertyOp22
 70
     1
102
RTVSPropertyOp23
 70
     1
102
RTVSPropertyOp24
 70
     1
102
RTVSPropertyOp25
 70
     1
102
RTVSPropertyOp26
 70
     1
102
RTVSPropertyOp27
 70
     1
102
RTVSPropertyOp28
 70
     1
102
RTVSPropertyOp29
 70
     1
102
RTVSPropertyOp30
 70
     1
102
RTVSPropertyOp31
 70
     1
102
RTVSPropertyOp32
 70
     1
102
RTVSPropertyOp33
 70
     1
102
RTVSPropertyOp34
 70
     1
102
RTVSPropertyOp35
 70
     1
102
RTVSPropertyOp36
 70
     1
102
RTVSPropertyOp37
 70
     1
102
RTVSPropertyOp38
 70
     1
102
RTVSPropertyOp39
 70
     1
102
RTVSPropertyOp40
 70
     1
102
RTVSPropertyOp41
 70
     1
102
RTVSPropertyOp42
 70
     1
102
RTVSPropertyOp43
 70
     1
102
RTVSPropertyOp44
 70
     1
102
RTVSPropertyOp45
 70
     1
102
RTVSPropertyOp46
 70
     1
102
RTVSPropertyOp47
 70
     1
102
RTVSPropertyOp48
 70
     1
102
RTVSPropertyOp49
 70
     1
102
RTVSPropertyOp50
 70
     1
102
RTVSPropertyOp51
 70
     0
102
RTVSPropertyOp52
 70
     0
102
RTVSPropertyOp53
 70
     1
102
RTVSPropertyOp54
 70
     1
102
RTVSPropertyOp55
 70
     1
102
RTVSPropertyOp56
 70
     1
102
RTVSPropertyOp57
 70
     1
102
RTVSPropertyOp58
 70
     1
102
RTVSPropertyOp59
 70
     1
102
RTVSPropertyOp60
 70
     1
102
RTVSPropertyOp61
 70
     1
102
RTVSPropertyOp62
 70
     1
  0
XRECORD
  5
A91B
102
{ACAD_REACTORS
330
A91A
102
}
330
A91A
100
AcDbXrecord
280
     1
102
RTVSPost2010Prop28
280
     0
102
RTVSPost2010PropOp28
 70
     1
102
RTVSPost2010Prop29
280
     1
102
RTVSPost2010PropOp29
 70
     1
102
RTVSPost2010Prop30
280
     1
102
RTVSPost2010PropOp30
 70
     1
102
RTVSPost2010Prop31
280
     0
102
RTVSPost2010PropOp31
 70
     1
102
RTVSPost2010Prop32
280
     0
102
RTVSPost2010PropOp32
 70
     1
102
RTVSPost2010Prop33
280
     0
102
RTVSPost2010PropOp33
 70
     1
102
RTVSPost2010Prop34
280
     0
102
RTVSPost2010PropOp34
 70
     1
102
RTVSPost2010Prop35
280
     0
102
RTVSPost2010PropOp35
 70
     1
102
RTVSPost2010Prop36
280
     0
102
RTVSPost2010PropOp36
 70
     1
102
RTVSPost2010Prop37
 90
       50
102
RTVSPost2010PropOp37
 70
     1
102
RTVSPost2010Prop38
140
0.0
102
RTVSPost2010PropOp38
 70
     1
102
RTVSPost2010Prop39
140
1.0
102
RTVSPost2010PropOp39
 70
     1
102
RTVSPost2010Prop40
 90
        0
102
RTVSPost2010PropOp40
 70
     1
102
RTVSPost2010Prop41ColorIndex
 90
       18
102
RTVSPost2010Prop41ColorRGB
 90
        0
102
RTVSPost2010PropOp41
 70
     1
102
RTVSPost2010Prop42
 90
       50
102
RTVSPost2010PropOp42
 70
     1
102
RTVSPost2010Prop43
 90
        3
102
RTVSPost2010PropOp43
 70
     1
102
RTVSPost2010Prop44ColorIndex
 90
        5
102
RTVSPost2010Prop44ColorRGB
 90
      255
102
RTVSPost2010PropOp44
 70
     1
102
RTVSPost2010Prop45
280
     0
102
RTVSPost2010PropOp45
 70
     1
102
RTVSPost2010Prop46
 90
       50
102
RTVSPost2010PropOp46
 70
     1
102
RTVSPost2010Prop47
 90
       50
102
RTVSPost2010PropOp47
 70
     1
102
RTVSPost2010Prop48
 90
       50
102
RTVSPost2010PropOp48
 70
     1
102
RTVSPost2010Prop49
280
     0
102
RTVSPost2010PropOp49
 70
     1
102
RTVSPost2010Prop50
 90
       50
102
RTVSPost2010PropOp50
 70
     1
102
RTVSPost2010Prop51ColorIndex
 90
      256
102
RTVSPost2010Prop51ColorRGB
 90
-16777216
102
RTVSPost2010PropOp51
 70
     0
102
RTVSPost2010Prop52
140
1.0
102
RTVSPost2010PropOp52
 70
     0
102
RTVSPost2010Prop53
 90
        2
102
RTVSPost2010PropOp53
 70
     1
102
RTVSPost2010Prop54
  1
strokes_ogs.tif
102
RTVSPost2010PropOp54
 70
     1
102
RTVSPost2010Prop55
280
     0
102
RTVSPost2010PropOp55
 70
     1
102
RTVSPost2010Prop56
140
1.0
102
RTVSPost2010PropOp56
 70
     1
102
RTVSPost2010Prop57
140
1.0
102
RTVSPost2010PropOp57
 70
     1
102
RTVSPropertyOp0
 70
     1
102
RTVSPropertyOp1
 70
     1
102
RTVSPropertyOp2
 70
     1
102
RTVSPropertyOp3
 70
     1
102
RTVSPropertyOp4
 70
     1
102
RTVSPropertyOp5
 70
     1
102
RTVSPropertyOp6
 70
     1
102
RTVSPropertyOp7
 70
     1
102
RTVSPropertyOp8
 70
     1
102
RTVSPropertyOp9
 70
     1
102
RTVSPropertyOp10
 70
     1
102
RTVSPropertyOp11
 70
     1
102
RTVSPropertyOp12
 70
     1
102
RTVSPropertyOp13
 70
     1
102
RTVSPropertyOp14
 70
     1
102
RTVSPropertyOp15
 70
     1
102
RTVSPropertyOp16
 70
     1
102
RTVSPropertyOp17
 70
     1
102
RTVSPropertyOp18
 70
     1
102
RTVSPropertyOp19
 70
     1
102
RTVSPropertyOp20
 70
     1
102
RTVSPropertyOp21
 70
     1
102
RTVSPropertyOp22
 70
     1
102
RTVSPropertyOp23
 70
     1
102
RTVSPropertyOp24
 70
     1
102
RTVSPropertyOp25
 70
     1
102
RTVSPropertyOp26
 70
     1
102
RTVSPropertyOp27
 70
     1
102
RTVSPropertyOp28
 70
     1
102
RTVSPropertyOp29
 70
     1
102
RTVSPropertyOp30
 70
     1
102
RTVSPropertyOp31
 70
     1
102
RTVSPropertyOp32
 70
     1
102
RTVSPropertyOp33
 70
     1
102
RTVSPropertyOp34
 70
     1
102
RTVSPropertyOp35
 70
     1
102
RTVSPropertyOp36
 70
     1
102
RTVSPropertyOp37
 70
     1
102
RTVSPropertyOp38
 70
     1
102
RTVSPropertyOp39
 70
     1
102
RTVSPropertyOp40
 70
     1
102
RTVSPropertyOp41
 70
     1
102
RTVSPropertyOp42
 70
     1
102
RTVSPropertyOp43
 70
     1
102
RTVSPropertyOp44
 70
     1
102
RTVSPropertyOp45
 70
     1
102
RTVSPropertyOp46
 70
     1
102
RTVSPropertyOp47
 70
     1
102
RTVSPropertyOp48
 70
     1
102
RTVSPropertyOp49
 70
     1
102
RTVSPropertyOp50
 70
     1
102
RTVSPropertyOp51
 70
     0
102
RTVSPropertyOp52
 70
     0
102
RTVSPropertyOp53
 70
     1
102
RTVSPropertyOp54
 70
     1
102
RTVSPropertyOp55
 70
     1
102
RTVSPropertyOp56
 70
     1
102
RTVSPropertyOp57
 70
     1
102
RTVSPropertyOp58
 70
     1
102
RTVSPropertyOp59
 70
     1
102
RTVSPropertyOp60
 70
     1
102
RTVSPropertyOp61
 70
     1
102
RTVSPropertyOp62
 70
     1
  0
XRECORD
  5
A933
102
{ACAD_REACTORS
330
A932
102
}
330
A932
100
AcDbXrecord
280
     1
102
RTVSPost2010Prop28
280
     0
102
RTVSPost2010PropOp28
 70
     1
102
RTVSPost2010Prop29
280
     1
102
RTVSPost2010PropOp29
 70
     1
102
RTVSPost2010Prop30
280
     1
102
RTVSPost2010PropOp30
 70
     1
102
RTVSPost2010Prop31
280
     0
102
RTVSPost2010PropOp31
 70
     1
102
RTVSPost2010Prop32
280
     0
102
RTVSPost2010PropOp32
 70
     1
102
RTVSPost2010Prop33
280
     0
102
RTVSPost2010PropOp33
 70
     1
102
RTVSPost2010Prop34
280
     0
102
RTVSPost2010PropOp34
 70
     1
102
RTVSPost2010Prop35
280
     0
102
RTVSPost2010PropOp35
 70
     1
102
RTVSPost2010Prop36
280
     0
102
RTVSPost2010PropOp36
 70
     1
102
RTVSPost2010Prop37
 90
       50
102
RTVSPost2010PropOp37
 70
     1
102
RTVSPost2010Prop38
140
0.0
102
RTVSPost2010PropOp38
 70
     1
102
RTVSPost2010Prop39
140
1.0
102
RTVSPost2010PropOp39
 70
     1
102
RTVSPost2010Prop40
 90
        0
102
RTVSPost2010PropOp40
 70
     1
102
RTVSPost2010Prop41ColorIndex
 90
       18
102
RTVSPost2010Prop41ColorRGB
 90
        0
102
RTVSPost2010PropOp41
 70
     1
102
RTVSPost2010Prop42
 90
       50
102
RTVSPost2010PropOp42
 70
     1
102
RTVSPost2010Prop43
 90
        3
102
RTVSPost2010PropOp43
 70
     1
102
RTVSPost2010Prop44ColorIndex
 90
        5
102
RTVSPost2010Prop44ColorRGB
 90
      255
102
RTVSPost2010PropOp44
 70
     1
102
RTVSPost2010Prop45
280
     0
102
RTVSPost2010PropOp45
 70
     1
102
RTVSPost2010Prop46
 90
       50
102
RTVSPost2010PropOp46
 70
     1
102
RTVSPost2010Prop47
 90
       50
102
RTVSPost2010PropOp47
 70
     1
102
RTVSPost2010Prop48
 90
       50
102
RTVSPost2010PropOp48
 70
     1
102
RTVSPost2010Prop49
280
     0
102
RTVSPost2010PropOp49
 70
     1
102
RTVSPost2010Prop50
 90
       50
102
RTVSPost2010PropOp50
 70
     1
102
RTVSPost2010Prop51ColorIndex
 90
      256
102
RTVSPost2010Prop51ColorRGB
 90
-16777216
102
RTVSPost2010PropOp51
 70
     0
102
RTVSPost2010Prop52
140
1.0
102
RTVSPost2010PropOp52
 70
     0
102
RTVSPost2010Prop53
 90
        2
102
RTVSPost2010PropOp53
 70
     1
102
RTVSPost2010Prop54
  1
strokes_ogs.tif
102
RTVSPost2010PropOp54
 70
     1
102
RTVSPost2010Prop55
280
     0
102
RTVSPost2010PropOp55
 70
     1
102
RTVSPost2010Prop56
140
1.0
102
RTVSPost2010PropOp56
 70
     1
102
RTVSPost2010Prop57
140
1.0
102
RTVSPost2010PropOp57
 70
     1
102
RTVSPropertyOp0
 70
     1
102
RTVSPropertyOp1
 70
     1
102
RTVSPropertyOp2
 70
     1
102
RTVSPropertyOp3
 70
     1
102
RTVSPropertyOp4
 70
     1
102
RTVSPropertyOp5
 70
     1
102
RTVSPropertyOp6
 70
     1
102
RTVSPropertyOp7
 70
     1
102
RTVSPropertyOp8
 70
     1
102
RTVSPropertyOp9
 70
     1
102
RTVSPropertyOp10
 70
     1
102
RTVSPropertyOp11
 70
     1
102
RTVSPropertyOp12
 70
     1
102
RTVSPropertyOp13
 70
     1
102
RTVSPropertyOp14
 70
     1
102
RTVSPropertyOp15
 70
     1
102
RTVSPropertyOp16
 70
     1
102
RTVSPropertyOp17
 70
     1
102
RTVSPropertyOp18
 70
     1
102
RTVSPropertyOp19
 70
     1
102
RTVSPropertyOp20
 70
     1
102
RTVSPropertyOp21
 70
     1
102
RTVSPropertyOp22
 70
     1
102
RTVSPropertyOp23
 70
     1
102
RTVSPropertyOp24
 70
     1
102
RTVSPropertyOp25
 70
     1
102
RTVSPropertyOp26
 70
     1
102
RTVSPropertyOp27
 70
     1
102
RTVSPropertyOp28
 70
     1
102
RTVSPropertyOp29
 70
     1
102
RTVSPropertyOp30
 70
     1
102
RTVSPropertyOp31
 70
     1
102
RTVSPropertyOp32
 70
     1
102
RTVSPropertyOp33
 70
     1
102
RTVSPropertyOp34
 70
     1
102
RTVSPropertyOp35
 70
     1
102
RTVSPropertyOp36
 70
     1
102
RTVSPropertyOp37
 70
     1
102
RTVSPropertyOp38
 70
     1
102
RTVSPropertyOp39
 70
     1
102
RTVSPropertyOp40
 70
     1
102
RTVSPropertyOp41
 70
     1
102
RTVSPropertyOp42
 70
     1
102
RTVSPropertyOp43
 70
     1
102
RTVSPropertyOp44
 70
     1
102
RTVSPropertyOp45
 70
     1
102
RTVSPropertyOp46
 70
     1
102
RTVSPropertyOp47
 70
     1
102
RTVSPropertyOp48
 70
     1
102
RTVSPropertyOp49
 70
     1
102
RTVSPropertyOp50
 70
     1
102
RTVSPropertyOp51
 70
     0
102
RTVSPropertyOp52
 70
     0
102
RTVSPropertyOp53
 70
     1
102
RTVSPropertyOp54
 70
     1
102
RTVSPropertyOp55
 70
     1
102
RTVSPropertyOp56
 70
     1
102
RTVSPropertyOp57
 70
     1
102
RTVSPropertyOp58
 70
     1
102
RTVSPropertyOp59
 70
     1
102
RTVSPropertyOp60
 70
     1
102
RTVSPropertyOp61
 70
     1
102
RTVSPropertyOp62
 70
     1
  0
ENDSEC
  0
EOF
