  0
SECTION
  2
HEADER
  9
$ACADVER
  1
AC1015
  9
$ACADMAINTVER
 70
    20
  9
$DWGCODEPAGE
  3
ANSI_932
  9
$INSBASE
 10
0.0
 20
0.0
 30
0.0
  9
$EXTMIN
 10
10.0
 20
9.999999999999998
 30
0.0
  9
$EXTMAX
 10
629.4849
 20
349.950418
 30
0.0
  9
$LIMMIN
 10
0.0
 20
0.0
  9
$LIMMAX
 10
673.2000000000001
 20
464.1
  9
$ORTHOMODE
 70
     0
  9
$REGENMODE
 70
     1
  9
$FILLMODE
 70
     1
  9
$QTEXTMODE
 70
     0
  9
$MIRRTEXT
 70
     1
  9
$LTSCALE
 40
20.0
  9
$ATTMODE
 70
     1
  9
$TEXTSIZE
 40
5.0
  9
$TRACEWID
 40
1.0
  9
$TEXTSTYLE
  7
STANDARD
  9
$CLAYER
  8
0
  9
$CELTYPE
  6
BYLAYER
  9
$CECOLOR
 62
   256
  9
$CELTSCALE
 40
1.0
  9
$DISPSILH
 70
     0
  9
$DIMSCALE
 40
1.0
  9
$DIMASZ
 40
2.5
  9
$DIMEXO
 40
1.0
  9
$DIMDLI
 40
10.0
  9
$DIMRND
 40
0.0
  9
$DIMDLE
 40
0.0
  9
$DIMEXE
 40
1.0
  9
$DIMTP
 40
0.0
  9
$DIMTM
 40
0.0
  9
$DIMTXT
 40
2.5
  9
$DIMCEN
 40
0.0
  9
$DIMTSZ
 40
0.0
  9
$DIMTOL
 70
     0
  9
$DIMLIM
 70
     0
  9
$DIMTIH
 70
     0
  9
$DIMTOH
 70
     0
  9
$DIMSE1
 70
     0
  9
$DIMSE2
 70
     0
  9
$DIMTAD
 70
     3
  9
$DIMZIN
 70
     8
  9
$DIMBLK
  1

  9
$DIMASO
 70
     1
  9
$DIMSHO
 70
     1
  9
$DIMPOST
  1

  9
$DIMAPOST
  1

  9
$DIMALT
 70
     0
  9
$DIMALTD
 70
     2
  9
$DIMALTF
 40
25.4
  9
$DIMLFAC
 40
1.0
  9
$DIMTOFL
 70
     1
  9
$DIMTVP
 40
0.0
  9
$DIMTIX
 70
     0
  9
$DIMSOXD
 70
     0
  9
$DIMSAH
 70
     1
  9
$DIMBLK1
  1
OPEN
  9
$DIMBLK2
  1
OPEN
  9
$DIMSTYLE
  2
STANDARD
  9
$DIMCLRD
 70
     0
  9
$DIMCLRE
 70
     0
  9
$DIMCLRT
 70
     0
  9
$DIMTFAC
 40
1.0
  9
$DIMGAP
 40
1.0
  9
$DIMJUST
 70
     0
  9
$DIMSD1
 70
     0
  9
$DIMSD2
 70
     0
  9
$DIMTOLJ
 70
     1
  9
$DIMTZIN
 70
     0
  9
$DIMALTZ
 70
     0
  9
$DIMALTTZ
 70
     0
  9
$DIMUPT
 70
     0
  9
$DIMDEC
 70
     4
  9
$DIMTDEC
 70
     4
  9
$DIMALTU
 70
     2
  9
$DIMALTTD
 70
     2
  9
$DIMTXSTY
  7
STANDARD
  9
$DIMAUNIT
 70
     0
  9
$DIMADEC
 70
     0
  9
$DIMALTRND
 40
0.0
  9
$DIMAZIN
 70
     0
  9
$DIMDSEP
 70
    46
  9
$DIMATFIT
 70
     3
  9
$DIMFRAC
 70
     0
  9
$DIMLDRBLK
  1
OPEN
  9
$DIMLUNIT
 70
     2
  9
$DIMLWD
 70
    -2
  9
$DIMLWE
 70
    -2
  9
$DIMTMOVE
 70
     0
  9
$LUNITS
 70
     2
  9
$LUPREC
 70
     4
  9
$SKETCHINC
 40
1.0
  9
$FILLETRAD
 40
0.0
  9
$AUNITS
 70
     0
  9
$AUPREC
 70
     2
  9
$MENU
  1
.
  9
$ELEVATION
 40
0.0
  9
$PELEVATION
 40
0.0
  9
$THICKNESS
 40
0.0
  9
$LIMCHECK
 70
     0
  9
$CHAMFERA
 40
0.5
  9
$CHAMFERB
 40
0.5
  9
$CHAMFERC
 40
0.0
  9
$CHAMFERD
 40
0.0
  9
$SKPOLY
 70
     0
  9
$TDCREATE
 40
2451368.491561459
  9
$TDUCREATE
 40
2451368.116561459
  9
$TDUPDATE
 40
2457192.642637431
  9
$TDUUPDATE
 40
2457192.267637431
  9
$TDINDWG
 40
0.0000159954
  9
$TDUSRTIMER
 40
0.0000156713
  9
$USRTIMER
 70
     1
  9
$ANGBASE
 50
0.0
  9
$ANGDIR
 70
     0
  9
$PDMODE
 70
     0
  9
$PDSIZE
 40
0.0
  9
$PLINEWID
 40
0.0
  9
$SPLFRAME
 70
     0
  9
$SPLINETYPE
 70
     6
  9
$SPLINESEGS
 70
     8
  9
$HANDSEED
  5
AF57
  9
$SURFTAB1
 70
     6
  9
$SURFTAB2
 70
     6
  9
$SURFTYPE
 70
     6
  9
$SURFU
 70
     6
  9
$SURFV
 70
     6
  9
$UCSBASE
  2

  9
$UCSNAME
  2

  9
$UCSORG
 10
0.0
 20
0.0
 30
0.0
  9
$UCSXDIR
 10
1.0
 20
0.0
 30
0.0
  9
$UCSYDIR
 10
0.0
 20
1.0
 30
0.0
  9
$UCSORTHOREF
  2

  9
$UCSORTHOVIEW
 70
     0
  9
$UCSORGTOP
 10
0.0
 20
0.0
 30
0.0
  9
$UCSORGBOTTOM
 10
0.0
 20
0.0
 30
0.0
  9
$UCSORGLEFT
 10
0.0
 20
0.0
 30
0.0
  9
$UCSORGRIGHT
 10
0.0
 20
0.0
 30
0.0
  9
$UCSORGFRONT
 10
0.0
 20
0.0
 30
0.0
  9
$UCSORGBACK
 10
0.0
 20
0.0
 30
0.0
  9
$PUCSBASE
  2

  9
$PUCSNAME
  2

  9
$PUCSORG
 10
0.0
 20
0.0
 30
0.0
  9
$PUCSXDIR
 10
1.0
 20
0.0
 30
0.0
  9
$PUCSYDIR
 10
0.0
 20
1.0
 30
0.0
  9
$PUCSORTHOREF
  2

  9
$PUCSORTHOVIEW
 70
     0
  9
$PUCSORGTOP
 10
0.0
 20
0.0
 30
0.0
  9
$PUCSORGBOTTOM
 10
0.0
 20
0.0
 30
0.0
  9
$PUCSORGLEFT
 10
0.0
 20
0.0
 30
0.0
  9
$PUCSORGRIGHT
 10
0.0
 20
0.0
 30
0.0
  9
$PUCSORGFRONT
 10
0.0
 20
0.0
 30
0.0
  9
$PUCSORGBACK
 10
0.0
 20
0.0
 30
0.0
  9
$USERI1
 70
     0
  9
$USERI2
 70
     0
  9
$USERI3
 70
     0
  9
$USERI4
 70
     0
  9
$USERI5
 70
     0
  9
$USERR1
 40
0.0
  9
$USERR2
 40
0.0
  9
$USERR3
 40
0.0
  9
$USERR4
 40
0.0
  9
$USERR5
 40
0.0
  9
$WORLDVIEW
 70
     1
  9
$SHADEDGE
 70
     3
  9
$SHADEDIF
 70
    70
  9
$TILEMODE
 70
     1
  9
$MAXACTVP
 70
    16
  9
$PINSBASE
 10
0.0
 20
0.0
 30
0.0
  9
$PLIMCHECK
 70
     0
  9
$PEXTMIN
 10
1.000000000000000E+20
 20
1.000000000000000E+20
 30
1.000000000000000E+20
  9
$PEXTMAX
 10
-1.000000000000000E+20
 20
-1.000000000000000E+20
 30
-1.000000000000000E+20
  9
$PLIMMIN
 10
0.0
 20
0.0
  9
$PLIMMAX
 10
420.0
 20
297.0
  9
$UNITMODE
 70
     0
  9
$VISRETAIN
 70
     0
  9
$PLINEGEN
 70
     0
  9
$PSLTSCALE
 70
     0
  9
$TREEDEPTH
 70
  3020
  9
$CMLSTYLE
  2
STANDARD
  9
$CMLJUST
 70
     0
  9
$CMLSCALE
 40
1.0
  9
$PROXYGRAPHICS
 70
     1
  9
$MEASUREMENT
 70
     0
  9
$CELWEIGHT
370
    -1
  9
$ENDCAPS
280
     0
  9
$JOINSTYLE
280
     0
  9
$LWDISPLAY
290
     0
  9
$INSUNITS
 70
     0
  9
$HYPERLINKBASE
  1

  9
$STYLESHEET
  1

  9
$XEDIT
290
     1
  9
$CEPSNTYPE
380
     0
  9
$PSTYLEMODE
290
     1
  9
$FINGERPRINTGUID
  2
{B5FD0262-4DA7-43D6-A32C-FE6A88934DAE}
  9
$VERSIONGUID
  2
{A7A454CC-6F5B-46DA-84E8-31A65B567004}
  9
$EXTNAMES
290
     1
  9
$PSVPSCALE
 40
0.0
  9
$OLESTARTUP
290
     0
  0
ENDSEC
  0
SECTION
  2
CLASSES
  0
CLASS
  1
ACDBDICTIONARYWDFLT
  2
AcDbDictionaryWithDefault
  3
ObjectDBX Classes
 90
        0
280
     0
281
     0
  0
CLASS
  1
ACDBPLACEHOLDER
  2
AcDbPlaceHolder
  3
ObjectDBX Classes
 90
        0
280
     0
281
     0
  0
CLASS
  1
LAYOUT
  2
AcDbLayout
  3
ObjectDBX Classes
 90
        0
280
     0
281
     0
  0
CLASS
  1
DICTIONARYVAR
  2
AcDbDictionaryVar
  3
ObjectDBX Classes
 90
        0
280
     0
281
     0
  0
CLASS
  1
MATERIAL
  2
AcDbMaterial
  3
ObjectDBX Classes
 90
     1153
280
     0
281
     0
  0
CLASS
  1
VISUALSTYLE
  2
AcDbVisualStyle
  3
ObjectDBX Classes
 90
     4095
280
     0
281
     0
  0
CLASS
  1
TABLESTYLE
  2
AcDbTableStyle
  3
ObjectDBX Classes
 90
     4095
280
     0
281
     0
  0
CLASS
  1
SCALE
  2
AcDbScale
  3
ObjectDBX Classes
 90
     1153
280
     0
281
     0
  0
CLASS
  1
MLEADERSTYLE
  2
AcDbMLeaderStyle
  3
ACDB_MLEADERSTYLE_CLASS
 90
     4095
280
     0
281
     0
  0
CLASS
  1
ACDBSECTIONVIEWSTYLE
  2
AcDbSectionViewStyle
  3
ObjectDBX Classes
 90
     1025
280
     0
281
     0
  0
CLASS
  1
ACDBDETAILVIEWSTYLE
  2
AcDbDetailViewStyle
  3
ObjectDBX Classes
 90
     1025
280
     0
281
     0
  0
CLASS
  1
CELLSTYLEMAP
  2
AcDbCellStyleMap
  3
ObjectDBX Classes
 90
     1152
280
     0
281
     0
  0
ENDSEC
  0
SECTION
  2
TABLES
  0
TABLE
  2
VPORT
  5
AC64
330
0
100
AcDbSymbolTable
 70
     1
  0
VPORT
  5
AEA0
330
AC64
100
AcDbSymbolTableRecord
100
AcDbViewportTableRecord
  2
*ACTIVE
 70
     0
 10
0.0
 20
0.0
 11
1.0
 21
1.0
 12
426.4179917342875
 22
179.9648035712011
 13
0.0
 23
0.0
 14
10.0
 24
10.0
 15
10.0
 25
10.0
 16
0.0
 26
0.0
 36
1.0
 17
0.0
 27
0.0
 37
0.0
 40
356.1037663636453
 41
1.899603698811096
 42
50.0
 43
0.0
 44
0.0
 50
0.0
 51
0.0
 71
     0
 72
   100
 73
     1
 74
     0
 75
     0
 76
     0
 77
     0
 78
     0
281
     0
 65
     1
110
0.0
120
0.0
130
0.0
111
1.0
121
0.0
131
0.0
112
0.0
122
1.0
132
0.0
 79
     0
146
0.0
1001
ACAD_NAV_VCDISPLAY
1070
     3
  0
ENDTAB
  0
TABLE
  2
LTYPE
  5
AC61
330
0
100
AcDbSymbolTable
 70
     4
  0
LTYPE
  5
AC6F
330
AC61
100
AcDbSymbolTableRecord
100
AcDbLinetypeTableRecord
  2
BYBLOCK
 70
     0
  3

 72
    65
 73
     0
 40
0.0
  0
LTYPE
  5
AC70
330
AC61
100
AcDbSymbolTableRecord
100
AcDbLinetypeTableRecord
  2
BYLAYER
 70
     0
  3

 72
    65
 73
     0
 40
0.0
  0
LTYPE
  5
AC71
330
AC61
100
AcDbSymbolTableRecord
100
AcDbLinetypeTableRecord
  2
CONTINUOUS
 70
     0
  3
Solid line
 72
    65
 73
     0
 40
0.0
  0
LTYPE
  5
AC7F
330
AC61
100
AcDbSymbolTableRecord
100
AcDbLinetypeTableRecord
  2
DASHED
 70
     0
  3
__ __ __ __ __ __ __ __ __ __ __ __ __ __ __ __
 72
    65
 73
     2
 40
0.75
 49
0.5
 74
     0
 49
-0.25
 74
     0
  0
LTYPE
  5
AC80
330
AC61
100
AcDbSymbolTableRecord
100
AcDbLinetypeTableRecord
  2
CENTER
 70
     0
  3
____ _ ____ _ ____ _ ____ _ ____ _ ____ _ ____ 
 72
    65
 73
     4
 40
2.0
 49
1.25
 74
     0
 49
-0.25
 74
     0
 49
0.25
 74
     0
 49
-0.25
 74
     0
  0
LTYPE
  5
AC81
330
AC61
100
AcDbSymbolTableRecord
100
AcDbLinetypeTableRecord
  2
PHANTOM
 70
     0
  3
______  __  __  ______  __  __  ______  __  __ 
 72
    65
 73
     6
 40
2.5
 49
1.25
 74
     0
 49
-0.25
 74
     0
 49
0.25
 74
     0
 49
-0.25
 74
     0
 49
0.25
 74
     0
 49
-0.25
 74
     0
  0
ENDTAB
  0
TABLE
  2
LAYER
  5
AC5E
330
0
100
AcDbSymbolTable
 70
     8
  0
LAYER
  5
AC6C
102
{ACAD_XDICTIONARY
360
AEFB
102
}
330
AC5E
100
AcDbSymbolTableRecord
100
AcDbLayerTableRecord
  2
0
 70
     0
 62
     7
  6
CONTINUOUS
370
    -3
390
AEA9
  0
LAYER
  5
AC82
102
{ACAD_XDICTIONARY
360
AEFD
102
}
330
AC5E
100
AcDbSymbolTableRecord
100
AcDbLayerTableRecord
  2
4
 70
     0
 62
     1
  6
CENTER
370
    -3
390
AEA9
  0
LAYER
  5
AC83
102
{ACAD_XDICTIONARY
360
AEFF
102
}
330
AC5E
100
AcDbSymbolTableRecord
100
AcDbLayerTableRecord
  2
5
 70
     0
 62
     6
  6
PHANTOM
370
    -3
390
AEA9
  0
LAYER
  5
AC84
102
{ACAD_XDICTIONARY
360
AF01
102
}
330
AC5E
100
AcDbSymbolTableRecord
100
AcDbLayerTableRecord
  2
1
 70
     0
 62
     7
  6
CONTINUOUS
370
    -3
390
AEA9
  0
LAYER
  5
AC85
102
{ACAD_XDICTIONARY
360
AF03
102
}
330
AC5E
100
AcDbSymbolTableRecord
100
AcDbLayerTableRecord
  2
2
 70
     0
 62
     4
  6
CONTINUOUS
370
    -3
390
AEA9
  0
LAYER
  5
AC86
102
{ACAD_XDICTIONARY
360
AF05
102
}
330
AC5E
100
AcDbSymbolTableRecord
100
AcDbLayerTableRecord
  2
3
 70
     0
 62
     2
  6
DASHED
370
    -3
390
AEA9
  0
LAYER
  5
AC87
102
{ACAD_XDICTIONARY
360
AF07
102
}
330
AC5E
100
AcDbSymbolTableRecord
100
AcDbLayerTableRecord
  2
6
 70
     0
 62
     5
  6
CONTINUOUS
370
    -3
390
AEA9
  0
LAYER
  5
AC88
102
{ACAD_XDICTIONARY
360
AF09
102
}
330
AC5E
100
AcDbSymbolTableRecord
100
AcDbLayerTableRecord
  2
7
 70
     0
 62
     3
  6
CONTINUOUS
370
    -3
390
AEA9
  0
ENDTAB
  0
TABLE
  2
STYLE
  5
AC5F
330
0
100
AcDbSymbolTable
 70
     1
  0
STYLE
  5
AC6D
330
AC5F
100
AcDbSymbolTableRecord
100
AcDbTextStyleTableRecord
  2
STANDARD
 70
     0
 40
0.0
 41
1.0
 50
0.0
 71
     0
 42
5.0
  3
txt
  4

  0
ENDTAB
  0
TABLE
  2
VIEW
  5
AC62
330
0
100
AcDbSymbolTable
 70
     0
  0
ENDTAB
  0
TABLE
  2
UCS
  5
AC63
330
0
100
AcDbSymbolTable
 70
     0
  0
ENDTAB
  0
TABLE
  2
APPID
  5
AC65
330
0
100
AcDbSymbolTable
 70
     3
  0
APPID
  5
AC6E
330
AC65
100
AcDbSymbolTableRecord
100
AcDbRegAppTableRecord
  2
ACAD
 70
     0
  0
APPID
  5
AF15
330
AC65
100
AcDbSymbolTableRecord
100
AcDbRegAppTableRecord
  2
ACAD_NAV_VCDISPLAY
 70
     0
  0
APPID
  5
AF4E
330
AC65
100
AcDbSymbolTableRecord
100
AcDbRegAppTableRecord
  2
ACAD_MLEADERVER
 70
     0
  0
ENDTAB
  0
TABLE
  2
DIMSTYLE
  5
AC66
330
0
100
AcDbSymbolTable
 70
     1
100
AcDbDimStyleTable
 71
     0
  0
DIMSTYLE
105
AC8A
330
AC66
100
AcDbSymbolTableRecord
100
AcDbDimStyleTableRecord
  2
STANDARD
 70
     0
 41
2.5
 42
1.0
 43
10.0
 44
1.0
 73
     0
 74
     0
 77
     3
 78
     8
140
2.5
141
0.0
147
1.0
172
     1
173
     1
284
     8
285
     8
286
     8
340
AC6D
  0
ENDTAB
  0
TABLE
  2
BLOCK_RECORD
  5
AC5D
330
0
100
AcDbSymbolTable
 70
     1
  0
BLOCK_RECORD
  5
AC7A
102
{ACAD_XDICTIONARY
360
AEA3
102
}
330
AC5D
100
AcDbSymbolTableRecord
100
AcDbBlockTableRecord
  2
*MODEL_SPACE
340
AEF7
  0
BLOCK_RECORD
  5
AC76
102
{ACAD_XDICTIONARY
360
AEA1
102
}
330
AC5D
100
AcDbSymbolTableRecord
100
AcDbBlockTableRecord
  2
*PAPER_SPACE
340
AEF8
  0
BLOCK_RECORD
  5
AC92
330
AC5D
100
AcDbSymbolTableRecord
100
AcDbBlockTableRecord
  2
_OPEN
340
0
  0
ENDTAB
  0
ENDSEC
  0
SECTION
  2
BLOCKS
  0
BLOCK
  5
AC7B
330
AC7A
100
AcDbEntity
  8
0
100
AcDbBlockBegin
  2
*MODEL_SPACE
 70
     0
 10
0.0
 20
0.0
 30
0.0
  3
*MODEL_SPACE
  1

  0
ENDBLK
  5
AC7C
330
AC7A
100
AcDbEntity
  8
0
100
AcDbBlockEnd
  0
BLOCK
  5
AC77
330
AC76
100
AcDbEntity
 67
     1
  8
0
100
AcDbBlockBegin
  2
*PAPER_SPACE
 70
     0
 10
0.0
 20
0.0
 30
0.0
  3
*PAPER_SPACE
  1

  0
ENDBLK
  5
AC78
330
AC76
100
AcDbEntity
 67
     1
  8
0
100
AcDbBlockEnd
  0
BLOCK
  5
AC93
330
AC92
100
AcDbEntity
  8
0
100
AcDbBlockBegin
  2
_OPEN
 70
     0
 10
0.0
 20
0.0
 30
0.0
  3
_OPEN
  1

  0
LINE
  5
AC94
330
AC92
100
AcDbEntity
  8
0
  6
ByBlock
 62
     0
100
AcDbLine
 10
-1.0
 20
0.166667
 30
0.0
 11
0.0
 21
0.0
 31
0.0
  0
LINE
  5
AC95
330
AC92
100
AcDbEntity
  8
0
  6
ByBlock
 62
     0
100
AcDbLine
 10
0.0
 20
0.0
 30
0.0
 11
-1.0
 21
-0.166667
 31
0.0
  0
LINE
  5
AC96
330
AC92
100
AcDbEntity
  8
0
  6
ByBlock
 62
     0
100
AcDbLine
 10
0.0
 20
0.0
 30
0.0
 11
-1.0
 21
0.0
 31
0.0
  0
ENDBLK
  5
AC97
330
AC92
100
AcDbEntity
  8
0
100
AcDbBlockEnd
  0
ENDSEC
  0
SECTION
  2
ENTITIES
  0
TEXT
  5
AC98
330
AC7A
100
AcDbEntity
  8
7
  6
Continuous
100
AcDbText
 10
10.0
 20
18.0
 30
0.0
 40
3.0
  1
TYPE No.THA-421-1
100
AcDbText
  0
TEXT
  5
AC99
330
AC7A
100
AcDbEntity
  8
7
  6
Continuous
100
AcDbText
 10
10.0
 20
26.0
 30
0.0
 40
3.0
  1
CODE No.3370
100
AcDbText
  0
TEXT
  5
AC9A
330
AC7A
100
AcDbEntity
  8
1
  6
Continuous
100
AcDbText
 10
10.0
 20
10.0
 30
0.0
 40
1.399999999999999
  1
LAYER
100
AcDbText
  0
TEXT
  5
AC9B
330
AC7A
100
AcDbEntity
  8
1
  6
Continuous
100
AcDbText
 10
17.97951099999998
 20
10.04873699999998
 30
0.0
 40
1.399999999999999
  1
1
100
AcDbText
  0
TEXT
  5
AC9C
330
AC7A
100
AcDbEntity
  8
7
  6
Continuous
100
AcDbText
 10
29.97951099999999
 20
10.04873699999998
 30
0.0
 40
1.399999999999999
  1
7
100
AcDbText
  0
TEXT
  5
AC9D
330
AC7A
100
AcDbEntity
  8
4
  6
CENTER
100
AcDbText
 10
23.97951099999999
 20
10.04873699999998
 30
0.0
 40
1.399999999999999
  1
4
100
AcDbText
  0
TEXT
  5
AC9E
330
AC7A
100
AcDbEntity
  8
3
  6
DASHED
100
AcDbText
 10
21.979511
 20
10.04873699999998
 30
0.0
 40
1.399999999999999
  1
3
100
AcDbText
  0
TEXT
  5
AC9F
330
AC7A
100
AcDbEntity
  8
2
  6
Continuous
100
AcDbText
 10
19.97951099999999
 20
10.04873699999998
 30
0.0
 40
1.399999999999999
  1
2
100
AcDbText
  0
TEXT
  5
ACA0
330
AC7A
100
AcDbEntity
  8
6
  6
Continuous
100
AcDbText
 10
27.979511
 20
10.04873699999998
 30
0.0
 40
1.399999999999999
  1
6
100
AcDbText
  0
TEXT
  5
ACA1
330
AC7A
100
AcDbEntity
  8
5
  6
PHANTOM
100
AcDbText
 10
25.97951099999999
 20
10.04873699999998
 30
0.0
 40
1.399999999999999
  1
5
100
AcDbText
  0
LINE
  5
ACA2
330
AC7A
100
AcDbEntity
  8
4
  6
CENTER
100
AcDbLine
 10
20.652964
 20
195.475209
 30
0.0
 11
94.42052399999999
 21
195.475209
 31
0.0
  0
CIRCLE
  5
ACA3
330
AC7A
100
AcDbEntity
  8
5
  6
PHANTOM
100
AcDbCircle
 10
47.0
 20
195.475209
 30
0.0
 40
17.0
  0
LINE
  5
ACA4
330
AC7A
100
AcDbEntity
  8
1
  6
Continuous
100
AcDbLine
 10
169.1999999999999
 20
212.4752089999998
 30
0.0
 11
169.1999999999999
 21
178.475209
 31
0.0
  0
LINE
  5
ACA5
330
AC7A
100
AcDbEntity
  8
1
  6
Continuous
100
AcDbLine
 10
170.6999999999998
 20
212.4752089999998
 30
0.0
 11
170.6999999999998
 21
178.475209
 31
0.0
  0
LINE
  5
ACA6
330
AC7A
100
AcDbEntity
  8
1
  6
Continuous
100
AcDbLine
 10
162.1999999999998
 20
179.275209
 30
0.0
 11
162.1999999999998
 21
211.6752089999998
 31
0.0
  0
LINE
  5
ACA7
330
AC7A
100
AcDbEntity
  8
1
  6
Continuous
100
AcDbLine
 10
171.6999999999998
 20
212.4752089999998
 30
0.0
 11
171.6999999999998
 21
178.475209
 31
0.0
  0
LINE
  5
ACA8
330
AC7A
100
AcDbEntity
  8
1
  6
Continuous
100
AcDbLine
 10
165.1999999999999
 20
178.475209
 30
0.0
 11
165.1999999999999
 21
212.4752089999998
 31
0.0
  0
LINE
  5
ACA9
330
AC7A
100
AcDbEntity
  8
4
  6
CENTER
100
AcDbLine
 10
158.0
 20
195.475209
 30
0.0
 11
238.2
 21
195.475209
 31
0.0
  0
LINE
  5
ACAA
330
AC7A
100
AcDbEntity
  8
4
  6
CENTER
100
AcDbLine
 10
158.0
 20
89.0
 30
0.0
 11
238.2
 21
89.0
 31
0.0
  0
LINE
  5
ACAB
330
AC7A
100
AcDbEntity
  8
2
  6
Continuous
100
AcDbLine
 10
220.1999999999999
 20
189.9299409999999
 30
0.0
 11
171.6999999999998
 21
200.4768229999998
 31
0.0
  0
LINE
  5
ACAC
330
AC7A
100
AcDbEntity
  8
2
  6
Continuous
100
AcDbLine
 10
171.6999999999998
 20
190.4735949999999
 30
0.0
 11
220.1999999999999
 21
201.020477
 31
0.0
  0
LINE
  5
ACAD
330
AC7A
100
AcDbEntity
  8
1
  6
Continuous
100
AcDbLine
 10
220.1999999999999
 20
189.9299409999999
 30
0.0
 11
171.6999999999998
 21
189.9299409999999
 31
0.0
  0
LINE
  5
ACAE
330
AC7A
100
AcDbEntity
  8
1
  6
Continuous
100
AcDbLine
 10
220.1999999999999
 20
201.020477
 30
0.0
 11
171.6999999999998
 21
201.020477
 31
0.0
  0
LINE
  5
ACAF
330
AC7A
100
AcDbEntity
  8
1
  6
Continuous
100
AcDbLine
 10
171.6999999999998
 20
98.50000000000001
 30
0.0
 11
221.1999999999999
 21
98.50000000000001
 31
0.0
  0
LINE
  5
ACB0
330
AC7A
100
AcDbEntity
  8
1
  6
Continuous
100
AcDbLine
 10
171.6999999999998
 20
79.5
 30
0.0
 11
221.1999999999999
 21
79.5
 31
0.0
  0
LINE
  5
ACB1
330
AC7A
100
AcDbEntity
  8
1
  6
Continuous
100
AcDbLine
 10
292.635711
 20
44.0
 30
0.0
 11
292.635711
 21
100.0
 31
0.0
  0
LINE
  5
ACB2
330
AC7A
100
AcDbEntity
  8
1
  6
Continuous
100
AcDbLine
 10
289.635711
 20
44.0
 30
0.0
 11
289.635711
 21
100.0
 31
0.0
  0
LINE
  5
ACB3
330
AC7A
100
AcDbEntity
  8
1
  6
Continuous
100
AcDbLine
 10
306.514114
 20
95.5
 30
0.0
 11
313.014114
 21
95.5
 31
0.0
  0
LINE
  5
ACB4
330
AC7A
100
AcDbEntity
  8
1
  6
Continuous
100
AcDbLine
 10
306.514114
 20
82.5
 30
0.0
 11
313.014114
 21
82.5
 31
0.0
  0
LINE
  5
ACB5
330
AC7A
100
AcDbEntity
  8
1
  6
Continuous
100
AcDbLine
 10
312.433558
 20
89.0
 30
0.0
 11
306.514114
 21
89.0
 31
0.0
  0
LINE
  5
ACB6
330
AC7A
100
AcDbEntity
  8
1
  6
Continuous
100
AcDbLine
 10
313.014114
 20
82.5
 30
0.0
 11
313.014114
 21
95.5
 31
0.0
  0
ARC
  5
ACB7
330
AC7A
100
AcDbEntity
  8
1
  6
Continuous
100
AcDbCircle
 10
303.626962
 20
92.24999999999999
 30
0.0
 40
9.387152
100
AcDbArc
 50
339.7438419999998
 51
20.256158
  0
ARC
  5
ACB8
330
AC7A
100
AcDbEntity
  8
1
  6
Continuous
100
AcDbCircle
 10
303.626962
 20
85.75000000000001
 30
0.0
 40
9.387152
100
AcDbArc
 50
339.7438419999998
 51
20.256158
  0
LINE
  5
ACB9
330
AC7A
100
AcDbEntity
  8
1
  6
Continuous
100
AcDbLine
 10
220.1999999999999
 20
98.50000000000001
 30
0.0
 11
220.1999999999999
 21
79.5
 31
0.0
  0
LINE
  5
ACBA
330
AC7A
100
AcDbEntity
  8
1
  6
Continuous
100
AcDbLine
 10
221.1999999999999
 20
98.50000000000001
 30
0.0
 11
221.1999999999999
 21
79.5
 31
0.0
  0
LINE
  5
ACBB
330
AC7A
100
AcDbEntity
  8
1
  6
Continuous
100
AcDbLine
 10
221.3999999999999
 20
79.5
 30
0.0
 11
221.3999999999999
 21
84.0
 31
0.0
  0
LINE
  5
ACBC
330
AC7A
100
AcDbEntity
  8
1
  6
Continuous
100
AcDbLine
 10
221.3999999999999
 20
81.29999999999999
 30
0.0
 11
221.1999999999999
 21
81.09999999999997
 31
0.0
  0
LINE
  5
ACBD
330
AC7A
100
AcDbEntity
  8
1
  6
Continuous
100
AcDbLine
 10
223.1999999999999
 20
94.0
 30
0.0
 11
223.1999999999999
 21
84.0
 31
0.0
  0
LINE
  5
ACBE
330
AC7A
100
AcDbEntity
  8
1
  6
Continuous
100
AcDbLine
 10
221.1999999999999
 20
94.0
 30
0.0
 11
223.1999999999999
 21
94.0
 31
0.0
  0
LINE
  5
ACBF
330
AC7A
100
AcDbEntity
  8
1
  6
Continuous
100
AcDbLine
 10
221.1999999999999
 20
84.0
 30
0.0
 11
223.3999999999999
 21
84.0
 31
0.0
  0
LINE
  5
ACC0
330
AC7A
100
AcDbEntity
  8
1
  6
Continuous
100
AcDbLine
 10
289.635711
 20
100.0
 30
0.0
 11
292.635711
 21
100.0
 31
0.0
  0
LINE
  5
ACC1
330
AC7A
100
AcDbEntity
  8
1
  6
Continuous
100
AcDbLine
 10
223.3999999999999
 20
96.90000000000001
 30
0.0
 11
221.3999999999999
 21
96.90000000000001
 31
0.0
  0
LINE
  5
ACC2
330
AC7A
100
AcDbEntity
  8
1
  6
Continuous
100
AcDbLine
 10
223.3999999999999
 20
97.66025400000003
 30
0.0
 11
221.3999999999999
 21
97.66025400000003
 31
0.0
  0
LINE
  5
ACC3
330
AC7A
100
AcDbEntity
  8
1
  6
Continuous
100
AcDbLine
 10
221.3999999999999
 20
94.0
 30
0.0
 11
221.3999999999999
 21
97.66025400000003
 31
0.0
  0
LINE
  5
ACC4
330
AC7A
100
AcDbEntity
  8
1
  6
Continuous
100
AcDbLine
 10
221.3999999999999
 20
96.70000000000001
 30
0.0
 11
221.1999999999999
 21
96.90000000000001
 31
0.0
  0
LINE
  5
ACC5
330
AC7A
100
AcDbEntity
  8
1
  6
Continuous
100
AcDbLine
 10
223.3999999999999
 20
79.5
 30
0.0
 11
221.3999999999999
 21
79.5
 31
0.0
  0
LINE
  5
ACC6
330
AC7A
100
AcDbEntity
  8
1
  6
Continuous
100
AcDbLine
 10
286.135711
 20
41.0
 30
0.0
 11
289.635711
 21
41.0
 31
0.0
  0
LINE
  5
ACC7
330
AC7A
100
AcDbEntity
  8
1
  6
Continuous
100
AcDbLine
 10
286.135711
 20
44.0
 30
0.0
 11
289.635711
 21
44.0
 31
0.0
  0
LINE
  5
ACC8
330
AC7A
100
AcDbEntity
  8
1
  6
Continuous
100
AcDbLine
 10
286.135711
 20
41.0
 30
0.0
 11
286.135711
 21
44.0
 31
0.0
  0
ARC
  5
ACC9
330
AC7A
100
AcDbEntity
  8
1
  6
Continuous
100
AcDbCircle
 10
289.635711
 20
44.0
 30
0.0
 40
3.0
100
AcDbArc
 50
270.0
 51
0.0
  0
LINE
  5
ACCA
330
AC7A
100
AcDbEntity
  8
1
  6
Continuous
100
AcDbLine
 10
312.433558
 20
202.980763
 30
0.0
 11
306.514114
 21
202.980763
 31
0.0
  0
LINE
  5
ACCB
330
AC7A
100
AcDbEntity
  8
1
  6
Continuous
100
AcDbLine
 10
312.433558
 20
187.969656
 30
0.0
 11
306.514114
 21
187.969656
 31
0.0
  0
LINE
  5
ACCC
330
AC7A
100
AcDbEntity
  8
1
  6
Continuous
100
AcDbLine
 10
312.433558
 20
199.227986
 30
0.0
 11
306.514114
 21
199.227986
 31
0.0
  0
LINE
  5
ACCD
330
AC7A
100
AcDbEntity
  8
1
  6
Continuous
100
AcDbLine
 10
312.433558
 20
191.722432
 30
0.0
 11
306.514114
 21
191.722432
 31
0.0
  0
LINE
  5
ACCE
330
AC7A
100
AcDbEntity
  8
1
  6
Continuous
100
AcDbLine
 10
313.014114
 20
201.9752089999999
 30
0.0
 11
313.014114
 21
188.9752089999998
 31
0.0
  0
LINE
  5
ACCF
330
AC7A
100
AcDbEntity
  8
1
  6
Continuous
100
AcDbLine
 10
313.014114
 20
201.9752089999999
 30
0.0
 11
312.433558
 21
202.980763
 31
0.0
  0
LINE
  5
ACD0
330
AC7A
100
AcDbEntity
  8
1
  6
Continuous
100
AcDbLine
 10
313.014114
 20
188.9752089999998
 30
0.0
 11
312.433558
 21
187.969656
 31
0.0
  0
ARC
  5
ACD1
330
AC7A
100
AcDbEntity
  8
1
  6
Continuous
100
AcDbCircle
 10
300.5946709999999
 20
195.475209
 30
0.0
 40
12.419443
100
AcDbArc
 50
342.4120459999999
 51
17.587954
  0
LINE
  5
ACD2
330
AC7A
100
AcDbEntity
  8
1
  6
Continuous
100
AcDbLine
 10
235.1999999999999
 20
198.9752089999998
 30
0.0
 11
235.1999999999999
 21
191.975209
 31
0.0
  0
ARC
  5
ACD3
330
AC7A
100
AcDbEntity
  8
1
  6
Continuous
100
AcDbCircle
 10
306.223891
 20
188.975221
 30
0.0
 40
6.790222999999999
100
AcDbArc
 50
0.0
 51
23.86502399999999
  0
ARC
  5
ACD4
330
AC7A
100
AcDbEntity
  8
1
  6
Continuous
100
AcDbCircle
 10
306.223891
 20
201.975197
 30
0.0
 40
6.790222999999999
100
AcDbArc
 50
336.1349759999999
 51
0.0
  0
LINE
  5
ACD5
330
AC7A
100
AcDbEntity
  8
1
  6
Continuous
100
AcDbLine
 10
221.1999999999999
 20
185.475209
 30
0.0
 11
220.1999999999999
 21
184.475209
 31
0.0
  0
LINE
  5
ACD6
330
AC7A
100
AcDbEntity
  8
1
  6
Continuous
100
AcDbLine
 10
220.1999999999999
 20
184.475209
 30
0.0
 11
220.1999999999999
 21
189.9299409999999
 31
0.0
  0
LINE
  5
ACD7
330
AC7A
100
AcDbEntity
  8
1
  6
Continuous
100
AcDbLine
 10
292.635711
 20
206.475209
 30
0.0
 11
292.635711
 21
184.475209
 31
0.0
  0
LINE
  5
ACD8
330
AC7A
100
AcDbEntity
  8
1
  6
Continuous
100
AcDbLine
 10
289.635711
 20
206.475209
 30
0.0
 11
289.635711
 21
184.475209
 31
0.0
  0
LINE
  5
ACD9
330
AC7A
100
AcDbEntity
  8
1
  6
Continuous
100
AcDbLine
 10
286.135711
 20
184.475209
 30
0.0
 11
292.635711
 21
184.475209
 31
0.0
  0
LINE
  5
ACDA
330
AC7A
100
AcDbEntity
  8
1
  6
Continuous
100
AcDbLine
 10
286.135711
 20
206.475209
 30
0.0
 11
292.635711
 21
206.475209
 31
0.0
  0
LINE
  5
ACDB
330
AC7A
100
AcDbEntity
  8
1
  6
Continuous
100
AcDbLine
 10
221.3999999999999
 20
203.1752089999999
 30
0.0
 11
221.1999999999999
 21
203.375209
 31
0.0
  0
LINE
  5
ACDC
330
AC7A
100
AcDbEntity
  8
1
  6
Continuous
100
AcDbLine
 10
221.3999999999999
 20
204.975209
 30
0.0
 11
221.3999999999999
 21
188.503704
 31
0.0
  0
LINE
  5
ACDD
330
AC7A
100
AcDbEntity
  8
1
  6
Continuous
100
AcDbLine
 10
223.3999999999999
 20
186.814955
 30
0.0
 11
223.1999999999999
 21
186.814955
 31
0.0
  0
LINE
  5
ACDE
330
AC7A
100
AcDbEntity
  8
1
  6
Continuous
100
AcDbLine
 10
221.1999999999999
 20
185.475209
 30
0.0
 11
221.1999999999999
 21
205.475209
 31
0.0
  0
LINE
  5
ACDF
330
AC7A
100
AcDbEntity
  8
1
  6
Continuous
100
AcDbLine
 10
223.1999999999999
 20
185.475209
 30
0.0
 11
223.1999999999999
 21
188.503704
 31
0.0
  0
LINE
  5
ACE0
330
AC7A
100
AcDbEntity
  8
1
  6
Continuous
100
AcDbLine
 10
221.1999999999999
 20
185.475209
 30
0.0
 11
223.1999999999999
 21
185.475209
 31
0.0
  0
LINE
  5
ACE1
330
AC7A
100
AcDbEntity
  8
1
  6
Continuous
100
AcDbLine
 10
221.3999999999999
 20
188.503705
 30
0.0
 11
221.1999999999999
 21
188.503705
 31
0.0
  0
ARC
  5
ACE2
330
AC7A
100
AcDbEntity
  8
1
  6
Continuous
100
AcDbCircle
 10
210.1999999999999
 20
195.475209
 30
0.0
 40
11.43459699999998
100
AcDbArc
 50
330.990456
 51
344.152689
  0
ARC
  5
ACE3
330
AC7A
100
AcDbEntity
  8
1
  6
Continuous
100
AcDbCircle
 10
210.1999999999999
 20
195.475209
 30
0.0
 40
11.43459699999998
100
AcDbArc
 50
15.84731099999999
 51
29.00954399999999
  0
LINE
  5
ACE4
330
AC7A
100
AcDbEntity
  8
1
  6
Continuous
100
AcDbLine
 10
304.514114
 20
187.7752089999999
 30
0.0
 11
306.514114
 21
187.7752089999999
 31
0.0
  0
LINE
  5
ACE5
330
AC7A
100
AcDbEntity
  8
1
  6
Continuous
100
AcDbLine
 10
304.514114
 20
203.1752089999999
 30
0.0
 11
306.514114
 21
203.1752089999999
 31
0.0
  0
LINE
  5
ACE6
330
AC7A
100
AcDbEntity
  8
1
  6
Continuous
100
AcDbLine
 10
306.514114
 20
203.1752089999999
 30
0.0
 11
306.514114
 21
187.7752089999999
 31
0.0
  0
LINE
  5
ACE7
330
AC7A
100
AcDbEntity
  8
1
  6
Continuous
100
AcDbLine
 10
223.3999999999999
 20
204.975209
 30
0.0
 11
221.3999999999999
 21
204.975209
 31
0.0
  0
LINE
  5
ACE8
330
AC7A
100
AcDbEntity
  8
1
  6
Continuous
100
AcDbLine
 10
220.1999999999999
 20
206.475209
 30
0.0
 11
221.1999999999999
 21
205.475209
 31
0.0
  0
LINE
  5
ACE9
330
AC7A
100
AcDbEntity
  8
1
  6
Continuous
100
AcDbLine
 10
220.1999999999999
 20
201.020477
 30
0.0
 11
220.1999999999999
 21
206.475209
 31
0.0
  0
LINE
  5
ACEA
330
AC7A
100
AcDbEntity
  8
1
  6
Continuous
100
AcDbLine
 10
162.1999999999998
 20
105.2
 30
0.0
 11
162.1999999999998
 21
72.79999999999998
 31
0.0
  0
LINE
  5
ACEB
330
AC7A
100
AcDbEntity
  8
1
  6
Continuous
100
AcDbLine
 10
169.1999999999999
 20
106.0
 30
0.0
 11
169.1999999999999
 21
72.0
 31
0.0
  0
LINE
  5
ACEC
330
AC7A
100
AcDbEntity
  8
1
  6
Continuous
100
AcDbLine
 10
171.6999999999998
 20
106.0
 30
0.0
 11
171.6999999999998
 21
72.0
 31
0.0
  0
LINE
  5
ACED
330
AC7A
100
AcDbEntity
  8
1
  6
Continuous
100
AcDbLine
 10
273.5866689999999
 20
73.0
 30
0.0
 11
273.5866689999999
 21
105.0
 31
0.0
  0
LINE
  5
ACEE
330
AC7A
100
AcDbEntity
  8
1
  6
Continuous
100
AcDbLine
 10
269.5866689999999
 20
73.0
 30
0.0
 11
269.5866689999999
 21
105.0
 31
0.0
  0
LINE
  5
ACEF
330
AC7A
100
AcDbEntity
  8
1
  6
Continuous
100
AcDbLine
 10
170.6999999999998
 20
106.0
 30
0.0
 11
170.6999999999998
 21
72.0
 31
0.0
  0
LINE
  5
ACF0
330
AC7A
100
AcDbEntity
  8
1
  6
Continuous
100
AcDbLine
 10
165.1999999999999
 20
106.0
 30
0.0
 11
165.1999999999999
 21
72.0
 31
0.0
  0
LINE
  5
ACF1
330
AC7A
100
AcDbEntity
  8
1
  6
Continuous
100
AcDbLine
 10
163.0
 20
106.0
 30
0.0
 11
171.6999999999998
 21
106.0
 31
0.0
  0
LINE
  5
ACF2
330
AC7A
100
AcDbEntity
  8
1
  6
Continuous
100
AcDbLine
 10
269.5866689999999
 20
105.0
 30
0.0
 11
273.5866689999999
 21
105.0
 31
0.0
  0
ARC
  5
ACF3
330
AC7A
100
AcDbEntity
  8
1
  6
Continuous
100
AcDbCircle
 10
163.0
 20
105.2
 30
0.0
 40
0.8
100
AcDbArc
 50
90.0
 51
180.0
  0
LINE
  5
ACF4
330
AC7A
100
AcDbEntity
  8
1
  6
Continuous
100
AcDbLine
 10
163.0
 20
72.0
 30
0.0
 11
171.6999999999998
 21
72.0
 31
0.0
  0
LINE
  5
ACF5
330
AC7A
100
AcDbEntity
  8
1
  6
Continuous
100
AcDbLine
 10
173.0
 20
98.50000000000001
 30
0.0
 11
173.0
 21
79.5
 31
0.0
  0
LINE
  5
ACF6
330
AC7A
100
AcDbEntity
  8
1
  6
Continuous
100
AcDbLine
 10
273.5866689999999
 20
89.0
 30
0.0
 11
269.5866689999999
 21
89.0
 31
0.0
  0
LINE
  5
ACF7
330
AC7A
100
AcDbEntity
  8
1
  6
Continuous
100
AcDbLine
 10
269.5866689999999
 20
73.0
 30
0.0
 11
273.5866689999999
 21
73.0
 31
0.0
  0
LINE
  5
ACF8
330
AC7A
100
AcDbEntity
  8
4
  6
CENTER
100
AcDbLine
 10
169.6999999999999
 20
75.0
 30
0.0
 11
175.1999999999999
 21
75.0
 31
0.0
  0
LINE
  5
ACF9
330
AC7A
100
AcDbEntity
  8
1
  6
Continuous
100
AcDbLine
 10
173.6999999999999
 20
76.5
 30
0.0
 11
173.6999999999999
 21
73.5
 31
0.0
  0
LINE
  5
ACFA
330
AC7A
100
AcDbEntity
  8
1
  6
Continuous
100
AcDbLine
 10
171.6999999999998
 20
76.5
 30
0.0
 11
173.6999999999999
 21
76.5
 31
0.0
  0
LINE
  5
ACFB
330
AC7A
100
AcDbEntity
  8
1
  6
Continuous
100
AcDbLine
 10
171.6999999999998
 20
73.5
 30
0.0
 11
173.6999999999999
 21
73.5
 31
0.0
  0
LINE
  5
ACFC
330
AC7A
100
AcDbEntity
  8
4
  6
CENTER
100
AcDbLine
 10
159.4999999999998
 20
76.0
 30
0.0
 11
166.1999999999999
 21
76.0
 31
0.0
  0
LINE
  5
ACFD
330
AC7A
100
AcDbEntity
  8
1
  6
Continuous
100
AcDbLine
 10
161.6999999999999
 20
78.5
 30
0.0
 11
162.1999999999998
 21
78.5
 31
0.0
  0
LINE
  5
ACFE
330
AC7A
100
AcDbEntity
  8
1
  6
Continuous
100
AcDbLine
 10
161.6999999999999
 20
78.5
 30
0.0
 11
161.6999999999999
 21
73.5
 31
0.0
  0
ARC
  5
ACFF
330
AC7A
100
AcDbEntity
  8
1
  6
Continuous
100
AcDbCircle
 10
165.814286
 20
76.0
 30
0.0
 40
4.814286
100
AcDbArc
 50
148.715507
 51
211.284493
  0
LINE
  5
AD00
330
AC7A
100
AcDbEntity
  8
1
  6
Continuous
100
AcDbLine
 10
161.6999999999999
 20
73.5
 30
0.0
 11
162.1999999999998
 21
73.5
 31
0.0
  0
ARC
  5
AD01
330
AC7A
100
AcDbEntity
  8
1
  6
Continuous
100
AcDbCircle
 10
163.0
 20
72.79999999999998
 30
0.0
 40
0.8
100
AcDbArc
 50
180.0
 51
270.0
  0
LINE
  5
AD02
330
AC7A
100
AcDbEntity
  8
1
  6
Continuous
100
AcDbLine
 10
163.0
 20
178.475209
 30
0.0
 11
171.6999999999998
 21
178.475209
 31
0.0
  0
LINE
  5
AD03
330
AC7A
100
AcDbEntity
  8
1
  6
Continuous
100
AcDbLine
 10
173.0
 20
184.475209
 30
0.0
 11
173.0
 21
189.9299409999999
 31
0.0
  0
LINE
  5
AD04
330
AC7A
100
AcDbEntity
  8
1
  6
Continuous
100
AcDbLine
 10
171.6999999999998
 20
184.475209
 30
0.0
 11
220.1999999999999
 21
184.475209
 31
0.0
  0
LINE
  5
AD05
330
AC7A
100
AcDbEntity
  8
1
  6
Continuous
100
AcDbLine
 10
171.6999999999998
 20
206.475209
 30
0.0
 11
220.1999999999999
 21
206.475209
 31
0.0
  0
LINE
  5
AD06
330
AC7A
100
AcDbEntity
  8
2
  6
Continuous
100
AcDbLine
 10
173.0
 20
205.6632089999999
 30
0.0
 11
221.0119999999998
 21
205.6632089999999
 31
0.0
  0
LINE
  5
AD07
330
AC7A
100
AcDbEntity
  8
1
  6
Continuous
100
AcDbLine
 10
173.0
 20
201.020477
 30
0.0
 11
173.0
 21
206.475209
 31
0.0
  0
ARC
  5
AD08
330
AC7A
100
AcDbEntity
  8
1
  6
Continuous
100
AcDbCircle
 10
163.0
 20
179.275209
 30
0.0
 40
0.8
100
AcDbArc
 50
180.0
 51
270.0
  0
LINE
  5
AD09
330
AC7A
100
AcDbEntity
  8
1
  6
Continuous
100
AcDbLine
 10
161.6999999999999
 20
192.975209
 30
0.0
 11
162.1999999999998
 21
192.975209
 31
0.0
  0
LINE
  5
AD0A
330
AC7A
100
AcDbEntity
  8
1
  6
Continuous
100
AcDbLine
 10
161.6999999999999
 20
197.975209
 30
0.0
 11
162.1999999999998
 21
197.975209
 31
0.0
  0
LINE
  5
AD0B
330
AC7A
100
AcDbEntity
  8
1
  6
Continuous
100
AcDbLine
 10
161.6999999999999
 20
192.975209
 30
0.0
 11
161.6999999999999
 21
197.975209
 31
0.0
  0
ARC
  5
AD0C
330
AC7A
100
AcDbEntity
  8
1
  6
Continuous
100
AcDbCircle
 10
165.814286
 20
195.475209
 30
0.0
 40
4.814286
100
AcDbArc
 50
148.715507
 51
211.284493
  0
ARC
  5
AD0D
330
AC7A
100
AcDbEntity
  8
5
  6
PHANTOM
100
AcDbCircle
 10
47.0
 20
195.475209
 30
0.0
 40
9.0
100
AcDbArc
 50
231.37937
 51
308.62063
  0
ARC
  5
AD0E
330
AC7A
100
AcDbEntity
  8
5
  6
PHANTOM
100
AcDbCircle
 10
47.0
 20
195.475209
 30
0.0
 40
9.0
100
AcDbArc
 50
51.37937
 51
128.62063
  0
CIRCLE
  5
AD0F
330
AC7A
100
AcDbEntity
  8
5
  6
PHANTOM
100
AcDbCircle
 10
47.0
 20
195.475209
 30
0.0
 40
8.0
  0
LINE
  5
AD10
330
AC7A
100
AcDbEntity
  8
1
  6
Continuous
100
AcDbLine
 10
25.0
 20
206.475209
 30
0.0
 11
25.0
 21
184.475209
 31
0.0
  0
LINE
  5
AD11
330
AC7A
100
AcDbEntity
  8
1
  6
Continuous
100
AcDbLine
 10
28.0
 20
206.475209
 30
0.0
 11
28.0
 21
184.475209
 31
0.0
  0
LINE
  5
AD12
330
AC7A
100
AcDbEntity
  8
1
  6
Continuous
100
AcDbLine
 10
25.0
 20
184.475209
 30
0.0
 11
60.03851899999999
 21
184.475209
 31
0.0
  0
LINE
  5
AD13
330
AC7A
100
AcDbEntity
  8
1
  6
Continuous
100
AcDbLine
 10
25.0
 20
206.475209
 30
0.0
 11
60.03851899999999
 21
206.475209
 31
0.0
  0
ARC
  5
AD14
330
AC7A
100
AcDbEntity
  8
5
  6
PHANTOM
100
AcDbCircle
 10
47.0
 20
195.475209
 30
0.0
 40
9.0
100
AcDbArc
 50
141.37937
 51
218.6206299999998
  0
LINE
  5
AD15
330
AC7A
100
AcDbEntity
  8
1
  6
Continuous
100
AcDbLine
 10
163.0
 20
212.4752089999998
 30
0.0
 11
171.6999999999998
 21
212.4752089999998
 31
0.0
  0
ARC
  5
AD16
330
AC7A
100
AcDbEntity
  8
1
  6
Continuous
100
AcDbCircle
 10
163.0
 20
211.6752089999998
 30
0.0
 40
0.8
100
AcDbArc
 50
90.0
 51
180.0
  0
LINE
  5
AD17
330
AC7A
100
AcDbEntity
  8
5
  6
PHANTOM
100
AcDbLine
 10
84.0
 20
243.4752089999999
 30
0.0
 11
62.0
 21
243.4752089999999
 31
0.0
  0
LINE
  5
AD18
330
AC7A
100
AcDbEntity
  8
5
  6
PHANTOM
100
AcDbLine
 10
84.0
 20
240.4752089999998
 30
0.0
 11
62.0
 21
240.4752089999998
 31
0.0
  0
LINE
  5
AD19
330
AC7A
100
AcDbEntity
  8
1
  6
Continuous
100
AcDbLine
 10
78.76425899999998
 20
206.624378
 30
0.0
 11
77.015822
 21
207.3138539999999
 31
0.0
  0
ARC
  5
AD1A
330
AC7A
100
AcDbEntity
  8
1
  6
Continuous
100
AcDbCircle
 10
73.0
 20
195.475209
 30
0.0
 40
15.0
100
AcDbArc
 50
45.09604399999999
 51
134.903956
  0
ARC
  5
AD1B
330
AC7A
100
AcDbEntity
  8
1
  6
Continuous
100
AcDbCircle
 10
73.0
 20
195.475209
 30
0.0
 40
4.65
100
AcDbArc
 50
302.5227479999998
 51
57.477252
  0
ARC
  5
AD1C
330
AC7A
100
AcDbEntity
  8
1
  6
Continuous
100
AcDbCircle
 10
75.916737
 20
184.001882
 30
0.0
 40
0.7697149999999999
100
AcDbArc
 50
23.440001
 51
88.58796099999997
  0
ARC
  5
AD1D
330
AC7A
100
AcDbEntity
  8
1
  6
Continuous
100
AcDbCircle
 10
73.0
 20
195.475209
 30
0.0
 40
10.0
100
AcDbArc
 50
224.2159089999999
 51
315.784091
  0
ARC
  5
AD1E
330
AC7A
100
AcDbEntity
  8
1
  6
Continuous
100
AcDbCircle
 10
73.0
 20
195.475209
 30
0.0
 40
10.0
100
AcDbArc
 50
46.21590900000001
 51
133.7840909999999
  0
ARC
  5
AD1F
330
AC7A
100
AcDbEntity
  8
1
  6
Continuous
100
AcDbCircle
 10
76.08901899999998
 20
183.0567269999999
 30
0.0
 40
1.148606999999999
100
AcDbArc
 50
238.848761
 51
294.3717609999998
  0
ARC
  5
AD20
330
AC7A
100
AcDbEntity
  8
1
  6
Continuous
100
AcDbCircle
 10
73.0
 20
195.475209
 30
0.0
 40
15.0
100
AcDbArc
 50
223.096044
 51
316.9039559999998
  0
LINE
  5
AD21
330
AC7A
100
AcDbEntity
  8
1
  6
Continuous
100
AcDbLine
 10
76.053921
 20
183.203011
 30
0.0
 11
77.057905
 21
183.524983
 31
0.0
  0
LINE
  5
AD22
330
AC7A
100
AcDbEntity
  8
1
  6
Continuous
100
AcDbLine
 10
76.45732399999999
 20
205.8975629999999
 30
0.0
 11
77.55786399999998
 21
208.6884149999999
 31
0.0
  0
LINE
  5
AD23
330
AC7A
100
AcDbEntity
  8
4
  6
CENTER
100
AcDbLine
 10
73.0
 20
248.0070459999998
 30
0.0
 11
73.0
 21
175.3098
 31
0.0
  0
LINE
  5
AD24
330
AC7A
100
AcDbEntity
  8
1
  6
Continuous
100
AcDbLine
 10
74.80653100000002
 20
206.2766639999999
 30
0.0
 11
76.48264199999998
 21
209.0173829999999
 31
0.0
  0
LINE
  5
AD25
330
AC7A
100
AcDbEntity
  8
1
  6
Continuous
100
AcDbLine
 10
74.80559499999998
 20
206.271475
 30
0.0
 11
74.246015
 21
209.420842
 31
0.0
  0
LINE
  5
AD26
330
AC7A
100
AcDbEntity
  8
1
  6
Continuous
100
AcDbLine
 10
67.64568100000001
 20
208.489661
 30
0.0
 11
67.13523000000001
 21
206.278904
 31
0.0
  0
LINE
  5
AD27
330
AC7A
100
AcDbEntity
  8
1
  6
Continuous
100
AcDbLine
 10
70.317555
 20
206.0866789999999
 30
0.0
 11
69.46966399999999
 21
208.964358
 31
0.0
  0
LINE
  5
AD28
330
AC7A
100
AcDbEntity
  8
1
  6
Continuous
100
AcDbLine
 10
70.317555
 20
206.0866789999999
 30
0.0
 11
71.24473399999998
 21
208.770457
 31
0.0
  0
LINE
  5
AD29
330
AC7A
100
AcDbEntity
  8
4
  6
CENTER
100
AcDbLine
 10
47.0
 20
215.4752089999998
 30
0.0
 11
47.0
 21
175.475209
 31
0.0
  0
ARC
  5
AD2A
330
AC7A
100
AcDbEntity
  8
1
  6
Continuous
100
AcDbCircle
 10
69.671745
 20
184.019445
 30
0.0
 40
0.7697149999999999
100
AcDbArc
 50
354.784264
 51
59.932224
  0
ARC
  5
AD2B
330
AC7A
100
AcDbEntity
  8
1
  6
Continuous
100
AcDbCircle
 10
75.907386
 20
183.6231009999999
 30
0.0
 40
1.148606999999999
100
AcDbArc
 50
88.58796099999997
 51
156.712761
  0
ARC
  5
AD2C
330
AC7A
100
AcDbEntity
  8
1
  6
Continuous
100
AcDbCircle
 10
66.83744399999999
 20
184.843655
 30
0.0
 40
1.148606999999999
100
AcDbArc
 50
2.907106
 51
100.771206
  0
ARC
  5
AD2D
330
AC7A
100
AcDbEntity
  8
1
  6
Continuous
100
AcDbCircle
 10
66.922043
 20
184.398952
 30
0.0
 40
1.601290999999998
100
AcDbArc
 50
100.771206
 51
182.907206
  0
LINE
  5
AD2E
330
AC7A
100
AcDbEntity
  8
1
  6
Continuous
100
AcDbLine
 10
65.680621
 20
187.22183
 30
0.0
 11
63.616336
 21
185.0449779999999
 31
0.0
  0
ARC
  5
AD2F
330
AC7A
100
AcDbEntity
  8
1
  6
Continuous
100
AcDbCircle
 10
69.481897
 20
183.6915429999999
 30
0.0
 40
1.148606999999999
100
AcDbArc
 50
59.932224
 51
128.057024
  0
LINE
  5
AD30
330
AC7A
100
AcDbEntity
  8
1
  6
Continuous
100
AcDbLine
 10
71.295574
 20
184.567653
 30
0.0
 11
71.05421899999997
 21
181.424755
 31
0.0
  0
LINE
  5
AD31
330
AC7A
100
AcDbEntity
  8
1
  6
Continuous
100
AcDbLine
 10
73.86634499999998
 20
184.472081
 30
0.0
 11
74.13600099999998
 21
181.3314839999999
 31
0.0
  0
LINE
  5
AD32
330
AC7A
100
AcDbEntity
  8
1
  6
Continuous
100
AcDbLine
 10
59.961481
 20
184.475209
 30
0.0
 11
60.038518
 21
184.475209
 31
0.0
  0
LINE
  5
AD33
330
AC7A
100
AcDbEntity
  8
1
  6
Continuous
100
AcDbLine
 10
71.17373600000002
 20
182.9810939999999
 30
0.0
 11
72.78798399999998
 21
182.85713
 31
0.0
  0
ARC
  5
AD34
330
AC7A
100
AcDbEntity
  8
1
  6
Continuous
100
AcDbCircle
 10
69.36968199999999
 20
183.107446
 30
0.0
 40
1.148606999999999
100
AcDbArc
 50
210.1930239999998
 51
278.3180239999999
  0
ARC
  5
AD35
330
AC7A
100
AcDbEntity
  8
1
  6
Continuous
100
AcDbCircle
 10
69.42450799999999
 20
182.732537
 30
0.0
 40
0.7697149999999999
100
AcDbArc
 50
278.3180239999999
 51
343.4660239999999
  0
ARC
  5
AD36
330
AC7A
100
AcDbEntity
  8
1
  6
Continuous
100
AcDbCircle
 10
66.38534399999999
 20
184.8206989999999
 30
0.0
 40
1.601290999999998
100
AcDbArc
 50
280.771206
 51
2.907106
  0
ARC
  5
AD37
330
AC7A
100
AcDbEntity
  8
1
  6
Continuous
100
AcDbCircle
 10
66.469948
 20
184.375993
 30
0.0
 40
1.148606999999999
100
AcDbArc
 50
182.907206
 51
280.771206
  0
LINE
  5
AD38
330
AC7A
100
AcDbEntity
  8
1
  6
Continuous
100
AcDbLine
 10
72.90866
 20
184.428579
 30
0.0
 11
72.66730600000002
 21
181.285681
 31
0.0
  0
ARC
  5
AD39
330
AC7A
100
AcDbEntity
  8
1
  6
Continuous
100
AcDbCircle
 10
69.76098399999999
 20
183.3350979999999
 30
0.0
 40
1.601290999999998
100
AcDbArc
 50
128.057024
 51
210.1930239999998
  0
ARC
  5
AD3A
330
AC7A
100
AcDbEntity
  8
1
  6
Continuous
100
AcDbCircle
 10
76.32315
 20
183.444127
 30
0.0
 40
1.601290999999998
100
AcDbArc
 50
156.712761
 51
238.848761
  0
CIRCLE
  5
AD3B
330
AC7A
100
AcDbEntity
  8
5
  6
PHANTOM
100
AcDbCircle
 10
60.0
 20
195.475209
 30
0.0
 40
2.5
  0
LINE
  5
AD3C
330
AC7A
100
AcDbEntity
  8
1
  6
Continuous
100
AcDbLine
 10
59.961481
 20
206.475209
 30
0.0
 11
60.038518
 21
206.475209
 31
0.0
  0
LINE
  5
AD3D
330
AC7A
100
AcDbEntity
  8
4
  6
CENTER
100
AcDbLine
 10
60.0
 20
191.475209
 30
0.0
 11
60.0
 21
199.475209
 31
0.0
  0
ARC
  5
AD3E
330
AC7A
100
AcDbEntity
  8
5
  6
PHANTOM
100
AcDbCircle
 10
47.0
 20
195.475209
 30
0.0
 40
9.0
100
AcDbArc
 50
321.37937
 51
38.62063
  0
LINE
  5
AD3F
330
AC7A
100
AcDbEntity
  8
1
  6
Continuous
100
AcDbLine
 10
75.5
 20
191.5544309999999
 30
0.0
 11
75.5
 21
187.823249
 31
0.0
  0
LINE
  5
AD40
330
AC7A
100
AcDbEntity
  8
1
  6
Continuous
100
AcDbLine
 10
75.5
 20
203.12717
 30
0.0
 11
75.5
 21
199.3959869999999
 31
0.0
  0
LINE
  5
AD41
330
AC7A
100
AcDbEntity
  8
1
  6
Continuous
100
AcDbLine
 10
70.5
 20
191.5544309999999
 30
0.0
 11
70.5
 21
187.823249
 31
0.0
  0
LINE
  5
AD42
330
AC7A
100
AcDbEntity
  8
1
  6
Continuous
100
AcDbLine
 10
70.5
 20
203.12717
 30
0.0
 11
70.5
 21
199.3959869999999
 31
0.0
  0
ARC
  5
AD43
330
AC7A
100
AcDbEntity
  8
1
  6
Continuous
100
AcDbCircle
 10
73.0
 20
195.475209
 30
0.0
 40
4.65
100
AcDbArc
 50
122.522748
 51
237.477252
  0
ARC
  5
AD44
330
AC7A
100
AcDbEntity
  8
1
  6
Continuous
100
AcDbCircle
 10
60.0
 20
195.475209
 30
0.0
 40
6.625
100
AcDbArc
 50
270.0
 51
90.0
  0
LINE
  5
AD45
330
AC7A
100
AcDbEntity
  8
1
  6
Continuous
100
AcDbLine
 10
64.73257
 20
202.6619759999999
 30
0.0
 11
62.46105400000001
 21
204.636575
 31
0.0
  0
ARC
  5
AD46
330
AC7A
100
AcDbEntity
  8
1
  6
Continuous
100
AcDbCircle
 10
62.777067
 20
185.9100819999999
 30
0.0
 40
1.0
100
AcDbArc
 50
129.0
 51
223.096044
  0
LINE
  5
AD47
330
AC7A
100
AcDbEntity
  8
1
  6
Continuous
100
AcDbLine
 10
64.48679199999999
 20
188.5813499999999
 30
0.0
 11
62.14774699999999
 21
186.687228
 31
0.0
  0
ARC
  5
AD48
330
AC7A
100
AcDbEntity
  8
1
  6
Continuous
100
AcDbCircle
 10
65.116112
 20
187.804204
 30
0.0
 40
1.0
100
AcDbArc
 50
44.215909
 51
129.0
  0
LINE
  5
AD49
330
AC7A
100
AcDbEntity
  8
1
  6
Continuous
100
AcDbLine
 10
65.03512099999999
 20
187.909793
 30
0.0
 11
66.40123199999999
 21
186.614325
 31
0.0
  0
ARC
  5
AD4A
330
AC7A
100
AcDbEntity
  8
1
  6
Continuous
100
AcDbCircle
 10
65.38862900000001
 20
203.416685
 30
0.0
 40
1.0
100
AcDbArc
 50
228.9999999999999
 51
313.7840909999998
  0
LINE
  5
AD4B
330
AC7A
100
AcDbEntity
  8
1
  6
Continuous
100
AcDbLine
 10
66.17187699999999
 20
204.0194389999999
 30
0.0
 11
66.220216
 21
204.4778589999999
 31
0.0
  0
ARC
  5
AD4C
330
AC7A
100
AcDbEntity
  8
1
  6
Continuous
100
AcDbCircle
 10
67.933718
 20
206.262254
 30
0.0
 40
0.9380599999999999
100
AcDbArc
 50
257.8538200000001
 51
343.5934199999999
  0
ARC
  5
AD4D
330
AC7A
100
AcDbEntity
  8
1
  6
Continuous
100
AcDbCircle
 10
73.0
 20
195.475209
 30
0.0
 40
8.05
100
AcDbArc
 50
251.907078
 51
288.092922
  0
ARC
  5
AD4E
330
AC7A
100
AcDbEntity
  8
1
  6
Continuous
100
AcDbCircle
 10
73.0
 20
195.475209
 30
0.0
 40
8.05
100
AcDbArc
 50
71.907078
 51
108.092922
  0
ARC
  5
AD4F
330
AC7A
100
AcDbEntity
  8
1
  6
Continuous
100
AcDbCircle
 10
73.0
 20
195.475209
 30
0.0
 40
8.0
100
AcDbArc
 50
251.790043
 51
288.2099569999999
  0
ARC
  5
AD50
330
AC7A
100
AcDbEntity
  8
1
  6
Continuous
100
AcDbCircle
 10
73.0
 20
195.475209
 30
0.0
 40
8.0
100
AcDbArc
 50
71.79004300000002
 51
108.209957
  0
ARC
  5
AD51
330
AC7A
100
AcDbEntity
  8
1
  6
Continuous
100
AcDbCircle
 10
67.901257
 20
206.11144
 30
0.0
 40
0.7837930000000001
100
AcDbArc
 50
163.59342
 51
257.8538200000001
  0
LINE
  5
AD52
330
AC7A
100
AcDbEntity
  8
1
  6
Continuous
100
AcDbLine
 10
66.171882
 20
204.0194329999999
 30
0.0
 11
64.248164
 21
206.321456
 31
0.0
  0
ARC
  5
AD53
330
AC7A
100
AcDbEntity
  8
1
  6
Continuous
100
AcDbCircle
 10
63.117113
 20
205.391284
 30
0.0
 40
1.0
100
AcDbArc
 50
134.903956
 51
228.9999999999999
  0
ARC
  5
AD54
330
AC7A
100
AcDbEntity
  8
1
  6
Continuous
100
AcDbCircle
 10
68.081704
 20
206.2186819999999
 30
0.0
 40
0.7837930000000001
100
AcDbArc
 50
343.5934199999999
 51
55.00042
  0
LINE
  5
AD55
330
AC7A
100
AcDbEntity
  8
5
  6
PHANTOM
100
AcDbLine
 10
62.0
 20
208.43669
 30
0.0
 11
62.0
 21
243.4752089999999
 31
0.0
  0
LINE
  5
AD56
330
AC7A
100
AcDbEntity
  8
1
  6
Continuous
100
AcDbLine
 10
75.96796600000002
 20
208.1904399999999
 30
0.0
 11
74.412816
 21
208.4709689999999
 31
0.0
  0
LINE
  5
AD57
330
AC7A
100
AcDbEntity
  8
1
  6
Continuous
100
AcDbLine
 10
73.43398399999998
 20
207.996974
 30
0.0
 11
72.49673100000002
 21
207.927532
 31
0.0
  0
LINE
  5
AD58
330
AC7A
100
AcDbEntity
  8
1
  6
Continuous
100
AcDbLine
 10
67.64568100000001
 20
208.489661
 30
0.0
 11
66.114896
 21
207.5798999999999
 31
0.0
  0
LINE
  5
AD59
330
AC7A
100
AcDbEntity
  8
1
  6
Continuous
100
AcDbLine
 10
71.24473399999998
 20
208.770457
 30
0.0
 11
69.372804
 21
208.218905
 31
0.0
  0
LINE
  5
AD5A
330
AC7A
100
AcDbEntity
  8
1
  6
Continuous
100
AcDbLine
 10
78.20576099999998
 20
205.208086
 30
0.0
 11
79.30630100000001
 21
207.9989389999998
 31
0.0
  0
LINE
  5
AD5B
330
AC7A
100
AcDbEntity
  8
1
  6
Continuous
100
AcDbLine
 10
79.750078
 20
204.167595
 30
0.0
 11
81.47550599999998
 21
206.6217459999998
 31
0.0
  0
LINE
  5
AD5C
330
AC7A
100
AcDbEntity
  8
1
  6
Continuous
100
AcDbLine
 10
79.48775600000002
 20
184.4744369999999
 30
0.0
 11
80.21630999999997
 21
183.2637649999998
 31
0.0
  0
LINE
  5
AD5D
330
AC7A
100
AcDbEntity
  8
1
  6
Continuous
100
AcDbLine
 10
80.196017
 20
187.227104
 30
0.0
 11
81.37877600000001
 21
184.158964
 31
0.0
  0
LINE
  5
AD5E
330
AC7A
100
AcDbEntity
  8
1
  6
Continuous
100
AcDbLine
 10
77.14742599999998
 20
185.236049
 30
0.0
 11
78.47971699999998
 21
182.3792919999999
 31
0.0
  0
LINE
  5
AD5F
330
AC7A
100
AcDbEntity
  8
1
  6
Continuous
100
AcDbLine
 10
77.194441
 20
183.09923
 30
0.0
 11
77.48610399999998
 21
182.1897599999998
 31
0.0
  0
ARC
  5
AD60
330
AC7A
100
AcDbEntity
  8
1
  6
Continuous
100
AcDbCircle
 10
76.11732999999998
 20
182.9942349999998
 30
0.0
 40
1.079996999999997
100
AcDbArc
 50
287.3627609999999
 51
29.43486099999999
  0
LINE
  5
AD61
330
AC7A
100
AcDbEntity
  8
1
  6
Continuous
100
AcDbLine
 10
79.268957
 20
191.4814429999999
 30
0.0
 11
84.77732000000001
 21
187.972228
 31
0.0
  0
ARC
  5
AD62
330
AC7A
100
AcDbEntity
  8
1
  6
Continuous
100
AcDbCircle
 10
85.31461999999997
 20
202.1347979999999
 30
0.0
 40
1.0
100
AcDbArc
 50
28.403956
 51
122.5
  0
ARC
  5
AD63
330
AC7A
100
AcDbEntity
  8
1
  6
Continuous
100
AcDbCircle
 10
85.31461999999997
 20
188.81562
 30
0.0
 40
1.0
100
AcDbArc
 50
237.5
 51
331.596044
  0
ARC
  5
AD64
330
AC7A
100
AcDbEntity
  8
1
  6
Continuous
100
AcDbCircle
 10
79.80625699999999
 20
192.324834
 30
0.0
 40
1.0
100
AcDbArc
 50
155.162256
 51
237.5
  0
ARC
  5
AD65
330
AC7A
100
AcDbEntity
  8
1
  6
Continuous
100
AcDbCircle
 10
73.0
 20
195.475209
 30
0.0
 40
6.5
100
AcDbArc
 50
335.162256
 51
24.837744
  0
LINE
  5
AD66
330
AC7A
100
AcDbEntity
  8
1
  6
Continuous
100
AcDbLine
 10
79.268957
 20
199.468975
 30
0.0
 11
84.77732000000001
 21
202.9781899999999
 31
0.0
  0
ARC
  5
AD67
330
AC7A
100
AcDbEntity
  8
1
  6
Continuous
100
AcDbCircle
 10
79.80625699999999
 20
198.625584
 30
0.0
 40
1.0
100
AcDbArc
 50
122.5
 51
204.837744
  0
LINE
  5
AD68
330
AC7A
100
AcDbEntity
  8
1
  6
Continuous
100
AcDbLine
 10
81.26742900000001
 20
202.6619759999999
 30
0.0
 11
83.538945
 21
204.636575
 31
0.0
  0
LINE
  5
AD69
330
AC7A
100
AcDbEntity
  8
1
  6
Continuous
100
AcDbLine
 10
81.51320699999997
 20
188.5813499999999
 30
0.0
 11
83.85225199999998
 21
186.687228
 31
0.0
  0
LINE
  5
AD6A
330
AC7A
100
AcDbEntity
  8
1
  6
Continuous
100
AcDbLine
 10
80.19238799999998
 20
187.2310929999999
 30
0.0
 11
83.09921000000001
 21
185.724511
 31
0.0
  0
ARC
  5
AD6B
330
AC7A
100
AcDbEntity
  8
1
  6
Continuous
100
AcDbCircle
 10
80.88388700000001
 20
187.804204
 30
0.0
 40
1.0
100
AcDbArc
 50
50.99999999999999
 51
135.7840909999999
  0
LINE
  5
AD6C
330
AC7A
100
AcDbEntity
  8
1
  6
Continuous
100
AcDbLine
 10
79.48496799999998
 20
184.47907
 30
0.0
 11
77.713836
 21
185.4623489999999
 31
0.0
  0
LINE
  5
AD6D
330
AC7A
100
AcDbEntity
  8
1
  6
Continuous
100
AcDbLine
 10
79.48775999999998
 20
184.47443
 30
0.0
 11
79.45087599999998
 21
186.509865
 31
0.0
  0
LINE
  5
AD6E
330
AC7A
100
AcDbEntity
  8
1
  6
Continuous
100
AcDbLine
 10
81.036923
 20
185.0676339999999
 30
0.0
 11
82.246798
 21
186.1685939999999
 31
0.0
  0
ARC
  5
AD6F
330
AC7A
100
AcDbEntity
  8
1
  6
Continuous
100
AcDbCircle
 10
80.61136999999998
 20
203.416685
 30
0.0
 40
1.0
100
AcDbArc
 50
226.215909
 51
311.0
  0
ARC
  5
AD70
330
AC7A
100
AcDbEntity
  8
1
  6
Continuous
100
AcDbCircle
 10
83.222932
 20
185.9100819999999
 30
0.0
 40
1.0
100
AcDbArc
 50
316.9039559999998
 51
50.99999999999999
  0
LINE
  5
AD71
330
AC7A
100
AcDbEntity
  8
1
  6
Continuous
100
AcDbLine
 10
80.71211099999997
 20
203.4912229999999
 30
0.0
 11
78.779499
 21
204.8499759999999
 31
0.0
  0
ARC
  5
AD72
330
AC7A
100
AcDbEntity
  8
1
  6
Continuous
100
AcDbCircle
 10
73.0
 20
195.475209
 30
0.0
 40
15.0
100
AcDbArc
 50
331.596044
 51
28.403956
  0
ARC
  5
AD73
330
AC7A
100
AcDbEntity
  8
1
  6
Continuous
100
AcDbCircle
 10
82.88288599999999
 20
205.391284
 30
0.0
 40
1.0
100
AcDbArc
 50
311.0
 51
45.09604399999999
  0
LINE
  5
AD74
330
AC7A
100
AcDbEntity
  8
5
  6
PHANTOM
100
AcDbLine
 10
84.0
 20
243.4752089999999
 30
0.0
 11
84.0
 21
208.43669
 31
0.0
  0
ARC
  5
AD75
330
AC7A
100
AcDbEntity
  8
1
  6
Continuous
100
AcDbCircle
 10
378.279194
 20
195.475209
 30
0.0
 40
17.0
100
AcDbArc
 50
40.32021499999999
 51
79.74992299999998
  0
ARC
  5
AD76
330
AC7A
100
AcDbEntity
  8
1
  6
Continuous
100
AcDbCircle
 10
378.279194
 20
195.475209
 30
0.0
 40
17.0
100
AcDbArc
 50
100.250077
 51
139.749923
  0
LINE
  5
AD77
330
AC7A
100
AcDbEntity
  8
4
  6
CENTER
100
AcDbLine
 10
378.279194
 20
216.950418
 30
0.0
 11
378.279194
 21
174.0
 31
0.0
  0
LINE
  5
AD78
330
AC7A
100
AcDbEntity
  8
1
  6
Continuous
100
AcDbLine
 10
378.279194
 20
213.950418
 30
0.0
 11
362.279194
 21
204.7128129999999
 31
0.0
  0
LINE
  5
AD79
330
AC7A
100
AcDbEntity
  8
1
  6
Continuous
100
AcDbLine
 10
391.2266349999999
 20
206.475209
 30
0.0
 11
378.279194
 21
213.950418
 31
0.0
  0
ARC
  5
AD7A
330
AC7A
100
AcDbEntity
  8
1
  6
Continuous
100
AcDbCircle
 10
378.279194
 20
195.475209
 30
0.0
 40
17.0
100
AcDbArc
 50
220.250077
 51
259.749923
  0
LINE
  5
AD7B
330
AC7A
100
AcDbEntity
  8
1
  6
Continuous
100
AcDbLine
 10
378.279194
 20
177.0
 30
0.0
 11
362.279194
 21
186.2376049999998
 31
0.0
  0
LINE
  5
AD7C
330
AC7A
100
AcDbEntity
  8
1
  6
Continuous
100
AcDbLine
 10
362.279194
 20
186.2376049999998
 30
0.0
 11
362.279194
 21
204.7128129999999
 31
0.0
  0
ARC
  5
AD7D
330
AC7A
100
AcDbEntity
  8
1
  6
Continuous
100
AcDbCircle
 10
378.279194
 20
195.475209
 30
0.0
 40
17.0
100
AcDbArc
 50
160.2500769999998
 51
199.749923
  0
LINE
  5
AD7E
330
AC7A
100
AcDbEntity
  8
1
  6
Continuous
100
AcDbLine
 10
391.2266349999999
 20
184.475209
 30
0.0
 11
378.279194
 21
177.0
 31
0.0
  0
ARC
  5
AD7F
330
AC7A
100
AcDbEntity
  8
1
  6
Continuous
100
AcDbCircle
 10
378.279194
 20
195.475209
 30
0.0
 40
17.0
100
AcDbArc
 50
280.2500769999999
 51
319.6797849999999
  0
ARC
  5
AD80
330
AC7A
100
AcDbEntity
  8
1
  6
Continuous
100
AcDbCircle
 10
378.279194
 20
195.475209
 30
0.0
 40
11.0
100
AcDbArc
 50
90.0
 51
270.0
  0
CIRCLE
  5
AD81
330
AC7A
100
AcDbEntity
  8
2
  6
Continuous
100
AcDbCircle
 10
378.279194
 20
195.475209
 30
0.0
 40
3.3235
  0
CIRCLE
  5
AD82
330
AC7A
100
AcDbEntity
  8
1
  6
Continuous
100
AcDbCircle
 10
378.279194
 20
195.475209
 30
0.0
 40
4.0
  0
LINE
  5
AD83
330
AC7A
100
AcDbEntity
  8
4
  6
CENTER
100
AcDbLine
 10
391.279194
 20
199.475209
 30
0.0
 11
391.279194
 21
191.475209
 31
0.0
  0
CIRCLE
  5
AD84
330
AC7A
100
AcDbEntity
  8
1
  6
Continuous
100
AcDbCircle
 10
73.0
 20
195.475209
 30
0.0
 40
17.0
  0
ARC
  5
AD85
330
AC7A
100
AcDbEntity
  8
1
  6
Continuous
100
AcDbCircle
 10
60.0
 20
195.475209
 30
0.0
 40
3.375
100
AcDbArc
 50
270.0
 51
90.0
  0
ARC
  5
AD86
330
AC7A
100
AcDbEntity
  8
1
  6
Continuous
100
AcDbCircle
 10
60.0
 20
200.475209
 30
0.0
 40
1.625
100
AcDbArc
 50
90.0
 51
270.0
  0
ARC
  5
AD87
330
AC7A
100
AcDbEntity
  8
1
  6
Continuous
100
AcDbCircle
 10
60.0
 20
190.475209
 30
0.0
 40
1.625
100
AcDbArc
 50
90.0
 51
270.0
  0
CIRCLE
  5
AD88
330
AC7A
100
AcDbEntity
  8
1
  6
Continuous
100
AcDbCircle
 10
73.0
 20
195.475209
 30
0.0
 40
16.05
  0
LINE
  5
AD89
330
AC7A
100
AcDbEntity
  8
4
  6
CENTER
100
AcDbLine
 10
263.896493
 20
195.475209
 30
0.0
 11
316.866052
 21
195.475209
 31
0.0
  0
LINE
  5
AD8A
330
AC7A
100
AcDbEntity
  8
1
  6
Continuous
100
AcDbLine
 10
269.5866689999999
 20
213.950418
 30
0.0
 11
269.5866689999999
 21
177.0
 31
0.0
  0
LINE
  5
AD8B
330
AC7A
100
AcDbEntity
  8
1
  6
Continuous
100
AcDbLine
 10
273.5866689999999
 20
213.950418
 30
0.0
 11
273.5866689999999
 21
177.0
 31
0.0
  0
LINE
  5
AD8C
330
AC7A
100
AcDbEntity
  8
2
  6
Continuous
100
AcDbLine
 10
173.0
 20
205.6632089999999
 30
0.0
 11
171.6999999999998
 21
206.4137639999999
 31
0.0
  0
LINE
  5
AD8D
330
AC7A
100
AcDbEntity
  8
2
  6
Continuous
100
AcDbLine
 10
173.0
 20
185.2872089999999
 30
0.0
 11
221.0119999999998
 21
185.2872089999999
 31
0.0
  0
LINE
  5
AD8E
330
AC7A
100
AcDbEntity
  8
2
  6
Continuous
100
AcDbLine
 10
173.0
 20
185.2872089999999
 30
0.0
 11
171.6999999999998
 21
184.536654
 31
0.0
  0
LINE
  5
AD8F
330
AC7A
100
AcDbEntity
  8
1
  6
Continuous
100
AcDbLine
 10
225.4
 20
199.475209
 30
0.0
 11
234.6999999999999
 21
199.475209
 31
0.0
  0
LINE
  5
AD90
330
AC7A
100
AcDbEntity
  8
1
  6
Continuous
100
AcDbLine
 10
225.4
 20
191.475209
 30
0.0
 11
234.6999999999999
 21
191.475209
 31
0.0
  0
LINE
  5
AD91
330
AC7A
100
AcDbEntity
  8
1
  6
Continuous
100
AcDbLine
 10
234.6999999999999
 20
199.475209
 30
0.0
 11
235.1999999999999
 21
198.9752089999998
 31
0.0
  0
LINE
  5
AD92
330
AC7A
100
AcDbEntity
  8
1
  6
Continuous
100
AcDbLine
 10
235.1999999999999
 20
191.975209
 30
0.0
 11
234.6999999999999
 21
191.475209
 31
0.0
  0
LINE
  5
AD93
330
AC7A
100
AcDbEntity
  8
1
  6
Continuous
100
AcDbLine
 10
234.6999999999999
 20
199.475209
 30
0.0
 11
234.6999999999999
 21
191.475209
 31
0.0
  0
LINE
  5
AD94
330
AC7A
100
AcDbEntity
  8
1
  6
Continuous
100
AcDbLine
 10
227.4
 20
199.475209
 30
0.0
 11
227.4
 21
191.475209
 31
0.0
  0
LINE
  5
AD95
330
AC7A
100
AcDbEntity
  8
1
  6
Continuous
100
AcDbLine
 10
225.4
 20
200.919931
 30
0.0
 11
225.4
 21
190.030487
 31
0.0
  0
LINE
  5
AD96
330
AC7A
100
AcDbEntity
  8
1
  6
Continuous
100
AcDbLine
 10
223.3999999999999
 20
204.975209
 30
0.0
 11
223.3999999999999
 21
186.814955
 31
0.0
  0
LINE
  5
AD97
330
AC7A
100
AcDbEntity
  8
2
  6
Continuous
100
AcDbLine
 10
225.4
 20
200.919931
 30
0.0
 11
223.3999999999999
 21
198.2686239999999
 31
0.0
  0
LINE
  5
AD98
330
AC7A
100
AcDbEntity
  8
2
  6
Continuous
100
AcDbLine
 10
223.3999999999999
 20
198.2686239999999
 30
0.0
 11
225.4
 21
195.687341
 31
0.0
  0
LINE
  5
AD99
330
AC7A
100
AcDbEntity
  8
2
  6
Continuous
100
AcDbLine
 10
223.3999999999999
 20
192.681794
 30
0.0
 11
225.4
 21
195.263077
 31
0.0
  0
LINE
  5
AD9A
330
AC7A
100
AcDbEntity
  8
1
  6
Continuous
100
AcDbLine
 10
304.514114
 20
203.1752089999999
 30
0.0
 11
304.514114
 21
187.7752089999999
 31
0.0
  0
LINE
  5
AD9B
330
AC7A
100
AcDbEntity
  8
1
  6
Continuous
100
AcDbLine
 10
306.514114
 20
197.475209
 30
0.0
 11
304.514114
 21
195.475209
 31
0.0
  0
LINE
  5
AD9C
330
AC7A
100
AcDbEntity
  8
1
  6
Continuous
100
AcDbLine
 10
306.514114
 20
195.475209
 30
0.0
 11
304.514114
 21
193.475209
 31
0.0
  0
LINE
  5
AD9D
330
AC7A
100
AcDbEntity
  8
1
  6
Continuous
100
AcDbLine
 10
286.135711
 20
206.475209
 30
0.0
 11
286.135711
 21
184.475209
 31
0.0
  0
LINE
  5
AD9E
330
AC7A
100
AcDbEntity
  8
2
  6
Continuous
100
AcDbLine
 10
227.4
 20
198.798709
 30
0.0
 11
235.1999999999999
 21
198.798709
 31
0.0
  0
LINE
  5
AD9F
330
AC7A
100
AcDbEntity
  8
2
  6
Continuous
100
AcDbLine
 10
227.4
 20
192.151709
 30
0.0
 11
235.1999999999999
 21
192.151709
 31
0.0
  0
LINE
  5
ADA0
330
AC7A
100
AcDbEntity
  8
2
  6
Continuous
100
AcDbLine
 10
227.4
 20
192.151709
 30
0.0
 11
226.228268
 21
191.475209
 31
0.0
  0
LINE
  5
ADA1
330
AC7A
100
AcDbEntity
  8
2
  6
Continuous
100
AcDbLine
 10
227.4
 20
198.798709
 30
0.0
 11
226.228268
 21
199.475209
 31
0.0
  0
LINE
  5
ADA2
330
AC7A
100
AcDbEntity
  8
1
  6
Continuous
100
AcDbLine
 10
225.4
 20
195.263077
 30
0.0
 11
223.3999999999999
 21
195.263077
 31
0.0
  0
LINE
  5
ADA3
330
AC7A
100
AcDbEntity
  8
1
  6
Continuous
100
AcDbLine
 10
225.4
 20
195.687341
 30
0.0
 11
223.3999999999999
 21
195.687341
 31
0.0
  0
LINE
  5
ADA4
330
AC7A
100
AcDbEntity
  8
1
  6
Continuous
100
AcDbLine
 10
225.4
 20
200.919931
 30
0.0
 11
223.3999999999999
 21
200.919931
 31
0.0
  0
LINE
  5
ADA5
330
AC7A
100
AcDbEntity
  8
2
  6
Continuous
100
AcDbLine
 10
225.4
 20
190.030487
 30
0.0
 11
223.3999999999999
 21
192.681794
 31
0.0
  0
LINE
  5
ADA6
330
AC7A
100
AcDbEntity
  8
1
  6
Continuous
100
AcDbLine
 10
225.4
 20
190.030487
 30
0.0
 11
223.3999999999999
 21
190.030487
 31
0.0
  0
LINE
  5
ADA7
330
AC7A
100
AcDbEntity
  8
1
  6
Continuous
100
AcDbLine
 10
223.1999999999999
 20
188.503704
 30
0.0
 11
221.1999999999999
 21
188.503704
 31
0.0
  0
LINE
  5
ADA8
330
AC7A
100
AcDbEntity
  8
1
  6
Continuous
100
AcDbLine
 10
267.786669
 20
207.875209
 30
0.0
 11
267.786669
 21
183.075209
 31
0.0
  0
ARC
  5
ADA9
330
AC7A
100
AcDbEntity
  8
1
  6
Continuous
100
AcDbCircle
 10
268.686669
 20
207.875209
 30
0.0
 40
0.9
100
AcDbArc
 50
0.0
 51
180.0
  0
ARC
  5
ADAA
330
AC7A
100
AcDbEntity
  8
1
  6
Continuous
100
AcDbCircle
 10
268.686669
 20
183.075209
 30
0.0
 40
0.9
100
AcDbArc
 50
180.0
 51
0.0
  0
LINE
  5
ADAB
330
AC7A
100
AcDbEntity
  8
4
  6
CENTER
100
AcDbLine
 10
263.896493
 20
89.0
 30
0.0
 11
316.866052
 21
89.0
 31
0.0
  0
LINE
  5
ADAC
330
AC7A
100
AcDbEntity
  8
1
  6
Continuous
100
AcDbLine
 10
267.786669
 20
101.4
 30
0.0
 11
267.786669
 21
76.59999999999998
 31
0.0
  0
ARC
  5
ADAD
330
AC7A
100
AcDbEntity
  8
1
  6
Continuous
100
AcDbCircle
 10
268.686669
 20
76.59999999999998
 30
0.0
 40
0.9
100
AcDbArc
 50
180.0
 51
0.0
  0
ARC
  5
ADAE
330
AC7A
100
AcDbEntity
  8
1
  6
Continuous
100
AcDbCircle
 10
268.686669
 20
101.4
 30
0.0
 40
0.9
100
AcDbArc
 50
0.0
 51
180.0
  0
LINE
  5
ADAF
330
AC7A
100
AcDbEntity
  8
1
  6
Continuous
100
AcDbLine
 10
306.514114
 20
89.0
 30
0.0
 11
304.514114
 21
87.0
 31
0.0
  0
LINE
  5
ADB0
330
AC7A
100
AcDbEntity
  8
1
  6
Continuous
100
AcDbLine
 10
306.514114
 20
91.0
 30
0.0
 11
304.514114
 21
89.0
 31
0.0
  0
LINE
  5
ADB1
330
AC7A
100
AcDbEntity
  8
1
  6
Continuous
100
AcDbLine
 10
304.514114
 20
96.70000000000001
 30
0.0
 11
304.514114
 21
81.29999999999999
 31
0.0
  0
LINE
  5
ADB2
330
AC7A
100
AcDbEntity
  8
1
  6
Continuous
100
AcDbLine
 10
306.514114
 20
96.70000000000001
 30
0.0
 11
306.514114
 21
81.29999999999999
 31
0.0
  0
LINE
  5
ADB3
330
AC7A
100
AcDbEntity
  8
1
  6
Continuous
100
AcDbLine
 10
304.514114
 20
96.70000000000001
 30
0.0
 11
306.514114
 21
96.70000000000001
 31
0.0
  0
LINE
  5
ADB4
330
AC7A
100
AcDbEntity
  8
1
  6
Continuous
100
AcDbLine
 10
304.514114
 20
81.29999999999999
 30
0.0
 11
306.514114
 21
81.29999999999999
 31
0.0
  0
LINE
  5
ADB5
330
AC7A
100
AcDbEntity
  8
1
  6
Continuous
100
AcDbLine
 10
223.3999999999999
 20
97.66025400000003
 30
0.0
 11
223.3999999999999
 21
79.5
 31
0.0
  0
LINE
  5
ADB6
330
AC7A
100
AcDbEntity
  8
1
  6
Continuous
100
AcDbLine
 10
223.3999999999999
 20
200.475209
 30
0.0
 11
221.3999999999999
 21
200.475209
 31
0.0
  0
LINE
  5
ADB7
330
AC7A
100
AcDbEntity
  8
1
  6
Continuous
100
AcDbLine
 10
223.3999999999999
 20
199.4252089999999
 30
0.0
 11
221.3999999999999
 21
199.4252089999999
 31
0.0
  0
LINE
  5
ADB8
330
AC7A
100
AcDbEntity
  8
2
  6
Continuous
100
AcDbLine
 10
227.4
 20
92.3235
 30
0.0
 11
235.1999999999999
 21
92.3235
 31
0.0
  0
LINE
  5
ADB9
330
AC7A
100
AcDbEntity
  8
1
  6
Continuous
100
AcDbLine
 10
234.6999999999999
 20
93.0
 30
0.0
 11
234.6999999999999
 21
85.0
 31
0.0
  0
LINE
  5
ADBA
330
AC7A
100
AcDbEntity
  8
1
  6
Continuous
100
AcDbLine
 10
234.6999999999999
 20
93.0
 30
0.0
 11
235.1999999999999
 21
92.5
 31
0.0
  0
LINE
  5
ADBB
330
AC7A
100
AcDbEntity
  8
1
  6
Continuous
100
AcDbLine
 10
225.4
 20
93.0
 30
0.0
 11
234.6999999999999
 21
93.0
 31
0.0
  0
LINE
  5
ADBC
330
AC7A
100
AcDbEntity
  8
1
  6
Continuous
100
AcDbLine
 10
235.1999999999999
 20
92.5
 30
0.0
 11
235.1999999999999
 21
85.5
 31
0.0
  0
LINE
  5
ADBD
330
AC7A
100
AcDbEntity
  8
2
  6
Continuous
100
AcDbLine
 10
227.4
 20
85.6765
 30
0.0
 11
235.1999999999999
 21
85.6765
 31
0.0
  0
LINE
  5
ADBE
330
AC7A
100
AcDbEntity
  8
1
  6
Continuous
100
AcDbLine
 10
235.1999999999999
 20
85.5
 30
0.0
 11
234.6999999999999
 21
85.0
 31
0.0
  0
LINE
  5
ADBF
330
AC7A
100
AcDbEntity
  8
1
  6
Continuous
100
AcDbLine
 10
225.4
 20
85.0
 30
0.0
 11
234.6999999999999
 21
85.0
 31
0.0
  0
LINE
  5
ADC0
330
AC7A
100
AcDbEntity
  8
1
  6
Continuous
100
AcDbLine
 10
225.4
 20
94.44472199999998
 30
0.0
 11
223.3999999999999
 21
94.44472199999998
 31
0.0
  0
LINE
  5
ADC1
330
AC7A
100
AcDbEntity
  8
2
  6
Continuous
100
AcDbLine
 10
227.4
 20
92.3235
 30
0.0
 11
226.228268
 21
93.0
 31
0.0
  0
LINE
  5
ADC2
330
AC7A
100
AcDbEntity
  8
2
  6
Continuous
100
AcDbLine
 10
223.3999999999999
 20
91.79341499999999
 30
0.0
 11
225.4
 21
89.21213199999998
 31
0.0
  0
LINE
  5
ADC3
330
AC7A
100
AcDbEntity
  8
2
  6
Continuous
100
AcDbLine
 10
225.4
 20
94.44472199999998
 30
0.0
 11
223.3999999999999
 21
91.79341499999999
 31
0.0
  0
LINE
  5
ADC4
330
AC7A
100
AcDbEntity
  8
1
  6
Continuous
100
AcDbLine
 10
225.4
 20
94.44472199999998
 30
0.0
 11
225.4
 21
83.555278
 31
0.0
  0
LINE
  5
ADC5
330
AC7A
100
AcDbEntity
  8
1
  6
Continuous
100
AcDbLine
 10
227.4
 20
93.0
 30
0.0
 11
227.4
 21
85.0
 31
0.0
  0
LINE
  5
ADC6
330
AC7A
100
AcDbEntity
  8
1
  6
Continuous
100
AcDbLine
 10
225.4
 20
89.21213199999998
 30
0.0
 11
223.3999999999999
 21
89.21213199999998
 31
0.0
  0
LINE
  5
ADC7
330
AC7A
100
AcDbEntity
  8
1
  6
Continuous
100
AcDbLine
 10
225.4
 20
88.787868
 30
0.0
 11
223.3999999999999
 21
88.787868
 31
0.0
  0
LINE
  5
ADC8
330
AC7A
100
AcDbEntity
  8
1
  6
Continuous
100
AcDbLine
 10
225.4
 20
83.555278
 30
0.0
 11
223.3999999999999
 21
83.555278
 31
0.0
  0
LINE
  5
ADC9
330
AC7A
100
AcDbEntity
  8
2
  6
Continuous
100
AcDbLine
 10
225.4
 20
83.555278
 30
0.0
 11
223.3999999999999
 21
86.20658500000002
 31
0.0
  0
LINE
  5
ADCA
330
AC7A
100
AcDbEntity
  8
2
  6
Continuous
100
AcDbLine
 10
227.4
 20
85.6765
 30
0.0
 11
226.228268
 21
85.0
 31
0.0
  0
LINE
  5
ADCB
330
AC7A
100
AcDbEntity
  8
2
  6
Continuous
100
AcDbLine
 10
223.3999999999999
 20
86.20658500000002
 30
0.0
 11
225.4
 21
88.787868
 31
0.0
  0
LINE
  5
ADCC
330
AC7A
100
AcDbEntity
  8
1
  6
Continuous
100
AcDbLine
 10
273.5866689999999
 20
204.7128129999999
 30
0.0
 11
269.5866689999999
 21
204.7128129999999
 31
0.0
  0
LINE
  5
ADCD
330
AC7A
100
AcDbEntity
  8
1
  6
Continuous
100
AcDbLine
 10
273.5866689999999
 20
186.2376049999998
 30
0.0
 11
269.5866689999999
 21
186.2376049999998
 31
0.0
  0
LINE
  5
ADCE
330
AC7A
100
AcDbEntity
  8
1
  6
Continuous
100
AcDbLine
 10
426.279194
 20
184.475209
 30
0.0
 11
378.279194
 21
184.475209
 31
0.0
  0
LINE
  5
ADCF
330
AC7A
100
AcDbEntity
  8
1
  6
Continuous
100
AcDbLine
 10
426.279194
 20
206.475209
 30
0.0
 11
378.279194
 21
206.475209
 31
0.0
  0
LINE
  5
ADD0
330
AC7A
100
AcDbEntity
  8
1
  6
Continuous
100
AcDbLine
 10
426.279194
 20
206.475209
 30
0.0
 11
426.279194
 21
184.475209
 31
0.0
  0
LINE
  5
ADD1
330
AC7A
100
AcDbEntity
  8
4
  6
CENTER
100
AcDbLine
 10
430.6262299999998
 20
195.475209
 30
0.0
 11
356.85867
 21
195.475209
 31
0.0
  0
CIRCLE
  5
ADD2
330
AC7A
100
AcDbEntity
  8
1
  6
Continuous
100
AcDbCircle
 10
378.279194
 20
195.475209
 30
0.0
 40
7.7
  0
CIRCLE
  5
ADD3
330
AC7A
100
AcDbEntity
  8
1
  6
Continuous
100
AcDbCircle
 10
378.279194
 20
195.475209
 30
0.0
 40
6.5
  0
LINE
  5
ADD4
330
AC7A
100
AcDbEntity
  8
1
  6
Continuous
100
AcDbLine
 10
384.779194
 20
199.2282089999999
 30
0.0
 11
384.779194
 21
191.7222089999999
 31
0.0
  0
LINE
  5
ADD5
330
AC7A
100
AcDbEntity
  8
1
  6
Continuous
100
AcDbLine
 10
378.279194
 20
187.9692089999998
 30
0.0
 11
384.779194
 21
191.7222089999999
 31
0.0
  0
LINE
  5
ADD6
330
AC7A
100
AcDbEntity
  8
1
  6
Continuous
100
AcDbLine
 10
371.779194
 20
191.7222089999999
 30
0.0
 11
378.279194
 21
187.9692089999998
 31
0.0
  0
LINE
  5
ADD7
330
AC7A
100
AcDbEntity
  8
1
  6
Continuous
100
AcDbLine
 10
378.279194
 20
202.980209
 30
0.0
 11
384.779194
 21
199.2282089999999
 31
0.0
  0
LINE
  5
ADD8
330
AC7A
100
AcDbEntity
  8
1
  6
Continuous
100
AcDbLine
 10
371.779194
 20
199.2282089999999
 30
0.0
 11
378.279194
 21
202.980209
 31
0.0
  0
LINE
  5
ADD9
330
AC7A
100
AcDbEntity
  8
1
  6
Continuous
100
AcDbLine
 10
371.779194
 20
199.2282089999999
 30
0.0
 11
371.779194
 21
191.7222089999999
 31
0.0
  0
LINE
  5
ADDA
330
AC7A
100
AcDbEntity
  8
1
  6
Continuous
100
AcDbLine
 10
564.2849
 20
188.503704
 30
0.0
 11
566.2849
 21
188.503704
 31
0.0
  0
LINE
  5
ADDB
330
AC7A
100
AcDbEntity
  8
1
  6
Continuous
100
AcDbLine
 10
564.0848999999998
 20
204.975209
 30
0.0
 11
566.0848999999998
 21
204.975209
 31
0.0
  0
LINE
  5
ADDC
330
AC7A
100
AcDbEntity
  8
1
  6
Continuous
100
AcDbLine
 10
566.2849
 20
185.475209
 30
0.0
 11
564.2849
 21
185.475209
 31
0.0
  0
LINE
  5
ADDD
330
AC7A
100
AcDbEntity
  8
4
  6
CENTER
100
AcDbLine
 10
629.4849
 20
195.475209
 30
0.0
 11
549.2848999999998
 21
195.475209
 31
0.0
  0
LINE
  5
ADDE
330
AC7A
100
AcDbEntity
  8
1
  6
Continuous
100
AcDbLine
 10
622.2849
 20
178.475209
 30
0.0
 11
622.2849
 21
212.4752089999998
 31
0.0
  0
LINE
  5
ADDF
330
AC7A
100
AcDbEntity
  8
1
  6
Continuous
100
AcDbLine
 10
615.7848999999997
 20
212.4752089999998
 30
0.0
 11
615.7848999999997
 21
178.475209
 31
0.0
  0
LINE
  5
ADE0
330
AC7A
100
AcDbEntity
  8
1
  6
Continuous
100
AcDbLine
 10
625.2849
 20
179.275209
 30
0.0
 11
625.2849
 21
211.6752089999998
 31
0.0
  0
LINE
  5
ADE1
330
AC7A
100
AcDbEntity
  8
1
  6
Continuous
100
AcDbLine
 10
616.7849
 20
212.4752089999998
 30
0.0
 11
616.7849
 21
178.475209
 31
0.0
  0
LINE
  5
ADE2
330
AC7A
100
AcDbEntity
  8
1
  6
Continuous
100
AcDbLine
 10
618.2849
 20
212.4752089999998
 30
0.0
 11
618.2849
 21
178.475209
 31
0.0
  0
LINE
  5
ADE3
330
AC7A
100
AcDbEntity
  8
2
  6
Continuous
100
AcDbLine
 10
614.4849
 20
185.2872089999999
 30
0.0
 11
566.4729
 21
185.2872089999999
 31
0.0
  0
LINE
  5
ADE4
330
AC7A
100
AcDbEntity
  8
2
  6
Continuous
100
AcDbLine
 10
614.4849
 20
205.6632089999999
 30
0.0
 11
566.4729
 21
205.6632089999999
 31
0.0
  0
LINE
  5
ADE5
330
AC7A
100
AcDbEntity
  8
1
  6
Continuous
100
AcDbLine
 10
615.7848999999997
 20
206.475209
 30
0.0
 11
567.2849
 21
206.475209
 31
0.0
  0
LINE
  5
ADE6
330
AC7A
100
AcDbEntity
  8
1
  6
Continuous
100
AcDbLine
 10
615.7848999999997
 20
184.475209
 30
0.0
 11
567.2849
 21
184.475209
 31
0.0
  0
LINE
  5
ADE7
330
AC7A
100
AcDbEntity
  8
1
  6
Continuous
100
AcDbLine
 10
567.2849
 20
201.020477
 30
0.0
 11
615.7848999999997
 21
201.020477
 31
0.0
  0
LINE
  5
ADE8
330
AC7A
100
AcDbEntity
  8
1
  6
Continuous
100
AcDbLine
 10
567.2849
 20
189.9299409999999
 30
0.0
 11
615.7848999999997
 21
189.9299409999999
 31
0.0
  0
LINE
  5
ADE9
330
AC7A
100
AcDbEntity
  8
2
  6
Continuous
100
AcDbLine
 10
615.7848999999997
 20
190.4735949999999
 30
0.0
 11
567.2849
 21
201.020477
 31
0.0
  0
LINE
  5
ADEA
330
AC7A
100
AcDbEntity
  8
2
  6
Continuous
100
AcDbLine
 10
567.2849
 20
189.9299409999999
 30
0.0
 11
615.7848999999997
 21
200.4768229999998
 31
0.0
  0
LINE
  5
ADEB
330
AC7A
100
AcDbEntity
  8
1
  6
Continuous
100
AcDbLine
 10
614.4849
 20
184.475209
 30
0.0
 11
614.4849
 21
189.9299409999999
 31
0.0
  0
LINE
  5
ADEC
330
AC7A
100
AcDbEntity
  8
2
  6
Continuous
100
AcDbLine
 10
614.4849
 20
185.2872089999999
 30
0.0
 11
615.7848999999997
 21
184.536654
 31
0.0
  0
ARC
  5
ADED
330
AC7A
100
AcDbEntity
  8
1
  6
Continuous
100
AcDbCircle
 10
624.4849
 20
179.275209
 30
0.0
 40
0.8
100
AcDbArc
 50
270.0
 51
0.0
  0
LINE
  5
ADEE
330
AC7A
100
AcDbEntity
  8
1
  6
Continuous
100
AcDbLine
 10
624.4849
 20
178.475209
 30
0.0
 11
615.7848999999997
 21
178.475209
 31
0.0
  0
LINE
  5
ADEF
330
AC7A
100
AcDbEntity
  8
2
  6
Continuous
100
AcDbLine
 10
614.4849
 20
205.6632089999999
 30
0.0
 11
615.7848999999997
 21
206.4137639999999
 31
0.0
  0
ARC
  5
ADF0
330
AC7A
100
AcDbEntity
  8
1
  6
Continuous
100
AcDbCircle
 10
621.670614
 20
195.475209
 30
0.0
 40
4.814286
100
AcDbArc
 50
328.715507
 51
31.284493
  0
LINE
  5
ADF1
330
AC7A
100
AcDbEntity
  8
1
  6
Continuous
100
AcDbLine
 10
625.7849
 20
192.975209
 30
0.0
 11
625.7849
 21
197.975209
 31
0.0
  0
LINE
  5
ADF2
330
AC7A
100
AcDbEntity
  8
1
  6
Continuous
100
AcDbLine
 10
625.7849
 20
197.975209
 30
0.0
 11
625.2849
 21
197.975209
 31
0.0
  0
LINE
  5
ADF3
330
AC7A
100
AcDbEntity
  8
1
  6
Continuous
100
AcDbLine
 10
625.7849
 20
192.975209
 30
0.0
 11
625.2849
 21
192.975209
 31
0.0
  0
LINE
  5
ADF4
330
AC7A
100
AcDbEntity
  8
1
  6
Continuous
100
AcDbLine
 10
614.4849
 20
201.020477
 30
0.0
 11
614.4849
 21
206.475209
 31
0.0
  0
LINE
  5
ADF5
330
AC7A
100
AcDbEntity
  8
1
  6
Continuous
100
AcDbLine
 10
613.7849
 20
196.975209
 30
0.0
 11
613.7849
 21
193.9752089999998
 31
0.0
  0
LINE
  5
ADF6
330
AC7A
100
AcDbEntity
  8
1
  6
Continuous
100
AcDbLine
 10
615.7848999999997
 20
196.975209
 30
0.0
 11
613.7849
 21
196.975209
 31
0.0
  0
LINE
  5
ADF7
330
AC7A
100
AcDbEntity
  8
1
  6
Continuous
100
AcDbLine
 10
615.7848999999997
 20
193.9752089999998
 30
0.0
 11
613.7849
 21
193.9752089999998
 31
0.0
  0
LINE
  5
ADF8
330
AC7A
100
AcDbEntity
  8
1
  6
Continuous
100
AcDbLine
 10
566.2849
 20
185.475209
 30
0.0
 11
566.2849
 21
205.475209
 31
0.0
  0
LINE
  5
ADF9
330
AC7A
100
AcDbEntity
  8
1
  6
Continuous
100
AcDbLine
 10
567.2849
 20
184.475209
 30
0.0
 11
567.2849
 21
189.9299409999999
 31
0.0
  0
LINE
  5
ADFA
330
AC7A
100
AcDbEntity
  8
1
  6
Continuous
100
AcDbLine
 10
566.2849
 20
185.475209
 30
0.0
 11
567.2849
 21
184.475209
 31
0.0
  0
LINE
  5
ADFB
330
AC7A
100
AcDbEntity
  8
1
  6
Continuous
100
AcDbLine
 10
567.2849
 20
201.020477
 30
0.0
 11
567.2849
 21
206.475209
 31
0.0
  0
LINE
  5
ADFC
330
AC7A
100
AcDbEntity
  8
1
  6
Continuous
100
AcDbLine
 10
567.2849
 20
206.475209
 30
0.0
 11
566.2849
 21
205.475209
 31
0.0
  0
ARC
  5
ADFD
330
AC7A
100
AcDbEntity
  8
1
  6
Continuous
100
AcDbCircle
 10
577.2848999999999
 20
195.475209
 30
0.0
 40
11.43459699999998
100
AcDbArc
 50
150.990456
 51
164.1526889999999
  0
ARC
  5
ADFE
330
AC7A
100
AcDbEntity
  8
1
  6
Continuous
100
AcDbCircle
 10
577.2848999999999
 20
195.475209
 30
0.0
 40
11.43459699999998
100
AcDbArc
 50
195.8473109999999
 51
209.009544
  0
LINE
  5
ADFF
330
AC7A
100
AcDbEntity
  8
1
  6
Continuous
100
AcDbLine
 10
566.0848999999998
 20
188.503705
 30
0.0
 11
566.2849
 21
188.503705
 31
0.0
  0
LINE
  5
AE00
330
AC7A
100
AcDbEntity
  8
1
  6
Continuous
100
AcDbLine
 10
566.0848999999998
 20
204.975209
 30
0.0
 11
566.0848999999998
 21
188.503704
 31
0.0
  0
LINE
  5
AE01
330
AC7A
100
AcDbEntity
  8
1
  6
Continuous
100
AcDbLine
 10
566.0848999999998
 20
203.1752089999999
 30
0.0
 11
566.2849
 21
203.375209
 31
0.0
  0
ARC
  5
AE02
330
AC7A
100
AcDbEntity
  8
1
  6
Continuous
100
AcDbCircle
 10
624.4849
 20
211.6752089999998
 30
0.0
 40
0.8
100
AcDbArc
 50
0.0
 51
90.0
  0
LINE
  5
AE03
330
AC7A
100
AcDbEntity
  8
1
  6
Continuous
100
AcDbLine
 10
624.4849
 20
212.4752089999998
 30
0.0
 11
615.7848999999997
 21
212.4752089999998
 31
0.0
  0
LINE
  5
AE04
330
AC7A
100
AcDbEntity
  8
4
  6
CENTER
100
AcDbLine
 10
523.588407
 20
195.475209
 30
0.0
 11
470.618849
 21
195.475209
 31
0.0
  0
LINE
  5
AE05
330
AC7A
100
AcDbEntity
  8
1
  6
Continuous
100
AcDbLine
 10
513.898231
 20
213.950418
 30
0.0
 11
513.898231
 21
177.0
 31
0.0
  0
LINE
  5
AE06
330
AC7A
100
AcDbEntity
  8
1
  6
Continuous
100
AcDbLine
 10
517.898231
 20
213.950418
 30
0.0
 11
517.898231
 21
177.0
 31
0.0
  0
LINE
  5
AE07
330
AC7A
100
AcDbEntity
  8
1
  6
Continuous
100
AcDbLine
 10
564.0848999999998
 20
204.975209
 30
0.0
 11
564.0848999999998
 21
186.814955
 31
0.0
  0
LINE
  5
AE08
330
AC7A
100
AcDbEntity
  8
1
  6
Continuous
100
AcDbLine
 10
564.2849
 20
185.475209
 30
0.0
 11
564.2849
 21
188.503704
 31
0.0
  0
LINE
  5
AE09
330
AC7A
100
AcDbEntity
  8
1
  6
Continuous
100
AcDbLine
 10
564.0848999999998
 20
186.814955
 30
0.0
 11
564.2849
 21
186.814955
 31
0.0
  0
LINE
  5
AE0A
330
AC7A
100
AcDbEntity
  8
1
  6
Continuous
100
AcDbLine
 10
562.0848999999998
 20
190.030487
 30
0.0
 11
564.0848999999998
 21
190.030487
 31
0.0
  0
LINE
  5
AE0B
330
AC7A
100
AcDbEntity
  8
2
  6
Continuous
100
AcDbLine
 10
562.0848999999998
 20
190.030487
 30
0.0
 11
564.0848999999998
 21
192.681794
 31
0.0
  0
LINE
  5
AE0C
330
AC7A
100
AcDbEntity
  8
1
  6
Continuous
100
AcDbLine
 10
562.0848999999998
 20
200.919931
 30
0.0
 11
564.0848999999998
 21
200.919931
 31
0.0
  0
LINE
  5
AE0D
330
AC7A
100
AcDbEntity
  8
1
  6
Continuous
100
AcDbLine
 10
562.0848999999998
 20
195.687341
 30
0.0
 11
564.0848999999998
 21
195.687341
 31
0.0
  0
LINE
  5
AE0E
330
AC7A
100
AcDbEntity
  8
1
  6
Continuous
100
AcDbLine
 10
562.0848999999998
 20
195.263077
 30
0.0
 11
564.0848999999998
 21
195.263077
 31
0.0
  0
LINE
  5
AE0F
330
AC7A
100
AcDbEntity
  8
2
  6
Continuous
100
AcDbLine
 10
560.0848999999998
 20
198.798709
 30
0.0
 11
561.2566329999999
 21
199.475209
 31
0.0
  0
LINE
  5
AE10
330
AC7A
100
AcDbEntity
  8
2
  6
Continuous
100
AcDbLine
 10
560.0848999999998
 20
192.151709
 30
0.0
 11
561.2566329999999
 21
191.475209
 31
0.0
  0
LINE
  5
AE11
330
AC7A
100
AcDbEntity
  8
2
  6
Continuous
100
AcDbLine
 10
560.0848999999998
 20
192.151709
 30
0.0
 11
552.2848999999999
 21
192.151709
 31
0.0
  0
LINE
  5
AE12
330
AC7A
100
AcDbEntity
  8
2
  6
Continuous
100
AcDbLine
 10
560.0848999999998
 20
198.798709
 30
0.0
 11
552.2848999999999
 21
198.798709
 31
0.0
  0
LINE
  5
AE13
330
AC7A
100
AcDbEntity
  8
2
  6
Continuous
100
AcDbLine
 10
564.0848999999998
 20
192.681794
 30
0.0
 11
562.0848999999998
 21
195.263077
 31
0.0
  0
LINE
  5
AE14
330
AC7A
100
AcDbEntity
  8
2
  6
Continuous
100
AcDbLine
 10
564.0848999999998
 20
198.2686239999999
 30
0.0
 11
562.0848999999998
 21
195.687341
 31
0.0
  0
LINE
  5
AE15
330
AC7A
100
AcDbEntity
  8
2
  6
Continuous
100
AcDbLine
 10
562.0848999999998
 20
200.919931
 30
0.0
 11
564.0848999999998
 21
198.2686239999999
 31
0.0
  0
LINE
  5
AE16
330
AC7A
100
AcDbEntity
  8
1
  6
Continuous
100
AcDbLine
 10
562.0848999999998
 20
200.919931
 30
0.0
 11
562.0848999999998
 21
190.030487
 31
0.0
  0
LINE
  5
AE17
330
AC7A
100
AcDbEntity
  8
1
  6
Continuous
100
AcDbLine
 10
560.0848999999998
 20
199.475209
 30
0.0
 11
560.0848999999998
 21
191.475209
 31
0.0
  0
LINE
  5
AE18
330
AC7A
100
AcDbEntity
  8
1
  6
Continuous
100
AcDbLine
 10
552.7848999999998
 20
199.475209
 30
0.0
 11
552.7848999999998
 21
191.475209
 31
0.0
  0
LINE
  5
AE19
330
AC7A
100
AcDbEntity
  8
1
  6
Continuous
100
AcDbLine
 10
552.2848999999999
 20
191.975209
 30
0.0
 11
552.7848999999998
 21
191.475209
 31
0.0
  0
LINE
  5
AE1A
330
AC7A
100
AcDbEntity
  8
1
  6
Continuous
100
AcDbLine
 10
552.7848999999998
 20
199.475209
 30
0.0
 11
552.2848999999999
 21
198.9752089999998
 31
0.0
  0
LINE
  5
AE1B
330
AC7A
100
AcDbEntity
  8
1
  6
Continuous
100
AcDbLine
 10
562.0848999999998
 20
191.475209
 30
0.0
 11
552.7848999999998
 21
191.475209
 31
0.0
  0
LINE
  5
AE1C
330
AC7A
100
AcDbEntity
  8
1
  6
Continuous
100
AcDbLine
 10
562.0848999999998
 20
199.475209
 30
0.0
 11
552.7848999999998
 21
199.475209
 31
0.0
  0
LINE
  5
AE1D
330
AC7A
100
AcDbEntity
  8
1
  6
Continuous
100
AcDbLine
 10
552.2848999999999
 20
198.9752089999998
 30
0.0
 11
552.2848999999999
 21
191.975209
 31
0.0
  0
LINE
  5
AE1E
330
AC7A
100
AcDbEntity
  8
1
  6
Continuous
100
AcDbLine
 10
519.698231
 20
207.875209
 30
0.0
 11
519.698231
 21
183.075209
 31
0.0
  0
LINE
  5
AE1F
330
AC7A
100
AcDbEntity
  8
1
  6
Continuous
100
AcDbLine
 10
513.898231
 20
186.2376049999998
 30
0.0
 11
517.898231
 21
186.2376049999998
 31
0.0
  0
ARC
  5
AE20
330
AC7A
100
AcDbEntity
  8
1
  6
Continuous
100
AcDbCircle
 10
518.7982309999998
 20
183.075209
 30
0.0
 40
0.9
100
AcDbArc
 50
180.0
 51
0.0
  0
LINE
  5
AE21
330
AC7A
100
AcDbEntity
  8
1
  6
Continuous
100
AcDbLine
 10
513.898231
 20
204.7128129999999
 30
0.0
 11
517.898231
 21
204.7128129999999
 31
0.0
  0
ARC
  5
AE22
330
AC7A
100
AcDbEntity
  8
1
  6
Continuous
100
AcDbCircle
 10
518.7982309999998
 20
207.875209
 30
0.0
 40
0.9
100
AcDbArc
 50
0.0
 51
180.0
  0
LINE
  5
AE23
330
AC7A
100
AcDbEntity
  8
1
  6
Continuous
100
AcDbLine
 10
501.349189
 20
206.475209
 30
0.0
 11
501.349189
 21
184.475209
 31
0.0
  0
LINE
  5
AE24
330
AC7A
100
AcDbEntity
  8
1
  6
Continuous
100
AcDbLine
 10
494.8491889999998
 20
206.475209
 30
0.0
 11
494.8491889999998
 21
184.475209
 31
0.0
  0
LINE
  5
AE25
330
AC7A
100
AcDbEntity
  8
1
  6
Continuous
100
AcDbLine
 10
501.349189
 20
184.475209
 30
0.0
 11
494.8491889999998
 21
184.475209
 31
0.0
  0
LINE
  5
AE26
330
AC7A
100
AcDbEntity
  8
1
  6
Continuous
100
AcDbLine
 10
501.349189
 20
206.475209
 30
0.0
 11
494.8491889999998
 21
206.475209
 31
0.0
  0
LINE
  5
AE27
330
AC7A
100
AcDbEntity
  8
1
  6
Continuous
100
AcDbLine
 10
480.9707869999998
 20
195.475209
 30
0.0
 11
482.970787
 21
197.475209
 31
0.0
  0
LINE
  5
AE28
330
AC7A
100
AcDbEntity
  8
1
  6
Continuous
100
AcDbLine
 10
480.9707869999998
 20
193.475209
 30
0.0
 11
482.970787
 21
195.475209
 31
0.0
  0
LINE
  5
AE29
330
AC7A
100
AcDbEntity
  8
1
  6
Continuous
100
AcDbLine
 10
482.970787
 20
203.1752089999999
 30
0.0
 11
482.970787
 21
187.7752089999999
 31
0.0
  0
LINE
  5
AE2A
330
AC7A
100
AcDbEntity
  8
1
  6
Continuous
100
AcDbLine
 10
480.9707869999998
 20
203.1752089999999
 30
0.0
 11
480.9707869999998
 21
187.7752089999999
 31
0.0
  0
LINE
  5
AE2B
330
AC7A
100
AcDbEntity
  8
1
  6
Continuous
100
AcDbLine
 10
482.970787
 20
203.1752089999999
 30
0.0
 11
480.9707869999998
 21
203.1752089999999
 31
0.0
  0
LINE
  5
AE2C
330
AC7A
100
AcDbEntity
  8
1
  6
Continuous
100
AcDbLine
 10
482.970787
 20
187.7752089999999
 30
0.0
 11
480.9707869999998
 21
187.7752089999999
 31
0.0
  0
ARC
  5
AE2D
330
AC7A
100
AcDbEntity
  8
1
  6
Continuous
100
AcDbCircle
 10
481.2610099999998
 20
201.975197
 30
0.0
 40
6.790222999999999
100
AcDbArc
 50
180.0
 51
203.8650239999999
  0
ARC
  5
AE2E
330
AC7A
100
AcDbEntity
  8
1
  6
Continuous
100
AcDbCircle
 10
481.2610099999998
 20
188.975221
 30
0.0
 40
6.790222999999999
100
AcDbArc
 50
156.1349759999998
 51
180.0
  0
ARC
  5
AE2F
330
AC7A
100
AcDbEntity
  8
1
  6
Continuous
100
AcDbCircle
 10
486.89023
 20
195.475209
 30
0.0
 40
12.419443
100
AcDbArc
 50
162.412046
 51
197.5879539999999
  0
LINE
  5
AE30
330
AC7A
100
AcDbEntity
  8
1
  6
Continuous
100
AcDbLine
 10
474.470787
 20
188.9752089999998
 30
0.0
 11
475.0513429999998
 21
187.969656
 31
0.0
  0
LINE
  5
AE31
330
AC7A
100
AcDbEntity
  8
1
  6
Continuous
100
AcDbLine
 10
474.470787
 20
201.9752089999999
 30
0.0
 11
475.0513429999998
 21
202.980763
 31
0.0
  0
LINE
  5
AE32
330
AC7A
100
AcDbEntity
  8
1
  6
Continuous
100
AcDbLine
 10
474.470787
 20
201.9752089999999
 30
0.0
 11
474.470787
 21
188.9752089999998
 31
0.0
  0
LINE
  5
AE33
330
AC7A
100
AcDbEntity
  8
1
  6
Continuous
100
AcDbLine
 10
475.0513429999998
 20
191.722432
 30
0.0
 11
480.9707869999998
 21
191.722432
 31
0.0
  0
LINE
  5
AE34
330
AC7A
100
AcDbEntity
  8
1
  6
Continuous
100
AcDbLine
 10
475.0513429999998
 20
199.227986
 30
0.0
 11
480.9707869999998
 21
199.227986
 31
0.0
  0
LINE
  5
AE35
330
AC7A
100
AcDbEntity
  8
1
  6
Continuous
100
AcDbLine
 10
475.0513429999998
 20
187.969656
 30
0.0
 11
480.9707869999998
 21
187.969656
 31
0.0
  0
LINE
  5
AE36
330
AC7A
100
AcDbEntity
  8
1
  6
Continuous
100
AcDbLine
 10
475.0513429999998
 20
202.980763
 30
0.0
 11
480.9707869999998
 21
202.980763
 31
0.0
  0
LINE
  5
AE37
330
AC7A
100
AcDbEntity
  8
1
  6
Continuous
100
AcDbLine
 10
564.0848999999998
 20
192.35271
 30
0.0
 11
566.0848999999998
 21
192.35271
 31
0.0
  0
LINE
  5
AE38
330
AC7A
100
AcDbEntity
  8
1
  6
Continuous
100
AcDbLine
 10
564.0848999999998
 20
198.5977079999999
 30
0.0
 11
566.0848999999998
 21
198.5977079999999
 31
0.0
  0
LINE
  5
AE39
330
AC7A
100
AcDbEntity
  8
1
  6
Continuous
100
AcDbLine
 10
223.3999999999999
 20
311.450418
 30
0.0
 11
221.3999999999999
 21
311.450418
 31
0.0
  0
LINE
  5
AE3A
330
AC7A
100
AcDbEntity
  8
1
  6
Continuous
100
AcDbLine
 10
223.3999999999999
 20
293.290164
 30
0.0
 11
221.3999999999999
 21
293.290164
 31
0.0
  0
LINE
  5
AE3B
330
AC7A
100
AcDbEntity
  8
4
  6
CENTER
100
AcDbLine
 10
158.0
 20
301.950418
 30
0.0
 11
238.2
 21
301.950418
 31
0.0
  0
ARC
  5
AE3C
330
AC7A
100
AcDbEntity
  8
1
  6
Continuous
100
AcDbCircle
 10
165.814286
 20
314.950418
 30
0.0
 40
4.814286
100
AcDbArc
 50
148.715507
 51
211.284493
  0
LINE
  5
AE3D
330
AC7A
100
AcDbEntity
  8
1
  6
Continuous
100
AcDbLine
 10
161.6999999999999
 20
312.450418
 30
0.0
 11
161.6999999999999
 21
317.450418
 31
0.0
  0
LINE
  5
AE3E
330
AC7A
100
AcDbEntity
  8
1
  6
Continuous
100
AcDbLine
 10
165.1999999999999
 20
284.950418
 30
0.0
 11
165.1999999999999
 21
318.950418
 31
0.0
  0
LINE
  5
AE3F
330
AC7A
100
AcDbEntity
  8
1
  6
Continuous
100
AcDbLine
 10
170.6999999999998
 20
284.950418
 30
0.0
 11
170.6999999999998
 21
318.950418
 31
0.0
  0
LINE
  5
AE40
330
AC7A
100
AcDbEntity
  8
1
  6
Continuous
100
AcDbLine
 10
171.6999999999998
 20
284.950418
 30
0.0
 11
171.6999999999998
 21
318.950418
 31
0.0
  0
LINE
  5
AE41
330
AC7A
100
AcDbEntity
  8
1
  6
Continuous
100
AcDbLine
 10
169.1999999999999
 20
284.950418
 30
0.0
 11
169.1999999999999
 21
318.950418
 31
0.0
  0
LINE
  5
AE42
330
AC7A
100
AcDbEntity
  8
1
  6
Continuous
100
AcDbLine
 10
162.1999999999998
 20
285.750418
 30
0.0
 11
162.1999999999998
 21
318.150418
 31
0.0
  0
LINE
  5
AE43
330
AC7A
100
AcDbEntity
  8
4
  6
CENTER
100
AcDbLine
 10
168.6999999999999
 20
315.950418
 30
0.0
 11
175.1999999999999
 21
315.950418
 31
0.0
  0
ARC
  5
AE44
330
AC7A
100
AcDbEntity
  8
1
  6
Continuous
100
AcDbCircle
 10
163.0
 20
318.150418
 30
0.0
 40
0.8
100
AcDbArc
 50
90.0
 51
180.0
  0
LINE
  5
AE45
330
AC7A
100
AcDbEntity
  8
1
  6
Continuous
100
AcDbLine
 10
161.6999999999999
 20
317.450418
 30
0.0
 11
162.1999999999998
 21
317.450418
 31
0.0
  0
LINE
  5
AE46
330
AC7A
100
AcDbEntity
  8
4
  6
CENTER
100
AcDbLine
 10
159.4999999999998
 20
314.950418
 30
0.0
 11
166.1999999999999
 21
314.950418
 31
0.0
  0
LINE
  5
AE47
330
AC7A
100
AcDbEntity
  8
1
  6
Continuous
100
AcDbLine
 10
171.6999999999998
 20
317.450418
 30
0.0
 11
173.6999999999999
 21
317.450418
 31
0.0
  0
LINE
  5
AE48
330
AC7A
100
AcDbEntity
  8
1
  6
Continuous
100
AcDbLine
 10
171.6999999999998
 20
314.450418
 30
0.0
 11
173.6999999999999
 21
314.450418
 31
0.0
  0
LINE
  5
AE49
330
AC7A
100
AcDbEntity
  8
1
  6
Continuous
100
AcDbLine
 10
173.6999999999999
 20
314.450418
 30
0.0
 11
173.6999999999999
 21
317.450418
 31
0.0
  0
LINE
  5
AE4A
330
AC7A
100
AcDbEntity
  8
1
  6
Continuous
100
AcDbLine
 10
163.0
 20
318.950418
 30
0.0
 11
171.6999999999998
 21
318.950418
 31
0.0
  0
LINE
  5
AE4B
330
AC7A
100
AcDbEntity
  8
1
  6
Continuous
100
AcDbLine
 10
171.6999999999998
 20
311.450418
 30
0.0
 11
221.1999999999999
 21
311.450418
 31
0.0
  0
LINE
  5
AE4C
330
AC7A
100
AcDbEntity
  8
1
  6
Continuous
100
AcDbLine
 10
171.6999999999998
 20
292.4504179999999
 30
0.0
 11
221.1999999999999
 21
292.4504179999999
 31
0.0
  0
LINE
  5
AE4D
330
AC7A
100
AcDbEntity
  8
1
  6
Continuous
100
AcDbLine
 10
161.6999999999999
 20
312.450418
 30
0.0
 11
162.1999999999998
 21
312.450418
 31
0.0
  0
LINE
  5
AE4E
330
AC7A
100
AcDbEntity
  8
1
  6
Continuous
100
AcDbLine
 10
173.0
 20
292.4504179999999
 30
0.0
 11
173.0
 21
311.450418
 31
0.0
  0
ARC
  5
AE4F
330
AC7A
100
AcDbEntity
  8
1
  6
Continuous
100
AcDbCircle
 10
163.0
 20
285.750418
 30
0.0
 40
0.8
100
AcDbArc
 50
180.0
 51
270.0
  0
LINE
  5
AE50
330
AC7A
100
AcDbEntity
  8
1
  6
Continuous
100
AcDbLine
 10
163.0
 20
284.950418
 30
0.0
 11
171.6999999999998
 21
284.950418
 31
0.0
  0
LINE
  5
AE51
330
AC7A
100
AcDbEntity
  8
1
  6
Continuous
100
AcDbLine
 10
221.3999999999999
 20
294.250418
 30
0.0
 11
221.1999999999999
 21
294.0504179999999
 31
0.0
  0
LINE
  5
AE52
330
AC7A
100
AcDbEntity
  8
1
  6
Continuous
100
AcDbLine
 10
221.3999999999999
 20
311.450418
 30
0.0
 11
221.3999999999999
 21
293.290164
 31
0.0
  0
LINE
  5
AE53
330
AC7A
100
AcDbEntity
  8
1
  6
Continuous
100
AcDbLine
 10
221.3999999999999
 20
309.650418
 30
0.0
 11
221.1999999999999
 21
309.8504179999999
 31
0.0
  0
LINE
  5
AE54
330
AC7A
100
AcDbEntity
  8
1
  6
Continuous
100
AcDbLine
 10
221.1999999999999
 20
292.4504179999999
 30
0.0
 11
221.1999999999999
 21
311.450418
 31
0.0
  0
LINE
  5
AE55
330
AC7A
100
AcDbEntity
  8
1
  6
Continuous
100
AcDbLine
 10
220.1999999999999
 20
292.4504179999999
 30
0.0
 11
220.1999999999999
 21
311.450418
 31
0.0
  0
LINE
  5
AE56
330
AC7A
100
AcDbEntity
  8
1
  6
Continuous
100
AcDbLine
 10
267.786669
 20
289.5504179999999
 30
0.0
 11
267.786669
 21
314.3504179999998
 31
0.0
  0
LINE
  5
AE57
330
AC7A
100
AcDbEntity
  8
1
  6
Continuous
100
AcDbLine
 10
269.5866689999999
 20
317.950418
 30
0.0
 11
269.5866689999999
 21
285.950418
 31
0.0
  0
LINE
  5
AE58
330
AC7A
100
AcDbEntity
  8
1
  6
Continuous
100
AcDbLine
 10
273.5866689999999
 20
317.950418
 30
0.0
 11
273.5866689999999
 21
285.950418
 31
0.0
  0
LINE
  5
AE59
330
AC7A
100
AcDbEntity
  8
1
  6
Continuous
100
AcDbLine
 10
289.635711
 20
346.950418
 30
0.0
 11
289.635711
 21
290.950418
 31
0.0
  0
LINE
  5
AE5A
330
AC7A
100
AcDbEntity
  8
1
  6
Continuous
100
AcDbLine
 10
292.635711
 20
346.950418
 30
0.0
 11
292.635711
 21
290.950418
 31
0.0
  0
LINE
  5
AE5B
330
AC7A
100
AcDbEntity
  8
1
  6
Continuous
100
AcDbLine
 10
269.5866689999999
 20
317.950418
 30
0.0
 11
273.5866689999999
 21
317.950418
 31
0.0
  0
ARC
  5
AE5C
330
AC7A
100
AcDbEntity
  8
1
  6
Continuous
100
AcDbCircle
 10
268.686669
 20
314.3504179999998
 30
0.0
 40
0.9
100
AcDbArc
 50
0.0
 51
180.0
  0
ARC
  5
AE5D
330
AC7A
100
AcDbEntity
  8
1
  6
Continuous
100
AcDbCircle
 10
289.635711
 20
346.950418
 30
0.0
 40
3.0
100
AcDbArc
 50
0.0
 51
90.0
  0
LINE
  5
AE5E
330
AC7A
100
AcDbEntity
  8
1
  6
Continuous
100
AcDbLine
 10
286.135711
 20
349.950418
 30
0.0
 11
286.135711
 21
346.950418
 31
0.0
  0
LINE
  5
AE5F
330
AC7A
100
AcDbEntity
  8
1
  6
Continuous
100
AcDbLine
 10
286.135711
 20
346.950418
 30
0.0
 11
289.635711
 21
346.950418
 31
0.0
  0
LINE
  5
AE60
330
AC7A
100
AcDbEntity
  8
1
  6
Continuous
100
AcDbLine
 10
286.135711
 20
349.950418
 30
0.0
 11
289.635711
 21
349.950418
 31
0.0
  0
LINE
  5
AE61
330
AC7A
100
AcDbEntity
  8
4
  6
CENTER
100
AcDbLine
 10
263.896493
 20
301.950418
 30
0.0
 11
316.866052
 21
301.950418
 31
0.0
  0
LINE
  5
AE62
330
AC7A
100
AcDbEntity
  8
2
  6
Continuous
100
AcDbLine
 10
223.3999999999999
 20
304.7438329999998
 30
0.0
 11
225.4
 21
302.16255
 31
0.0
  0
LINE
  5
AE63
330
AC7A
100
AcDbEntity
  8
2
  6
Continuous
100
AcDbLine
 10
227.4
 20
305.2739179999999
 30
0.0
 11
226.228268
 21
305.950418
 31
0.0
  0
LINE
  5
AE64
330
AC7A
100
AcDbEntity
  8
2
  6
Continuous
100
AcDbLine
 10
225.4
 20
307.3951399999999
 30
0.0
 11
223.3999999999999
 21
304.7438329999998
 31
0.0
  0
LINE
  5
AE65
330
AC7A
100
AcDbEntity
  8
1
  6
Continuous
100
AcDbLine
 10
225.4
 20
307.3951399999999
 30
0.0
 11
223.3999999999999
 21
307.3951399999999
 31
0.0
  0
LINE
  5
AE66
330
AC7A
100
AcDbEntity
  8
1
  6
Continuous
100
AcDbLine
 10
225.4
 20
302.16255
 30
0.0
 11
223.3999999999999
 21
302.16255
 31
0.0
  0
LINE
  5
AE67
330
AC7A
100
AcDbEntity
  8
1
  6
Continuous
100
AcDbLine
 10
225.4
 20
301.7382859999999
 30
0.0
 11
223.3999999999999
 21
301.7382859999999
 31
0.0
  0
LINE
  5
AE68
330
AC7A
100
AcDbEntity
  8
1
  6
Continuous
100
AcDbLine
 10
227.4
 20
297.950418
 30
0.0
 11
227.4
 21
305.950418
 31
0.0
  0
LINE
  5
AE69
330
AC7A
100
AcDbEntity
  8
1
  6
Continuous
100
AcDbLine
 10
225.4
 20
296.505696
 30
0.0
 11
225.4
 21
307.3951399999999
 31
0.0
  0
LINE
  5
AE6A
330
AC7A
100
AcDbEntity
  8
2
  6
Continuous
100
AcDbLine
 10
225.4
 20
296.505696
 30
0.0
 11
223.3999999999999
 21
299.1570029999999
 31
0.0
  0
LINE
  5
AE6B
330
AC7A
100
AcDbEntity
  8
2
  6
Continuous
100
AcDbLine
 10
223.3999999999999
 20
299.1570029999999
 30
0.0
 11
225.4
 21
301.7382859999999
 31
0.0
  0
LINE
  5
AE6C
330
AC7A
100
AcDbEntity
  8
2
  6
Continuous
100
AcDbLine
 10
227.4
 20
298.6269179999998
 30
0.0
 11
226.228268
 21
297.950418
 31
0.0
  0
LINE
  5
AE6D
330
AC7A
100
AcDbEntity
  8
1
  6
Continuous
100
AcDbLine
 10
225.4
 20
296.505696
 30
0.0
 11
223.3999999999999
 21
296.505696
 31
0.0
  0
LINE
  5
AE6E
330
AC7A
100
AcDbEntity
  8
1
  6
Continuous
100
AcDbLine
 10
225.4
 20
305.950418
 30
0.0
 11
234.6999999999999
 21
305.950418
 31
0.0
  0
LINE
  5
AE6F
330
AC7A
100
AcDbEntity
  8
1
  6
Continuous
100
AcDbLine
 10
235.1999999999999
 20
305.450418
 30
0.0
 11
234.6999999999999
 21
305.950418
 31
0.0
  0
LINE
  5
AE70
330
AC7A
100
AcDbEntity
  8
2
  6
Continuous
100
AcDbLine
 10
227.4
 20
305.2739179999999
 30
0.0
 11
235.1999999999999
 21
305.2739179999999
 31
0.0
  0
LINE
  5
AE71
330
AC7A
100
AcDbEntity
  8
1
  6
Continuous
100
AcDbLine
 10
235.1999999999999
 20
298.450418
 30
0.0
 11
235.1999999999999
 21
305.450418
 31
0.0
  0
LINE
  5
AE72
330
AC7A
100
AcDbEntity
  8
1
  6
Continuous
100
AcDbLine
 10
225.4
 20
297.950418
 30
0.0
 11
234.6999999999999
 21
297.950418
 31
0.0
  0
LINE
  5
AE73
330
AC7A
100
AcDbEntity
  8
1
  6
Continuous
100
AcDbLine
 10
234.6999999999999
 20
297.950418
 30
0.0
 11
235.1999999999999
 21
298.450418
 31
0.0
  0
LINE
  5
AE74
330
AC7A
100
AcDbEntity
  8
1
  6
Continuous
100
AcDbLine
 10
234.6999999999999
 20
297.950418
 30
0.0
 11
234.6999999999999
 21
305.950418
 31
0.0
  0
LINE
  5
AE75
330
AC7A
100
AcDbEntity
  8
2
  6
Continuous
100
AcDbLine
 10
227.4
 20
298.6269179999998
 30
0.0
 11
235.1999999999999
 21
298.6269179999998
 31
0.0
  0
LINE
  5
AE76
330
AC7A
100
AcDbEntity
  8
1
  6
Continuous
100
AcDbLine
 10
223.3999999999999
 20
293.290164
 30
0.0
 11
223.3999999999999
 21
311.450418
 31
0.0
  0
LINE
  5
AE77
330
AC7A
100
AcDbEntity
  8
1
  6
Continuous
100
AcDbLine
 10
273.5866689999999
 20
301.950418
 30
0.0
 11
269.5866689999999
 21
301.950418
 31
0.0
  0
LINE
  5
AE78
330
AC7A
100
AcDbEntity
  8
1
  6
Continuous
100
AcDbLine
 10
269.5866689999999
 20
285.950418
 30
0.0
 11
273.5866689999999
 21
285.950418
 31
0.0
  0
ARC
  5
AE79
330
AC7A
100
AcDbEntity
  8
1
  6
Continuous
100
AcDbCircle
 10
268.686669
 20
289.5504179999999
 30
0.0
 40
0.9
100
AcDbArc
 50
180.0
 51
0.0
  0
LINE
  5
AE7A
330
AC7A
100
AcDbEntity
  8
1
  6
Continuous
100
AcDbLine
 10
304.514114
 20
309.650418
 30
0.0
 11
306.514114
 21
309.650418
 31
0.0
  0
LINE
  5
AE7B
330
AC7A
100
AcDbEntity
  8
1
  6
Continuous
100
AcDbLine
 10
304.514114
 20
294.250418
 30
0.0
 11
306.514114
 21
294.250418
 31
0.0
  0
LINE
  5
AE7C
330
AC7A
100
AcDbEntity
  8
1
  6
Continuous
100
AcDbLine
 10
306.514114
 20
294.250418
 30
0.0
 11
306.514114
 21
309.650418
 31
0.0
  0
LINE
  5
AE7D
330
AC7A
100
AcDbEntity
  8
1
  6
Continuous
100
AcDbLine
 10
304.514114
 20
294.250418
 30
0.0
 11
304.514114
 21
309.650418
 31
0.0
  0
LINE
  5
AE7E
330
AC7A
100
AcDbEntity
  8
1
  6
Continuous
100
AcDbLine
 10
306.514114
 20
303.950418
 30
0.0
 11
304.514114
 21
301.950418
 31
0.0
  0
LINE
  5
AE7F
330
AC7A
100
AcDbEntity
  8
1
  6
Continuous
100
AcDbLine
 10
306.514114
 20
301.950418
 30
0.0
 11
304.514114
 21
299.950418
 31
0.0
  0
ARC
  5
AE80
330
AC7A
100
AcDbEntity
  8
1
  6
Continuous
100
AcDbCircle
 10
303.626962
 20
305.200418
 30
0.0
 40
9.387152
100
AcDbArc
 50
339.7438419999998
 51
20.256158
  0
ARC
  5
AE81
330
AC7A
100
AcDbEntity
  8
1
  6
Continuous
100
AcDbCircle
 10
303.626962
 20
298.7004179999999
 30
0.0
 40
9.387152
100
AcDbArc
 50
339.7438419999998
 51
20.256158
  0
LINE
  5
AE82
330
AC7A
100
AcDbEntity
  8
1
  6
Continuous
100
AcDbLine
 10
313.014114
 20
308.450418
 30
0.0
 11
313.014114
 21
295.450418
 31
0.0
  0
LINE
  5
AE83
330
AC7A
100
AcDbEntity
  8
1
  6
Continuous
100
AcDbLine
 10
312.433558
 20
301.950418
 30
0.0
 11
306.514114
 21
301.950418
 31
0.0
  0
LINE
  5
AE84
330
AC7A
100
AcDbEntity
  8
1
  6
Continuous
100
AcDbLine
 10
306.514114
 20
308.450418
 30
0.0
 11
313.014114
 21
308.450418
 31
0.0
  0
LINE
  5
AE85
330
AC7A
100
AcDbEntity
  8
1
  6
Continuous
100
AcDbLine
 10
306.514114
 20
295.450418
 30
0.0
 11
313.014114
 21
295.450418
 31
0.0
  0
LINE
  5
AE86
330
AC7A
100
AcDbEntity
  8
1
  6
Continuous
100
AcDbLine
 10
289.635711
 20
290.950418
 30
0.0
 11
292.635711
 21
290.950418
 31
0.0
  0
LINE
  5
AE87
330
AC7A
100
AcDbEntity
  8
1
  6
Continuous
100
AcDbLine
 10
223.3999999999999
 20
305.072917
 30
0.0
 11
221.3999999999999
 21
305.072917
 31
0.0
  0
LINE
  5
AE88
330
AC7A
100
AcDbEntity
  8
1
  6
Continuous
100
AcDbLine
 10
223.3999999999999
 20
298.827919
 30
0.0
 11
221.3999999999999
 21
298.827919
 31
0.0
  0
LINE
  5
AE89
330
AC7A
100
AcDbEntity
  8
1
  6
Continuous
100
AcDbLine
 10
273.5866689999999
 20
213.950418
 30
0.0
 11
269.5866689999999
 21
213.950418
 31
0.0
  0
LINE
  5
AE8A
330
AC7A
100
AcDbEntity
  8
1
  6
Continuous
100
AcDbLine
 10
273.5866689999999
 20
177.0
 30
0.0
 11
269.5866689999999
 21
177.0
 31
0.0
  0
LINE
  5
AE8B
330
AC7A
100
AcDbEntity
  8
1
  6
Continuous
100
AcDbLine
 10
517.898231
 20
177.0
 30
0.0
 11
513.898231
 21
177.0
 31
0.0
  0
LINE
  5
AE8C
330
AC7A
100
AcDbEntity
  8
1
  6
Continuous
100
AcDbLine
 10
517.898231
 20
213.950418
 30
0.0
 11
513.898231
 21
213.950418
 31
0.0
  0
LINE
  5
AE8D
330
AC7A
100
AcDbEntity
  8
1
  6
Continuous
100
AcDbLine
 10
269.5866689999999
 20
303.750418
 30
0.0
 11
267.786669
 21
301.950418
 31
0.0
  0
LINE
  5
AE8E
330
AC7A
100
AcDbEntity
  8
1
  6
Continuous
100
AcDbLine
 10
269.5866689999999
 20
301.950418
 30
0.0
 11
267.786669
 21
300.1504179999999
 31
0.0
  0
LINE
  5
AE8F
330
AC7A
100
AcDbEntity
  8
1
  6
Continuous
100
AcDbLine
 10
269.5866689999999
 20
197.275209
 30
0.0
 11
267.786669
 21
195.475209
 31
0.0
  0
LINE
  5
AE90
330
AC7A
100
AcDbEntity
  8
1
  6
Continuous
100
AcDbLine
 10
269.5866689999999
 20
195.475209
 30
0.0
 11
267.786669
 21
193.6752089999998
 31
0.0
  0
LINE
  5
AE91
330
AC7A
100
AcDbEntity
  8
1
  6
Continuous
100
AcDbLine
 10
269.5866689999999
 20
89.0
 30
0.0
 11
267.786669
 21
87.2
 31
0.0
  0
LINE
  5
AE92
330
AC7A
100
AcDbEntity
  8
1
  6
Continuous
100
AcDbLine
 10
269.5866689999999
 20
90.8
 30
0.0
 11
267.786669
 21
89.0
 31
0.0
  0
LINE
  5
AE93
330
AC7A
100
AcDbEntity
  8
1
  6
Continuous
100
AcDbLine
 10
519.698231
 20
197.275209
 30
0.0
 11
517.898231
 21
195.475209
 31
0.0
  0
LINE
  5
AE94
330
AC7A
100
AcDbEntity
  8
1
  6
Continuous
100
AcDbLine
 10
519.698231
 20
195.475209
 30
0.0
 11
517.898231
 21
193.6752089999998
 31
0.0
  0
ENDSEC
  0
SECTION
  2
OBJECTS
  0
DICTIONARY
  5
AC68
330
0
100
AcDbDictionary
281
     1
  3
ACAD_CIP_PREVIOUS_PRODUCT_INFO
350
AEFA
  3
ACAD_COLOR
350
AEDC
  3
ACAD_DETAILVIEWSTYLE
350
AEF5
  3
ACAD_GROUP
350
AC69
  3
ACAD_LAYOUT
350
AC75
  3
ACAD_MATERIAL
350
AEAA
  3
ACAD_MLEADERSTYLE
350
AEF1
  3
ACAD_MLINESTYLE
350
AC72
  3
ACAD_PLOTSETTINGS
350
AC74
  3
ACAD_PLOTSTYLENAME
350
AEA8
  3
ACAD_SCALELIST
350
AEDF
  3
ACAD_SECTIONVIEWSTYLE
350
AEF3
  3
ACAD_TABLESTYLE
350
AEDD
  3
ACAD_VISUALSTYLE
350
AEC3
  3
ACDB_RECOMPOSE_DATA
350
AF18
  3
AcDbVariableDictionary
350
AF0B
  3
DWGPROPS
350
AF19
  0
DICTIONARY
  5
AEFB
330
AC6C
100
AcDbDictionary
280
     1
281
     1
  3
ADSK_XREC_LAYER_RECONCILED
360
AEFC
  0
DICTIONARY
  5
AEFD
330
AC82
100
AcDbDictionary
280
     1
281
     1
  3
ADSK_XREC_LAYER_RECONCILED
360
AEFE
  0
DICTIONARY
  5
AEFF
330
AC83
100
AcDbDictionary
280
     1
281
     1
  3
ADSK_XREC_LAYER_RECONCILED
360
AF00
  0
DICTIONARY
  5
AF01
330
AC84
100
AcDbDictionary
280
     1
281
     1
  3
ADSK_XREC_LAYER_RECONCILED
360
AF02
  0
DICTIONARY
  5
AF03
330
AC85
100
AcDbDictionary
280
     1
281
     1
  3
ADSK_XREC_LAYER_RECONCILED
360
AF04
  0
DICTIONARY
  5
AF05
330
AC86
100
AcDbDictionary
280
     1
281
     1
  3
ADSK_XREC_LAYER_RECONCILED
360
AF06
  0
DICTIONARY
  5
AF07
330
AC87
100
AcDbDictionary
280
     1
281
     1
  3
ADSK_XREC_LAYER_RECONCILED
360
AF08
  0
DICTIONARY
  5
AF09
330
AC88
100
AcDbDictionary
280
     1
281
     1
  3
ADSK_XREC_LAYER_RECONCILED
360
AF0A
  0
DICTIONARY
  5
AEA3
330
AC7A
100
AcDbDictionary
281
     1
  3
ACAD_LAYOUTSELFREF
350
AEA4
  0
DICTIONARY
  5
AEA1
330
AC76
100
AcDbDictionary
281
     1
  3
ACAD_LAYOUTSELFREF
350
AEA2
  0
XRECORD
  5
AEFA
102
{ACAD_REACTORS
330
AC68
102
}
330
AC68
100
AcDbXrecord
280
     1
300
ACDLT
300
2014
300
ACDLT_F_S
  0
DICTIONARY
  5
AEDC
102
{ACAD_REACTORS
330
AC68
102
}
330
AC68
100
AcDbDictionary
281
     1
  0
DICTIONARY
  5
AEF5
102
{ACAD_REACTORS
330
AC68
102
}
330
AC68
100
AcDbDictionary
281
     1
  3
Imperial24
350
AEF6
  0
DICTIONARY
  5
AC69
102
{ACAD_REACTORS
330
AC68
102
}
330
AC68
100
AcDbDictionary
281
     1
  0
DICTIONARY
  5
AC75
102
{ACAD_REACTORS
330
AC68
102
}
330
AC68
100
AcDbDictionary
281
     1
  3
Model
350
AEF7
  3
レイアウト1
350
AEF8
  0
DICTIONARY
  5
AEAA
102
{ACAD_REACTORS
330
AC68
102
}
330
AC68
100
AcDbDictionary
281
     1
  3
ByBlock
350
AEB3
  3
ByLayer
350
AEAB
  3
Global
350
AEBB
  0
DICTIONARY
  5
AEF1
102
{ACAD_REACTORS
330
AC68
102
}
330
AC68
100
AcDbDictionary
281
     1
  3
Standard
350
AEF2
  0
DICTIONARY
  5
AC72
102
{ACAD_REACTORS
330
AC68
102
}
330
AC68
100
AcDbDictionary
281
     1
  3
STANDARD
350
AC73
  0
DICTIONARY
  5
AC74
102
{ACAD_REACTORS
330
AC68
102
}
330
AC68
100
AcDbDictionary
281
     1
  0
ACDBDICTIONARYWDFLT
  5
AEA8
102
{ACAD_REACTORS
330
AC68
102
}
330
AC68
100
AcDbDictionary
281
     1
  3
Normal
350
AEA9
100
AcDbDictionaryWithDefault
340
AEA9
  0
DICTIONARY
  5
AEDF
102
{ACAD_REACTORS
330
AC68
102
}
330
AC68
100
AcDbDictionary
281
     1
  3
A0
350
AEE0
  3
A1
350
AEE1
  3
A2
350
AEE2
  3
A3
350
AEE3
  3
A4
350
AEE4
  3
A5
350
AEE5
  3
A6
350
AEE6
  3
A7
350
AEE7
  3
A8
350
AEE8
  3
A9
350
AEE9
  3
B0
350
AEEA
  3
B1
350
AEEB
  3
B2
350
AEEC
  3
B3
350
AEED
  3
B4
350
AEEE
  3
B5
350
AEEF
  3
B6
350
AEF0
  0
DICTIONARY
  5
AEF3
102
{ACAD_REACTORS
330
AC68
102
}
330
AC68
100
AcDbDictionary
281
     1
  3
Imperial24
350
AEF4
  0
DICTIONARY
  5
AEDD
102
{ACAD_REACTORS
330
AC68
102
}
330
AC68
100
AcDbDictionary
281
     1
  3
Standard
350
AEDE
  0
DICTIONARY
  5
AEC3
102
{ACAD_REACTORS
330
AC68
102
}
330
AC68
100
AcDbDictionary
281
     1
  3
2dWireframe
350
AEC9
  3
Basic
350
AEC8
  3
Brighten
350
AECF
  3
ColorChange
350
AED3
  3
Conceptual
350
AECC
  3
Dim
350
AECE
  3
EdgeColorOff
350
AEDB
  3
Facepattern
350
AED2
  3
Flat
350
AEC4
  3
FlatWithEdges
350
AEC5
  3
Gouraud
350
AEC6
  3
GouraudWithEdges
350
AEC7
  3
Hidden
350
AECB
  3
JitterOff
350
AED9
  3
Linepattern
350
AED1
  3
OverhangOff
350
AEDA
  3
Realistic
350
AECD
  3
Shaded
350
AED8
  3
Shaded with edges
350
AED7
  3
Shades of Gray
350
AED4
  3
Sketchy
350
AED5
  3
Thicken
350
AED0
  3
Wireframe
350
AECA
  3
X-Ray
350
AED6
  0
XRECORD
  5
AF18
102
{ACAD_REACTORS
330
AC68
102
}
330
AC68
100
AcDbXrecord
280
     1
 90
        1
330
AEDE
  0
DICTIONARY
  5
AF0B
102
{ACAD_REACTORS
330
AC68
102
}
330
AC68
100
AcDbDictionary
281
     1
  3
CANNOSCALE
350
AF10
  3
CMLEADERSTYLE
350
AF0D
  3
CTABLESTYLE
350
AF0C
  3
CVIEWDETAILSTYLE
350
AF0E
  3
CVIEWSECTIONSTYLE
350
AF0F
  3
DIMASSOC
350
AF13
  3
INDEXCTL
350
AF12
  3
SORTENTS
350
AF11
  3
XCLIPFRAME
350
AF14
  0
XRECORD
  5
AF19
102
{ACAD_REACTORS
330
AC68
102
}
330
AC68
100
AcDbXrecord
280
     1
  1
DWGPROPS COOKIE
  2

  3

  4

  6

  7

  8
Yoshitsune
  9

300
=
301
=
302
=
303
=
304
=
305
=
306
=
307
=
308
=
309
=
 40
0.0000153240740741
 41
2451368.491561459
 42
2457192.642637431
  1

 90
        0
  0
XRECORD
  5
AEFC
102
{ACAD_REACTORS
330
AEFB
102
}
330
AEFB
100
AcDbXrecord
280
     1
290
     1
  0
XRECORD
  5
AEFE
102
{ACAD_REACTORS
330
AEFD
102
}
330
AEFD
100
AcDbXrecord
280
     1
290
     1
  0
XRECORD
  5
AF00
102
{ACAD_REACTORS
330
AEFF
102
}
330
AEFF
100
AcDbXrecord
280
     1
290
     1
  0
XRECORD
  5
AF02
102
{ACAD_REACTORS
330
AF01
102
}
330
AF01
100
AcDbXrecord
280
     1
290
     1
  0
XRECORD
  5
AF04
102
{ACAD_REACTORS
330
AF03
102
}
330
AF03
100
AcDbXrecord
280
     1
290
     1
  0
XRECORD
  5
AF06
102
{ACAD_REACTORS
330
AF05
102
}
330
AF05
100
AcDbXrecord
280
     1
290
     1
  0
XRECORD
  5
AF08
102
{ACAD_REACTORS
330
AF07
102
}
330
AF07
100
AcDbXrecord
280
     1
290
     1
  0
XRECORD
  5
AF0A
102
{ACAD_REACTORS
330
AF09
102
}
330
AF09
100
AcDbXrecord
280
     1
290
     1
  0
XRECORD
  5
AEA4
102
{ACAD_REACTORS
330
AEA3
102
}
330
AEA3
100
AcDbXrecord
280
     1
340
AC7A
  0
XRECORD
  5
AEA2
102
{ACAD_REACTORS
330
AEA1
102
}
330
AEA1
100
AcDbXrecord
280
     1
340
AC76
  0
ACDBDETAILVIEWSTYLE
  5
AEF6
102
{ACAD_XDICTIONARY
360
AF51
102
}
102
{ACAD_REACTORS
330
AEF5
102
}
330
AEF5
100
AcDbModelDocViewStyle
 70
     0
  3
Imperial24
290
     0
100
AcDbDetailViewStyle
 70
     0
 71
     0
 90
        3
 71
     1
340
AC6D
 40
0.24
340
0
 40
0.24
300

 40
0.36
280
     3
 71
     2
340
AC71
 90
       25
 71
     3
340
AC6D
 40
0.24
 90
        1
 40
0.75
 90
        1
300
%<\AcVar ViewType \f "%tc1">% %<\AcVar ViewDetailId>%\PSCALE %<\AcVar ViewScale \f "%sn">%
 71
     4
340
AC71
 90
       25
340
AC71
 90
       25
280
     0
  0
LAYOUT
  5
AEF7
102
{ACAD_XDICTIONARY
360
AF53
102
}
102
{ACAD_REACTORS
330
AC75
102
}
330
AC75
100
AcDbPlotSettings
  1

  2
Canon LBP9100C
  4

  6

 40
0.0
 41
0.0
 42
0.0
 43
0.0
 44
0.0
 45
0.0
 46
0.0
 47
0.0
 48
0.0
 49
0.0
140
0.0
141
0.0
142
1.0
143
1.0
 70
  1712
 72
     0
 73
     0
 74
     0
  7

 75
     0
147
1.0
148
0.0
149
0.0
100
AcDbLayout
  1
Model
 70
     1
 71
     0
 10
0.0
 20
0.0
 11
12.0
 21
9.0
 12
0.0
 22
0.0
 32
0.0
 14
0.0
 24
0.0
 34
0.0
 15
0.0
 25
0.0
 35
0.0
146
0.0
 13
0.0
 23
0.0
 33
0.0
 16
1.0
 26
0.0
 36
0.0
 17
0.0
 27
1.0
 37
0.0
 76
     0
330
AC7A
331
AEA0
  0
LAYOUT
  5
AEF8
102
{ACAD_XDICTIONARY
360
AF55
102
}
102
{ACAD_REACTORS
330
AC75
102
}
330
AC75
100
AcDbPlotSettings
  1

  2
Canon LBP9100C
  4

  6

 40
0.0
 41
0.0
 42
0.0
 43
0.0
 44
0.0
 45
0.0
 46
0.0
 47
0.0
 48
0.0
 49
0.0
140
0.0
141
0.0
142
1.0
143
1.0
 70
   688
 72
     0
 73
     0
 74
     5
  7

 75
    16
147
1.0
148
0.0
149
0.0
100
AcDbLayout
  1
レイアウト1
 70
     0
 71
     1
 10
0.0
 20
0.0
 11
420.0
 21
297.0
 12
0.0
 22
0.0
 32
0.0
 14
1.000000000000000E+20
 24
1.000000000000000E+20
 34
1.000000000000000E+20
 15
-1.000000000000000E+20
 25
-1.000000000000000E+20
 35
-1.000000000000000E+20
146
0.0
 13
0.0
 23
0.0
 33
0.0
 16
1.0
 26
0.0
 36
0.0
 17
0.0
 27
1.0
 37
0.0
 76
     0
330
AC76
  0
MATERIAL
  5
AEB3
102
{ACAD_XDICTIONARY
360
AEB4
102
}
102
{ACAD_REACTORS
330
AEAA
102
}
330
AEAA
100
AcDbMaterial
  1
ByBlock
 72
     0
 43
0.0208333333333333
 43
0.0
 43
0.0
 43
0.0
 43
0.0
 43
0.0208333333333333
 43
0.0
 43
0.0
 43
0.0
 43
0.0
 43
1.0
 43
0.0
 43
0.0
 43
0.0
 43
0.0
 43
1.0
 77
     0
 47
0.0208333333333333
 47
0.0
 47
0.0
 47
0.0
 47
0.0
 47
0.0208333333333333
 47
0.0
 47
0.0
 47
0.0
 47
0.0
 47
1.0
 47
0.0
 47
0.0
 47
0.0
 47
0.0
 47
1.0
171
     0
 49
0.0208333333333333
 49
0.0
 49
0.0
 49
0.0
 49
0.0
 49
0.0208333333333333
 49
0.0
 49
0.0
 49
0.0
 49
0.0
 49
1.0
 49
0.0
 49
0.0
 49
0.0
 49
0.0
 49
1.0
175
     0
142
0.0208333333333333
142
0.0
142
0.0
142
0.0
142
0.0
142
0.0208333333333333
142
0.0
142
0.0
142
0.0
142
0.0
142
1.0
142
0.0
142
0.0
142
0.0
142
0.0
142
1.0
179
     0
144
0.0208333333333333
144
0.0
144
0.0
144
0.0
144
0.0
144
0.0208333333333333
144
0.0
144
0.0
144
0.0
144
0.0
144
1.0
144
0.0
144
0.0
144
0.0
144
0.0
144
1.0
147
0.0208333333333333
147
0.0
147
0.0
147
0.0
147
0.0
147
0.0208333333333333
147
0.0
147
0.0
147
0.0
147
0.0
147
1.0
147
0.0
147
0.0
147
0.0
147
0.0
147
1.0
  0
MATERIAL
  5
AEAB
102
{ACAD_XDICTIONARY
360
AEAC
102
}
102
{ACAD_REACTORS
330
AEAA
102
}
330
AEAA
100
AcDbMaterial
  1
ByLayer
 72
     0
 43
0.0208333333333333
 43
0.0
 43
0.0
 43
0.0
 43
0.0
 43
0.0208333333333333
 43
0.0
 43
0.0
 43
0.0
 43
0.0
 43
1.0
 43
0.0
 43
0.0
 43
0.0
 43
0.0
 43
1.0
 77
     0
 47
0.0208333333333333
 47
0.0
 47
0.0
 47
0.0
 47
0.0
 47
0.0208333333333333
 47
0.0
 47
0.0
 47
0.0
 47
0.0
 47
1.0
 47
0.0
 47
0.0
 47
0.0
 47
0.0
 47
1.0
171
     0
 49
0.0208333333333333
 49
0.0
 49
0.0
 49
0.0
 49
0.0
 49
0.0208333333333333
 49
0.0
 49
0.0
 49
0.0
 49
0.0
 49
1.0
 49
0.0
 49
0.0
 49
0.0
 49
0.0
 49
1.0
175
     0
142
0.0208333333333333
142
0.0
142
0.0
142
0.0
142
0.0
142
0.0208333333333333
142
0.0
142
0.0
142
0.0
142
0.0
142
1.0
142
0.0
142
0.0
142
0.0
142
0.0
142
1.0
179
     0
144
0.0208333333333333
144
0.0
144
0.0
144
0.0
144
0.0
144
0.0208333333333333
144
0.0
144
0.0
144
0.0
144
0.0
144
1.0
144
0.0
144
0.0
144
0.0
144
0.0
144
1.0
147
0.0208333333333333
147
0.0
147
0.0
147
0.0
147
0.0
147
0.0208333333333333
147
0.0
147
0.0
147
0.0
147
0.0
147
1.0
147
0.0
147
0.0
147
0.0
147
0.0
147
1.0
  0
MATERIAL
  5
AEBB
102
{ACAD_XDICTIONARY
360
AEBC
102
}
102
{ACAD_REACTORS
330
AEAA
102
}
330
AEAA
100
AcDbMaterial
  1
Global
 72
     0
 43
0.0208333333333333
 43
0.0
 43
0.0
 43
0.0
 43
0.0
 43
0.0208333333333333
 43
0.0
 43
0.0
 43
0.0
 43
0.0
 43
1.0
 43
0.0
 43
0.0
 43
0.0
 43
0.0
 43
1.0
 77
     0
 47
0.0208333333333333
 47
0.0
 47
0.0
 47
0.0
 47
0.0
 47
0.0208333333333333
 47
0.0
 47
0.0
 47
0.0
 47
0.0
 47
1.0
 47
0.0
 47
0.0
 47
0.0
 47
0.0
 47
1.0
171
     0
 49
0.0208333333333333
 49
0.0
 49
0.0
 49
0.0
 49
0.0
 49
0.0208333333333333
 49
0.0
 49
0.0
 49
0.0
 49
0.0
 49
1.0
 49
0.0
 49
0.0
 49
0.0
 49
0.0
 49
1.0
175
     0
142
0.0208333333333333
142
0.0
142
0.0
142
0.0
142
0.0
142
0.0208333333333333
142
0.0
142
0.0
142
0.0
142
0.0
142
1.0
142
0.0
142
0.0
142
0.0
142
0.0
142
1.0
179
     0
144
0.0208333333333333
144
0.0
144
0.0
144
0.0
144
0.0
144
0.0208333333333333
144
0.0
144
0.0
144
0.0
144
0.0
144
1.0
144
0.0
144
0.0
144
0.0
144
0.0
144
1.0
147
0.0208333333333333
147
0.0
147
0.0
147
0.0
147
0.0
147
0.0208333333333333
147
0.0
147
0.0
147
0.0
147
0.0
147
1.0
147
0.0
147
0.0
147
0.0
147
0.0
147
1.0
  0
MLEADERSTYLE
  5
AEF2
102
{ACAD_REACTORS
330
AEF1
102
}
330
AEF1
100
AcDbMLeaderStyle
170
     2
171
     1
172
     0
 90
        2
 40
0.0
 41
0.0
173
     1
 91
-1056964608
340
AC6F
 92
       -2
290
     1
 42
0.09
291
     1
 43
0.36
  3
Standard
 44
0.18
300

342
AC6D
174
     1
178
     6
175
     1
176
     0
 93
-1056964608
 45
0.18
292
     0
297
     0
 46
0.18
 94
-1056964608
 47
1.0
 49
1.0
140
1.0
293
     1
141
0.0
294
     1
177
     0
142
1.0
295
     0
296
     0
143
0.125
1001
ACAD_MLEADERVER
1070
     2
  0
MLINESTYLE
  5
AC73
102
{ACAD_REACTORS
330
AC72
102
}
330
AC72
100
AcDbMlineStyle
  2
STANDARD
 70
     0
  3

 62
   256
 51
90.0
 52
90.0
 71
     2
 49
0.5
 62
   256
  6
BYLAYER
 49
-0.5
 62
   256
  6
BYLAYER
  0
ACDBPLACEHOLDER
  5
AEA9
102
{ACAD_REACTORS
330
AEA8
102
}
330
AEA8
  0
SCALE
  5
AEE0
102
{ACAD_REACTORS
330
AEDF
102
}
330
AEDF
100
AcDbScale
 70
     0
300
1:1
140
1.0
141
1.0
290
     1
  0
SCALE
  5
AEE1
102
{ACAD_REACTORS
330
AEDF
102
}
330
AEDF
100
AcDbScale
 70
     0
300
1/128" = 1'-0"
140
0.0078125
141
12.0
290
     0
  0
SCALE
  5
AEE2
102
{ACAD_REACTORS
330
AEDF
102
}
330
AEDF
100
AcDbScale
 70
     0
300
1/64" = 1'-0"
140
0.015625
141
12.0
290
     0
  0
SCALE
  5
AEE3
102
{ACAD_REACTORS
330
AEDF
102
}
330
AEDF
100
AcDbScale
 70
     0
300
1/32" = 1'-0"
140
0.03125
141
12.0
290
     0
  0
SCALE
  5
AEE4
102
{ACAD_REACTORS
330
AEDF
102
}
330
AEDF
100
AcDbScale
 70
     0
300
1/16" = 1'-0"
140
0.0625
141
12.0
290
     0
  0
SCALE
  5
AEE5
102
{ACAD_REACTORS
330
AEDF
102
}
330
AEDF
100
AcDbScale
 70
     0
300
3/32" = 1'-0"
140
0.09375
141
12.0
290
     0
  0
SCALE
  5
AEE6
102
{ACAD_REACTORS
330
AEDF
102
}
330
AEDF
100
AcDbScale
 70
     0
300
1/8" = 1'-0"
140
0.125
141
12.0
290
     0
  0
SCALE
  5
AEE7
102
{ACAD_REACTORS
330
AEDF
102
}
330
AEDF
100
AcDbScale
 70
     0
300
3/16" = 1'-0"
140
0.1875
141
12.0
290
     0
  0
SCALE
  5
AEE8
102
{ACAD_REACTORS
330
AEDF
102
}
330
AEDF
100
AcDbScale
 70
     0
300
1/4" = 1'-0"
140
0.25
141
12.0
290
     0
  0
SCALE
  5
AEE9
102
{ACAD_REACTORS
330
AEDF
102
}
330
AEDF
100
AcDbScale
 70
     0
300
3/8" = 1'-0"
140
0.375
141
12.0
290
     0
  0
SCALE
  5
AEEA
102
{ACAD_REACTORS
330
AEDF
102
}
330
AEDF
100
AcDbScale
 70
     0
300
1/2" = 1'-0"
140
0.5
141
12.0
290
     0
  0
SCALE
  5
AEEB
102
{ACAD_REACTORS
330
AEDF
102
}
330
AEDF
100
AcDbScale
 70
     0
300
3/4" = 1'-0"
140
0.75
141
12.0
290
     0
  0
SCALE
  5
AEEC
102
{ACAD_REACTORS
330
AEDF
102
}
330
AEDF
100
AcDbScale
 70
     0
300
1" = 1'-0"
140
1.0
141
12.0
290
     0
  0
SCALE
  5
AEED
102
{ACAD_REACTORS
330
AEDF
102
}
330
AEDF
100
AcDbScale
 70
     0
300
1-1/2" = 1'-0"
140
1.5
141
12.0
290
     0
  0
SCALE
  5
AEEE
102
{ACAD_REACTORS
330
AEDF
102
}
330
AEDF
100
AcDbScale
 70
     0
300
3" = 1'-0"
140
3.0
141
12.0
290
     0
  0
SCALE
  5
AEEF
102
{ACAD_REACTORS
330
AEDF
102
}
330
AEDF
100
AcDbScale
 70
     0
300
6" = 1'-0"
140
6.0
141
12.0
290
     0
  0
SCALE
  5
AEF0
102
{ACAD_REACTORS
330
AEDF
102
}
330
AEDF
100
AcDbScale
 70
     0
300
1'-0" = 1'-0"
140
12.0
141
12.0
290
     0
  0
ACDBSECTIONVIEWSTYLE
  5
AEF4
102
{ACAD_XDICTIONARY
360
AF4F
102
}
102
{ACAD_REACTORS
330
AEF3
102
}
330
AEF3
100
AcDbModelDocViewStyle
 70
     0
  3
Imperial24
290
     0
100
AcDbSectionViewStyle
 70
     0
 71
     0
 90
       78
 71
     1
340
AC6D
 40
0.24
340
0
340
0
 40
0.24
300
I, O, Q, S, X, Z
 40
0.48
 90
        3
 40
0.18
 90
        1
 71
     2
340
AC71
 90
       25
340
AC71
 90
       50
 40
0.24
 40
0.0
 40
0.24
 71
     3
340
AC6D
 40
0.24
 90
        1
 40
0.75
 90
        1
300
%<\AcVar ViewType \f "%tc1">% %<\AcVar ViewSectionStartId>%-%<\AcVar ViewSectionEndId>%\PSCALE %<\AcVar ViewScale \f "%sn">%
 71
     4
300
ANSI31
 40
1.0
 90
        0
290
     0
290
     0
 90
        6
 40
0.0
 40
1.570796326794896
 40
0.2617993877991494
 40
1.308996938995747
 40
-0.2617993877991494
 40
1.832595714594046
  0
TABLESTYLE
  5
AEDE
102
{ACAD_XDICTIONARY
360
AF16
102
}
102
{ACAD_REACTORS
330
AEDD
102
}
330
AEDD
100
AcDbTableStyle
  3
Standard
 70
     0
 71
     0
 40
0.06
 41
0.06
280
     0
281
     0
  7
STANDARD
140
0.18
170
     2
 62
     0
 63
     7
283
     0
274
    -2
284
     1
 64
     0
275
    -2
285
     1
 65
     0
276
    -2
286
     1
 66
     0
277
    -2
287
     1
 67
     0
278
    -2
288
     1
 68
     0
279
    -2
289
     1
 69
     0
  7
STANDARD
140
0.25
170
     5
 62
     0
 63
     7
283
     0
274
    -2
284
     1
 64
     0
275
    -2
285
     1
 65
     0
276
    -2
286
     1
 66
     0
277
    -2
287
     1
 67
     0
278
    -2
288
     1
 68
     0
279
    -2
289
     1
 69
     0
  7
STANDARD
140
0.18
170
     5
 62
     0
 63
     7
283
     0
274
    -2
284
     1
 64
     0
275
    -2
285
     1
 65
     0
276
    -2
286
     1
 66
     0
277
    -2
287
     1
 67
     0
278
    -2
288
     1
 68
     0
279
    -2
289
     1
 69
     0
  0
VISUALSTYLE
  5
AEC9
102
{ACAD_XDICTIONARY
360
AF27
102
}
102
{ACAD_REACTORS
330
AEC3
102
}
330
AEC3
100
AcDbVisualStyle
  2
2dWireframe
 70
     4
 71
     0
 72
     2
 73
     0
 90
        0
 40
-0.6
 41
-30.0
 62
     5
 63
     7
 74
     1
 91
        4
 64
     7
 65
   257
 75
     1
175
     1
 42
1.0
 92
        0
 66
   257
 43
1.0
 76
     1
 77
     6
 78
     2
 67
     7
 79
     5
170
     0
171
     0
290
     0
174
     0
 93
        1
 44
0.0
173
     0
291
     0
 45
0.0
1001
ACAD
1000
AcDbSavedByObjectVersion
1070
     0
  0
VISUALSTYLE
  5
AEC8
102
{ACAD_XDICTIONARY
360
AF25
102
}
102
{ACAD_REACTORS
330
AEC3
102
}
330
AEC3
100
AcDbVisualStyle
  2
Basic
 70
     7
 71
     1
 72
     0
 73
     1
 90
        0
 40
-0.6
 41
-30.0
 62
     5
 63
     7
 74
     0
 91
        4
 64
     7
 65
   257
 75
     1
175
     1
 42
1.0
 92
        8
 66
     7
 43
1.0
 76
     1
 77
     6
 78
     2
 67
     7
 79
     5
170
     0
171
     0
290
     0
174
     0
 93
        1
 44
0.0
173
     0
291
     1
 45
0.0
1001
ACAD
1000
AcDbSavedByObjectVersion
1070
     0
  0
VISUALSTYLE
  5
AECF
102
{ACAD_XDICTIONARY
360
AF33
102
}
102
{ACAD_REACTORS
330
AEC3
102
}
330
AEC3
100
AcDbVisualStyle
  2
Brighten
 70
    12
 71
     2
 72
     2
 73
     0
 90
        0
 40
-0.6
 41
-30.0
 62
     5
 63
     7
 74
     1
 91
        4
 64
     7
 65
   257
 75
     1
175
     1
 42
1.0
 92
        8
 66
     7
 43
1.0
 76
     1
 77
     6
 78
     2
 67
     7
 79
     5
170
     0
171
     0
290
     0
174
     0
 93
        1
 44
50.0
173
     0
291
     1
 45
0.0
1001
ACAD
1000
AcDbSavedByObjectVersion
1070
     0
  0
VISUALSTYLE
  5
AED3
102
{ACAD_XDICTIONARY
360
AF3B
102
}
102
{ACAD_REACTORS
330
AEC3
102
}
330
AEC3
100
AcDbVisualStyle
  2
ColorChange
 70
    16
 71
     2
 72
     2
 73
     3
 90
        0
 40
-0.6
 41
-30.0
 62
     5
 63
     8
 74
     1
 91
        4
 64
     7
 65
   257
 75
     1
175
     1
 42
1.0
 92
        8
 66
     8
 43
1.0
 76
     1
 77
     6
 78
     2
 67
     7
 79
     5
170
     0
171
     0
290
     0
174
     0
 93
        1
 44
0.0
173
     0
291
     1
 45
0.0
1001
ACAD
1000
AcDbSavedByObjectVersion
1070
     0
  0
VISUALSTYLE
  5
AECC
102
{ACAD_XDICTIONARY
360
AF2D
102
}
102
{ACAD_REACTORS
330
AEC3
102
}
330
AEC3
100
AcDbVisualStyle
  2
Conceptual
 70
     9
 71
     3
 72
     2
 73
     0
 90
        0
 40
-0.6
 41
-30.0
 62
     5
 63
     7
 74
     2
 91
        2
 64
     7
 65
   257
 75
     1
175
     1
 42
179.0
 92
        8
 66
     7
 43
1.0
 76
     1
 77
     6
 78
     2
 67
     7
 79
     3
170
     0
171
     0
290
     0
174
     0
 93
        1
 44
0.0
173
     0
291
     0
 45
0.0
1001
ACAD
1000
AcDbSavedByObjectVersion
1070
     0
  0
VISUALSTYLE
  5
AECE
102
{ACAD_XDICTIONARY
360
AF31
102
}
102
{ACAD_REACTORS
330
AEC3
102
}
330
AEC3
100
AcDbVisualStyle
  2
Dim
 70
    11
 71
     2
 72
     2
 73
     0
 90
        0
 40
-0.6
 41
-30.0
 62
     5
 63
     7
 74
     1
 91
        4
 64
     7
 65
   257
 75
     1
175
     1
 42
1.0
 92
        8
 66
     7
 43
1.0
 76
     1
 77
     6
 78
     2
 67
     7
 79
     5
170
     0
171
     0
290
     0
174
     0
 93
        1
 44
-50.0
173
     0
291
     1
 45
0.0
1001
ACAD
1000
AcDbSavedByObjectVersion
1070
     0
  0
VISUALSTYLE
  5
AEDB
102
{ACAD_XDICTIONARY
360
AF4B
102
}
102
{ACAD_REACTORS
330
AEC3
102
}
330
AEC3
100
AcDbVisualStyle
  2
EdgeColorOff
 70
    22
 71
     2
 72
     2
 73
     0
 90
        0
 40
-0.6
 41
-30.0
 62
     5
 63
     7
 74
     1
 91
        4
 64
     7
 65
   257
 75
     1
175
     1
 42
1.0
 92
        8
 66
     7
 43
1.0
 76
     1
 77
     6
 78
     2
 67
     7
 79
     5
170
     0
171
     0
290
     0
174
     0
 93
        1
 44
0.0
173
     0
291
     1
 45
0.0
1001
ACAD
1000
AcDbSavedByObjectVersion
1070
     0
  0
VISUALSTYLE
  5
AED2
102
{ACAD_XDICTIONARY
360
AF39
102
}
102
{ACAD_REACTORS
330
AEC3
102
}
330
AEC3
100
AcDbVisualStyle
  2
Facepattern
 70
    15
 71
     2
 72
     2
 73
     0
 90
        0
 40
-0.6
 41
-30.0
 62
     5
 63
     7
 74
     1
 91
        4
 64
     7
 65
   257
 75
     1
175
     1
 42
1.0
 92
        8
 66
     7
 43
1.0
 76
     1
 77
     6
 78
     2
 67
     7
 79
     5
170
     0
171
     0
290
     0
174
     0
 93
        1
 44
0.0
173
     0
291
     1
 45
0.0
1001
ACAD
1000
AcDbSavedByObjectVersion
1070
     0
  0
VISUALSTYLE
  5
AEC4
102
{ACAD_XDICTIONARY
360
AF1D
102
}
102
{ACAD_REACTORS
330
AEC3
102
}
330
AEC3
100
AcDbVisualStyle
  2
Flat
 70
     0
 71
     2
 72
     1
 73
     1
 90
        2
 40
-0.6
 41
30.0
 62
     5
 63
     7
 74
     0
 91
        0
 64
     7
 65
   257
 75
     1
175
     1
 42
1.0
 92
        8
 66
     7
 43
1.0
 76
     1
 77
     6
 78
     2
 67
     7
 79
     5
170
     0
171
     0
290
     0
174
     0
 93
       13
 44
0.0
173
     0
291
     1
 45
0.0
1001
ACAD
1000
AcDbSavedByObjectVersion
1070
     0
  0
VISUALSTYLE
  5
AEC5
102
{ACAD_XDICTIONARY
360
AF1F
102
}
102
{ACAD_REACTORS
330
AEC3
102
}
330
AEC3
100
AcDbVisualStyle
  2
FlatWithEdges
 70
     1
 71
     2
 72
     1
 73
     1
 90
        2
 40
-0.6
 41
30.0
 62
     5
 63
     7
 74
     1
 91
        0
 64
     7
 65
   257
 75
     1
175
     1
 42
1.0
 92
        0
 66
   257
 43
1.0
 76
     1
 77
     6
 78
     2
 67
     7
 79
     5
170
     0
171
     0
290
     0
174
     0
 93
       13
 44
0.0
173
     0
291
     1
 45
0.0
1001
ACAD
1000
AcDbSavedByObjectVersion
1070
     0
  0
VISUALSTYLE
  5
AEC6
102
{ACAD_XDICTIONARY
360
AF21
102
}
102
{ACAD_REACTORS
330
AEC3
102
}
330
AEC3
100
AcDbVisualStyle
  2
Gouraud
 70
     2
 71
     2
 72
     2
 73
     1
 90
        2
 40
-0.6
 41
30.0
 62
     5
 63
     7
 74
     0
 91
        0
 64
     7
 65
   257
 75
     1
175
     1
 42
1.0
 92
        0
 66
     7
 43
1.0
 76
     1
 77
     6
 78
     2
 67
     7
 79
     5
170
     0
171
     0
290
     0
174
     0
 93
       13
 44
0.0
173
     0
291
     1
 45
0.0
1001
ACAD
1000
AcDbSavedByObjectVersion
1070
     0
  0
VISUALSTYLE
  5
AEC7
102
{ACAD_XDICTIONARY
360
AF23
102
}
102
{ACAD_REACTORS
330
AEC3
102
}
330
AEC3
100
AcDbVisualStyle
  2
GouraudWithEdges
 70
     3
 71
     2
 72
     2
 73
     1
 90
        2
 40
-0.6
 41
30.0
 62
     5
 63
     7
 74
     1
 91
        0
 64
     7
 65
   257
 75
     1
175
     1
 42
1.0
 92
        0
 66
   257
 43
1.0
 76
     1
 77
     6
 78
     2
 67
     7
 79
     5
170
     0
171
     0
290
     0
174
     0
 93
       13
 44
0.0
173
     0
291
     1
 45
0.0
1001
ACAD
1000
AcDbSavedByObjectVersion
1070
     0
  0
VISUALSTYLE
  5
AECB
102
{ACAD_XDICTIONARY
360
AF2B
102
}
102
{ACAD_REACTORS
330
AEC3
102
}
330
AEC3
100
AcDbVisualStyle
  2
Hidden
 70
     6
 71
     1
 72
     2
 73
     2
 90
        0
 40
-0.6
 41
-30.0
 62
     5
 63
     7
 74
     2
 91
        2
 64
     7
 65
   257
 75
     2
175
     1
 42
40.0
 92
        0
 66
   257
 43
1.0
 76
     1
 77
     6
 78
     2
 67
     7
 79
     3
170
     0
171
     0
290
     0
174
     0
 93
        1
 44
0.0
173
     0
291
     0
 45
0.0
1001
ACAD
1000
AcDbSavedByObjectVersion
1070
     0
  0
VISUALSTYLE
  5
AED9
102
{ACAD_XDICTIONARY
360
AF47
102
}
102
{ACAD_REACTORS
330
AEC3
102
}
330
AEC3
100
AcDbVisualStyle
  2
JitterOff
 70
    20
 71
     2
 72
     2
 73
     0
 90
        0
 40
-0.6
 41
-30.0
 62
     5
 63
     7
 74
     1
 91
        4
 64
     7
 65
   257
 75
     1
175
     1
 42
1.0
 92
       10
 66
     7
 43
1.0
 76
     1
 77
     6
 78
     2
 67
     7
 79
     5
170
     0
171
     0
290
     0
174
     0
 93
        1
 44
0.0
173
     0
291
     1
 45
0.0
1001
ACAD
1000
AcDbSavedByObjectVersion
1070
     0
  0
VISUALSTYLE
  5
AED1
102
{ACAD_XDICTIONARY
360
AF37
102
}
102
{ACAD_REACTORS
330
AEC3
102
}
330
AEC3
100
AcDbVisualStyle
  2
Linepattern
 70
    14
 71
     2
 72
     2
 73
     0
 90
        0
 40
-0.6
 41
-30.0
 62
     5
 63
     7
 74
     1
 91
        4
 64
     7
 65
   257
 75
     7
175
     7
 42
1.0
 92
        8
 66
     7
 43
1.0
 76
     1
 77
     6
 78
     2
 67
     7
 79
     5
170
     0
171
     0
290
     0
174
     0
 93
        1
 44
0.0
173
     0
291
     1
 45
0.0
1001
ACAD
1000
AcDbSavedByObjectVersion
1070
     0
  0
VISUALSTYLE
  5
AEDA
102
{ACAD_XDICTIONARY
360
AF49
102
}
102
{ACAD_REACTORS
330
AEC3
102
}
330
AEC3
100
AcDbVisualStyle
  2
OverhangOff
 70
    21
 71
     2
 72
     2
 73
     0
 90
        0
 40
-0.6
 41
-30.0
 62
     5
 63
     7
 74
     1
 91
        4
 64
     7
 65
   257
 75
     1
175
     1
 42
1.0
 92
        9
 66
     7
 43
1.0
 76
     1
 77
     6
 78
     2
 67
     7
 79
     5
170
     0
171
     0
290
     0
174
     0
 93
        1
 44
0.0
173
     0
291
     1
 45
0.0
1001
ACAD
1000
AcDbSavedByObjectVersion
1070
     0
  0
VISUALSTYLE
  5
AECD
102
{ACAD_XDICTIONARY
360
AF2F
102
}
102
{ACAD_REACTORS
330
AEC3
102
}
330
AEC3
100
AcDbVisualStyle
  2
Realistic
 70
     8
 71
     2
 72
     3
 73
     0
 90
        2
 40
-0.6
 41
30.0
 62
     5
 63
     7
 74
     0
 91
        0
 64
     7
 65
   257
 75
     1
175
     1
 42
1.0
 92
        8
 66
   257
 43
1.0
 76
     1
 77
     6
 78
     2
 67
     7
 79
     3
170
     0
171
     0
290
     0
174
     0
 93
       13
 44
0.0
173
     0
291
     0
 45
0.0
1001
ACAD
1000
AcDbSavedByObjectVersion
1070
     0
  0
VISUALSTYLE
  5
AED8
102
{ACAD_XDICTIONARY
360
AF45
102
}
102
{ACAD_REACTORS
330
AEC3
102
}
330
AEC3
100
AcDbVisualStyle
  2
Shaded
 70
    27
 71
     2
 72
     2
 73
     1
 90
        2
 40
-0.6
 41
30.0
 62
     5
 63
     7
 74
     0
 91
        4
 64
     7
 65
   257
 75
     1
175
     1
 42
1.0
 92
        8
 66
   257
 43
1.0
 76
     1
 77
     6
 78
     2
 67
     8
 79
     3
170
     0
171
     0
290
     0
174
     0
 93
        5
 44
0.0
173
     0
291
     0
 45
0.0
1001
ACAD
1000
AcDbSavedByObjectVersion
1070
     0
  0
VISUALSTYLE
  5
AED7
102
{ACAD_XDICTIONARY
360
AF43
102
}
102
{ACAD_REACTORS
330
AEC3
102
}
330
AEC3
100
AcDbVisualStyle
  2
Shaded with edges
 70
    26
 71
     2
 72
     2
 73
     1
 90
        2
 40
-0.6
 41
30.0
 62
     5
 63
     7
 74
     1
 91
       10
 64
     7
 65
   257
 75
     2
175
     1
 42
1.0
 92
        8
 66
   257
 43
1.0
 76
     1
 77
     6
 78
     2
 67
     7
 79
     3
170
     0
171
     0
290
     0
174
     0
 93
        5
 44
0.0
173
     0
291
     0
 45
0.0
1001
ACAD
1000
AcDbSavedByObjectVersion
1070
     0
  0
VISUALSTYLE
  5
AED4
102
{ACAD_XDICTIONARY
360
AF3D
102
}
102
{ACAD_REACTORS
330
AEC3
102
}
330
AEC3
100
AcDbVisualStyle
  2
Shades of Gray
 70
    23
 71
     2
 72
     2
 73
     3
 90
        0
 40
-0.6
 41
-30.0
 62
     5
 63
     7
 74
     2
 91
        2
 64
     7
 65
     7
 75
     1
175
     1
 42
40.0
 92
        8
 66
     7
 43
1.0
 76
     1
 77
     6
 78
     2
 67
     7
 79
     3
170
     0
171
     0
290
     0
174
     0
 93
        1
 44
0.0
173
     0
291
     0
 45
0.0
1001
ACAD
1000
AcDbSavedByObjectVersion
1070
     0
  0
VISUALSTYLE
  5
AED5
102
{ACAD_XDICTIONARY
360
AF3F
102
}
102
{ACAD_REACTORS
330
AEC3
102
}
330
AEC3
100
AcDbVisualStyle
  2
Sketchy
 70
    24
 71
     1
 72
     2
 73
     2
 90
        0
 40
-0.6
 41
-30.0
 62
     5
 63
     7
 74
     2
 91
        2
 64
     7
 65
     7
 75
     1
175
     1
 42
40.0
 92
       11
 66
     7
 43
1.0
 76
     1
 77
     6
 78
     2
 67
     7
 79
     6
170
     0
171
     0
290
     0
174
     0
 93
        1
 44
0.0
173
     0
291
     0
 45
0.0
1001
ACAD
1000
AcDbSavedByObjectVersion
1070
     0
  0
VISUALSTYLE
  5
AED0
102
{ACAD_XDICTIONARY
360
AF35
102
}
102
{ACAD_REACTORS
330
AEC3
102
}
330
AEC3
100
AcDbVisualStyle
  2
Thicken
 70
    13
 71
     2
 72
     2
 73
     0
 90
        0
 40
-0.6
 41
-30.0
 62
     5
 63
     7
 74
     1
 91
        4
 64
     7
 65
   257
 75
     1
175
     1
 42
1.0
 92
       12
 66
     7
 43
1.0
 76
     1
 77
     6
 78
     2
 67
     7
 79
     5
170
     0
171
     0
290
     0
174
     0
 93
        1
 44
0.0
173
     0
291
     1
 45
0.0
1001
ACAD
1000
AcDbSavedByObjectVersion
1070
     0
  0
VISUALSTYLE
  5
AECA
102
{ACAD_XDICTIONARY
360
AF29
102
}
102
{ACAD_REACTORS
330
AEC3
102
}
330
AEC3
100
AcDbVisualStyle
  2
Wireframe
 70
     5
 71
     0
 72
     2
 73
     0
 90
        0
 40
-0.6
 41
-30.0
 62
     5
 63
     7
 74
     1
 91
        4
 64
     7
 65
   257
 75
     1
175
     1
 42
1.0
 92
        0
 66
   257
 43
1.0
 76
     1
 77
     6
 78
     2
 67
     7
 79
     3
170
     0
171
     0
290
     0
174
     0
 93
        1
 44
0.0
173
     0
291
     0
 45
0.0
1001
ACAD
1000
AcDbSavedByObjectVersion
1070
     0
  0
VISUALSTYLE
  5
AED6
102
{ACAD_XDICTIONARY
360
AF41
102
}
102
{ACAD_REACTORS
330
AEC3
102
}
330
AEC3
100
AcDbVisualStyle
  2
X-Ray
 70
    25
 71
     2
 72
     2
 73
     1
 90
        1
 40
0.5
 41
-30.0
 62
     5
 63
     7
 74
     1
 91
        0
 64
     7
 65
   257
 75
     1
175
     1
 42
1.0
 92
        8
 66
     7
 43
1.0
 76
     1
 77
     6
 78
     2
 67
     7
 79
     3
170
     0
171
     0
290
     0
174
     0
 93
       13
 44
0.0
173
     0
291
     0
 45
0.0
1001
ACAD
1000
AcDbSavedByObjectVersion
1070
     0
  0
DICTIONARYVAR
  5
AF10
102
{ACAD_REACTORS
330
AF0B
102
}
330
AF0B
100
DictionaryVariables
280
     0
  1
1:1
  0
DICTIONARYVAR
  5
AF0D
102
{ACAD_REACTORS
330
AF0B
102
}
330
AF0B
100
DictionaryVariables
280
     0
  1
STANDARD
  0
DICTIONARYVAR
  5
AF0C
102
{ACAD_REACTORS
330
AF0B
102
}
330
AF0B
100
DictionaryVariables
280
     0
  1
STANDARD
  0
DICTIONARYVAR
  5
AF0E
102
{ACAD_REACTORS
330
AF0B
102
}
330
AF0B
100
DictionaryVariables
280
     0
  1
Imperial24
  0
DICTIONARYVAR
  5
AF0F
102
{ACAD_REACTORS
330
AF0B
102
}
330
AF0B
100
DictionaryVariables
280
     0
  1
Imperial24
  0
DICTIONARYVAR
  5
AF13
102
{ACAD_REACTORS
330
AF0B
102
}
330
AF0B
100
DictionaryVariables
280
     0
  1
1
  0
DICTIONARYVAR
  5
AF12
102
{ACAD_REACTORS
330
AF0B
102
}
330
AF0B
100
DictionaryVariables
280
     0
  1
0
  0
DICTIONARYVAR
  5
AF11
102
{ACAD_REACTORS
330
AF0B
102
}
330
AF0B
100
DictionaryVariables
280
     0
  1
127
  0
DICTIONARYVAR
  5
AF14
102
{ACAD_REACTORS
330
AF0B
102
}
330
AF0B
100
DictionaryVariables
280
     0
  1
2
  0
DICTIONARY
  5
AF51
330
AEF6
100
AcDbDictionary
280
     1
281
     1
  3
ACAD_XREC_ROUNDTRIP
360
AF52
  0
DICTIONARY
  5
AF53
330
AEF7
100
AcDbDictionary
280
     1
281
     1
  3
ACAD_XREC_ROUNDTRIP
360
AF54
  0
DICTIONARY
  5
AF55
330
AEF8
100
AcDbDictionary
280
     1
281
     1
  3
ACAD_XREC_ROUNDTRIP
360
AF56
  0
DICTIONARY
  5
AEB4
330
AEB3
100
AcDbDictionary
280
     1
281
     1
  3
ACAD_XREC_ROUNDTRIP
360
AF1B
  3
BUMPTILE
360
AEB6
  3
DIFFUSETILE
360
AEB5
  3
OPACITYTILE
360
AEB9
  3
REFLECTIONTILE
360
AEB8
  3
REFRACTIONTILE
360
AEBA
  3
SPECULARTILE
360
AEB7
  0
DICTIONARY
  5
AEAC
330
AEAB
100
AcDbDictionary
280
     1
281
     1
  3
ACAD_XREC_ROUNDTRIP
360
AF1A
  3
BUMPTILE
360
AEAE
  3
DIFFUSETILE
360
AEAD
  3
OPACITYTILE
360
AEB1
  3
REFLECTIONTILE
360
AEB0
  3
REFRACTIONTILE
360
AEB2
  3
SPECULARTILE
360
AEAF
  0
DICTIONARY
  5
AEBC
330
AEBB
100
AcDbDictionary
280
     1
281
     1
  3
ACAD_XREC_ROUNDTRIP
360
AF1C
  3
BUMPTILE
360
AEBE
  3
DIFFUSETILE
360
AEBD
  3
OPACITYTILE
360
AEC1
  3
REFLECTIONTILE
360
AEC0
  3
REFRACTIONTILE
360
AEC2
  3
SPECULARTILE
360
AEBF
  0
DICTIONARY
  5
AF4F
330
AEF4
100
AcDbDictionary
280
     1
281
     1
  3
ACAD_XREC_ROUNDTRIP
360
AF50
  0
DICTIONARY
  5
AF16
330
AEDE
100
AcDbDictionary
280
     1
281
     1
  3
ACAD_ROUNDTRIP_2008_TABLESTYLE_CELLSTYLEMAP
360
AF17
  3
ACAD_XREC_ROUNDTRIP
360
AF4D
  0
DICTIONARY
  5
AF27
330
AEC9
100
AcDbDictionary
280
     1
281
     1
  3
ACAD_XREC_ROUNDTRIP
360
AF28
  0
DICTIONARY
  5
AF25
330
AEC8
100
AcDbDictionary
280
     1
281
     1
  3
ACAD_XREC_ROUNDTRIP
360
AF26
  0
DICTIONARY
  5
AF33
330
AECF
100
AcDbDictionary
280
     1
281
     1
  3
ACAD_XREC_ROUNDTRIP
360
AF34
  0
DICTIONARY
  5
AF3B
330
AED3
100
AcDbDictionary
280
     1
281
     1
  3
ACAD_XREC_ROUNDTRIP
360
AF3C
  0
DICTIONARY
  5
AF2D
330
AECC
100
AcDbDictionary
280
     1
281
     1
  3
ACAD_XREC_ROUNDTRIP
360
AF2E
  0
DICTIONARY
  5
AF31
330
AECE
100
AcDbDictionary
280
     1
281
     1
  3
ACAD_XREC_ROUNDTRIP
360
AF32
  0
DICTIONARY
  5
AF4B
330
AEDB
100
AcDbDictionary
280
     1
281
     1
  3
ACAD_XREC_ROUNDTRIP
360
AF4C
  0
DICTIONARY
  5
AF39
330
AED2
100
AcDbDictionary
280
     1
281
     1
  3
ACAD_XREC_ROUNDTRIP
360
AF3A
  0
DICTIONARY
  5
AF1D
330
AEC4
100
AcDbDictionary
280
     1
281
     1
  3
ACAD_XREC_ROUNDTRIP
360
AF1E
  0
DICTIONARY
  5
AF1F
330
AEC5
100
AcDbDictionary
280
     1
281
     1
  3
ACAD_XREC_ROUNDTRIP
360
AF20
  0
DICTIONARY
  5
AF21
330
AEC6
100
AcDbDictionary
280
     1
281
     1
  3
ACAD_XREC_ROUNDTRIP
360
AF22
  0
DICTIONARY
  5
AF23
330
AEC7
100
AcDbDictionary
280
     1
281
     1
  3
ACAD_XREC_ROUNDTRIP
360
AF24
  0
DICTIONARY
  5
AF2B
330
AECB
100
AcDbDictionary
280
     1
281
     1
  3
ACAD_XREC_ROUNDTRIP
360
AF2C
  0
DICTIONARY
  5
AF47
330
AED9
100
AcDbDictionary
280
     1
281
     1
  3
ACAD_XREC_ROUNDTRIP
360
AF48
  0
DICTIONARY
  5
AF37
330
AED1
100
AcDbDictionary
280
     1
281
     1
  3
ACAD_XREC_ROUNDTRIP
360
AF38
  0
DICTIONARY
  5
AF49
330
AEDA
100
AcDbDictionary
280
     1
281
     1
  3
ACAD_XREC_ROUNDTRIP
360
AF4A
  0
DICTIONARY
  5
AF2F
330
AECD
100
AcDbDictionary
280
     1
281
     1
  3
ACAD_XREC_ROUNDTRIP
360
AF30
  0
DICTIONARY
  5
AF45
330
AED8
100
AcDbDictionary
280
     1
281
     1
  3
ACAD_XREC_ROUNDTRIP
360
AF46
  0
DICTIONARY
  5
AF43
330
AED7
100
AcDbDictionary
280
     1
281
     1
  3
ACAD_XREC_ROUNDTRIP
360
AF44
  0
DICTIONARY
  5
AF3D
330
AED4
100
AcDbDictionary
280
     1
281
     1
  3
ACAD_XREC_ROUNDTRIP
360
AF3E
  0
DICTIONARY
  5
AF3F
330
AED5
100
AcDbDictionary
280
     1
281
     1
  3
ACAD_XREC_ROUNDTRIP
360
AF40
  0
DICTIONARY
  5
AF35
330
AED0
100
AcDbDictionary
280
     1
281
     1
  3
ACAD_XREC_ROUNDTRIP
360
AF36
  0
DICTIONARY
  5
AF29
330
AECA
100
AcDbDictionary
280
     1
281
     1
  3
ACAD_XREC_ROUNDTRIP
360
AF2A
  0
DICTIONARY
  5
AF41
330
AED6
100
AcDbDictionary
280
     1
281
     1
  3
ACAD_XREC_ROUNDTRIP
360
AF42
  0
XRECORD
  5
AF52
102
{ACAD_REACTORS
330
AF51
102
}
330
AF51
100
AcDbXrecord
280
     1
102
DISPLAYNAME
  1
Imperial24
102
FLAGS
 90
        0
  0
XRECORD
  5
AF54
102
{ACAD_REACTORS
330
AF53
102
}
330
AF53
100
AcDbXrecord
280
     1
102
SHADEPLOT
 70
     0
102
SHADEPLOTRESLEVEL
 70
     2
102
SHADEPLOTCUSTOMDPI
 70
   300
  0
XRECORD
  5
AF56
102
{ACAD_REACTORS
330
AF55
102
}
330
AF55
100
AcDbXrecord
280
     1
102
SHADEPLOT
 70
     0
102
SHADEPLOTRESLEVEL
 70
     2
102
SHADEPLOTCUSTOMDPI
 70
   300
  0
XRECORD
  5
AF1B
102
{ACAD_REACTORS
330
AEB4
102
}
330
AEB4
100
AcDbXrecord
280
     1
102
MATERIAL
148
0.0
149
0.0
149
0.0
 93
        0
 94
      127
282
     0
 72
     0
 77
     0
171
     0
175
     0
179
     0
273
     0
  0
XRECORD
  5
AEB6
102
{ACAD_REACTORS
330
AEB4
102
}
330
AEB4
100
AcDbXrecord
280
     1
270
     1
271
     1
  0
XRECORD
  5
AEB5
102
{ACAD_REACTORS
330
AEB4
102
}
330
AEB4
100
AcDbXrecord
280
     1
270
     1
271
     1
  0
XRECORD
  5
AEB9
102
{ACAD_REACTORS
330
AEB4
102
}
330
AEB4
100
AcDbXrecord
280
     1
270
     1
271
     1
  0
XRECORD
  5
AEB8
102
{ACAD_REACTORS
330
AEB4
102
}
330
AEB4
100
AcDbXrecord
280
     1
270
     1
271
     1
  0
XRECORD
  5
AEBA
102
{ACAD_REACTORS
330
AEB4
102
}
330
AEB4
100
AcDbXrecord
280
     1
270
     1
271
     1
  0
XRECORD
  5
AEB7
102
{ACAD_REACTORS
330
AEB4
102
}
330
AEB4
100
AcDbXrecord
280
     1
270
     1
271
     1
  0
XRECORD
  5
AF1A
102
{ACAD_REACTORS
330
AEAC
102
}
330
AEAC
100
AcDbXrecord
280
     1
102
MATERIAL
148
0.0
149
0.0
149
0.0
 93
        0
 94
      127
282
     0
 72
     0
 77
     0
171
     0
175
     0
179
     0
273
     0
  0
XRECORD
  5
AEAE
102
{ACAD_REACTORS
330
AEAC
102
}
330
AEAC
100
AcDbXrecord
280
     1
270
     1
271
     1
  0
XRECORD
  5
AEAD
102
{ACAD_REACTORS
330
AEAC
102
}
330
AEAC
100
AcDbXrecord
280
     1
270
     1
271
     1
  0
XRECORD
  5
AEB1
102
{ACAD_REACTORS
330
AEAC
102
}
330
AEAC
100
AcDbXrecord
280
     1
270
     1
271
     1
  0
XRECORD
  5
AEB0
102
{ACAD_REACTORS
330
AEAC
102
}
330
AEAC
100
AcDbXrecord
280
     1
270
     1
271
     1
  0
XRECORD
  5
AEB2
102
{ACAD_REACTORS
330
AEAC
102
}
330
AEAC
100
AcDbXrecord
280
     1
270
     1
271
     1
  0
XRECORD
  5
AEAF
102
{ACAD_REACTORS
330
AEAC
102
}
330
AEAC
100
AcDbXrecord
280
     1
270
     1
271
     1
  0
XRECORD
  5
AF1C
102
{ACAD_REACTORS
330
AEBC
102
}
330
AEBC
100
AcDbXrecord
280
     1
102
MATERIAL
148
0.0
149
0.0
149
0.0
 93
        0
 94
      127
282
     0
 72
     0
 77
     0
171
     0
175
     0
179
     0
273
     0
  0
XRECORD
  5
AEBE
102
{ACAD_REACTORS
330
AEBC
102
}
330
AEBC
100
AcDbXrecord
280
     1
270
     1
271
     1
  0
XRECORD
  5
AEBD
102
{ACAD_REACTORS
330
AEBC
102
}
330
AEBC
100
AcDbXrecord
280
     1
270
     1
271
     1
  0
XRECORD
  5
AEC1
102
{ACAD_REACTORS
330
AEBC
102
}
330
AEBC
100
AcDbXrecord
280
     1
270
     1
271
     1
  0
XRECORD
  5
AEC0
102
{ACAD_REACTORS
330
AEBC
102
}
330
AEBC
100
AcDbXrecord
280
     1
270
     1
271
     1
  0
XRECORD
  5
AEC2
102
{ACAD_REACTORS
330
AEBC
102
}
330
AEBC
100
AcDbXrecord
280
     1
270
     1
271
     1
  0
XRECORD
  5
AEBF
102
{ACAD_REACTORS
330
AEBC
102
}
330
AEBC
100
AcDbXrecord
280
     1
270
     1
271
     1
  0
XRECORD
  5
AF50
102
{ACAD_REACTORS
330
AF4F
102
}
330
AF4F
100
AcDbXrecord
280
     1
102
DISPLAYNAME
  1
Imperial24
102
FLAGS
 90
        0
  0
CELLSTYLEMAP
  5
AF17
102
{ACAD_REACTORS
330
AF16
102
}
330
AF16
100
AcDbCellStyleMap
 90
        3
300
CELLSTYLE
  1
TABLEFORMAT_BEGIN
 90
        5
170
     1
 91
        0
 92
    32768
 62
   257
 93
        1
300
CONTENTFORMAT
  1
CONTENTFORMAT_BEGIN
 90
        0
 91
        0
 92
      512
 93
        0
300

 40
0.0
140
1.0
 94
        5
 62
     0
340
AC6D
144
0.25
309
CONTENTFORMAT_END
171
     0
 94
        0
309
TABLEFORMAT_END
  1
CELLSTYLE_BEGIN
 90
        1
 91
        1
300
_TITLE
309
CELLSTYLE_END
300
CELLSTYLE
  1
TABLEFORMAT_BEGIN
 90
        5
170
     1
 91
        0
 92
        0
 62
   257
 93
        1
300
CONTENTFORMAT
  1
CONTENTFORMAT_BEGIN
 90
        0
 91
        0
 92
      512
 93
        0
300

 40
0.0
140
1.0
 94
        5
 62
     0
340
AC6D
144
0.18
309
CONTENTFORMAT_END
171
     0
 94
        0
309
TABLEFORMAT_END
  1
CELLSTYLE_BEGIN
 90
        2
 91
        1
300
_HEADER
309
CELLSTYLE_END
300
CELLSTYLE
  1
TABLEFORMAT_BEGIN
 90
        5
170
     1
 91
        0
 92
        0
 62
   257
 93
        1
300
CONTENTFORMAT
  1
CONTENTFORMAT_BEGIN
 90
        0
 91
        0
 92
      512
 93
        0
300

 40
0.0
140
1.0
 94
        2
 62
     0
340
AC6D
144
0.18
309
CONTENTFORMAT_END
171
     0
 94
        0
309
TABLEFORMAT_END
  1
CELLSTYLE_BEGIN
 90
        3
 91
        2
300
_DATA
309
CELLSTYLE_END
  0
XRECORD
  5
AF4D
102
{ACAD_REACTORS
330
AF16
102
}
330
AF16
100
AcDbXrecord
280
     1
102
ACAD_ROUNDTRIP_PRE2007_TABLESTYLE
 90
      512
 91
        0
  1

 92
      512
 93
        0
  2

 94
      512
 95
        0
  3

  0
XRECORD
  5
AF28
102
{ACAD_REACTORS
330
AF27
102
}
330
AF27
100
AcDbXrecord
280
     1
102
RTVSPost2010Prop28
280
     1
102
RTVSPost2010PropOp28
 70
     1
102
RTVSPost2010Prop29
280
     1
102
RTVSPost2010PropOp29
 70
     1
102
RTVSPost2010Prop30
280
     0
102
RTVSPost2010PropOp30
 70
     1
102
RTVSPost2010Prop31
280
     0
102
RTVSPost2010PropOp31
 70
     1
102
RTVSPost2010Prop32
280
     0
102
RTVSPost2010PropOp32
 70
     1
102
RTVSPost2010Prop33
280
     0
102
RTVSPost2010PropOp33
 70
     1
102
RTVSPost2010Prop34
280
     0
102
RTVSPost2010PropOp34
 70
     1
102
RTVSPost2010Prop35
280
     0
102
RTVSPost2010PropOp35
 70
     1
102
RTVSPost2010Prop36
280
     0
102
RTVSPost2010PropOp36
 70
     1
102
RTVSPost2010Prop37
 90
       50
102
RTVSPost2010PropOp37
 70
     1
102
RTVSPost2010Prop38
140
0.0
102
RTVSPost2010PropOp38
 70
     1
102
RTVSPost2010Prop39
140
1.0
102
RTVSPost2010PropOp39
 70
     1
102
RTVSPost2010Prop40
 90
        0
102
RTVSPost2010PropOp40
 70
     1
102
RTVSPost2010Prop41ColorIndex
 90
       18
102
RTVSPost2010Prop41ColorRGB
 90
        0
102
RTVSPost2010PropOp41
 70
     1
102
RTVSPost2010Prop42
 90
       50
102
RTVSPost2010PropOp42
 70
     1
102
RTVSPost2010Prop43
 90
        3
102
RTVSPost2010PropOp43
 70
     1
102
RTVSPost2010Prop44ColorIndex
 90
        5
102
RTVSPost2010Prop44ColorRGB
 90
      255
102
RTVSPost2010PropOp44
 70
     1
102
RTVSPost2010Prop45
280
     0
102
RTVSPost2010PropOp45
 70
     1
102
RTVSPost2010Prop46
 90
       50
102
RTVSPost2010PropOp46
 70
     1
102
RTVSPost2010Prop47
 90
       50
102
RTVSPost2010PropOp47
 70
     1
102
RTVSPost2010Prop48
 90
       50
102
RTVSPost2010PropOp48
 70
     1
102
RTVSPost2010Prop49
280
     0
102
RTVSPost2010PropOp49
 70
     1
102
RTVSPost2010Prop50
 90
       50
102
RTVSPost2010PropOp50
 70
     1
102
RTVSPost2010Prop51ColorIndex
 90
      256
102
RTVSPost2010Prop51ColorRGB
 90
-16777216
102
RTVSPost2010PropOp51
 70
     0
102
RTVSPost2010Prop52
140
1.0
102
RTVSPost2010PropOp52
 70
     0
102
RTVSPost2010Prop53
 90
        2
102
RTVSPost2010PropOp53
 70
     1
102
RTVSPost2010Prop54
  1
strokes_ogs.tif
102
RTVSPost2010PropOp54
 70
     1
102
RTVSPost2010Prop55
280
     0
102
RTVSPost2010PropOp55
 70
     1
102
RTVSPost2010Prop56
140
1.0
102
RTVSPost2010PropOp56
 70
     1
102
RTVSPost2010Prop57
140
1.0
102
RTVSPost2010PropOp57
 70
     1
102
RTVSPropertyOp0
 70
     1
102
RTVSPropertyOp1
 70
     1
102
RTVSPropertyOp2
 70
     1
102
RTVSPropertyOp3
 70
     1
102
RTVSPropertyOp4
 70
     1
102
RTVSPropertyOp5
 70
     1
102
RTVSPropertyOp6
 70
     1
102
RTVSPropertyOp7
 70
     1
102
RTVSPropertyOp8
 70
     1
102
RTVSPropertyOp9
 70
     1
102
RTVSPropertyOp10
 70
     1
102
RTVSPropertyOp11
 70
     1
102
RTVSPropertyOp12
 70
     1
102
RTVSPropertyOp13
 70
     1
102
RTVSPropertyOp14
 70
     1
102
RTVSPropertyOp15
 70
     1
102
RTVSPropertyOp16
 70
     1
102
RTVSPropertyOp17
 70
     1
102
RTVSPropertyOp18
 70
     1
102
RTVSPropertyOp19
 70
     1
102
RTVSPropertyOp20
 70
     1
102
RTVSPropertyOp21
 70
     1
102
RTVSPropertyOp22
 70
     1
102
RTVSPropertyOp23
 70
     1
102
RTVSPropertyOp24
 70
     1
102
RTVSPropertyOp25
 70
     1
102
RTVSPropertyOp26
 70
     1
102
RTVSPropertyOp27
 70
     1
102
RTVSPropertyOp28
 70
     1
102
RTVSPropertyOp29
 70
     1
102
RTVSPropertyOp30
 70
     1
102
RTVSPropertyOp31
 70
     1
102
RTVSPropertyOp32
 70
     1
102
RTVSPropertyOp33
 70
     1
102
RTVSPropertyOp34
 70
     1
102
RTVSPropertyOp35
 70
     1
102
RTVSPropertyOp36
 70
     1
102
RTVSPropertyOp37
 70
     1
102
RTVSPropertyOp38
 70
     1
102
RTVSPropertyOp39
 70
     1
102
RTVSPropertyOp40
 70
     1
102
RTVSPropertyOp41
 70
     1
102
RTVSPropertyOp42
 70
     1
102
RTVSPropertyOp43
 70
     1
102
RTVSPropertyOp44
 70
     1
102
RTVSPropertyOp45
 70
     1
102
RTVSPropertyOp46
 70
     1
102
RTVSPropertyOp47
 70
     1
102
RTVSPropertyOp48
 70
     1
102
RTVSPropertyOp49
 70
     1
102
RTVSPropertyOp50
 70
     1
102
RTVSPropertyOp51
 70
     0
102
RTVSPropertyOp52
 70
     0
102
RTVSPropertyOp53
 70
     1
102
RTVSPropertyOp54
 70
     1
102
RTVSPropertyOp55
 70
     1
102
RTVSPropertyOp56
 70
     1
102
RTVSPropertyOp57
 70
     1
102
RTVSPropertyOp58
 70
     1
102
RTVSPropertyOp59
 70
     1
102
RTVSPropertyOp60
 70
     1
102
RTVSPropertyOp61
 70
     1
102
RTVSPropertyOp62
 70
     1
  0
XRECORD
  5
AF26
102
{ACAD_REACTORS
330
AF25
102
}
330
AF25
100
AcDbXrecord
280
     1
102
RTVSPost2010Prop28
280
     0
102
RTVSPost2010PropOp28
 70
     1
102
RTVSPost2010Prop29
280
     1
102
RTVSPost2010PropOp29
 70
     1
102
RTVSPost2010Prop30
280
     1
102
RTVSPost2010PropOp30
 70
     1
102
RTVSPost2010Prop31
280
     0
102
RTVSPost2010PropOp31
 70
     1
102
RTVSPost2010Prop32
280
     0
102
RTVSPost2010PropOp32
 70
     1
102
RTVSPost2010Prop33
280
     0
102
RTVSPost2010PropOp33
 70
     1
102
RTVSPost2010Prop34
280
     0
102
RTVSPost2010PropOp34
 70
     1
102
RTVSPost2010Prop35
280
     0
102
RTVSPost2010PropOp35
 70
     1
102
RTVSPost2010Prop36
280
     0
102
RTVSPost2010PropOp36
 70
     1
102
RTVSPost2010Prop37
 90
       50
102
RTVSPost2010PropOp37
 70
     1
102
RTVSPost2010Prop38
140
0.0
102
RTVSPost2010PropOp38
 70
     1
102
RTVSPost2010Prop39
140
1.0
102
RTVSPost2010PropOp39
 70
     1
102
RTVSPost2010Prop40
 90
        0
102
RTVSPost2010PropOp40
 70
     1
102
RTVSPost2010Prop41ColorIndex
 90
       18
102
RTVSPost2010Prop41ColorRGB
 90
        0
102
RTVSPost2010PropOp41
 70
     1
102
RTVSPost2010Prop42
 90
       50
102
RTVSPost2010PropOp42
 70
     1
102
RTVSPost2010Prop43
 90
        3
102
RTVSPost2010PropOp43
 70
     1
102
RTVSPost2010Prop44ColorIndex
 90
        5
102
RTVSPost2010Prop44ColorRGB
 90
      255
102
RTVSPost2010PropOp44
 70
     1
102
RTVSPost2010Prop45
280
     0
102
RTVSPost2010PropOp45
 70
     1
102
RTVSPost2010Prop46
 90
       50
102
RTVSPost2010PropOp46
 70
     1
102
RTVSPost2010Prop47
 90
       50
102
RTVSPost2010PropOp47
 70
     1
102
RTVSPost2010Prop48
 90
       50
102
RTVSPost2010PropOp48
 70
     1
102
RTVSPost2010Prop49
280
     0
102
RTVSPost2010PropOp49
 70
     1
102
RTVSPost2010Prop50
 90
       50
102
RTVSPost2010PropOp50
 70
     1
102
RTVSPost2010Prop51ColorIndex
 90
      256
102
RTVSPost2010Prop51ColorRGB
 90
-16777216
102
RTVSPost2010PropOp51
 70
     0
102
RTVSPost2010Prop52
140
1.0
102
RTVSPost2010PropOp52
 70
     0
102
RTVSPost2010Prop53
 90
        2
102
RTVSPost2010PropOp53
 70
     1
102
RTVSPost2010Prop54
  1
strokes_ogs.tif
102
RTVSPost2010PropOp54
 70
     1
102
RTVSPost2010Prop55
280
     0
102
RTVSPost2010PropOp55
 70
     1
102
RTVSPost2010Prop56
140
1.0
102
RTVSPost2010PropOp56
 70
     1
102
RTVSPost2010Prop57
140
1.0
102
RTVSPost2010PropOp57
 70
     1
102
RTVSPropertyOp0
 70
     1
102
RTVSPropertyOp1
 70
     1
102
RTVSPropertyOp2
 70
     1
102
RTVSPropertyOp3
 70
     1
102
RTVSPropertyOp4
 70
     1
102
RTVSPropertyOp5
 70
     1
102
RTVSPropertyOp6
 70
     1
102
RTVSPropertyOp7
 70
     1
102
RTVSPropertyOp8
 70
     1
102
RTVSPropertyOp9
 70
     1
102
RTVSPropertyOp10
 70
     1
102
RTVSPropertyOp11
 70
     1
102
RTVSPropertyOp12
 70
     1
102
RTVSPropertyOp13
 70
     1
102
RTVSPropertyOp14
 70
     1
102
RTVSPropertyOp15
 70
     1
102
RTVSPropertyOp16
 70
     1
102
RTVSPropertyOp17
 70
     1
102
RTVSPropertyOp18
 70
     1
102
RTVSPropertyOp19
 70
     1
102
RTVSPropertyOp20
 70
     1
102
RTVSPropertyOp21
 70
     1
102
RTVSPropertyOp22
 70
     1
102
RTVSPropertyOp23
 70
     1
102
RTVSPropertyOp24
 70
     1
102
RTVSPropertyOp25
 70
     1
102
RTVSPropertyOp26
 70
     1
102
RTVSPropertyOp27
 70
     1
102
RTVSPropertyOp28
 70
     1
102
RTVSPropertyOp29
 70
     1
102
RTVSPropertyOp30
 70
     1
102
RTVSPropertyOp31
 70
     1
102
RTVSPropertyOp32
 70
     1
102
RTVSPropertyOp33
 70
     1
102
RTVSPropertyOp34
 70
     1
102
RTVSPropertyOp35
 70
     1
102
RTVSPropertyOp36
 70
     1
102
RTVSPropertyOp37
 70
     1
102
RTVSPropertyOp38
 70
     1
102
RTVSPropertyOp39
 70
     1
102
RTVSPropertyOp40
 70
     1
102
RTVSPropertyOp41
 70
     1
102
RTVSPropertyOp42
 70
     1
102
RTVSPropertyOp43
 70
     1
102
RTVSPropertyOp44
 70
     1
102
RTVSPropertyOp45
 70
     1
102
RTVSPropertyOp46
 70
     1
102
RTVSPropertyOp47
 70
     1
102
RTVSPropertyOp48
 70
     1
102
RTVSPropertyOp49
 70
     1
102
RTVSPropertyOp50
 70
     1
102
RTVSPropertyOp51
 70
     0
102
RTVSPropertyOp52
 70
     0
102
RTVSPropertyOp53
 70
     1
102
RTVSPropertyOp54
 70
     1
102
RTVSPropertyOp55
 70
     1
102
RTVSPropertyOp56
 70
     1
102
RTVSPropertyOp57
 70
     1
102
RTVSPropertyOp58
 70
     1
102
RTVSPropertyOp59
 70
     1
102
RTVSPropertyOp60
 70
     1
102
RTVSPropertyOp61
 70
     1
102
RTVSPropertyOp62
 70
     1
  0
XRECORD
  5
AF34
102
{ACAD_REACTORS
330
AF33
102
}
330
AF33
100
AcDbXrecord
280
     1
102
RTVSPost2010Prop28
280
     0
102
RTVSPost2010PropOp28
 70
     1
102
RTVSPost2010Prop29
280
     1
102
RTVSPost2010PropOp29
 70
     1
102
RTVSPost2010Prop30
280
     1
102
RTVSPost2010PropOp30
 70
     1
102
RTVSPost2010Prop31
280
     0
102
RTVSPost2010PropOp31
 70
     1
102
RTVSPost2010Prop32
280
     0
102
RTVSPost2010PropOp32
 70
     1
102
RTVSPost2010Prop33
280
     0
102
RTVSPost2010PropOp33
 70
     1
102
RTVSPost2010Prop34
280
     0
102
RTVSPost2010PropOp34
 70
     1
102
RTVSPost2010Prop35
280
     0
102
RTVSPost2010PropOp35
 70
     1
102
RTVSPost2010Prop36
280
     0
102
RTVSPost2010PropOp36
 70
     1
102
RTVSPost2010Prop37
 90
       50
102
RTVSPost2010PropOp37
 70
     1
102
RTVSPost2010Prop38
140
0.0
102
RTVSPost2010PropOp38
 70
     1
102
RTVSPost2010Prop39
140
1.0
102
RTVSPost2010PropOp39
 70
     1
102
RTVSPost2010Prop40
 90
        0
102
RTVSPost2010PropOp40
 70
     1
102
RTVSPost2010Prop41ColorIndex
 90
       18
102
RTVSPost2010Prop41ColorRGB
 90
        0
102
RTVSPost2010PropOp41
 70
     1
102
RTVSPost2010Prop42
 90
       50
102
RTVSPost2010PropOp42
 70
     1
102
RTVSPost2010Prop43
 90
        3
102
RTVSPost2010PropOp43
 70
     1
102
RTVSPost2010Prop44ColorIndex
 90
        5
102
RTVSPost2010Prop44ColorRGB
 90
      255
102
RTVSPost2010PropOp44
 70
     1
102
RTVSPost2010Prop45
280
     0
102
RTVSPost2010PropOp45
 70
     1
102
RTVSPost2010Prop46
 90
       50
102
RTVSPost2010PropOp46
 70
     1
102
RTVSPost2010Prop47
 90
       50
102
RTVSPost2010PropOp47
 70
     1
102
RTVSPost2010Prop48
 90
       50
102
RTVSPost2010PropOp48
 70
     1
102
RTVSPost2010Prop49
280
     0
102
RTVSPost2010PropOp49
 70
     1
102
RTVSPost2010Prop50
 90
       50
102
RTVSPost2010PropOp50
 70
     1
102
RTVSPost2010Prop51ColorIndex
 90
      256
102
RTVSPost2010Prop51ColorRGB
 90
-16777216
102
RTVSPost2010PropOp51
 70
     0
102
RTVSPost2010Prop52
140
1.0
102
RTVSPost2010PropOp52
 70
     0
102
RTVSPost2010Prop53
 90
        2
102
RTVSPost2010PropOp53
 70
     1
102
RTVSPost2010Prop54
  1
strokes_ogs.tif
102
RTVSPost2010PropOp54
 70
     1
102
RTVSPost2010Prop55
280
     0
102
RTVSPost2010PropOp55
 70
     1
102
RTVSPost2010Prop56
140
1.0
102
RTVSPost2010PropOp56
 70
     1
102
RTVSPost2010Prop57
140
1.0
102
RTVSPost2010PropOp57
 70
     1
102
RTVSPropertyOp0
 70
     1
102
RTVSPropertyOp1
 70
     1
102
RTVSPropertyOp2
 70
     1
102
RTVSPropertyOp3
 70
     1
102
RTVSPropertyOp4
 70
     1
102
RTVSPropertyOp5
 70
     1
102
RTVSPropertyOp6
 70
     1
102
RTVSPropertyOp7
 70
     1
102
RTVSPropertyOp8
 70
     1
102
RTVSPropertyOp9
 70
     1
102
RTVSPropertyOp10
 70
     1
102
RTVSPropertyOp11
 70
     1
102
RTVSPropertyOp12
 70
     1
102
RTVSPropertyOp13
 70
     1
102
RTVSPropertyOp14
 70
     1
102
RTVSPropertyOp15
 70
     1
102
RTVSPropertyOp16
 70
     1
102
RTVSPropertyOp17
 70
     1
102
RTVSPropertyOp18
 70
     1
102
RTVSPropertyOp19
 70
     1
102
RTVSPropertyOp20
 70
     1
102
RTVSPropertyOp21
 70
     1
102
RTVSPropertyOp22
 70
     1
102
RTVSPropertyOp23
 70
     1
102
RTVSPropertyOp24
 70
     1
102
RTVSPropertyOp25
 70
     1
102
RTVSPropertyOp26
 70
     1
102
RTVSPropertyOp27
 70
     1
102
RTVSPropertyOp28
 70
     1
102
RTVSPropertyOp29
 70
     1
102
RTVSPropertyOp30
 70
     1
102
RTVSPropertyOp31
 70
     1
102
RTVSPropertyOp32
 70
     1
102
RTVSPropertyOp33
 70
     1
102
RTVSPropertyOp34
 70
     1
102
RTVSPropertyOp35
 70
     1
102
RTVSPropertyOp36
 70
     1
102
RTVSPropertyOp37
 70
     1
102
RTVSPropertyOp38
 70
     1
102
RTVSPropertyOp39
 70
     1
102
RTVSPropertyOp40
 70
     1
102
RTVSPropertyOp41
 70
     1
102
RTVSPropertyOp42
 70
     1
102
RTVSPropertyOp43
 70
     1
102
RTVSPropertyOp44
 70
     1
102
RTVSPropertyOp45
 70
     1
102
RTVSPropertyOp46
 70
     1
102
RTVSPropertyOp47
 70
     1
102
RTVSPropertyOp48
 70
     1
102
RTVSPropertyOp49
 70
     1
102
RTVSPropertyOp50
 70
     1
102
RTVSPropertyOp51
 70
     0
102
RTVSPropertyOp52
 70
     0
102
RTVSPropertyOp53
 70
     1
102
RTVSPropertyOp54
 70
     1
102
RTVSPropertyOp55
 70
     1
102
RTVSPropertyOp56
 70
     1
102
RTVSPropertyOp57
 70
     1
102
RTVSPropertyOp58
 70
     1
102
RTVSPropertyOp59
 70
     1
102
RTVSPropertyOp60
 70
     1
102
RTVSPropertyOp61
 70
     1
102
RTVSPropertyOp62
 70
     1
  0
XRECORD
  5
AF3C
102
{ACAD_REACTORS
330
AF3B
102
}
330
AF3B
100
AcDbXrecord
280
     1
102
RTVSPost2010Prop28
280
     0
102
RTVSPost2010PropOp28
 70
     1
102
RTVSPost2010Prop29
280
     1
102
RTVSPost2010PropOp29
 70
     1
102
RTVSPost2010Prop30
280
     1
102
RTVSPost2010PropOp30
 70
     1
102
RTVSPost2010Prop31
280
     0
102
RTVSPost2010PropOp31
 70
     1
102
RTVSPost2010Prop32
280
     0
102
RTVSPost2010PropOp32
 70
     1
102
RTVSPost2010Prop33
280
     0
102
RTVSPost2010PropOp33
 70
     1
102
RTVSPost2010Prop34
280
     0
102
RTVSPost2010PropOp34
 70
     1
102
RTVSPost2010Prop35
280
     0
102
RTVSPost2010PropOp35
 70
     1
102
RTVSPost2010Prop36
280
     0
102
RTVSPost2010PropOp36
 70
     1
102
RTVSPost2010Prop37
 90
       50
102
RTVSPost2010PropOp37
 70
     1
102
RTVSPost2010Prop38
140
0.0
102
RTVSPost2010PropOp38
 70
     1
102
RTVSPost2010Prop39
140
1.0
102
RTVSPost2010PropOp39
 70
     1
102
RTVSPost2010Prop40
 90
        0
102
RTVSPost2010PropOp40
 70
     1
102
RTVSPost2010Prop41ColorIndex
 90
       18
102
RTVSPost2010Prop41ColorRGB
 90
        0
102
RTVSPost2010PropOp41
 70
     1
102
RTVSPost2010Prop42
 90
       50
102
RTVSPost2010PropOp42
 70
     1
102
RTVSPost2010Prop43
 90
        3
102
RTVSPost2010PropOp43
 70
     1
102
RTVSPost2010Prop44ColorIndex
 90
        5
102
RTVSPost2010Prop44ColorRGB
 90
      255
102
RTVSPost2010PropOp44
 70
     1
102
RTVSPost2010Prop45
280
     0
102
RTVSPost2010PropOp45
 70
     1
102
RTVSPost2010Prop46
 90
       50
102
RTVSPost2010PropOp46
 70
     1
102
RTVSPost2010Prop47
 90
       50
102
RTVSPost2010PropOp47
 70
     1
102
RTVSPost2010Prop48
 90
       50
102
RTVSPost2010PropOp48
 70
     1
102
RTVSPost2010Prop49
280
     0
102
RTVSPost2010PropOp49
 70
     1
102
RTVSPost2010Prop50
 90
       50
102
RTVSPost2010PropOp50
 70
     1
102
RTVSPost2010Prop51ColorIndex
 90
      256
102
RTVSPost2010Prop51ColorRGB
 90
-16777216
102
RTVSPost2010PropOp51
 70
     0
102
RTVSPost2010Prop52
140
1.0
102
RTVSPost2010PropOp52
 70
     0
102
RTVSPost2010Prop53
 90
        2
102
RTVSPost2010PropOp53
 70
     1
102
RTVSPost2010Prop54
  1
strokes_ogs.tif
102
RTVSPost2010PropOp54
 70
     1
102
RTVSPost2010Prop55
280
     0
102
RTVSPost2010PropOp55
 70
     1
102
RTVSPost2010Prop56
140
1.0
102
RTVSPost2010PropOp56
 70
     1
102
RTVSPost2010Prop57
140
1.0
102
RTVSPost2010PropOp57
 70
     1
102
RTVSPropertyOp0
 70
     1
102
RTVSPropertyOp1
 70
     1
102
RTVSPropertyOp2
 70
     1
102
RTVSPropertyOp3
 70
     1
102
RTVSPropertyOp4
 70
     1
102
RTVSPropertyOp5
 70
     1
102
RTVSPropertyOp6
 70
     1
102
RTVSPropertyOp7
 70
     1
102
RTVSPropertyOp8
 70
     1
102
RTVSPropertyOp9
 70
     1
102
RTVSPropertyOp10
 70
     1
102
RTVSPropertyOp11
 70
     1
102
RTVSPropertyOp12
 70
     1
102
RTVSPropertyOp13
 70
     1
102
RTVSPropertyOp14
 70
     1
102
RTVSPropertyOp15
 70
     1
102
RTVSPropertyOp16
 70
     1
102
RTVSPropertyOp17
 70
     1
102
RTVSPropertyOp18
 70
     1
102
RTVSPropertyOp19
 70
     1
102
RTVSPropertyOp20
 70
     1
102
RTVSPropertyOp21
 70
     1
102
RTVSPropertyOp22
 70
     1
102
RTVSPropertyOp23
 70
     1
102
RTVSPropertyOp24
 70
     1
102
RTVSPropertyOp25
 70
     1
102
RTVSPropertyOp26
 70
     1
102
RTVSPropertyOp27
 70
     1
102
RTVSPropertyOp28
 70
     1
102
RTVSPropertyOp29
 70
     1
102
RTVSPropertyOp30
 70
     1
102
RTVSPropertyOp31
 70
     1
102
RTVSPropertyOp32
 70
     1
102
RTVSPropertyOp33
 70
     1
102
RTVSPropertyOp34
 70
     1
102
RTVSPropertyOp35
 70
     1
102
RTVSPropertyOp36
 70
     1
102
RTVSPropertyOp37
 70
     1
102
RTVSPropertyOp38
 70
     1
102
RTVSPropertyOp39
 70
     1
102
RTVSPropertyOp40
 70
     1
102
RTVSPropertyOp41
 70
     1
102
RTVSPropertyOp42
 70
     1
102
RTVSPropertyOp43
 70
     1
102
RTVSPropertyOp44
 70
     1
102
RTVSPropertyOp45
 70
     1
102
RTVSPropertyOp46
 70
     1
102
RTVSPropertyOp47
 70
     1
102
RTVSPropertyOp48
 70
     1
102
RTVSPropertyOp49
 70
     1
102
RTVSPropertyOp50
 70
     1
102
RTVSPropertyOp51
 70
     0
102
RTVSPropertyOp52
 70
     0
102
RTVSPropertyOp53
 70
     1
102
RTVSPropertyOp54
 70
     1
102
RTVSPropertyOp55
 70
     1
102
RTVSPropertyOp56
 70
     1
102
RTVSPropertyOp57
 70
     1
102
RTVSPropertyOp58
 70
     1
102
RTVSPropertyOp59
 70
     1
102
RTVSPropertyOp60
 70
     1
102
RTVSPropertyOp61
 70
     1
102
RTVSPropertyOp62
 70
     1
  0
XRECORD
  5
AF2E
102
{ACAD_REACTORS
330
AF2D
102
}
330
AF2D
100
AcDbXrecord
280
     1
102
RTVSPost2010Prop28
280
     0
102
RTVSPost2010PropOp28
 70
     1
102
RTVSPost2010Prop29
280
     1
102
RTVSPost2010PropOp29
 70
     1
102
RTVSPost2010Prop30
280
     1
102
RTVSPost2010PropOp30
 70
     1
102
RTVSPost2010Prop31
280
     0
102
RTVSPost2010PropOp31
 70
     1
102
RTVSPost2010Prop32
280
     0
102
RTVSPost2010PropOp32
 70
     1
102
RTVSPost2010Prop33
280
     0
102
RTVSPost2010PropOp33
 70
     1
102
RTVSPost2010Prop34
280
     0
102
RTVSPost2010PropOp34
 70
     1
102
RTVSPost2010Prop35
280
     0
102
RTVSPost2010PropOp35
 70
     1
102
RTVSPost2010Prop36
280
     0
102
RTVSPost2010PropOp36
 70
     1
102
RTVSPost2010Prop37
 90
       50
102
RTVSPost2010PropOp37
 70
     1
102
RTVSPost2010Prop38
140
0.0
102
RTVSPost2010PropOp38
 70
     1
102
RTVSPost2010Prop39
140
1.0
102
RTVSPost2010PropOp39
 70
     1
102
RTVSPost2010Prop40
 90
        0
102
RTVSPost2010PropOp40
 70
     1
102
RTVSPost2010Prop41ColorIndex
 90
       18
102
RTVSPost2010Prop41ColorRGB
 90
        0
102
RTVSPost2010PropOp41
 70
     1
102
RTVSPost2010Prop42
 90
       50
102
RTVSPost2010PropOp42
 70
     1
102
RTVSPost2010Prop43
 90
        3
102
RTVSPost2010PropOp43
 70
     1
102
RTVSPost2010Prop44ColorIndex
 90
        5
102
RTVSPost2010Prop44ColorRGB
 90
      255
102
RTVSPost2010PropOp44
 70
     1
102
RTVSPost2010Prop45
280
     0
102
RTVSPost2010PropOp45
 70
     1
102
RTVSPost2010Prop46
 90
       50
102
RTVSPost2010PropOp46
 70
     1
102
RTVSPost2010Prop47
 90
       50
102
RTVSPost2010PropOp47
 70
     1
102
RTVSPost2010Prop48
 90
       50
102
RTVSPost2010PropOp48
 70
     1
102
RTVSPost2010Prop49
280
     0
102
RTVSPost2010PropOp49
 70
     1
102
RTVSPost2010Prop50
 90
       50
102
RTVSPost2010PropOp50
 70
     1
102
RTVSPost2010Prop51ColorIndex
 90
      256
102
RTVSPost2010Prop51ColorRGB
 90
-16777216
102
RTVSPost2010PropOp51
 70
     0
102
RTVSPost2010Prop52
140
1.0
102
RTVSPost2010PropOp52
 70
     0
102
RTVSPost2010Prop53
 90
        2
102
RTVSPost2010PropOp53
 70
     1
102
RTVSPost2010Prop54
  1
strokes_ogs.tif
102
RTVSPost2010PropOp54
 70
     1
102
RTVSPost2010Prop55
280
     0
102
RTVSPost2010PropOp55
 70
     1
102
RTVSPost2010Prop56
140
1.0
102
RTVSPost2010PropOp56
 70
     1
102
RTVSPost2010Prop57
140
1.0
102
RTVSPost2010PropOp57
 70
     1
102
RTVSPropertyOp0
 70
     1
102
RTVSPropertyOp1
 70
     1
102
RTVSPropertyOp2
 70
     1
102
RTVSPropertyOp3
 70
     1
102
RTVSPropertyOp4
 70
     1
102
RTVSPropertyOp5
 70
     1
102
RTVSPropertyOp6
 70
     1
102
RTVSPropertyOp7
 70
     1
102
RTVSPropertyOp8
 70
     1
102
RTVSPropertyOp9
 70
     1
102
RTVSPropertyOp10
 70
     1
102
RTVSPropertyOp11
 70
     1
102
RTVSPropertyOp12
 70
     1
102
RTVSPropertyOp13
 70
     1
102
RTVSPropertyOp14
 70
     1
102
RTVSPropertyOp15
 70
     1
102
RTVSPropertyOp16
 70
     1
102
RTVSPropertyOp17
 70
     1
102
RTVSPropertyOp18
 70
     1
102
RTVSPropertyOp19
 70
     1
102
RTVSPropertyOp20
 70
     1
102
RTVSPropertyOp21
 70
     1
102
RTVSPropertyOp22
 70
     1
102
RTVSPropertyOp23
 70
     1
102
RTVSPropertyOp24
 70
     1
102
RTVSPropertyOp25
 70
     1
102
RTVSPropertyOp26
 70
     1
102
RTVSPropertyOp27
 70
     1
102
RTVSPropertyOp28
 70
     1
102
RTVSPropertyOp29
 70
     1
102
RTVSPropertyOp30
 70
     1
102
RTVSPropertyOp31
 70
     1
102
RTVSPropertyOp32
 70
     1
102
RTVSPropertyOp33
 70
     1
102
RTVSPropertyOp34
 70
     1
102
RTVSPropertyOp35
 70
     1
102
RTVSPropertyOp36
 70
     1
102
RTVSPropertyOp37
 70
     1
102
RTVSPropertyOp38
 70
     1
102
RTVSPropertyOp39
 70
     1
102
RTVSPropertyOp40
 70
     1
102
RTVSPropertyOp41
 70
     1
102
RTVSPropertyOp42
 70
     1
102
RTVSPropertyOp43
 70
     1
102
RTVSPropertyOp44
 70
     1
102
RTVSPropertyOp45
 70
     1
102
RTVSPropertyOp46
 70
     1
102
RTVSPropertyOp47
 70
     1
102
RTVSPropertyOp48
 70
     1
102
RTVSPropertyOp49
 70
     1
102
RTVSPropertyOp50
 70
     1
102
RTVSPropertyOp51
 70
     0
102
RTVSPropertyOp52
 70
     0
102
RTVSPropertyOp53
 70
     1
102
RTVSPropertyOp54
 70
     1
102
RTVSPropertyOp55
 70
     1
102
RTVSPropertyOp56
 70
     1
102
RTVSPropertyOp57
 70
     1
102
RTVSPropertyOp58
 70
     1
102
RTVSPropertyOp59
 70
     1
102
RTVSPropertyOp60
 70
     1
102
RTVSPropertyOp61
 70
     1
102
RTVSPropertyOp62
 70
     1
  0
XRECORD
  5
AF32
102
{ACAD_REACTORS
330
AF31
102
}
330
AF31
100
AcDbXrecord
280
     1
102
RTVSPost2010Prop28
280
     0
102
RTVSPost2010PropOp28
 70
     1
102
RTVSPost2010Prop29
280
     1
102
RTVSPost2010PropOp29
 70
     1
102
RTVSPost2010Prop30
280
     1
102
RTVSPost2010PropOp30
 70
     1
102
RTVSPost2010Prop31
280
     0
102
RTVSPost2010PropOp31
 70
     1
102
RTVSPost2010Prop32
280
     0
102
RTVSPost2010PropOp32
 70
     1
102
RTVSPost2010Prop33
280
     0
102
RTVSPost2010PropOp33
 70
     1
102
RTVSPost2010Prop34
280
     0
102
RTVSPost2010PropOp34
 70
     1
102
RTVSPost2010Prop35
280
     0
102
RTVSPost2010PropOp35
 70
     1
102
RTVSPost2010Prop36
280
     0
102
RTVSPost2010PropOp36
 70
     1
102
RTVSPost2010Prop37
 90
       50
102
RTVSPost2010PropOp37
 70
     1
102
RTVSPost2010Prop38
140
0.0
102
RTVSPost2010PropOp38
 70
     1
102
RTVSPost2010Prop39
140
1.0
102
RTVSPost2010PropOp39
 70
     1
102
RTVSPost2010Prop40
 90
        0
102
RTVSPost2010PropOp40
 70
     1
102
RTVSPost2010Prop41ColorIndex
 90
       18
102
RTVSPost2010Prop41ColorRGB
 90
        0
102
RTVSPost2010PropOp41
 70
     1
102
RTVSPost2010Prop42
 90
       50
102
RTVSPost2010PropOp42
 70
     1
102
RTVSPost2010Prop43
 90
        3
102
RTVSPost2010PropOp43
 70
     1
102
RTVSPost2010Prop44ColorIndex
 90
        5
102
RTVSPost2010Prop44ColorRGB
 90
      255
102
RTVSPost2010PropOp44
 70
     1
102
RTVSPost2010Prop45
280
     0
102
RTVSPost2010PropOp45
 70
     1
102
RTVSPost2010Prop46
 90
       50
102
RTVSPost2010PropOp46
 70
     1
102
RTVSPost2010Prop47
 90
       50
102
RTVSPost2010PropOp47
 70
     1
102
RTVSPost2010Prop48
 90
       50
102
RTVSPost2010PropOp48
 70
     1
102
RTVSPost2010Prop49
280
     0
102
RTVSPost2010PropOp49
 70
     1
102
RTVSPost2010Prop50
 90
       50
102
RTVSPost2010PropOp50
 70
     1
102
RTVSPost2010Prop51ColorIndex
 90
      256
102
RTVSPost2010Prop51ColorRGB
 90
-16777216
102
RTVSPost2010PropOp51
 70
     0
102
RTVSPost2010Prop52
140
1.0
102
RTVSPost2010PropOp52
 70
     0
102
RTVSPost2010Prop53
 90
        2
102
RTVSPost2010PropOp53
 70
     1
102
RTVSPost2010Prop54
  1
strokes_ogs.tif
102
RTVSPost2010PropOp54
 70
     1
102
RTVSPost2010Prop55
280
     0
102
RTVSPost2010PropOp55
 70
     1
102
RTVSPost2010Prop56
140
1.0
102
RTVSPost2010PropOp56
 70
     1
102
RTVSPost2010Prop57
140
1.0
102
RTVSPost2010PropOp57
 70
     1
102
RTVSPropertyOp0
 70
     1
102
RTVSPropertyOp1
 70
     1
102
RTVSPropertyOp2
 70
     1
102
RTVSPropertyOp3
 70
     1
102
RTVSPropertyOp4
 70
     1
102
RTVSPropertyOp5
 70
     1
102
RTVSPropertyOp6
 70
     1
102
RTVSPropertyOp7
 70
     1
102
RTVSPropertyOp8
 70
     1
102
RTVSPropertyOp9
 70
     1
102
RTVSPropertyOp10
 70
     1
102
RTVSPropertyOp11
 70
     1
102
RTVSPropertyOp12
 70
     1
102
RTVSPropertyOp13
 70
     1
102
RTVSPropertyOp14
 70
     1
102
RTVSPropertyOp15
 70
     1
102
RTVSPropertyOp16
 70
     1
102
RTVSPropertyOp17
 70
     1
102
RTVSPropertyOp18
 70
     1
102
RTVSPropertyOp19
 70
     1
102
RTVSPropertyOp20
 70
     1
102
RTVSPropertyOp21
 70
     1
102
RTVSPropertyOp22
 70
     1
102
RTVSPropertyOp23
 70
     1
102
RTVSPropertyOp24
 70
     1
102
RTVSPropertyOp25
 70
     1
102
RTVSPropertyOp26
 70
     1
102
RTVSPropertyOp27
 70
     1
102
RTVSPropertyOp28
 70
     1
102
RTVSPropertyOp29
 70
     1
102
RTVSPropertyOp30
 70
     1
102
RTVSPropertyOp31
 70
     1
102
RTVSPropertyOp32
 70
     1
102
RTVSPropertyOp33
 70
     1
102
RTVSPropertyOp34
 70
     1
102
RTVSPropertyOp35
 70
     1
102
RTVSPropertyOp36
 70
     1
102
RTVSPropertyOp37
 70
     1
102
RTVSPropertyOp38
 70
     1
102
RTVSPropertyOp39
 70
     1
102
RTVSPropertyOp40
 70
     1
102
RTVSPropertyOp41
 70
     1
102
RTVSPropertyOp42
 70
     1
102
RTVSPropertyOp43
 70
     1
102
RTVSPropertyOp44
 70
     1
102
RTVSPropertyOp45
 70
     1
102
RTVSPropertyOp46
 70
     1
102
RTVSPropertyOp47
 70
     1
102
RTVSPropertyOp48
 70
     1
102
RTVSPropertyOp49
 70
     1
102
RTVSPropertyOp50
 70
     1
102
RTVSPropertyOp51
 70
     0
102
RTVSPropertyOp52
 70
     0
102
RTVSPropertyOp53
 70
     1
102
RTVSPropertyOp54
 70
     1
102
RTVSPropertyOp55
 70
     1
102
RTVSPropertyOp56
 70
     1
102
RTVSPropertyOp57
 70
     1
102
RTVSPropertyOp58
 70
     1
102
RTVSPropertyOp59
 70
     1
102
RTVSPropertyOp60
 70
     1
102
RTVSPropertyOp61
 70
     1
102
RTVSPropertyOp62
 70
     1
  0
XRECORD
  5
AF4C
102
{ACAD_REACTORS
330
AF4B
102
}
330
AF4B
100
AcDbXrecord
280
     1
102
RTVSPost2010Prop28
280
     0
102
RTVSPost2010PropOp28
 70
     1
102
RTVSPost2010Prop29
280
     1
102
RTVSPost2010PropOp29
 70
     1
102
RTVSPost2010Prop30
280
     1
102
RTVSPost2010PropOp30
 70
     1
102
RTVSPost2010Prop31
280
     0
102
RTVSPost2010PropOp31
 70
     1
102
RTVSPost2010Prop32
280
     0
102
RTVSPost2010PropOp32
 70
     1
102
RTVSPost2010Prop33
280
     0
102
RTVSPost2010PropOp33
 70
     1
102
RTVSPost2010Prop34
280
     0
102
RTVSPost2010PropOp34
 70
     1
102
RTVSPost2010Prop35
280
     0
102
RTVSPost2010PropOp35
 70
     1
102
RTVSPost2010Prop36
280
     0
102
RTVSPost2010PropOp36
 70
     1
102
RTVSPost2010Prop37
 90
       50
102
RTVSPost2010PropOp37
 70
     0
102
RTVSPost2010Prop38
140
0.0
102
RTVSPost2010PropOp38
 70
     0
102
RTVSPost2010Prop39
140
1.0
102
RTVSPost2010PropOp39
 70
     0
102
RTVSPost2010Prop40
 90
        0
102
RTVSPost2010PropOp40
 70
     0
102
RTVSPost2010Prop41ColorIndex
 90
       18
102
RTVSPost2010Prop41ColorRGB
 90
        0
102
RTVSPost2010PropOp41
 70
     0
102
RTVSPost2010Prop42
 90
       50
102
RTVSPost2010PropOp42
 70
     0
102
RTVSPost2010Prop43
 90
        3
102
RTVSPost2010PropOp43
 70
     0
102
RTVSPost2010Prop44ColorIndex
 90
        5
102
RTVSPost2010Prop44ColorRGB
 90
      255
102
RTVSPost2010PropOp44
 70
     0
102
RTVSPost2010Prop45
280
     0
102
RTVSPost2010PropOp45
 70
     1
102
RTVSPost2010Prop46
 90
       50
102
RTVSPost2010PropOp46
 70
     0
102
RTVSPost2010Prop47
 90
       50
102
RTVSPost2010PropOp47
 70
     0
102
RTVSPost2010Prop48
 90
       50
102
RTVSPost2010PropOp48
 70
     0
102
RTVSPost2010Prop49
280
     0
102
RTVSPost2010PropOp49
 70
     1
102
RTVSPost2010Prop50
 90
       50
102
RTVSPost2010PropOp50
 70
     0
102
RTVSPost2010Prop51ColorIndex
 90
      256
102
RTVSPost2010Prop51ColorRGB
 90
-16777216
102
RTVSPost2010PropOp51
 70
     0
102
RTVSPost2010Prop52
140
1.0
102
RTVSPost2010PropOp52
 70
     0
102
RTVSPost2010Prop53
 90
        2
102
RTVSPost2010PropOp53
 70
     0
102
RTVSPost2010Prop54
  1
strokes_ogs.tif
102
RTVSPost2010PropOp54
 70
     0
102
RTVSPost2010Prop55
280
     0
102
RTVSPost2010PropOp55
 70
     1
102
RTVSPost2010Prop56
140
1.0
102
RTVSPost2010PropOp56
 70
     0
102
RTVSPost2010Prop57
140
1.0
102
RTVSPost2010PropOp57
 70
     0
102
RTVSPropertyOp0
 70
     0
102
RTVSPropertyOp1
 70
     0
102
RTVSPropertyOp2
 70
     0
102
RTVSPropertyOp3
 70
     0
102
RTVSPropertyOp4
 70
     0
102
RTVSPropertyOp5
 70
     0
102
RTVSPropertyOp6
 70
     0
102
RTVSPropertyOp7
 70
     0
102
RTVSPropertyOp8
 70
     0
102
RTVSPropertyOp9
 70
     0
102
RTVSPropertyOp10
 70
     0
102
RTVSPropertyOp11
 70
     0
102
RTVSPropertyOp12
 70
     0
102
RTVSPropertyOp13
 70
     0
102
RTVSPropertyOp14
 70
     2
102
RTVSPropertyOp15
 70
     0
102
RTVSPropertyOp16
 70
     0
102
RTVSPropertyOp17
 70
     0
102
RTVSPropertyOp18
 70
     0
102
RTVSPropertyOp19
 70
     0
102
RTVSPropertyOp20
 70
     0
102
RTVSPropertyOp21
 70
     0
102
RTVSPropertyOp22
 70
     0
102
RTVSPropertyOp23
 70
     0
102
RTVSPropertyOp24
 70
     0
102
RTVSPropertyOp25
 70
     0
102
RTVSPropertyOp26
 70
     0
102
RTVSPropertyOp27
 70
     0
102
RTVSPropertyOp28
 70
     1
102
RTVSPropertyOp29
 70
     1
102
RTVSPropertyOp30
 70
     1
102
RTVSPropertyOp31
 70
     1
102
RTVSPropertyOp32
 70
     1
102
RTVSPropertyOp33
 70
     1
102
RTVSPropertyOp34
 70
     1
102
RTVSPropertyOp35
 70
     1
102
RTVSPropertyOp36
 70
     1
102
RTVSPropertyOp37
 70
     0
102
RTVSPropertyOp38
 70
     0
102
RTVSPropertyOp39
 70
     0
102
RTVSPropertyOp40
 70
     0
102
RTVSPropertyOp41
 70
     0
102
RTVSPropertyOp42
 70
     0
102
RTVSPropertyOp43
 70
     0
102
RTVSPropertyOp44
 70
     0
102
RTVSPropertyOp45
 70
     1
102
RTVSPropertyOp46
 70
     0
102
RTVSPropertyOp47
 70
     0
102
RTVSPropertyOp48
 70
     0
102
RTVSPropertyOp49
 70
     1
102
RTVSPropertyOp50
 70
     0
102
RTVSPropertyOp51
 70
     0
102
RTVSPropertyOp52
 70
     0
102
RTVSPropertyOp53
 70
     0
102
RTVSPropertyOp54
 70
     0
102
RTVSPropertyOp55
 70
     1
102
RTVSPropertyOp56
 70
     0
102
RTVSPropertyOp57
 70
     0
102
RTVSPropertyOp58
 70
     0
102
RTVSPropertyOp59
 70
     0
102
RTVSPropertyOp60
 70
     0
102
RTVSPropertyOp61
 70
     0
102
RTVSPropertyOp62
 70
     0
  0
XRECORD
  5
AF3A
102
{ACAD_REACTORS
330
AF39
102
}
330
AF39
100
AcDbXrecord
280
     1
102
RTVSPost2010Prop28
280
     0
102
RTVSPost2010PropOp28
 70
     1
102
RTVSPost2010Prop29
280
     1
102
RTVSPost2010PropOp29
 70
     1
102
RTVSPost2010Prop30
280
     1
102
RTVSPost2010PropOp30
 70
     1
102
RTVSPost2010Prop31
280
     0
102
RTVSPost2010PropOp31
 70
     1
102
RTVSPost2010Prop32
280
     0
102
RTVSPost2010PropOp32
 70
     1
102
RTVSPost2010Prop33
280
     0
102
RTVSPost2010PropOp33
 70
     1
102
RTVSPost2010Prop34
280
     0
102
RTVSPost2010PropOp34
 70
     1
102
RTVSPost2010Prop35
280
     0
102
RTVSPost2010PropOp35
 70
     1
102
RTVSPost2010Prop36
280
     0
102
RTVSPost2010PropOp36
 70
     1
102
RTVSPost2010Prop37
 90
       50
102
RTVSPost2010PropOp37
 70
     1
102
RTVSPost2010Prop38
140
0.0
102
RTVSPost2010PropOp38
 70
     1
102
RTVSPost2010Prop39
140
1.0
102
RTVSPost2010PropOp39
 70
     1
102
RTVSPost2010Prop40
 90
        0
102
RTVSPost2010PropOp40
 70
     1
102
RTVSPost2010Prop41ColorIndex
 90
       18
102
RTVSPost2010Prop41ColorRGB
 90
        0
102
RTVSPost2010PropOp41
 70
     1
102
RTVSPost2010Prop42
 90
       50
102
RTVSPost2010PropOp42
 70
     1
102
RTVSPost2010Prop43
 90
        3
102
RTVSPost2010PropOp43
 70
     1
102
RTVSPost2010Prop44ColorIndex
 90
        5
102
RTVSPost2010Prop44ColorRGB
 90
      255
102
RTVSPost2010PropOp44
 70
     1
102
RTVSPost2010Prop45
280
     0
102
RTVSPost2010PropOp45
 70
     1
102
RTVSPost2010Prop46
 90
       50
102
RTVSPost2010PropOp46
 70
     1
102
RTVSPost2010Prop47
 90
       50
102
RTVSPost2010PropOp47
 70
     1
102
RTVSPost2010Prop48
 90
       50
102
RTVSPost2010PropOp48
 70
     1
102
RTVSPost2010Prop49
280
     0
102
RTVSPost2010PropOp49
 70
     1
102
RTVSPost2010Prop50
 90
       50
102
RTVSPost2010PropOp50
 70
     1
102
RTVSPost2010Prop51ColorIndex
 90
      256
102
RTVSPost2010Prop51ColorRGB
 90
-16777216
102
RTVSPost2010PropOp51
 70
     0
102
RTVSPost2010Prop52
140
1.0
102
RTVSPost2010PropOp52
 70
     0
102
RTVSPost2010Prop53
 90
        2
102
RTVSPost2010PropOp53
 70
     1
102
RTVSPost2010Prop54
  1
strokes_ogs.tif
102
RTVSPost2010PropOp54
 70
     1
102
RTVSPost2010Prop55
280
     0
102
RTVSPost2010PropOp55
 70
     1
102
RTVSPost2010Prop56
140
1.0
102
RTVSPost2010PropOp56
 70
     1
102
RTVSPost2010Prop57
140
1.0
102
RTVSPost2010PropOp57
 70
     1
102
RTVSPropertyOp0
 70
     1
102
RTVSPropertyOp1
 70
     1
102
RTVSPropertyOp2
 70
     1
102
RTVSPropertyOp3
 70
     1
102
RTVSPropertyOp4
 70
     1
102
RTVSPropertyOp5
 70
     1
102
RTVSPropertyOp6
 70
     1
102
RTVSPropertyOp7
 70
     1
102
RTVSPropertyOp8
 70
     1
102
RTVSPropertyOp9
 70
     1
102
RTVSPropertyOp10
 70
     1
102
RTVSPropertyOp11
 70
     1
102
RTVSPropertyOp12
 70
     1
102
RTVSPropertyOp13
 70
     1
102
RTVSPropertyOp14
 70
     1
102
RTVSPropertyOp15
 70
     1
102
RTVSPropertyOp16
 70
     1
102
RTVSPropertyOp17
 70
     1
102
RTVSPropertyOp18
 70
     1
102
RTVSPropertyOp19
 70
     1
102
RTVSPropertyOp20
 70
     1
102
RTVSPropertyOp21
 70
     1
102
RTVSPropertyOp22
 70
     1
102
RTVSPropertyOp23
 70
     1
102
RTVSPropertyOp24
 70
     1
102
RTVSPropertyOp25
 70
     1
102
RTVSPropertyOp26
 70
     1
102
RTVSPropertyOp27
 70
     1
102
RTVSPropertyOp28
 70
     1
102
RTVSPropertyOp29
 70
     1
102
RTVSPropertyOp30
 70
     1
102
RTVSPropertyOp31
 70
     1
102
RTVSPropertyOp32
 70
     1
102
RTVSPropertyOp33
 70
     1
102
RTVSPropertyOp34
 70
     1
102
RTVSPropertyOp35
 70
     1
102
RTVSPropertyOp36
 70
     1
102
RTVSPropertyOp37
 70
     1
102
RTVSPropertyOp38
 70
     1
102
RTVSPropertyOp39
 70
     1
102
RTVSPropertyOp40
 70
     1
102
RTVSPropertyOp41
 70
     1
102
RTVSPropertyOp42
 70
     1
102
RTVSPropertyOp43
 70
     1
102
RTVSPropertyOp44
 70
     1
102
RTVSPropertyOp45
 70
     1
102
RTVSPropertyOp46
 70
     1
102
RTVSPropertyOp47
 70
     1
102
RTVSPropertyOp48
 70
     1
102
RTVSPropertyOp49
 70
     1
102
RTVSPropertyOp50
 70
     1
102
RTVSPropertyOp51
 70
     0
102
RTVSPropertyOp52
 70
     0
102
RTVSPropertyOp53
 70
     1
102
RTVSPropertyOp54
 70
     1
102
RTVSPropertyOp55
 70
     1
102
RTVSPropertyOp56
 70
     1
102
RTVSPropertyOp57
 70
     1
102
RTVSPropertyOp58
 70
     1
102
RTVSPropertyOp59
 70
     1
102
RTVSPropertyOp60
 70
     1
102
RTVSPropertyOp61
 70
     1
102
RTVSPropertyOp62
 70
     1
  0
XRECORD
  5
AF1E
102
{ACAD_REACTORS
330
AF1D
102
}
330
AF1D
100
AcDbXrecord
280
     1
102
RTVSPost2010Prop28
280
     0
102
RTVSPost2010PropOp28
 70
     1
102
RTVSPost2010Prop29
280
     1
102
RTVSPost2010PropOp29
 70
     1
102
RTVSPost2010Prop30
280
     1
102
RTVSPost2010PropOp30
 70
     1
102
RTVSPost2010Prop31
280
     0
102
RTVSPost2010PropOp31
 70
     1
102
RTVSPost2010Prop32
280
     0
102
RTVSPost2010PropOp32
 70
     1
102
RTVSPost2010Prop33
280
     0
102
RTVSPost2010PropOp33
 70
     1
102
RTVSPost2010Prop34
280
     0
102
RTVSPost2010PropOp34
 70
     1
102
RTVSPost2010Prop35
280
     0
102
RTVSPost2010PropOp35
 70
     1
102
RTVSPost2010Prop36
280
     0
102
RTVSPost2010PropOp36
 70
     1
102
RTVSPost2010Prop37
 90
       50
102
RTVSPost2010PropOp37
 70
     1
102
RTVSPost2010Prop38
140
0.0
102
RTVSPost2010PropOp38
 70
     1
102
RTVSPost2010Prop39
140
1.0
102
RTVSPost2010PropOp39
 70
     1
102
RTVSPost2010Prop40
 90
        0
102
RTVSPost2010PropOp40
 70
     1
102
RTVSPost2010Prop41ColorIndex
 90
       18
102
RTVSPost2010Prop41ColorRGB
 90
        0
102
RTVSPost2010PropOp41
 70
     1
102
RTVSPost2010Prop42
 90
       50
102
RTVSPost2010PropOp42
 70
     1
102
RTVSPost2010Prop43
 90
        3
102
RTVSPost2010PropOp43
 70
     1
102
RTVSPost2010Prop44ColorIndex
 90
        5
102
RTVSPost2010Prop44ColorRGB
 90
      255
102
RTVSPost2010PropOp44
 70
     1
102
RTVSPost2010Prop45
280
     0
102
RTVSPost2010PropOp45
 70
     1
102
RTVSPost2010Prop46
 90
       50
102
RTVSPost2010PropOp46
 70
     1
102
RTVSPost2010Prop47
 90
       50
102
RTVSPost2010PropOp47
 70
     1
102
RTVSPost2010Prop48
 90
       50
102
RTVSPost2010PropOp48
 70
     1
102
RTVSPost2010Prop49
280
     0
102
RTVSPost2010PropOp49
 70
     1
102
RTVSPost2010Prop50
 90
       50
102
RTVSPost2010PropOp50
 70
     1
102
RTVSPost2010Prop51ColorIndex
 90
      256
102
RTVSPost2010Prop51ColorRGB
 90
-16777216
102
RTVSPost2010PropOp51
 70
     0
102
RTVSPost2010Prop52
140
1.0
102
RTVSPost2010PropOp52
 70
     0
102
RTVSPost2010Prop53
 90
        2
102
RTVSPost2010PropOp53
 70
     1
102
RTVSPost2010Prop54
  1
strokes_ogs.tif
102
RTVSPost2010PropOp54
 70
     1
102
RTVSPost2010Prop55
280
     0
102
RTVSPost2010PropOp55
 70
     1
102
RTVSPost2010Prop56
140
1.0
102
RTVSPost2010PropOp56
 70
     1
102
RTVSPost2010Prop57
140
1.0
102
RTVSPost2010PropOp57
 70
     1
102
RTVSPropertyOp0
 70
     1
102
RTVSPropertyOp1
 70
     1
102
RTVSPropertyOp2
 70
     1
102
RTVSPropertyOp3
 70
     1
102
RTVSPropertyOp4
 70
     1
102
RTVSPropertyOp5
 70
     1
102
RTVSPropertyOp6
 70
     1
102
RTVSPropertyOp7
 70
     1
102
RTVSPropertyOp8
 70
     1
102
RTVSPropertyOp9
 70
     1
102
RTVSPropertyOp10
 70
     1
102
RTVSPropertyOp11
 70
     1
102
RTVSPropertyOp12
 70
     1
102
RTVSPropertyOp13
 70
     1
102
RTVSPropertyOp14
 70
     1
102
RTVSPropertyOp15
 70
     1
102
RTVSPropertyOp16
 70
     1
102
RTVSPropertyOp17
 70
     1
102
RTVSPropertyOp18
 70
     1
102
RTVSPropertyOp19
 70
     1
102
RTVSPropertyOp20
 70
     1
102
RTVSPropertyOp21
 70
     1
102
RTVSPropertyOp22
 70
     1
102
RTVSPropertyOp23
 70
     1
102
RTVSPropertyOp24
 70
     1
102
RTVSPropertyOp25
 70
     1
102
RTVSPropertyOp26
 70
     1
102
RTVSPropertyOp27
 70
     1
102
RTVSPropertyOp28
 70
     1
102
RTVSPropertyOp29
 70
     1
102
RTVSPropertyOp30
 70
     1
102
RTVSPropertyOp31
 70
     1
102
RTVSPropertyOp32
 70
     1
102
RTVSPropertyOp33
 70
     1
102
RTVSPropertyOp34
 70
     1
102
RTVSPropertyOp35
 70
     1
102
RTVSPropertyOp36
 70
     1
102
RTVSPropertyOp37
 70
     1
102
RTVSPropertyOp38
 70
     1
102
RTVSPropertyOp39
 70
     1
102
RTVSPropertyOp40
 70
     1
102
RTVSPropertyOp41
 70
     1
102
RTVSPropertyOp42
 70
     1
102
RTVSPropertyOp43
 70
     1
102
RTVSPropertyOp44
 70
     1
102
RTVSPropertyOp45
 70
     1
102
RTVSPropertyOp46
 70
     1
102
RTVSPropertyOp47
 70
     1
102
RTVSPropertyOp48
 70
     1
102
RTVSPropertyOp49
 70
     1
102
RTVSPropertyOp50
 70
     1
102
RTVSPropertyOp51
 70
     0
102
RTVSPropertyOp52
 70
     0
102
RTVSPropertyOp53
 70
     1
102
RTVSPropertyOp54
 70
     1
102
RTVSPropertyOp55
 70
     1
102
RTVSPropertyOp56
 70
     1
102
RTVSPropertyOp57
 70
     1
102
RTVSPropertyOp58
 70
     1
102
RTVSPropertyOp59
 70
     1
102
RTVSPropertyOp60
 70
     1
102
RTVSPropertyOp61
 70
     1
102
RTVSPropertyOp62
 70
     1
  0
XRECORD
  5
AF20
102
{ACAD_REACTORS
330
AF1F
102
}
330
AF1F
100
AcDbXrecord
280
     1
102
RTVSPost2010Prop28
280
     0
102
RTVSPost2010PropOp28
 70
     1
102
RTVSPost2010Prop29
280
     1
102
RTVSPost2010PropOp29
 70
     1
102
RTVSPost2010Prop30
280
     1
102
RTVSPost2010PropOp30
 70
     1
102
RTVSPost2010Prop31
280
     0
102
RTVSPost2010PropOp31
 70
     1
102
RTVSPost2010Prop32
280
     0
102
RTVSPost2010PropOp32
 70
     1
102
RTVSPost2010Prop33
280
     0
102
RTVSPost2010PropOp33
 70
     1
102
RTVSPost2010Prop34
280
     0
102
RTVSPost2010PropOp34
 70
     1
102
RTVSPost2010Prop35
280
     0
102
RTVSPost2010PropOp35
 70
     1
102
RTVSPost2010Prop36
280
     0
102
RTVSPost2010PropOp36
 70
     1
102
RTVSPost2010Prop37
 90
       50
102
RTVSPost2010PropOp37
 70
     1
102
RTVSPost2010Prop38
140
0.0
102
RTVSPost2010PropOp38
 70
     1
102
RTVSPost2010Prop39
140
1.0
102
RTVSPost2010PropOp39
 70
     1
102
RTVSPost2010Prop40
 90
        0
102
RTVSPost2010PropOp40
 70
     1
102
RTVSPost2010Prop41ColorIndex
 90
       18
102
RTVSPost2010Prop41ColorRGB
 90
        0
102
RTVSPost2010PropOp41
 70
     1
102
RTVSPost2010Prop42
 90
       50
102
RTVSPost2010PropOp42
 70
     1
102
RTVSPost2010Prop43
 90
        3
102
RTVSPost2010PropOp43
 70
     1
102
RTVSPost2010Prop44ColorIndex
 90
        5
102
RTVSPost2010Prop44ColorRGB
 90
      255
102
RTVSPost2010PropOp44
 70
     1
102
RTVSPost2010Prop45
280
     0
102
RTVSPost2010PropOp45
 70
     1
102
RTVSPost2010Prop46
 90
       50
102
RTVSPost2010PropOp46
 70
     1
102
RTVSPost2010Prop47
 90
       50
102
RTVSPost2010PropOp47
 70
     1
102
RTVSPost2010Prop48
 90
       50
102
RTVSPost2010PropOp48
 70
     1
102
RTVSPost2010Prop49
280
     0
102
RTVSPost2010PropOp49
 70
     1
102
RTVSPost2010Prop50
 90
       50
102
RTVSPost2010PropOp50
 70
     1
102
RTVSPost2010Prop51ColorIndex
 90
      256
102
RTVSPost2010Prop51ColorRGB
 90
-16777216
102
RTVSPost2010PropOp51
 70
     0
102
RTVSPost2010Prop52
140
1.0
102
RTVSPost2010PropOp52
 70
     0
102
RTVSPost2010Prop53
 90
        2
102
RTVSPost2010PropOp53
 70
     1
102
RTVSPost2010Prop54
  1
strokes_ogs.tif
102
RTVSPost2010PropOp54
 70
     1
102
RTVSPost2010Prop55
280
     0
102
RTVSPost2010PropOp55
 70
     1
102
RTVSPost2010Prop56
140
1.0
102
RTVSPost2010PropOp56
 70
     1
102
RTVSPost2010Prop57
140
1.0
102
RTVSPost2010PropOp57
 70
     1
102
RTVSPropertyOp0
 70
     1
102
RTVSPropertyOp1
 70
     1
102
RTVSPropertyOp2
 70
     1
102
RTVSPropertyOp3
 70
     1
102
RTVSPropertyOp4
 70
     1
102
RTVSPropertyOp5
 70
     1
102
RTVSPropertyOp6
 70
     1
102
RTVSPropertyOp7
 70
     1
102
RTVSPropertyOp8
 70
     1
102
RTVSPropertyOp9
 70
     1
102
RTVSPropertyOp10
 70
     1
102
RTVSPropertyOp11
 70
     1
102
RTVSPropertyOp12
 70
     1
102
RTVSPropertyOp13
 70
     1
102
RTVSPropertyOp14
 70
     1
102
RTVSPropertyOp15
 70
     1
102
RTVSPropertyOp16
 70
     1
102
RTVSPropertyOp17
 70
     1
102
RTVSPropertyOp18
 70
     1
102
RTVSPropertyOp19
 70
     1
102
RTVSPropertyOp20
 70
     1
102
RTVSPropertyOp21
 70
     1
102
RTVSPropertyOp22
 70
     1
102
RTVSPropertyOp23
 70
     1
102
RTVSPropertyOp24
 70
     1
102
RTVSPropertyOp25
 70
     1
102
RTVSPropertyOp26
 70
     1
102
RTVSPropertyOp27
 70
     1
102
RTVSPropertyOp28
 70
     1
102
RTVSPropertyOp29
 70
     1
102
RTVSPropertyOp30
 70
     1
102
RTVSPropertyOp31
 70
     1
102
RTVSPropertyOp32
 70
     1
102
RTVSPropertyOp33
 70
     1
102
RTVSPropertyOp34
 70
     1
102
RTVSPropertyOp35
 70
     1
102
RTVSPropertyOp36
 70
     1
102
RTVSPropertyOp37
 70
     1
102
RTVSPropertyOp38
 70
     1
102
RTVSPropertyOp39
 70
     1
102
RTVSPropertyOp40
 70
     1
102
RTVSPropertyOp41
 70
     1
102
RTVSPropertyOp42
 70
     1
102
RTVSPropertyOp43
 70
     1
102
RTVSPropertyOp44
 70
     1
102
RTVSPropertyOp45
 70
     1
102
RTVSPropertyOp46
 70
     1
102
RTVSPropertyOp47
 70
     1
102
RTVSPropertyOp48
 70
     1
102
RTVSPropertyOp49
 70
     1
102
RTVSPropertyOp50
 70
     1
102
RTVSPropertyOp51
 70
     0
102
RTVSPropertyOp52
 70
     0
102
RTVSPropertyOp53
 70
     1
102
RTVSPropertyOp54
 70
     1
102
RTVSPropertyOp55
 70
     1
102
RTVSPropertyOp56
 70
     1
102
RTVSPropertyOp57
 70
     1
102
RTVSPropertyOp58
 70
     1
102
RTVSPropertyOp59
 70
     1
102
RTVSPropertyOp60
 70
     1
102
RTVSPropertyOp61
 70
     1
102
RTVSPropertyOp62
 70
     1
  0
XRECORD
  5
AF22
102
{ACAD_REACTORS
330
AF21
102
}
330
AF21
100
AcDbXrecord
280
     1
102
RTVSPost2010Prop28
280
     0
102
RTVSPost2010PropOp28
 70
     1
102
RTVSPost2010Prop29
280
     1
102
RTVSPost2010PropOp29
 70
     1
102
RTVSPost2010Prop30
280
     1
102
RTVSPost2010PropOp30
 70
     1
102
RTVSPost2010Prop31
280
     0
102
RTVSPost2010PropOp31
 70
     1
102
RTVSPost2010Prop32
280
     0
102
RTVSPost2010PropOp32
 70
     1
102
RTVSPost2010Prop33
280
     0
102
RTVSPost2010PropOp33
 70
     1
102
RTVSPost2010Prop34
280
     0
102
RTVSPost2010PropOp34
 70
     1
102
RTVSPost2010Prop35
280
     0
102
RTVSPost2010PropOp35
 70
     1
102
RTVSPost2010Prop36
280
     0
102
RTVSPost2010PropOp36
 70
     1
102
RTVSPost2010Prop37
 90
       50
102
RTVSPost2010PropOp37
 70
     1
102
RTVSPost2010Prop38
140
0.0
102
RTVSPost2010PropOp38
 70
     1
102
RTVSPost2010Prop39
140
1.0
102
RTVSPost2010PropOp39
 70
     1
102
RTVSPost2010Prop40
 90
        0
102
RTVSPost2010PropOp40
 70
     1
102
RTVSPost2010Prop41ColorIndex
 90
       18
102
RTVSPost2010Prop41ColorRGB
 90
        0
102
RTVSPost2010PropOp41
 70
     1
102
RTVSPost2010Prop42
 90
       50
102
RTVSPost2010PropOp42
 70
     1
102
RTVSPost2010Prop43
 90
        3
102
RTVSPost2010PropOp43
 70
     1
102
RTVSPost2010Prop44ColorIndex
 90
        5
102
RTVSPost2010Prop44ColorRGB
 90
      255
102
RTVSPost2010PropOp44
 70
     1
102
RTVSPost2010Prop45
280
     0
102
RTVSPost2010PropOp45
 70
     1
102
RTVSPost2010Prop46
 90
       50
102
RTVSPost2010PropOp46
 70
     1
102
RTVSPost2010Prop47
 90
       50
102
RTVSPost2010PropOp47
 70
     1
102
RTVSPost2010Prop48
 90
       50
102
RTVSPost2010PropOp48
 70
     1
102
RTVSPost2010Prop49
280
     0
102
RTVSPost2010PropOp49
 70
     1
102
RTVSPost2010Prop50
 90
       50
102
RTVSPost2010PropOp50
 70
     1
102
RTVSPost2010Prop51ColorIndex
 90
      256
102
RTVSPost2010Prop51ColorRGB
 90
-16777216
102
RTVSPost2010PropOp51
 70
     0
102
RTVSPost2010Prop52
140
1.0
102
RTVSPost2010PropOp52
 70
     0
102
RTVSPost2010Prop53
 90
        2
102
RTVSPost2010PropOp53
 70
     1
102
RTVSPost2010Prop54
  1
strokes_ogs.tif
102
RTVSPost2010PropOp54
 70
     1
102
RTVSPost2010Prop55
280
     0
102
RTVSPost2010PropOp55
 70
     1
102
RTVSPost2010Prop56
140
1.0
102
RTVSPost2010PropOp56
 70
     1
102
RTVSPost2010Prop57
140
1.0
102
RTVSPost2010PropOp57
 70
     1
102
RTVSPropertyOp0
 70
     1
102
RTVSPropertyOp1
 70
     1
102
RTVSPropertyOp2
 70
     1
102
RTVSPropertyOp3
 70
     1
102
RTVSPropertyOp4
 70
     1
102
RTVSPropertyOp5
 70
     1
102
RTVSPropertyOp6
 70
     1
102
RTVSPropertyOp7
 70
     1
102
RTVSPropertyOp8
 70
     1
102
RTVSPropertyOp9
 70
     1
102
RTVSPropertyOp10
 70
     1
102
RTVSPropertyOp11
 70
     1
102
RTVSPropertyOp12
 70
     1
102
RTVSPropertyOp13
 70
     1
102
RTVSPropertyOp14
 70
     1
102
RTVSPropertyOp15
 70
     1
102
RTVSPropertyOp16
 70
     1
102
RTVSPropertyOp17
 70
     1
102
RTVSPropertyOp18
 70
     1
102
RTVSPropertyOp19
 70
     1
102
RTVSPropertyOp20
 70
     1
102
RTVSPropertyOp21
 70
     1
102
RTVSPropertyOp22
 70
     1
102
RTVSPropertyOp23
 70
     1
102
RTVSPropertyOp24
 70
     1
102
RTVSPropertyOp25
 70
     1
102
RTVSPropertyOp26
 70
     1
102
RTVSPropertyOp27
 70
     1
102
RTVSPropertyOp28
 70
     1
102
RTVSPropertyOp29
 70
     1
102
RTVSPropertyOp30
 70
     1
102
RTVSPropertyOp31
 70
     1
102
RTVSPropertyOp32
 70
     1
102
RTVSPropertyOp33
 70
     1
102
RTVSPropertyOp34
 70
     1
102
RTVSPropertyOp35
 70
     1
102
RTVSPropertyOp36
 70
     1
102
RTVSPropertyOp37
 70
     1
102
RTVSPropertyOp38
 70
     1
102
RTVSPropertyOp39
 70
     1
102
RTVSPropertyOp40
 70
     1
102
RTVSPropertyOp41
 70
     1
102
RTVSPropertyOp42
 70
     1
102
RTVSPropertyOp43
 70
     1
102
RTVSPropertyOp44
 70
     1
102
RTVSPropertyOp45
 70
     1
102
RTVSPropertyOp46
 70
     1
102
RTVSPropertyOp47
 70
     1
102
RTVSPropertyOp48
 70
     1
102
RTVSPropertyOp49
 70
     1
102
RTVSPropertyOp50
 70
     1
102
RTVSPropertyOp51
 70
     0
102
RTVSPropertyOp52
 70
     0
102
RTVSPropertyOp53
 70
     1
102
RTVSPropertyOp54
 70
     1
102
RTVSPropertyOp55
 70
     1
102
RTVSPropertyOp56
 70
     1
102
RTVSPropertyOp57
 70
     1
102
RTVSPropertyOp58
 70
     1
102
RTVSPropertyOp59
 70
     1
102
RTVSPropertyOp60
 70
     1
102
RTVSPropertyOp61
 70
     1
102
RTVSPropertyOp62
 70
     1
  0
XRECORD
  5
AF24
102
{ACAD_REACTORS
330
AF23
102
}
330
AF23
100
AcDbXrecord
280
     1
102
RTVSPost2010Prop28
280
     0
102
RTVSPost2010PropOp28
 70
     1
102
RTVSPost2010Prop29
280
     1
102
RTVSPost2010PropOp29
 70
     1
102
RTVSPost2010Prop30
280
     1
102
RTVSPost2010PropOp30
 70
     1
102
RTVSPost2010Prop31
280
     0
102
RTVSPost2010PropOp31
 70
     1
102
RTVSPost2010Prop32
280
     0
102
RTVSPost2010PropOp32
 70
     1
102
RTVSPost2010Prop33
280
     0
102
RTVSPost2010PropOp33
 70
     1
102
RTVSPost2010Prop34
280
     0
102
RTVSPost2010PropOp34
 70
     1
102
RTVSPost2010Prop35
280
     0
102
RTVSPost2010PropOp35
 70
     1
102
RTVSPost2010Prop36
280
     0
102
RTVSPost2010PropOp36
 70
     1
102
RTVSPost2010Prop37
 90
       50
102
RTVSPost2010PropOp37
 70
     1
102
RTVSPost2010Prop38
140
0.0
102
RTVSPost2010PropOp38
 70
     1
102
RTVSPost2010Prop39
140
1.0
102
RTVSPost2010PropOp39
 70
     1
102
RTVSPost2010Prop40
 90
        0
102
RTVSPost2010PropOp40
 70
     1
102
RTVSPost2010Prop41ColorIndex
 90
       18
102
RTVSPost2010Prop41ColorRGB
 90
        0
102
RTVSPost2010PropOp41
 70
     1
102
RTVSPost2010Prop42
 90
       50
102
RTVSPost2010PropOp42
 70
     1
102
RTVSPost2010Prop43
 90
        3
102
RTVSPost2010PropOp43
 70
     1
102
RTVSPost2010Prop44ColorIndex
 90
        5
102
RTVSPost2010Prop44ColorRGB
 90
      255
102
RTVSPost2010PropOp44
 70
     1
102
RTVSPost2010Prop45
280
     0
102
RTVSPost2010PropOp45
 70
     1
102
RTVSPost2010Prop46
 90
       50
102
RTVSPost2010PropOp46
 70
     1
102
RTVSPost2010Prop47
 90
       50
102
RTVSPost2010PropOp47
 70
     1
102
RTVSPost2010Prop48
 90
       50
102
RTVSPost2010PropOp48
 70
     1
102
RTVSPost2010Prop49
280
     0
102
RTVSPost2010PropOp49
 70
     1
102
RTVSPost2010Prop50
 90
       50
102
RTVSPost2010PropOp50
 70
     1
102
RTVSPost2010Prop51ColorIndex
 90
      256
102
RTVSPost2010Prop51ColorRGB
 90
-16777216
102
RTVSPost2010PropOp51
 70
     0
102
RTVSPost2010Prop52
140
1.0
102
RTVSPost2010PropOp52
 70
     0
102
RTVSPost2010Prop53
 90
        2
102
RTVSPost2010PropOp53
 70
     1
102
RTVSPost2010Prop54
  1
strokes_ogs.tif
102
RTVSPost2010PropOp54
 70
     1
102
RTVSPost2010Prop55
280
     0
102
RTVSPost2010PropOp55
 70
     1
102
RTVSPost2010Prop56
140
1.0
102
RTVSPost2010PropOp56
 70
     1
102
RTVSPost2010Prop57
140
1.0
102
RTVSPost2010PropOp57
 70
     1
102
RTVSPropertyOp0
 70
     1
102
RTVSPropertyOp1
 70
     1
102
RTVSPropertyOp2
 70
     1
102
RTVSPropertyOp3
 70
     1
102
RTVSPropertyOp4
 70
     1
102
RTVSPropertyOp5
 70
     1
102
RTVSPropertyOp6
 70
     1
102
RTVSPropertyOp7
 70
     1
102
RTVSPropertyOp8
 70
     1
102
RTVSPropertyOp9
 70
     1
102
RTVSPropertyOp10
 70
     1
102
RTVSPropertyOp11
 70
     1
102
RTVSPropertyOp12
 70
     1
102
RTVSPropertyOp13
 70
     1
102
RTVSPropertyOp14
 70
     1
102
RTVSPropertyOp15
 70
     1
102
RTVSPropertyOp16
 70
     1
102
RTVSPropertyOp17
 70
     1
102
RTVSPropertyOp18
 70
     1
102
RTVSPropertyOp19
 70
     1
102
RTVSPropertyOp20
 70
     1
102
RTVSPropertyOp21
 70
     1
102
RTVSPropertyOp22
 70
     1
102
RTVSPropertyOp23
 70
     1
102
RTVSPropertyOp24
 70
     1
102
RTVSPropertyOp25
 70
     1
102
RTVSPropertyOp26
 70
     1
102
RTVSPropertyOp27
 70
     1
102
RTVSPropertyOp28
 70
     1
102
RTVSPropertyOp29
 70
     1
102
RTVSPropertyOp30
 70
     1
102
RTVSPropertyOp31
 70
     1
102
RTVSPropertyOp32
 70
     1
102
RTVSPropertyOp33
 70
     1
102
RTVSPropertyOp34
 70
     1
102
RTVSPropertyOp35
 70
     1
102
RTVSPropertyOp36
 70
     1
102
RTVSPropertyOp37
 70
     1
102
RTVSPropertyOp38
 70
     1
102
RTVSPropertyOp39
 70
     1
102
RTVSPropertyOp40
 70
     1
102
RTVSPropertyOp41
 70
     1
102
RTVSPropertyOp42
 70
     1
102
RTVSPropertyOp43
 70
     1
102
RTVSPropertyOp44
 70
     1
102
RTVSPropertyOp45
 70
     1
102
RTVSPropertyOp46
 70
     1
102
RTVSPropertyOp47
 70
     1
102
RTVSPropertyOp48
 70
     1
102
RTVSPropertyOp49
 70
     1
102
RTVSPropertyOp50
 70
     1
102
RTVSPropertyOp51
 70
     0
102
RTVSPropertyOp52
 70
     0
102
RTVSPropertyOp53
 70
     1
102
RTVSPropertyOp54
 70
     1
102
RTVSPropertyOp55
 70
     1
102
RTVSPropertyOp56
 70
     1
102
RTVSPropertyOp57
 70
     1
102
RTVSPropertyOp58
 70
     1
102
RTVSPropertyOp59
 70
     1
102
RTVSPropertyOp60
 70
     1
102
RTVSPropertyOp61
 70
     1
102
RTVSPropertyOp62
 70
     1
  0
XRECORD
  5
AF2C
102
{ACAD_REACTORS
330
AF2B
102
}
330
AF2B
100
AcDbXrecord
280
     1
102
RTVSPost2010Prop28
280
     0
102
RTVSPost2010PropOp28
 70
     1
102
RTVSPost2010Prop29
280
     1
102
RTVSPost2010PropOp29
 70
     1
102
RTVSPost2010Prop30
280
     1
102
RTVSPost2010PropOp30
 70
     1
102
RTVSPost2010Prop31
280
     0
102
RTVSPost2010PropOp31
 70
     1
102
RTVSPost2010Prop32
280
     0
102
RTVSPost2010PropOp32
 70
     1
102
RTVSPost2010Prop33
280
     0
102
RTVSPost2010PropOp33
 70
     1
102
RTVSPost2010Prop34
280
     0
102
RTVSPost2010PropOp34
 70
     1
102
RTVSPost2010Prop35
280
     0
102
RTVSPost2010PropOp35
 70
     1
102
RTVSPost2010Prop36
280
     0
102
RTVSPost2010PropOp36
 70
     1
102
RTVSPost2010Prop37
 90
       50
102
RTVSPost2010PropOp37
 70
     1
102
RTVSPost2010Prop38
140
0.0
102
RTVSPost2010PropOp38
 70
     1
102
RTVSPost2010Prop39
140
1.0
102
RTVSPost2010PropOp39
 70
     1
102
RTVSPost2010Prop40
 90
        0
102
RTVSPost2010PropOp40
 70
     1
102
RTVSPost2010Prop41ColorIndex
 90
       18
102
RTVSPost2010Prop41ColorRGB
 90
        0
102
RTVSPost2010PropOp41
 70
     1
102
RTVSPost2010Prop42
 90
       50
102
RTVSPost2010PropOp42
 70
     1
102
RTVSPost2010Prop43
 90
        3
102
RTVSPost2010PropOp43
 70
     1
102
RTVSPost2010Prop44ColorIndex
 90
        5
102
RTVSPost2010Prop44ColorRGB
 90
      255
102
RTVSPost2010PropOp44
 70
     1
102
RTVSPost2010Prop45
280
     0
102
RTVSPost2010PropOp45
 70
     1
102
RTVSPost2010Prop46
 90
       50
102
RTVSPost2010PropOp46
 70
     1
102
RTVSPost2010Prop47
 90
       50
102
RTVSPost2010PropOp47
 70
     1
102
RTVSPost2010Prop48
 90
       50
102
RTVSPost2010PropOp48
 70
     1
102
RTVSPost2010Prop49
280
     0
102
RTVSPost2010PropOp49
 70
     1
102
RTVSPost2010Prop50
 90
       50
102
RTVSPost2010PropOp50
 70
     1
102
RTVSPost2010Prop51ColorIndex
 90
      256
102
RTVSPost2010Prop51ColorRGB
 90
-16777216
102
RTVSPost2010PropOp51
 70
     0
102
RTVSPost2010Prop52
140
1.0
102
RTVSPost2010PropOp52
 70
     0
102
RTVSPost2010Prop53
 90
        2
102
RTVSPost2010PropOp53
 70
     1
102
RTVSPost2010Prop54
  1
strokes_ogs.tif
102
RTVSPost2010PropOp54
 70
     1
102
RTVSPost2010Prop55
280
     0
102
RTVSPost2010PropOp55
 70
     1
102
RTVSPost2010Prop56
140
1.0
102
RTVSPost2010PropOp56
 70
     1
102
RTVSPost2010Prop57
140
1.0
102
RTVSPost2010PropOp57
 70
     1
102
RTVSPropertyOp0
 70
     1
102
RTVSPropertyOp1
 70
     1
102
RTVSPropertyOp2
 70
     1
102
RTVSPropertyOp3
 70
     1
102
RTVSPropertyOp4
 70
     1
102
RTVSPropertyOp5
 70
     1
102
RTVSPropertyOp6
 70
     1
102
RTVSPropertyOp7
 70
     1
102
RTVSPropertyOp8
 70
     1
102
RTVSPropertyOp9
 70
     1
102
RTVSPropertyOp10
 70
     1
102
RTVSPropertyOp11
 70
     1
102
RTVSPropertyOp12
 70
     1
102
RTVSPropertyOp13
 70
     1
102
RTVSPropertyOp14
 70
     1
102
RTVSPropertyOp15
 70
     1
102
RTVSPropertyOp16
 70
     1
102
RTVSPropertyOp17
 70
     1
102
RTVSPropertyOp18
 70
     1
102
RTVSPropertyOp19
 70
     1
102
RTVSPropertyOp20
 70
     1
102
RTVSPropertyOp21
 70
     1
102
RTVSPropertyOp22
 70
     1
102
RTVSPropertyOp23
 70
     1
102
RTVSPropertyOp24
 70
     1
102
RTVSPropertyOp25
 70
     1
102
RTVSPropertyOp26
 70
     1
102
RTVSPropertyOp27
 70
     1
102
RTVSPropertyOp28
 70
     1
102
RTVSPropertyOp29
 70
     1
102
RTVSPropertyOp30
 70
     1
102
RTVSPropertyOp31
 70
     1
102
RTVSPropertyOp32
 70
     1
102
RTVSPropertyOp33
 70
     1
102
RTVSPropertyOp34
 70
     1
102
RTVSPropertyOp35
 70
     1
102
RTVSPropertyOp36
 70
     1
102
RTVSPropertyOp37
 70
     1
102
RTVSPropertyOp38
 70
     1
102
RTVSPropertyOp39
 70
     1
102
RTVSPropertyOp40
 70
     1
102
RTVSPropertyOp41
 70
     1
102
RTVSPropertyOp42
 70
     1
102
RTVSPropertyOp43
 70
     1
102
RTVSPropertyOp44
 70
     1
102
RTVSPropertyOp45
 70
     1
102
RTVSPropertyOp46
 70
     1
102
RTVSPropertyOp47
 70
     1
102
RTVSPropertyOp48
 70
     1
102
RTVSPropertyOp49
 70
     1
102
RTVSPropertyOp50
 70
     1
102
RTVSPropertyOp51
 70
     0
102
RTVSPropertyOp52
 70
     0
102
RTVSPropertyOp53
 70
     1
102
RTVSPropertyOp54
 70
     1
102
RTVSPropertyOp55
 70
     1
102
RTVSPropertyOp56
 70
     1
102
RTVSPropertyOp57
 70
     1
102
RTVSPropertyOp58
 70
     1
102
RTVSPropertyOp59
 70
     1
102
RTVSPropertyOp60
 70
     1
102
RTVSPropertyOp61
 70
     1
102
RTVSPropertyOp62
 70
     1
  0
XRECORD
  5
AF48
102
{ACAD_REACTORS
330
AF47
102
}
330
AF47
100
AcDbXrecord
280
     1
102
RTVSPost2010Prop28
280
     0
102
RTVSPost2010PropOp28
 70
     1
102
RTVSPost2010Prop29
280
     1
102
RTVSPost2010PropOp29
 70
     1
102
RTVSPost2010Prop30
280
     1
102
RTVSPost2010PropOp30
 70
     1
102
RTVSPost2010Prop31
280
     0
102
RTVSPost2010PropOp31
 70
     1
102
RTVSPost2010Prop32
280
     0
102
RTVSPost2010PropOp32
 70
     1
102
RTVSPost2010Prop33
280
     0
102
RTVSPost2010PropOp33
 70
     1
102
RTVSPost2010Prop34
280
     0
102
RTVSPost2010PropOp34
 70
     1
102
RTVSPost2010Prop35
280
     0
102
RTVSPost2010PropOp35
 70
     1
102
RTVSPost2010Prop36
280
     0
102
RTVSPost2010PropOp36
 70
     1
102
RTVSPost2010Prop37
 90
       50
102
RTVSPost2010PropOp37
 70
     0
102
RTVSPost2010Prop38
140
0.0
102
RTVSPost2010PropOp38
 70
     0
102
RTVSPost2010Prop39
140
1.0
102
RTVSPost2010PropOp39
 70
     0
102
RTVSPost2010Prop40
 90
        0
102
RTVSPost2010PropOp40
 70
     0
102
RTVSPost2010Prop41ColorIndex
 90
       18
102
RTVSPost2010Prop41ColorRGB
 90
        0
102
RTVSPost2010PropOp41
 70
     0
102
RTVSPost2010Prop42
 90
       50
102
RTVSPost2010PropOp42
 70
     0
102
RTVSPost2010Prop43
 90
        3
102
RTVSPost2010PropOp43
 70
     0
102
RTVSPost2010Prop44ColorIndex
 90
        5
102
RTVSPost2010Prop44ColorRGB
 90
      255
102
RTVSPost2010PropOp44
 70
     0
102
RTVSPost2010Prop45
280
     0
102
RTVSPost2010PropOp45
 70
     1
102
RTVSPost2010Prop46
 90
       50
102
RTVSPost2010PropOp46
 70
     0
102
RTVSPost2010Prop47
 90
       50
102
RTVSPost2010PropOp47
 70
     0
102
RTVSPost2010Prop48
 90
       50
102
RTVSPost2010PropOp48
 70
     0
102
RTVSPost2010Prop49
280
     0
102
RTVSPost2010PropOp49
 70
     1
102
RTVSPost2010Prop50
 90
       50
102
RTVSPost2010PropOp50
 70
     0
102
RTVSPost2010Prop51ColorIndex
 90
      256
102
RTVSPost2010Prop51ColorRGB
 90
-16777216
102
RTVSPost2010PropOp51
 70
     0
102
RTVSPost2010Prop52
140
1.0
102
RTVSPost2010PropOp52
 70
     0
102
RTVSPost2010Prop53
 90
        2
102
RTVSPost2010PropOp53
 70
     0
102
RTVSPost2010Prop54
  1
strokes_ogs.tif
102
RTVSPost2010PropOp54
 70
     0
102
RTVSPost2010Prop55
280
     0
102
RTVSPost2010PropOp55
 70
     1
102
RTVSPost2010Prop56
140
1.0
102
RTVSPost2010PropOp56
 70
     0
102
RTVSPost2010Prop57
140
1.0
102
RTVSPost2010PropOp57
 70
     0
102
RTVSPropertyOp0
 70
     0
102
RTVSPropertyOp1
 70
     0
102
RTVSPropertyOp2
 70
     0
102
RTVSPropertyOp3
 70
     0
102
RTVSPropertyOp4
 70
     0
102
RTVSPropertyOp5
 70
     0
102
RTVSPropertyOp6
 70
     0
102
RTVSPropertyOp7
 70
     0
102
RTVSPropertyOp8
 70
     0
102
RTVSPropertyOp9
 70
     0
102
RTVSPropertyOp10
 70
     0
102
RTVSPropertyOp11
 70
     0
102
RTVSPropertyOp12
 70
     0
102
RTVSPropertyOp13
 70
     0
102
RTVSPropertyOp14
 70
     2
102
RTVSPropertyOp15
 70
     0
102
RTVSPropertyOp16
 70
     0
102
RTVSPropertyOp17
 70
     0
102
RTVSPropertyOp18
 70
     0
102
RTVSPropertyOp19
 70
     0
102
RTVSPropertyOp20
 70
     0
102
RTVSPropertyOp21
 70
     0
102
RTVSPropertyOp22
 70
     0
102
RTVSPropertyOp23
 70
     0
102
RTVSPropertyOp24
 70
     0
102
RTVSPropertyOp25
 70
     0
102
RTVSPropertyOp26
 70
     0
102
RTVSPropertyOp27
 70
     0
102
RTVSPropertyOp28
 70
     1
102
RTVSPropertyOp29
 70
     1
102
RTVSPropertyOp30
 70
     1
102
RTVSPropertyOp31
 70
     1
102
RTVSPropertyOp32
 70
     1
102
RTVSPropertyOp33
 70
     1
102
RTVSPropertyOp34
 70
     1
102
RTVSPropertyOp35
 70
     1
102
RTVSPropertyOp36
 70
     1
102
RTVSPropertyOp37
 70
     0
102
RTVSPropertyOp38
 70
     0
102
RTVSPropertyOp39
 70
     0
102
RTVSPropertyOp40
 70
     0
102
RTVSPropertyOp41
 70
     0
102
RTVSPropertyOp42
 70
     0
102
RTVSPropertyOp43
 70
     0
102
RTVSPropertyOp44
 70
     0
102
RTVSPropertyOp45
 70
     1
102
RTVSPropertyOp46
 70
     0
102
RTVSPropertyOp47
 70
     0
102
RTVSPropertyOp48
 70
     0
102
RTVSPropertyOp49
 70
     1
102
RTVSPropertyOp50
 70
     0
102
RTVSPropertyOp51
 70
     0
102
RTVSPropertyOp52
 70
     0
102
RTVSPropertyOp53
 70
     0
102
RTVSPropertyOp54
 70
     0
102
RTVSPropertyOp55
 70
     1
102
RTVSPropertyOp56
 70
     0
102
RTVSPropertyOp57
 70
     0
102
RTVSPropertyOp58
 70
     0
102
RTVSPropertyOp59
 70
     0
102
RTVSPropertyOp60
 70
     0
102
RTVSPropertyOp61
 70
     0
102
RTVSPropertyOp62
 70
     0
  0
XRECORD
  5
AF38
102
{ACAD_REACTORS
330
AF37
102
}
330
AF37
100
AcDbXrecord
280
     1
102
RTVSPost2010Prop28
280
     0
102
RTVSPost2010PropOp28
 70
     1
102
RTVSPost2010Prop29
280
     1
102
RTVSPost2010PropOp29
 70
     1
102
RTVSPost2010Prop30
280
     1
102
RTVSPost2010PropOp30
 70
     1
102
RTVSPost2010Prop31
280
     0
102
RTVSPost2010PropOp31
 70
     1
102
RTVSPost2010Prop32
280
     0
102
RTVSPost2010PropOp32
 70
     1
102
RTVSPost2010Prop33
280
     0
102
RTVSPost2010PropOp33
 70
     1
102
RTVSPost2010Prop34
280
     0
102
RTVSPost2010PropOp34
 70
     1
102
RTVSPost2010Prop35
280
     0
102
RTVSPost2010PropOp35
 70
     1
102
RTVSPost2010Prop36
280
     0
102
RTVSPost2010PropOp36
 70
     1
102
RTVSPost2010Prop37
 90
       50
102
RTVSPost2010PropOp37
 70
     1
102
RTVSPost2010Prop38
140
0.0
102
RTVSPost2010PropOp38
 70
     1
102
RTVSPost2010Prop39
140
1.0
102
RTVSPost2010PropOp39
 70
     1
102
RTVSPost2010Prop40
 90
        0
102
RTVSPost2010PropOp40
 70
     1
102
RTVSPost2010Prop41ColorIndex
 90
       18
102
RTVSPost2010Prop41ColorRGB
 90
        0
102
RTVSPost2010PropOp41
 70
     1
102
RTVSPost2010Prop42
 90
       50
102
RTVSPost2010PropOp42
 70
     1
102
RTVSPost2010Prop43
 90
        3
102
RTVSPost2010PropOp43
 70
     1
102
RTVSPost2010Prop44ColorIndex
 90
        5
102
RTVSPost2010Prop44ColorRGB
 90
      255
102
RTVSPost2010PropOp44
 70
     1
102
RTVSPost2010Prop45
280
     0
102
RTVSPost2010PropOp45
 70
     1
102
RTVSPost2010Prop46
 90
       50
102
RTVSPost2010PropOp46
 70
     1
102
RTVSPost2010Prop47
 90
       50
102
RTVSPost2010PropOp47
 70
     1
102
RTVSPost2010Prop48
 90
       50
102
RTVSPost2010PropOp48
 70
     1
102
RTVSPost2010Prop49
280
     0
102
RTVSPost2010PropOp49
 70
     1
102
RTVSPost2010Prop50
 90
       50
102
RTVSPost2010PropOp50
 70
     1
102
RTVSPost2010Prop51ColorIndex
 90
      256
102
RTVSPost2010Prop51ColorRGB
 90
-16777216
102
RTVSPost2010PropOp51
 70
     0
102
RTVSPost2010Prop52
140
1.0
102
RTVSPost2010PropOp52
 70
     0
102
RTVSPost2010Prop53
 90
        2
102
RTVSPost2010PropOp53
 70
     1
102
RTVSPost2010Prop54
  1
strokes_ogs.tif
102
RTVSPost2010PropOp54
 70
     1
102
RTVSPost2010Prop55
280
     0
102
RTVSPost2010PropOp55
 70
     1
102
RTVSPost2010Prop56
140
1.0
102
RTVSPost2010PropOp56
 70
     1
102
RTVSPost2010Prop57
140
1.0
102
RTVSPost2010PropOp57
 70
     1
102
RTVSPropertyOp0
 70
     1
102
RTVSPropertyOp1
 70
     1
102
RTVSPropertyOp2
 70
     1
102
RTVSPropertyOp3
 70
     1
102
RTVSPropertyOp4
 70
     1
102
RTVSPropertyOp5
 70
     1
102
RTVSPropertyOp6
 70
     1
102
RTVSPropertyOp7
 70
     1
102
RTVSPropertyOp8
 70
     1
102
RTVSPropertyOp9
 70
     1
102
RTVSPropertyOp10
 70
     1
102
RTVSPropertyOp11
 70
     1
102
RTVSPropertyOp12
 70
     1
102
RTVSPropertyOp13
 70
     1
102
RTVSPropertyOp14
 70
     1
102
RTVSPropertyOp15
 70
     1
102
RTVSPropertyOp16
 70
     1
102
RTVSPropertyOp17
 70
     1
102
RTVSPropertyOp18
 70
     1
102
RTVSPropertyOp19
 70
     1
102
RTVSPropertyOp20
 70
     1
102
RTVSPropertyOp21
 70
     1
102
RTVSPropertyOp22
 70
     1
102
RTVSPropertyOp23
 70
     1
102
RTVSPropertyOp24
 70
     1
102
RTVSPropertyOp25
 70
     1
102
RTVSPropertyOp26
 70
     1
102
RTVSPropertyOp27
 70
     1
102
RTVSPropertyOp28
 70
     1
102
RTVSPropertyOp29
 70
     1
102
RTVSPropertyOp30
 70
     1
102
RTVSPropertyOp31
 70
     1
102
RTVSPropertyOp32
 70
     1
102
RTVSPropertyOp33
 70
     1
102
RTVSPropertyOp34
 70
     1
102
RTVSPropertyOp35
 70
     1
102
RTVSPropertyOp36
 70
     1
102
RTVSPropertyOp37
 70
     1
102
RTVSPropertyOp38
 70
     1
102
RTVSPropertyOp39
 70
     1
102
RTVSPropertyOp40
 70
     1
102
RTVSPropertyOp41
 70
     1
102
RTVSPropertyOp42
 70
     1
102
RTVSPropertyOp43
 70
     1
102
RTVSPropertyOp44
 70
     1
102
RTVSPropertyOp45
 70
     1
102
RTVSPropertyOp46
 70
     1
102
RTVSPropertyOp47
 70
     1
102
RTVSPropertyOp48
 70
     1
102
RTVSPropertyOp49
 70
     1
102
RTVSPropertyOp50
 70
     1
102
RTVSPropertyOp51
 70
     0
102
RTVSPropertyOp52
 70
     0
102
RTVSPropertyOp53
 70
     1
102
RTVSPropertyOp54
 70
     1
102
RTVSPropertyOp55
 70
     1
102
RTVSPropertyOp56
 70
     1
102
RTVSPropertyOp57
 70
     1
102
RTVSPropertyOp58
 70
     1
102
RTVSPropertyOp59
 70
     1
102
RTVSPropertyOp60
 70
     1
102
RTVSPropertyOp61
 70
     1
102
RTVSPropertyOp62
 70
     1
  0
XRECORD
  5
AF4A
102
{ACAD_REACTORS
330
AF49
102
}
330
AF49
100
AcDbXrecord
280
     1
102
RTVSPost2010Prop28
280
     0
102
RTVSPost2010PropOp28
 70
     1
102
RTVSPost2010Prop29
280
     1
102
RTVSPost2010PropOp29
 70
     1
102
RTVSPost2010Prop30
280
     1
102
RTVSPost2010PropOp30
 70
     1
102
RTVSPost2010Prop31
280
     0
102
RTVSPost2010PropOp31
 70
     1
102
RTVSPost2010Prop32
280
     0
102
RTVSPost2010PropOp32
 70
     1
102
RTVSPost2010Prop33
280
     0
102
RTVSPost2010PropOp33
 70
     1
102
RTVSPost2010Prop34
280
     0
102
RTVSPost2010PropOp34
 70
     1
102
RTVSPost2010Prop35
280
     0
102
RTVSPost2010PropOp35
 70
     1
102
RTVSPost2010Prop36
280
     0
102
RTVSPost2010PropOp36
 70
     1
102
RTVSPost2010Prop37
 90
       50
102
RTVSPost2010PropOp37
 70
     0
102
RTVSPost2010Prop38
140
0.0
102
RTVSPost2010PropOp38
 70
     0
102
RTVSPost2010Prop39
140
1.0
102
RTVSPost2010PropOp39
 70
     0
102
RTVSPost2010Prop40
 90
        0
102
RTVSPost2010PropOp40
 70
     0
102
RTVSPost2010Prop41ColorIndex
 90
       18
102
RTVSPost2010Prop41ColorRGB
 90
        0
102
RTVSPost2010PropOp41
 70
     0
102
RTVSPost2010Prop42
 90
       50
102
RTVSPost2010PropOp42
 70
     0
102
RTVSPost2010Prop43
 90
        3
102
RTVSPost2010PropOp43
 70
     0
102
RTVSPost2010Prop44ColorIndex
 90
        5
102
RTVSPost2010Prop44ColorRGB
 90
      255
102
RTVSPost2010PropOp44
 70
     0
102
RTVSPost2010Prop45
280
     0
102
RTVSPost2010PropOp45
 70
     1
102
RTVSPost2010Prop46
 90
       50
102
RTVSPost2010PropOp46
 70
     0
102
RTVSPost2010Prop47
 90
       50
102
RTVSPost2010PropOp47
 70
     0
102
RTVSPost2010Prop48
 90
       50
102
RTVSPost2010PropOp48
 70
     0
102
RTVSPost2010Prop49
280
     0
102
RTVSPost2010PropOp49
 70
     1
102
RTVSPost2010Prop50
 90
       50
102
RTVSPost2010PropOp50
 70
     0
102
RTVSPost2010Prop51ColorIndex
 90
      256
102
RTVSPost2010Prop51ColorRGB
 90
-16777216
102
RTVSPost2010PropOp51
 70
     0
102
RTVSPost2010Prop52
140
1.0
102
RTVSPost2010PropOp52
 70
     0
102
RTVSPost2010Prop53
 90
        2
102
RTVSPost2010PropOp53
 70
     0
102
RTVSPost2010Prop54
  1
strokes_ogs.tif
102
RTVSPost2010PropOp54
 70
     0
102
RTVSPost2010Prop55
280
     0
102
RTVSPost2010PropOp55
 70
     1
102
RTVSPost2010Prop56
140
1.0
102
RTVSPost2010PropOp56
 70
     0
102
RTVSPost2010Prop57
140
1.0
102
RTVSPost2010PropOp57
 70
     0
102
RTVSPropertyOp0
 70
     0
102
RTVSPropertyOp1
 70
     0
102
RTVSPropertyOp2
 70
     0
102
RTVSPropertyOp3
 70
     0
102
RTVSPropertyOp4
 70
     0
102
RTVSPropertyOp5
 70
     0
102
RTVSPropertyOp6
 70
     0
102
RTVSPropertyOp7
 70
     0
102
RTVSPropertyOp8
 70
     0
102
RTVSPropertyOp9
 70
     0
102
RTVSPropertyOp10
 70
     0
102
RTVSPropertyOp11
 70
     0
102
RTVSPropertyOp12
 70
     0
102
RTVSPropertyOp13
 70
     0
102
RTVSPropertyOp14
 70
     2
102
RTVSPropertyOp15
 70
     0
102
RTVSPropertyOp16
 70
     0
102
RTVSPropertyOp17
 70
     0
102
RTVSPropertyOp18
 70
     0
102
RTVSPropertyOp19
 70
     0
102
RTVSPropertyOp20
 70
     0
102
RTVSPropertyOp21
 70
     0
102
RTVSPropertyOp22
 70
     0
102
RTVSPropertyOp23
 70
     0
102
RTVSPropertyOp24
 70
     0
102
RTVSPropertyOp25
 70
     0
102
RTVSPropertyOp26
 70
     0
102
RTVSPropertyOp27
 70
     0
102
RTVSPropertyOp28
 70
     1
102
RTVSPropertyOp29
 70
     1
102
RTVSPropertyOp30
 70
     1
102
RTVSPropertyOp31
 70
     1
102
RTVSPropertyOp32
 70
     1
102
RTVSPropertyOp33
 70
     1
102
RTVSPropertyOp34
 70
     1
102
RTVSPropertyOp35
 70
     1
102
RTVSPropertyOp36
 70
     1
102
RTVSPropertyOp37
 70
     0
102
RTVSPropertyOp38
 70
     0
102
RTVSPropertyOp39
 70
     0
102
RTVSPropertyOp40
 70
     0
102
RTVSPropertyOp41
 70
     0
102
RTVSPropertyOp42
 70
     0
102
RTVSPropertyOp43
 70
     0
102
RTVSPropertyOp44
 70
     0
102
RTVSPropertyOp45
 70
     1
102
RTVSPropertyOp46
 70
     0
102
RTVSPropertyOp47
 70
     0
102
RTVSPropertyOp48
 70
     0
102
RTVSPropertyOp49
 70
     1
102
RTVSPropertyOp50
 70
     0
102
RTVSPropertyOp51
 70
     0
102
RTVSPropertyOp52
 70
     0
102
RTVSPropertyOp53
 70
     0
102
RTVSPropertyOp54
 70
     0
102
RTVSPropertyOp55
 70
     1
102
RTVSPropertyOp56
 70
     0
102
RTVSPropertyOp57
 70
     0
102
RTVSPropertyOp58
 70
     0
102
RTVSPropertyOp59
 70
     0
102
RTVSPropertyOp60
 70
     0
102
RTVSPropertyOp61
 70
     0
102
RTVSPropertyOp62
 70
     0
  0
XRECORD
  5
AF30
102
{ACAD_REACTORS
330
AF2F
102
}
330
AF2F
100
AcDbXrecord
280
     1
102
RTVSPost2010Prop28
280
     0
102
RTVSPost2010PropOp28
 70
     1
102
RTVSPost2010Prop29
280
     1
102
RTVSPost2010PropOp29
 70
     1
102
RTVSPost2010Prop30
280
     1
102
RTVSPost2010PropOp30
 70
     1
102
RTVSPost2010Prop31
280
     0
102
RTVSPost2010PropOp31
 70
     1
102
RTVSPost2010Prop32
280
     0
102
RTVSPost2010PropOp32
 70
     1
102
RTVSPost2010Prop33
280
     0
102
RTVSPost2010PropOp33
 70
     1
102
RTVSPost2010Prop34
280
     0
102
RTVSPost2010PropOp34
 70
     1
102
RTVSPost2010Prop35
280
     0
102
RTVSPost2010PropOp35
 70
     1
102
RTVSPost2010Prop36
280
     0
102
RTVSPost2010PropOp36
 70
     1
102
RTVSPost2010Prop37
 90
       50
102
RTVSPost2010PropOp37
 70
     1
102
RTVSPost2010Prop38
140
0.0
102
RTVSPost2010PropOp38
 70
     1
102
RTVSPost2010Prop39
140
1.0
102
RTVSPost2010PropOp39
 70
     1
102
RTVSPost2010Prop40
 90
        0
102
RTVSPost2010PropOp40
 70
     1
102
RTVSPost2010Prop41ColorIndex
 90
       18
102
RTVSPost2010Prop41ColorRGB
 90
        0
102
RTVSPost2010PropOp41
 70
     1
102
RTVSPost2010Prop42
 90
       50
102
RTVSPost2010PropOp42
 70
     1
102
RTVSPost2010Prop43
 90
        3
102
RTVSPost2010PropOp43
 70
     1
102
RTVSPost2010Prop44ColorIndex
 90
        5
102
RTVSPost2010Prop44ColorRGB
 90
      255
102
RTVSPost2010PropOp44
 70
     1
102
RTVSPost2010Prop45
280
     0
102
RTVSPost2010PropOp45
 70
     1
102
RTVSPost2010Prop46
 90
       50
102
RTVSPost2010PropOp46
 70
     1
102
RTVSPost2010Prop47
 90
       50
102
RTVSPost2010PropOp47
 70
     1
102
RTVSPost2010Prop48
 90
       50
102
RTVSPost2010PropOp48
 70
     1
102
RTVSPost2010Prop49
280
     0
102
RTVSPost2010PropOp49
 70
     1
102
RTVSPost2010Prop50
 90
       50
102
RTVSPost2010PropOp50
 70
     1
102
RTVSPost2010Prop51ColorIndex
 90
      256
102
RTVSPost2010Prop51ColorRGB
 90
-16777216
102
RTVSPost2010PropOp51
 70
     0
102
RTVSPost2010Prop52
140
1.0
102
RTVSPost2010PropOp52
 70
     0
102
RTVSPost2010Prop53
 90
        2
102
RTVSPost2010PropOp53
 70
     1
102
RTVSPost2010Prop54
  1
strokes_ogs.tif
102
RTVSPost2010PropOp54
 70
     1
102
RTVSPost2010Prop55
280
     0
102
RTVSPost2010PropOp55
 70
     1
102
RTVSPost2010Prop56
140
1.0
102
RTVSPost2010PropOp56
 70
     1
102
RTVSPost2010Prop57
140
1.0
102
RTVSPost2010PropOp57
 70
     1
102
RTVSPropertyOp0
 70
     1
102
RTVSPropertyOp1
 70
     1
102
RTVSPropertyOp2
 70
     1
102
RTVSPropertyOp3
 70
     1
102
RTVSPropertyOp4
 70
     1
102
RTVSPropertyOp5
 70
     1
102
RTVSPropertyOp6
 70
     1
102
RTVSPropertyOp7
 70
     1
102
RTVSPropertyOp8
 70
     1
102
RTVSPropertyOp9
 70
     1
102
RTVSPropertyOp10
 70
     1
102
RTVSPropertyOp11
 70
     1
102
RTVSPropertyOp12
 70
     1
102
RTVSPropertyOp13
 70
     1
102
RTVSPropertyOp14
 70
     1
102
RTVSPropertyOp15
 70
     1
102
RTVSPropertyOp16
 70
     1
102
RTVSPropertyOp17
 70
     1
102
RTVSPropertyOp18
 70
     1
102
RTVSPropertyOp19
 70
     1
102
RTVSPropertyOp20
 70
     1
102
RTVSPropertyOp21
 70
     1
102
RTVSPropertyOp22
 70
     1
102
RTVSPropertyOp23
 70
     1
102
RTVSPropertyOp24
 70
     1
102
RTVSPropertyOp25
 70
     1
102
RTVSPropertyOp26
 70
     1
102
RTVSPropertyOp27
 70
     1
102
RTVSPropertyOp28
 70
     1
102
RTVSPropertyOp29
 70
     1
102
RTVSPropertyOp30
 70
     1
102
RTVSPropertyOp31
 70
     1
102
RTVSPropertyOp32
 70
     1
102
RTVSPropertyOp33
 70
     1
102
RTVSPropertyOp34
 70
     1
102
RTVSPropertyOp35
 70
     1
102
RTVSPropertyOp36
 70
     1
102
RTVSPropertyOp37
 70
     1
102
RTVSPropertyOp38
 70
     1
102
RTVSPropertyOp39
 70
     1
102
RTVSPropertyOp40
 70
     1
102
RTVSPropertyOp41
 70
     1
102
RTVSPropertyOp42
 70
     1
102
RTVSPropertyOp43
 70
     1
102
RTVSPropertyOp44
 70
     1
102
RTVSPropertyOp45
 70
     1
102
RTVSPropertyOp46
 70
     1
102
RTVSPropertyOp47
 70
     1
102
RTVSPropertyOp48
 70
     1
102
RTVSPropertyOp49
 70
     1
102
RTVSPropertyOp50
 70
     1
102
RTVSPropertyOp51
 70
     0
102
RTVSPropertyOp52
 70
     0
102
RTVSPropertyOp53
 70
     1
102
RTVSPropertyOp54
 70
     1
102
RTVSPropertyOp55
 70
     1
102
RTVSPropertyOp56
 70
     1
102
RTVSPropertyOp57
 70
     1
102
RTVSPropertyOp58
 70
     1
102
RTVSPropertyOp59
 70
     1
102
RTVSPropertyOp60
 70
     1
102
RTVSPropertyOp61
 70
     1
102
RTVSPropertyOp62
 70
     1
  0
XRECORD
  5
AF46
102
{ACAD_REACTORS
330
AF45
102
}
330
AF45
100
AcDbXrecord
280
     1
102
RTVSPost2010Prop28
280
     0
102
RTVSPost2010PropOp28
 70
     1
102
RTVSPost2010Prop29
280
     1
102
RTVSPost2010PropOp29
 70
     1
102
RTVSPost2010Prop30
280
     1
102
RTVSPost2010PropOp30
 70
     1
102
RTVSPost2010Prop31
280
     0
102
RTVSPost2010PropOp31
 70
     1
102
RTVSPost2010Prop32
280
     0
102
RTVSPost2010PropOp32
 70
     1
102
RTVSPost2010Prop33
280
     0
102
RTVSPost2010PropOp33
 70
     1
102
RTVSPost2010Prop34
280
     0
102
RTVSPost2010PropOp34
 70
     1
102
RTVSPost2010Prop35
280
     0
102
RTVSPost2010PropOp35
 70
     1
102
RTVSPost2010Prop36
280
     0
102
RTVSPost2010PropOp36
 70
     1
102
RTVSPost2010Prop37
 90
       50
102
RTVSPost2010PropOp37
 70
     1
102
RTVSPost2010Prop38
140
0.0
102
RTVSPost2010PropOp38
 70
     1
102
RTVSPost2010Prop39
140
1.0
102
RTVSPost2010PropOp39
 70
     1
102
RTVSPost2010Prop40
 90
        0
102
RTVSPost2010PropOp40
 70
     1
102
RTVSPost2010Prop41ColorIndex
 90
       18
102
RTVSPost2010Prop41ColorRGB
 90
        0
102
RTVSPost2010PropOp41
 70
     1
102
RTVSPost2010Prop42
 90
       50
102
RTVSPost2010PropOp42
 70
     1
102
RTVSPost2010Prop43
 90
        3
102
RTVSPost2010PropOp43
 70
     1
102
RTVSPost2010Prop44ColorIndex
 90
        5
102
RTVSPost2010Prop44ColorRGB
 90
      255
102
RTVSPost2010PropOp44
 70
     1
102
RTVSPost2010Prop45
280
     0
102
RTVSPost2010PropOp45
 70
     1
102
RTVSPost2010Prop46
 90
       50
102
RTVSPost2010PropOp46
 70
     1
102
RTVSPost2010Prop47
 90
       50
102
RTVSPost2010PropOp47
 70
     1
102
RTVSPost2010Prop48
 90
       50
102
RTVSPost2010PropOp48
 70
     1
102
RTVSPost2010Prop49
280
     0
102
RTVSPost2010PropOp49
 70
     1
102
RTVSPost2010Prop50
 90
       50
102
RTVSPost2010PropOp50
 70
     1
102
RTVSPost2010Prop51ColorIndex
 90
      256
102
RTVSPost2010Prop51ColorRGB
 90
-16777216
102
RTVSPost2010PropOp51
 70
     0
102
RTVSPost2010Prop52
140
1.0
102
RTVSPost2010PropOp52
 70
     0
102
RTVSPost2010Prop53
 90
        2
102
RTVSPost2010PropOp53
 70
     1
102
RTVSPost2010Prop54
  1
strokes_ogs.tif
102
RTVSPost2010PropOp54
 70
     1
102
RTVSPost2010Prop55
280
     0
102
RTVSPost2010PropOp55
 70
     1
102
RTVSPost2010Prop56
140
1.0
102
RTVSPost2010PropOp56
 70
     1
102
RTVSPost2010Prop57
140
1.0
102
RTVSPost2010PropOp57
 70
     1
102
RTVSPropertyOp0
 70
     1
102
RTVSPropertyOp1
 70
     1
102
RTVSPropertyOp2
 70
     1
102
RTVSPropertyOp3
 70
     1
102
RTVSPropertyOp4
 70
     1
102
RTVSPropertyOp5
 70
     1
102
RTVSPropertyOp6
 70
     1
102
RTVSPropertyOp7
 70
     1
102
RTVSPropertyOp8
 70
     1
102
RTVSPropertyOp9
 70
     1
102
RTVSPropertyOp10
 70
     1
102
RTVSPropertyOp11
 70
     1
102
RTVSPropertyOp12
 70
     1
102
RTVSPropertyOp13
 70
     1
102
RTVSPropertyOp14
 70
     1
102
RTVSPropertyOp15
 70
     1
102
RTVSPropertyOp16
 70
     1
102
RTVSPropertyOp17
 70
     1
102
RTVSPropertyOp18
 70
     1
102
RTVSPropertyOp19
 70
     1
102
RTVSPropertyOp20
 70
     1
102
RTVSPropertyOp21
 70
     1
102
RTVSPropertyOp22
 70
     1
102
RTVSPropertyOp23
 70
     1
102
RTVSPropertyOp24
 70
     1
102
RTVSPropertyOp25
 70
     1
102
RTVSPropertyOp26
 70
     1
102
RTVSPropertyOp27
 70
     1
102
RTVSPropertyOp28
 70
     1
102
RTVSPropertyOp29
 70
     1
102
RTVSPropertyOp30
 70
     1
102
RTVSPropertyOp31
 70
     1
102
RTVSPropertyOp32
 70
     1
102
RTVSPropertyOp33
 70
     1
102
RTVSPropertyOp34
 70
     1
102
RTVSPropertyOp35
 70
     1
102
RTVSPropertyOp36
 70
     1
102
RTVSPropertyOp37
 70
     1
102
RTVSPropertyOp38
 70
     1
102
RTVSPropertyOp39
 70
     1
102
RTVSPropertyOp40
 70
     1
102
RTVSPropertyOp41
 70
     1
102
RTVSPropertyOp42
 70
     1
102
RTVSPropertyOp43
 70
     1
102
RTVSPropertyOp44
 70
     1
102
RTVSPropertyOp45
 70
     1
102
RTVSPropertyOp46
 70
     1
102
RTVSPropertyOp47
 70
     1
102
RTVSPropertyOp48
 70
     1
102
RTVSPropertyOp49
 70
     1
102
RTVSPropertyOp50
 70
     1
102
RTVSPropertyOp51
 70
     0
102
RTVSPropertyOp52
 70
     0
102
RTVSPropertyOp53
 70
     1
102
RTVSPropertyOp54
 70
     1
102
RTVSPropertyOp55
 70
     1
102
RTVSPropertyOp56
 70
     1
102
RTVSPropertyOp57
 70
     1
102
RTVSPropertyOp58
 70
     1
102
RTVSPropertyOp59
 70
     1
102
RTVSPropertyOp60
 70
     1
102
RTVSPropertyOp61
 70
     1
102
RTVSPropertyOp62
 70
     1
  0
XRECORD
  5
AF44
102
{ACAD_REACTORS
330
AF43
102
}
330
AF43
100
AcDbXrecord
280
     1
102
RTVSPost2010Prop28
280
     0
102
RTVSPost2010PropOp28
 70
     1
102
RTVSPost2010Prop29
280
     1
102
RTVSPost2010PropOp29
 70
     1
102
RTVSPost2010Prop30
280
     1
102
RTVSPost2010PropOp30
 70
     1
102
RTVSPost2010Prop31
280
     0
102
RTVSPost2010PropOp31
 70
     1
102
RTVSPost2010Prop32
280
     0
102
RTVSPost2010PropOp32
 70
     1
102
RTVSPost2010Prop33
280
     0
102
RTVSPost2010PropOp33
 70
     1
102
RTVSPost2010Prop34
280
     0
102
RTVSPost2010PropOp34
 70
     1
102
RTVSPost2010Prop35
280
     0
102
RTVSPost2010PropOp35
 70
     1
102
RTVSPost2010Prop36
280
     0
102
RTVSPost2010PropOp36
 70
     1
102
RTVSPost2010Prop37
 90
       50
102
RTVSPost2010PropOp37
 70
     1
102
RTVSPost2010Prop38
140
0.0
102
RTVSPost2010PropOp38
 70
     1
102
RTVSPost2010Prop39
140
1.0
102
RTVSPost2010PropOp39
 70
     1
102
RTVSPost2010Prop40
 90
        0
102
RTVSPost2010PropOp40
 70
     1
102
RTVSPost2010Prop41ColorIndex
 90
       18
102
RTVSPost2010Prop41ColorRGB
 90
        0
102
RTVSPost2010PropOp41
 70
     1
102
RTVSPost2010Prop42
 90
       50
102
RTVSPost2010PropOp42
 70
     1
102
RTVSPost2010Prop43
 90
        3
102
RTVSPost2010PropOp43
 70
     1
102
RTVSPost2010Prop44ColorIndex
 90
        5
102
RTVSPost2010Prop44ColorRGB
 90
      255
102
RTVSPost2010PropOp44
 70
     1
102
RTVSPost2010Prop45
280
     0
102
RTVSPost2010PropOp45
 70
     1
102
RTVSPost2010Prop46
 90
       50
102
RTVSPost2010PropOp46
 70
     1
102
RTVSPost2010Prop47
 90
       50
102
RTVSPost2010PropOp47
 70
     1
102
RTVSPost2010Prop48
 90
       50
102
RTVSPost2010PropOp48
 70
     1
102
RTVSPost2010Prop49
280
     0
102
RTVSPost2010PropOp49
 70
     1
102
RTVSPost2010Prop50
 90
       50
102
RTVSPost2010PropOp50
 70
     1
102
RTVSPost2010Prop51ColorIndex
 90
      256
102
RTVSPost2010Prop51ColorRGB
 90
-16777216
102
RTVSPost2010PropOp51
 70
     0
102
RTVSPost2010Prop52
140
1.0
102
RTVSPost2010PropOp52
 70
     0
102
RTVSPost2010Prop53
 90
        2
102
RTVSPost2010PropOp53
 70
     1
102
RTVSPost2010Prop54
  1
strokes_ogs.tif
102
RTVSPost2010PropOp54
 70
     1
102
RTVSPost2010Prop55
280
     0
102
RTVSPost2010PropOp55
 70
     1
102
RTVSPost2010Prop56
140
1.0
102
RTVSPost2010PropOp56
 70
     1
102
RTVSPost2010Prop57
140
1.0
102
RTVSPost2010PropOp57
 70
     1
102
RTVSPropertyOp0
 70
     1
102
RTVSPropertyOp1
 70
     1
102
RTVSPropertyOp2
 70
     1
102
RTVSPropertyOp3
 70
     1
102
RTVSPropertyOp4
 70
     1
102
RTVSPropertyOp5
 70
     1
102
RTVSPropertyOp6
 70
     1
102
RTVSPropertyOp7
 70
     1
102
RTVSPropertyOp8
 70
     1
102
RTVSPropertyOp9
 70
     1
102
RTVSPropertyOp10
 70
     1
102
RTVSPropertyOp11
 70
     1
102
RTVSPropertyOp12
 70
     1
102
RTVSPropertyOp13
 70
     1
102
RTVSPropertyOp14
 70
     1
102
RTVSPropertyOp15
 70
     1
102
RTVSPropertyOp16
 70
     1
102
RTVSPropertyOp17
 70
     1
102
RTVSPropertyOp18
 70
     1
102
RTVSPropertyOp19
 70
     1
102
RTVSPropertyOp20
 70
     1
102
RTVSPropertyOp21
 70
     1
102
RTVSPropertyOp22
 70
     1
102
RTVSPropertyOp23
 70
     1
102
RTVSPropertyOp24
 70
     1
102
RTVSPropertyOp25
 70
     1
102
RTVSPropertyOp26
 70
     1
102
RTVSPropertyOp27
 70
     1
102
RTVSPropertyOp28
 70
     1
102
RTVSPropertyOp29
 70
     1
102
RTVSPropertyOp30
 70
     1
102
RTVSPropertyOp31
 70
     1
102
RTVSPropertyOp32
 70
     1
102
RTVSPropertyOp33
 70
     1
102
RTVSPropertyOp34
 70
     1
102
RTVSPropertyOp35
 70
     1
102
RTVSPropertyOp36
 70
     1
102
RTVSPropertyOp37
 70
     1
102
RTVSPropertyOp38
 70
     1
102
RTVSPropertyOp39
 70
     1
102
RTVSPropertyOp40
 70
     1
102
RTVSPropertyOp41
 70
     1
102
RTVSPropertyOp42
 70
     1
102
RTVSPropertyOp43
 70
     1
102
RTVSPropertyOp44
 70
     1
102
RTVSPropertyOp45
 70
     1
102
RTVSPropertyOp46
 70
     1
102
RTVSPropertyOp47
 70
     1
102
RTVSPropertyOp48
 70
     1
102
RTVSPropertyOp49
 70
     1
102
RTVSPropertyOp50
 70
     1
102
RTVSPropertyOp51
 70
     0
102
RTVSPropertyOp52
 70
     0
102
RTVSPropertyOp53
 70
     1
102
RTVSPropertyOp54
 70
     1
102
RTVSPropertyOp55
 70
     1
102
RTVSPropertyOp56
 70
     1
102
RTVSPropertyOp57
 70
     1
102
RTVSPropertyOp58
 70
     1
102
RTVSPropertyOp59
 70
     1
102
RTVSPropertyOp60
 70
     1
102
RTVSPropertyOp61
 70
     1
102
RTVSPropertyOp62
 70
     1
  0
XRECORD
  5
AF3E
102
{ACAD_REACTORS
330
AF3D
102
}
330
AF3D
100
AcDbXrecord
280
     1
102
RTVSPost2010Prop28
280
     0
102
RTVSPost2010PropOp28
 70
     1
102
RTVSPost2010Prop29
280
     1
102
RTVSPost2010PropOp29
 70
     1
102
RTVSPost2010Prop30
280
     1
102
RTVSPost2010PropOp30
 70
     1
102
RTVSPost2010Prop31
280
     0
102
RTVSPost2010PropOp31
 70
     1
102
RTVSPost2010Prop32
280
     0
102
RTVSPost2010PropOp32
 70
     1
102
RTVSPost2010Prop33
280
     0
102
RTVSPost2010PropOp33
 70
     1
102
RTVSPost2010Prop34
280
     0
102
RTVSPost2010PropOp34
 70
     1
102
RTVSPost2010Prop35
280
     0
102
RTVSPost2010PropOp35
 70
     1
102
RTVSPost2010Prop36
280
     0
102
RTVSPost2010PropOp36
 70
     1
102
RTVSPost2010Prop37
 90
       50
102
RTVSPost2010PropOp37
 70
     1
102
RTVSPost2010Prop38
140
0.0
102
RTVSPost2010PropOp38
 70
     1
102
RTVSPost2010Prop39
140
1.0
102
RTVSPost2010PropOp39
 70
     1
102
RTVSPost2010Prop40
 90
        0
102
RTVSPost2010PropOp40
 70
     1
102
RTVSPost2010Prop41ColorIndex
 90
       18
102
RTVSPost2010Prop41ColorRGB
 90
        0
102
RTVSPost2010PropOp41
 70
     1
102
RTVSPost2010Prop42
 90
       50
102
RTVSPost2010PropOp42
 70
     1
102
RTVSPost2010Prop43
 90
        3
102
RTVSPost2010PropOp43
 70
     1
102
RTVSPost2010Prop44ColorIndex
 90
        5
102
RTVSPost2010Prop44ColorRGB
 90
      255
102
RTVSPost2010PropOp44
 70
     1
102
RTVSPost2010Prop45
280
     0
102
RTVSPost2010PropOp45
 70
     1
102
RTVSPost2010Prop46
 90
       50
102
RTVSPost2010PropOp46
 70
     1
102
RTVSPost2010Prop47
 90
       50
102
RTVSPost2010PropOp47
 70
     1
102
RTVSPost2010Prop48
 90
       50
102
RTVSPost2010PropOp48
 70
     1
102
RTVSPost2010Prop49
280
     0
102
RTVSPost2010PropOp49
 70
     1
102
RTVSPost2010Prop50
 90
       50
102
RTVSPost2010PropOp50
 70
     1
102
RTVSPost2010Prop51ColorIndex
 90
      256
102
RTVSPost2010Prop51ColorRGB
 90
-16777216
102
RTVSPost2010PropOp51
 70
     0
102
RTVSPost2010Prop52
140
1.0
102
RTVSPost2010PropOp52
 70
     0
102
RTVSPost2010Prop53
 90
        2
102
RTVSPost2010PropOp53
 70
     1
102
RTVSPost2010Prop54
  1
strokes_ogs.tif
102
RTVSPost2010PropOp54
 70
     1
102
RTVSPost2010Prop55
280
     0
102
RTVSPost2010PropOp55
 70
     1
102
RTVSPost2010Prop56
140
1.0
102
RTVSPost2010PropOp56
 70
     1
102
RTVSPost2010Prop57
140
1.0
102
RTVSPost2010PropOp57
 70
     1
102
RTVSPropertyOp0
 70
     1
102
RTVSPropertyOp1
 70
     1
102
RTVSPropertyOp2
 70
     1
102
RTVSPropertyOp3
 70
     1
102
RTVSPropertyOp4
 70
     1
102
RTVSPropertyOp5
 70
     1
102
RTVSPropertyOp6
 70
     1
102
RTVSPropertyOp7
 70
     1
102
RTVSPropertyOp8
 70
     1
102
RTVSPropertyOp9
 70
     1
102
RTVSPropertyOp10
 70
     1
102
RTVSPropertyOp11
 70
     1
102
RTVSPropertyOp12
 70
     1
102
RTVSPropertyOp13
 70
     1
102
RTVSPropertyOp14
 70
     1
102
RTVSPropertyOp15
 70
     1
102
RTVSPropertyOp16
 70
     1
102
RTVSPropertyOp17
 70
     1
102
RTVSPropertyOp18
 70
     1
102
RTVSPropertyOp19
 70
     1
102
RTVSPropertyOp20
 70
     1
102
RTVSPropertyOp21
 70
     1
102
RTVSPropertyOp22
 70
     1
102
RTVSPropertyOp23
 70
     1
102
RTVSPropertyOp24
 70
     1
102
RTVSPropertyOp25
 70
     1
102
RTVSPropertyOp26
 70
     1
102
RTVSPropertyOp27
 70
     1
102
RTVSPropertyOp28
 70
     1
102
RTVSPropertyOp29
 70
     1
102
RTVSPropertyOp30
 70
     1
102
RTVSPropertyOp31
 70
     1
102
RTVSPropertyOp32
 70
     1
102
RTVSPropertyOp33
 70
     1
102
RTVSPropertyOp34
 70
     1
102
RTVSPropertyOp35
 70
     1
102
RTVSPropertyOp36
 70
     1
102
RTVSPropertyOp37
 70
     1
102
RTVSPropertyOp38
 70
     1
102
RTVSPropertyOp39
 70
     1
102
RTVSPropertyOp40
 70
     1
102
RTVSPropertyOp41
 70
     1
102
RTVSPropertyOp42
 70
     1
102
RTVSPropertyOp43
 70
     1
102
RTVSPropertyOp44
 70
     1
102
RTVSPropertyOp45
 70
     1
102
RTVSPropertyOp46
 70
     1
102
RTVSPropertyOp47
 70
     1
102
RTVSPropertyOp48
 70
     1
102
RTVSPropertyOp49
 70
     1
102
RTVSPropertyOp50
 70
     1
102
RTVSPropertyOp51
 70
     0
102
RTVSPropertyOp52
 70
     0
102
RTVSPropertyOp53
 70
     1
102
RTVSPropertyOp54
 70
     1
102
RTVSPropertyOp55
 70
     1
102
RTVSPropertyOp56
 70
     1
102
RTVSPropertyOp57
 70
     1
102
RTVSPropertyOp58
 70
     1
102
RTVSPropertyOp59
 70
     1
102
RTVSPropertyOp60
 70
     1
102
RTVSPropertyOp61
 70
     1
102
RTVSPropertyOp62
 70
     1
  0
XRECORD
  5
AF40
102
{ACAD_REACTORS
330
AF3F
102
}
330
AF3F
100
AcDbXrecord
280
     1
102
RTVSPost2010Prop28
280
     0
102
RTVSPost2010PropOp28
 70
     1
102
RTVSPost2010Prop29
280
     1
102
RTVSPost2010PropOp29
 70
     1
102
RTVSPost2010Prop30
280
     1
102
RTVSPost2010PropOp30
 70
     1
102
RTVSPost2010Prop31
280
     0
102
RTVSPost2010PropOp31
 70
     1
102
RTVSPost2010Prop32
280
     0
102
RTVSPost2010PropOp32
 70
     1
102
RTVSPost2010Prop33
280
     0
102
RTVSPost2010PropOp33
 70
     1
102
RTVSPost2010Prop34
280
     0
102
RTVSPost2010PropOp34
 70
     1
102
RTVSPost2010Prop35
280
     0
102
RTVSPost2010PropOp35
 70
     1
102
RTVSPost2010Prop36
280
     0
102
RTVSPost2010PropOp36
 70
     1
102
RTVSPost2010Prop37
 90
       50
102
RTVSPost2010PropOp37
 70
     1
102
RTVSPost2010Prop38
140
0.0
102
RTVSPost2010PropOp38
 70
     1
102
RTVSPost2010Prop39
140
1.0
102
RTVSPost2010PropOp39
 70
     1
102
RTVSPost2010Prop40
 90
        0
102
RTVSPost2010PropOp40
 70
     1
102
RTVSPost2010Prop41ColorIndex
 90
       18
102
RTVSPost2010Prop41ColorRGB
 90
        0
102
RTVSPost2010PropOp41
 70
     1
102
RTVSPost2010Prop42
 90
       50
102
RTVSPost2010PropOp42
 70
     1
102
RTVSPost2010Prop43
 90
        3
102
RTVSPost2010PropOp43
 70
     1
102
RTVSPost2010Prop44ColorIndex
 90
        5
102
RTVSPost2010Prop44ColorRGB
 90
      255
102
RTVSPost2010PropOp44
 70
     1
102
RTVSPost2010Prop45
280
     0
102
RTVSPost2010PropOp45
 70
     1
102
RTVSPost2010Prop46
 90
       50
102
RTVSPost2010PropOp46
 70
     1
102
RTVSPost2010Prop47
 90
       50
102
RTVSPost2010PropOp47
 70
     1
102
RTVSPost2010Prop48
 90
       50
102
RTVSPost2010PropOp48
 70
     1
102
RTVSPost2010Prop49
280
     0
102
RTVSPost2010PropOp49
 70
     1
102
RTVSPost2010Prop50
 90
       50
102
RTVSPost2010PropOp50
 70
     1
102
RTVSPost2010Prop51ColorIndex
 90
      256
102
RTVSPost2010Prop51ColorRGB
 90
-16777216
102
RTVSPost2010PropOp51
 70
     0
102
RTVSPost2010Prop52
140
1.0
102
RTVSPost2010PropOp52
 70
     0
102
RTVSPost2010Prop53
 90
        2
102
RTVSPost2010PropOp53
 70
     1
102
RTVSPost2010Prop54
  1
strokes_ogs.tif
102
RTVSPost2010PropOp54
 70
     1
102
RTVSPost2010Prop55
280
     0
102
RTVSPost2010PropOp55
 70
     1
102
RTVSPost2010Prop56
140
1.0
102
RTVSPost2010PropOp56
 70
     1
102
RTVSPost2010Prop57
140
1.0
102
RTVSPost2010PropOp57
 70
     1
102
RTVSPropertyOp0
 70
     1
102
RTVSPropertyOp1
 70
     1
102
RTVSPropertyOp2
 70
     1
102
RTVSPropertyOp3
 70
     1
102
RTVSPropertyOp4
 70
     1
102
RTVSPropertyOp5
 70
     1
102
RTVSPropertyOp6
 70
     1
102
RTVSPropertyOp7
 70
     1
102
RTVSPropertyOp8
 70
     1
102
RTVSPropertyOp9
 70
     1
102
RTVSPropertyOp10
 70
     1
102
RTVSPropertyOp11
 70
     1
102
RTVSPropertyOp12
 70
     1
102
RTVSPropertyOp13
 70
     1
102
RTVSPropertyOp14
 70
     1
102
RTVSPropertyOp15
 70
     1
102
RTVSPropertyOp16
 70
     1
102
RTVSPropertyOp17
 70
     1
102
RTVSPropertyOp18
 70
     1
102
RTVSPropertyOp19
 70
     1
102
RTVSPropertyOp20
 70
     1
102
RTVSPropertyOp21
 70
     1
102
RTVSPropertyOp22
 70
     1
102
RTVSPropertyOp23
 70
     1
102
RTVSPropertyOp24
 70
     1
102
RTVSPropertyOp25
 70
     1
102
RTVSPropertyOp26
 70
     1
102
RTVSPropertyOp27
 70
     1
102
RTVSPropertyOp28
 70
     1
102
RTVSPropertyOp29
 70
     1
102
RTVSPropertyOp30
 70
     1
102
RTVSPropertyOp31
 70
     1
102
RTVSPropertyOp32
 70
     1
102
RTVSPropertyOp33
 70
     1
102
RTVSPropertyOp34
 70
     1
102
RTVSPropertyOp35
 70
     1
102
RTVSPropertyOp36
 70
     1
102
RTVSPropertyOp37
 70
     1
102
RTVSPropertyOp38
 70
     1
102
RTVSPropertyOp39
 70
     1
102
RTVSPropertyOp40
 70
     1
102
RTVSPropertyOp41
 70
     1
102
RTVSPropertyOp42
 70
     1
102
RTVSPropertyOp43
 70
     1
102
RTVSPropertyOp44
 70
     1
102
RTVSPropertyOp45
 70
     1
102
RTVSPropertyOp46
 70
     1
102
RTVSPropertyOp47
 70
     1
102
RTVSPropertyOp48
 70
     1
102
RTVSPropertyOp49
 70
     1
102
RTVSPropertyOp50
 70
     1
102
RTVSPropertyOp51
 70
     0
102
RTVSPropertyOp52
 70
     0
102
RTVSPropertyOp53
 70
     1
102
RTVSPropertyOp54
 70
     1
102
RTVSPropertyOp55
 70
     1
102
RTVSPropertyOp56
 70
     1
102
RTVSPropertyOp57
 70
     1
102
RTVSPropertyOp58
 70
     1
102
RTVSPropertyOp59
 70
     1
102
RTVSPropertyOp60
 70
     1
102
RTVSPropertyOp61
 70
     1
102
RTVSPropertyOp62
 70
     1
  0
XRECORD
  5
AF36
102
{ACAD_REACTORS
330
AF35
102
}
330
AF35
100
AcDbXrecord
280
     1
102
RTVSPost2010Prop28
280
     0
102
RTVSPost2010PropOp28
 70
     1
102
RTVSPost2010Prop29
280
     1
102
RTVSPost2010PropOp29
 70
     1
102
RTVSPost2010Prop30
280
     1
102
RTVSPost2010PropOp30
 70
     1
102
RTVSPost2010Prop31
280
     0
102
RTVSPost2010PropOp31
 70
     1
102
RTVSPost2010Prop32
280
     0
102
RTVSPost2010PropOp32
 70
     1
102
RTVSPost2010Prop33
280
     0
102
RTVSPost2010PropOp33
 70
     1
102
RTVSPost2010Prop34
280
     0
102
RTVSPost2010PropOp34
 70
     1
102
RTVSPost2010Prop35
280
     0
102
RTVSPost2010PropOp35
 70
     1
102
RTVSPost2010Prop36
280
     0
102
RTVSPost2010PropOp36
 70
     1
102
RTVSPost2010Prop37
 90
       50
102
RTVSPost2010PropOp37
 70
     1
102
RTVSPost2010Prop38
140
0.0
102
RTVSPost2010PropOp38
 70
     1
102
RTVSPost2010Prop39
140
1.0
102
RTVSPost2010PropOp39
 70
     1
102
RTVSPost2010Prop40
 90
        0
102
RTVSPost2010PropOp40
 70
     1
102
RTVSPost2010Prop41ColorIndex
 90
       18
102
RTVSPost2010Prop41ColorRGB
 90
        0
102
RTVSPost2010PropOp41
 70
     1
102
RTVSPost2010Prop42
 90
       50
102
RTVSPost2010PropOp42
 70
     1
102
RTVSPost2010Prop43
 90
        3
102
RTVSPost2010PropOp43
 70
     1
102
RTVSPost2010Prop44ColorIndex
 90
        5
102
RTVSPost2010Prop44ColorRGB
 90
      255
102
RTVSPost2010PropOp44
 70
     1
102
RTVSPost2010Prop45
280
     0
102
RTVSPost2010PropOp45
 70
     1
102
RTVSPost2010Prop46
 90
       50
102
RTVSPost2010PropOp46
 70
     1
102
RTVSPost2010Prop47
 90
       50
102
RTVSPost2010PropOp47
 70
     1
102
RTVSPost2010Prop48
 90
       50
102
RTVSPost2010PropOp48
 70
     1
102
RTVSPost2010Prop49
280
     0
102
RTVSPost2010PropOp49
 70
     1
102
RTVSPost2010Prop50
 90
       50
102
RTVSPost2010PropOp50
 70
     1
102
RTVSPost2010Prop51ColorIndex
 90
      256
102
RTVSPost2010Prop51ColorRGB
 90
-16777216
102
RTVSPost2010PropOp51
 70
     0
102
RTVSPost2010Prop52
140
1.0
102
RTVSPost2010PropOp52
 70
     0
102
RTVSPost2010Prop53
 90
        2
102
RTVSPost2010PropOp53
 70
     1
102
RTVSPost2010Prop54
  1
strokes_ogs.tif
102
RTVSPost2010PropOp54
 70
     1
102
RTVSPost2010Prop55
280
     0
102
RTVSPost2010PropOp55
 70
     1
102
RTVSPost2010Prop56
140
1.0
102
RTVSPost2010PropOp56
 70
     1
102
RTVSPost2010Prop57
140
1.0
102
RTVSPost2010PropOp57
 70
     1
102
RTVSPropertyOp0
 70
     1
102
RTVSPropertyOp1
 70
     1
102
RTVSPropertyOp2
 70
     1
102
RTVSPropertyOp3
 70
     1
102
RTVSPropertyOp4
 70
     1
102
RTVSPropertyOp5
 70
     1
102
RTVSPropertyOp6
 70
     1
102
RTVSPropertyOp7
 70
     1
102
RTVSPropertyOp8
 70
     1
102
RTVSPropertyOp9
 70
     1
102
RTVSPropertyOp10
 70
     1
102
RTVSPropertyOp11
 70
     1
102
RTVSPropertyOp12
 70
     1
102
RTVSPropertyOp13
 70
     1
102
RTVSPropertyOp14
 70
     1
102
RTVSPropertyOp15
 70
     1
102
RTVSPropertyOp16
 70
     1
102
RTVSPropertyOp17
 70
     1
102
RTVSPropertyOp18
 70
     1
102
RTVSPropertyOp19
 70
     1
102
RTVSPropertyOp20
 70
     1
102
RTVSPropertyOp21
 70
     1
102
RTVSPropertyOp22
 70
     1
102
RTVSPropertyOp23
 70
     1
102
RTVSPropertyOp24
 70
     1
102
RTVSPropertyOp25
 70
     1
102
RTVSPropertyOp26
 70
     1
102
RTVSPropertyOp27
 70
     1
102
RTVSPropertyOp28
 70
     1
102
RTVSPropertyOp29
 70
     1
102
RTVSPropertyOp30
 70
     1
102
RTVSPropertyOp31
 70
     1
102
RTVSPropertyOp32
 70
     1
102
RTVSPropertyOp33
 70
     1
102
RTVSPropertyOp34
 70
     1
102
RTVSPropertyOp35
 70
     1
102
RTVSPropertyOp36
 70
     1
102
RTVSPropertyOp37
 70
     1
102
RTVSPropertyOp38
 70
     1
102
RTVSPropertyOp39
 70
     1
102
RTVSPropertyOp40
 70
     1
102
RTVSPropertyOp41
 70
     1
102
RTVSPropertyOp42
 70
     1
102
RTVSPropertyOp43
 70
     1
102
RTVSPropertyOp44
 70
     1
102
RTVSPropertyOp45
 70
     1
102
RTVSPropertyOp46
 70
     1
102
RTVSPropertyOp47
 70
     1
102
RTVSPropertyOp48
 70
     1
102
RTVSPropertyOp49
 70
     1
102
RTVSPropertyOp50
 70
     1
102
RTVSPropertyOp51
 70
     0
102
RTVSPropertyOp52
 70
     0
102
RTVSPropertyOp53
 70
     1
102
RTVSPropertyOp54
 70
     1
102
RTVSPropertyOp55
 70
     1
102
RTVSPropertyOp56
 70
     1
102
RTVSPropertyOp57
 70
     1
102
RTVSPropertyOp58
 70
     1
102
RTVSPropertyOp59
 70
     1
102
RTVSPropertyOp60
 70
     1
102
RTVSPropertyOp61
 70
     1
102
RTVSPropertyOp62
 70
     1
  0
XRECORD
  5
AF2A
102
{ACAD_REACTORS
330
AF29
102
}
330
AF29
100
AcDbXrecord
280
     1
102
RTVSPost2010Prop28
280
     0
102
RTVSPost2010PropOp28
 70
     1
102
RTVSPost2010Prop29
280
     1
102
RTVSPost2010PropOp29
 70
     1
102
RTVSPost2010Prop30
280
     1
102
RTVSPost2010PropOp30
 70
     1
102
RTVSPost2010Prop31
280
     0
102
RTVSPost2010PropOp31
 70
     1
102
RTVSPost2010Prop32
280
     0
102
RTVSPost2010PropOp32
 70
     1
102
RTVSPost2010Prop33
280
     0
102
RTVSPost2010PropOp33
 70
     1
102
RTVSPost2010Prop34
280
     0
102
RTVSPost2010PropOp34
 70
     1
102
RTVSPost2010Prop35
280
     0
102
RTVSPost2010PropOp35
 70
     1
102
RTVSPost2010Prop36
280
     0
102
RTVSPost2010PropOp36
 70
     1
102
RTVSPost2010Prop37
 90
       50
102
RTVSPost2010PropOp37
 70
     1
102
RTVSPost2010Prop38
140
0.0
102
RTVSPost2010PropOp38
 70
     1
102
RTVSPost2010Prop39
140
1.0
102
RTVSPost2010PropOp39
 70
     1
102
RTVSPost2010Prop40
 90
        0
102
RTVSPost2010PropOp40
 70
     1
102
RTVSPost2010Prop41ColorIndex
 90
       18
102
RTVSPost2010Prop41ColorRGB
 90
        0
102
RTVSPost2010PropOp41
 70
     1
102
RTVSPost2010Prop42
 90
       50
102
RTVSPost2010PropOp42
 70
     1
102
RTVSPost2010Prop43
 90
        3
102
RTVSPost2010PropOp43
 70
     1
102
RTVSPost2010Prop44ColorIndex
 90
        5
102
RTVSPost2010Prop44ColorRGB
 90
      255
102
RTVSPost2010PropOp44
 70
     1
102
RTVSPost2010Prop45
280
     0
102
RTVSPost2010PropOp45
 70
     1
102
RTVSPost2010Prop46
 90
       50
102
RTVSPost2010PropOp46
 70
     1
102
RTVSPost2010Prop47
 90
       50
102
RTVSPost2010PropOp47
 70
     1
102
RTVSPost2010Prop48
 90
       50
102
RTVSPost2010PropOp48
 70
     1
102
RTVSPost2010Prop49
280
     0
102
RTVSPost2010PropOp49
 70
     1
102
RTVSPost2010Prop50
 90
       50
102
RTVSPost2010PropOp50
 70
     1
102
RTVSPost2010Prop51ColorIndex
 90
      256
102
RTVSPost2010Prop51ColorRGB
 90
-16777216
102
RTVSPost2010PropOp51
 70
     0
102
RTVSPost2010Prop52
140
1.0
102
RTVSPost2010PropOp52
 70
     0
102
RTVSPost2010Prop53
 90
        2
102
RTVSPost2010PropOp53
 70
     1
102
RTVSPost2010Prop54
  1
strokes_ogs.tif
102
RTVSPost2010PropOp54
 70
     1
102
RTVSPost2010Prop55
280
     0
102
RTVSPost2010PropOp55
 70
     1
102
RTVSPost2010Prop56
140
1.0
102
RTVSPost2010PropOp56
 70
     1
102
RTVSPost2010Prop57
140
1.0
102
RTVSPost2010PropOp57
 70
     1
102
RTVSPropertyOp0
 70
     1
102
RTVSPropertyOp1
 70
     1
102
RTVSPropertyOp2
 70
     1
102
RTVSPropertyOp3
 70
     1
102
RTVSPropertyOp4
 70
     1
102
RTVSPropertyOp5
 70
     1
102
RTVSPropertyOp6
 70
     1
102
RTVSPropertyOp7
 70
     1
102
RTVSPropertyOp8
 70
     1
102
RTVSPropertyOp9
 70
     1
102
RTVSPropertyOp10
 70
     1
102
RTVSPropertyOp11
 70
     1
102
RTVSPropertyOp12
 70
     1
102
RTVSPropertyOp13
 70
     1
102
RTVSPropertyOp14
 70
     1
102
RTVSPropertyOp15
 70
     1
102
RTVSPropertyOp16
 70
     1
102
RTVSPropertyOp17
 70
     1
102
RTVSPropertyOp18
 70
     1
102
RTVSPropertyOp19
 70
     1
102
RTVSPropertyOp20
 70
     1
102
RTVSPropertyOp21
 70
     1
102
RTVSPropertyOp22
 70
     1
102
RTVSPropertyOp23
 70
     1
102
RTVSPropertyOp24
 70
     1
102
RTVSPropertyOp25
 70
     1
102
RTVSPropertyOp26
 70
     1
102
RTVSPropertyOp27
 70
     1
102
RTVSPropertyOp28
 70
     1
102
RTVSPropertyOp29
 70
     1
102
RTVSPropertyOp30
 70
     1
102
RTVSPropertyOp31
 70
     1
102
RTVSPropertyOp32
 70
     1
102
RTVSPropertyOp33
 70
     1
102
RTVSPropertyOp34
 70
     1
102
RTVSPropertyOp35
 70
     1
102
RTVSPropertyOp36
 70
     1
102
RTVSPropertyOp37
 70
     1
102
RTVSPropertyOp38
 70
     1
102
RTVSPropertyOp39
 70
     1
102
RTVSPropertyOp40
 70
     1
102
RTVSPropertyOp41
 70
     1
102
RTVSPropertyOp42
 70
     1
102
RTVSPropertyOp43
 70
     1
102
RTVSPropertyOp44
 70
     1
102
RTVSPropertyOp45
 70
     1
102
RTVSPropertyOp46
 70
     1
102
RTVSPropertyOp47
 70
     1
102
RTVSPropertyOp48
 70
     1
102
RTVSPropertyOp49
 70
     1
102
RTVSPropertyOp50
 70
     1
102
RTVSPropertyOp51
 70
     0
102
RTVSPropertyOp52
 70
     0
102
RTVSPropertyOp53
 70
     1
102
RTVSPropertyOp54
 70
     1
102
RTVSPropertyOp55
 70
     1
102
RTVSPropertyOp56
 70
     1
102
RTVSPropertyOp57
 70
     1
102
RTVSPropertyOp58
 70
     1
102
RTVSPropertyOp59
 70
     1
102
RTVSPropertyOp60
 70
     1
102
RTVSPropertyOp61
 70
     1
102
RTVSPropertyOp62
 70
     1
  0
XRECORD
  5
AF42
102
{ACAD_REACTORS
330
AF41
102
}
330
AF41
100
AcDbXrecord
280
     1
102
RTVSPost2010Prop28
280
     0
102
RTVSPost2010PropOp28
 70
     1
102
RTVSPost2010Prop29
280
     1
102
RTVSPost2010PropOp29
 70
     1
102
RTVSPost2010Prop30
280
     1
102
RTVSPost2010PropOp30
 70
     1
102
RTVSPost2010Prop31
280
     0
102
RTVSPost2010PropOp31
 70
     1
102
RTVSPost2010Prop32
280
     0
102
RTVSPost2010PropOp32
 70
     1
102
RTVSPost2010Prop33
280
     0
102
RTVSPost2010PropOp33
 70
     1
102
RTVSPost2010Prop34
280
     0
102
RTVSPost2010PropOp34
 70
     1
102
RTVSPost2010Prop35
280
     0
102
RTVSPost2010PropOp35
 70
     1
102
RTVSPost2010Prop36
280
     0
102
RTVSPost2010PropOp36
 70
     1
102
RTVSPost2010Prop37
 90
       50
102
RTVSPost2010PropOp37
 70
     1
102
RTVSPost2010Prop38
140
0.0
102
RTVSPost2010PropOp38
 70
     1
102
RTVSPost2010Prop39
140
1.0
102
RTVSPost2010PropOp39
 70
     1
102
RTVSPost2010Prop40
 90
        0
102
RTVSPost2010PropOp40
 70
     1
102
RTVSPost2010Prop41ColorIndex
 90
       18
102
RTVSPost2010Prop41ColorRGB
 90
        0
102
RTVSPost2010PropOp41
 70
     1
102
RTVSPost2010Prop42
 90
       50
102
RTVSPost2010PropOp42
 70
     1
102
RTVSPost2010Prop43
 90
        3
102
RTVSPost2010PropOp43
 70
     1
102
RTVSPost2010Prop44ColorIndex
 90
        5
102
RTVSPost2010Prop44ColorRGB
 90
      255
102
RTVSPost2010PropOp44
 70
     1
102
RTVSPost2010Prop45
280
     0
102
RTVSPost2010PropOp45
 70
     1
102
RTVSPost2010Prop46
 90
       50
102
RTVSPost2010PropOp46
 70
     1
102
RTVSPost2010Prop47
 90
       50
102
RTVSPost2010PropOp47
 70
     1
102
RTVSPost2010Prop48
 90
       50
102
RTVSPost2010PropOp48
 70
     1
102
RTVSPost2010Prop49
280
     0
102
RTVSPost2010PropOp49
 70
     1
102
RTVSPost2010Prop50
 90
       50
102
RTVSPost2010PropOp50
 70
     1
102
RTVSPost2010Prop51ColorIndex
 90
      256
102
RTVSPost2010Prop51ColorRGB
 90
-16777216
102
RTVSPost2010PropOp51
 70
     0
102
RTVSPost2010Prop52
140
1.0
102
RTVSPost2010PropOp52
 70
     0
102
RTVSPost2010Prop53
 90
        2
102
RTVSPost2010PropOp53
 70
     1
102
RTVSPost2010Prop54
  1
strokes_ogs.tif
102
RTVSPost2010PropOp54
 70
     1
102
RTVSPost2010Prop55
280
     0
102
RTVSPost2010PropOp55
 70
     1
102
RTVSPost2010Prop56
140
1.0
102
RTVSPost2010PropOp56
 70
     1
102
RTVSPost2010Prop57
140
1.0
102
RTVSPost2010PropOp57
 70
     1
102
RTVSPropertyOp0
 70
     1
102
RTVSPropertyOp1
 70
     1
102
RTVSPropertyOp2
 70
     1
102
RTVSPropertyOp3
 70
     1
102
RTVSPropertyOp4
 70
     1
102
RTVSPropertyOp5
 70
     1
102
RTVSPropertyOp6
 70
     1
102
RTVSPropertyOp7
 70
     1
102
RTVSPropertyOp8
 70
     1
102
RTVSPropertyOp9
 70
     1
102
RTVSPropertyOp10
 70
     1
102
RTVSPropertyOp11
 70
     1
102
RTVSPropertyOp12
 70
     1
102
RTVSPropertyOp13
 70
     1
102
RTVSPropertyOp14
 70
     1
102
RTVSPropertyOp15
 70
     1
102
RTVSPropertyOp16
 70
     1
102
RTVSPropertyOp17
 70
     1
102
RTVSPropertyOp18
 70
     1
102
RTVSPropertyOp19
 70
     1
102
RTVSPropertyOp20
 70
     1
102
RTVSPropertyOp21
 70
     1
102
RTVSPropertyOp22
 70
     1
102
RTVSPropertyOp23
 70
     1
102
RTVSPropertyOp24
 70
     1
102
RTVSPropertyOp25
 70
     1
102
RTVSPropertyOp26
 70
     1
102
RTVSPropertyOp27
 70
     1
102
RTVSPropertyOp28
 70
     1
102
RTVSPropertyOp29
 70
     1
102
RTVSPropertyOp30
 70
     1
102
RTVSPropertyOp31
 70
     1
102
RTVSPropertyOp32
 70
     1
102
RTVSPropertyOp33
 70
     1
102
RTVSPropertyOp34
 70
     1
102
RTVSPropertyOp35
 70
     1
102
RTVSPropertyOp36
 70
     1
102
RTVSPropertyOp37
 70
     1
102
RTVSPropertyOp38
 70
     1
102
RTVSPropertyOp39
 70
     1
102
RTVSPropertyOp40
 70
     1
102
RTVSPropertyOp41
 70
     1
102
RTVSPropertyOp42
 70
     1
102
RTVSPropertyOp43
 70
     1
102
RTVSPropertyOp44
 70
     1
102
RTVSPropertyOp45
 70
     1
102
RTVSPropertyOp46
 70
     1
102
RTVSPropertyOp47
 70
     1
102
RTVSPropertyOp48
 70
     1
102
RTVSPropertyOp49
 70
     1
102
RTVSPropertyOp50
 70
     1
102
RTVSPropertyOp51
 70
     0
102
RTVSPropertyOp52
 70
     0
102
RTVSPropertyOp53
 70
     1
102
RTVSPropertyOp54
 70
     1
102
RTVSPropertyOp55
 70
     1
102
RTVSPropertyOp56
 70
     1
102
RTVSPropertyOp57
 70
     1
102
RTVSPropertyOp58
 70
     1
102
RTVSPropertyOp59
 70
     1
102
RTVSPropertyOp60
 70
     1
102
RTVSPropertyOp61
 70
     1
102
RTVSPropertyOp62
 70
     1
  0
ENDSEC
  0
EOF
