  0
SECTION
  2
HEADER
  9
$ACADVER
  1
AC1015
  9
$ACADMAINTVER
 70
    20
  9
$DWGCODEPAGE
  3
ANSI_932
  9
$INSBASE
 10
0.0
 20
0.0
 30
0.0
  9
$EXTMIN
 10
9.9999975266385
 20
10.0
 30
0.0
  9
$EXTMAX
 10
577.6457943960077
 20
310.2500000001132
 30
0.0
  9
$LIMMIN
 10
0.0000015376081137
 20
-0.0000001931532552
  9
$LIMMAX
 10
645.0000015376082
 20
444.6590907159374
  9
$ORTHOMODE
 70
     1
  9
$REGENMODE
 70
     1
  9
$FILLMODE
 70
     1
  9
$QTEXTMODE
 70
     0
  9
$MIRRTEXT
 70
     1
  9
$LTSCALE
 40
1.0
  9
$ATTMODE
 70
     1
  9
$TEXTSIZE
 40
2.5
  9
$TRACEWID
 40
1.0
  9
$TEXTSTYLE
  7
STANDARD
  9
$CLAYER
  8
0
  9
$CELTYPE
  6
BYLAYER
  9
$CECOLOR
 62
   256
  9
$CELTSCALE
 40
1.0
  9
$DISPSILH
 70
     0
  9
$DIMSCALE
 40
1.0
  9
$DIMASZ
 40
3.0
  9
$DIMEXO
 40
1.0
  9
$DIMDLI
 40
10.0
  9
$DIMRND
 40
0.0
  9
$DIMDLE
 40
0.0
  9
$DIMEXE
 40
1.0
  9
$DIMTP
 40
0.0
  9
$DIMTM
 40
0.0
  9
$DIMTXT
 40
3.2
  9
$DIMCEN
 40
0.0
  9
$DIMTSZ
 40
0.0
  9
$DIMTOL
 70
     0
  9
$DIMLIM
 70
     0
  9
$DIMTIH
 70
     0
  9
$DIMTOH
 70
     0
  9
$DIMSE1
 70
     0
  9
$DIMSE2
 70
     0
  9
$DIMTAD
 70
     3
  9
$DIMZIN
 70
     8
  9
$DIMBLK
  1

  9
$DIMASO
 70
     1
  9
$DIMSHO
 70
     1
  9
$DIMPOST
  1

  9
$DIMAPOST
  1

  9
$DIMALT
 70
     0
  9
$DIMALTD
 70
     2
  9
$DIMALTF
 40
25.4
  9
$DIMLFAC
 40
1.0
  9
$DIMTOFL
 70
     1
  9
$DIMTVP
 40
0.0
  9
$DIMTIX
 70
     0
  9
$DIMSOXD
 70
     0
  9
$DIMSAH
 70
     1
  9
$DIMBLK1
  1
OPEN
  9
$DIMBLK2
  1
OPEN
  9
$DIMSTYLE
  2
STANDARD
  9
$DIMCLRD
 70
     0
  9
$DIMCLRE
 70
     0
  9
$DIMCLRT
 70
     0
  9
$DIMTFAC
 40
1.0
  9
$DIMGAP
 40
1.0
  9
$DIMJUST
 70
     0
  9
$DIMSD1
 70
     0
  9
$DIMSD2
 70
     0
  9
$DIMTOLJ
 70
     1
  9
$DIMTZIN
 70
     0
  9
$DIMALTZ
 70
     0
  9
$DIMALTTZ
 70
     0
  9
$DIMUPT
 70
     0
  9
$DIMDEC
 70
     4
  9
$DIMTDEC
 70
     4
  9
$DIMALTU
 70
     2
  9
$DIMALTTD
 70
     2
  9
$DIMTXSTY
  7
STANDARD
  9
$DIMAUNIT
 70
     0
  9
$DIMADEC
 70
     0
  9
$DIMALTRND
 40
0.0
  9
$DIMAZIN
 70
     0
  9
$DIMDSEP
 70
    46
  9
$DIMATFIT
 70
     3
  9
$DIMFRAC
 70
     0
  9
$DIMLDRBLK
  1
OPEN
  9
$DIMLUNIT
 70
     2
  9
$DIMLWD
 70
    -2
  9
$DIMLWE
 70
    -2
  9
$DIMTMOVE
 70
     0
  9
$LUNITS
 70
     2
  9
$LUPREC
 70
     4
  9
$SKETCHINC
 40
1.0
  9
$FILLETRAD
 40
3.0
  9
$AUNITS
 70
     0
  9
$AUPREC
 70
     0
  9
$MENU
  1
.
  9
$ELEVATION
 40
0.0
  9
$PELEVATION
 40
0.0
  9
$THICKNESS
 40
0.0
  9
$LIMCHECK
 70
     0
  9
$CHAMFERA
 40
10.0
  9
$CHAMFERB
 40
10.0
  9
$CHAMFERC
 40
20.0
  9
$CHAMFERD
 40
0.0
  9
$SKPOLY
 70
     0
  9
$TDCREATE
 40
2452051.395592083
  9
$TDUCREATE
 40
2452051.020592084
  9
$TDUPDATE
 40
2457192.642875857
  9
$TDUUPDATE
 40
2457192.267875856
  9
$TDINDWG
 40
0.5587091435
  9
$TDUSRTIMER
 40
0.5587091319
  9
$USRTIMER
 70
     1
  9
$ANGBASE
 50
0.0
  9
$ANGDIR
 70
     0
  9
$PDMODE
 70
     0
  9
$PDSIZE
 40
0.0
  9
$PLINEWID
 40
0.0
  9
$SPLFRAME
 70
     0
  9
$SPLINETYPE
 70
     6
  9
$SPLINESEGS
 70
     8
  9
$HANDSEED
  5
9AB2
  9
$SURFTAB1
 70
     6
  9
$SURFTAB2
 70
     6
  9
$SURFTYPE
 70
     6
  9
$SURFU
 70
     6
  9
$SURFV
 70
     6
  9
$UCSBASE
  2

  9
$UCSNAME
  2

  9
$UCSORG
 10
0.0
 20
0.0
 30
0.0
  9
$UCSXDIR
 10
1.0
 20
0.0
 30
0.0
  9
$UCSYDIR
 10
0.0
 20
1.0
 30
0.0
  9
$UCSORTHOREF
  2

  9
$UCSORTHOVIEW
 70
     0
  9
$UCSORGTOP
 10
0.0
 20
0.0
 30
0.0
  9
$UCSORGBOTTOM
 10
0.0
 20
0.0
 30
0.0
  9
$UCSORGLEFT
 10
0.0
 20
0.0
 30
0.0
  9
$UCSORGRIGHT
 10
0.0
 20
0.0
 30
0.0
  9
$UCSORGFRONT
 10
0.0
 20
0.0
 30
0.0
  9
$UCSORGBACK
 10
0.0
 20
0.0
 30
0.0
  9
$PUCSBASE
  2

  9
$PUCSNAME
  2

  9
$PUCSORG
 10
0.0
 20
0.0
 30
0.0
  9
$PUCSXDIR
 10
1.0
 20
0.0
 30
0.0
  9
$PUCSYDIR
 10
0.0
 20
1.0
 30
0.0
  9
$PUCSORTHOREF
  2

  9
$PUCSORTHOVIEW
 70
     0
  9
$PUCSORGTOP
 10
0.0
 20
0.0
 30
0.0
  9
$PUCSORGBOTTOM
 10
0.0
 20
0.0
 30
0.0
  9
$PUCSORGLEFT
 10
0.0
 20
0.0
 30
0.0
  9
$PUCSORGRIGHT
 10
0.0
 20
0.0
 30
0.0
  9
$PUCSORGFRONT
 10
0.0
 20
0.0
 30
0.0
  9
$PUCSORGBACK
 10
0.0
 20
0.0
 30
0.0
  9
$USERI1
 70
     0
  9
$USERI2
 70
     0
  9
$USERI3
 70
     0
  9
$USERI4
 70
     0
  9
$USERI5
 70
     0
  9
$USERR1
 40
0.0
  9
$USERR2
 40
0.0
  9
$USERR3
 40
0.0
  9
$USERR4
 40
0.0
  9
$USERR5
 40
0.0
  9
$WORLDVIEW
 70
     1
  9
$SHADEDGE
 70
     3
  9
$SHADEDIF
 70
    70
  9
$TILEMODE
 70
     1
  9
$MAXACTVP
 70
    48
  9
$PINSBASE
 10
0.0
 20
0.0
 30
0.0
  9
$PLIMCHECK
 70
     0
  9
$PEXTMIN
 10
1.000000000000000E+20
 20
1.000000000000000E+20
 30
1.000000000000000E+20
  9
$PEXTMAX
 10
-1.000000000000000E+20
 20
-1.000000000000000E+20
 30
-1.000000000000000E+20
  9
$PLIMMIN
 10
0.0
 20
0.0
  9
$PLIMMAX
 10
420.0
 20
297.0
  9
$UNITMODE
 70
     0
  9
$VISRETAIN
 70
     1
  9
$PLINEGEN
 70
     0
  9
$PSLTSCALE
 70
     1
  9
$TREEDEPTH
 70
  3020
  9
$CMLSTYLE
  2
STANDARD
  9
$CMLJUST
 70
     0
  9
$CMLSCALE
 40
20.0
  9
$PROXYGRAPHICS
 70
     1
  9
$MEASUREMENT
 70
     0
  9
$CELWEIGHT
370
    -1
  9
$ENDCAPS
280
     0
  9
$JOINSTYLE
280
     0
  9
$LWDISPLAY
290
     0
  9
$INSUNITS
 70
     0
  9
$HYPERLINKBASE
  1

  9
$STYLESHEET
  1

  9
$XEDIT
290
     1
  9
$CEPSNTYPE
380
     0
  9
$PSTYLEMODE
290
     1
  9
$FINGERPRINTGUID
  2
{03E79BCA-3D0B-4487-AD49-9CE260ABBACF}
  9
$VERSIONGUID
  2
{DDE2BB1E-41E7-4E6C-9C2E-C8B2754AD469}
  9
$EXTNAMES
290
     1
  9
$PSVPSCALE
 40
0.0
  9
$OLESTARTUP
290
     0
  0
ENDSEC
  0
SECTION
  2
CLASSES
  0
CLASS
  1
ACDBDICTIONARYWDFLT
  2
AcDbDictionaryWithDefault
  3
ObjectDBX Classes
 90
        0
280
     0
281
     0
  0
CLASS
  1
ACDBPLACEHOLDER
  2
AcDbPlaceHolder
  3
ObjectDBX Classes
 90
        0
280
     0
281
     0
  0
CLASS
  1
LAYOUT
  2
AcDbLayout
  3
ObjectDBX Classes
 90
        0
280
     0
281
     0
  0
CLASS
  1
DICTIONARYVAR
  2
AcDbDictionaryVar
  3
ObjectDBX Classes
 90
        0
280
     0
281
     0
  0
CLASS
  1
MATERIAL
  2
AcDbMaterial
  3
ObjectDBX Classes
 90
     1153
280
     0
281
     0
  0
CLASS
  1
VISUALSTYLE
  2
AcDbVisualStyle
  3
ObjectDBX Classes
 90
     4095
280
     0
281
     0
  0
CLASS
  1
TABLESTYLE
  2
AcDbTableStyle
  3
ObjectDBX Classes
 90
     4095
280
     0
281
     0
  0
CLASS
  1
SCALE
  2
AcDbScale
  3
ObjectDBX Classes
 90
     1153
280
     0
281
     0
  0
CLASS
  1
MLEADERSTYLE
  2
AcDbMLeaderStyle
  3
ACDB_MLEADERSTYLE_CLASS
 90
     4095
280
     0
281
     0
  0
CLASS
  1
ACDBSECTIONVIEWSTYLE
  2
AcDbSectionViewStyle
  3
ObjectDBX Classes
 90
     1025
280
     0
281
     0
  0
CLASS
  1
ACDBDETAILVIEWSTYLE
  2
AcDbDetailViewStyle
  3
ObjectDBX Classes
 90
     1025
280
     0
281
     0
  0
CLASS
  1
CELLSTYLEMAP
  2
AcDbCellStyleMap
  3
ObjectDBX Classes
 90
     1152
280
     0
281
     0
  0
ENDSEC
  0
SECTION
  2
TABLES
  0
TABLE
  2
VPORT
  5
8
330
0
100
AcDbSymbolTable
 70
     1
  0
VPORT
  5
99FC
330
8
100
AcDbSymbolTableRecord
100
AcDbViewportTableRecord
  2
*ACTIVE
 70
     0
 10
0.0
 20
0.0
 11
1.0
 21
1.0
 12
445.8014095989097
 22
160.128432089928
 13
0.0
 23
0.0
 14
10.0
 24
10.0
 15
10.0
 25
10.0
 16
0.0
 26
0.0
 36
1.0
 17
0.0
 27
0.0
 37
0.0
 40
372.1638647834803
 41
1.899603698811096
 42
50.0
 43
0.0
 44
0.0
 50
0.0
 51
0.0
 71
     0
 72
   100
 73
     1
 74
     0
 75
     0
 76
     0
 77
     0
 78
     0
281
     0
 65
     1
110
0.0
120
0.0
130
0.0
111
1.0
121
0.0
131
0.0
112
0.0
122
1.0
132
0.0
 79
     0
146
0.0
1001
ACAD_NAV_VCDISPLAY
1070
     3
  0
ENDTAB
  0
TABLE
  2
LTYPE
  5
5
330
0
100
AcDbSymbolTable
 70
     4
  0
LTYPE
  5
12
330
5
100
AcDbSymbolTableRecord
100
AcDbLinetypeTableRecord
  2
BYBLOCK
 70
     0
  3

 72
    65
 73
     0
 40
0.0
  0
LTYPE
  5
13
330
5
100
AcDbSymbolTableRecord
100
AcDbLinetypeTableRecord
  2
BYLAYER
 70
     0
  3

 72
    65
 73
     0
 40
0.0
  0
LTYPE
  5
14
330
5
100
AcDbSymbolTableRecord
100
AcDbLinetypeTableRecord
  2
CONTINUOUS
 70
     0
  3
Solid line
 72
    65
 73
     0
 40
0.0
  0
LTYPE
  5
4B
330
5
100
AcDbSymbolTableRecord
100
AcDbLinetypeTableRecord
  2
DASHED
 70
     0
  3
Dashed __ __ __ __ __ __ __ __ __ __ __ __ __ _
 72
    65
 73
     2
 40
19.04999999999999
 49
12.7
 74
     0
 49
-6.349999999999998
 74
     0
  0
LTYPE
  5
4C
330
5
100
AcDbSymbolTableRecord
100
AcDbLinetypeTableRecord
  2
CENTER
 70
     0
  3
Center ____ _ ____ _ ____ _ ____ _ ____ _ ____
 72
    65
 73
     4
 40
50.8
 49
31.75
 74
     0
 49
-6.349999999999998
 74
     0
 49
6.349999999999998
 74
     0
 49
-6.349999999999998
 74
     0
  0
LTYPE
  5
4D
330
5
100
AcDbSymbolTableRecord
100
AcDbLinetypeTableRecord
  2
PHANTOM
 70
     0
  3
Phantom ______  __  __  ______  __  __  ______
 72
    65
 73
     6
 40
63.5
 49
31.75
 74
     0
 49
-6.349999999999998
 74
     0
 49
6.349999999999998
 74
     0
 49
-6.349999999999998
 74
     0
 49
6.349999999999998
 74
     0
 49
-6.349999999999998
 74
     0
  0
ENDTAB
  0
TABLE
  2
LAYER
  5
2
330
0
100
AcDbSymbolTable
 70
     8
  0
LAYER
  5
E
102
{ACAD_XDICTIONARY
360
9A56
102
}
330
2
100
AcDbSymbolTableRecord
100
AcDbLayerTableRecord
  2
0
 70
     0
 62
     7
  6
CONTINUOUS
370
    -3
390
9A05
  0
LAYER
  5
4E
102
{ACAD_XDICTIONARY
360
9A58
102
}
330
2
100
AcDbSymbolTableRecord
100
AcDbLayerTableRecord
  2
4
 70
     0
 62
     1
  6
CENTER
370
    -3
390
9A05
  0
LAYER
  5
4F
102
{ACAD_XDICTIONARY
360
9A5A
102
}
330
2
100
AcDbSymbolTableRecord
100
AcDbLayerTableRecord
  2
5
 70
     0
 62
     6
  6
PHANTOM
370
    -3
390
9A05
  0
LAYER
  5
50
102
{ACAD_XDICTIONARY
360
9A5C
102
}
330
2
100
AcDbSymbolTableRecord
100
AcDbLayerTableRecord
  2
1
 70
     0
 62
     7
  6
CONTINUOUS
370
    -3
390
9A05
  0
LAYER
  5
51
102
{ACAD_XDICTIONARY
360
9A5E
102
}
330
2
100
AcDbSymbolTableRecord
100
AcDbLayerTableRecord
  2
2
 70
     0
 62
     4
  6
CONTINUOUS
370
    -3
390
9A05
  0
LAYER
  5
52
102
{ACAD_XDICTIONARY
360
9A60
102
}
330
2
100
AcDbSymbolTableRecord
100
AcDbLayerTableRecord
  2
3
 70
     0
 62
     2
  6
DASHED
370
    -3
390
9A05
  0
LAYER
  5
53
102
{ACAD_XDICTIONARY
360
9A62
102
}
330
2
100
AcDbSymbolTableRecord
100
AcDbLayerTableRecord
  2
6
 70
     0
 62
     5
  6
CONTINUOUS
370
    -3
390
9A05
  0
LAYER
  5
54
102
{ACAD_XDICTIONARY
360
9A64
102
}
330
2
100
AcDbSymbolTableRecord
100
AcDbLayerTableRecord
  2
7
 70
     0
 62
     3
  6
CONTINUOUS
370
    -3
390
9A05
  0
ENDTAB
  0
TABLE
  2
STYLE
  5
3
330
0
100
AcDbSymbolTable
 70
     1
  0
STYLE
  5
F
330
3
100
AcDbSymbolTableRecord
100
AcDbTextStyleTableRecord
  2
STANDARD
 70
     0
 40
0.0
 41
1.0
 50
0.0
 71
     0
 42
2.5
  3
simplex.shx
  4

  0
ENDTAB
  0
TABLE
  2
VIEW
  5
6
330
0
100
AcDbSymbolTable
 70
     0
  0
ENDTAB
  0
TABLE
  2
UCS
  5
7
330
0
100
AcDbSymbolTable
 70
     0
  0
ENDTAB
  0
TABLE
  2
APPID
  5
9
330
0
100
AcDbSymbolTable
 70
     5
  0
APPID
  5
10
330
9
100
AcDbSymbolTableRecord
100
AcDbRegAppTableRecord
  2
ACAD
 70
     0
  0
APPID
  5
3E
330
9
100
AcDbSymbolTableRecord
100
AcDbRegAppTableRecord
  2
CONTENTTABDATA
 70
     0
  0
APPID
  5
3F
330
9
100
AcDbSymbolTableRecord
100
AcDbRegAppTableRecord
  2
CONTENTCURRENTTAB
 70
     0
  0
APPID
  5
9A70
330
9
100
AcDbSymbolTableRecord
100
AcDbRegAppTableRecord
  2
ACAD_NAV_VCDISPLAY
 70
     0
  0
APPID
  5
9AA9
330
9
100
AcDbSymbolTableRecord
100
AcDbRegAppTableRecord
  2
ACAD_MLEADERVER
 70
     0
  0
ENDTAB
  0
TABLE
  2
DIMSTYLE
  5
A
330
0
100
AcDbSymbolTable
 70
     1
100
AcDbDimStyleTable
 71
     0
  0
DIMSTYLE
105
1D
330
A
100
AcDbSymbolTableRecord
100
AcDbDimStyleTableRecord
  2
STANDARD
 70
     0
 41
3.0
 42
1.0
 43
10.0
 44
1.0
 73
     0
 74
     0
 77
     3
 78
     8
140
3.2
141
0.0
147
1.0
172
     1
173
     1
340
F
341
2E
343
2E
344
2E
  0
ENDTAB
  0
TABLE
  2
BLOCK_RECORD
  5
1
330
0
100
AcDbSymbolTable
 70
     1
  0
BLOCK_RECORD
  5
18
102
{ACAD_XDICTIONARY
360
99FF
102
}
330
1
100
AcDbSymbolTableRecord
100
AcDbBlockTableRecord
  2
*MODEL_SPACE
340
9A53
  0
BLOCK_RECORD
  5
15
102
{ACAD_XDICTIONARY
360
99FD
102
}
330
1
100
AcDbSymbolTableRecord
100
AcDbBlockTableRecord
  2
*PAPER_SPACE
340
9A54
  0
BLOCK_RECORD
  5
2E
330
1
100
AcDbSymbolTableRecord
100
AcDbBlockTableRecord
  2
_OPEN
340
0
  0
ENDTAB
  0
ENDSEC
  0
SECTION
  2
BLOCKS
  0
BLOCK
  5
19
330
18
100
AcDbEntity
  8
0
100
AcDbBlockBegin
  2
*MODEL_SPACE
 70
     0
 10
0.0
 20
0.0
 30
0.0
  3
*MODEL_SPACE
  1

  0
ENDBLK
  5
1A
330
18
100
AcDbEntity
  8
0
100
AcDbBlockEnd
  0
BLOCK
  5
16
330
15
100
AcDbEntity
 67
     1
  8
0
100
AcDbBlockBegin
  2
*PAPER_SPACE
 70
     0
 10
0.0
 20
0.0
 30
0.0
  3
*PAPER_SPACE
  1

  0
ENDBLK
  5
17
330
15
100
AcDbEntity
 67
     1
  8
0
100
AcDbBlockEnd
  0
BLOCK
  5
2F
330
2E
100
AcDbEntity
  8
0
100
AcDbBlockBegin
  2
_OPEN
 70
     0
 10
0.0
 20
0.0
 30
0.0
  3
_OPEN
  1

  0
LINE
  5
30
330
2E
100
AcDbEntity
  8
0
  6
ByBlock
 62
     0
100
AcDbLine
 10
-1.0
 20
0.1666666666666666
 30
0.0
 11
0.0
 21
0.0
 31
0.0
  0
LINE
  5
31
330
2E
100
AcDbEntity
  8
0
  6
ByBlock
 62
     0
100
AcDbLine
 10
0.0
 20
0.0
 30
0.0
 11
-1.0
 21
-0.1666666666666666
 31
0.0
  0
LINE
  5
32
330
2E
100
AcDbEntity
  8
0
  6
ByBlock
 62
     0
100
AcDbLine
 10
0.0
 20
0.0
 30
0.0
 11
-1.0
 21
0.0
 31
0.0
  0
ENDBLK
  5
33
330
2E
100
AcDbEntity
  8
0
100
AcDbBlockEnd
  0
ENDSEC
  0
SECTION
  2
ENTITIES
  0
TEXT
  5
63
330
18
100
AcDbEntity
  8
4
  6
CENTER
 48
0.25
100
AcDbText
 10
23.97950852663849
 20
10.0
 30
0.0
 40
1.399999999999999
  1
4
100
AcDbText
  0
TEXT
  5
64
330
18
100
AcDbEntity
  8
7
  6
Continuous
 48
0.25
100
AcDbText
 10
9.999997526638502
 20
26.0000007607689
 30
0.0
 40
3.0
  1
CODE No.13192
100
AcDbText
  0
TEXT
  5
65
330
18
100
AcDbEntity
  8
7
  6
Continuous
 48
0.25
100
AcDbText
 10
9.999997526638502
 20
18.00000076076889
 30
0.0
 40
3.0
  1
TYPE No.THA-429S-2
100
AcDbText
  0
TEXT
  5
66
330
18
100
AcDbEntity
  8
1
  6
Continuous
 48
0.25
100
AcDbText
 10
9.999997526638502
 20
10.00000076076889
 30
0.0
 40
1.399999999999999
  1
LAYER
100
AcDbText
  0
TEXT
  5
67
330
18
100
AcDbEntity
  8
2
  6
Continuous
 48
0.25
100
AcDbText
 10
19.9795085266385
 20
10.0
 30
0.0
 40
1.399999999999999
  1
2
100
AcDbText
  0
TEXT
  5
68
330
18
100
AcDbEntity
  8
3
  6
DASHED
 48
0.25
100
AcDbText
 10
21.9795085266385
 20
10.0
 30
0.0
 40
1.399999999999999
  1
3
100
AcDbText
  0
TEXT
  5
69
330
18
100
AcDbEntity
  8
1
  6
Continuous
 48
0.25
100
AcDbText
 10
17.9795085266385
 20
10.0
 30
0.0
 40
1.399999999999999
  1
1
100
AcDbText
  0
TEXT
  5
6A
330
18
100
AcDbEntity
  8
5
  6
PHANTOM
 48
0.25
100
AcDbText
 10
25.9795085266385
 20
10.0
 30
0.0
 40
1.399999999999999
  1
5
100
AcDbText
  0
TEXT
  5
6B
330
18
100
AcDbEntity
  8
6
  6
Continuous
 48
0.25
100
AcDbText
 10
27.9795085266385
 20
10.0
 30
0.0
 40
1.399999999999999
  1
6
100
AcDbText
  0
TEXT
  5
6C
330
18
100
AcDbEntity
  8
7
  6
Continuous
 48
0.25
100
AcDbText
 10
29.9795085266385
 20
10.0
 30
0.0
 40
1.399999999999999
  1
7
100
AcDbText
  0
LINE
  5
89AB
330
18
100
AcDbEntity
  8
5
  6
PHANTOM
 48
0.1
100
AcDbLine
 10
211.8550709391712
 20
273.451721420128
 30
0.0
 11
225.4084065854432
 21
265.7388281952478
 31
0.0
  0
LINE
  5
89AC
330
18
100
AcDbEntity
  8
5
  6
PHANTOM
 48
0.1
100
AcDbLine
 10
228.5927218631353
 20
273.2625596989082
 30
0.0
 11
224.5795595082761
 21
266.2105061033869
 31
0.0
  0
ARC
  5
89B1
330
18
100
AcDbEntity
  8
5
  6
PHANTOM
 48
0.1
100
AcDbCircle
 10
438.9508670945706
 20
652.00873597579
 30
0.0
 40
444.8333000000001
100
AcDbArc
 50
238.2570865972886
 51
241.3644874950406
  0
LINE
  5
89CC
330
18
100
AcDbEntity
  8
1
  6
Continuous
100
AcDbLine
 10
65.75000027150361
 20
141.999999999854
 30
0.0
 11
65.7500002713906
 21
217.9999999998251
 31
0.0
  0
LINE
  5
89CD
330
18
100
AcDbEntity
  8
1
  6
Continuous
100
AcDbLine
 10
46.75000027150644
 20
139.9999999998276
 30
0.0
 11
46.75000027138763
 21
219.9999999997969
 31
0.0
  0
LINE
  5
89CE
330
18
100
AcDbEntity
  8
1
  6
Continuous
100
AcDbLine
 10
79.2326479881127
 20
218.0
 30
0.0
 11
79.23264798826458
 21
142.0
 31
0.0
  0
LINE
  5
89CF
330
18
100
AcDbEntity
  8
1
  6
Continuous
100
AcDbLine
 10
75.75000027138822
 20
226.0000000004156
 30
0.0
 11
75.75000027138822
 21
134.0000000004156
 31
0.0
  0
LINE
  5
89D0
330
18
100
AcDbEntity
  8
1
  6
Continuous
100
AcDbLine
 10
80.25000027145404
 20
225.0000000004138
 30
0.0
 11
80.25000027145404
 21
135.0000000004138
 31
0.0
  0
LINE
  5
89D1
330
18
100
AcDbEntity
  8
1
  6
Continuous
100
AcDbLine
 10
74.75000027138822
 20
226.0000000004156
 30
0.0
 11
74.75000027138822
 21
134.0000000004156
 31
0.0
  0
LINE
  5
89D2
330
18
100
AcDbEntity
  8
4
  6
CENTER
 48
0.5
100
AcDbLine
 10
40.0
 20
180.0
 30
0.0
 11
87.00000054290113
 21
180.0
 31
0.0
  0
LINE
  5
89D5
330
18
100
AcDbEntity
  8
1
  6
Continuous
100
AcDbLine
 10
63.75000027150349
 20
139.9999999998508
 30
0.0
 11
46.75000027152486
 21
139.9999999998535
 31
0.0
  0
LINE
  5
89D7
330
18
100
AcDbEntity
  8
1
  6
Continuous
100
AcDbLine
 10
74.75000027138822
 20
139.0
 30
0.0
 11
63.95000027145226
 21
139.0
 31
0.0
  0
ARC
  5
89D8
330
18
100
AcDbEntity
  8
1
  6
Continuous
100
AcDbCircle
 10
63.95000027145226
 20
144.0
 30
0.0
 40
5.0
100
AcDbArc
 50
233.1301023569914
 51
270.0
  0
ARC
  5
89D9
330
18
100
AcDbEntity
  8
1
  6
Continuous
100
AcDbCircle
 10
63.75000027150349
 20
141.9999999998508
 30
0.0
 40
2.0
100
AcDbArc
 50
270.0
 51
0.0
  0
ARC
  5
89DA
330
18
100
AcDbEntity
  8
1
  6
Continuous
100
AcDbCircle
 10
79.25000027145404
 20
135.0000000004138
 30
0.0
 40
1.0
100
AcDbArc
 50
270.0
 51
0.0
  0
LINE
  5
89DB
330
18
100
AcDbEntity
  8
1
  6
Continuous
100
AcDbLine
 10
79.25000027145586
 20
134.0000000004138
 30
0.0
 11
75.7500002715566
 21
134.0000000004072
 31
0.0
  0
LINE
  5
89DC
330
18
100
AcDbEntity
  8
1
  6
Continuous
100
AcDbLine
 10
74.75000027138822
 20
134.0000000004156
 30
0.0
 11
75.75000027138753
 21
134.0000000004142
 31
0.0
  0
ARC
  5
89DD
330
18
100
AcDbEntity
  8
1
  6
Continuous
100
AcDbCircle
 10
79.75000027145404
 20
141.5
 30
0.0
 40
0.5
100
AcDbArc
 50
0.0
 51
90.0
  0
LINE
  5
89DE
330
18
100
AcDbEntity
  8
1
  6
Continuous
100
AcDbLine
 10
79.75000027145404
 20
142.0
 30
0.0
 11
79.23264798826472
 21
142.0
 31
0.0
  0
LINE
  5
89DF
330
18
100
AcDbEntity
  8
1
  6
Continuous
100
AcDbLine
 10
79.25000027145404
 20
142.5
 30
0.0
 11
79.23264798826358
 21
142.5
 31
0.0
  0
ARC
  5
89E0
330
18
100
AcDbEntity
  8
1
  6
Continuous
100
AcDbCircle
 10
79.25000027145404
 20
143.5
 30
0.0
 40
1.0
100
AcDbArc
 50
270.0
 51
0.0
  0
LINE
  5
89E1
330
18
100
AcDbEntity
  8
1
  6
Continuous
100
AcDbLine
 10
57.75000027144606
 20
187.0000000000215
 30
0.0
 11
49.75000027144607
 21
187.0000000000134
 31
0.0
  0
LINE
  5
89E2
330
18
100
AcDbEntity
  8
1
  6
Continuous
100
AcDbLine
 10
46.7500002714364
 20
187.1999999999998
 30
0.0
 11
58.95000027143634
 21
187.2000000000091
 31
0.0
  0
LINE
  5
89E3
330
18
100
AcDbEntity
  8
1
  6
Continuous
100
AcDbLine
 10
58.95000027145465
 20
187.0999999999999
 30
0.0
 11
48.75000027149178
 21
187.0999999999999
 31
0.0
  0
LINE
  5
89E4
330
18
100
AcDbEntity
  8
4
  6
CENTER
 48
0.1
100
AcDbLine
 10
61.25000027149154
 20
149.9999999999545
 30
0.0
 11
52.25000027149154
 21
149.9999999999545
 31
0.0
  0
CIRCLE
  5
89E5
330
18
100
AcDbEntity
  8
2
  6
Continuous
100
AcDbCircle
 10
56.75000027149154
 20
149.9999999999545
 30
0.0
 40
2.5
  0
CIRCLE
  5
89E6
330
18
100
AcDbEntity
  8
1
  6
Continuous
100
AcDbCircle
 10
56.75000027149154
 20
149.9999999999545
 30
0.0
 40
2.066999999999999
  0
LINE
  5
89E7
330
18
100
AcDbEntity
  8
1
  6
Continuous
100
AcDbLine
 10
57.75000027144663
 20
173.0000000000232
 30
0.0
 11
49.75000027144663
 21
173.0000000000263
 31
0.0
  0
LINE
  5
89E8
330
18
100
AcDbEntity
  8
1
  6
Continuous
100
AcDbLine
 10
46.75000027145777
 20
172.7999999998937
 30
0.0
 11
58.95000027145782
 21
172.7999999999033
 31
0.0
  0
LINE
  5
89E9
330
18
100
AcDbEntity
  8
1
  6
Continuous
100
AcDbLine
 10
58.95000027145375
 20
172.8999999999998
 30
0.0
 11
48.75000027149837
 21
172.8999999999998
 31
0.0
  0
LINE
  5
89EB
330
18
100
AcDbEntity
  8
1
  6
Continuous
100
AcDbLine
 10
48.75000027144711
 20
186.0000000000134
 30
0.0
 11
48.75000027144711
 21
174.0000000000265
 31
0.0
  0
LINE
  5
89EC
330
18
100
AcDbEntity
  8
1
  6
Continuous
100
AcDbLine
 10
48.75000027145778
 20
172.7999999998953
 30
0.0
 11
48.75000027143642
 21
187.2000000000014
 31
0.0
  0
ARC
  5
89ED
330
18
100
AcDbEntity
  8
1
  6
Continuous
100
AcDbCircle
 10
49.75000027144711
 20
174.0000000000265
 30
0.0
 40
1.0
100
AcDbArc
 50
180.0
 51
270.0
  0
ARC
  5
89EE
330
18
100
AcDbEntity
  8
1
  6
Continuous
100
AcDbCircle
 10
48.75000027144697
 20
179.9999999998141
 30
0.0
 40
2.499999999999915
100
AcDbArc
 50
143.1301023541505
 51
216.8698976458415
  0
LINE
  5
89EF
330
18
100
AcDbEntity
  8
2
  6
Continuous
100
AcDbLine
 10
51.25000027142528
 20
178.9999999998146
 30
0.0
 11
51.25000027142537
 21
180.9999999998146
 31
0.0
  0
LINE
  5
89F0
330
18
100
AcDbEntity
  8
2
  6
Continuous
100
AcDbLine
 10
50.75000027142528
 20
178.4999999998144
 30
0.0
 11
50.75000027142539
 21
181.4999999998144
 31
0.0
  0
LINE
  5
89F1
330
18
100
AcDbEntity
  8
1
  6
Continuous
100
AcDbLine
 10
51.75000027144936
 20
178.45
 30
0.0
 11
51.75000027144482
 21
181.5499999999997
 31
0.0
  0
LINE
  5
89F2
330
18
100
AcDbEntity
  8
2
  6
Continuous
100
AcDbLine
 10
51.25000027142528
 20
178.9999999998144
 30
0.0
 11
50.75000027142504
 21
178.4999999998142
 31
0.0
  0
LINE
  5
89F3
330
18
100
AcDbEntity
  8
1
  6
Continuous
100
AcDbLine
 10
51.75000027144936
 20
178.45
 30
0.0
 11
48.75000027144711
 21
178.45
 31
0.0
  0
LINE
  5
89F4
330
18
100
AcDbEntity
  8
2
  6
Continuous
100
AcDbLine
 10
50.75000027142528
 20
178.4999999998144
 30
0.0
 11
48.75000027141823
 21
178.4999999998137
 31
0.0
  0
LINE
  5
89F5
330
18
100
AcDbEntity
  8
2
  6
Continuous
100
AcDbLine
 10
51.25000027142551
 20
180.9999999998146
 30
0.0
 11
50.75000027142571
 21
181.4999999998144
 31
0.0
  0
ARC
  5
89F6
330
18
100
AcDbEntity
  8
1
  6
Continuous
100
AcDbCircle
 10
49.75000027144711
 20
186.0000000000134
 30
0.0
 40
1.0
100
AcDbArc
 50
90.0
 51
180.0
  0
LINE
  5
89F7
330
18
100
AcDbEntity
  8
1
  6
Continuous
100
AcDbLine
 10
51.75000027144482
 20
181.5499999999999
 30
0.0
 11
48.75000027144711
 21
181.5499999999999
 31
0.0
  0
LINE
  5
89F8
330
18
100
AcDbEntity
  8
2
  6
Continuous
100
AcDbLine
 10
50.75000027142539
 20
181.4999999998144
 30
0.0
 11
48.75000027141709
 21
181.4999999998137
 31
0.0
  0
LINE
  5
89F9
330
18
100
AcDbEntity
  8
4
  6
CENTER
 48
0.1
100
AcDbLine
 10
56.75000027149154
 20
145.4999999999545
 30
0.0
 11
56.75000027149154
 21
154.4999999999545
 31
0.0
  0
LINE
  5
89FA
330
18
100
AcDbEntity
  8
1
  6
Continuous
100
AcDbLine
 10
57.75000027144709
 20
186.0000000000216
 30
0.0
 11
57.75000027144709
 21
174.0000000000232
 31
0.0
  0
LINE
  5
89FB
330
18
100
AcDbEntity
  8
1
  6
Continuous
100
AcDbLine
 10
58.75000027144711
 20
186.0000000000216
 30
0.0
 11
58.75000027144711
 21
174.0000000000232
 31
0.0
  0
LINE
  5
89FC
330
18
100
AcDbEntity
  8
1
  6
Continuous
100
AcDbLine
 10
60.95000027145783
 20
172.7999999999062
 30
0.0
 11
60.95000027143634
 21
187.2000000000123
 31
0.0
  0
LINE
  5
89FD
330
18
100
AcDbEntity
  8
1
  6
Continuous
100
AcDbLine
 10
58.95000027145782
 20
172.7999999999033
 30
0.0
 11
58.95000027143634
 21
187.2000000000091
 31
0.0
  0
LINE
  5
89FE
330
18
100
AcDbEntity
  8
1
  6
Continuous
100
AcDbLine
 10
58.95000027145465
 20
187.0999999999999
 30
0.0
 11
58.9500002714494
 21
172.8999999999805
 31
0.0
  0
LINE
  5
89FF
330
18
100
AcDbEntity
  8
1
  6
Continuous
100
AcDbLine
 10
58.95000027145021
 20
174.8999999999998
 30
0.0
 11
58.75000027144711
 21
174.8999999999998
 31
0.0
  0
LINE
  5
8A00
330
18
100
AcDbEntity
  8
1
  6
Continuous
100
AcDbLine
 10
60.95000027145783
 20
172.7999999999062
 30
0.0
 11
58.95000027146011
 21
172.7999999999037
 31
0.0
  0
ARC
  5
8A01
330
18
100
AcDbEntity
  8
1
  6
Continuous
100
AcDbCircle
 10
57.75000027144709
 20
174.0000000000232
 30
0.0
 40
1.0
100
AcDbArc
 50
270.0
 51
0.0
  0
LINE
  5
8A02
330
18
100
AcDbEntity
  8
1
  6
Continuous
100
AcDbLine
 10
58.95000027145385
 20
185.0999999999999
 30
0.0
 11
58.75000027144711
 21
185.0999999999999
 31
0.0
  0
LINE
  5
8A03
330
18
100
AcDbEntity
  8
1
  6
Continuous
100
AcDbLine
 10
60.95000027143634
 20
187.2000000000123
 30
0.0
 11
58.95000027143634
 21
187.2000000000123
 31
0.0
  0
ARC
  5
8A04
330
18
100
AcDbEntity
  8
1
  6
Continuous
100
AcDbCircle
 10
57.75000027144709
 20
186.0000000000216
 30
0.0
 40
1.0
100
AcDbArc
 50
0.0
 51
90.0
  0
LINE
  5
8A08
330
18
100
AcDbEntity
  8
4
  6
CENTER
 48
0.1
100
AcDbLine
 10
61.25000027140252
 20
209.9999999999545
 30
0.0
 11
52.25000027140254
 21
209.9999999999545
 31
0.0
  0
CIRCLE
  5
8A09
330
18
100
AcDbEntity
  8
1
  6
Continuous
100
AcDbCircle
 10
56.75000027140253
 20
209.9999999999545
 30
0.0
 40
2.066999999999999
  0
CIRCLE
  5
8A0A
330
18
100
AcDbEntity
  8
2
  6
Continuous
100
AcDbCircle
 10
56.75000027140253
 20
209.9999999999545
 30
0.0
 40
2.5
  0
LINE
  5
8A0B
330
18
100
AcDbEntity
  8
1
  6
Continuous
100
AcDbLine
 10
63.75000027139265
 20
219.9999999998222
 30
0.0
 11
46.75000027140843
 21
219.999999999839
 31
0.0
  0
LINE
  5
8A0C
330
18
100
AcDbEntity
  8
4
  6
CENTER
 48
0.1
100
AcDbLine
 10
56.75000027140253
 20
205.4999999999545
 30
0.0
 11
56.75000027140253
 21
214.4999999999545
 31
0.0
  0
LINE
  5
8A0D
330
18
100
AcDbEntity
  8
1
  6
Continuous
100
AcDbLine
 10
74.75000027138822
 20
221.0
 30
0.0
 11
63.950000271456
 21
221.0
 31
0.0
  0
ARC
  5
8A0E
330
18
100
AcDbEntity
  8
1
  6
Continuous
100
AcDbCircle
 10
63.75000027139059
 20
217.9999999998222
 30
0.0
 40
2.0
100
AcDbArc
 50
0.0
 51
90.0
  0
ARC
  5
8A0F
330
18
100
AcDbEntity
  8
1
  6
Continuous
100
AcDbCircle
 10
63.950000271456
 20
215.9999999999997
 30
0.0
 40
5.0
100
AcDbArc
 50
90.0
 51
126.8698976491855
  0
ARC
  5
8A10
330
18
100
AcDbEntity
  8
1
  6
Continuous
100
AcDbCircle
 10
79.75000027145404
 20
218.5
 30
0.0
 40
0.5
100
AcDbArc
 50
270.0
 51
0.0
  0
LINE
  5
8A11
330
18
100
AcDbEntity
  8
1
  6
Continuous
100
AcDbLine
 10
79.75000027145404
 20
218.0
 30
0.0
 11
79.2326479881127
 21
218.0
 31
0.0
  0
LINE
  5
8A12
330
18
100
AcDbEntity
  8
1
  6
Continuous
100
AcDbLine
 10
79.25000027145404
 20
217.5
 30
0.0
 11
79.23264798811374
 21
217.5
 31
0.0
  0
ARC
  5
8A13
330
18
100
AcDbEntity
  8
1
  6
Continuous
100
AcDbCircle
 10
79.25000027145404
 20
216.5
 30
0.0
 40
1.0
100
AcDbArc
 50
0.0
 51
90.0
  0
LINE
  5
8A14
330
18
100
AcDbEntity
  8
1
  6
Continuous
100
AcDbLine
 10
79.25000027145234
 20
226.0000000004138
 30
0.0
 11
75.75000027138822
 21
226.0000000004074
 31
0.0
  0
LINE
  5
8A15
330
18
100
AcDbEntity
  8
1
  6
Continuous
100
AcDbLine
 10
74.75000027138822
 20
226.0000000004156
 30
0.0
 11
75.75000027138753
 21
226.0000000004142
 31
0.0
  0
ARC
  5
8A16
330
18
100
AcDbEntity
  8
1
  6
Continuous
100
AcDbCircle
 10
79.25000027145404
 20
225.0000000004138
 30
0.0
 40
1.0
100
AcDbArc
 50
0.0
 51
90.0
  0
LINE
  5
8A18
330
18
100
AcDbEntity
  8
4
  6
CENTER
 48
0.5
100
AcDbLine
 10
272.884802575396
 20
70.0000000000001
 30
0.0
 11
156.7500002713108
 21
70.0000000000001
 31
0.0
  0
ARC
  5
8A1B
330
18
100
AcDbEntity
  8
5
  6
PHANTOM
 48
0.1
100
AcDbCircle
 10
438.9508670945706
 20
-292.0087359757003
 30
0.0
 40
444.8333000000001
100
AcDbArc
 50
118.6355125049594
 51
121.7429134027114
  0
ARC
  5
8A1C
330
18
100
AcDbEntity
  8
1
  6
Continuous
100
AcDbCircle
 10
225.2500002719266
 20
-358.0833333332577
 30
0.0
 40
444.8333333332576
100
AcDbArc
 50
85.41229765105546
 51
94.58770234903516
  0
LINE
  5
8A1D
330
18
100
AcDbEntity
  8
4
  6
CENTER
 48
0.1
100
AcDbLine
 10
211.7500002713992
 20
78.75000000004234
 30
0.0
 11
202.7500002713992
 21
78.75000000004234
 31
0.0
  0
LINE
  5
8A1E
330
18
100
AcDbEntity
  8
1
  6
Continuous
100
AcDbLine
 10
261.750000271582
 20
81.25000000002859
 30
0.0
 11
188.750000271582
 21
81.2499999999712
 31
0.0
  0
LINE
  5
8A1F
330
18
100
AcDbEntity
  8
1
  6
Continuous
100
AcDbLine
 10
261.7500002715812
 20
82.25000000002859
 30
0.0
 11
188.7500002715812
 21
82.2499999999712
 31
0.0
  0
LINE
  5
8A20
330
18
100
AcDbEntity
  8
1
  6
Continuous
100
AcDbLine
 10
238.250000271581
 20
65.44999999999999
 30
0.0
 11
195.250000271632
 21
65.44999999998464
 31
0.0
  0
LINE
  5
8A21
330
18
100
AcDbEntity
  8
1
  6
Continuous
100
AcDbLine
 10
237.2500002715885
 20
64.44999999999963
 30
0.0
 11
195.250000271632
 21
64.44999999998464
 31
0.0
  0
LINE
  5
8A23
330
18
100
AcDbEntity
  8
1
  6
Continuous
100
AcDbLine
 10
250.2500002714413
 20
53.24999999998971
 30
0.0
 11
173.7500002712774
 21
53.24999999999403
 31
0.0
  0
LINE
  5
8A24
330
18
100
AcDbEntity
  8
1
  6
Continuous
100
AcDbLine
 10
250.2500002714413
 20
55.24999999998971
 30
0.0
 11
173.7500002712776
 21
55.24999999999403
 31
0.0
  0
LINE
  5
8A27
330
18
100
AcDbEntity
  8
1
  6
Continuous
100
AcDbLine
 10
195.2500002716186
 20
55.24999999997618
 30
0.0
 11
195.2500002716527
 21
81.2499999999763
 31
0.0
  0
LINE
  5
8A28
330
18
100
AcDbEntity
  8
1
  6
Continuous
100
AcDbLine
 10
205.2500002716294
 20
55.24999999996459
 30
0.0
 11
205.2500002716416
 21
64.44999999998827
 31
0.0
  0
ARC
  5
8A29
330
18
100
AcDbEntity
  8
1
  6
Continuous
100
AcDbCircle
 10
174.7500002712776
 20
58.64999999996036
 30
0.0
 40
1.0
100
AcDbArc
 50
90.0
 51
180.0
  0
LINE
  5
8A2A
330
18
100
AcDbEntity
  8
1
  6
Continuous
100
AcDbLine
 10
171.7500002712776
 20
72.24999999999416
 30
0.0
 11
171.7500002712776
 21
55.24999999999403
 31
0.0
  0
LINE
  5
8A2B
330
18
100
AcDbEntity
  8
1
  6
Continuous
100
AcDbLine
 10
173.7500002712776
 20
72.24999999999393
 30
0.0
 11
173.7500002712776
 21
55.24999999999403
 31
0.0
  0
ARC
  5
8A2C
330
18
100
AcDbEntity
  8
1
  6
Continuous
100
AcDbCircle
 10
183.3269889007076
 20
76.6263922062418
 30
0.0
 40
25.0122373532236
100
AcDbArc
 50
211.0248088064217
 51
238.7196936527005
  0
LINE
  5
8A2D
330
18
100
AcDbEntity
  8
1
  6
Continuous
100
AcDbLine
 10
175.7500002712776
 20
66.84999999996029
 30
0.0
 11
175.7500002712776
 21
59.64999999996035
 31
0.0
  0
ARC
  5
8A2E
330
18
100
AcDbEntity
  8
5
  6
PHANTOM
 48
0.1
100
AcDbCircle
 10
193.3204814219132
 20
76.61346655414758
 30
0.0
 40
25.0
100
AcDbArc
 50
211.0071100288021
 51
238.708805483259
  0
ARC
  5
8A31
330
18
100
AcDbEntity
  8
1
  6
Continuous
100
AcDbCircle
 10
173.7500002712776
 20
55.24999999999403
 30
0.0
 40
2.0
100
AcDbArc
 50
180.0
 51
270.0
  0
LINE
  5
8A32
330
18
100
AcDbEntity
  8
1
  6
Continuous
100
AcDbLine
 10
170.3400002714288
 20
55.24999999995561
 30
0.0
 11
171.7500002712776
 21
55.24999999995561
 31
0.0
  0
LINE
  5
8A33
330
18
100
AcDbEntity
  8
1
  6
Continuous
100
AcDbLine
 10
174.7500002712776
 20
59.64999999996035
 30
0.0
 11
175.7500002712776
 21
59.64999999996035
 31
0.0
  0
ARC
  5
8A34
330
18
100
AcDbEntity
  8
1
  6
Continuous
100
AcDbCircle
 10
185.7500002713998
 20
55.2499999999764
 30
0.0
 40
2.499999999999915
100
AcDbArc
 50
233.130102354152
 51
306.8698976458426
  0
LINE
  5
8A35
330
18
100
AcDbEntity
  8
5
  6
PHANTOM
 48
0.1
100
AcDbLine
 10
180.3357867089869
 20
55.24999999995504
 30
0.0
 11
181.7500002712775
 21
55.24999999995504
 31
0.0
  0
LINE
  5
8A36
330
18
100
AcDbEntity
  8
4
  6
CENTER
 48
0.1
100
AcDbLine
 10
185.7500002712144
 20
49.74999999997646
 30
0.0
 11
185.7500002712144
 21
58.24999999999334
 31
0.0
  0
LINE
  5
8A37
330
18
100
AcDbEntity
  8
4
  6
CENTER
 48
0.1
100
AcDbLine
 10
200.2500002712847
 20
51.24999999999253
 30
0.0
 11
200.2500002712847
 21
57.24999999999254
 31
0.0
  0
LINE
  5
8A38
330
18
100
AcDbEntity
  8
4
  6
CENTER
 48
0.1
100
AcDbLine
 10
210.2500002712148
 20
51.24999999999197
 30
0.0
 11
210.2500002712148
 21
57.24999999999198
 31
0.0
  0
LINE
  5
8A3A
330
18
100
AcDbEntity
  8
1
  6
Continuous
100
AcDbLine
 10
175.7500002712776
 20
65.24999999991933
 30
0.0
 11
195.2500002716317
 21
65.24999999992195
 31
0.0
  0
LINE
  5
8A3D
330
18
100
AcDbEntity
  8
1
  6
Continuous
100
AcDbLine
 10
162.7500002714792
 20
65.24999999991752
 30
0.0
 11
171.7500002712776
 21
65.24999999991866
 31
0.0
  0
ARC
  5
8A3E
330
18
100
AcDbEntity
  8
1
  6
Continuous
100
AcDbCircle
 10
162.750000271429
 20
64.24999999991752
 30
0.0
 40
1.0
100
AcDbArc
 50
90.0
 51
211.0071100287985
  0
LINE
  5
8A3F
330
18
100
AcDbEntity
  8
4
  6
CENTER
 48
0.1
100
AcDbLine
 10
177.7500002712775
 20
63.25000000022964
 30
0.0
 11
169.7500002712776
 21
63.25000000022601
 31
0.0
  0
ARC
  5
8A40
330
18
100
AcDbEntity
  8
5
  6
PHANTOM
 48
0.1
100
AcDbCircle
 10
172.7500002714289
 20
64.24999999991695
 30
0.0
 40
1.0
100
AcDbArc
 50
90.0
 51
211.0071100288021
  0
ARC
  5
8A41
330
18
100
AcDbEntity
  8
1
  6
Continuous
100
AcDbCircle
 10
174.7500002712776
 20
67.84999999996029
 30
0.0
 40
1.0
100
AcDbArc
 50
180.0
 51
270.0
  0
LINE
  5
8A42
330
18
100
AcDbEntity
  8
1
  6
Continuous
100
AcDbLine
 10
178.7309737617364
 20
67.88577871373201
 30
0.0
 11
173.8304455393106
 21
67.45703804898124
 31
0.0
  0
LINE
  5
8A43
330
18
100
AcDbEntity
  8
1
  6
Continuous
100
AcDbLine
 10
178.7309737617362
 20
67.88577871373201
 30
0.0
 11
178.9052852472316
 21
65.89338931754849
 31
0.0
  0
LINE
  5
8A44
330
18
100
AcDbEntity
  8
1
  6
Continuous
100
AcDbLine
 10
178.9052852472316
 20
65.89338931754849
 30
0.0
 11
175.7500002712776
 21
65.61733765195896
 31
0.0
  0
LINE
  5
8A45
330
18
100
AcDbEntity
  8
1
  6
Continuous
100
AcDbLine
 10
174.7500002712776
 20
66.84999999996029
 30
0.0
 11
175.7500002712776
 21
66.84999999996029
 31
0.0
  0
LINE
  5
8A46
330
18
100
AcDbEntity
  8
1
  6
Continuous
100
AcDbLine
 10
173.7500002712776
 20
72.24999999999393
 30
0.0
 11
171.7500002713974
 21
72.24999999999416
 31
0.0
  0
CIRCLE
  5
8A47
330
18
100
AcDbEntity
  8
1
  6
Continuous
100
AcDbCircle
 10
207.2500002713992
 20
78.75000000004234
 30
0.0
 40
2.5
  0
LINE
  5
8A48
330
18
100
AcDbEntity
  8
4
  6
CENTER
 48
0.1
100
AcDbLine
 10
207.2500002713992
 20
83.25000000004235
 30
0.0
 11
207.2500002713992
 21
74.25000000004235
 31
0.0
  0
ARC
  5
8A49
330
18
100
AcDbEntity
  8
1
  6
Continuous
100
AcDbCircle
 10
189.7500002715718
 20
84.32798860333724
 30
0.0
 40
1.0
100
AcDbArc
 50
94.58770234903431
 51
180.0
  0
LINE
  5
8A4A
330
18
100
AcDbEntity
  8
1
  6
Continuous
100
AcDbLine
 10
188.7500002715666
 20
82.24999999997368
 30
0.0
 11
188.7500002715666
 21
81.2499999999712
 31
0.0
  0
LINE
  5
8A4B
330
18
100
AcDbEntity
  8
1
  6
Continuous
100
AcDbLine
 10
188.7500002715717
 20
84.32798860333972
 30
0.0
 11
188.7500002715666
 21
82.24999999997368
 31
0.0
  0
LINE
  5
8A4C
330
18
100
AcDbEntity
  8
2
  6
Continuous
100
AcDbLine
 10
252.7500237606013
 20
60.16062072400046
 30
0.0
 11
252.7500237606013
 21
59.64796640306502
 31
0.0
  0
LINE
  5
8A4D
330
18
100
AcDbEntity
  8
1
  6
Continuous
100
AcDbLine
 10
253.2500237606013
 20
60.08738439243082
 30
0.0
 11
253.2500237606013
 21
59.64796640306525
 31
0.0
  0
LINE
  5
8A4E
330
18
100
AcDbEntity
  8
1
  6
Continuous
100
AcDbLine
 10
250.2500002716256
 20
60.52680582234193
 30
0.0
 11
257.0417522307486
 21
59.53199982550683
 31
0.0
  0
ARC
  5
8A4F
330
18
100
AcDbEntity
  8
1
  6
Continuous
100
AcDbCircle
 10
257.3316047741645
 20
61.51088473956207
 30
0.0
 40
2.0
100
AcDbArc
 50
261.6669902289601
 51
351.666990228962
  0
LINE
  5
8A50
330
18
100
AcDbEntity
  8
4
  6
CENTER
 48
0.2
100
AcDbLine
 10
251.2500237602478
 20
53.24796640306345
 30
0.0
 11
251.2500237602586
 21
65.25000000002011
 31
0.0
  0
LINE
  5
8A51
330
18
100
AcDbEntity
  8
1
  6
Continuous
100
AcDbLine
 10
245.2500002716539
 20
55.25000000018035
 30
0.0
 11
245.2500002716539
 21
66.95806661520322
 31
0.0
  0
LINE
  5
8A52
330
18
100
AcDbEntity
  8
1
  6
Continuous
100
AcDbLine
 10
250.2500002716185
 20
55.24999999990399
 30
0.0
 11
250.250000271629
 21
63.25000000001928
 31
0.0
  0
LINE
  5
8A53
330
18
100
AcDbEntity
  8
1
  6
Continuous
100
AcDbLine
 10
224.7500002717846
 20
64.4499999999951
 30
0.0
 11
224.7500002718056
 21
57.75000000005485
 31
0.0
  0
LINE
  5
8A54
330
18
100
AcDbEntity
  8
1
  6
Continuous
100
AcDbLine
 10
230.7009088964537
 20
58.55000000004856
 30
0.0
 11
230.700908896454
 21
64.44999999999419
 31
0.0
  0
LINE
  5
8A55
330
18
100
AcDbEntity
  8
1
  6
Continuous
100
AcDbLine
 10
235.8038599450947
 20
58.55000000005663
 30
0.0
 11
235.8038599450947
 21
64.44999999999419
 31
0.0
  0
LINE
  5
8A56
330
18
100
AcDbEntity
  8
1
  6
Continuous
100
AcDbLine
 10
216.7500002715529
 20
63.25000000000232
 30
0.0
 11
216.7500002715529
 21
55.25000000003917
 31
0.0
  0
LINE
  5
8A57
330
18
100
AcDbEntity
  8
1
  6
Continuous
100
AcDbLine
 10
224.7500002718056
 20
57.75000000003917
 30
0.0
 11
234.7500002718056
 21
57.75000000005485
 31
0.0
  0
LINE
  5
8A58
330
18
100
AcDbEntity
  8
1
  6
Continuous
100
AcDbLine
 10
216.7500002715504
 20
57.74999999994093
 30
0.0
 11
224.7500002718056
 21
57.74999999993331
 31
0.0
  0
LINE
  5
8A5A
330
18
100
AcDbEntity
  8
1
  6
Continuous
100
AcDbLine
 10
230.7009088964537
 20
58.55000000004856
 30
0.0
 11
235.8038599450947
 21
58.55000000005663
 31
0.0
  0
LINE
  5
8A5B
330
18
100
AcDbEntity
  8
1
  6
Continuous
100
AcDbLine
 10
226.7500002718055
 20
57.75000000005803
 30
0.0
 11
226.7500002718134
 21
55.25000000011693
 31
0.0
  0
LINE
  5
8A5C
330
18
100
AcDbEntity
  8
1
  6
Continuous
100
AcDbLine
 10
232.7500002718055
 20
57.7500000000769
 30
0.0
 11
232.7500002718134
 21
55.25000000013569
 31
0.0
  0
LINE
  5
8A5D
330
18
100
AcDbEntity
  8
4
  6
CENTER
 48
0.1
100
AcDbLine
 10
229.7500002712566
 20
51.24999999999086
 30
0.0
 11
229.7500002712566
 21
57.24999999999084
 31
0.0
  0
LINE
  5
8A5E
330
18
100
AcDbEntity
  8
1
  6
Continuous
100
AcDbLine
 10
234.750000271803
 20
58.55000000005503
 30
0.0
 11
234.7500002718055
 21
57.75000000007077
 31
0.0
  0
LINE
  5
8A5F
330
18
100
AcDbEntity
  8
1
  6
Continuous
100
AcDbLine
 10
235.25000027165
 20
55.25000000000756
 30
0.0
 11
235.2500002716514
 21
58.55000000005571
 31
0.0
  0
LINE
  5
8A60
330
18
100
AcDbEntity
  8
4
  6
CENTER
 48
0.1
100
AcDbLine
 10
240.2500002712566
 20
51.24999999999086
 30
0.0
 11
240.2500002712566
 21
57.24999999999084
 31
0.0
  0
LINE
  5
8A61
330
18
100
AcDbEntity
  8
1
  6
Continuous
100
AcDbLine
 10
245.2500002714413
 20
53.24999999998971
 30
0.0
 11
245.2500002714414
 21
55.24999999999
 31
0.0
  0
ARC
  5
8A62
330
18
100
AcDbEntity
  8
1
  6
Continuous
100
AcDbCircle
 10
251.2500237602539
 20
64.24796640306346
 30
0.0
 40
9.0
100
AcDbArc
 50
263.6204793265578
 51
285.8808500082795
  0
LINE
  5
8A63
330
18
100
AcDbEntity
  8
1
  6
Continuous
100
AcDbLine
 10
250.2500002716233
 20
58.84796640306337
 30
0.0
 11
256.2500237602539
 21
58.84796640306337
 31
0.0
  0
LINE
  5
8A64
330
18
100
AcDbEntity
  8
1
  6
Continuous
100
AcDbLine
 10
250.2500002716219
 20
57.84796640306336
 30
0.0
 11
255.0500237602538
 21
57.84796640306336
 31
0.0
  0
LINE
  5
8A65
330
18
100
AcDbEntity
  8
1
  6
Continuous
100
AcDbLine
 10
250.2500002716243
 20
59.64796640306445
 30
0.0
 11
256.250023760279
 21
59.64796640306594
 31
0.0
  0
LINE
  5
8A66
330
18
100
AcDbEntity
  8
1
  6
Continuous
100
AcDbLine
 10
251.2500237602529
 20
58.84796640306337
 30
0.0
 11
252.25002376025
 21
57.84796640306348
 31
0.0
  0
LINE
  5
8A67
330
18
100
AcDbEntity
  8
1
  6
Continuous
100
AcDbLine
 10
250.2500002714413
 20
55.24999999998971
 30
0.0
 11
250.2500002714413
 21
53.24999999998971
 31
0.0
  0
LINE
  5
8A68
330
18
100
AcDbEntity
  8
1
  6
Continuous
100
AcDbLine
 10
250.2500237602542
 20
58.84796640306337
 30
0.0
 11
251.2500237602514
 21
57.84796640306348
 31
0.0
  0
LINE
  5
8A69
330
18
100
AcDbEntity
  8
1
  6
Continuous
100
AcDbLine
 10
254.7500237602539
 20
57.84796640306336
 30
0.0
 11
254.6520876213647
 21
56.72855121322896
 31
0.0
  0
ARC
  5
8A6A
330
18
100
AcDbEntity
  8
1
  6
Continuous
100
AcDbCircle
 10
253.3570345138401
 20
56.84185367884065
 30
0.0
 40
1.3
100
AcDbArc
 50
285.8808500082795
 51
355.0000000000002
  0
LINE
  5
8A6B
330
18
100
AcDbEntity
  8
1
  6
Continuous
100
AcDbLine
 10
255.0500237602538
 20
57.84796640306336
 30
0.0
 11
255.0500237602538
 21
58.84796640306337
 31
0.0
  0
LINE
  5
8A6C
330
18
100
AcDbEntity
  8
1
  6
Continuous
100
AcDbLine
 10
256.2500237602539
 20
58.84796640306337
 30
0.0
 11
256.2500237602539
 21
59.64796640306342
 31
0.0
  0
ARC
  5
8A6D
330
18
100
AcDbEntity
  8
1
  6
Continuous
100
AcDbCircle
 10
238.2500002715811
 20
82.44999999999997
 30
0.0
 40
17.0
100
AcDbArc
 50
270.0
 51
355.9522258032658
  0
LINE
  5
8A6E
330
18
100
AcDbEntity
  8
1
  6
Continuous
100
AcDbLine
 10
216.7500002715527
 20
63.24999999999572
 30
0.0
 11
224.7500002717884
 21
63.24999999998333
 31
0.0
  0
LINE
  5
8A6F
330
18
100
AcDbEntity
  8
1
  6
Continuous
100
AcDbLine
 10
216.7500002715504
 20
62.74999999994093
 30
0.0
 11
224.7500002717901
 21
62.74999999993331
 31
0.0
  0
LINE
  5
8A70
330
18
100
AcDbEntity
  8
1
  6
Continuous
100
AcDbLine
 10
238.250000271581
 20
65.44999999999999
 30
0.0
 11
237.2500002715886
 21
64.45000000000145
 31
0.0
  0
LINE
  5
8A71
330
18
100
AcDbEntity
  8
5
  6
PHANTOM
 48
0.1
100
AcDbLine
 10
228.5927218631353
 20
86.73744030118138
 30
0.0
 11
224.5795595082761
 21
93.7894938967028
 31
0.0
  0
ARC
  5
8A72
330
18
100
AcDbEntity
  8
5
  6
PHANTOM
 48
0.1
100
AcDbCircle
 10
226.832636356927
 20
96.47051945318418
 30
0.0
 40
2.215772432633048
100
AcDbArc
 50
253.1968032084743
 51
118.6355125808881
  0
ARC
  5
8A73
330
18
100
AcDbEntity
  8
5
  6
PHANTOM
 48
0.1
100
AcDbCircle
 10
225.9030041089134
 20
93.39204966740835
 30
0.0
 40
1.0
100
AcDbArc
 50
73.19680320847433
 51
119.643214082392
  0
LINE
  5
8A74
330
18
100
AcDbEntity
  8
5
  6
PHANTOM
 48
0.1
100
AcDbLine
 10
211.8550709391712
 20
86.54827857996162
 30
0.0
 11
225.4084065854432
 21
94.26117180484181
 31
0.0
  0
LINE
  5
8A75
330
18
100
AcDbEntity
  8
1
  6
Continuous
100
AcDbLine
 10
255.2488237602819
 20
81.2500000000235
 30
0.0
 11
255.2488237602819
 21
65.25000000002164
 31
0.0
  0
LINE
  5
8A76
330
18
100
AcDbEntity
  8
1
  6
Continuous
100
AcDbLine
 10
250.250000271628
 20
62.54814621034853
 30
0.0
 11
257.3316047741567
 21
61.5108847395632
 31
0.0
  0
LINE
  5
8A77
330
18
100
AcDbEntity
  8
1
  6
Continuous
100
AcDbLine
 10
253.2488237602837
 20
63.25000000002166
 30
0.0
 11
245.250000271654
 21
63.2500000000155
 31
0.0
  0
ARC
  5
8A78
330
18
100
AcDbEntity
  8
1
  6
Continuous
100
AcDbCircle
 10
253.2488237602819
 20
65.25000000002164
 30
0.0
 40
2.0
100
AcDbArc
 50
270.0
 51
0.0
  0
LINE
  5
8A79
330
18
100
AcDbEntity
  8
2
  6
Continuous
100
AcDbLine
 10
252.7500237606013
 20
63.2500000000212
 30
0.0
 11
252.7500237606013
 21
62.18196111200763
 31
0.0
  0
LINE
  5
8A7A
330
18
100
AcDbEntity
  8
1
  6
Continuous
100
AcDbLine
 10
253.2500237606013
 20
63.25000000002166
 30
0.0
 11
253.2500237606013
 21
62.10872478043786
 31
0.0
  0
LINE
  5
8A7B
330
18
100
AcDbEntity
  8
1
  6
Continuous
100
AcDbLine
 10
257.3316047741645
 20
61.51088473956207
 30
0.0
 11
259.6794103757483
 21
77.5398525434303
 31
0.0
  0
LINE
  5
8A7C
330
18
100
AcDbEntity
  8
1
  6
Continuous
100
AcDbLine
 10
259.3104896882211
 20
61.22103219615684
 30
0.0
 11
261.6582952898052
 21
77.25000000002506
 31
0.0
  0
LINE
  5
8A7D
330
18
100
AcDbEntity
  8
1
  6
Continuous
100
AcDbLine
 10
267.5949500319906
 20
76.38044236980448
 30
0.0
 11
261.6582952898045
 21
77.2500000000203
 31
0.0
  0
LINE
  5
8A7E
330
18
100
AcDbEntity
  8
1
  6
Continuous
100
AcDbLine
 10
267.8848025753958
 20
78.35932728386609
 30
0.0
 11
261.9481478332096
 21
79.22888491408179
 31
0.0
  0
ARC
  5
8A7F
330
18
100
AcDbEntity
  8
1
  6
Continuous
100
AcDbCircle
 10
261.6582952898052
 20
77.25000000002506
 30
0.0
 40
2.0
100
AcDbArc
 50
81.6669902289602
 51
171.666990228962
  0
LINE
  5
8A80
330
18
100
AcDbEntity
  8
1
  6
Continuous
100
AcDbLine
 10
267.8848025753959
 20
78.35932728386609
 30
0.0
 11
267.5949500319891
 21
76.38044236980483
 31
0.0
  0
ARC
  5
8A81
330
18
100
AcDbEntity
  8
1
  6
Continuous
100
AcDbCircle
 10
260.7500002715796
 20
84.32798860339351
 30
0.0
 40
1.0
100
AcDbArc
 50
0.0
 51
85.41229765105546
  0
LINE
  5
8A82
330
18
100
AcDbEntity
  8
1
  6
Continuous
100
AcDbLine
 10
261.7500002715812
 20
82.25000000002859
 30
0.0
 11
261.7500002715812
 21
81.25000000002859
 31
0.0
  0
LINE
  5
8A83
330
18
100
AcDbEntity
  8
1
  6
Continuous
100
AcDbLine
 10
261.7500002715797
 20
84.32798860339429
 30
0.0
 11
261.7500002715812
 21
82.25000000003189
 31
0.0
  0
LINE
  5
8A84
330
18
100
AcDbEntity
  8
4
  6
CENTER
 48
0.5
100
AcDbLine
 10
272.8848025753959
 20
179.9999999999746
 30
0.0
 11
156.7500002713108
 21
179.9999999999596
 31
0.0
  0
LINE
  5
8A8A
330
18
100
AcDbEntity
  8
1
  6
Continuous
100
AcDbLine
 10
267.8848025753959
 20
215.4999999999498
 30
0.0
 11
267.8848025753959
 21
144.4999999999457
 31
0.0
  0
ARC
  5
8A8B
330
18
100
AcDbEntity
  8
1
  6
Continuous
100
AcDbCircle
 10
-246.749999728636
 20
180.0000000000381
 30
0.0
 40
500.0
100
AcDbArc
 50
355.9617434041242
 51
4.038256595875796
  0
ARC
  5
8A8C
330
18
100
AcDbEntity
  8
1
  6
Continuous
100
AcDbCircle
 10
-246.7499997285958
 20
180.0000000000184
 30
0.0
 40
482.0
100
AcDbArc
 50
355.8696921575507
 51
4.130307842472198
  0
LINE
  5
8A8D
330
18
100
AcDbEntity
  8
1
  6
Continuous
100
AcDbLine
 10
197.7500002714042
 20
143.5000000001527
 30
0.0
 11
197.7500002714042
 21
216.5000000001528
 31
0.0
  0
LINE
  5
8A8E
330
18
100
AcDbEntity
  8
1
  6
Continuous
100
AcDbLine
 10
197.2500002713624
 20
217.4999999999881
 30
0.0
 11
197.250000271365
 21
142.4999999999881
 31
0.0
  0
ARC
  5
8A8F
330
18
100
AcDbEntity
  8
1
  6
Continuous
100
AcDbCircle
 10
697.2500002713636
 20
179.999999999981
 30
0.0
 40
508.4999999999998
100
AcDbArc
 50
175.5315705257355
 51
184.4684294743004
  0
LINE
  5
8A90
330
18
100
AcDbEntity
  8
1
  6
Continuous
100
AcDbLine
 10
173.7500002711585
 20
220.0000000000568
 30
0.0
 11
173.7500002712774
 21
140.0000000000568
 31
0.0
  0
LINE
  5
8A91
330
18
100
AcDbEntity
  8
1
  6
Continuous
100
AcDbLine
 10
171.7500002711585
 20
220.0000000000568
 30
0.0
 11
171.7500002712776
 21
140.0000000000875
 31
0.0
  0
ARC
  5
8A92
330
18
100
AcDbEntity
  8
1
  6
Continuous
100
AcDbCircle
 10
-246.749999728636
 20
180.0000000000381
 30
0.0
 40
508.4999999999998
100
AcDbArc
 50
355.531570525693
 51
4.468429474257956
  0
ARC
  5
8A93
330
18
100
AcDbEntity
  8
1
  6
Continuous
100
AcDbCircle
 10
225.2500002713652
 20
633.999999999819
 30
0.0
 40
500.0
100
AcDbArc
 50
266.6377301665975
 51
273.3622698334016
  0
LINE
  5
8A94
330
18
100
AcDbEntity
  8
1
  6
Continuous
100
AcDbLine
 10
198.7500002714033
 20
142.5000000001527
 30
0.0
 11
231.0059526152807
 21
142.5000000001218
 31
0.0
  0
LINE
  5
8A95
330
18
100
AcDbEntity
  8
1
  6
Continuous
100
AcDbLine
 10
249.0160741408871
 20
142.0000000000281
 30
0.0
 11
197.7500002713656
 21
141.9999999999881
 31
0.0
  0
LINE
  5
8A96
330
18
100
AcDbEntity
  8
1
  6
Continuous
100
AcDbLine
 10
190.3379542194136
 20
140.0000000000557
 30
0.0
 11
171.7500002711541
 21
140.0000000000568
 31
0.0
  0
ARC
  5
8A97
330
18
100
AcDbEntity
  8
1
  6
Continuous
100
AcDbCircle
 10
196.2773921812724
 20
140.8503391660535
 30
0.0
 40
6.0
100
AcDbArc
 50
184.4684294743004
 51
266.6377301665975
  0
ARC
  5
8A98
330
18
100
AcDbEntity
  8
1
  6
Continuous
100
AcDbCircle
 10
198.7500002714043
 20
143.5000000001527
 30
0.0
 40
1.0
100
AcDbArc
 50
180.0
 51
270.0
  0
ARC
  5
8A99
330
18
100
AcDbEntity
  8
1
  6
Continuous
100
AcDbCircle
 10
197.7500002713651
 20
142.4999999999881
 30
0.0
 40
0.5
100
AcDbArc
 50
180.0
 51
270.0
  0
LINE
  5
8A9A
330
18
100
AcDbEntity
  8
1
  6
Continuous
100
AcDbLine
 10
203.2500002712346
 20
141.9999999999906
 30
0.0
 11
203.2500002712346
 21
142.5000000001484
 31
0.0
  0
LINE
  5
8A9B
330
18
100
AcDbEntity
  8
1
  6
Continuous
100
AcDbLine
 10
178.905285246711
 20
186.9999999999715
 30
0.0
 11
188.7981834784643
 21
186.9999999999715
 31
0.0
  0
LINE
  5
8A9C
330
18
100
AcDbEntity
  8
1
  6
Continuous
100
AcDbLine
 10
178.905285246711
 20
172.9999999999715
 30
0.0
 11
188.7981834784645
 21
172.9999999999715
 31
0.0
  0
LINE
  5
8A9E
330
18
100
AcDbEntity
  8
4
  6
CENTER
 48
0.1
100
AcDbLine
 10
169.7500002712627
 20
149.9999999997346
 30
0.0
 11
177.7500002706864
 21
149.9999999997422
 31
0.0
  0
LINE
  5
8A9F
330
18
100
AcDbEntity
  8
1
  6
Continuous
100
AcDbLine
 10
175.7500002706833
 20
146.3999999999973
 30
0.0
 11
175.7500002706895
 21
153.5999999999971
 31
0.0
  0
LINE
  5
8AA0
330
18
100
AcDbEntity
  8
1
  6
Continuous
100
AcDbLine
 10
174.7500002706833
 20
146.3999999999982
 30
0.0
 11
175.7500002706833
 21
146.3999999999973
 31
0.0
  0
LINE
  5
8AA1
330
18
100
AcDbEntity
  8
1
  6
Continuous
100
AcDbLine
 10
174.7500002706895
 20
153.599999999998
 30
0.0
 11
175.7500002706895
 21
153.5999999999971
 31
0.0
  0
ARC
  5
8AA2
330
18
100
AcDbEntity
  8
1
  6
Continuous
100
AcDbCircle
 10
174.7500002706904
 20
154.5999999999983
 30
0.0
 40
1.0
100
AcDbArc
 50
179.9999999999511
 51
269.9999999999503
  0
ARC
  5
8AA3
330
18
100
AcDbEntity
  8
1
  6
Continuous
100
AcDbCircle
 10
174.7500002706825
 20
145.3999999999982
 30
0.0
 40
1.0
100
AcDbArc
 50
89.99999999995033
 51
179.9999999999511
  0
LINE
  5
8AA4
330
18
100
AcDbEntity
  8
1
  6
Continuous
100
AcDbLine
 10
162.7500002713107
 20
186.9999999999715
 30
0.0
 11
171.7500002712076
 21
186.9999999999715
 31
0.0
  0
LINE
  5
8AA5
330
18
100
AcDbEntity
  8
1
  6
Continuous
100
AcDbLine
 10
162.7500002713107
 20
172.9999999999715
 30
0.0
 11
171.7500002712284
 21
172.9999999999715
 31
0.0
  0
LINE
  5
8AA6
330
18
100
AcDbEntity
  8
1
  6
Continuous
100
AcDbLine
 10
161.7500002713106
 20
173.9999999999715
 30
0.0
 11
161.7500002713106
 21
185.9999999999715
 31
0.0
  0
ARC
  5
8AA7
330
18
100
AcDbEntity
  8
1
  6
Continuous
100
AcDbCircle
 10
162.7500002713107
 20
173.9999999999715
 30
0.0
 40
1.0
100
AcDbArc
 50
180.0
 51
270.0
  0
ARC
  5
8AA8
330
18
100
AcDbEntity
  8
1
  6
Continuous
100
AcDbCircle
 10
162.7500002713107
 20
185.9999999999715
 30
0.0
 40
1.0
100
AcDbArc
 50
90.0
 51
180.0
  0
LINE
  5
8AA9
330
18
100
AcDbEntity
  8
1
  6
Continuous
100
AcDbLine
 10
178.7309737612156
 20
187.1999999999666
 30
0.0
 11
178.7309737612156
 21
172.7999999999685
 31
0.0
  0
LINE
  5
8AAA
330
18
100
AcDbEntity
  8
1
  6
Continuous
100
AcDbLine
 10
178.905285246711
 20
187.1999999999666
 30
0.0
 11
178.905285246711
 21
172.7999999999665
 31
0.0
  0
LINE
  5
8AAB
330
18
100
AcDbEntity
  8
1
  6
Continuous
100
AcDbLine
 10
178.905285246711
 20
172.7999999999667
 30
0.0
 11
173.7500002712287
 21
172.7999999999688
 31
0.0
  0
LINE
  5
8AAC
330
18
100
AcDbEntity
  8
1
  6
Continuous
100
AcDbLine
 10
178.905285246711
 20
187.1999999999666
 30
0.0
 11
173.7500002712073
 21
187.1999999999686
 31
0.0
  0
ARC
  5
8AAD
330
18
100
AcDbEntity
  8
1
  6
Continuous
100
AcDbCircle
 10
198.2500002713641
 20
173.2499999999876
 30
0.0
 40
1.0
100
AcDbArc
 50
119.9999999973382
 51
180.0
  0
ARC
  5
8AAE
330
18
100
AcDbEntity
  8
1
  6
Continuous
100
AcDbCircle
 10
198.2500002713636
 20
186.7499999999875
 30
0.0
 40
1.0
100
AcDbArc
 50
180.0
 51
240.0000000026931
  0
ARC
  5
8AAF
330
18
100
AcDbEntity
  8
1
  6
Continuous
100
AcDbCircle
 10
231.0059526152836
 20
145.5000000001218
 30
0.0
 40
3.0
100
AcDbArc
 50
270.0
 51
355.8696921575507
  0
LINE
  5
8AB0
330
18
100
AcDbEntity
  8
1
  6
Continuous
100
AcDbLine
 10
211.2500002712343
 20
141.9999999999906
 30
0.0
 11
211.2500002712343
 21
142.5000000001407
 31
0.0
  0
LINE
  5
8AB1
330
18
100
AcDbEntity
  8
1
  6
Continuous
100
AcDbLine
 10
227.2500002712347
 20
141.9999999999906
 30
0.0
 11
227.2500002712347
 21
142.5000000001254
 31
0.0
  0
ARC
  5
8AB2
330
18
100
AcDbEntity
  8
1
  6
Continuous
100
AcDbCircle
 10
254.2226083614508
 20
140.8503391660531
 30
0.0
 40
6.0
100
AcDbArc
 50
273.3622698334016
 51
355.531570525693
  0
ARC
  5
8AB3
330
18
100
AcDbEntity
  8
1
  6
Continuous
100
AcDbCircle
 10
249.0160741408848
 20
145.0000000000281
 30
0.0
 40
3.0
100
AcDbArc
 50
270.0
 51
355.9617434041242
  0
LINE
  5
8AB4
330
18
100
AcDbEntity
  8
1
  6
Continuous
100
AcDbLine
 10
265.8848025754071
 20
142.4999999999457
 30
0.0
 11
260.3653717599418
 21
142.5000000000163
 31
0.0
  0
ARC
  5
8AB5
330
18
100
AcDbEntity
  8
1
  6
Continuous
100
AcDbCircle
 10
265.8848025754086
 20
144.4999999999457
 30
0.0
 40
2.0
100
AcDbArc
 50
270.0
 51
0.0
  0
ARC
  5
8AC7
330
18
100
AcDbEntity
  8
1
  6
Continuous
100
AcDbCircle
 10
225.2500002713652
 20
-274.0000000001811
 30
0.0
 40
500.0
100
AcDbArc
 50
86.6377301665943
 51
93.36226983340571
  0
LINE
  5
8AC8
330
18
100
AcDbEntity
  8
1
  6
Continuous
100
AcDbLine
 10
198.7500002714052
 20
217.5000000001527
 30
0.0
 11
231.0059526152712
 21
217.5000000001218
 31
0.0
  0
LINE
  5
8AC9
330
18
100
AcDbEntity
  8
1
  6
Continuous
100
AcDbLine
 10
249.0160741408839
 20
218.0000000000282
 30
0.0
 11
197.750000271362
 21
217.9999999999882
 31
0.0
  0
LINE
  5
8ACB
330
18
100
AcDbEntity
  8
1
  6
Continuous
100
AcDbLine
 10
190.337954219456
 20
220.0000000000557
 30
0.0
 11
171.7500002711586
 21
220.0000000000568
 31
0.0
  0
LINE
  5
8ACC
330
18
100
AcDbEntity
  8
1
  6
Continuous
100
AcDbLine
 10
175.7500002707123
 20
213.5999999999376
 30
0.0
 11
175.7500002707123
 21
206.3999999999377
 31
0.0
  0
LINE
  5
8ACD
330
18
100
AcDbEntity
  8
1
  6
Continuous
100
AcDbLine
 10
174.7500002707123
 20
206.3999999999377
 30
0.0
 11
175.7500002707123
 21
206.3999999999377
 31
0.0
  0
ARC
  5
8ACE
330
18
100
AcDbEntity
  8
1
  6
Continuous
100
AcDbCircle
 10
174.7500002707123
 20
205.3999999999378
 30
0.0
 40
1.0
100
AcDbArc
 50
90.0
 51
180.0
  0
LINE
  5
8ACF
330
18
100
AcDbEntity
  8
4
  6
CENTER
 48
0.1
100
AcDbLine
 10
177.7500002707123
 20
209.9999999997422
 30
0.0
 11
169.7500002711734
 21
209.9999999997346
 31
0.0
  0
LINE
  5
8AD0
330
18
100
AcDbEntity
  8
1
  6
Continuous
100
AcDbLine
 10
174.7500002707123
 20
213.5999999999376
 30
0.0
 11
175.7500002707123
 21
213.5999999999376
 31
0.0
  0
ARC
  5
8AD1
330
18
100
AcDbEntity
  8
1
  6
Continuous
100
AcDbCircle
 10
174.7500002707123
 20
214.5999999999375
 30
0.0
 40
1.0
100
AcDbArc
 50
180.0
 51
270.0
  0
ARC
  5
8AD2
330
18
100
AcDbEntity
  8
1
  6
Continuous
100
AcDbCircle
 10
196.2773921812469
 20
219.1496608335828
 30
0.0
 40
6.0
100
AcDbArc
 50
93.36226983340571
 51
175.5315705257355
  0
ARC
  5
8AD3
330
18
100
AcDbEntity
  8
1
  6
Continuous
100
AcDbCircle
 10
198.7500002714042
 20
216.5000000001528
 30
0.0
 40
1.0
100
AcDbArc
 50
90.0
 51
180.0
  0
ARC
  5
8AD4
330
18
100
AcDbEntity
  8
1
  6
Continuous
100
AcDbCircle
 10
197.7500002713625
 20
217.4999999999881
 30
0.0
 40
0.5
100
AcDbArc
 50
90.0
 51
180.0
  0
LINE
  5
8AD5
330
18
100
AcDbEntity
  8
1
  6
Continuous
100
AcDbLine
 10
203.250000271175
 20
217.9999999999941
 30
0.0
 11
203.2500002711758
 21
217.5000000001484
 31
0.0
  0
LINE
  5
8AD6
330
18
100
AcDbEntity
  8
1
  6
Continuous
100
AcDbLine
 10
211.2500002711749
 20
218.0000000000065
 30
0.0
 11
211.2500002711757
 21
217.5000000001407
 31
0.0
  0
ARC
  5
8AD7
330
18
100
AcDbEntity
  8
1
  6
Continuous
100
AcDbCircle
 10
231.0059526152684
 20
214.5000000001216
 30
0.0
 40
3.0
100
AcDbArc
 50
4.130307842472198
 51
90.0
  0
LINE
  5
8AD8
330
18
100
AcDbEntity
  8
1
  6
Continuous
100
AcDbLine
 10
227.2500002711751
 20
218.0000000000315
 30
0.0
 11
227.2500002711759
 21
217.5000000001255
 31
0.0
  0
ARC
  5
8AD9
330
18
100
AcDbEntity
  8
1
  6
Continuous
100
AcDbCircle
 10
254.2226083614854
 20
219.1496608335828
 30
0.0
 40
6.0
100
AcDbArc
 50
4.468429474257956
 51
86.6377301665943
  0
ARC
  5
8ADA
330
18
100
AcDbEntity
  8
1
  6
Continuous
100
AcDbCircle
 10
249.0160741408861
 20
215.0000000000281
 30
0.0
 40
3.0
100
AcDbArc
 50
4.038256595875796
 51
90.0
  0
LINE
  5
8ADB
330
18
100
AcDbEntity
  8
1
  6
Continuous
100
AcDbLine
 10
265.8848025753974
 20
217.4999999999498
 30
0.0
 11
260.3653717599446
 21
217.5000000000204
 31
0.0
  0
ARC
  5
8ADC
330
18
100
AcDbEntity
  8
1
  6
Continuous
100
AcDbCircle
 10
265.8848025753959
 20
215.4999999999498
 30
0.0
 40
2.0
100
AcDbArc
 50
0.0
 51
90.0
  0
ARC
  5
8ADD
330
18
100
AcDbEntity
  8
5
  6
PHANTOM
 48
0.1
100
AcDbCircle
 10
225.9030041089134
 20
266.6079503326814
 30
0.0
 40
1.0
100
AcDbArc
 50
240.3567859176079
 51
286.8031967915257
  0
ARC
  5
8ADE
330
18
100
AcDbEntity
  8
5
  6
PHANTOM
 48
0.1
100
AcDbCircle
 10
226.832636356927
 20
263.5294805469054
 30
0.0
 40
2.215772432633048
100
AcDbArc
 50
241.3644874191118
 51
106.8031967915256
  0
LINE
  5
8AE0
330
18
100
AcDbEntity
  8
1
  6
Continuous
100
AcDbLine
 10
375.306516683725
 20
142.4999999999356
 30
0.0
 11
375.306516683725
 21
217.4999999999397
 31
0.0
  0
LINE
  5
8AE1
330
18
100
AcDbEntity
  8
1
  6
Continuous
100
AcDbLine
 10
358.4369590534826
 20
142.4999999999356
 30
0.0
 11
358.4369590534827
 21
217.4999999999397
 31
0.0
  0
LINE
  5
8AE2
330
18
100
AcDbEntity
  8
1
  6
Continuous
100
AcDbLine
 10
356.458074139421
 20
142.4999999999356
 30
0.0
 11
356.4580741394212
 21
217.4999999999397
 31
0.0
  0
LINE
  5
8AE3
330
18
100
AcDbEntity
  8
1
  6
Continuous
100
AcDbLine
 10
355.5674014232621
 20
142.4999999999356
 30
0.0
 11
355.5674014232621
 21
217.4999999999398
 31
0.0
  0
LINE
  5
8AE4
330
18
100
AcDbEntity
  8
1
  6
Continuous
100
AcDbLine
 10
353.5674014234158
 20
226.0000000004179
 30
0.0
 11
353.5674014234158
 21
134.0000000004179
 31
0.0
  0
LINE
  5
8AE5
330
18
100
AcDbEntity
  8
1
  6
Continuous
100
AcDbLine
 10
348.0674014233498
 20
225.0000000004161
 30
0.0
 11
348.0674014233498
 21
135.000000000416
 31
0.0
  0
LINE
  5
8AE6
330
18
100
AcDbEntity
  8
1
  6
Continuous
100
AcDbLine
 10
352.5674014234157
 20
226.0000000004179
 30
0.0
 11
352.5674014234157
 21
134.0000000004179
 31
0.0
  0
LINE
  5
8AE7
330
18
100
AcDbEntity
  8
1
  6
Continuous
100
AcDbLine
 10
349.0847537066912
 20
218.0000000000022
 30
0.0
 11
349.0847537065393
 21
142.0000000000022
 31
0.0
  0
LINE
  5
8AE8
330
18
100
AcDbEntity
  8
1
  6
Continuous
100
AcDbLine
 10
379.5674014232972
 20
151.5762999811483
 30
0.0
 11
379.5674014232972
 21
208.4237000182152
 31
0.0
  0
LINE
  5
8AE9
330
18
100
AcDbEntity
  8
1
  6
Continuous
100
AcDbLine
 10
381.5674014232975
 20
139.9999999998299
 30
0.0
 11
381.5674014234163
 21
219.9999999997992
 31
0.0
  0
LINE
  5
8AEA
330
18
100
AcDbEntity
  8
1
  6
Continuous
100
AcDbLine
 10
376.1065166836743
 20
144.9999999998254
 30
0.0
 11
376.1065166836743
 21
154.9999999998261
 31
0.0
  0
LINE
  5
8AEB
330
18
100
AcDbEntity
  8
1
  6
Continuous
100
AcDbLine
 10
379.5674014232972
 20
139.9999999998556
 30
0.0
 11
379.5674014232972
 21
148.4237000185039
 31
0.0
  0
LINE
  5
8AEC
330
18
100
AcDbEntity
  8
1
  6
Continuous
100
AcDbLine
 10
375.3065166836742
 20
144.9999999998253
 30
0.0
 11
375.3065166836718
 21
154.9999999998513
 31
0.0
  0
ARC
  5
8AED
330
18
100
AcDbEntity
  8
1
  6
Continuous
100
AcDbCircle
 10
364.3674014233517
 20
144.0000000000022
 30
0.0
 40
5.0
100
AcDbArc
 50
270.0
 51
342.5423968754783
  0
LINE
  5
8AEE
330
18
100
AcDbEntity
  8
1
  6
Continuous
100
AcDbLine
 10
375.306516683725
 20
142.4999999999356
 30
0.0
 11
355.567401423262
 21
142.4999999999356
 31
0.0
  0
LINE
  5
8AEF
330
18
100
AcDbEntity
  8
1
  6
Continuous
100
AcDbLine
 10
349.0674014233481
 20
134.000000000416
 30
0.0
 11
352.5674014232474
 21
134.0000000004095
 31
0.0
  0
ARC
  5
8AF0
330
18
100
AcDbEntity
  8
1
  6
Continuous
100
AcDbCircle
 10
349.0674014233499
 20
135.000000000416
 30
0.0
 40
1.0
100
AcDbArc
 50
180.0
 51
270.0
  0
LINE
  5
8AF1
330
18
100
AcDbEntity
  8
1
  6
Continuous
100
AcDbLine
 10
349.0674014233499
 20
142.5000000000022
 30
0.0
 11
349.0847537065404
 21
142.5000000000022
 31
0.0
  0
LINE
  5
8AF2
330
18
100
AcDbEntity
  8
1
  6
Continuous
100
AcDbLine
 10
348.5674014233499
 20
142.0000000000022
 30
0.0
 11
349.0847537065393
 21
142.0000000000022
 31
0.0
  0
ARC
  5
8AF3
330
18
100
AcDbEntity
  8
1
  6
Continuous
100
AcDbCircle
 10
349.0674014233499
 20
143.5000000000021
 30
0.0
 40
1.0
100
AcDbArc
 50
180.0
 51
270.0
  0
ARC
  5
8AF4
330
18
100
AcDbEntity
  8
1
  6
Continuous
100
AcDbCircle
 10
348.5674014233499
 20
141.5000000000022
 30
0.0
 40
0.5
100
AcDbArc
 50
90.0
 51
180.0
  0
LINE
  5
8AF5
330
18
100
AcDbEntity
  8
1
  6
Continuous
100
AcDbLine
 10
353.5674014234158
 20
134.0000000004179
 30
0.0
 11
352.5674014234165
 21
134.0000000004165
 31
0.0
  0
LINE
  5
8AF6
330
18
100
AcDbEntity
  8
1
  6
Continuous
100
AcDbLine
 10
353.5674014234158
 20
139.0000000000022
 30
0.0
 11
364.3674014233517
 21
139.0000000000022
 31
0.0
  0
LINE
  5
8AF7
330
18
100
AcDbEntity
  8
1
  6
Continuous
100
AcDbLine
 10
367.3674014231536
 20
139.9999999998536
 30
0.0
 11
381.5674014232791
 21
139.9999999998558
 31
0.0
  0
LINE
  5
8AF8
330
18
100
AcDbEntity
  8
1
  6
Continuous
100
AcDbLine
 10
376.1065166836743
 20
144.9999999998253
 30
0.0
 11
375.3065166836743
 21
144.9999999998253
 31
0.0
  0
LINE
  5
8AF9
330
18
100
AcDbEntity
  8
4
  6
CENTER
 48
0.5
100
AcDbLine
 10
388.3174016948038
 20
180.0000000000022
 30
0.0
 11
341.3174011519028
 21
180.0000000000022
 31
0.0
  0
LINE
  5
8AFA
330
18
100
AcDbEntity
  8
1
  6
Continuous
100
AcDbLine
 10
377.067401423241
 20
162.3999999998544
 30
0.0
 11
377.0674014232569
 21
167.4999999993035
 31
0.0
  0
LINE
  5
8AFB
330
18
100
AcDbEntity
  8
4
  6
CENTER
 48
0.1
100
AcDbLine
 10
377.56740142323
 20
157.399999999963
 30
0.0
 11
383.5674014233233
 21
157.399999999963
 31
0.0
  0
LINE
  5
8AFC
330
18
100
AcDbEntity
  8
4
  6
CENTER
 48
0.1
100
AcDbLine
 10
377.5674014232375
 20
162.4999999999677
 30
0.0
 11
383.5674014233309
 21
162.4999999999677
 31
0.0
  0
LINE
  5
8AFD
330
18
100
AcDbEntity
  8
4
  6
CENTER
 48
0.2
100
AcDbLine
 10
383.5674014233124
 20
149.9999999999344
 30
0.0
 11
373.306516683673
 21
149.9999999998624
 31
0.0
  0
ARC
  5
8AFE
330
18
100
AcDbEntity
  8
1
  6
Continuous
100
AcDbCircle
 10
378.112629407897
 20
147.8929892462391
 30
0.0
 40
1.3
100
AcDbArc
 50
274.9999999999997
 51
344.1191499917191
  0
LINE
  5
8AFF
330
18
100
AcDbEntity
  8
1
  6
Continuous
100
AcDbLine
 10
377.1065166836744
 20
146.1999999998254
 30
0.0
 11
377.1065166836744
 21
153.7999999998261
 31
0.0
  0
LINE
  5
8B00
330
18
100
AcDbEntity
  8
1
  6
Continuous
100
AcDbLine
 10
377.1065166836744
 20
146.1999999998254
 30
0.0
 11
376.1065166836743
 21
146.1999999998254
 31
0.0
  0
LINE
  5
8B01
330
18
100
AcDbEntity
  8
1
  6
Continuous
100
AcDbLine
 10
377.1065166836744
 20
146.4999999998253
 30
0.0
 11
378.2259318735087
 21
146.5979361387146
 31
0.0
  0
LINE
  5
8B02
330
18
100
AcDbEntity
  8
1
  6
Continuous
100
AcDbLine
 10
377.1065166836744
 20
153.7999999998261
 30
0.0
 11
376.1065166836743
 21
153.7999999998261
 31
0.0
  0
ARC
  5
8B03
330
18
100
AcDbEntity
  8
1
  6
Continuous
100
AcDbCircle
 10
378.112629407897
 20
152.1070107534123
 30
0.0
 40
1.3
100
AcDbArc
 50
15.88085000828094
 51
85.00000000000026
  0
LINE
  5
8B04
330
18
100
AcDbEntity
  8
1
  6
Continuous
100
AcDbLine
 10
377.1065166836744
 20
153.4999999998261
 30
0.0
 11
378.2259318735087
 21
153.4020638609369
 31
0.0
  0
LINE
  5
8B05
330
18
100
AcDbEntity
  8
1
  6
Continuous
100
AcDbLine
 10
376.1065166836743
 20
148.9999999998275
 30
0.0
 11
377.1065166836744
 21
149.999999999825
 31
0.0
  0
LINE
  5
8B06
330
18
100
AcDbEntity
  8
1
  6
Continuous
100
AcDbLine
 10
376.1065166836743
 20
149.999999999825
 30
0.0
 11
377.1065166836744
 21
150.9999999998226
 31
0.0
  0
ARC
  5
8B07
330
18
100
AcDbEntity
  8
1
  6
Continuous
100
AcDbCircle
 10
370.7065166836742
 20
149.9999999998261
 30
0.0
 40
9.0
100
AcDbArc
 50
344.1191499917154
 51
15.88085000828094
  0
LINE
  5
8B08
330
18
100
AcDbEntity
  8
1
  6
Continuous
100
AcDbLine
 10
379.3806160605468
 20
152.3999999998544
 30
0.0
 11
379.56740142323
 21
152.3999999998544
 31
0.0
  0
LINE
  5
8B09
330
18
100
AcDbEntity
  8
1
  6
Continuous
100
AcDbLine
 10
376.1065166836743
 20
154.9999999998261
 30
0.0
 11
375.3065166836743
 21
154.9999999998261
 31
0.0
  0
LINE
  5
8B0A
330
18
100
AcDbEntity
  8
1
  6
Continuous
100
AcDbLine
 10
377.0674014232223
 20
165.4999999993036
 30
0.0
 11
379.5674014231635
 21
165.4999999992958
 31
0.0
  0
LINE
  5
8B0B
330
18
100
AcDbEntity
  8
1
  6
Continuous
100
AcDbLine
 10
375.3065166836578
 20
162.3999999998545
 30
0.0
 11
379.56740142323
 21
162.3999999998544
 31
0.0
  0
LINE
  5
8B0C
330
18
100
AcDbEntity
  8
1
  6
Continuous
100
AcDbLine
 10
379.5674014232972
 20
170.3999999999771
 30
0.0
 11
381.5674014233426
 21
170.3999999999771
 31
0.0
  0
LINE
  5
8B0D
330
18
100
AcDbEntity
  8
1
  6
Continuous
100
AcDbLine
 10
377.0674014232569
 20
167.4999999993035
 30
0.0
 11
375.3065166837175
 21
167.4999999993035
 31
0.0
  0
LINE
  5
8B0E
330
18
100
AcDbEntity
  8
1
  6
Continuous
100
AcDbLine
 10
379.5674014232972
 20
169.9999999999335
 30
0.0
 11
375.306516683725
 21
169.9999999999335
 31
0.0
  0
LINE
  5
8B13
330
18
100
AcDbEntity
  8
1
  6
Continuous
100
AcDbLine
 10
375.306516683725
 20
217.4999999999397
 30
0.0
 11
355.567401423262
 21
217.4999999999397
 31
0.0
  0
ARC
  5
8B14
330
18
100
AcDbEntity
  8
1
  6
Continuous
100
AcDbCircle
 10
364.367401423348
 20
216.000000000002
 30
0.0
 40
5.0
100
AcDbArc
 50
17.45760312297492
 51
90.0
  0
LINE
  5
8B15
330
18
100
AcDbEntity
  8
1
  6
Continuous
100
AcDbLine
 10
349.0674014233517
 20
226.000000000416
 30
0.0
 11
352.5674014234157
 21
226.0000000004097
 31
0.0
  0
LINE
  5
8B16
330
18
100
AcDbEntity
  8
1
  6
Continuous
100
AcDbLine
 10
349.0674014233499
 20
217.5000000000022
 30
0.0
 11
349.0847537066902
 21
217.5000000000022
 31
0.0
  0
LINE
  5
8B17
330
18
100
AcDbEntity
  8
1
  6
Continuous
100
AcDbLine
 10
348.5674014233499
 20
218.0000000000022
 30
0.0
 11
349.0847537066912
 21
218.0000000000022
 31
0.0
  0
ARC
  5
8B18
330
18
100
AcDbEntity
  8
1
  6
Continuous
100
AcDbCircle
 10
349.0674014233499
 20
216.5000000000022
 30
0.0
 40
1.0
100
AcDbArc
 50
90.0
 51
180.0
  0
ARC
  5
8B19
330
18
100
AcDbEntity
  8
1
  6
Continuous
100
AcDbCircle
 10
348.5674014233499
 20
218.5000000000022
 30
0.0
 40
0.5
100
AcDbArc
 50
180.0
 51
270.0
  0
ARC
  5
8B1A
330
18
100
AcDbEntity
  8
1
  6
Continuous
100
AcDbCircle
 10
349.0674014233499
 20
225.0000000004161
 30
0.0
 40
1.0
100
AcDbArc
 50
90.0
 51
180.0
  0
LINE
  5
8B1B
330
18
100
AcDbEntity
  8
1
  6
Continuous
100
AcDbLine
 10
353.5674014234158
 20
221.0000000000022
 30
0.0
 11
364.367401423348
 21
221.0000000000022
 31
0.0
  0
LINE
  5
8B1C
330
18
100
AcDbEntity
  8
1
  6
Continuous
100
AcDbLine
 10
353.5674014234158
 20
226.0000000004179
 30
0.0
 11
352.5674014234165
 21
226.0000000004165
 31
0.0
  0
ARC
  5
8B1D
330
18
100
AcDbEntity
  8
1
  6
Continuous
100
AcDbCircle
 10
370.7065166837264
 20
209.9999999998301
 30
0.0
 40
9.0
100
AcDbArc
 50
344.1191499917154
 51
15.88085000828094
  0
LINE
  5
8B1E
330
18
100
AcDbEntity
  8
1
  6
Continuous
100
AcDbLine
 10
377.1065166837264
 20
206.1999999998294
 30
0.0
 11
377.1065166837264
 21
213.7999999998301
 31
0.0
  0
LINE
  5
8B1F
330
18
100
AcDbEntity
  8
1
  6
Continuous
100
AcDbLine
 10
376.1065166837263
 20
204.9999999998294
 30
0.0
 11
376.1065166837263
 21
214.9999999998301
 31
0.0
  0
LINE
  5
8B20
330
18
100
AcDbEntity
  8
1
  6
Continuous
100
AcDbLine
 10
375.3065166837263
 20
204.9999999998294
 30
0.0
 11
375.3065166837239
 21
214.9999999998552
 31
0.0
  0
LINE
  5
8B21
330
18
100
AcDbEntity
  8
1
  6
Continuous
100
AcDbLine
 10
376.1065166837263
 20
208.9999999998314
 30
0.0
 11
377.1065166837264
 21
209.999999999829
 31
0.0
  0
LINE
  5
8B22
330
18
100
AcDbEntity
  8
4
  6
CENTER
 48
0.1
100
AcDbLine
 10
377.5674014232972
 20
202.6000000001567
 30
0.0
 11
383.5674014233905
 21
202.6000000001567
 31
0.0
  0
LINE
  5
8B23
330
18
100
AcDbEntity
  8
4
  6
CENTER
 48
0.1
100
AcDbLine
 10
377.5674014232897
 20
197.5000000001521
 30
0.0
 11
383.5674014233831
 21
197.5000000001521
 31
0.0
  0
LINE
  5
8B24
330
18
100
AcDbEntity
  8
1
  6
Continuous
100
AcDbLine
 10
379.5674014232972
 20
189.5999999999771
 30
0.0
 11
381.5674014233712
 21
189.5999999999771
 31
0.0
  0
LINE
  5
8B25
330
18
100
AcDbEntity
  8
1
  6
Continuous
100
AcDbLine
 10
377.067401423241
 20
197.6000000001501
 30
0.0
 11
377.0674014232569
 21
192.500000000701
 31
0.0
  0
LINE
  5
8B26
330
18
100
AcDbEntity
  8
1
  6
Continuous
100
AcDbLine
 10
377.0674014232223
 20
194.5000000007008
 30
0.0
 11
379.5674014231635
 21
194.5000000007087
 31
0.0
  0
LINE
  5
8B27
330
18
100
AcDbEntity
  8
1
  6
Continuous
100
AcDbLine
 10
375.3065166836578
 20
197.6000000001499
 30
0.0
 11
379.56740142323
 21
197.6000000001501
 31
0.0
  0
LINE
  5
8B28
330
18
100
AcDbEntity
  8
1
  6
Continuous
100
AcDbLine
 10
377.0674014232569
 20
192.500000000701
 30
0.0
 11
375.3065166837175
 21
192.500000000701
 31
0.0
  0
LINE
  5
8B29
330
18
100
AcDbEntity
  8
1
  6
Continuous
100
AcDbLine
 10
379.5674014232972
 20
189.9999999999335
 30
0.0
 11
375.3065166837251
 21
189.9999999999335
 31
0.0
  0
ARC
  5
8B2A
330
18
100
AcDbEntity
  8
1
  6
Continuous
100
AcDbCircle
 10
378.112629407949
 20
207.8929892462431
 30
0.0
 40
1.3
100
AcDbArc
 50
274.9999999999997
 51
344.1191499917191
  0
LINE
  5
8B2B
330
18
100
AcDbEntity
  8
1
  6
Continuous
100
AcDbLine
 10
377.1065166837264
 20
206.4999999998294
 30
0.0
 11
378.2259318735608
 21
206.5979361387185
 31
0.0
  0
LINE
  5
8B2C
330
18
100
AcDbEntity
  8
1
  6
Continuous
100
AcDbLine
 10
377.1065166837264
 20
206.1999999998294
 30
0.0
 11
376.1065166837263
 21
206.1999999998294
 31
0.0
  0
LINE
  5
8B2D
330
18
100
AcDbEntity
  8
1
  6
Continuous
100
AcDbLine
 10
379.3806160606671
 20
207.6000000000481
 30
0.0
 11
379.5674014232972
 21
207.6000000000481
 31
0.0
  0
LINE
  5
8B2E
330
18
100
AcDbEntity
  8
1
  6
Continuous
100
AcDbLine
 10
376.1065166837263
 20
204.9999999998294
 30
0.0
 11
375.3065166837263
 21
204.9999999998294
 31
0.0
  0
LINE
  5
8B2F
330
18
100
AcDbEntity
  8
1
  6
Continuous
100
AcDbLine
 10
367.3674014235813
 20
219.999999999827
 30
0.0
 11
381.5674014233954
 21
219.9999999998413
 31
0.0
  0
LINE
  5
8B30
330
18
100
AcDbEntity
  8
4
  6
CENTER
 48
0.2
100
AcDbLine
 10
383.5674014234015
 20
209.9999999998599
 30
0.0
 11
373.306516683725
 21
209.9999999999545
 31
0.0
  0
LINE
  5
8B31
330
18
100
AcDbEntity
  8
1
  6
Continuous
100
AcDbLine
 10
379.5674014232972
 20
211.5762999814451
 30
0.0
 11
379.5674014232972
 21
219.9999999998392
 31
0.0
  0
LINE
  5
8B32
330
18
100
AcDbEntity
  8
1
  6
Continuous
100
AcDbLine
 10
376.1065166837263
 20
209.999999999829
 30
0.0
 11
377.1065166837264
 21
210.9999999998265
 31
0.0
  0
LINE
  5
8B33
330
18
100
AcDbEntity
  8
1
  6
Continuous
100
AcDbLine
 10
377.1065166837264
 20
213.4999999998301
 30
0.0
 11
378.2259318735608
 21
213.4020638609409
 31
0.0
  0
ARC
  5
8B34
330
18
100
AcDbEntity
  8
1
  6
Continuous
100
AcDbCircle
 10
378.112629407949
 20
212.1070107534163
 30
0.0
 40
1.3
100
AcDbArc
 50
15.88085000828094
 51
85.00000000000026
  0
LINE
  5
8B35
330
18
100
AcDbEntity
  8
1
  6
Continuous
100
AcDbLine
 10
377.1065166837264
 20
213.7999999998301
 30
0.0
 11
376.1065166837263
 21
213.7999999998301
 31
0.0
  0
LINE
  5
8B36
330
18
100
AcDbEntity
  8
1
  6
Continuous
100
AcDbLine
 10
376.1065166837263
 20
214.9999999998301
 30
0.0
 11
375.3065166837263
 21
214.9999999998301
 31
0.0
  0
LINE
  5
8B78
330
18
100
AcDbEntity
  8
4
  6
CENTER
 48
0.5
100
AcDbLine
 10
272.8848025753959
 20
289.9999999999997
 30
0.0
 11
156.7500002713108
 21
289.9999999999998
 31
0.0
  0
LINE
  5
8B7B
330
18
100
AcDbEntity
  8
4
  6
CENTER
 48
0.1
100
AcDbLine
 10
211.7500002713992
 20
281.2500000000472
 30
0.0
 11
202.7500002713992
 21
281.2500000000472
 31
0.0
  0
LINE
  5
8B7C
330
18
100
AcDbEntity
  8
1
  6
Continuous
100
AcDbLine
 10
238.250000271581
 20
294.5500000000897
 30
0.0
 11
195.250000271632
 21
294.550000000105
 31
0.0
  0
LINE
  5
8B7D
330
18
100
AcDbEntity
  8
1
  6
Continuous
100
AcDbLine
 10
237.2500002715885
 20
295.5500000000899
 30
0.0
 11
195.250000271632
 21
295.550000000105
 31
0.0
  0
LINE
  5
8B7E
330
18
100
AcDbEntity
  8
1
  6
Continuous
100
AcDbLine
 10
250.2500002714413
 20
304.7500000001
 30
0.0
 11
173.7500002712776
 21
304.7500000000957
 31
0.0
  0
LINE
  5
8B7F
330
18
100
AcDbEntity
  8
1
  6
Continuous
100
AcDbLine
 10
250.2500002714413
 20
306.7500000001
 30
0.0
 11
173.7500002712774
 21
306.7500000000957
 31
0.0
  0
LINE
  5
8B80
330
18
100
AcDbEntity
  8
1
  6
Continuous
100
AcDbLine
 10
261.750000271582
 20
278.7500000000611
 30
0.0
 11
188.750000271582
 21
278.7500000001184
 31
0.0
  0
LINE
  5
8B81
330
18
100
AcDbEntity
  8
1
  6
Continuous
100
AcDbLine
 10
261.7500002715812
 20
277.7500000000611
 30
0.0
 11
188.7500002715812
 21
277.7500000001184
 31
0.0
  0
ARC
  5
8B82
330
18
100
AcDbEntity
  8
1
  6
Continuous
100
AcDbCircle
 10
225.2500002719266
 20
718.0833333333473
 30
0.0
 40
444.8333333332576
100
AcDbArc
 50
265.4122976509648
 51
274.5877023489445
  0
LINE
  5
8B87
330
18
100
AcDbEntity
  8
1
  6
Continuous
100
AcDbLine
 10
175.7500002712776
 20
294.7500000001702
 30
0.0
 11
195.2500002716317
 21
294.7500000001678
 31
0.0
  0
ARC
  5
8B88
330
18
100
AcDbEntity
  8
5
  6
PHANTOM
 48
0.1
100
AcDbCircle
 10
193.3204814219132
 20
283.3865334459421
 30
0.0
 40
25.0
100
AcDbArc
 50
121.2911945167409
 51
148.9928899711978
  0
LINE
  5
8B89
330
18
100
AcDbEntity
  8
1
  6
Continuous
100
AcDbLine
 10
178.9052852472316
 20
294.1066106825412
 30
0.0
 11
175.7500002712776
 21
294.3826623481306
 31
0.0
  0
LINE
  5
8B8A
330
18
100
AcDbEntity
  8
1
  6
Continuous
100
AcDbLine
 10
171.7500002712776
 20
287.7500000000955
 30
0.0
 11
171.7500002712776
 21
304.7500000000957
 31
0.0
  0
LINE
  5
8B8B
330
18
100
AcDbEntity
  8
1
  6
Continuous
100
AcDbLine
 10
173.7500002712776
 20
287.7500000000956
 30
0.0
 11
173.7500002712776
 21
304.7500000000957
 31
0.0
  0
LINE
  5
8B8C
330
18
100
AcDbEntity
  8
1
  6
Continuous
100
AcDbLine
 10
175.7500002712776
 20
293.1500000001293
 30
0.0
 11
175.7500002712776
 21
300.3500000001293
 31
0.0
  0
ARC
  5
8B8D
330
18
100
AcDbEntity
  8
1
  6
Continuous
100
AcDbCircle
 10
174.7500002712776
 20
292.1500000001294
 30
0.0
 40
1.0
100
AcDbArc
 50
90.0
 51
180.0
  0
LINE
  5
8B8E
330
18
100
AcDbEntity
  8
1
  6
Continuous
100
AcDbLine
 10
178.7309737617364
 20
292.1142212863576
 30
0.0
 11
173.8304455393106
 21
292.5429619511085
 31
0.0
  0
LINE
  5
8B8F
330
18
100
AcDbEntity
  8
1
  6
Continuous
100
AcDbLine
 10
173.7500002712776
 20
287.7500000000956
 30
0.0
 11
171.7500002713974
 21
287.7500000000955
 31
0.0
  0
LINE
  5
8B90
330
18
100
AcDbEntity
  8
1
  6
Continuous
100
AcDbLine
 10
178.7309737617362
 20
292.1142212863576
 30
0.0
 11
178.9052852472316
 21
294.1066106825412
 31
0.0
  0
LINE
  5
8B91
330
18
100
AcDbEntity
  8
1
  6
Continuous
100
AcDbLine
 10
174.7500002712776
 20
293.1500000001293
 30
0.0
 11
175.7500002712776
 21
293.1500000001293
 31
0.0
  0
LINE
  5
8B92
330
18
100
AcDbEntity
  8
1
  6
Continuous
100
AcDbLine
 10
162.7500002714792
 20
294.7500000001721
 30
0.0
 11
171.7500002712776
 21
294.750000000171
 31
0.0
  0
ARC
  5
8B93
330
18
100
AcDbEntity
  8
1
  6
Continuous
100
AcDbCircle
 10
183.3269889007077
 20
283.3736077938478
 30
0.0
 40
25.01223735322362
100
AcDbArc
 50
121.2803063472994
 51
148.9751911935782
  0
ARC
  5
8B95
330
18
100
AcDbEntity
  8
1
  6
Continuous
100
AcDbCircle
 10
162.750000271429
 20
295.7500000001721
 30
0.0
 40
1.0
100
AcDbArc
 50
148.9928899712014
 51
270.0
  0
ARC
  5
8B96
330
18
100
AcDbEntity
  8
1
  6
Continuous
100
AcDbCircle
 10
173.7500002712776
 20
304.7500000000957
 30
0.0
 40
2.0
100
AcDbArc
 50
90.0
 51
180.0
  0
LINE
  5
8B97
330
18
100
AcDbEntity
  8
1
  6
Continuous
100
AcDbLine
 10
170.3400002714288
 20
304.7500000001341
 30
0.0
 11
171.7500002712776
 21
304.7500000001341
 31
0.0
  0
LINE
  5
8B98
330
18
100
AcDbEntity
  8
4
  6
CENTER
 48
0.1
100
AcDbLine
 10
177.7500002712775
 20
296.74999999986
 30
0.0
 11
169.7500002712776
 21
296.7499999998636
 31
0.0
  0
ARC
  5
8B99
330
18
100
AcDbEntity
  8
5
  6
PHANTOM
 48
0.1
100
AcDbCircle
 10
172.7500002714289
 20
295.7500000001727
 30
0.0
 40
1.0
100
AcDbArc
 50
148.9928899711978
 51
270.0
  0
ARC
  5
8B9A
330
18
100
AcDbEntity
  8
1
  6
Continuous
100
AcDbCircle
 10
174.7500002712776
 20
301.3500000001292
 30
0.0
 40
1.0
100
AcDbArc
 50
180.0
 51
270.0
  0
LINE
  5
8B9B
330
18
100
AcDbEntity
  8
1
  6
Continuous
100
AcDbLine
 10
174.7500002712776
 20
300.3500000001293
 30
0.0
 11
175.7500002712776
 21
300.3500000001293
 31
0.0
  0
LINE
  5
8B9C
330
18
100
AcDbEntity
  8
1
  6
Continuous
100
AcDbLine
 10
195.2500002716186
 20
304.7500000001134
 30
0.0
 11
195.2500002716527
 21
278.7500000001134
 31
0.0
  0
LINE
  5
8B9D
330
18
100
AcDbEntity
  8
1
  6
Continuous
100
AcDbLine
 10
188.7500002715717
 20
275.6720113967499
 30
0.0
 11
188.7500002715666
 21
277.7500000001159
 31
0.0
  0
LINE
  5
8B9E
330
18
100
AcDbEntity
  8
1
  6
Continuous
100
AcDbLine
 10
188.7500002715666
 20
277.7500000001159
 30
0.0
 11
188.7500002715666
 21
278.7500000001184
 31
0.0
  0
ARC
  5
8B9F
330
18
100
AcDbEntity
  8
1
  6
Continuous
100
AcDbCircle
 10
189.7500002715718
 20
275.6720113967523
 30
0.0
 40
1.0
100
AcDbArc
 50
180.0
 51
265.4122976509648
  0
CIRCLE
  5
8BA0
330
18
100
AcDbEntity
  8
1
  6
Continuous
100
AcDbCircle
 10
207.2500002713992
 20
281.2500000000472
 30
0.0
 40
2.5
  0
LINE
  5
8BA1
330
18
100
AcDbEntity
  8
4
  6
CENTER
 48
0.1
100
AcDbLine
 10
207.2500002713992
 20
276.7500000000473
 30
0.0
 11
207.2500002713992
 21
285.7500000000472
 31
0.0
  0
LINE
  5
8BA2
330
18
100
AcDbEntity
  8
4
  6
CENTER
 48
0.1
100
AcDbLine
 10
185.7500002712144
 20
310.2500000001132
 30
0.0
 11
185.7500002712144
 21
301.7500000000964
 31
0.0
  0
LINE
  5
8BA3
330
18
100
AcDbEntity
  8
5
  6
PHANTOM
 48
0.1
100
AcDbLine
 10
180.3357867089869
 20
304.7500000001345
 30
0.0
 11
181.7500002712775
 21
304.7500000001345
 31
0.0
  0
ARC
  5
8BA4
330
18
100
AcDbEntity
  8
1
  6
Continuous
100
AcDbCircle
 10
185.7500002713998
 20
304.7500000001132
 30
0.0
 40
2.499999999999915
100
AcDbArc
 50
53.13010235415728
 51
126.8698976458479
  0
LINE
  5
8BA5
330
18
100
AcDbEntity
  8
4
  6
CENTER
 48
0.1
100
AcDbLine
 10
200.2500002712847
 20
308.7500000000972
 30
0.0
 11
200.2500002712847
 21
302.7500000000971
 31
0.0
  0
LINE
  5
8BA6
330
18
100
AcDbEntity
  8
4
  6
CENTER
 48
0.1
100
AcDbLine
 10
210.2500002712148
 20
308.7500000000977
 30
0.0
 11
210.2500002712148
 21
302.7500000000977
 31
0.0
  0
LINE
  5
8BA7
330
18
100
AcDbEntity
  8
1
  6
Continuous
100
AcDbLine
 10
205.2500002716294
 20
304.750000000125
 30
0.0
 11
205.2500002716416
 21
295.5500000001013
 31
0.0
  0
ARC
  5
8BA9
330
18
100
AcDbEntity
  8
1
  6
Continuous
100
AcDbCircle
 10
238.2500002715811
 20
277.5500000000897
 30
0.0
 40
17.0
100
AcDbArc
 50
4.047774196734083
 51
90.0
  0
LINE
  5
8BAA
330
18
100
AcDbEntity
  8
1
  6
Continuous
100
AcDbLine
 10
224.7500002718056
 20
302.2500000000504
 30
0.0
 11
234.7500002718056
 21
302.2500000000349
 31
0.0
  0
LINE
  5
8BAB
330
18
100
AcDbEntity
  8
1
  6
Continuous
100
AcDbLine
 10
216.7500002715504
 20
302.2500000001487
 30
0.0
 11
224.7500002718056
 21
302.2500000001564
 31
0.0
  0
LINE
  5
8BAC
330
18
100
AcDbEntity
  8
1
  6
Continuous
100
AcDbLine
 10
216.7500002715504
 20
297.2500000001486
 30
0.0
 11
224.7500002717901
 21
297.2500000001564
 31
0.0
  0
LINE
  5
8BAD
330
18
100
AcDbEntity
  8
1
  6
Continuous
100
AcDbLine
 10
216.7500002715527
 20
296.7500000000939
 30
0.0
 11
224.7500002717884
 21
296.7500000001064
 31
0.0
  0
LINE
  5
8BAE
330
18
100
AcDbEntity
  8
1
  6
Continuous
100
AcDbLine
 10
216.7500002715529
 20
296.7500000000873
 30
0.0
 11
216.7500002715529
 21
304.7500000000504
 31
0.0
  0
LINE
  5
8BAF
330
18
100
AcDbEntity
  8
1
  6
Continuous
100
AcDbLine
 10
224.7500002717846
 20
295.5500000000945
 30
0.0
 11
224.7500002718056
 21
302.2500000000349
 31
0.0
  0
LINE
  5
8BB0
330
18
100
AcDbEntity
  8
4
  6
CENTER
 48
0.1
100
AcDbLine
 10
229.7500002712566
 20
308.7500000000988
 30
0.0
 11
229.7500002712566
 21
302.7500000000988
 31
0.0
  0
LINE
  5
8BB1
330
18
100
AcDbEntity
  8
4
  6
CENTER
 48
0.1
100
AcDbLine
 10
240.2500002712566
 20
308.7500000000988
 30
0.0
 11
240.2500002712566
 21
302.7500000000988
 31
0.0
  0
LINE
  5
8BB2
330
18
100
AcDbEntity
  8
1
  6
Continuous
100
AcDbLine
 10
230.7009088964537
 20
301.4500000000412
 30
0.0
 11
235.8038599450947
 21
301.450000000033
 31
0.0
  0
LINE
  5
8BB3
330
18
100
AcDbEntity
  8
1
  6
Continuous
100
AcDbLine
 10
230.7009088964537
 20
301.4500000000412
 30
0.0
 11
230.700908896454
 21
295.5500000000954
 31
0.0
  0
LINE
  5
8BB4
330
18
100
AcDbEntity
  8
1
  6
Continuous
100
AcDbLine
 10
226.7500002718055
 20
302.2500000000316
 30
0.0
 11
226.7500002718134
 21
304.7499999999727
 31
0.0
  0
LINE
  5
8BB5
330
18
100
AcDbEntity
  8
1
  6
Continuous
100
AcDbLine
 10
232.7500002718055
 20
302.2500000000127
 30
0.0
 11
232.7500002718134
 21
304.749999999954
 31
0.0
  0
LINE
  5
8BB6
330
18
100
AcDbEntity
  8
1
  6
Continuous
100
AcDbLine
 10
235.8038599450947
 20
301.450000000033
 30
0.0
 11
235.8038599450947
 21
295.5500000000954
 31
0.0
  0
LINE
  5
8BB7
330
18
100
AcDbEntity
  8
1
  6
Continuous
100
AcDbLine
 10
234.750000271803
 20
301.4500000000347
 30
0.0
 11
234.7500002718055
 21
302.2500000000188
 31
0.0
  0
LINE
  5
8BB8
330
18
100
AcDbEntity
  8
1
  6
Continuous
100
AcDbLine
 10
235.25000027165
 20
304.750000000082
 30
0.0
 11
235.2500002716514
 21
301.4500000000339
 31
0.0
  0
LINE
  5
8BB9
330
18
100
AcDbEntity
  8
1
  6
Continuous
100
AcDbLine
 10
238.250000271581
 20
294.5500000000897
 30
0.0
 11
237.2500002715886
 21
295.5500000000881
 31
0.0
  0
LINE
  5
8BBA
330
18
100
AcDbEntity
  8
1
  6
Continuous
100
AcDbLine
 10
245.2500002716539
 20
304.7499999999093
 30
0.0
 11
245.2500002716539
 21
293.0419333848865
 31
0.0
  0
LINE
  5
8BBB
330
18
100
AcDbEntity
  8
1
  6
Continuous
100
AcDbLine
 10
259.3104896882211
 20
298.7789678037381
 30
0.0
 11
261.6582952898052
 21
282.7499999998699
 31
0.0
  0
LINE
  5
8BBC
330
18
100
AcDbEntity
  8
1
  6
Continuous
100
AcDbLine
 10
257.3316047741645
 20
298.4891152603329
 30
0.0
 11
259.6794103757483
 21
282.4601474564646
 31
0.0
  0
LINE
  5
8BBD
330
18
100
AcDbEntity
  8
1
  6
Continuous
100
AcDbLine
 10
255.2488237602819
 20
278.7500000000661
 30
0.0
 11
255.2488237602819
 21
294.7500000000679
 31
0.0
  0
LINE
  5
8BBE
330
18
100
AcDbEntity
  8
1
  6
Continuous
100
AcDbLine
 10
267.5949500319906
 20
283.6195576300907
 30
0.0
 11
261.6582952898045
 21
282.7499999998746
 31
0.0
  0
LINE
  5
8BBF
330
18
100
AcDbEntity
  8
1
  6
Continuous
100
AcDbLine
 10
267.8848025753958
 20
281.640672716029
 30
0.0
 11
261.9481478332096
 21
280.7711150858133
 31
0.0
  0
ARC
  5
8BC0
330
18
100
AcDbEntity
  8
1
  6
Continuous
100
AcDbCircle
 10
261.6582952898052
 20
282.7499999998699
 30
0.0
 40
2.0
100
AcDbArc
 50
188.3330097710379
 51
278.3330097710397
  0
LINE
  5
8BC1
330
18
100
AcDbEntity
  8
1
  6
Continuous
100
AcDbLine
 10
261.7500002715797
 20
275.6720113966953
 30
0.0
 11
261.7500002715812
 21
277.7500000000577
 31
0.0
  0
LINE
  5
8BC2
330
18
100
AcDbEntity
  8
1
  6
Continuous
100
AcDbLine
 10
261.7500002715812
 20
277.7500000000611
 30
0.0
 11
261.7500002715812
 21
278.7500000000611
 31
0.0
  0
ARC
  5
8BC3
330
18
100
AcDbEntity
  8
1
  6
Continuous
100
AcDbCircle
 10
260.7500002715796
 20
275.6720113966962
 30
0.0
 40
1.0
100
AcDbArc
 50
274.5877023489445
 51
0.0
  0
LINE
  5
8BC4
330
18
100
AcDbEntity
  8
1
  6
Continuous
100
AcDbLine
 10
267.8848025753959
 20
281.640672716029
 30
0.0
 11
267.5949500319891
 21
283.6195576300901
 31
0.0
  0
LINE
  5
8BC5
330
18
100
AcDbEntity
  8
1
  6
Continuous
100
AcDbLine
 10
250.250000271628
 20
297.4518537895463
 30
0.0
 11
257.3316047741567
 21
298.4891152603318
 31
0.0
  0
LINE
  5
8BC6
330
18
100
AcDbEntity
  8
1
  6
Continuous
100
AcDbLine
 10
250.2500002716256
 20
299.473194177553
 30
0.0
 11
257.0417522307486
 21
300.4680001743881
 31
0.0
  0
LINE
  5
8BC7
330
18
100
AcDbEntity
  8
4
  6
CENTER
 48
0.2
100
AcDbLine
 10
251.2500237602478
 20
306.7520335970261
 30
0.0
 11
251.2500237602586
 21
294.7500000000695
 31
0.0
  0
LINE
  5
8BC8
330
18
100
AcDbEntity
  8
1
  6
Continuous
100
AcDbLine
 10
250.2500002714413
 20
304.7500000001
 30
0.0
 11
250.2500002714413
 21
306.7500000001
 31
0.0
  0
LINE
  5
8BC9
330
18
100
AcDbEntity
  8
1
  6
Continuous
100
AcDbLine
 10
245.2500002714413
 20
306.7500000001
 30
0.0
 11
245.2500002714414
 21
304.7500000000997
 31
0.0
  0
LINE
  5
8BCA
330
18
100
AcDbEntity
  8
1
  6
Continuous
100
AcDbLine
 10
253.2488237602837
 20
296.7500000000679
 30
0.0
 11
245.250000271654
 21
296.7500000000741
 31
0.0
  0
LINE
  5
8BCB
330
18
100
AcDbEntity
  8
1
  6
Continuous
100
AcDbLine
 10
250.2500002716219
 20
302.1520335970262
 30
0.0
 11
255.0500237602538
 21
302.1520335970262
 31
0.0
  0
LINE
  5
8BCC
330
18
100
AcDbEntity
  8
1
  6
Continuous
100
AcDbLine
 10
250.2500002716233
 20
301.1520335970262
 30
0.0
 11
256.2500237602539
 21
301.1520335970262
 31
0.0
  0
ARC
  5
8BCD
330
18
100
AcDbEntity
  8
1
  6
Continuous
100
AcDbCircle
 10
251.2500237602539
 20
295.7520335970261
 30
0.0
 40
9.0
100
AcDbArc
 50
74.11914999172039
 51
96.37952067344222
  0
LINE
  5
8BCE
330
18
100
AcDbEntity
  8
1
  6
Continuous
100
AcDbLine
 10
252.2500237602507
 20
301.1520335970282
 30
0.0
 11
251.2500237602516
 21
302.1520335970262
 31
0.0
  0
LINE
  5
8BCF
330
18
100
AcDbEntity
  8
1
  6
Continuous
100
AcDbLine
 10
256.2500237602539
 20
300.3520335968315
 30
0.0
 11
250.2500002716242
 21
300.3520335968237
 31
0.0
  0
LINE
  5
8BD0
330
18
100
AcDbEntity
  8
1
  6
Continuous
100
AcDbLine
 10
251.2500237602521
 20
301.1520335970262
 30
0.0
 11
250.250023760253
 21
302.1520335970242
 31
0.0
  0
ARC
  5
8BD1
330
18
100
AcDbEntity
  8
1
  6
Continuous
100
AcDbCircle
 10
253.3570345138401
 20
303.1581463212489
 30
0.0
 40
1.3
100
AcDbArc
 50
4.999999999999813
 51
74.11914999172039
  0
LINE
  5
8BD2
330
18
100
AcDbEntity
  8
2
  6
Continuous
100
AcDbLine
 10
252.7500237606013
 20
299.8393792760891
 30
0.0
 11
252.7500237606013
 21
300.3520335970247
 31
0.0
  0
LINE
  5
8BD3
330
18
100
AcDbEntity
  8
1
  6
Continuous
100
AcDbLine
 10
253.2500237606013
 20
299.9126156076588
 30
0.0
 11
253.2500237606013
 21
300.3520335970244
 31
0.0
  0
LINE
  5
8BD4
330
18
100
AcDbEntity
  8
1
  6
Continuous
100
AcDbLine
 10
256.2500237602539
 20
301.1520335970262
 30
0.0
 11
256.2500237602539
 21
300.3520335970263
 31
0.0
  0
LINE
  5
8BD5
330
18
100
AcDbEntity
  8
1
  6
Continuous
100
AcDbLine
 10
254.7500237602539
 20
302.1520335970262
 30
0.0
 11
254.6520876213647
 21
303.2714487868606
 31
0.0
  0
LINE
  5
8BD6
330
18
100
AcDbEntity
  8
1
  6
Continuous
100
AcDbLine
 10
255.0500237602538
 20
302.1520335970262
 30
0.0
 11
255.0500237602538
 21
301.1520335970262
 31
0.0
  0
LINE
  5
8BD7
330
18
100
AcDbEntity
  8
2
  6
Continuous
100
AcDbLine
 10
252.7500237606013
 20
296.7500000000684
 30
0.0
 11
252.7500237606013
 21
297.8180388880821
 31
0.0
  0
LINE
  5
8BD8
330
18
100
AcDbEntity
  8
1
  6
Continuous
100
AcDbLine
 10
253.2500237606013
 20
296.7500000000679
 30
0.0
 11
253.2500237606013
 21
297.8912752196517
 31
0.0
  0
LINE
  5
8BD9
330
18
100
AcDbEntity
  8
1
  6
Continuous
100
AcDbLine
 10
250.2500002716185
 20
304.7500000001857
 30
0.0
 11
250.250000271629
 21
296.7500000000704
 31
0.0
  0
ARC
  5
8BDA
330
18
100
AcDbEntity
  8
1
  6
Continuous
100
AcDbCircle
 10
253.2488237602819
 20
294.7500000000679
 30
0.0
 40
2.0
100
AcDbArc
 50
0.0
 51
90.0
  0
ARC
  5
8BDB
330
18
100
AcDbEntity
  8
1
  6
Continuous
100
AcDbCircle
 10
257.3316047741645
 20
298.4891152603329
 30
0.0
 40
2.0
100
AcDbArc
 50
8.333009771037954
 51
98.33300977103981
  0
LINE
  5
8BE0
330
18
100
AcDbEntity
  8
4
  6
CENTER
 48
0.5
100
AcDbLine
 10
458.8761897883208
 20
180.0000000000377
 30
0.0
 11
577.6457943960077
 21
180.0000000000704
 31
0.0
  0
LINE
  5
8BE1
330
18
100
AcDbEntity
  8
4
  6
CENTER
 48
0.5
100
AcDbLine
 10
460.1000954347052
 20
179.999999999922
 30
0.0
 11
566.8999051082809
 21
180.0000000000818
 31
0.0
  0
ARC
  5
8BE5
330
18
100
AcDbEntity
  8
1
  6
Continuous
100
AcDbCircle
 10
509.1457943959531
 20
633.9999999999299
 30
0.0
 40
500.0
100
AcDbArc
 50
266.6377301665983
 51
273.3622698334024
  0
ARC
  5
8BE6
330
18
100
AcDbEntity
  8
1
  6
Continuous
100
AcDbCircle
 10
509.1457943959531
 20
-274.0000000000703
 30
0.0
 40
500.0
100
AcDbArc
 50
86.6377301665943
 51
93.36226983340571
  0
LINE
  5
8BE7
330
18
100
AcDbEntity
  8
1
  6
Continuous
100
AcDbLine
 10
492.1457943960332
 20
140.0000000001637
 30
0.0
 11
562.6457943961644
 21
140.0000000001675
 31
0.0
  0
LINE
  5
8BE8
330
18
100
AcDbEntity
  8
1
  6
Continuous
100
AcDbLine
 10
492.1457943960326
 20
220.0000000001637
 30
0.0
 11
562.6457943961598
 21
220.0000000001675
 31
0.0
  0
LINE
  5
8BED
330
18
100
AcDbEntity
  8
1
  6
Continuous
100
AcDbLine
 10
524.145794396291
 20
177.500000000062
 30
0.0
 11
514.1457943962911
 21
177.500000000062
 31
0.0
  0
LINE
  5
8BEE
330
18
100
AcDbEntity
  8
1
  6
Continuous
100
AcDbLine
 10
524.145794396291
 20
182.500000000062
 30
0.0
 11
514.1457943962911
 21
182.500000000062
 31
0.0
  0
ARC
  5
8BF0
330
18
100
AcDbEntity
  8
1
  6
Continuous
100
AcDbCircle
 10
486.1457943959881
 20
187.6000000000858
 30
0.0
 40
2.0
100
AcDbArc
 50
90.0
 51
180.0
  0
LINE
  5
8BF4
330
18
100
AcDbEntity
  8
1
  6
Continuous
100
AcDbLine
 10
474.4265317487299
 20
142.5000000001209
 30
0.0
 11
474.4265317491261
 21
217.500000000125
 31
0.0
  0
LINE
  5
8BF5
330
18
100
AcDbEntity
  8
1
  6
Continuous
100
AcDbLine
 10
466.5109920919225
 20
215.5000000001562
 30
0.0
 11
466.5109920919225
 21
144.5000000001521
 31
0.0
  0
LINE
  5
8BF7
330
18
100
AcDbEntity
  8
1
  6
Continuous
100
AcDbLine
 10
484.1457943956432
 20
190.0000000000422
 30
0.0
 11
484.1457943956432
 21
170.0000000000422
 31
0.0
  0
LINE
  5
8BF9
330
18
100
AcDbEntity
  8
1
  6
Continuous
100
AcDbLine
 10
489.145794396033
 20
168.4000000000855
 30
0.0
 11
489.1457943960328
 21
143.0000000001637
 31
0.0
  0
LINE
  5
8BFA
330
18
100
AcDbEntity
  8
1
  6
Continuous
100
AcDbLine
 10
489.1457943956432
 20
168.0000000000445
 30
0.0
 11
489.1457943956432
 21
144.5000000000536
 31
0.0
  0
CIRCLE
  5
8BFB
330
18
100
AcDbEntity
  8
1
  6
Continuous
100
AcDbCircle
 10
483.1457943956303
 20
150.0000000001668
 30
0.0
 40
5.0
  0
LINE
  5
8BFC
330
18
100
AcDbEntity
  8
4
  6
CENTER
 48
0.2
100
AcDbLine
 10
483.1457943955911
 20
157.0000000001668
 30
0.0
 11
483.1457943955911
 21
143.0000000001669
 31
0.0
  0
ARC
  5
8BFE
330
18
100
AcDbEntity
  8
1
  6
Continuous
100
AcDbCircle
 10
487.1457943960328
 20
144.5000000000536
 30
0.0
 40
2.0
100
AcDbArc
 50
270.0000000000447
 51
0.0
  0
ARC
  5
8BFF
330
18
100
AcDbEntity
  8
1
  6
Continuous
100
AcDbCircle
 10
492.145794396033
 20
143.0000000001637
 30
0.0
 40
3.0
100
AcDbArc
 50
180.0
 51
270.0
  0
LINE
  5
8C02
330
18
100
AcDbEntity
  8
1
  6
Continuous
100
AcDbLine
 10
468.510992091924
 20
142.5000000001521
 30
0.0
 11
487.1457943960344
 21
142.5000000000536
 31
0.0
  0
ARC
  5
8C03
330
18
100
AcDbEntity
  8
1
  6
Continuous
100
AcDbCircle
 10
480.1731863058676
 20
140.8503391661638
 30
0.0
 40
6.0
100
AcDbArc
 50
184.4684294743069
 51
266.6377301665983
  0
ARC
  5
8C04
330
18
100
AcDbEntity
  8
1
  6
Continuous
100
AcDbCircle
 10
468.5109920919225
 20
144.5000000001521
 30
0.0
 40
2.0
100
AcDbArc
 50
180.0
 51
270.0000000000447
  0
ARC
  5
8C05
330
18
100
AcDbEntity
  8
1
  6
Continuous
100
AcDbCircle
 10
981.1457943959544
 20
180.0000000001489
 30
0.0
 40
508.4999999999998
100
AcDbArc
 50
184.2291918181078
 51
184.4684294743069
  0
LINE
  5
8C06
330
18
100
AcDbEntity
  8
4
  6
CENTER
 48
0.2
100
AcDbLine
 10
487.8457943960686
 20
157.399999999963
 30
0.0
 11
500.4457943960683
 21
157.3999999999771
 31
0.0
  0
LINE
  5
8C07
330
18
100
AcDbEntity
  8
4
  6
CENTER
 48
0.2
100
AcDbLine
 10
476.1457943956303
 20
149.9999999999344
 30
0.0
 11
490.1457943956303
 21
149.9999999999342
 31
0.0
  0
ARC
  5
8C08
330
18
100
AcDbEntity
  8
1
  6
Continuous
100
AcDbCircle
 10
487.1457943960328
 20
168.4000000000855
 30
0.0
 40
2.0
100
AcDbArc
 50
0.0
 51
90.0
  0
ARC
  5
8C09
330
18
100
AcDbEntity
  8
1
  6
Continuous
100
AcDbCircle
 10
487.1457943956431
 20
168.0000000000445
 30
0.0
 40
2.0
100
AcDbArc
 50
0.0
 51
90.0
  0
CIRCLE
  5
8C0A
330
18
100
AcDbEntity
  8
1
  6
Continuous
100
AcDbCircle
 10
483.1457943956303
 20
150.0000000001668
 30
0.0
 40
3.799999999999998
  0
CIRCLE
  5
8C0B
330
18
100
AcDbEntity
  8
1
  6
Continuous
100
AcDbCircle
 10
483.1457943956303
 20
150.0000000001668
 30
0.0
 40
3.5
  0
LINE
  5
8C0C
330
18
100
AcDbEntity
  8
1
  6
Continuous
100
AcDbLine
 10
484.2874738880049
 20
150.0000000001266
 30
0.0
 11
484.4560250961158
 21
149.560909091036
 31
0.0
  0
LINE
  5
8C0D
330
18
100
AcDbEntity
  8
1
  6
Continuous
100
AcDbLine
 10
484.2874738880049
 20
150.0000000001266
 30
0.0
 11
484.4560250961162
 21
150.439090909218
 31
0.0
  0
ARC
  5
8C0E
330
18
100
AcDbEntity
  8
1
  6
Continuous
100
AcDbCircle
 10
483.1457943954545
 20
150.0000000001266
 30
0.0
 40
2.1
100
AcDbArc
 50
28.32825096402472
 51
61.67174903598404
  0
ARC
  5
8C0F
330
18
100
AcDbEntity
  8
1
  6
Continuous
100
AcDbCircle
 10
483.1457943954545
 20
150.0000000001266
 30
0.0
 40
2.1
100
AcDbArc
 50
298.3282509640268
 51
331.6717490359902
  0
LINE
  5
8C10
330
18
100
AcDbEntity
  8
1
  6
Continuous
100
AcDbLine
 10
484.456025096116
 20
150.4390909092178
 30
0.0
 11
484.9943057175361
 21
150.9964968100242
 31
0.0
  0
LINE
  5
8C11
330
18
100
AcDbEntity
  8
1
  6
Continuous
100
AcDbLine
 10
484.4560250961158
 20
149.560909091036
 30
0.0
 11
484.9943057175361
 21
149.0035031902293
 31
0.0
  0
LINE
  5
8C12
330
18
100
AcDbEntity
  8
1
  6
Continuous
100
AcDbLine
 10
483.1457943954545
 20
151.1416794926773
 30
0.0
 11
482.7067034863642
 21
151.3102307007881
 31
0.0
  0
LINE
  5
8C13
330
18
100
AcDbEntity
  8
1
  6
Continuous
100
AcDbLine
 10
482.7067034863642
 20
151.3102307007881
 30
0.0
 11
482.1492975855569
 21
151.8485113222085
 31
0.0
  0
LINE
  5
8C14
330
18
100
AcDbEntity
  8
1
  6
Continuous
100
AcDbLine
 10
481.8355636947931
 20
150.4390909092173
 30
0.0
 11
481.2972830733726
 21
150.9964968100241
 31
0.0
  0
LINE
  5
8C15
330
18
100
AcDbEntity
  8
1
  6
Continuous
100
AcDbLine
 10
482.0041149029038
 20
150.0000000001266
 30
0.0
 11
481.835563694793
 21
150.4390909092172
 31
0.0
  0
LINE
  5
8C16
330
18
100
AcDbEntity
  8
1
  6
Continuous
100
AcDbLine
 10
482.0041149029038
 20
150.0000000001265
 30
0.0
 11
481.8355636947927
 21
149.5609090910352
 31
0.0
  0
LINE
  5
8C17
330
18
100
AcDbEntity
  8
1
  6
Continuous
100
AcDbLine
 10
481.8355636947927
 20
149.5609090910354
 30
0.0
 11
481.2972830733728
 21
149.0035031902291
 31
0.0
  0
LINE
  5
8C18
330
18
100
AcDbEntity
  8
1
  6
Continuous
100
AcDbLine
 10
482.7067034863636
 20
148.689769299465
 30
0.0
 11
482.1492975855568
 21
148.1514886780446
 31
0.0
  0
LINE
  5
8C19
330
18
100
AcDbEntity
  8
1
  6
Continuous
100
AcDbLine
 10
483.1457943954545
 20
148.858320507576
 30
0.0
 11
482.7067034863638
 21
148.6897692994651
 31
0.0
  0
LINE
  5
8C1A
330
18
100
AcDbEntity
  8
1
  6
Continuous
100
AcDbLine
 10
483.1457943954545
 20
148.858320507576
 30
0.0
 11
483.5848853045458
 21
148.6897692994649
 31
0.0
  0
ARC
  5
8C1B
330
18
100
AcDbEntity
  8
1
  6
Continuous
100
AcDbCircle
 10
483.1457943954545
 20
150.0000000001266
 30
0.0
 40
2.1
100
AcDbArc
 50
208.3282509640245
 51
241.6717490359979
  0
ARC
  5
8C1C
330
18
100
AcDbEntity
  8
1
  6
Continuous
100
AcDbCircle
 10
483.1457943954545
 20
150.0000000001266
 30
0.0
 40
2.1
100
AcDbArc
 50
118.3282509640123
 51
151.6717490359865
  0
LINE
  5
8C1D
330
18
100
AcDbEntity
  8
1
  6
Continuous
100
AcDbLine
 10
483.1457943954545
 20
151.1416794926773
 30
0.0
 11
483.5848853045455
 21
151.3102307007882
 31
0.0
  0
LINE
  5
8C1E
330
18
100
AcDbEntity
  8
1
  6
Continuous
100
AcDbLine
 10
483.5848853045455
 20
151.3102307007882
 30
0.0
 11
484.1422912053521
 21
151.8485113222083
 31
0.0
  0
LINE
  5
8C1F
330
18
100
AcDbEntity
  8
1
  6
Continuous
100
AcDbLine
 10
483.5848853045458
 20
148.6897692994649
 30
0.0
 11
484.1422912053522
 21
148.1514886780451
 31
0.0
  0
LINE
  5
8C20
330
18
100
AcDbEntity
  8
1
  6
Continuous
100
AcDbLine
 10
484.1457943956432
 20
170.0000000000422
 30
0.0
 11
487.1457943956414
 21
170.0000000000445
 31
0.0
  0
LINE
  5
8C21
330
18
100
AcDbEntity
  8
1
  6
Continuous
100
AcDbLine
 10
487.1457943960333
 20
170.4000000000855
 30
0.0
 11
486.1457943959881
 21
170.4000000000855
 31
0.0
  0
ARC
  5
8C22
330
18
100
AcDbEntity
  8
1
  6
Continuous
100
AcDbCircle
 10
486.1457943959881
 20
172.4000000000858
 30
0.0
 40
2.0
100
AcDbArc
 50
180.0
 51
270.0
  0
LINE
  5
8C23
330
18
100
AcDbEntity
  8
4
  6
CENTER
 48
0.1
100
AcDbLine
 10
504.6457943961808
 20
157.7499999999677
 30
0.0
 11
504.6457943961808
 21
167.2499999999677
 31
0.0
  0
LINE
  5
8C24
330
18
100
AcDbEntity
  8
4
  6
CENTER
 48
0.1
100
AcDbLine
 10
499.8957943961808
 20
162.4999999999677
 30
0.0
 11
509.3957943961807
 21
162.4999999999677
 31
0.0
  0
CIRCLE
  5
8C25
330
18
100
AcDbEntity
  8
1
  6
Continuous
100
AcDbCircle
 10
504.6457943961808
 20
162.5000000001523
 30
0.0
 40
2.75
  0
LINE
  5
8C26
330
18
100
AcDbEntity
  8
1
  6
Continuous
 48
0.25
100
AcDbLine
 10
494.7150153549233
 20
156.2127677143579
 30
0.0
 11
495.4122226411733
 21
155.5396020586682
 31
0.0
  0
ARC
  5
8C27
330
18
100
AcDbEntity
  8
1
  6
Continuous
 48
0.25
100
AcDbCircle
 10
494.1457943960681
 20
157.3999999999701
 30
0.0
 40
2.25
100
AcDbArc
 50
214.2419999999985
 51
235.7579999999973
  0
LINE
  5
8C28
330
18
100
AcDbEntity
  8
1
  6
Continuous
 48
0.25
100
AcDbLine
 10
493.5765734372131
 20
156.2127677143579
 30
0.0
 11
492.8800732577443
 21
155.5403091654495
 31
0.0
  0
ARC
  5
8C29
330
18
100
AcDbEntity
  8
1
  6
Continuous
 48
0.25
100
AcDbCircle
 10
494.1457943960681
 20
157.3999999999701
 30
0.0
 40
2.25
100
AcDbArc
 50
304.2420000000026
 51
325.7580000000014
  0
CIRCLE
  5
8C2A
330
18
100
AcDbEntity
  8
1
  6
Continuous
 48
0.25
100
AcDbCircle
 10
494.1457943960681
 20
157.39999999997
 30
0.0
 40
4.0
  0
LINE
  5
8C2B
330
18
100
AcDbEntity
  8
4
  6
CENTER
 48
0.2
100
AcDbLine
 10
494.1457943960611
 20
163.6999999999703
 30
0.0
 11
494.1457943960751
 21
151.0999999999703
 31
0.0
  0
CIRCLE
  5
8C2C
330
18
100
AcDbEntity
  8
1
  6
Continuous
100
AcDbCircle
 10
494.145794396033
 20
157.4000000000848
 30
0.0
 40
4.299999999999998
  0
LINE
  5
8C2D
330
18
100
AcDbEntity
  8
1
  6
Continuous
 48
0.25
100
AcDbLine
 10
493.1657443973437
 20
157.39999999997
 30
0.0
 11
492.958562110456
 21
157.9692209588253
 31
0.0
  0
LINE
  5
8C2E
330
18
100
AcDbEntity
  8
1
  6
Continuous
 48
0.25
100
AcDbLine
 10
495.1258443947928
 20
157.39999999997
 30
0.0
 11
495.3337337884617
 21
157.9699280656065
 31
0.0
  0
LINE
  5
8C2F
330
18
100
AcDbEntity
  8
1
  6
Continuous
 48
0.25
100
AcDbLine
 10
493.1657443973437
 20
157.39999999997
 30
0.0
 11
492.958562110456
 21
156.8307790411149
 31
0.0
  0
LINE
  5
8C30
330
18
100
AcDbEntity
  8
1
  6
Continuous
 48
0.25
100
AcDbLine
 10
495.1258443947928
 20
157.39999999997
 30
0.0
 11
495.3330266816805
 21
156.8307790411149
 31
0.0
  0
LINE
  5
8C31
330
18
100
AcDbEntity
  8
1
  6
Continuous
 48
0.25
100
AcDbLine
 10
494.7157224617044
 20
158.5879393923635
 30
0.0
 11
495.4122226411733
 21
159.2603979412718
 31
0.0
  0
ARC
  5
8C32
330
18
100
AcDbEntity
  8
1
  6
Continuous
 48
0.25
100
AcDbCircle
 10
494.1457943960681
 20
157.3999999999701
 30
0.0
 40
2.25
100
AcDbArc
 50
124.2417000000009
 51
145.7580000000014
  0
LINE
  5
8C33
330
18
100
AcDbEntity
  8
1
  6
Continuous
 48
0.25
100
AcDbLine
 10
493.5765734372131
 20
158.5872322855823
 30
0.0
 11
492.8800732577443
 21
159.2596908344908
 31
0.0
  0
ARC
  5
8C34
330
18
100
AcDbEntity
  8
1
  6
Continuous
 48
0.25
100
AcDbCircle
 10
494.1457943960681
 20
157.3999999999701
 30
0.0
 40
2.25
100
AcDbArc
 50
34.24199999999855
 51
55.75829999999907
  0
LINE
  5
8C35
330
18
100
AcDbEntity
  8
1
  6
Continuous
 48
0.25
100
AcDbLine
 10
492.958562110456
 20
157.9692209588253
 30
0.0
 11
492.2861035615475
 21
158.665721138294
 31
0.0
  0
LINE
  5
8C36
330
18
100
AcDbEntity
  8
1
  6
Continuous
 48
0.25
100
AcDbLine
 10
494.1457943960681
 20
158.3800499986946
 30
0.0
 11
493.5765734372131
 21
158.5872322855823
 31
0.0
  0
LINE
  5
8C37
330
18
100
AcDbEntity
  8
1
  6
Continuous
 48
0.25
100
AcDbLine
 10
494.1457943960681
 20
158.3800499986946
 30
0.0
 11
494.7157224617044
 21
158.5879393923635
 31
0.0
  0
LINE
  5
8C38
330
18
100
AcDbEntity
  8
1
  6
Continuous
 48
0.25
100
AcDbLine
 10
495.3337337884617
 20
157.9699280656065
 30
0.0
 11
496.0061923373698
 21
158.6664282450752
 31
0.0
  0
LINE
  5
8C39
330
18
100
AcDbEntity
  8
1
  6
Continuous
 48
0.25
100
AcDbLine
 10
492.958562110456
 20
156.8307790411149
 30
0.0
 11
492.2861035615476
 21
156.1342788616461
 31
0.0
  0
LINE
  5
8C3A
330
18
100
AcDbEntity
  8
1
  6
Continuous
 48
0.25
100
AcDbLine
 10
494.1457943960681
 20
156.4199500012455
 30
0.0
 11
493.5765734372131
 21
156.2127677143579
 31
0.0
  0
LINE
  5
8C3B
330
18
100
AcDbEntity
  8
1
  6
Continuous
 48
0.25
100
AcDbLine
 10
494.1457943960681
 20
156.4199500012455
 30
0.0
 11
494.7150153549233
 21
156.2127677143579
 31
0.0
  0
LINE
  5
8C3C
330
18
100
AcDbEntity
  8
1
  6
Continuous
 48
0.25
100
AcDbLine
 10
495.3330266816805
 20
156.8307790411149
 30
0.0
 11
496.0061923373698
 21
156.1335717548649
 31
0.0
  0
ARC
  5
8C3D
330
18
100
AcDbEntity
  8
1
  6
Continuous
100
AcDbCircle
 10
514.1457943962911
 20
180.0000000000581
 30
0.0
 40
2.5
100
AcDbArc
 50
90.0
 51
270.0
  0
ARC
  5
8C42
330
18
100
AcDbEntity
  8
1
  6
Continuous
100
AcDbCircle
 10
487.145794396033
 20
191.6000000000856
 30
0.0
 40
2.0
100
AcDbArc
 50
270.0
 51
0.0
  0
ARC
  5
8C43
330
18
100
AcDbEntity
  8
1
  6
Continuous
100
AcDbCircle
 10
487.1457943956431
 20
192.0000000000445
 30
0.0
 40
2.0
100
AcDbArc
 50
270.0
 51
0.0
  0
ARC
  5
8C44
330
18
100
AcDbEntity
  8
1
  6
Continuous
100
AcDbCircle
 10
487.145794396033
 20
215.5000000000577
 30
0.0
 40
2.0
100
AcDbArc
 50
0.0
 51
90.00000000004478
  0
LINE
  5
8C45
330
18
100
AcDbEntity
  8
4
  6
CENTER
 48
0.2
100
AcDbLine
 10
487.8457943960686
 20
202.6000000001567
 30
0.0
 11
500.4457943960683
 21
202.6000000001427
 31
0.0
  0
LINE
  5
8C46
330
18
100
AcDbEntity
  8
4
  6
CENTER
 48
0.2
100
AcDbLine
 10
476.1457943956825
 20
209.9999999999383
 30
0.0
 11
490.1457943956824
 21
209.9999999999383
 31
0.0
  0
ARC
  5
8C47
330
18
100
AcDbEntity
  8
1
  6
Continuous
100
AcDbCircle
 10
492.145794396033
 20
217.0000000001637
 30
0.0
 40
3.0
100
AcDbArc
 50
90.0
 51
180.0
  0
LINE
  5
8C48
330
18
100
AcDbEntity
  8
1
  6
Continuous
100
AcDbLine
 10
484.456025096168
 20
209.5609090910401
 30
0.0
 11
484.9943057175884
 21
209.0035031902334
 31
0.0
  0
LINE
  5
8C49
330
18
100
AcDbEntity
  8
1
  6
Continuous
100
AcDbLine
 10
481.8355636948449
 20
209.5609090910394
 30
0.0
 11
481.2972830734249
 21
209.0035031902332
 31
0.0
  0
LINE
  5
8C4A
330
18
100
AcDbEntity
  8
4
  6
CENTER
 48
0.2
100
AcDbLine
 10
483.1457943956431
 20
217.000000000171
 30
0.0
 11
483.1457943956431
 21
203.0000000001709
 31
0.0
  0
CIRCLE
  5
8C4B
330
18
100
AcDbEntity
  8
1
  6
Continuous
100
AcDbCircle
 10
483.1457943956825
 20
210.0000000001709
 30
0.0
 40
5.0
  0
CIRCLE
  5
8C4C
330
18
100
AcDbEntity
  8
1
  6
Continuous
100
AcDbCircle
 10
483.1457943956825
 20
210.0000000001709
 30
0.0
 40
3.799999999999998
  0
CIRCLE
  5
8C4D
330
18
100
AcDbEntity
  8
1
  6
Continuous
100
AcDbCircle
 10
483.1457943956825
 20
210.0000000001709
 30
0.0
 40
3.5
  0
LINE
  5
8C4E
330
18
100
AcDbEntity
  8
1
  6
Continuous
100
AcDbLine
 10
487.1457943960328
 20
189.6000000000856
 30
0.0
 11
486.1457943959883
 21
189.6000000000858
 31
0.0
  0
LINE
  5
8C4F
330
18
100
AcDbEntity
  8
1
  6
Continuous
100
AcDbLine
 10
484.1457943956432
 20
190.0000000000422
 30
0.0
 11
487.1457943956446
 21
190.0000000000445
 31
0.0
  0
ARC
  5
8C50
330
18
100
AcDbEntity
  8
1
  6
Continuous
100
AcDbCircle
 10
483.1457943955065
 20
210.0000000001306
 30
0.0
 40
2.1
100
AcDbArc
 50
298.3282509640268
 51
331.6717490359902
  0
LINE
  5
8C51
330
18
100
AcDbEntity
  8
1
  6
Continuous
100
AcDbLine
 10
482.7067034864158
 20
208.6897692994691
 30
0.0
 11
482.1492975856089
 21
208.1514886780486
 31
0.0
  0
LINE
  5
8C52
330
18
100
AcDbEntity
  8
1
  6
Continuous
100
AcDbLine
 10
483.1457943955063
 20
208.8583205075799
 30
0.0
 11
482.7067034864158
 21
208.6897692994691
 31
0.0
  0
LINE
  5
8C53
330
18
100
AcDbEntity
  8
1
  6
Continuous
100
AcDbLine
 10
483.1457943955063
 20
208.8583205075799
 30
0.0
 11
483.5848853045978
 21
208.6897692994689
 31
0.0
  0
ARC
  5
8C54
330
18
100
AcDbEntity
  8
1
  6
Continuous
100
AcDbCircle
 10
483.1457943955065
 20
210.0000000001306
 30
0.0
 40
2.1
100
AcDbArc
 50
208.3282509640245
 51
241.6717490359979
  0
LINE
  5
8C55
330
18
100
AcDbEntity
  8
1
  6
Continuous
100
AcDbLine
 10
483.584885304598
 20
208.689769299469
 30
0.0
 11
484.1422912054039
 21
208.1514886780489
 31
0.0
  0
LINE
  5
8C56
330
18
100
AcDbEntity
  8
1
  6
Continuous
100
AcDbLine
 10
468.5109920919209
 20
217.5000000001562
 30
0.0
 11
487.1457943960314
 21
217.5000000000577
 31
0.0
  0
ARC
  5
8C57
330
18
100
AcDbEntity
  8
1
  6
Continuous
100
AcDbCircle
 10
480.1731863058329
 20
219.1496608336935
 30
0.0
 40
6.0
100
AcDbArc
 50
93.36226983340571
 51
175.531570525742
  0
ARC
  5
8C59
330
18
100
AcDbEntity
  8
1
  6
Continuous
100
AcDbCircle
 10
468.5109920919225
 20
215.5000000001562
 30
0.0
 40
2.0
100
AcDbArc
 50
90.00000000004478
 51
180.0
  0
ARC
  5
8C5A
330
18
100
AcDbEntity
  8
1
  6
Continuous
100
AcDbCircle
 10
981.1457943959544
 20
180.0000000001489
 30
0.0
 40
508.4999999999998
100
AcDbArc
 50
175.531570525742
 51
175.770808181915
  0
ARC
  5
8C5B
330
18
100
AcDbEntity
  8
1
  6
Continuous
100
AcDbCircle
 10
483.1457943955065
 20
210.0000000001306
 30
0.0
 40
2.1
100
AcDbArc
 50
28.32825096402472
 51
61.67174903598404
  0
ARC
  5
8C5C
330
18
100
AcDbEntity
  8
1
  6
Continuous
100
AcDbCircle
 10
483.1457943955065
 20
210.0000000001306
 30
0.0
 40
2.1
100
AcDbArc
 50
118.3282509640123
 51
151.6717490359865
  0
LINE
  5
8C5D
330
18
100
AcDbEntity
  8
1
  6
Continuous
100
AcDbLine
 10
484.2874738880571
 20
210.0000000001307
 30
0.0
 11
484.4560250961682
 21
210.439090909222
 31
0.0
  0
LINE
  5
8C5E
330
18
100
AcDbEntity
  8
1
  6
Continuous
100
AcDbLine
 10
484.4560250961682
 20
210.4390909092219
 30
0.0
 11
484.9943057175884
 21
210.9964968100282
 31
0.0
  0
LINE
  5
8C5F
330
18
100
AcDbEntity
  8
1
  6
Continuous
100
AcDbLine
 10
481.8355636948449
 20
210.4390909092212
 30
0.0
 11
481.2972830734246
 21
210.996496810028
 31
0.0
  0
LINE
  5
8C60
330
18
100
AcDbEntity
  8
1
  6
Continuous
100
AcDbLine
 10
482.0041149029558
 20
210.0000000001305
 30
0.0
 11
481.8355636948449
 21
210.4390909092213
 31
0.0
  0
LINE
  5
8C61
330
18
100
AcDbEntity
  8
1
  6
Continuous
100
AcDbLine
 10
482.706703486416
 20
211.310230700792
 30
0.0
 11
482.1492975856092
 21
211.8485113222125
 31
0.0
  0
LINE
  5
8C62
330
18
100
AcDbEntity
  8
1
  6
Continuous
100
AcDbLine
 10
483.1457943955065
 20
211.1416794926813
 30
0.0
 11
482.706703486416
 21
211.310230700792
 31
0.0
  0
LINE
  5
8C63
330
18
100
AcDbEntity
  8
1
  6
Continuous
100
AcDbLine
 10
483.1457943955065
 20
211.1416794926813
 30
0.0
 11
483.5848853045978
 21
211.3102307007923
 31
0.0
  0
LINE
  5
8C64
330
18
100
AcDbEntity
  8
1
  6
Continuous
100
AcDbLine
 10
483.5848853045978
 20
211.3102307007923
 30
0.0
 11
484.1422912054041
 21
211.8485113222122
 31
0.0
  0
LINE
  5
8C65
330
18
100
AcDbEntity
  8
1
  6
Continuous
100
AcDbLine
 10
484.2874738880571
 20
210.0000000001307
 30
0.0
 11
484.456025096168
 21
209.5609090910401
 31
0.0
  0
LINE
  5
8C66
330
18
100
AcDbEntity
  8
1
  6
Continuous
100
AcDbLine
 10
482.0041149029558
 20
210.0000000001305
 30
0.0
 11
481.8355636948448
 21
209.5609090910392
 31
0.0
  0
LINE
  5
8C67
330
18
100
AcDbEntity
  8
1
  6
Continuous
100
AcDbLine
 10
489.1457943960331
 20
217.0000000001637
 30
0.0
 11
489.145794396033
 21
191.6000000000856
 31
0.0
  0
LINE
  5
8C68
330
18
100
AcDbEntity
  8
1
  6
Continuous
100
AcDbLine
 10
489.1457943956432
 20
215.5000000000577
 30
0.0
 11
489.1457943956432
 21
192.0000000000445
 31
0.0
  0
LINE
  5
8C69
330
18
100
AcDbEntity
  8
4
  6
CENTER
 48
0.1
100
AcDbLine
 10
499.8957943961808
 20
197.5000000001521
 30
0.0
 11
509.3957943961807
 21
197.5000000001521
 31
0.0
  0
CIRCLE
  5
8C6A
330
18
100
AcDbEntity
  8
1
  6
Continuous
100
AcDbCircle
 10
504.6457943961808
 20
197.5000000001521
 30
0.0
 40
2.75
  0
CIRCLE
  5
8C6B
330
18
100
AcDbEntity
  8
1
  6
Continuous
100
AcDbCircle
 10
494.1457943960683
 20
202.6000000001495
 30
0.0
 40
4.299999999999998
  0
LINE
  5
8C6C
330
18
100
AcDbEntity
  8
4
  6
CENTER
 48
0.2
100
AcDbLine
 10
494.1457943960611
 20
196.3000000001494
 30
0.0
 11
494.1457943960751
 21
208.9000000001494
 31
0.0
  0
CIRCLE
  5
8C6D
330
18
100
AcDbEntity
  8
1
  6
Continuous
 48
0.25
100
AcDbCircle
 10
494.1457943960683
 20
202.6000000001495
 30
0.0
 40
4.0
  0
LINE
  5
8C6E
330
18
100
AcDbEntity
  8
1
  6
Continuous
 48
0.25
100
AcDbLine
 10
494.7157224617048
 20
203.7879393925428
 30
0.0
 11
495.4122226411734
 21
204.4603979414512
 31
0.0
  0
ARC
  5
8C6F
330
18
100
AcDbEntity
  8
1
  6
Continuous
 48
0.25
100
AcDbCircle
 10
494.1457943960683
 20
202.6000000001495
 30
0.0
 40
2.25
100
AcDbArc
 50
124.2417000000009
 51
145.7580000000014
  0
LINE
  5
8C70
330
18
100
AcDbEntity
  8
1
  6
Continuous
 48
0.25
100
AcDbLine
 10
493.5765734372132
 20
203.7872322857616
 30
0.0
 11
492.8800732577445
 21
204.45969083467
 31
0.0
  0
ARC
  5
8C71
330
18
100
AcDbEntity
  8
1
  6
Continuous
 48
0.25
100
AcDbCircle
 10
494.1457943960683
 20
202.6000000001495
 30
0.0
 40
2.25
100
AcDbArc
 50
34.24199999999855
 51
55.75829999999907
  0
LINE
  5
8C72
330
18
100
AcDbEntity
  8
1
  6
Continuous
 48
0.25
100
AcDbLine
 10
494.7150153549237
 20
201.4127677145372
 30
0.0
 11
495.4122226411734
 21
200.7396020588475
 31
0.0
  0
ARC
  5
8C73
330
18
100
AcDbEntity
  8
1
  6
Continuous
 48
0.25
100
AcDbCircle
 10
494.1457943960683
 20
202.6000000001495
 30
0.0
 40
2.25
100
AcDbArc
 50
214.2419999999985
 51
235.7579999999973
  0
LINE
  5
8C74
330
18
100
AcDbEntity
  8
1
  6
Continuous
 48
0.25
100
AcDbLine
 10
492.9585621104561
 20
202.0307790412942
 30
0.0
 11
492.2861035615478
 21
201.3342788618255
 31
0.0
  0
LINE
  5
8C75
330
18
100
AcDbEntity
  8
1
  6
Continuous
 48
0.25
100
AcDbLine
 10
493.5765734372132
 20
201.4127677145372
 30
0.0
 11
492.8800732577445
 21
200.7403091656287
 31
0.0
  0
LINE
  5
8C76
330
18
100
AcDbEntity
  8
1
  6
Continuous
 48
0.25
100
AcDbLine
 10
494.1457943960683
 20
201.6199500014248
 30
0.0
 11
493.5765734372132
 21
201.4127677145372
 31
0.0
  0
LINE
  5
8C77
330
18
100
AcDbEntity
  8
1
  6
Continuous
 48
0.25
100
AcDbLine
 10
493.1657443973439
 20
202.6000000001495
 30
0.0
 11
492.9585621104561
 21
203.1692209590046
 31
0.0
  0
LINE
  5
8C78
330
18
100
AcDbEntity
  8
1
  6
Continuous
 48
0.25
100
AcDbLine
 10
493.1657443973439
 20
202.6000000001495
 30
0.0
 11
492.9585621104561
 21
202.0307790412942
 31
0.0
  0
LINE
  5
8C79
330
18
100
AcDbEntity
  8
1
  6
Continuous
 48
0.25
100
AcDbLine
 10
494.1457943960683
 20
201.6199500014248
 30
0.0
 11
494.7150153549237
 21
201.4127677145372
 31
0.0
  0
ARC
  5
8C7A
330
18
100
AcDbEntity
  8
1
  6
Continuous
 48
0.25
100
AcDbCircle
 10
494.1457943960683
 20
202.6000000001495
 30
0.0
 40
2.25
100
AcDbArc
 50
304.2420000000026
 51
325.7580000000014
  0
LINE
  5
8C7B
330
18
100
AcDbEntity
  8
1
  6
Continuous
 48
0.25
100
AcDbLine
 10
495.125844394793
 20
202.6000000001495
 30
0.0
 11
495.3337337884618
 21
203.1699280657858
 31
0.0
  0
LINE
  5
8C7C
330
18
100
AcDbEntity
  8
1
  6
Continuous
 48
0.25
100
AcDbLine
 10
495.125844394793
 20
202.6000000001495
 30
0.0
 11
495.3330266816807
 21
202.0307790412942
 31
0.0
  0
LINE
  5
8C7D
330
18
100
AcDbEntity
  8
1
  6
Continuous
 48
0.25
100
AcDbLine
 10
495.3330266816807
 20
202.0307790412942
 30
0.0
 11
496.0061923373703
 21
201.3335717550443
 31
0.0
  0
LINE
  5
8C7E
330
18
100
AcDbEntity
  8
1
  6
Continuous
 48
0.25
100
AcDbLine
 10
492.9585621104561
 20
203.1692209590046
 30
0.0
 11
492.2861035615476
 21
203.8657211384734
 31
0.0
  0
LINE
  5
8C7F
330
18
100
AcDbEntity
  8
1
  6
Continuous
 48
0.25
100
AcDbLine
 10
494.1457943960683
 20
203.5800499988739
 30
0.0
 11
493.5765734372132
 21
203.7872322857616
 31
0.0
  0
LINE
  5
8C80
330
18
100
AcDbEntity
  8
1
  6
Continuous
 48
0.25
100
AcDbLine
 10
494.1457943960683
 20
203.5800499988739
 30
0.0
 11
494.7157224617048
 21
203.7879393925428
 31
0.0
  0
LINE
  5
8C81
330
18
100
AcDbEntity
  8
1
  6
Continuous
 48
0.25
100
AcDbLine
 10
495.3337337884618
 20
203.1699280657858
 30
0.0
 11
496.0061923373701
 21
203.8664282452546
 31
0.0
  0
LINE
  5
8C82
330
18
100
AcDbEntity
  8
4
  6
CENTER
 48
0.1
100
AcDbLine
 10
504.6457943961808
 20
202.250000000152
 30
0.0
 11
504.6457943961808
 21
192.7500000001521
 31
0.0
  0
LINE
  5
8C83
330
18
100
AcDbEntity
  8
1
  6
Continuous
100
AcDbLine
 10
562.6457943961598
 20
220.0000000001675
 30
0.0
 11
562.6457943961106
 21
187.0000000000827
 31
0.0
  0
LINE
  5
8C8C
330
18
100
AcDbEntity
  8
1
  6
Continuous
100
AcDbLine
 10
562.6457943960899
 20
173.0000000000827
 30
0.0
 11
562.6457943960408
 21
140.0000000001982
 31
0.0
  0
LINE
  5
8C8D
330
18
100
AcDbEntity
  8
4
  6
CENTER
 48
0.2
100
AcDbLine
 10
534.1457943961528
 20
143.7000000000383
 30
0.0
 11
534.1457943961528
 21
156.3000000000383
 31
0.0
  0
ARC
  5
8C8E
330
18
100
AcDbEntity
  8
1
  6
Continuous
100
AcDbCircle
 10
538.1184024860458
 20
140.8503391661643
 30
0.0
 40
6.0
100
AcDbArc
 50
273.3622698334024
 51
351.8524276375114
  0
LINE
  5
8C8F
330
18
100
AcDbEntity
  8
1
  6
Continuous
 48
0.25
100
AcDbLine
 10
534.7157224617891
 20
151.1879393924316
 30
0.0
 11
535.4122226412577
 21
151.8603979413401
 31
0.0
  0
LINE
  5
8C90
330
18
100
AcDbEntity
  8
1
  6
Continuous
 48
0.25
100
AcDbLine
 10
534.7150153550078
 20
148.8127677144261
 30
0.0
 11
535.4122226412577
 21
148.1396020587365
 31
0.0
  0
LINE
  5
8C91
330
18
100
AcDbEntity
  8
1
  6
Continuous
 48
0.25
100
AcDbLine
 10
535.125844394877
 20
150.0000000000383
 30
0.0
 11
535.3337337885459
 21
150.5699280656747
 31
0.0
  0
LINE
  5
8C92
330
18
100
AcDbEntity
  8
1
  6
Continuous
 48
0.25
100
AcDbLine
 10
535.125844394877
 20
150.0000000000383
 30
0.0
 11
535.3330266817648
 21
149.4307790411832
 31
0.0
  0
CIRCLE
  5
8C93
330
18
100
AcDbEntity
  8
1
  6
Continuous
 48
0.25
100
AcDbCircle
 10
534.1457943961528
 20
150.0000000000383
 30
0.0
 40
4.0
  0
LINE
  5
8C94
330
18
100
AcDbEntity
  8
4
  6
CENTER
 48
0.2
100
AcDbLine
 10
527.8457943961528
 20
150.0000000000384
 30
0.0
 11
540.4457943961528
 21
150.0000000000384
 31
0.0
  0
CIRCLE
  5
8C95
330
18
100
AcDbEntity
  8
1
  6
Continuous
100
AcDbCircle
 10
534.1457943961505
 20
150.0000000000788
 30
0.0
 40
4.299999999999998
  0
ARC
  5
8C96
330
18
100
AcDbEntity
  8
1
  6
Continuous
 48
0.25
100
AcDbCircle
 10
534.1457943961528
 20
150.0000000000384
 30
0.0
 40
2.25
100
AcDbArc
 50
124.2417000000009
 51
145.7580000000014
  0
LINE
  5
8C97
330
18
100
AcDbEntity
  8
1
  6
Continuous
 48
0.25
100
AcDbLine
 10
533.5765734372975
 20
151.1872322856505
 30
0.0
 11
532.8800732578287
 21
151.8596908345589
 31
0.0
  0
ARC
  5
8C98
330
18
100
AcDbEntity
  8
1
  6
Continuous
 48
0.25
100
AcDbCircle
 10
534.1457943961528
 20
150.0000000000384
 30
0.0
 40
2.25
100
AcDbArc
 50
214.2419999999985
 51
235.7579999999973
  0
LINE
  5
8C99
330
18
100
AcDbEntity
  8
1
  6
Continuous
 48
0.25
100
AcDbLine
 10
532.9585621105406
 20
149.4307790411832
 30
0.0
 11
532.2861035616321
 21
148.7342788617144
 31
0.0
  0
LINE
  5
8C9A
330
18
100
AcDbEntity
  8
1
  6
Continuous
 48
0.25
100
AcDbLine
 10
533.5765734372975
 20
148.8127677144261
 30
0.0
 11
532.8800732578287
 21
148.1403091655177
 31
0.0
  0
LINE
  5
8C9B
330
18
100
AcDbEntity
  8
1
  6
Continuous
 48
0.25
100
AcDbLine
 10
534.1457943961525
 20
149.0199500013136
 30
0.0
 11
533.5765734372975
 21
148.8127677144261
 31
0.0
  0
LINE
  5
8C9C
330
18
100
AcDbEntity
  8
1
  6
Continuous
 48
0.25
100
AcDbLine
 10
533.1657443974282
 20
150.0000000000383
 30
0.0
 11
532.9585621105406
 21
150.5692209588935
 31
0.0
  0
LINE
  5
8C9D
330
18
100
AcDbEntity
  8
1
  6
Continuous
 48
0.25
100
AcDbLine
 10
533.1657443974282
 20
150.0000000000383
 30
0.0
 11
532.9585621105406
 21
149.4307790411832
 31
0.0
  0
LINE
  5
8C9E
330
18
100
AcDbEntity
  8
1
  6
Continuous
 48
0.25
100
AcDbLine
 10
534.1457943961525
 20
149.0199500013136
 30
0.0
 11
534.7150153550078
 21
148.8127677144261
 31
0.0
  0
LINE
  5
8C9F
330
18
100
AcDbEntity
  8
1
  6
Continuous
 48
0.25
100
AcDbLine
 10
532.9585621105406
 20
150.5692209588935
 30
0.0
 11
532.2861035616321
 21
151.2657211383623
 31
0.0
  0
LINE
  5
8CA0
330
18
100
AcDbEntity
  8
1
  6
Continuous
 48
0.25
100
AcDbLine
 10
534.1457943961528
 20
150.9800499987628
 30
0.0
 11
533.5765734372975
 21
151.1872322856505
 31
0.0
  0
LINE
  5
8CA1
330
18
100
AcDbEntity
  8
1
  6
Continuous
 48
0.25
100
AcDbLine
 10
534.1457943961528
 20
150.9800499987628
 30
0.0
 11
534.7157224617891
 21
151.1879393924316
 31
0.0
  0
ARC
  5
8CA2
330
18
100
AcDbEntity
  8
1
  6
Continuous
 48
0.25
100
AcDbCircle
 10
534.1457943961528
 20
150.0000000000384
 30
0.0
 40
2.25
100
AcDbArc
 50
34.24199999999855
 51
55.75829999999907
  0
ARC
  5
8CA3
330
18
100
AcDbEntity
  8
1
  6
Continuous
 48
0.25
100
AcDbCircle
 10
534.1457943961528
 20
150.0000000000384
 30
0.0
 40
2.25
100
AcDbArc
 50
304.2420000000026
 51
325.7580000000014
  0
LINE
  5
8CA4
330
18
100
AcDbEntity
  8
1
  6
Continuous
 48
0.25
100
AcDbLine
 10
535.3330266817648
 20
149.4307790411832
 30
0.0
 11
536.0061923374545
 21
148.7335717549332
 31
0.0
  0
LINE
  5
8CA5
330
18
100
AcDbEntity
  8
1
  6
Continuous
 48
0.25
100
AcDbLine
 10
535.3337337885459
 20
150.5699280656747
 30
0.0
 11
536.0061923374545
 21
151.2664282451435
 31
0.0
  0
LINE
  5
8CA6
330
18
100
AcDbEntity
  8
4
  6
CENTER
 48
0.1
100
AcDbLine
 10
524.1457943962226
 20
184.5000000000619
 30
0.0
 11
524.1457943962226
 21
175.5000000000619
 31
0.0
  0
CIRCLE
  5
8CA7
330
18
100
AcDbEntity
  8
1
  6
Continuous
100
AcDbCircle
 10
524.1457943962226
 20
180.0000000000811
 30
0.0
 40
2.1
  0
CIRCLE
  5
8CA8
330
18
100
AcDbEntity
  8
2
  6
Continuous
100
AcDbCircle
 10
524.1457943962226
 20
180.0000000000811
 30
0.0
 40
2.0
  0
CIRCLE
  5
8CA9
330
18
100
AcDbEntity
  8
1
  6
Continuous
100
AcDbCircle
 10
524.1457943962226
 20
180.0000000000811
 30
0.0
 40
1.620999999999999
  0
ARC
  5
8CAA
330
18
100
AcDbEntity
  8
1
  6
Continuous
100
AcDbCircle
 10
524.145794396291
 20
180.000000000062
 30
0.0
 40
2.5
100
AcDbArc
 50
270.0
 51
90.0
  0
LINE
  5
8CAB
330
18
100
AcDbEntity
  8
4
  6
CENTER
 48
0.1
100
AcDbLine
 10
548.6457943965068
 20
183.5000000000738
 30
0.0
 11
548.6457943965068
 21
176.5000000000739
 31
0.0
  0
CIRCLE
  5
8CAC
330
18
100
AcDbEntity
  8
1
  6
Continuous
100
AcDbCircle
 10
548.6457943965068
 20
180.0000000000738
 30
0.0
 40
1.5
  0
LINE
  5
8CAD
330
18
100
AcDbEntity
  8
4
  6
CENTER
 48
0.1
100
AcDbLine
 10
559.6457943960558
 20
149.9999999999545
 30
0.0
 11
565.6457943960559
 21
149.9999999999545
 31
0.0
  0
LINE
  5
8CAE
330
18
100
AcDbEntity
  8
1
  6
Continuous
100
AcDbLine
 10
568.0394841983376
 20
178.4500000000841
 30
0.0
 11
560.6457943960982
 21
178.4500000000861
 31
0.0
  0
LINE
  5
8CAF
330
18
100
AcDbEntity
  8
1
  6
Continuous
100
AcDbLine
 10
568.0394841983384
 20
181.5500000000843
 30
0.0
 11
560.6457943961028
 21
181.5500000000863
 31
0.0
  0
LINE
  5
8CB0
330
18
100
AcDbEntity
  8
1
  6
Continuous
100
AcDbLine
 10
571.6457943961246
 20
187.0000000000827
 30
0.0
 11
560.6457943961109
 21
187.0000000000827
 31
0.0
  0
LINE
  5
8CB1
330
18
100
AcDbEntity
  8
1
  6
Continuous
100
AcDbLine
 10
571.6457943961246
 20
173.0000000000827
 30
0.0
 11
560.6457943960901
 21
173.0000000000827
 31
0.0
  0
LINE
  5
8CB2
330
18
100
AcDbEntity
  8
1
  6
Continuous
100
AcDbLine
 10
560.6457943961112
 20
187.2000000000793
 30
0.0
 11
560.6457943960897
 21
172.8000000000793
 31
0.0
  0
LINE
  5
8CB3
330
18
100
AcDbEntity
  8
1
  6
Continuous
100
AcDbLine
 10
564.0600079585616
 20
174.0000000000827
 30
0.0
 11
564.0600079585616
 21
178.4500000000853
 31
0.0
  0
LINE
  5
8CB4
330
18
100
AcDbEntity
  8
1
  6
Continuous
100
AcDbLine
 10
560.6457943960897
 20
172.8000000000793
 30
0.0
 11
562.6457943960899
 21
172.8000000000802
 31
0.0
  0
LINE
  5
8CB5
330
18
100
AcDbEntity
  8
1
  6
Continuous
100
AcDbLine
 10
564.0600079585616
 20
181.5500000000852
 30
0.0
 11
564.0600079585616
 21
186.0000000000827
 31
0.0
  0
LINE
  5
8CB6
330
18
100
AcDbEntity
  8
1
  6
Continuous
100
AcDbLine
 10
560.6457943961112
 20
187.2000000000793
 30
0.0
 11
562.6457943961112
 21
187.20000000008
 31
0.0
  0
LINE
  5
8CB7
330
18
100
AcDbEntity
  8
1
  6
Continuous
100
AcDbLine
 10
572.6457943961246
 20
174.0000000000827
 30
0.0
 11
572.6457943961246
 21
186.0000000000827
 31
0.0
  0
ARC
  5
8CB8
330
18
100
AcDbEntity
  8
1
  6
Continuous
100
AcDbCircle
 10
571.6457943961246
 20
174.0000000000827
 30
0.0
 40
1.0
100
AcDbArc
 50
270.0
 51
0.0
  0
LINE
  5
8CB9
330
18
100
AcDbEntity
  8
1
  6
Continuous
100
AcDbLine
 10
568.0394841983384
 20
181.5500000000843
 30
0.0
 11
568.0394841983379
 21
178.4500000000816
 31
0.0
  0
ARC
  5
8CBA
330
18
100
AcDbEntity
  8
1
  6
Continuous
100
AcDbCircle
 10
571.6457943961246
 20
186.0000000000827
 30
0.0
 40
1.0
100
AcDbArc
 50
0.0
 51
90.0
  0
LINE
  5
8CBD
330
18
100
AcDbEntity
  8
1
  6
Continuous
 48
0.25
100
AcDbLine
 10
535.3330266817648
 20
209.4307790412262
 30
0.0
 11
536.0061923374545
 21
208.7335717549763
 31
0.0
  0
LINE
  5
8CBE
330
18
100
AcDbEntity
  8
1
  6
Continuous
 48
0.25
100
AcDbLine
 10
532.9585621105406
 20
209.4307790412262
 30
0.0
 11
532.2861035616321
 21
208.7342788617575
 31
0.0
  0
LINE
  5
8CBF
330
18
100
AcDbEntity
  8
1
  6
Continuous
 48
0.25
100
AcDbLine
 10
534.1457943961525
 20
209.0199500013568
 30
0.0
 11
533.5765734372975
 21
208.8127677144691
 31
0.0
  0
LINE
  5
8CC0
330
18
100
AcDbEntity
  8
1
  6
Continuous
 48
0.25
100
AcDbLine
 10
534.1457943961525
 20
209.0199500013568
 30
0.0
 11
534.7150153550078
 21
208.8127677144692
 31
0.0
  0
LINE
  5
8CC1
330
18
100
AcDbEntity
  8
4
  6
CENTER
 48
0.2
100
AcDbLine
 10
534.1457943961528
 20
216.3000000000814
 30
0.0
 11
534.1457943961528
 21
203.7000000000814
 31
0.0
  0
CIRCLE
  5
8CC2
330
18
100
AcDbEntity
  8
1
  6
Continuous
 48
0.25
100
AcDbCircle
 10
534.1457943961528
 20
210.0000000000814
 30
0.0
 40
4.0
  0
CIRCLE
  5
8CC3
330
18
100
AcDbEntity
  8
1
  6
Continuous
100
AcDbCircle
 10
534.1457943961528
 20
210.0000000000814
 30
0.0
 40
4.299999999999998
  0
LINE
  5
8CC4
330
18
100
AcDbEntity
  8
1
  6
Continuous
 48
0.25
100
AcDbLine
 10
534.7150153550078
 20
208.8127677144692
 30
0.0
 11
535.4122226412577
 21
208.1396020587795
 31
0.0
  0
ARC
  5
8CC5
330
18
100
AcDbEntity
  8
1
  6
Continuous
 48
0.25
100
AcDbCircle
 10
534.1457943961528
 20
210.0000000000814
 30
0.0
 40
2.25
100
AcDbArc
 50
214.2419999999985
 51
235.7579999999973
  0
LINE
  5
8CC6
330
18
100
AcDbEntity
  8
1
  6
Continuous
 48
0.25
100
AcDbLine
 10
533.5765734372975
 20
208.8127677144691
 30
0.0
 11
532.8800732578287
 21
208.1403091655608
 31
0.0
  0
ARC
  5
8CC7
330
18
100
AcDbEntity
  8
1
  6
Continuous
 48
0.25
100
AcDbCircle
 10
534.1457943961528
 20
210.0000000000814
 30
0.0
 40
2.25
100
AcDbArc
 50
304.2420000000026
 51
325.7580000000014
  0
LINE
  5
8CC8
330
18
100
AcDbEntity
  8
1
  6
Continuous
 48
0.25
100
AcDbLine
 10
534.7157224617891
 20
211.1879393924748
 30
0.0
 11
535.4122226412577
 21
211.8603979413832
 31
0.0
  0
LINE
  5
8CC9
330
18
100
AcDbEntity
  8
1
  6
Continuous
 48
0.25
100
AcDbLine
 10
535.125844394877
 20
210.0000000000814
 30
0.0
 11
535.3337337885459
 21
210.5699280657178
 31
0.0
  0
LINE
  5
8CCA
330
18
100
AcDbEntity
  8
1
  6
Continuous
 48
0.25
100
AcDbLine
 10
535.125844394877
 20
210.0000000000814
 30
0.0
 11
535.3330266817648
 21
209.4307790412262
 31
0.0
  0
LINE
  5
8CCB
330
18
100
AcDbEntity
  8
4
  6
CENTER
 48
0.2
100
AcDbLine
 10
527.8457943961528
 20
210.0000000000814
 30
0.0
 11
540.4457943961528
 21
210.0000000000814
 31
0.0
  0
LINE
  5
8CCC
330
18
100
AcDbEntity
  8
1
  6
Continuous
 48
0.25
100
AcDbLine
 10
532.9585621105406
 20
210.5692209589365
 30
0.0
 11
532.2861035616321
 21
211.2657211384054
 31
0.0
  0
LINE
  5
8CCD
330
18
100
AcDbEntity
  8
1
  6
Continuous
 48
0.25
100
AcDbLine
 10
534.1457943961528
 20
210.9800499988059
 30
0.0
 11
533.5765734372975
 21
211.1872322856936
 31
0.0
  0
LINE
  5
8CCE
330
18
100
AcDbEntity
  8
1
  6
Continuous
 48
0.25
100
AcDbLine
 10
534.1457943961528
 20
210.9800499988059
 30
0.0
 11
534.7157224617891
 21
211.1879393924748
 31
0.0
  0
LINE
  5
8CCF
330
18
100
AcDbEntity
  8
1
  6
Continuous
 48
0.25
100
AcDbLine
 10
533.1657443974282
 20
210.0000000000814
 30
0.0
 11
532.9585621105406
 21
210.5692209589365
 31
0.0
  0
ARC
  5
8CD0
330
18
100
AcDbEntity
  8
1
  6
Continuous
 48
0.25
100
AcDbCircle
 10
534.1457943961528
 20
210.0000000000814
 30
0.0
 40
2.25
100
AcDbArc
 50
124.2417000000009
 51
145.7580000000014
  0
LINE
  5
8CD1
330
18
100
AcDbEntity
  8
1
  6
Continuous
 48
0.25
100
AcDbLine
 10
533.5765734372975
 20
211.1872322856936
 30
0.0
 11
532.8800732578287
 21
211.8596908346021
 31
0.0
  0
LINE
  5
8CD2
330
18
100
AcDbEntity
  8
1
  6
Continuous
 48
0.25
100
AcDbLine
 10
533.1657443974282
 20
210.0000000000814
 30
0.0
 11
532.9585621105406
 21
209.4307790412262
 31
0.0
  0
LINE
  5
8CD3
330
18
100
AcDbEntity
  8
1
  6
Continuous
 48
0.25
100
AcDbLine
 10
535.3337337885459
 20
210.5699280657178
 30
0.0
 11
536.0061923374545
 21
211.2664282451865
 31
0.0
  0
ARC
  5
8CD4
330
18
100
AcDbEntity
  8
1
  6
Continuous
 48
0.25
100
AcDbCircle
 10
534.1457943961528
 20
210.0000000000814
 30
0.0
 40
2.25
100
AcDbArc
 50
34.24199999999855
 51
55.75829999999907
  0
ARC
  5
8CD5
330
18
100
AcDbEntity
  8
1
  6
Continuous
100
AcDbCircle
 10
538.1184024860714
 20
219.1496608336935
 30
0.0
 40
6.0
100
AcDbArc
 50
8.147572367074891
 51
86.6377301665943
  0
LINE
  5
8CD6
330
18
100
AcDbEntity
  8
4
  6
CENTER
 48
0.1
100
AcDbLine
 10
559.645794396145
 20
209.9999999999545
 30
0.0
 11
565.6457943961449
 21
209.9999999999545
 31
0.0
  0
ENDSEC
  0
SECTION
  2
OBJECTS
  0
DICTIONARY
  5
C
330
0
100
AcDbDictionary
281
     1
  3
ACAD_CIP_PREVIOUS_PRODUCT_INFO
350
9A55
  3
ACAD_COLOR
350
9A38
  3
ACAD_DETAILVIEWSTYLE
350
9A51
  3
ACAD_GROUP
350
D
  3
ACAD_LAYOUT
350
94
  3
ACAD_MATERIAL
350
9A06
  3
ACAD_MLEADERSTYLE
350
9A4D
  3
ACAD_MLINESTYLE
350
1B
  3
ACAD_PLOTSETTINGS
350
95
  3
ACAD_PLOTSTYLENAME
350
9A04
  3
ACAD_SCALELIST
350
9A3B
  3
ACAD_SECTIONVIEWSTYLE
350
9A4F
  3
ACAD_TABLESTYLE
350
9A39
  3
ACAD_VISUALSTYLE
350
9A1F
  3
ACDB_RECOMPOSE_DATA
350
9A73
  3
AcDbVariableDictionary
350
9A66
  3
CONTENTDICTIONARY
350
3D
  3
DWGPROPS
350
9A74
  0
DICTIONARY
  5
9A56
330
E
100
AcDbDictionary
280
     1
281
     1
  3
ADSK_XREC_LAYER_RECONCILED
360
9A57
  0
DICTIONARY
  5
9A58
330
4E
100
AcDbDictionary
280
     1
281
     1
  3
ADSK_XREC_LAYER_RECONCILED
360
9A59
  0
DICTIONARY
  5
9A5A
330
4F
100
AcDbDictionary
280
     1
281
     1
  3
ADSK_XREC_LAYER_RECONCILED
360
9A5B
  0
DICTIONARY
  5
9A5C
330
50
100
AcDbDictionary
280
     1
281
     1
  3
ADSK_XREC_LAYER_RECONCILED
360
9A5D
  0
DICTIONARY
  5
9A5E
330
51
100
AcDbDictionary
280
     1
281
     1
  3
ADSK_XREC_LAYER_RECONCILED
360
9A5F
  0
DICTIONARY
  5
9A60
330
52
100
AcDbDictionary
280
     1
281
     1
  3
ADSK_XREC_LAYER_RECONCILED
360
9A61
  0
DICTIONARY
  5
9A62
330
53
100
AcDbDictionary
280
     1
281
     1
  3
ADSK_XREC_LAYER_RECONCILED
360
9A63
  0
DICTIONARY
  5
9A64
330
54
100
AcDbDictionary
280
     1
281
     1
  3
ADSK_XREC_LAYER_RECONCILED
360
9A65
  0
DICTIONARY
  5
99FF
330
18
100
AcDbDictionary
281
     1
  3
ACAD_LAYOUTSELFREF
350
9A00
  0
DICTIONARY
  5
99FD
330
15
100
AcDbDictionary
281
     1
  3
ACAD_LAYOUTSELFREF
350
99FE
  0
XRECORD
  5
9A55
102
{ACAD_REACTORS
330
C
102
}
330
C
100
AcDbXrecord
280
     1
300
ACDLT
300
2014
300
ACDLT_F_S
  0
DICTIONARY
  5
9A38
102
{ACAD_REACTORS
330
C
102
}
330
C
100
AcDbDictionary
281
     1
  0
DICTIONARY
  5
9A51
102
{ACAD_REACTORS
330
C
102
}
330
C
100
AcDbDictionary
281
     1
  3
Imperial24
350
9A52
  0
DICTIONARY
  5
D
102
{ACAD_REACTORS
330
C
102
}
330
C
100
AcDbDictionary
281
     1
  0
DICTIONARY
  5
94
102
{ACAD_REACTORS
330
C
102
}
330
C
100
AcDbDictionary
281
     1
  3
Model
350
9A53
  3
レイアウト1
350
9A54
  0
DICTIONARY
  5
9A06
102
{ACAD_REACTORS
330
C
102
}
330
C
100
AcDbDictionary
281
     1
  3
ByBlock
350
9A0F
  3
ByLayer
350
9A07
  3
Global
350
9A17
  0
DICTIONARY
  5
9A4D
102
{ACAD_REACTORS
330
C
102
}
330
C
100
AcDbDictionary
281
     1
  3
Standard
350
9A4E
  0
DICTIONARY
  5
1B
102
{ACAD_REACTORS
330
C
102
}
330
C
100
AcDbDictionary
281
     1
  3
STANDARD
350
1C
  0
DICTIONARY
  5
95
102
{ACAD_REACTORS
330
C
102
}
330
C
100
AcDbDictionary
281
     1
  0
ACDBDICTIONARYWDFLT
  5
9A04
102
{ACAD_REACTORS
330
C
102
}
330
C
100
AcDbDictionary
281
     1
  3
Normal
350
9A05
100
AcDbDictionaryWithDefault
340
9A05
  0
DICTIONARY
  5
9A3B
102
{ACAD_REACTORS
330
C
102
}
330
C
100
AcDbDictionary
281
     1
  3
A0
350
9A3C
  3
A1
350
9A3D
  3
A2
350
9A3E
  3
A3
350
9A3F
  3
A4
350
9A40
  3
A5
350
9A41
  3
A6
350
9A42
  3
A7
350
9A43
  3
A8
350
9A44
  3
A9
350
9A45
  3
B0
350
9A46
  3
B1
350
9A47
  3
B2
350
9A48
  3
B3
350
9A49
  3
B4
350
9A4A
  3
B5
350
9A4B
  3
B6
350
9A4C
  0
DICTIONARY
  5
9A4F
102
{ACAD_REACTORS
330
C
102
}
330
C
100
AcDbDictionary
281
     1
  3
Imperial24
350
9A50
  0
DICTIONARY
  5
9A39
102
{ACAD_REACTORS
330
C
102
}
330
C
100
AcDbDictionary
281
     1
  3
Standard
350
9A3A
  0
DICTIONARY
  5
9A1F
102
{ACAD_REACTORS
330
C
102
}
330
C
100
AcDbDictionary
281
     1
  3
2dWireframe
350
9A25
  3
Basic
350
9A24
  3
Brighten
350
9A2B
  3
ColorChange
350
9A2F
  3
Conceptual
350
9A28
  3
Dim
350
9A2A
  3
EdgeColorOff
350
9A37
  3
Facepattern
350
9A2E
  3
Flat
350
9A20
  3
FlatWithEdges
350
9A21
  3
Gouraud
350
9A22
  3
GouraudWithEdges
350
9A23
  3
Hidden
350
9A27
  3
JitterOff
350
9A35
  3
Linepattern
350
9A2D
  3
OverhangOff
350
9A36
  3
Realistic
350
9A29
  3
Shaded
350
9A34
  3
Shaded with edges
350
9A33
  3
Shades of Gray
350
9A30
  3
Sketchy
350
9A31
  3
Thicken
350
9A2C
  3
Wireframe
350
9A26
  3
X-Ray
350
9A32
  0
XRECORD
  5
9A73
102
{ACAD_REACTORS
330
C
102
}
330
C
100
AcDbXrecord
280
     1
 90
        1
330
9A3A
  0
DICTIONARY
  5
9A66
102
{ACAD_REACTORS
330
C
102
}
330
C
100
AcDbDictionary
281
     1
  3
CANNOSCALE
350
9A6B
  3
CMLEADERSTYLE
350
9A68
  3
CTABLESTYLE
350
9A67
  3
CVIEWDETAILSTYLE
350
9A69
  3
CVIEWSECTIONSTYLE
350
9A6A
  3
DIMASSOC
350
9A6E
  3
INDEXCTL
350
9A6D
  3
SORTENTS
350
9A6C
  3
XCLIPFRAME
350
9A6F
  0
DICTIONARY
  5
3D
102
{ACAD_REACTORS
330
C
102
}
330
C
100
AcDbDictionary
281
     1
  0
XRECORD
  5
9A74
102
{ACAD_REACTORS
330
C
102
}
330
C
100
AcDbXrecord
280
     1
  1
DWGPROPS COOKIE
  2

  3

  4

  6

  7

  8
Yoshitsune
  9

300
=
301
=
302
=
303
=
304
=
305
=
306
=
307
=
308
=
309
=
 40
0.5587084606481482
 41
2452051.395592083
 42
2457192.642875857
  1

 90
        0
  0
XRECORD
  5
9A57
102
{ACAD_REACTORS
330
9A56
102
}
330
9A56
100
AcDbXrecord
280
     1
290
     1
  0
XRECORD
  5
9A59
102
{ACAD_REACTORS
330
9A58
102
}
330
9A58
100
AcDbXrecord
280
     1
290
     1
  0
XRECORD
  5
9A5B
102
{ACAD_REACTORS
330
9A5A
102
}
330
9A5A
100
AcDbXrecord
280
     1
290
     1
  0
XRECORD
  5
9A5D
102
{ACAD_REACTORS
330
9A5C
102
}
330
9A5C
100
AcDbXrecord
280
     1
290
     1
  0
XRECORD
  5
9A5F
102
{ACAD_REACTORS
330
9A5E
102
}
330
9A5E
100
AcDbXrecord
280
     1
290
     1
  0
XRECORD
  5
9A61
102
{ACAD_REACTORS
330
9A60
102
}
330
9A60
100
AcDbXrecord
280
     1
290
     1
  0
XRECORD
  5
9A63
102
{ACAD_REACTORS
330
9A62
102
}
330
9A62
100
AcDbXrecord
280
     1
290
     1
  0
XRECORD
  5
9A65
102
{ACAD_REACTORS
330
9A64
102
}
330
9A64
100
AcDbXrecord
280
     1
290
     1
  0
XRECORD
  5
9A00
102
{ACAD_REACTORS
330
99FF
102
}
330
99FF
100
AcDbXrecord
280
     1
340
18
  0
XRECORD
  5
99FE
102
{ACAD_REACTORS
330
99FD
102
}
330
99FD
100
AcDbXrecord
280
     1
340
15
  0
ACDBDETAILVIEWSTYLE
  5
9A52
102
{ACAD_XDICTIONARY
360
9AAC
102
}
102
{ACAD_REACTORS
330
9A51
102
}
330
9A51
100
AcDbModelDocViewStyle
 70
     0
  3
Imperial24
290
     0
100
AcDbDetailViewStyle
 70
     0
 71
     0
 90
        3
 71
     1
340
F
 40
0.24
340
0
 40
0.24
300

 40
0.36
280
     3
 71
     2
340
14
 90
       25
 71
     3
340
F
 40
0.24
 90
        1
 40
0.75
 90
        1
300
%<\AcVar ViewType \f "%tc1">% %<\AcVar ViewDetailId>%\PSCALE %<\AcVar ViewScale \f "%sn">%
 71
     4
340
14
 90
       25
340
14
 90
       25
280
     0
  0
LAYOUT
  5
9A53
102
{ACAD_XDICTIONARY
360
9AAE
102
}
102
{ACAD_REACTORS
330
94
102
}
330
94
100
AcDbPlotSettings
  1

  2
Canon LBP9100C
  4

  6

 40
0.0
 41
0.0
 42
0.0
 43
0.0
 44
0.0
 45
0.0
 46
0.0
 47
0.0
 48
0.0
 49
0.0
140
0.0
141
0.0
142
1.0
143
1.0
 70
  1712
 72
     0
 73
     0
 74
     0
  7

 75
     0
147
1.0
148
0.0
149
0.0
100
AcDbLayout
  1
Model
 70
     1
 71
     0
 10
0.0
 20
0.0
 11
12.0
 21
9.0
 12
0.0
 22
0.0
 32
0.0
 14
0.0
 24
0.0
 34
0.0
 15
0.0
 25
0.0
 35
0.0
146
0.0
 13
0.0
 23
0.0
 33
0.0
 16
1.0
 26
0.0
 36
0.0
 17
0.0
 27
1.0
 37
0.0
 76
     0
330
18
331
99FC
  0
LAYOUT
  5
9A54
102
{ACAD_XDICTIONARY
360
9AB0
102
}
102
{ACAD_REACTORS
330
94
102
}
330
94
100
AcDbPlotSettings
  1

  2
Canon LBP9100C
  4

  6

 40
0.0
 41
0.0
 42
0.0
 43
0.0
 44
0.0
 45
0.0
 46
0.0
 47
0.0
 48
0.0
 49
0.0
140
0.0
141
0.0
142
1.0
143
1.0
 70
   688
 72
     0
 73
     0
 74
     5
  7

 75
    16
147
1.0
148
0.0
149
0.0
100
AcDbLayout
  1
レイアウト1
 70
     1
 71
     1
 10
0.0
 20
0.0
 11
420.0
 21
297.0
 12
0.0
 22
0.0
 32
0.0
 14
1.000000000000000E+20
 24
1.000000000000000E+20
 34
1.000000000000000E+20
 15
-1.000000000000000E+20
 25
-1.000000000000000E+20
 35
-1.000000000000000E+20
146
0.0
 13
0.0
 23
0.0
 33
0.0
 16
1.0
 26
0.0
 36
0.0
 17
0.0
 27
1.0
 37
0.0
 76
     0
330
15
  0
MATERIAL
  5
9A0F
102
{ACAD_XDICTIONARY
360
9A10
102
}
102
{ACAD_REACTORS
330
9A06
102
}
330
9A06
100
AcDbMaterial
  1
ByBlock
 72
     0
 43
0.0208333333333333
 43
0.0
 43
0.0
 43
0.0
 43
0.0
 43
0.0208333333333333
 43
0.0
 43
0.0
 43
0.0
 43
0.0
 43
1.0
 43
0.0
 43
0.0
 43
0.0
 43
0.0
 43
1.0
 77
     0
 47
0.0208333333333333
 47
0.0
 47
0.0
 47
0.0
 47
0.0
 47
0.0208333333333333
 47
0.0
 47
0.0
 47
0.0
 47
0.0
 47
1.0
 47
0.0
 47
0.0
 47
0.0
 47
0.0
 47
1.0
171
     0
 49
0.0208333333333333
 49
0.0
 49
0.0
 49
0.0
 49
0.0
 49
0.0208333333333333
 49
0.0
 49
0.0
 49
0.0
 49
0.0
 49
1.0
 49
0.0
 49
0.0
 49
0.0
 49
0.0
 49
1.0
175
     0
142
0.0208333333333333
142
0.0
142
0.0
142
0.0
142
0.0
142
0.0208333333333333
142
0.0
142
0.0
142
0.0
142
0.0
142
1.0
142
0.0
142
0.0
142
0.0
142
0.0
142
1.0
179
     0
144
0.0208333333333333
144
0.0
144
0.0
144
0.0
144
0.0
144
0.0208333333333333
144
0.0
144
0.0
144
0.0
144
0.0
144
1.0
144
0.0
144
0.0
144
0.0
144
0.0
144
1.0
147
0.0208333333333333
147
0.0
147
0.0
147
0.0
147
0.0
147
0.0208333333333333
147
0.0
147
0.0
147
0.0
147
0.0
147
1.0
147
0.0
147
0.0
147
0.0
147
0.0
147
1.0
  0
MATERIAL
  5
9A07
102
{ACAD_XDICTIONARY
360
9A08
102
}
102
{ACAD_REACTORS
330
9A06
102
}
330
9A06
100
AcDbMaterial
  1
ByLayer
 72
     0
 43
0.0208333333333333
 43
0.0
 43
0.0
 43
0.0
 43
0.0
 43
0.0208333333333333
 43
0.0
 43
0.0
 43
0.0
 43
0.0
 43
1.0
 43
0.0
 43
0.0
 43
0.0
 43
0.0
 43
1.0
 77
     0
 47
0.0208333333333333
 47
0.0
 47
0.0
 47
0.0
 47
0.0
 47
0.0208333333333333
 47
0.0
 47
0.0
 47
0.0
 47
0.0
 47
1.0
 47
0.0
 47
0.0
 47
0.0
 47
0.0
 47
1.0
171
     0
 49
0.0208333333333333
 49
0.0
 49
0.0
 49
0.0
 49
0.0
 49
0.0208333333333333
 49
0.0
 49
0.0
 49
0.0
 49
0.0
 49
1.0
 49
0.0
 49
0.0
 49
0.0
 49
0.0
 49
1.0
175
     0
142
0.0208333333333333
142
0.0
142
0.0
142
0.0
142
0.0
142
0.0208333333333333
142
0.0
142
0.0
142
0.0
142
0.0
142
1.0
142
0.0
142
0.0
142
0.0
142
0.0
142
1.0
179
     0
144
0.0208333333333333
144
0.0
144
0.0
144
0.0
144
0.0
144
0.0208333333333333
144
0.0
144
0.0
144
0.0
144
0.0
144
1.0
144
0.0
144
0.0
144
0.0
144
0.0
144
1.0
147
0.0208333333333333
147
0.0
147
0.0
147
0.0
147
0.0
147
0.0208333333333333
147
0.0
147
0.0
147
0.0
147
0.0
147
1.0
147
0.0
147
0.0
147
0.0
147
0.0
147
1.0
  0
MATERIAL
  5
9A17
102
{ACAD_XDICTIONARY
360
9A18
102
}
102
{ACAD_REACTORS
330
9A06
102
}
330
9A06
100
AcDbMaterial
  1
Global
 72
     0
 43
0.0208333333333333
 43
0.0
 43
0.0
 43
0.0
 43
0.0
 43
0.0208333333333333
 43
0.0
 43
0.0
 43
0.0
 43
0.0
 43
1.0
 43
0.0
 43
0.0
 43
0.0
 43
0.0
 43
1.0
 77
     0
 47
0.0208333333333333
 47
0.0
 47
0.0
 47
0.0
 47
0.0
 47
0.0208333333333333
 47
0.0
 47
0.0
 47
0.0
 47
0.0
 47
1.0
 47
0.0
 47
0.0
 47
0.0
 47
0.0
 47
1.0
171
     0
 49
0.0208333333333333
 49
0.0
 49
0.0
 49
0.0
 49
0.0
 49
0.0208333333333333
 49
0.0
 49
0.0
 49
0.0
 49
0.0
 49
1.0
 49
0.0
 49
0.0
 49
0.0
 49
0.0
 49
1.0
175
     0
142
0.0208333333333333
142
0.0
142
0.0
142
0.0
142
0.0
142
0.0208333333333333
142
0.0
142
0.0
142
0.0
142
0.0
142
1.0
142
0.0
142
0.0
142
0.0
142
0.0
142
1.0
179
     0
144
0.0208333333333333
144
0.0
144
0.0
144
0.0
144
0.0
144
0.0208333333333333
144
0.0
144
0.0
144
0.0
144
0.0
144
1.0
144
0.0
144
0.0
144
0.0
144
0.0
144
1.0
147
0.0208333333333333
147
0.0
147
0.0
147
0.0
147
0.0
147
0.0208333333333333
147
0.0
147
0.0
147
0.0
147
0.0
147
1.0
147
0.0
147
0.0
147
0.0
147
0.0
147
1.0
  0
MLEADERSTYLE
  5
9A4E
102
{ACAD_REACTORS
330
9A4D
102
}
330
9A4D
100
AcDbMLeaderStyle
170
     2
171
     1
172
     0
 90
        2
 40
0.0
 41
0.0
173
     1
 91
-1056964608
340
12
 92
       -2
290
     1
 42
0.09
291
     1
 43
0.36
  3
Standard
 44
0.18
300

342
F
174
     1
178
     6
175
     1
176
     0
 93
-1056964608
 45
0.18
292
     0
297
     0
 46
0.18
 94
-1056964608
 47
1.0
 49
1.0
140
1.0
293
     1
141
0.0
294
     1
177
     0
142
1.0
295
     0
296
     0
143
0.125
1001
ACAD_MLEADERVER
1070
     2
  0
MLINESTYLE
  5
1C
102
{ACAD_REACTORS
330
1B
102
}
330
1B
100
AcDbMlineStyle
  2
STANDARD
 70
     0
  3

 62
   256
 51
90.0
 52
90.0
 71
     2
 49
0.5
 62
   256
  6
BYLAYER
 49
-0.5
 62
   256
  6
BYLAYER
  0
ACDBPLACEHOLDER
  5
9A05
102
{ACAD_REACTORS
330
9A04
102
}
330
9A04
  0
SCALE
  5
9A3C
102
{ACAD_REACTORS
330
9A3B
102
}
330
9A3B
100
AcDbScale
 70
     0
300
1:1
140
1.0
141
1.0
290
     1
  0
SCALE
  5
9A3D
102
{ACAD_REACTORS
330
9A3B
102
}
330
9A3B
100
AcDbScale
 70
     0
300
1/128" = 1'-0"
140
0.0078125
141
12.0
290
     0
  0
SCALE
  5
9A3E
102
{ACAD_REACTORS
330
9A3B
102
}
330
9A3B
100
AcDbScale
 70
     0
300
1/64" = 1'-0"
140
0.015625
141
12.0
290
     0
  0
SCALE
  5
9A3F
102
{ACAD_REACTORS
330
9A3B
102
}
330
9A3B
100
AcDbScale
 70
     0
300
1/32" = 1'-0"
140
0.03125
141
12.0
290
     0
  0
SCALE
  5
9A40
102
{ACAD_REACTORS
330
9A3B
102
}
330
9A3B
100
AcDbScale
 70
     0
300
1/16" = 1'-0"
140
0.0625
141
12.0
290
     0
  0
SCALE
  5
9A41
102
{ACAD_REACTORS
330
9A3B
102
}
330
9A3B
100
AcDbScale
 70
     0
300
3/32" = 1'-0"
140
0.09375
141
12.0
290
     0
  0
SCALE
  5
9A42
102
{ACAD_REACTORS
330
9A3B
102
}
330
9A3B
100
AcDbScale
 70
     0
300
1/8" = 1'-0"
140
0.125
141
12.0
290
     0
  0
SCALE
  5
9A43
102
{ACAD_REACTORS
330
9A3B
102
}
330
9A3B
100
AcDbScale
 70
     0
300
3/16" = 1'-0"
140
0.1875
141
12.0
290
     0
  0
SCALE
  5
9A44
102
{ACAD_REACTORS
330
9A3B
102
}
330
9A3B
100
AcDbScale
 70
     0
300
1/4" = 1'-0"
140
0.25
141
12.0
290
     0
  0
SCALE
  5
9A45
102
{ACAD_REACTORS
330
9A3B
102
}
330
9A3B
100
AcDbScale
 70
     0
300
3/8" = 1'-0"
140
0.375
141
12.0
290
     0
  0
SCALE
  5
9A46
102
{ACAD_REACTORS
330
9A3B
102
}
330
9A3B
100
AcDbScale
 70
     0
300
1/2" = 1'-0"
140
0.5
141
12.0
290
     0
  0
SCALE
  5
9A47
102
{ACAD_REACTORS
330
9A3B
102
}
330
9A3B
100
AcDbScale
 70
     0
300
3/4" = 1'-0"
140
0.75
141
12.0
290
     0
  0
SCALE
  5
9A48
102
{ACAD_REACTORS
330
9A3B
102
}
330
9A3B
100
AcDbScale
 70
     0
300
1" = 1'-0"
140
1.0
141
12.0
290
     0
  0
SCALE
  5
9A49
102
{ACAD_REACTORS
330
9A3B
102
}
330
9A3B
100
AcDbScale
 70
     0
300
1-1/2" = 1'-0"
140
1.5
141
12.0
290
     0
  0
SCALE
  5
9A4A
102
{ACAD_REACTORS
330
9A3B
102
}
330
9A3B
100
AcDbScale
 70
     0
300
3" = 1'-0"
140
3.0
141
12.0
290
     0
  0
SCALE
  5
9A4B
102
{ACAD_REACTORS
330
9A3B
102
}
330
9A3B
100
AcDbScale
 70
     0
300
6" = 1'-0"
140
6.0
141
12.0
290
     0
  0
SCALE
  5
9A4C
102
{ACAD_REACTORS
330
9A3B
102
}
330
9A3B
100
AcDbScale
 70
     0
300
1'-0" = 1'-0"
140
12.0
141
12.0
290
     0
  0
ACDBSECTIONVIEWSTYLE
  5
9A50
102
{ACAD_XDICTIONARY
360
9AAA
102
}
102
{ACAD_REACTORS
330
9A4F
102
}
330
9A4F
100
AcDbModelDocViewStyle
 70
     0
  3
Imperial24
290
     0
100
AcDbSectionViewStyle
 70
     0
 71
     0
 90
       78
 71
     1
340
F
 40
0.24
340
0
340
0
 40
0.24
300
I, O, Q, S, X, Z
 40
0.48
 90
        3
 40
0.18
 90
        1
 71
     2
340
14
 90
       25
340
14
 90
       50
 40
0.24
 40
0.0
 40
0.24
 71
     3
340
F
 40
0.24
 90
        1
 40
0.75
 90
        1
300
%<\AcVar ViewType \f "%tc1">% %<\AcVar ViewSectionStartId>%-%<\AcVar ViewSectionEndId>%\PSCALE %<\AcVar ViewScale \f "%sn">%
 71
     4
300
ANSI31
 40
1.0
 90
        0
290
     0
290
     0
 90
        6
 40
0.0
 40
1.570796326794896
 40
0.2617993877991494
 40
1.308996938995747
 40
-0.2617993877991494
 40
1.832595714594046
  0
TABLESTYLE
  5
9A3A
102
{ACAD_XDICTIONARY
360
9A71
102
}
102
{ACAD_REACTORS
330
9A39
102
}
330
9A39
100
AcDbTableStyle
  3
Standard
 70
     0
 71
     0
 40
0.06
 41
0.06
280
     0
281
     0
  7
STANDARD
140
0.18
170
     2
 62
     0
 63
     7
283
     0
274
    -2
284
     1
 64
     0
275
    -2
285
     1
 65
     0
276
    -2
286
     1
 66
     0
277
    -2
287
     1
 67
     0
278
    -2
288
     1
 68
     0
279
    -2
289
     1
 69
     0
  7
STANDARD
140
0.25
170
     5
 62
     0
 63
     7
283
     0
274
    -2
284
     1
 64
     0
275
    -2
285
     1
 65
     0
276
    -2
286
     1
 66
     0
277
    -2
287
     1
 67
     0
278
    -2
288
     1
 68
     0
279
    -2
289
     1
 69
     0
  7
STANDARD
140
0.18
170
     5
 62
     0
 63
     7
283
     0
274
    -2
284
     1
 64
     0
275
    -2
285
     1
 65
     0
276
    -2
286
     1
 66
     0
277
    -2
287
     1
 67
     0
278
    -2
288
     1
 68
     0
279
    -2
289
     1
 69
     0
  0
VISUALSTYLE
  5
9A25
102
{ACAD_XDICTIONARY
360
9A82
102
}
102
{ACAD_REACTORS
330
9A1F
102
}
330
9A1F
100
AcDbVisualStyle
  2
2dWireframe
 70
     4
 71
     0
 72
     2
 73
     0
 90
        0
 40
-0.6
 41
-30.0
 62
     5
 63
     7
 74
     1
 91
        4
 64
     7
 65
   257
 75
     1
175
     1
 42
1.0
 92
        0
 66
   257
 43
1.0
 76
     1
 77
     6
 78
     2
 67
     7
 79
     5
170
     0
171
     0
290
     0
174
     0
 93
        1
 44
0.0
173
     0
291
     0
 45
0.0
1001
ACAD
1000
AcDbSavedByObjectVersion
1070
     0
  0
VISUALSTYLE
  5
9A24
102
{ACAD_XDICTIONARY
360
9A80
102
}
102
{ACAD_REACTORS
330
9A1F
102
}
330
9A1F
100
AcDbVisualStyle
  2
Basic
 70
     7
 71
     1
 72
     0
 73
     1
 90
        0
 40
-0.6
 41
-30.0
 62
     5
 63
     7
 74
     0
 91
        4
 64
     7
 65
   257
 75
     1
175
     1
 42
1.0
 92
        8
 66
     7
 43
1.0
 76
     1
 77
     6
 78
     2
 67
     7
 79
     5
170
     0
171
     0
290
     0
174
     0
 93
        1
 44
0.0
173
     0
291
     1
 45
0.0
1001
ACAD
1000
AcDbSavedByObjectVersion
1070
     0
  0
VISUALSTYLE
  5
9A2B
102
{ACAD_XDICTIONARY
360
9A8E
102
}
102
{ACAD_REACTORS
330
9A1F
102
}
330
9A1F
100
AcDbVisualStyle
  2
Brighten
 70
    12
 71
     2
 72
     2
 73
     0
 90
        0
 40
-0.6
 41
-30.0
 62
     5
 63
     7
 74
     1
 91
        4
 64
     7
 65
   257
 75
     1
175
     1
 42
1.0
 92
        8
 66
     7
 43
1.0
 76
     1
 77
     6
 78
     2
 67
     7
 79
     5
170
     0
171
     0
290
     0
174
     0
 93
        1
 44
50.0
173
     0
291
     1
 45
0.0
1001
ACAD
1000
AcDbSavedByObjectVersion
1070
     0
  0
VISUALSTYLE
  5
9A2F
102
{ACAD_XDICTIONARY
360
9A96
102
}
102
{ACAD_REACTORS
330
9A1F
102
}
330
9A1F
100
AcDbVisualStyle
  2
ColorChange
 70
    16
 71
     2
 72
     2
 73
     3
 90
        0
 40
-0.6
 41
-30.0
 62
     5
 63
     8
 74
     1
 91
        4
 64
     7
 65
   257
 75
     1
175
     1
 42
1.0
 92
        8
 66
     8
 43
1.0
 76
     1
 77
     6
 78
     2
 67
     7
 79
     5
170
     0
171
     0
290
     0
174
     0
 93
        1
 44
0.0
173
     0
291
     1
 45
0.0
1001
ACAD
1000
AcDbSavedByObjectVersion
1070
     0
  0
VISUALSTYLE
  5
9A28
102
{ACAD_XDICTIONARY
360
9A88
102
}
102
{ACAD_REACTORS
330
9A1F
102
}
330
9A1F
100
AcDbVisualStyle
  2
Conceptual
 70
     9
 71
     3
 72
     2
 73
     0
 90
        0
 40
-0.6
 41
-30.0
 62
     5
 63
     7
 74
     2
 91
        2
 64
     7
 65
   257
 75
     1
175
     1
 42
179.0
 92
        8
 66
     7
 43
1.0
 76
     1
 77
     6
 78
     2
 67
     7
 79
     3
170
     0
171
     0
290
     0
174
     0
 93
        1
 44
0.0
173
     0
291
     0
 45
0.0
1001
ACAD
1000
AcDbSavedByObjectVersion
1070
     0
  0
VISUALSTYLE
  5
9A2A
102
{ACAD_XDICTIONARY
360
9A8C
102
}
102
{ACAD_REACTORS
330
9A1F
102
}
330
9A1F
100
AcDbVisualStyle
  2
Dim
 70
    11
 71
     2
 72
     2
 73
     0
 90
        0
 40
-0.6
 41
-30.0
 62
     5
 63
     7
 74
     1
 91
        4
 64
     7
 65
   257
 75
     1
175
     1
 42
1.0
 92
        8
 66
     7
 43
1.0
 76
     1
 77
     6
 78
     2
 67
     7
 79
     5
170
     0
171
     0
290
     0
174
     0
 93
        1
 44
-50.0
173
     0
291
     1
 45
0.0
1001
ACAD
1000
AcDbSavedByObjectVersion
1070
     0
  0
VISUALSTYLE
  5
9A37
102
{ACAD_XDICTIONARY
360
9AA6
102
}
102
{ACAD_REACTORS
330
9A1F
102
}
330
9A1F
100
AcDbVisualStyle
  2
EdgeColorOff
 70
    22
 71
     2
 72
     2
 73
     0
 90
        0
 40
-0.6
 41
-30.0
 62
     5
 63
     7
 74
     1
 91
        4
 64
     7
 65
   257
 75
     1
175
     1
 42
1.0
 92
        8
 66
     7
 43
1.0
 76
     1
 77
     6
 78
     2
 67
     7
 79
     5
170
     0
171
     0
290
     0
174
     0
 93
        1
 44
0.0
173
     0
291
     1
 45
0.0
1001
ACAD
1000
AcDbSavedByObjectVersion
1070
     0
  0
VISUALSTYLE
  5
9A2E
102
{ACAD_XDICTIONARY
360
9A94
102
}
102
{ACAD_REACTORS
330
9A1F
102
}
330
9A1F
100
AcDbVisualStyle
  2
Facepattern
 70
    15
 71
     2
 72
     2
 73
     0
 90
        0
 40
-0.6
 41
-30.0
 62
     5
 63
     7
 74
     1
 91
        4
 64
     7
 65
   257
 75
     1
175
     1
 42
1.0
 92
        8
 66
     7
 43
1.0
 76
     1
 77
     6
 78
     2
 67
     7
 79
     5
170
     0
171
     0
290
     0
174
     0
 93
        1
 44
0.0
173
     0
291
     1
 45
0.0
1001
ACAD
1000
AcDbSavedByObjectVersion
1070
     0
  0
VISUALSTYLE
  5
9A20
102
{ACAD_XDICTIONARY
360
9A78
102
}
102
{ACAD_REACTORS
330
9A1F
102
}
330
9A1F
100
AcDbVisualStyle
  2
Flat
 70
     0
 71
     2
 72
     1
 73
     1
 90
        2
 40
-0.6
 41
30.0
 62
     5
 63
     7
 74
     0
 91
        0
 64
     7
 65
   257
 75
     1
175
     1
 42
1.0
 92
        8
 66
     7
 43
1.0
 76
     1
 77
     6
 78
     2
 67
     7
 79
     5
170
     0
171
     0
290
     0
174
     0
 93
       13
 44
0.0
173
     0
291
     1
 45
0.0
1001
ACAD
1000
AcDbSavedByObjectVersion
1070
     0
  0
VISUALSTYLE
  5
9A21
102
{ACAD_XDICTIONARY
360
9A7A
102
}
102
{ACAD_REACTORS
330
9A1F
102
}
330
9A1F
100
AcDbVisualStyle
  2
FlatWithEdges
 70
     1
 71
     2
 72
     1
 73
     1
 90
        2
 40
-0.6
 41
30.0
 62
     5
 63
     7
 74
     1
 91
        0
 64
     7
 65
   257
 75
     1
175
     1
 42
1.0
 92
        0
 66
   257
 43
1.0
 76
     1
 77
     6
 78
     2
 67
     7
 79
     5
170
     0
171
     0
290
     0
174
     0
 93
       13
 44
0.0
173
     0
291
     1
 45
0.0
1001
ACAD
1000
AcDbSavedByObjectVersion
1070
     0
  0
VISUALSTYLE
  5
9A22
102
{ACAD_XDICTIONARY
360
9A7C
102
}
102
{ACAD_REACTORS
330
9A1F
102
}
330
9A1F
100
AcDbVisualStyle
  2
Gouraud
 70
     2
 71
     2
 72
     2
 73
     1
 90
        2
 40
-0.6
 41
30.0
 62
     5
 63
     7
 74
     0
 91
        0
 64
     7
 65
   257
 75
     1
175
     1
 42
1.0
 92
        0
 66
     7
 43
1.0
 76
     1
 77
     6
 78
     2
 67
     7
 79
     5
170
     0
171
     0
290
     0
174
     0
 93
       13
 44
0.0
173
     0
291
     1
 45
0.0
1001
ACAD
1000
AcDbSavedByObjectVersion
1070
     0
  0
VISUALSTYLE
  5
9A23
102
{ACAD_XDICTIONARY
360
9A7E
102
}
102
{ACAD_REACTORS
330
9A1F
102
}
330
9A1F
100
AcDbVisualStyle
  2
GouraudWithEdges
 70
     3
 71
     2
 72
     2
 73
     1
 90
        2
 40
-0.6
 41
30.0
 62
     5
 63
     7
 74
     1
 91
        0
 64
     7
 65
   257
 75
     1
175
     1
 42
1.0
 92
        0
 66
   257
 43
1.0
 76
     1
 77
     6
 78
     2
 67
     7
 79
     5
170
     0
171
     0
290
     0
174
     0
 93
       13
 44
0.0
173
     0
291
     1
 45
0.0
1001
ACAD
1000
AcDbSavedByObjectVersion
1070
     0
  0
VISUALSTYLE
  5
9A27
102
{ACAD_XDICTIONARY
360
9A86
102
}
102
{ACAD_REACTORS
330
9A1F
102
}
330
9A1F
100
AcDbVisualStyle
  2
Hidden
 70
     6
 71
     1
 72
     2
 73
     2
 90
        0
 40
-0.6
 41
-30.0
 62
     5
 63
     7
 74
     2
 91
        2
 64
     7
 65
   257
 75
     2
175
     1
 42
40.0
 92
        0
 66
   257
 43
1.0
 76
     1
 77
     6
 78
     2
 67
     7
 79
     3
170
     0
171
     0
290
     0
174
     0
 93
        1
 44
0.0
173
     0
291
     0
 45
0.0
1001
ACAD
1000
AcDbSavedByObjectVersion
1070
     0
  0
VISUALSTYLE
  5
9A35
102
{ACAD_XDICTIONARY
360
9AA2
102
}
102
{ACAD_REACTORS
330
9A1F
102
}
330
9A1F
100
AcDbVisualStyle
  2
JitterOff
 70
    20
 71
     2
 72
     2
 73
     0
 90
        0
 40
-0.6
 41
-30.0
 62
     5
 63
     7
 74
     1
 91
        4
 64
     7
 65
   257
 75
     1
175
     1
 42
1.0
 92
       10
 66
     7
 43
1.0
 76
     1
 77
     6
 78
     2
 67
     7
 79
     5
170
     0
171
     0
290
     0
174
     0
 93
        1
 44
0.0
173
     0
291
     1
 45
0.0
1001
ACAD
1000
AcDbSavedByObjectVersion
1070
     0
  0
VISUALSTYLE
  5
9A2D
102
{ACAD_XDICTIONARY
360
9A92
102
}
102
{ACAD_REACTORS
330
9A1F
102
}
330
9A1F
100
AcDbVisualStyle
  2
Linepattern
 70
    14
 71
     2
 72
     2
 73
     0
 90
        0
 40
-0.6
 41
-30.0
 62
     5
 63
     7
 74
     1
 91
        4
 64
     7
 65
   257
 75
     7
175
     7
 42
1.0
 92
        8
 66
     7
 43
1.0
 76
     1
 77
     6
 78
     2
 67
     7
 79
     5
170
     0
171
     0
290
     0
174
     0
 93
        1
 44
0.0
173
     0
291
     1
 45
0.0
1001
ACAD
1000
AcDbSavedByObjectVersion
1070
     0
  0
VISUALSTYLE
  5
9A36
102
{ACAD_XDICTIONARY
360
9AA4
102
}
102
{ACAD_REACTORS
330
9A1F
102
}
330
9A1F
100
AcDbVisualStyle
  2
OverhangOff
 70
    21
 71
     2
 72
     2
 73
     0
 90
        0
 40
-0.6
 41
-30.0
 62
     5
 63
     7
 74
     1
 91
        4
 64
     7
 65
   257
 75
     1
175
     1
 42
1.0
 92
        9
 66
     7
 43
1.0
 76
     1
 77
     6
 78
     2
 67
     7
 79
     5
170
     0
171
     0
290
     0
174
     0
 93
        1
 44
0.0
173
     0
291
     1
 45
0.0
1001
ACAD
1000
AcDbSavedByObjectVersion
1070
     0
  0
VISUALSTYLE
  5
9A29
102
{ACAD_XDICTIONARY
360
9A8A
102
}
102
{ACAD_REACTORS
330
9A1F
102
}
330
9A1F
100
AcDbVisualStyle
  2
Realistic
 70
     8
 71
     2
 72
     3
 73
     0
 90
        2
 40
-0.6
 41
30.0
 62
     5
 63
     7
 74
     0
 91
        0
 64
     7
 65
   257
 75
     1
175
     1
 42
1.0
 92
        8
 66
   257
 43
1.0
 76
     1
 77
     6
 78
     2
 67
     7
 79
     3
170
     0
171
     0
290
     0
174
     0
 93
       13
 44
0.0
173
     0
291
     0
 45
0.0
1001
ACAD
1000
AcDbSavedByObjectVersion
1070
     0
  0
VISUALSTYLE
  5
9A34
102
{ACAD_XDICTIONARY
360
9AA0
102
}
102
{ACAD_REACTORS
330
9A1F
102
}
330
9A1F
100
AcDbVisualStyle
  2
Shaded
 70
    27
 71
     2
 72
     2
 73
     1
 90
        2
 40
-0.6
 41
30.0
 62
     5
 63
     7
 74
     0
 91
        4
 64
     7
 65
   257
 75
     1
175
     1
 42
1.0
 92
        8
 66
   257
 43
1.0
 76
     1
 77
     6
 78
     2
 67
     8
 79
     3
170
     0
171
     0
290
     0
174
     0
 93
        5
 44
0.0
173
     0
291
     0
 45
0.0
1001
ACAD
1000
AcDbSavedByObjectVersion
1070
     0
  0
VISUALSTYLE
  5
9A33
102
{ACAD_XDICTIONARY
360
9A9E
102
}
102
{ACAD_REACTORS
330
9A1F
102
}
330
9A1F
100
AcDbVisualStyle
  2
Shaded with edges
 70
    26
 71
     2
 72
     2
 73
     1
 90
        2
 40
-0.6
 41
30.0
 62
     5
 63
     7
 74
     1
 91
       10
 64
     7
 65
   257
 75
     2
175
     1
 42
1.0
 92
        8
 66
   257
 43
1.0
 76
     1
 77
     6
 78
     2
 67
     7
 79
     3
170
     0
171
     0
290
     0
174
     0
 93
        5
 44
0.0
173
     0
291
     0
 45
0.0
1001
ACAD
1000
AcDbSavedByObjectVersion
1070
     0
  0
VISUALSTYLE
  5
9A30
102
{ACAD_XDICTIONARY
360
9A98
102
}
102
{ACAD_REACTORS
330
9A1F
102
}
330
9A1F
100
AcDbVisualStyle
  2
Shades of Gray
 70
    23
 71
     2
 72
     2
 73
     3
 90
        0
 40
-0.6
 41
-30.0
 62
     5
 63
     7
 74
     2
 91
        2
 64
     7
 65
     7
 75
     1
175
     1
 42
40.0
 92
        8
 66
     7
 43
1.0
 76
     1
 77
     6
 78
     2
 67
     7
 79
     3
170
     0
171
     0
290
     0
174
     0
 93
        1
 44
0.0
173
     0
291
     0
 45
0.0
1001
ACAD
1000
AcDbSavedByObjectVersion
1070
     0
  0
VISUALSTYLE
  5
9A31
102
{ACAD_XDICTIONARY
360
9A9A
102
}
102
{ACAD_REACTORS
330
9A1F
102
}
330
9A1F
100
AcDbVisualStyle
  2
Sketchy
 70
    24
 71
     1
 72
     2
 73
     2
 90
        0
 40
-0.6
 41
-30.0
 62
     5
 63
     7
 74
     2
 91
        2
 64
     7
 65
     7
 75
     1
175
     1
 42
40.0
 92
       11
 66
     7
 43
1.0
 76
     1
 77
     6
 78
     2
 67
     7
 79
     6
170
     0
171
     0
290
     0
174
     0
 93
        1
 44
0.0
173
     0
291
     0
 45
0.0
1001
ACAD
1000
AcDbSavedByObjectVersion
1070
     0
  0
VISUALSTYLE
  5
9A2C
102
{ACAD_XDICTIONARY
360
9A90
102
}
102
{ACAD_REACTORS
330
9A1F
102
}
330
9A1F
100
AcDbVisualStyle
  2
Thicken
 70
    13
 71
     2
 72
     2
 73
     0
 90
        0
 40
-0.6
 41
-30.0
 62
     5
 63
     7
 74
     1
 91
        4
 64
     7
 65
   257
 75
     1
175
     1
 42
1.0
 92
       12
 66
     7
 43
1.0
 76
     1
 77
     6
 78
     2
 67
     7
 79
     5
170
     0
171
     0
290
     0
174
     0
 93
        1
 44
0.0
173
     0
291
     1
 45
0.0
1001
ACAD
1000
AcDbSavedByObjectVersion
1070
     0
  0
VISUALSTYLE
  5
9A26
102
{ACAD_XDICTIONARY
360
9A84
102
}
102
{ACAD_REACTORS
330
9A1F
102
}
330
9A1F
100
AcDbVisualStyle
  2
Wireframe
 70
     5
 71
     0
 72
     2
 73
     0
 90
        0
 40
-0.6
 41
-30.0
 62
     5
 63
     7
 74
     1
 91
        4
 64
     7
 65
   257
 75
     1
175
     1
 42
1.0
 92
        0
 66
   257
 43
1.0
 76
     1
 77
     6
 78
     2
 67
     7
 79
     3
170
     0
171
     0
290
     0
174
     0
 93
        1
 44
0.0
173
     0
291
     0
 45
0.0
1001
ACAD
1000
AcDbSavedByObjectVersion
1070
     0
  0
VISUALSTYLE
  5
9A32
102
{ACAD_XDICTIONARY
360
9A9C
102
}
102
{ACAD_REACTORS
330
9A1F
102
}
330
9A1F
100
AcDbVisualStyle
  2
X-Ray
 70
    25
 71
     2
 72
     2
 73
     1
 90
        1
 40
0.5
 41
-30.0
 62
     5
 63
     7
 74
     1
 91
        0
 64
     7
 65
   257
 75
     1
175
     1
 42
1.0
 92
        8
 66
     7
 43
1.0
 76
     1
 77
     6
 78
     2
 67
     7
 79
     3
170
     0
171
     0
290
     0
174
     0
 93
       13
 44
0.0
173
     0
291
     0
 45
0.0
1001
ACAD
1000
AcDbSavedByObjectVersion
1070
     0
  0
DICTIONARYVAR
  5
9A6B
102
{ACAD_REACTORS
330
9A66
102
}
330
9A66
100
DictionaryVariables
280
     0
  1
1:1
  0
DICTIONARYVAR
  5
9A68
102
{ACAD_REACTORS
330
9A66
102
}
330
9A66
100
DictionaryVariables
280
     0
  1
STANDARD
  0
DICTIONARYVAR
  5
9A67
102
{ACAD_REACTORS
330
9A66
102
}
330
9A66
100
DictionaryVariables
280
     0
  1
STANDARD
  0
DICTIONARYVAR
  5
9A69
102
{ACAD_REACTORS
330
9A66
102
}
330
9A66
100
DictionaryVariables
280
     0
  1
Imperial24
  0
DICTIONARYVAR
  5
9A6A
102
{ACAD_REACTORS
330
9A66
102
}
330
9A66
100
DictionaryVariables
280
     0
  1
Imperial24
  0
DICTIONARYVAR
  5
9A6E
102
{ACAD_REACTORS
330
9A66
102
}
330
9A66
100
DictionaryVariables
280
     0
  1
1
  0
DICTIONARYVAR
  5
9A6D
102
{ACAD_REACTORS
330
9A66
102
}
330
9A66
100
DictionaryVariables
280
     0
  1
0
  0
DICTIONARYVAR
  5
9A6C
102
{ACAD_REACTORS
330
9A66
102
}
330
9A66
100
DictionaryVariables
280
     0
  1
127
  0
DICTIONARYVAR
  5
9A6F
102
{ACAD_REACTORS
330
9A66
102
}
330
9A66
100
DictionaryVariables
280
     0
  1
2
  0
DICTIONARY
  5
9AAC
330
9A52
100
AcDbDictionary
280
     1
281
     1
  3
ACAD_XREC_ROUNDTRIP
360
9AAD
  0
DICTIONARY
  5
9AAE
330
9A53
100
AcDbDictionary
280
     1
281
     1
  3
ACAD_XREC_ROUNDTRIP
360
9AAF
  0
DICTIONARY
  5
9AB0
330
9A54
100
AcDbDictionary
280
     1
281
     1
  3
ACAD_XREC_ROUNDTRIP
360
9AB1
  0
DICTIONARY
  5
9A10
330
9A0F
100
AcDbDictionary
280
     1
281
     1
  3
ACAD_XREC_ROUNDTRIP
360
9A76
  3
BUMPTILE
360
9A12
  3
DIFFUSETILE
360
9A11
  3
OPACITYTILE
360
9A15
  3
REFLECTIONTILE
360
9A14
  3
REFRACTIONTILE
360
9A16
  3
SPECULARTILE
360
9A13
  0
DICTIONARY
  5
9A08
330
9A07
100
AcDbDictionary
280
     1
281
     1
  3
ACAD_XREC_ROUNDTRIP
360
9A75
  3
BUMPTILE
360
9A0A
  3
DIFFUSETILE
360
9A09
  3
OPACITYTILE
360
9A0D
  3
REFLECTIONTILE
360
9A0C
  3
REFRACTIONTILE
360
9A0E
  3
SPECULARTILE
360
9A0B
  0
DICTIONARY
  5
9A18
330
9A17
100
AcDbDictionary
280
     1
281
     1
  3
ACAD_XREC_ROUNDTRIP
360
9A77
  3
BUMPTILE
360
9A1A
  3
DIFFUSETILE
360
9A19
  3
OPACITYTILE
360
9A1D
  3
REFLECTIONTILE
360
9A1C
  3
REFRACTIONTILE
360
9A1E
  3
SPECULARTILE
360
9A1B
  0
DICTIONARY
  5
9AAA
330
9A50
100
AcDbDictionary
280
     1
281
     1
  3
ACAD_XREC_ROUNDTRIP
360
9AAB
  0
DICTIONARY
  5
9A71
330
9A3A
100
AcDbDictionary
280
     1
281
     1
  3
ACAD_ROUNDTRIP_2008_TABLESTYLE_CELLSTYLEMAP
360
9A72
  3
ACAD_XREC_ROUNDTRIP
360
9AA8
  0
DICTIONARY
  5
9A82
330
9A25
100
AcDbDictionary
280
     1
281
     1
  3
ACAD_XREC_ROUNDTRIP
360
9A83
  0
DICTIONARY
  5
9A80
330
9A24
100
AcDbDictionary
280
     1
281
     1
  3
ACAD_XREC_ROUNDTRIP
360
9A81
  0
DICTIONARY
  5
9A8E
330
9A2B
100
AcDbDictionary
280
     1
281
     1
  3
ACAD_XREC_ROUNDTRIP
360
9A8F
  0
DICTIONARY
  5
9A96
330
9A2F
100
AcDbDictionary
280
     1
281
     1
  3
ACAD_XREC_ROUNDTRIP
360
9A97
  0
DICTIONARY
  5
9A88
330
9A28
100
AcDbDictionary
280
     1
281
     1
  3
ACAD_XREC_ROUNDTRIP
360
9A89
  0
DICTIONARY
  5
9A8C
330
9A2A
100
AcDbDictionary
280
     1
281
     1
  3
ACAD_XREC_ROUNDTRIP
360
9A8D
  0
DICTIONARY
  5
9AA6
330
9A37
100
AcDbDictionary
280
     1
281
     1
  3
ACAD_XREC_ROUNDTRIP
360
9AA7
  0
DICTIONARY
  5
9A94
330
9A2E
100
AcDbDictionary
280
     1
281
     1
  3
ACAD_XREC_ROUNDTRIP
360
9A95
  0
DICTIONARY
  5
9A78
330
9A20
100
AcDbDictionary
280
     1
281
     1
  3
ACAD_XREC_ROUNDTRIP
360
9A79
  0
DICTIONARY
  5
9A7A
330
9A21
100
AcDbDictionary
280
     1
281
     1
  3
ACAD_XREC_ROUNDTRIP
360
9A7B
  0
DICTIONARY
  5
9A7C
330
9A22
100
AcDbDictionary
280
     1
281
     1
  3
ACAD_XREC_ROUNDTRIP
360
9A7D
  0
DICTIONARY
  5
9A7E
330
9A23
100
AcDbDictionary
280
     1
281
     1
  3
ACAD_XREC_ROUNDTRIP
360
9A7F
  0
DICTIONARY
  5
9A86
330
9A27
100
AcDbDictionary
280
     1
281
     1
  3
ACAD_XREC_ROUNDTRIP
360
9A87
  0
DICTIONARY
  5
9AA2
330
9A35
100
AcDbDictionary
280
     1
281
     1
  3
ACAD_XREC_ROUNDTRIP
360
9AA3
  0
DICTIONARY
  5
9A92
330
9A2D
100
AcDbDictionary
280
     1
281
     1
  3
ACAD_XREC_ROUNDTRIP
360
9A93
  0
DICTIONARY
  5
9AA4
330
9A36
100
AcDbDictionary
280
     1
281
     1
  3
ACAD_XREC_ROUNDTRIP
360
9AA5
  0
DICTIONARY
  5
9A8A
330
9A29
100
AcDbDictionary
280
     1
281
     1
  3
ACAD_XREC_ROUNDTRIP
360
9A8B
  0
DICTIONARY
  5
9AA0
330
9A34
100
AcDbDictionary
280
     1
281
     1
  3
ACAD_XREC_ROUNDTRIP
360
9AA1
  0
DICTIONARY
  5
9A9E
330
9A33
100
AcDbDictionary
280
     1
281
     1
  3
ACAD_XREC_ROUNDTRIP
360
9A9F
  0
DICTIONARY
  5
9A98
330
9A30
100
AcDbDictionary
280
     1
281
     1
  3
ACAD_XREC_ROUNDTRIP
360
9A99
  0
DICTIONARY
  5
9A9A
330
9A31
100
AcDbDictionary
280
     1
281
     1
  3
ACAD_XREC_ROUNDTRIP
360
9A9B
  0
DICTIONARY
  5
9A90
330
9A2C
100
AcDbDictionary
280
     1
281
     1
  3
ACAD_XREC_ROUNDTRIP
360
9A91
  0
DICTIONARY
  5
9A84
330
9A26
100
AcDbDictionary
280
     1
281
     1
  3
ACAD_XREC_ROUNDTRIP
360
9A85
  0
DICTIONARY
  5
9A9C
330
9A32
100
AcDbDictionary
280
     1
281
     1
  3
ACAD_XREC_ROUNDTRIP
360
9A9D
  0
XRECORD
  5
9AAD
102
{ACAD_REACTORS
330
9AAC
102
}
330
9AAC
100
AcDbXrecord
280
     1
102
DISPLAYNAME
  1
Imperial24
102
FLAGS
 90
        0
  0
XRECORD
  5
9AAF
102
{ACAD_REACTORS
330
9AAE
102
}
330
9AAE
100
AcDbXrecord
280
     1
102
SHADEPLOT
 70
     0
102
SHADEPLOTRESLEVEL
 70
     2
102
SHADEPLOTCUSTOMDPI
 70
   300
  0
XRECORD
  5
9AB1
102
{ACAD_REACTORS
330
9AB0
102
}
330
9AB0
100
AcDbXrecord
280
     1
102
SHADEPLOT
 70
     0
102
SHADEPLOTRESLEVEL
 70
     2
102
SHADEPLOTCUSTOMDPI
 70
   300
  0
XRECORD
  5
9A76
102
{ACAD_REACTORS
330
9A10
102
}
330
9A10
100
AcDbXrecord
280
     1
102
MATERIAL
148
0.0
149
0.0
149
0.0
 93
        0
 94
      127
282
     0
 72
     0
 77
     0
171
     0
175
     0
179
     0
273
     0
  0
XRECORD
  5
9A12
102
{ACAD_REACTORS
330
9A10
102
}
330
9A10
100
AcDbXrecord
280
     1
270
     1
271
     1
  0
XRECORD
  5
9A11
102
{ACAD_REACTORS
330
9A10
102
}
330
9A10
100
AcDbXrecord
280
     1
270
     1
271
     1
  0
XRECORD
  5
9A15
102
{ACAD_REACTORS
330
9A10
102
}
330
9A10
100
AcDbXrecord
280
     1
270
     1
271
     1
  0
XRECORD
  5
9A14
102
{ACAD_REACTORS
330
9A10
102
}
330
9A10
100
AcDbXrecord
280
     1
270
     1
271
     1
  0
XRECORD
  5
9A16
102
{ACAD_REACTORS
330
9A10
102
}
330
9A10
100
AcDbXrecord
280
     1
270
     1
271
     1
  0
XRECORD
  5
9A13
102
{ACAD_REACTORS
330
9A10
102
}
330
9A10
100
AcDbXrecord
280
     1
270
     1
271
     1
  0
XRECORD
  5
9A75
102
{ACAD_REACTORS
330
9A08
102
}
330
9A08
100
AcDbXrecord
280
     1
102
MATERIAL
148
0.0
149
0.0
149
0.0
 93
        0
 94
      127
282
     0
 72
     0
 77
     0
171
     0
175
     0
179
     0
273
     0
  0
XRECORD
  5
9A0A
102
{ACAD_REACTORS
330
9A08
102
}
330
9A08
100
AcDbXrecord
280
     1
270
     1
271
     1
  0
XRECORD
  5
9A09
102
{ACAD_REACTORS
330
9A08
102
}
330
9A08
100
AcDbXrecord
280
     1
270
     1
271
     1
  0
XRECORD
  5
9A0D
102
{ACAD_REACTORS
330
9A08
102
}
330
9A08
100
AcDbXrecord
280
     1
270
     1
271
     1
  0
XRECORD
  5
9A0C
102
{ACAD_REACTORS
330
9A08
102
}
330
9A08
100
AcDbXrecord
280
     1
270
     1
271
     1
  0
XRECORD
  5
9A0E
102
{ACAD_REACTORS
330
9A08
102
}
330
9A08
100
AcDbXrecord
280
     1
270
     1
271
     1
  0
XRECORD
  5
9A0B
102
{ACAD_REACTORS
330
9A08
102
}
330
9A08
100
AcDbXrecord
280
     1
270
     1
271
     1
  0
XRECORD
  5
9A77
102
{ACAD_REACTORS
330
9A18
102
}
330
9A18
100
AcDbXrecord
280
     1
102
MATERIAL
148
0.0
149
0.0
149
0.0
 93
        0
 94
      127
282
     0
 72
     0
 77
     0
171
     0
175
     0
179
     0
273
     0
  0
XRECORD
  5
9A1A
102
{ACAD_REACTORS
330
9A18
102
}
330
9A18
100
AcDbXrecord
280
     1
270
     1
271
     1
  0
XRECORD
  5
9A19
102
{ACAD_REACTORS
330
9A18
102
}
330
9A18
100
AcDbXrecord
280
     1
270
     1
271
     1
  0
XRECORD
  5
9A1D
102
{ACAD_REACTORS
330
9A18
102
}
330
9A18
100
AcDbXrecord
280
     1
270
     1
271
     1
  0
XRECORD
  5
9A1C
102
{ACAD_REACTORS
330
9A18
102
}
330
9A18
100
AcDbXrecord
280
     1
270
     1
271
     1
  0
XRECORD
  5
9A1E
102
{ACAD_REACTORS
330
9A18
102
}
330
9A18
100
AcDbXrecord
280
     1
270
     1
271
     1
  0
XRECORD
  5
9A1B
102
{ACAD_REACTORS
330
9A18
102
}
330
9A18
100
AcDbXrecord
280
     1
270
     1
271
     1
  0
XRECORD
  5
9AAB
102
{ACAD_REACTORS
330
9AAA
102
}
330
9AAA
100
AcDbXrecord
280
     1
102
DISPLAYNAME
  1
Imperial24
102
FLAGS
 90
        0
  0
CELLSTYLEMAP
  5
9A72
102
{ACAD_REACTORS
330
9A71
102
}
330
9A71
100
AcDbCellStyleMap
 90
        3
300
CELLSTYLE
  1
TABLEFORMAT_BEGIN
 90
        5
170
     1
 91
        0
 92
    32768
 62
   257
 93
        1
300
CONTENTFORMAT
  1
CONTENTFORMAT_BEGIN
 90
        0
 91
        0
 92
      512
 93
        0
300

 40
0.0
140
1.0
 94
        5
 62
     0
340
F
144
0.25
309
CONTENTFORMAT_END
171
     0
 94
        0
309
TABLEFORMAT_END
  1
CELLSTYLE_BEGIN
 90
        1
 91
        1
300
_TITLE
309
CELLSTYLE_END
300
CELLSTYLE
  1
TABLEFORMAT_BEGIN
 90
        5
170
     1
 91
        0
 92
        0
 62
   257
 93
        1
300
CONTENTFORMAT
  1
CONTENTFORMAT_BEGIN
 90
        0
 91
        0
 92
      512
 93
        0
300

 40
0.0
140
1.0
 94
        5
 62
     0
340
F
144
0.18
309
CONTENTFORMAT_END
171
     0
 94
        0
309
TABLEFORMAT_END
  1
CELLSTYLE_BEGIN
 90
        2
 91
        1
300
_HEADER
309
CELLSTYLE_END
300
CELLSTYLE
  1
TABLEFORMAT_BEGIN
 90
        5
170
     1
 91
        0
 92
        0
 62
   257
 93
        1
300
CONTENTFORMAT
  1
CONTENTFORMAT_BEGIN
 90
        0
 91
        0
 92
      512
 93
        0
300

 40
0.0
140
1.0
 94
        2
 62
     0
340
F
144
0.18
309
CONTENTFORMAT_END
171
     0
 94
        0
309
TABLEFORMAT_END
  1
CELLSTYLE_BEGIN
 90
        3
 91
        2
300
_DATA
309
CELLSTYLE_END
  0
XRECORD
  5
9AA8
102
{ACAD_REACTORS
330
9A71
102
}
330
9A71
100
AcDbXrecord
280
     1
102
ACAD_ROUNDTRIP_PRE2007_TABLESTYLE
 90
      512
 91
        0
  1

 92
      512
 93
        0
  2

 94
      512
 95
        0
  3

  0
XRECORD
  5
9A83
102
{ACAD_REACTORS
330
9A82
102
}
330
9A82
100
AcDbXrecord
280
     1
102
RTVSPost2010Prop28
280
     1
102
RTVSPost2010PropOp28
 70
     1
102
RTVSPost2010Prop29
280
     1
102
RTVSPost2010PropOp29
 70
     1
102
RTVSPost2010Prop30
280
     0
102
RTVSPost2010PropOp30
 70
     1
102
RTVSPost2010Prop31
280
     0
102
RTVSPost2010PropOp31
 70
     1
102
RTVSPost2010Prop32
280
     0
102
RTVSPost2010PropOp32
 70
     1
102
RTVSPost2010Prop33
280
     0
102
RTVSPost2010PropOp33
 70
     1
102
RTVSPost2010Prop34
280
     0
102
RTVSPost2010PropOp34
 70
     1
102
RTVSPost2010Prop35
280
     0
102
RTVSPost2010PropOp35
 70
     1
102
RTVSPost2010Prop36
280
     0
102
RTVSPost2010PropOp36
 70
     1
102
RTVSPost2010Prop37
 90
       50
102
RTVSPost2010PropOp37
 70
     1
102
RTVSPost2010Prop38
140
0.0
102
RTVSPost2010PropOp38
 70
     1
102
RTVSPost2010Prop39
140
1.0
102
RTVSPost2010PropOp39
 70
     1
102
RTVSPost2010Prop40
 90
        0
102
RTVSPost2010PropOp40
 70
     1
102
RTVSPost2010Prop41ColorIndex
 90
       18
102
RTVSPost2010Prop41ColorRGB
 90
        0
102
RTVSPost2010PropOp41
 70
     1
102
RTVSPost2010Prop42
 90
       50
102
RTVSPost2010PropOp42
 70
     1
102
RTVSPost2010Prop43
 90
        3
102
RTVSPost2010PropOp43
 70
     1
102
RTVSPost2010Prop44ColorIndex
 90
        5
102
RTVSPost2010Prop44ColorRGB
 90
      255
102
RTVSPost2010PropOp44
 70
     1
102
RTVSPost2010Prop45
280
     0
102
RTVSPost2010PropOp45
 70
     1
102
RTVSPost2010Prop46
 90
       50
102
RTVSPost2010PropOp46
 70
     1
102
RTVSPost2010Prop47
 90
       50
102
RTVSPost2010PropOp47
 70
     1
102
RTVSPost2010Prop48
 90
       50
102
RTVSPost2010PropOp48
 70
     1
102
RTVSPost2010Prop49
280
     0
102
RTVSPost2010PropOp49
 70
     1
102
RTVSPost2010Prop50
 90
       50
102
RTVSPost2010PropOp50
 70
     1
102
RTVSPost2010Prop51ColorIndex
 90
      256
102
RTVSPost2010Prop51ColorRGB
 90
-16777216
102
RTVSPost2010PropOp51
 70
     0
102
RTVSPost2010Prop52
140
1.0
102
RTVSPost2010PropOp52
 70
     0
102
RTVSPost2010Prop53
 90
        2
102
RTVSPost2010PropOp53
 70
     1
102
RTVSPost2010Prop54
  1
strokes_ogs.tif
102
RTVSPost2010PropOp54
 70
     1
102
RTVSPost2010Prop55
280
     0
102
RTVSPost2010PropOp55
 70
     1
102
RTVSPost2010Prop56
140
1.0
102
RTVSPost2010PropOp56
 70
     1
102
RTVSPost2010Prop57
140
1.0
102
RTVSPost2010PropOp57
 70
     1
102
RTVSPropertyOp0
 70
     1
102
RTVSPropertyOp1
 70
     1
102
RTVSPropertyOp2
 70
     1
102
RTVSPropertyOp3
 70
     1
102
RTVSPropertyOp4
 70
     1
102
RTVSPropertyOp5
 70
     1
102
RTVSPropertyOp6
 70
     1
102
RTVSPropertyOp7
 70
     1
102
RTVSPropertyOp8
 70
     1
102
RTVSPropertyOp9
 70
     1
102
RTVSPropertyOp10
 70
     1
102
RTVSPropertyOp11
 70
     1
102
RTVSPropertyOp12
 70
     1
102
RTVSPropertyOp13
 70
     1
102
RTVSPropertyOp14
 70
     1
102
RTVSPropertyOp15
 70
     1
102
RTVSPropertyOp16
 70
     1
102
RTVSPropertyOp17
 70
     1
102
RTVSPropertyOp18
 70
     1
102
RTVSPropertyOp19
 70
     1
102
RTVSPropertyOp20
 70
     1
102
RTVSPropertyOp21
 70
     1
102
RTVSPropertyOp22
 70
     1
102
RTVSPropertyOp23
 70
     1
102
RTVSPropertyOp24
 70
     1
102
RTVSPropertyOp25
 70
     1
102
RTVSPropertyOp26
 70
     1
102
RTVSPropertyOp27
 70
     1
102
RTVSPropertyOp28
 70
     1
102
RTVSPropertyOp29
 70
     1
102
RTVSPropertyOp30
 70
     1
102
RTVSPropertyOp31
 70
     1
102
RTVSPropertyOp32
 70
     1
102
RTVSPropertyOp33
 70
     1
102
RTVSPropertyOp34
 70
     1
102
RTVSPropertyOp35
 70
     1
102
RTVSPropertyOp36
 70
     1
102
RTVSPropertyOp37
 70
     1
102
RTVSPropertyOp38
 70
     1
102
RTVSPropertyOp39
 70
     1
102
RTVSPropertyOp40
 70
     1
102
RTVSPropertyOp41
 70
     1
102
RTVSPropertyOp42
 70
     1
102
RTVSPropertyOp43
 70
     1
102
RTVSPropertyOp44
 70
     1
102
RTVSPropertyOp45
 70
     1
102
RTVSPropertyOp46
 70
     1
102
RTVSPropertyOp47
 70
     1
102
RTVSPropertyOp48
 70
     1
102
RTVSPropertyOp49
 70
     1
102
RTVSPropertyOp50
 70
     1
102
RTVSPropertyOp51
 70
     0
102
RTVSPropertyOp52
 70
     0
102
RTVSPropertyOp53
 70
     1
102
RTVSPropertyOp54
 70
     1
102
RTVSPropertyOp55
 70
     1
102
RTVSPropertyOp56
 70
     1
102
RTVSPropertyOp57
 70
     1
102
RTVSPropertyOp58
 70
     1
102
RTVSPropertyOp59
 70
     1
102
RTVSPropertyOp60
 70
     1
102
RTVSPropertyOp61
 70
     1
102
RTVSPropertyOp62
 70
     1
  0
XRECORD
  5
9A81
102
{ACAD_REACTORS
330
9A80
102
}
330
9A80
100
AcDbXrecord
280
     1
102
RTVSPost2010Prop28
280
     0
102
RTVSPost2010PropOp28
 70
     1
102
RTVSPost2010Prop29
280
     1
102
RTVSPost2010PropOp29
 70
     1
102
RTVSPost2010Prop30
280
     1
102
RTVSPost2010PropOp30
 70
     1
102
RTVSPost2010Prop31
280
     0
102
RTVSPost2010PropOp31
 70
     1
102
RTVSPost2010Prop32
280
     0
102
RTVSPost2010PropOp32
 70
     1
102
RTVSPost2010Prop33
280
     0
102
RTVSPost2010PropOp33
 70
     1
102
RTVSPost2010Prop34
280
     0
102
RTVSPost2010PropOp34
 70
     1
102
RTVSPost2010Prop35
280
     0
102
RTVSPost2010PropOp35
 70
     1
102
RTVSPost2010Prop36
280
     0
102
RTVSPost2010PropOp36
 70
     1
102
RTVSPost2010Prop37
 90
       50
102
RTVSPost2010PropOp37
 70
     1
102
RTVSPost2010Prop38
140
0.0
102
RTVSPost2010PropOp38
 70
     1
102
RTVSPost2010Prop39
140
1.0
102
RTVSPost2010PropOp39
 70
     1
102
RTVSPost2010Prop40
 90
        0
102
RTVSPost2010PropOp40
 70
     1
102
RTVSPost2010Prop41ColorIndex
 90
       18
102
RTVSPost2010Prop41ColorRGB
 90
        0
102
RTVSPost2010PropOp41
 70
     1
102
RTVSPost2010Prop42
 90
       50
102
RTVSPost2010PropOp42
 70
     1
102
RTVSPost2010Prop43
 90
        3
102
RTVSPost2010PropOp43
 70
     1
102
RTVSPost2010Prop44ColorIndex
 90
        5
102
RTVSPost2010Prop44ColorRGB
 90
      255
102
RTVSPost2010PropOp44
 70
     1
102
RTVSPost2010Prop45
280
     0
102
RTVSPost2010PropOp45
 70
     1
102
RTVSPost2010Prop46
 90
       50
102
RTVSPost2010PropOp46
 70
     1
102
RTVSPost2010Prop47
 90
       50
102
RTVSPost2010PropOp47
 70
     1
102
RTVSPost2010Prop48
 90
       50
102
RTVSPost2010PropOp48
 70
     1
102
RTVSPost2010Prop49
280
     0
102
RTVSPost2010PropOp49
 70
     1
102
RTVSPost2010Prop50
 90
       50
102
RTVSPost2010PropOp50
 70
     1
102
RTVSPost2010Prop51ColorIndex
 90
      256
102
RTVSPost2010Prop51ColorRGB
 90
-16777216
102
RTVSPost2010PropOp51
 70
     0
102
RTVSPost2010Prop52
140
1.0
102
RTVSPost2010PropOp52
 70
     0
102
RTVSPost2010Prop53
 90
        2
102
RTVSPost2010PropOp53
 70
     1
102
RTVSPost2010Prop54
  1
strokes_ogs.tif
102
RTVSPost2010PropOp54
 70
     1
102
RTVSPost2010Prop55
280
     0
102
RTVSPost2010PropOp55
 70
     1
102
RTVSPost2010Prop56
140
1.0
102
RTVSPost2010PropOp56
 70
     1
102
RTVSPost2010Prop57
140
1.0
102
RTVSPost2010PropOp57
 70
     1
102
RTVSPropertyOp0
 70
     1
102
RTVSPropertyOp1
 70
     1
102
RTVSPropertyOp2
 70
     1
102
RTVSPropertyOp3
 70
     1
102
RTVSPropertyOp4
 70
     1
102
RTVSPropertyOp5
 70
     1
102
RTVSPropertyOp6
 70
     1
102
RTVSPropertyOp7
 70
     1
102
RTVSPropertyOp8
 70
     1
102
RTVSPropertyOp9
 70
     1
102
RTVSPropertyOp10
 70
     1
102
RTVSPropertyOp11
 70
     1
102
RTVSPropertyOp12
 70
     1
102
RTVSPropertyOp13
 70
     1
102
RTVSPropertyOp14
 70
     1
102
RTVSPropertyOp15
 70
     1
102
RTVSPropertyOp16
 70
     1
102
RTVSPropertyOp17
 70
     1
102
RTVSPropertyOp18
 70
     1
102
RTVSPropertyOp19
 70
     1
102
RTVSPropertyOp20
 70
     1
102
RTVSPropertyOp21
 70
     1
102
RTVSPropertyOp22
 70
     1
102
RTVSPropertyOp23
 70
     1
102
RTVSPropertyOp24
 70
     1
102
RTVSPropertyOp25
 70
     1
102
RTVSPropertyOp26
 70
     1
102
RTVSPropertyOp27
 70
     1
102
RTVSPropertyOp28
 70
     1
102
RTVSPropertyOp29
 70
     1
102
RTVSPropertyOp30
 70
     1
102
RTVSPropertyOp31
 70
     1
102
RTVSPropertyOp32
 70
     1
102
RTVSPropertyOp33
 70
     1
102
RTVSPropertyOp34
 70
     1
102
RTVSPropertyOp35
 70
     1
102
RTVSPropertyOp36
 70
     1
102
RTVSPropertyOp37
 70
     1
102
RTVSPropertyOp38
 70
     1
102
RTVSPropertyOp39
 70
     1
102
RTVSPropertyOp40
 70
     1
102
RTVSPropertyOp41
 70
     1
102
RTVSPropertyOp42
 70
     1
102
RTVSPropertyOp43
 70
     1
102
RTVSPropertyOp44
 70
     1
102
RTVSPropertyOp45
 70
     1
102
RTVSPropertyOp46
 70
     1
102
RTVSPropertyOp47
 70
     1
102
RTVSPropertyOp48
 70
     1
102
RTVSPropertyOp49
 70
     1
102
RTVSPropertyOp50
 70
     1
102
RTVSPropertyOp51
 70
     0
102
RTVSPropertyOp52
 70
     0
102
RTVSPropertyOp53
 70
     1
102
RTVSPropertyOp54
 70
     1
102
RTVSPropertyOp55
 70
     1
102
RTVSPropertyOp56
 70
     1
102
RTVSPropertyOp57
 70
     1
102
RTVSPropertyOp58
 70
     1
102
RTVSPropertyOp59
 70
     1
102
RTVSPropertyOp60
 70
     1
102
RTVSPropertyOp61
 70
     1
102
RTVSPropertyOp62
 70
     1
  0
XRECORD
  5
9A8F
102
{ACAD_REACTORS
330
9A8E
102
}
330
9A8E
100
AcDbXrecord
280
     1
102
RTVSPost2010Prop28
280
     0
102
RTVSPost2010PropOp28
 70
     1
102
RTVSPost2010Prop29
280
     1
102
RTVSPost2010PropOp29
 70
     1
102
RTVSPost2010Prop30
280
     1
102
RTVSPost2010PropOp30
 70
     1
102
RTVSPost2010Prop31
280
     0
102
RTVSPost2010PropOp31
 70
     1
102
RTVSPost2010Prop32
280
     0
102
RTVSPost2010PropOp32
 70
     1
102
RTVSPost2010Prop33
280
     0
102
RTVSPost2010PropOp33
 70
     1
102
RTVSPost2010Prop34
280
     0
102
RTVSPost2010PropOp34
 70
     1
102
RTVSPost2010Prop35
280
     0
102
RTVSPost2010PropOp35
 70
     1
102
RTVSPost2010Prop36
280
     0
102
RTVSPost2010PropOp36
 70
     1
102
RTVSPost2010Prop37
 90
       50
102
RTVSPost2010PropOp37
 70
     1
102
RTVSPost2010Prop38
140
0.0
102
RTVSPost2010PropOp38
 70
     1
102
RTVSPost2010Prop39
140
1.0
102
RTVSPost2010PropOp39
 70
     1
102
RTVSPost2010Prop40
 90
        0
102
RTVSPost2010PropOp40
 70
     1
102
RTVSPost2010Prop41ColorIndex
 90
       18
102
RTVSPost2010Prop41ColorRGB
 90
        0
102
RTVSPost2010PropOp41
 70
     1
102
RTVSPost2010Prop42
 90
       50
102
RTVSPost2010PropOp42
 70
     1
102
RTVSPost2010Prop43
 90
        3
102
RTVSPost2010PropOp43
 70
     1
102
RTVSPost2010Prop44ColorIndex
 90
        5
102
RTVSPost2010Prop44ColorRGB
 90
      255
102
RTVSPost2010PropOp44
 70
     1
102
RTVSPost2010Prop45
280
     0
102
RTVSPost2010PropOp45
 70
     1
102
RTVSPost2010Prop46
 90
       50
102
RTVSPost2010PropOp46
 70
     1
102
RTVSPost2010Prop47
 90
       50
102
RTVSPost2010PropOp47
 70
     1
102
RTVSPost2010Prop48
 90
       50
102
RTVSPost2010PropOp48
 70
     1
102
RTVSPost2010Prop49
280
     0
102
RTVSPost2010PropOp49
 70
     1
102
RTVSPost2010Prop50
 90
       50
102
RTVSPost2010PropOp50
 70
     1
102
RTVSPost2010Prop51ColorIndex
 90
      256
102
RTVSPost2010Prop51ColorRGB
 90
-16777216
102
RTVSPost2010PropOp51
 70
     0
102
RTVSPost2010Prop52
140
1.0
102
RTVSPost2010PropOp52
 70
     0
102
RTVSPost2010Prop53
 90
        2
102
RTVSPost2010PropOp53
 70
     1
102
RTVSPost2010Prop54
  1
strokes_ogs.tif
102
RTVSPost2010PropOp54
 70
     1
102
RTVSPost2010Prop55
280
     0
102
RTVSPost2010PropOp55
 70
     1
102
RTVSPost2010Prop56
140
1.0
102
RTVSPost2010PropOp56
 70
     1
102
RTVSPost2010Prop57
140
1.0
102
RTVSPost2010PropOp57
 70
     1
102
RTVSPropertyOp0
 70
     1
102
RTVSPropertyOp1
 70
     1
102
RTVSPropertyOp2
 70
     1
102
RTVSPropertyOp3
 70
     1
102
RTVSPropertyOp4
 70
     1
102
RTVSPropertyOp5
 70
     1
102
RTVSPropertyOp6
 70
     1
102
RTVSPropertyOp7
 70
     1
102
RTVSPropertyOp8
 70
     1
102
RTVSPropertyOp9
 70
     1
102
RTVSPropertyOp10
 70
     1
102
RTVSPropertyOp11
 70
     1
102
RTVSPropertyOp12
 70
     1
102
RTVSPropertyOp13
 70
     1
102
RTVSPropertyOp14
 70
     1
102
RTVSPropertyOp15
 70
     1
102
RTVSPropertyOp16
 70
     1
102
RTVSPropertyOp17
 70
     1
102
RTVSPropertyOp18
 70
     1
102
RTVSPropertyOp19
 70
     1
102
RTVSPropertyOp20
 70
     1
102
RTVSPropertyOp21
 70
     1
102
RTVSPropertyOp22
 70
     1
102
RTVSPropertyOp23
 70
     1
102
RTVSPropertyOp24
 70
     1
102
RTVSPropertyOp25
 70
     1
102
RTVSPropertyOp26
 70
     1
102
RTVSPropertyOp27
 70
     1
102
RTVSPropertyOp28
 70
     1
102
RTVSPropertyOp29
 70
     1
102
RTVSPropertyOp30
 70
     1
102
RTVSPropertyOp31
 70
     1
102
RTVSPropertyOp32
 70
     1
102
RTVSPropertyOp33
 70
     1
102
RTVSPropertyOp34
 70
     1
102
RTVSPropertyOp35
 70
     1
102
RTVSPropertyOp36
 70
     1
102
RTVSPropertyOp37
 70
     1
102
RTVSPropertyOp38
 70
     1
102
RTVSPropertyOp39
 70
     1
102
RTVSPropertyOp40
 70
     1
102
RTVSPropertyOp41
 70
     1
102
RTVSPropertyOp42
 70
     1
102
RTVSPropertyOp43
 70
     1
102
RTVSPropertyOp44
 70
     1
102
RTVSPropertyOp45
 70
     1
102
RTVSPropertyOp46
 70
     1
102
RTVSPropertyOp47
 70
     1
102
RTVSPropertyOp48
 70
     1
102
RTVSPropertyOp49
 70
     1
102
RTVSPropertyOp50
 70
     1
102
RTVSPropertyOp51
 70
     0
102
RTVSPropertyOp52
 70
     0
102
RTVSPropertyOp53
 70
     1
102
RTVSPropertyOp54
 70
     1
102
RTVSPropertyOp55
 70
     1
102
RTVSPropertyOp56
 70
     1
102
RTVSPropertyOp57
 70
     1
102
RTVSPropertyOp58
 70
     1
102
RTVSPropertyOp59
 70
     1
102
RTVSPropertyOp60
 70
     1
102
RTVSPropertyOp61
 70
     1
102
RTVSPropertyOp62
 70
     1
  0
XRECORD
  5
9A97
102
{ACAD_REACTORS
330
9A96
102
}
330
9A96
100
AcDbXrecord
280
     1
102
RTVSPost2010Prop28
280
     0
102
RTVSPost2010PropOp28
 70
     1
102
RTVSPost2010Prop29
280
     1
102
RTVSPost2010PropOp29
 70
     1
102
RTVSPost2010Prop30
280
     1
102
RTVSPost2010PropOp30
 70
     1
102
RTVSPost2010Prop31
280
     0
102
RTVSPost2010PropOp31
 70
     1
102
RTVSPost2010Prop32
280
     0
102
RTVSPost2010PropOp32
 70
     1
102
RTVSPost2010Prop33
280
     0
102
RTVSPost2010PropOp33
 70
     1
102
RTVSPost2010Prop34
280
     0
102
RTVSPost2010PropOp34
 70
     1
102
RTVSPost2010Prop35
280
     0
102
RTVSPost2010PropOp35
 70
     1
102
RTVSPost2010Prop36
280
     0
102
RTVSPost2010PropOp36
 70
     1
102
RTVSPost2010Prop37
 90
       50
102
RTVSPost2010PropOp37
 70
     1
102
RTVSPost2010Prop38
140
0.0
102
RTVSPost2010PropOp38
 70
     1
102
RTVSPost2010Prop39
140
1.0
102
RTVSPost2010PropOp39
 70
     1
102
RTVSPost2010Prop40
 90
        0
102
RTVSPost2010PropOp40
 70
     1
102
RTVSPost2010Prop41ColorIndex
 90
       18
102
RTVSPost2010Prop41ColorRGB
 90
        0
102
RTVSPost2010PropOp41
 70
     1
102
RTVSPost2010Prop42
 90
       50
102
RTVSPost2010PropOp42
 70
     1
102
RTVSPost2010Prop43
 90
        3
102
RTVSPost2010PropOp43
 70
     1
102
RTVSPost2010Prop44ColorIndex
 90
        5
102
RTVSPost2010Prop44ColorRGB
 90
      255
102
RTVSPost2010PropOp44
 70
     1
102
RTVSPost2010Prop45
280
     0
102
RTVSPost2010PropOp45
 70
     1
102
RTVSPost2010Prop46
 90
       50
102
RTVSPost2010PropOp46
 70
     1
102
RTVSPost2010Prop47
 90
       50
102
RTVSPost2010PropOp47
 70
     1
102
RTVSPost2010Prop48
 90
       50
102
RTVSPost2010PropOp48
 70
     1
102
RTVSPost2010Prop49
280
     0
102
RTVSPost2010PropOp49
 70
     1
102
RTVSPost2010Prop50
 90
       50
102
RTVSPost2010PropOp50
 70
     1
102
RTVSPost2010Prop51ColorIndex
 90
      256
102
RTVSPost2010Prop51ColorRGB
 90
-16777216
102
RTVSPost2010PropOp51
 70
     0
102
RTVSPost2010Prop52
140
1.0
102
RTVSPost2010PropOp52
 70
     0
102
RTVSPost2010Prop53
 90
        2
102
RTVSPost2010PropOp53
 70
     1
102
RTVSPost2010Prop54
  1
strokes_ogs.tif
102
RTVSPost2010PropOp54
 70
     1
102
RTVSPost2010Prop55
280
     0
102
RTVSPost2010PropOp55
 70
     1
102
RTVSPost2010Prop56
140
1.0
102
RTVSPost2010PropOp56
 70
     1
102
RTVSPost2010Prop57
140
1.0
102
RTVSPost2010PropOp57
 70
     1
102
RTVSPropertyOp0
 70
     1
102
RTVSPropertyOp1
 70
     1
102
RTVSPropertyOp2
 70
     1
102
RTVSPropertyOp3
 70
     1
102
RTVSPropertyOp4
 70
     1
102
RTVSPropertyOp5
 70
     1
102
RTVSPropertyOp6
 70
     1
102
RTVSPropertyOp7
 70
     1
102
RTVSPropertyOp8
 70
     1
102
RTVSPropertyOp9
 70
     1
102
RTVSPropertyOp10
 70
     1
102
RTVSPropertyOp11
 70
     1
102
RTVSPropertyOp12
 70
     1
102
RTVSPropertyOp13
 70
     1
102
RTVSPropertyOp14
 70
     1
102
RTVSPropertyOp15
 70
     1
102
RTVSPropertyOp16
 70
     1
102
RTVSPropertyOp17
 70
     1
102
RTVSPropertyOp18
 70
     1
102
RTVSPropertyOp19
 70
     1
102
RTVSPropertyOp20
 70
     1
102
RTVSPropertyOp21
 70
     1
102
RTVSPropertyOp22
 70
     1
102
RTVSPropertyOp23
 70
     1
102
RTVSPropertyOp24
 70
     1
102
RTVSPropertyOp25
 70
     1
102
RTVSPropertyOp26
 70
     1
102
RTVSPropertyOp27
 70
     1
102
RTVSPropertyOp28
 70
     1
102
RTVSPropertyOp29
 70
     1
102
RTVSPropertyOp30
 70
     1
102
RTVSPropertyOp31
 70
     1
102
RTVSPropertyOp32
 70
     1
102
RTVSPropertyOp33
 70
     1
102
RTVSPropertyOp34
 70
     1
102
RTVSPropertyOp35
 70
     1
102
RTVSPropertyOp36
 70
     1
102
RTVSPropertyOp37
 70
     1
102
RTVSPropertyOp38
 70
     1
102
RTVSPropertyOp39
 70
     1
102
RTVSPropertyOp40
 70
     1
102
RTVSPropertyOp41
 70
     1
102
RTVSPropertyOp42
 70
     1
102
RTVSPropertyOp43
 70
     1
102
RTVSPropertyOp44
 70
     1
102
RTVSPropertyOp45
 70
     1
102
RTVSPropertyOp46
 70
     1
102
RTVSPropertyOp47
 70
     1
102
RTVSPropertyOp48
 70
     1
102
RTVSPropertyOp49
 70
     1
102
RTVSPropertyOp50
 70
     1
102
RTVSPropertyOp51
 70
     0
102
RTVSPropertyOp52
 70
     0
102
RTVSPropertyOp53
 70
     1
102
RTVSPropertyOp54
 70
     1
102
RTVSPropertyOp55
 70
     1
102
RTVSPropertyOp56
 70
     1
102
RTVSPropertyOp57
 70
     1
102
RTVSPropertyOp58
 70
     1
102
RTVSPropertyOp59
 70
     1
102
RTVSPropertyOp60
 70
     1
102
RTVSPropertyOp61
 70
     1
102
RTVSPropertyOp62
 70
     1
  0
XRECORD
  5
9A89
102
{ACAD_REACTORS
330
9A88
102
}
330
9A88
100
AcDbXrecord
280
     1
102
RTVSPost2010Prop28
280
     0
102
RTVSPost2010PropOp28
 70
     1
102
RTVSPost2010Prop29
280
     1
102
RTVSPost2010PropOp29
 70
     1
102
RTVSPost2010Prop30
280
     1
102
RTVSPost2010PropOp30
 70
     1
102
RTVSPost2010Prop31
280
     0
102
RTVSPost2010PropOp31
 70
     1
102
RTVSPost2010Prop32
280
     0
102
RTVSPost2010PropOp32
 70
     1
102
RTVSPost2010Prop33
280
     0
102
RTVSPost2010PropOp33
 70
     1
102
RTVSPost2010Prop34
280
     0
102
RTVSPost2010PropOp34
 70
     1
102
RTVSPost2010Prop35
280
     0
102
RTVSPost2010PropOp35
 70
     1
102
RTVSPost2010Prop36
280
     0
102
RTVSPost2010PropOp36
 70
     1
102
RTVSPost2010Prop37
 90
       50
102
RTVSPost2010PropOp37
 70
     1
102
RTVSPost2010Prop38
140
0.0
102
RTVSPost2010PropOp38
 70
     1
102
RTVSPost2010Prop39
140
1.0
102
RTVSPost2010PropOp39
 70
     1
102
RTVSPost2010Prop40
 90
        0
102
RTVSPost2010PropOp40
 70
     1
102
RTVSPost2010Prop41ColorIndex
 90
       18
102
RTVSPost2010Prop41ColorRGB
 90
        0
102
RTVSPost2010PropOp41
 70
     1
102
RTVSPost2010Prop42
 90
       50
102
RTVSPost2010PropOp42
 70
     1
102
RTVSPost2010Prop43
 90
        3
102
RTVSPost2010PropOp43
 70
     1
102
RTVSPost2010Prop44ColorIndex
 90
        5
102
RTVSPost2010Prop44ColorRGB
 90
      255
102
RTVSPost2010PropOp44
 70
     1
102
RTVSPost2010Prop45
280
     0
102
RTVSPost2010PropOp45
 70
     1
102
RTVSPost2010Prop46
 90
       50
102
RTVSPost2010PropOp46
 70
     1
102
RTVSPost2010Prop47
 90
       50
102
RTVSPost2010PropOp47
 70
     1
102
RTVSPost2010Prop48
 90
       50
102
RTVSPost2010PropOp48
 70
     1
102
RTVSPost2010Prop49
280
     0
102
RTVSPost2010PropOp49
 70
     1
102
RTVSPost2010Prop50
 90
       50
102
RTVSPost2010PropOp50
 70
     1
102
RTVSPost2010Prop51ColorIndex
 90
      256
102
RTVSPost2010Prop51ColorRGB
 90
-16777216
102
RTVSPost2010PropOp51
 70
     0
102
RTVSPost2010Prop52
140
1.0
102
RTVSPost2010PropOp52
 70
     0
102
RTVSPost2010Prop53
 90
        2
102
RTVSPost2010PropOp53
 70
     1
102
RTVSPost2010Prop54
  1
strokes_ogs.tif
102
RTVSPost2010PropOp54
 70
     1
102
RTVSPost2010Prop55
280
     0
102
RTVSPost2010PropOp55
 70
     1
102
RTVSPost2010Prop56
140
1.0
102
RTVSPost2010PropOp56
 70
     1
102
RTVSPost2010Prop57
140
1.0
102
RTVSPost2010PropOp57
 70
     1
102
RTVSPropertyOp0
 70
     1
102
RTVSPropertyOp1
 70
     1
102
RTVSPropertyOp2
 70
     1
102
RTVSPropertyOp3
 70
     1
102
RTVSPropertyOp4
 70
     1
102
RTVSPropertyOp5
 70
     1
102
RTVSPropertyOp6
 70
     1
102
RTVSPropertyOp7
 70
     1
102
RTVSPropertyOp8
 70
     1
102
RTVSPropertyOp9
 70
     1
102
RTVSPropertyOp10
 70
     1
102
RTVSPropertyOp11
 70
     1
102
RTVSPropertyOp12
 70
     1
102
RTVSPropertyOp13
 70
     1
102
RTVSPropertyOp14
 70
     1
102
RTVSPropertyOp15
 70
     1
102
RTVSPropertyOp16
 70
     1
102
RTVSPropertyOp17
 70
     1
102
RTVSPropertyOp18
 70
     1
102
RTVSPropertyOp19
 70
     1
102
RTVSPropertyOp20
 70
     1
102
RTVSPropertyOp21
 70
     1
102
RTVSPropertyOp22
 70
     1
102
RTVSPropertyOp23
 70
     1
102
RTVSPropertyOp24
 70
     1
102
RTVSPropertyOp25
 70
     1
102
RTVSPropertyOp26
 70
     1
102
RTVSPropertyOp27
 70
     1
102
RTVSPropertyOp28
 70
     1
102
RTVSPropertyOp29
 70
     1
102
RTVSPropertyOp30
 70
     1
102
RTVSPropertyOp31
 70
     1
102
RTVSPropertyOp32
 70
     1
102
RTVSPropertyOp33
 70
     1
102
RTVSPropertyOp34
 70
     1
102
RTVSPropertyOp35
 70
     1
102
RTVSPropertyOp36
 70
     1
102
RTVSPropertyOp37
 70
     1
102
RTVSPropertyOp38
 70
     1
102
RTVSPropertyOp39
 70
     1
102
RTVSPropertyOp40
 70
     1
102
RTVSPropertyOp41
 70
     1
102
RTVSPropertyOp42
 70
     1
102
RTVSPropertyOp43
 70
     1
102
RTVSPropertyOp44
 70
     1
102
RTVSPropertyOp45
 70
     1
102
RTVSPropertyOp46
 70
     1
102
RTVSPropertyOp47
 70
     1
102
RTVSPropertyOp48
 70
     1
102
RTVSPropertyOp49
 70
     1
102
RTVSPropertyOp50
 70
     1
102
RTVSPropertyOp51
 70
     0
102
RTVSPropertyOp52
 70
     0
102
RTVSPropertyOp53
 70
     1
102
RTVSPropertyOp54
 70
     1
102
RTVSPropertyOp55
 70
     1
102
RTVSPropertyOp56
 70
     1
102
RTVSPropertyOp57
 70
     1
102
RTVSPropertyOp58
 70
     1
102
RTVSPropertyOp59
 70
     1
102
RTVSPropertyOp60
 70
     1
102
RTVSPropertyOp61
 70
     1
102
RTVSPropertyOp62
 70
     1
  0
XRECORD
  5
9A8D
102
{ACAD_REACTORS
330
9A8C
102
}
330
9A8C
100
AcDbXrecord
280
     1
102
RTVSPost2010Prop28
280
     0
102
RTVSPost2010PropOp28
 70
     1
102
RTVSPost2010Prop29
280
     1
102
RTVSPost2010PropOp29
 70
     1
102
RTVSPost2010Prop30
280
     1
102
RTVSPost2010PropOp30
 70
     1
102
RTVSPost2010Prop31
280
     0
102
RTVSPost2010PropOp31
 70
     1
102
RTVSPost2010Prop32
280
     0
102
RTVSPost2010PropOp32
 70
     1
102
RTVSPost2010Prop33
280
     0
102
RTVSPost2010PropOp33
 70
     1
102
RTVSPost2010Prop34
280
     0
102
RTVSPost2010PropOp34
 70
     1
102
RTVSPost2010Prop35
280
     0
102
RTVSPost2010PropOp35
 70
     1
102
RTVSPost2010Prop36
280
     0
102
RTVSPost2010PropOp36
 70
     1
102
RTVSPost2010Prop37
 90
       50
102
RTVSPost2010PropOp37
 70
     1
102
RTVSPost2010Prop38
140
0.0
102
RTVSPost2010PropOp38
 70
     1
102
RTVSPost2010Prop39
140
1.0
102
RTVSPost2010PropOp39
 70
     1
102
RTVSPost2010Prop40
 90
        0
102
RTVSPost2010PropOp40
 70
     1
102
RTVSPost2010Prop41ColorIndex
 90
       18
102
RTVSPost2010Prop41ColorRGB
 90
        0
102
RTVSPost2010PropOp41
 70
     1
102
RTVSPost2010Prop42
 90
       50
102
RTVSPost2010PropOp42
 70
     1
102
RTVSPost2010Prop43
 90
        3
102
RTVSPost2010PropOp43
 70
     1
102
RTVSPost2010Prop44ColorIndex
 90
        5
102
RTVSPost2010Prop44ColorRGB
 90
      255
102
RTVSPost2010PropOp44
 70
     1
102
RTVSPost2010Prop45
280
     0
102
RTVSPost2010PropOp45
 70
     1
102
RTVSPost2010Prop46
 90
       50
102
RTVSPost2010PropOp46
 70
     1
102
RTVSPost2010Prop47
 90
       50
102
RTVSPost2010PropOp47
 70
     1
102
RTVSPost2010Prop48
 90
       50
102
RTVSPost2010PropOp48
 70
     1
102
RTVSPost2010Prop49
280
     0
102
RTVSPost2010PropOp49
 70
     1
102
RTVSPost2010Prop50
 90
       50
102
RTVSPost2010PropOp50
 70
     1
102
RTVSPost2010Prop51ColorIndex
 90
      256
102
RTVSPost2010Prop51ColorRGB
 90
-16777216
102
RTVSPost2010PropOp51
 70
     0
102
RTVSPost2010Prop52
140
1.0
102
RTVSPost2010PropOp52
 70
     0
102
RTVSPost2010Prop53
 90
        2
102
RTVSPost2010PropOp53
 70
     1
102
RTVSPost2010Prop54
  1
strokes_ogs.tif
102
RTVSPost2010PropOp54
 70
     1
102
RTVSPost2010Prop55
280
     0
102
RTVSPost2010PropOp55
 70
     1
102
RTVSPost2010Prop56
140
1.0
102
RTVSPost2010PropOp56
 70
     1
102
RTVSPost2010Prop57
140
1.0
102
RTVSPost2010PropOp57
 70
     1
102
RTVSPropertyOp0
 70
     1
102
RTVSPropertyOp1
 70
     1
102
RTVSPropertyOp2
 70
     1
102
RTVSPropertyOp3
 70
     1
102
RTVSPropertyOp4
 70
     1
102
RTVSPropertyOp5
 70
     1
102
RTVSPropertyOp6
 70
     1
102
RTVSPropertyOp7
 70
     1
102
RTVSPropertyOp8
 70
     1
102
RTVSPropertyOp9
 70
     1
102
RTVSPropertyOp10
 70
     1
102
RTVSPropertyOp11
 70
     1
102
RTVSPropertyOp12
 70
     1
102
RTVSPropertyOp13
 70
     1
102
RTVSPropertyOp14
 70
     1
102
RTVSPropertyOp15
 70
     1
102
RTVSPropertyOp16
 70
     1
102
RTVSPropertyOp17
 70
     1
102
RTVSPropertyOp18
 70
     1
102
RTVSPropertyOp19
 70
     1
102
RTVSPropertyOp20
 70
     1
102
RTVSPropertyOp21
 70
     1
102
RTVSPropertyOp22
 70
     1
102
RTVSPropertyOp23
 70
     1
102
RTVSPropertyOp24
 70
     1
102
RTVSPropertyOp25
 70
     1
102
RTVSPropertyOp26
 70
     1
102
RTVSPropertyOp27
 70
     1
102
RTVSPropertyOp28
 70
     1
102
RTVSPropertyOp29
 70
     1
102
RTVSPropertyOp30
 70
     1
102
RTVSPropertyOp31
 70
     1
102
RTVSPropertyOp32
 70
     1
102
RTVSPropertyOp33
 70
     1
102
RTVSPropertyOp34
 70
     1
102
RTVSPropertyOp35
 70
     1
102
RTVSPropertyOp36
 70
     1
102
RTVSPropertyOp37
 70
     1
102
RTVSPropertyOp38
 70
     1
102
RTVSPropertyOp39
 70
     1
102
RTVSPropertyOp40
 70
     1
102
RTVSPropertyOp41
 70
     1
102
RTVSPropertyOp42
 70
     1
102
RTVSPropertyOp43
 70
     1
102
RTVSPropertyOp44
 70
     1
102
RTVSPropertyOp45
 70
     1
102
RTVSPropertyOp46
 70
     1
102
RTVSPropertyOp47
 70
     1
102
RTVSPropertyOp48
 70
     1
102
RTVSPropertyOp49
 70
     1
102
RTVSPropertyOp50
 70
     1
102
RTVSPropertyOp51
 70
     0
102
RTVSPropertyOp52
 70
     0
102
RTVSPropertyOp53
 70
     1
102
RTVSPropertyOp54
 70
     1
102
RTVSPropertyOp55
 70
     1
102
RTVSPropertyOp56
 70
     1
102
RTVSPropertyOp57
 70
     1
102
RTVSPropertyOp58
 70
     1
102
RTVSPropertyOp59
 70
     1
102
RTVSPropertyOp60
 70
     1
102
RTVSPropertyOp61
 70
     1
102
RTVSPropertyOp62
 70
     1
  0
XRECORD
  5
9AA7
102
{ACAD_REACTORS
330
9AA6
102
}
330
9AA6
100
AcDbXrecord
280
     1
102
RTVSPost2010Prop28
280
     0
102
RTVSPost2010PropOp28
 70
     1
102
RTVSPost2010Prop29
280
     1
102
RTVSPost2010PropOp29
 70
     1
102
RTVSPost2010Prop30
280
     1
102
RTVSPost2010PropOp30
 70
     1
102
RTVSPost2010Prop31
280
     0
102
RTVSPost2010PropOp31
 70
     1
102
RTVSPost2010Prop32
280
     0
102
RTVSPost2010PropOp32
 70
     1
102
RTVSPost2010Prop33
280
     0
102
RTVSPost2010PropOp33
 70
     1
102
RTVSPost2010Prop34
280
     0
102
RTVSPost2010PropOp34
 70
     1
102
RTVSPost2010Prop35
280
     0
102
RTVSPost2010PropOp35
 70
     1
102
RTVSPost2010Prop36
280
     0
102
RTVSPost2010PropOp36
 70
     1
102
RTVSPost2010Prop37
 90
       50
102
RTVSPost2010PropOp37
 70
     0
102
RTVSPost2010Prop38
140
0.0
102
RTVSPost2010PropOp38
 70
     0
102
RTVSPost2010Prop39
140
1.0
102
RTVSPost2010PropOp39
 70
     0
102
RTVSPost2010Prop40
 90
        0
102
RTVSPost2010PropOp40
 70
     0
102
RTVSPost2010Prop41ColorIndex
 90
       18
102
RTVSPost2010Prop41ColorRGB
 90
        0
102
RTVSPost2010PropOp41
 70
     0
102
RTVSPost2010Prop42
 90
       50
102
RTVSPost2010PropOp42
 70
     0
102
RTVSPost2010Prop43
 90
        3
102
RTVSPost2010PropOp43
 70
     0
102
RTVSPost2010Prop44ColorIndex
 90
        5
102
RTVSPost2010Prop44ColorRGB
 90
      255
102
RTVSPost2010PropOp44
 70
     0
102
RTVSPost2010Prop45
280
     0
102
RTVSPost2010PropOp45
 70
     1
102
RTVSPost2010Prop46
 90
       50
102
RTVSPost2010PropOp46
 70
     0
102
RTVSPost2010Prop47
 90
       50
102
RTVSPost2010PropOp47
 70
     0
102
RTVSPost2010Prop48
 90
       50
102
RTVSPost2010PropOp48
 70
     0
102
RTVSPost2010Prop49
280
     0
102
RTVSPost2010PropOp49
 70
     1
102
RTVSPost2010Prop50
 90
       50
102
RTVSPost2010PropOp50
 70
     0
102
RTVSPost2010Prop51ColorIndex
 90
      256
102
RTVSPost2010Prop51ColorRGB
 90
-16777216
102
RTVSPost2010PropOp51
 70
     0
102
RTVSPost2010Prop52
140
1.0
102
RTVSPost2010PropOp52
 70
     0
102
RTVSPost2010Prop53
 90
        2
102
RTVSPost2010PropOp53
 70
     0
102
RTVSPost2010Prop54
  1
strokes_ogs.tif
102
RTVSPost2010PropOp54
 70
     0
102
RTVSPost2010Prop55
280
     0
102
RTVSPost2010PropOp55
 70
     1
102
RTVSPost2010Prop56
140
1.0
102
RTVSPost2010PropOp56
 70
     0
102
RTVSPost2010Prop57
140
1.0
102
RTVSPost2010PropOp57
 70
     0
102
RTVSPropertyOp0
 70
     0
102
RTVSPropertyOp1
 70
     0
102
RTVSPropertyOp2
 70
     0
102
RTVSPropertyOp3
 70
     0
102
RTVSPropertyOp4
 70
     0
102
RTVSPropertyOp5
 70
     0
102
RTVSPropertyOp6
 70
     0
102
RTVSPropertyOp7
 70
     0
102
RTVSPropertyOp8
 70
     0
102
RTVSPropertyOp9
 70
     0
102
RTVSPropertyOp10
 70
     0
102
RTVSPropertyOp11
 70
     0
102
RTVSPropertyOp12
 70
     0
102
RTVSPropertyOp13
 70
     0
102
RTVSPropertyOp14
 70
     2
102
RTVSPropertyOp15
 70
     0
102
RTVSPropertyOp16
 70
     0
102
RTVSPropertyOp17
 70
     0
102
RTVSPropertyOp18
 70
     0
102
RTVSPropertyOp19
 70
     0
102
RTVSPropertyOp20
 70
     0
102
RTVSPropertyOp21
 70
     0
102
RTVSPropertyOp22
 70
     0
102
RTVSPropertyOp23
 70
     0
102
RTVSPropertyOp24
 70
     0
102
RTVSPropertyOp25
 70
     0
102
RTVSPropertyOp26
 70
     0
102
RTVSPropertyOp27
 70
     0
102
RTVSPropertyOp28
 70
     1
102
RTVSPropertyOp29
 70
     1
102
RTVSPropertyOp30
 70
     1
102
RTVSPropertyOp31
 70
     1
102
RTVSPropertyOp32
 70
     1
102
RTVSPropertyOp33
 70
     1
102
RTVSPropertyOp34
 70
     1
102
RTVSPropertyOp35
 70
     1
102
RTVSPropertyOp36
 70
     1
102
RTVSPropertyOp37
 70
     0
102
RTVSPropertyOp38
 70
     0
102
RTVSPropertyOp39
 70
     0
102
RTVSPropertyOp40
 70
     0
102
RTVSPropertyOp41
 70
     0
102
RTVSPropertyOp42
 70
     0
102
RTVSPropertyOp43
 70
     0
102
RTVSPropertyOp44
 70
     0
102
RTVSPropertyOp45
 70
     1
102
RTVSPropertyOp46
 70
     0
102
RTVSPropertyOp47
 70
     0
102
RTVSPropertyOp48
 70
     0
102
RTVSPropertyOp49
 70
     1
102
RTVSPropertyOp50
 70
     0
102
RTVSPropertyOp51
 70
     0
102
RTVSPropertyOp52
 70
     0
102
RTVSPropertyOp53
 70
     0
102
RTVSPropertyOp54
 70
     0
102
RTVSPropertyOp55
 70
     1
102
RTVSPropertyOp56
 70
     0
102
RTVSPropertyOp57
 70
     0
102
RTVSPropertyOp58
 70
     0
102
RTVSPropertyOp59
 70
     0
102
RTVSPropertyOp60
 70
     0
102
RTVSPropertyOp61
 70
     0
102
RTVSPropertyOp62
 70
     0
  0
XRECORD
  5
9A95
102
{ACAD_REACTORS
330
9A94
102
}
330
9A94
100
AcDbXrecord
280
     1
102
RTVSPost2010Prop28
280
     0
102
RTVSPost2010PropOp28
 70
     1
102
RTVSPost2010Prop29
280
     1
102
RTVSPost2010PropOp29
 70
     1
102
RTVSPost2010Prop30
280
     1
102
RTVSPost2010PropOp30
 70
     1
102
RTVSPost2010Prop31
280
     0
102
RTVSPost2010PropOp31
 70
     1
102
RTVSPost2010Prop32
280
     0
102
RTVSPost2010PropOp32
 70
     1
102
RTVSPost2010Prop33
280
     0
102
RTVSPost2010PropOp33
 70
     1
102
RTVSPost2010Prop34
280
     0
102
RTVSPost2010PropOp34
 70
     1
102
RTVSPost2010Prop35
280
     0
102
RTVSPost2010PropOp35
 70
     1
102
RTVSPost2010Prop36
280
     0
102
RTVSPost2010PropOp36
 70
     1
102
RTVSPost2010Prop37
 90
       50
102
RTVSPost2010PropOp37
 70
     1
102
RTVSPost2010Prop38
140
0.0
102
RTVSPost2010PropOp38
 70
     1
102
RTVSPost2010Prop39
140
1.0
102
RTVSPost2010PropOp39
 70
     1
102
RTVSPost2010Prop40
 90
        0
102
RTVSPost2010PropOp40
 70
     1
102
RTVSPost2010Prop41ColorIndex
 90
       18
102
RTVSPost2010Prop41ColorRGB
 90
        0
102
RTVSPost2010PropOp41
 70
     1
102
RTVSPost2010Prop42
 90
       50
102
RTVSPost2010PropOp42
 70
     1
102
RTVSPost2010Prop43
 90
        3
102
RTVSPost2010PropOp43
 70
     1
102
RTVSPost2010Prop44ColorIndex
 90
        5
102
RTVSPost2010Prop44ColorRGB
 90
      255
102
RTVSPost2010PropOp44
 70
     1
102
RTVSPost2010Prop45
280
     0
102
RTVSPost2010PropOp45
 70
     1
102
RTVSPost2010Prop46
 90
       50
102
RTVSPost2010PropOp46
 70
     1
102
RTVSPost2010Prop47
 90
       50
102
RTVSPost2010PropOp47
 70
     1
102
RTVSPost2010Prop48
 90
       50
102
RTVSPost2010PropOp48
 70
     1
102
RTVSPost2010Prop49
280
     0
102
RTVSPost2010PropOp49
 70
     1
102
RTVSPost2010Prop50
 90
       50
102
RTVSPost2010PropOp50
 70
     1
102
RTVSPost2010Prop51ColorIndex
 90
      256
102
RTVSPost2010Prop51ColorRGB
 90
-16777216
102
RTVSPost2010PropOp51
 70
     0
102
RTVSPost2010Prop52
140
1.0
102
RTVSPost2010PropOp52
 70
     0
102
RTVSPost2010Prop53
 90
        2
102
RTVSPost2010PropOp53
 70
     1
102
RTVSPost2010Prop54
  1
strokes_ogs.tif
102
RTVSPost2010PropOp54
 70
     1
102
RTVSPost2010Prop55
280
     0
102
RTVSPost2010PropOp55
 70
     1
102
RTVSPost2010Prop56
140
1.0
102
RTVSPost2010PropOp56
 70
     1
102
RTVSPost2010Prop57
140
1.0
102
RTVSPost2010PropOp57
 70
     1
102
RTVSPropertyOp0
 70
     1
102
RTVSPropertyOp1
 70
     1
102
RTVSPropertyOp2
 70
     1
102
RTVSPropertyOp3
 70
     1
102
RTVSPropertyOp4
 70
     1
102
RTVSPropertyOp5
 70
     1
102
RTVSPropertyOp6
 70
     1
102
RTVSPropertyOp7
 70
     1
102
RTVSPropertyOp8
 70
     1
102
RTVSPropertyOp9
 70
     1
102
RTVSPropertyOp10
 70
     1
102
RTVSPropertyOp11
 70
     1
102
RTVSPropertyOp12
 70
     1
102
RTVSPropertyOp13
 70
     1
102
RTVSPropertyOp14
 70
     1
102
RTVSPropertyOp15
 70
     1
102
RTVSPropertyOp16
 70
     1
102
RTVSPropertyOp17
 70
     1
102
RTVSPropertyOp18
 70
     1
102
RTVSPropertyOp19
 70
     1
102
RTVSPropertyOp20
 70
     1
102
RTVSPropertyOp21
 70
     1
102
RTVSPropertyOp22
 70
     1
102
RTVSPropertyOp23
 70
     1
102
RTVSPropertyOp24
 70
     1
102
RTVSPropertyOp25
 70
     1
102
RTVSPropertyOp26
 70
     1
102
RTVSPropertyOp27
 70
     1
102
RTVSPropertyOp28
 70
     1
102
RTVSPropertyOp29
 70
     1
102
RTVSPropertyOp30
 70
     1
102
RTVSPropertyOp31
 70
     1
102
RTVSPropertyOp32
 70
     1
102
RTVSPropertyOp33
 70
     1
102
RTVSPropertyOp34
 70
     1
102
RTVSPropertyOp35
 70
     1
102
RTVSPropertyOp36
 70
     1
102
RTVSPropertyOp37
 70
     1
102
RTVSPropertyOp38
 70
     1
102
RTVSPropertyOp39
 70
     1
102
RTVSPropertyOp40
 70
     1
102
RTVSPropertyOp41
 70
     1
102
RTVSPropertyOp42
 70
     1
102
RTVSPropertyOp43
 70
     1
102
RTVSPropertyOp44
 70
     1
102
RTVSPropertyOp45
 70
     1
102
RTVSPropertyOp46
 70
     1
102
RTVSPropertyOp47
 70
     1
102
RTVSPropertyOp48
 70
     1
102
RTVSPropertyOp49
 70
     1
102
RTVSPropertyOp50
 70
     1
102
RTVSPropertyOp51
 70
     0
102
RTVSPropertyOp52
 70
     0
102
RTVSPropertyOp53
 70
     1
102
RTVSPropertyOp54
 70
     1
102
RTVSPropertyOp55
 70
     1
102
RTVSPropertyOp56
 70
     1
102
RTVSPropertyOp57
 70
     1
102
RTVSPropertyOp58
 70
     1
102
RTVSPropertyOp59
 70
     1
102
RTVSPropertyOp60
 70
     1
102
RTVSPropertyOp61
 70
     1
102
RTVSPropertyOp62
 70
     1
  0
XRECORD
  5
9A79
102
{ACAD_REACTORS
330
9A78
102
}
330
9A78
100
AcDbXrecord
280
     1
102
RTVSPost2010Prop28
280
     0
102
RTVSPost2010PropOp28
 70
     1
102
RTVSPost2010Prop29
280
     1
102
RTVSPost2010PropOp29
 70
     1
102
RTVSPost2010Prop30
280
     1
102
RTVSPost2010PropOp30
 70
     1
102
RTVSPost2010Prop31
280
     0
102
RTVSPost2010PropOp31
 70
     1
102
RTVSPost2010Prop32
280
     0
102
RTVSPost2010PropOp32
 70
     1
102
RTVSPost2010Prop33
280
     0
102
RTVSPost2010PropOp33
 70
     1
102
RTVSPost2010Prop34
280
     0
102
RTVSPost2010PropOp34
 70
     1
102
RTVSPost2010Prop35
280
     0
102
RTVSPost2010PropOp35
 70
     1
102
RTVSPost2010Prop36
280
     0
102
RTVSPost2010PropOp36
 70
     1
102
RTVSPost2010Prop37
 90
       50
102
RTVSPost2010PropOp37
 70
     1
102
RTVSPost2010Prop38
140
0.0
102
RTVSPost2010PropOp38
 70
     1
102
RTVSPost2010Prop39
140
1.0
102
RTVSPost2010PropOp39
 70
     1
102
RTVSPost2010Prop40
 90
        0
102
RTVSPost2010PropOp40
 70
     1
102
RTVSPost2010Prop41ColorIndex
 90
       18
102
RTVSPost2010Prop41ColorRGB
 90
        0
102
RTVSPost2010PropOp41
 70
     1
102
RTVSPost2010Prop42
 90
       50
102
RTVSPost2010PropOp42
 70
     1
102
RTVSPost2010Prop43
 90
        3
102
RTVSPost2010PropOp43
 70
     1
102
RTVSPost2010Prop44ColorIndex
 90
        5
102
RTVSPost2010Prop44ColorRGB
 90
      255
102
RTVSPost2010PropOp44
 70
     1
102
RTVSPost2010Prop45
280
     0
102
RTVSPost2010PropOp45
 70
     1
102
RTVSPost2010Prop46
 90
       50
102
RTVSPost2010PropOp46
 70
     1
102
RTVSPost2010Prop47
 90
       50
102
RTVSPost2010PropOp47
 70
     1
102
RTVSPost2010Prop48
 90
       50
102
RTVSPost2010PropOp48
 70
     1
102
RTVSPost2010Prop49
280
     0
102
RTVSPost2010PropOp49
 70
     1
102
RTVSPost2010Prop50
 90
       50
102
RTVSPost2010PropOp50
 70
     1
102
RTVSPost2010Prop51ColorIndex
 90
      256
102
RTVSPost2010Prop51ColorRGB
 90
-16777216
102
RTVSPost2010PropOp51
 70
     0
102
RTVSPost2010Prop52
140
1.0
102
RTVSPost2010PropOp52
 70
     0
102
RTVSPost2010Prop53
 90
        2
102
RTVSPost2010PropOp53
 70
     1
102
RTVSPost2010Prop54
  1
strokes_ogs.tif
102
RTVSPost2010PropOp54
 70
     1
102
RTVSPost2010Prop55
280
     0
102
RTVSPost2010PropOp55
 70
     1
102
RTVSPost2010Prop56
140
1.0
102
RTVSPost2010PropOp56
 70
     1
102
RTVSPost2010Prop57
140
1.0
102
RTVSPost2010PropOp57
 70
     1
102
RTVSPropertyOp0
 70
     1
102
RTVSPropertyOp1
 70
     1
102
RTVSPropertyOp2
 70
     1
102
RTVSPropertyOp3
 70
     1
102
RTVSPropertyOp4
 70
     1
102
RTVSPropertyOp5
 70
     1
102
RTVSPropertyOp6
 70
     1
102
RTVSPropertyOp7
 70
     1
102
RTVSPropertyOp8
 70
     1
102
RTVSPropertyOp9
 70
     1
102
RTVSPropertyOp10
 70
     1
102
RTVSPropertyOp11
 70
     1
102
RTVSPropertyOp12
 70
     1
102
RTVSPropertyOp13
 70
     1
102
RTVSPropertyOp14
 70
     1
102
RTVSPropertyOp15
 70
     1
102
RTVSPropertyOp16
 70
     1
102
RTVSPropertyOp17
 70
     1
102
RTVSPropertyOp18
 70
     1
102
RTVSPropertyOp19
 70
     1
102
RTVSPropertyOp20
 70
     1
102
RTVSPropertyOp21
 70
     1
102
RTVSPropertyOp22
 70
     1
102
RTVSPropertyOp23
 70
     1
102
RTVSPropertyOp24
 70
     1
102
RTVSPropertyOp25
 70
     1
102
RTVSPropertyOp26
 70
     1
102
RTVSPropertyOp27
 70
     1
102
RTVSPropertyOp28
 70
     1
102
RTVSPropertyOp29
 70
     1
102
RTVSPropertyOp30
 70
     1
102
RTVSPropertyOp31
 70
     1
102
RTVSPropertyOp32
 70
     1
102
RTVSPropertyOp33
 70
     1
102
RTVSPropertyOp34
 70
     1
102
RTVSPropertyOp35
 70
     1
102
RTVSPropertyOp36
 70
     1
102
RTVSPropertyOp37
 70
     1
102
RTVSPropertyOp38
 70
     1
102
RTVSPropertyOp39
 70
     1
102
RTVSPropertyOp40
 70
     1
102
RTVSPropertyOp41
 70
     1
102
RTVSPropertyOp42
 70
     1
102
RTVSPropertyOp43
 70
     1
102
RTVSPropertyOp44
 70
     1
102
RTVSPropertyOp45
 70
     1
102
RTVSPropertyOp46
 70
     1
102
RTVSPropertyOp47
 70
     1
102
RTVSPropertyOp48
 70
     1
102
RTVSPropertyOp49
 70
     1
102
RTVSPropertyOp50
 70
     1
102
RTVSPropertyOp51
 70
     0
102
RTVSPropertyOp52
 70
     0
102
RTVSPropertyOp53
 70
     1
102
RTVSPropertyOp54
 70
     1
102
RTVSPropertyOp55
 70
     1
102
RTVSPropertyOp56
 70
     1
102
RTVSPropertyOp57
 70
     1
102
RTVSPropertyOp58
 70
     1
102
RTVSPropertyOp59
 70
     1
102
RTVSPropertyOp60
 70
     1
102
RTVSPropertyOp61
 70
     1
102
RTVSPropertyOp62
 70
     1
  0
XRECORD
  5
9A7B
102
{ACAD_REACTORS
330
9A7A
102
}
330
9A7A
100
AcDbXrecord
280
     1
102
RTVSPost2010Prop28
280
     0
102
RTVSPost2010PropOp28
 70
     1
102
RTVSPost2010Prop29
280
     1
102
RTVSPost2010PropOp29
 70
     1
102
RTVSPost2010Prop30
280
     1
102
RTVSPost2010PropOp30
 70
     1
102
RTVSPost2010Prop31
280
     0
102
RTVSPost2010PropOp31
 70
     1
102
RTVSPost2010Prop32
280
     0
102
RTVSPost2010PropOp32
 70
     1
102
RTVSPost2010Prop33
280
     0
102
RTVSPost2010PropOp33
 70
     1
102
RTVSPost2010Prop34
280
     0
102
RTVSPost2010PropOp34
 70
     1
102
RTVSPost2010Prop35
280
     0
102
RTVSPost2010PropOp35
 70
     1
102
RTVSPost2010Prop36
280
     0
102
RTVSPost2010PropOp36
 70
     1
102
RTVSPost2010Prop37
 90
       50
102
RTVSPost2010PropOp37
 70
     1
102
RTVSPost2010Prop38
140
0.0
102
RTVSPost2010PropOp38
 70
     1
102
RTVSPost2010Prop39
140
1.0
102
RTVSPost2010PropOp39
 70
     1
102
RTVSPost2010Prop40
 90
        0
102
RTVSPost2010PropOp40
 70
     1
102
RTVSPost2010Prop41ColorIndex
 90
       18
102
RTVSPost2010Prop41ColorRGB
 90
        0
102
RTVSPost2010PropOp41
 70
     1
102
RTVSPost2010Prop42
 90
       50
102
RTVSPost2010PropOp42
 70
     1
102
RTVSPost2010Prop43
 90
        3
102
RTVSPost2010PropOp43
 70
     1
102
RTVSPost2010Prop44ColorIndex
 90
        5
102
RTVSPost2010Prop44ColorRGB
 90
      255
102
RTVSPost2010PropOp44
 70
     1
102
RTVSPost2010Prop45
280
     0
102
RTVSPost2010PropOp45
 70
     1
102
RTVSPost2010Prop46
 90
       50
102
RTVSPost2010PropOp46
 70
     1
102
RTVSPost2010Prop47
 90
       50
102
RTVSPost2010PropOp47
 70
     1
102
RTVSPost2010Prop48
 90
       50
102
RTVSPost2010PropOp48
 70
     1
102
RTVSPost2010Prop49
280
     0
102
RTVSPost2010PropOp49
 70
     1
102
RTVSPost2010Prop50
 90
       50
102
RTVSPost2010PropOp50
 70
     1
102
RTVSPost2010Prop51ColorIndex
 90
      256
102
RTVSPost2010Prop51ColorRGB
 90
-16777216
102
RTVSPost2010PropOp51
 70
     0
102
RTVSPost2010Prop52
140
1.0
102
RTVSPost2010PropOp52
 70
     0
102
RTVSPost2010Prop53
 90
        2
102
RTVSPost2010PropOp53
 70
     1
102
RTVSPost2010Prop54
  1
strokes_ogs.tif
102
RTVSPost2010PropOp54
 70
     1
102
RTVSPost2010Prop55
280
     0
102
RTVSPost2010PropOp55
 70
     1
102
RTVSPost2010Prop56
140
1.0
102
RTVSPost2010PropOp56
 70
     1
102
RTVSPost2010Prop57
140
1.0
102
RTVSPost2010PropOp57
 70
     1
102
RTVSPropertyOp0
 70
     1
102
RTVSPropertyOp1
 70
     1
102
RTVSPropertyOp2
 70
     1
102
RTVSPropertyOp3
 70
     1
102
RTVSPropertyOp4
 70
     1
102
RTVSPropertyOp5
 70
     1
102
RTVSPropertyOp6
 70
     1
102
RTVSPropertyOp7
 70
     1
102
RTVSPropertyOp8
 70
     1
102
RTVSPropertyOp9
 70
     1
102
RTVSPropertyOp10
 70
     1
102
RTVSPropertyOp11
 70
     1
102
RTVSPropertyOp12
 70
     1
102
RTVSPropertyOp13
 70
     1
102
RTVSPropertyOp14
 70
     1
102
RTVSPropertyOp15
 70
     1
102
RTVSPropertyOp16
 70
     1
102
RTVSPropertyOp17
 70
     1
102
RTVSPropertyOp18
 70
     1
102
RTVSPropertyOp19
 70
     1
102
RTVSPropertyOp20
 70
     1
102
RTVSPropertyOp21
 70
     1
102
RTVSPropertyOp22
 70
     1
102
RTVSPropertyOp23
 70
     1
102
RTVSPropertyOp24
 70
     1
102
RTVSPropertyOp25
 70
     1
102
RTVSPropertyOp26
 70
     1
102
RTVSPropertyOp27
 70
     1
102
RTVSPropertyOp28
 70
     1
102
RTVSPropertyOp29
 70
     1
102
RTVSPropertyOp30
 70
     1
102
RTVSPropertyOp31
 70
     1
102
RTVSPropertyOp32
 70
     1
102
RTVSPropertyOp33
 70
     1
102
RTVSPropertyOp34
 70
     1
102
RTVSPropertyOp35
 70
     1
102
RTVSPropertyOp36
 70
     1
102
RTVSPropertyOp37
 70
     1
102
RTVSPropertyOp38
 70
     1
102
RTVSPropertyOp39
 70
     1
102
RTVSPropertyOp40
 70
     1
102
RTVSPropertyOp41
 70
     1
102
RTVSPropertyOp42
 70
     1
102
RTVSPropertyOp43
 70
     1
102
RTVSPropertyOp44
 70
     1
102
RTVSPropertyOp45
 70
     1
102
RTVSPropertyOp46
 70
     1
102
RTVSPropertyOp47
 70
     1
102
RTVSPropertyOp48
 70
     1
102
RTVSPropertyOp49
 70
     1
102
RTVSPropertyOp50
 70
     1
102
RTVSPropertyOp51
 70
     0
102
RTVSPropertyOp52
 70
     0
102
RTVSPropertyOp53
 70
     1
102
RTVSPropertyOp54
 70
     1
102
RTVSPropertyOp55
 70
     1
102
RTVSPropertyOp56
 70
     1
102
RTVSPropertyOp57
 70
     1
102
RTVSPropertyOp58
 70
     1
102
RTVSPropertyOp59
 70
     1
102
RTVSPropertyOp60
 70
     1
102
RTVSPropertyOp61
 70
     1
102
RTVSPropertyOp62
 70
     1
  0
XRECORD
  5
9A7D
102
{ACAD_REACTORS
330
9A7C
102
}
330
9A7C
100
AcDbXrecord
280
     1
102
RTVSPost2010Prop28
280
     0
102
RTVSPost2010PropOp28
 70
     1
102
RTVSPost2010Prop29
280
     1
102
RTVSPost2010PropOp29
 70
     1
102
RTVSPost2010Prop30
280
     1
102
RTVSPost2010PropOp30
 70
     1
102
RTVSPost2010Prop31
280
     0
102
RTVSPost2010PropOp31
 70
     1
102
RTVSPost2010Prop32
280
     0
102
RTVSPost2010PropOp32
 70
     1
102
RTVSPost2010Prop33
280
     0
102
RTVSPost2010PropOp33
 70
     1
102
RTVSPost2010Prop34
280
     0
102
RTVSPost2010PropOp34
 70
     1
102
RTVSPost2010Prop35
280
     0
102
RTVSPost2010PropOp35
 70
     1
102
RTVSPost2010Prop36
280
     0
102
RTVSPost2010PropOp36
 70
     1
102
RTVSPost2010Prop37
 90
       50
102
RTVSPost2010PropOp37
 70
     1
102
RTVSPost2010Prop38
140
0.0
102
RTVSPost2010PropOp38
 70
     1
102
RTVSPost2010Prop39
140
1.0
102
RTVSPost2010PropOp39
 70
     1
102
RTVSPost2010Prop40
 90
        0
102
RTVSPost2010PropOp40
 70
     1
102
RTVSPost2010Prop41ColorIndex
 90
       18
102
RTVSPost2010Prop41ColorRGB
 90
        0
102
RTVSPost2010PropOp41
 70
     1
102
RTVSPost2010Prop42
 90
       50
102
RTVSPost2010PropOp42
 70
     1
102
RTVSPost2010Prop43
 90
        3
102
RTVSPost2010PropOp43
 70
     1
102
RTVSPost2010Prop44ColorIndex
 90
        5
102
RTVSPost2010Prop44ColorRGB
 90
      255
102
RTVSPost2010PropOp44
 70
     1
102
RTVSPost2010Prop45
280
     0
102
RTVSPost2010PropOp45
 70
     1
102
RTVSPost2010Prop46
 90
       50
102
RTVSPost2010PropOp46
 70
     1
102
RTVSPost2010Prop47
 90
       50
102
RTVSPost2010PropOp47
 70
     1
102
RTVSPost2010Prop48
 90
       50
102
RTVSPost2010PropOp48
 70
     1
102
RTVSPost2010Prop49
280
     0
102
RTVSPost2010PropOp49
 70
     1
102
RTVSPost2010Prop50
 90
       50
102
RTVSPost2010PropOp50
 70
     1
102
RTVSPost2010Prop51ColorIndex
 90
      256
102
RTVSPost2010Prop51ColorRGB
 90
-16777216
102
RTVSPost2010PropOp51
 70
     0
102
RTVSPost2010Prop52
140
1.0
102
RTVSPost2010PropOp52
 70
     0
102
RTVSPost2010Prop53
 90
        2
102
RTVSPost2010PropOp53
 70
     1
102
RTVSPost2010Prop54
  1
strokes_ogs.tif
102
RTVSPost2010PropOp54
 70
     1
102
RTVSPost2010Prop55
280
     0
102
RTVSPost2010PropOp55
 70
     1
102
RTVSPost2010Prop56
140
1.0
102
RTVSPost2010PropOp56
 70
     1
102
RTVSPost2010Prop57
140
1.0
102
RTVSPost2010PropOp57
 70
     1
102
RTVSPropertyOp0
 70
     1
102
RTVSPropertyOp1
 70
     1
102
RTVSPropertyOp2
 70
     1
102
RTVSPropertyOp3
 70
     1
102
RTVSPropertyOp4
 70
     1
102
RTVSPropertyOp5
 70
     1
102
RTVSPropertyOp6
 70
     1
102
RTVSPropertyOp7
 70
     1
102
RTVSPropertyOp8
 70
     1
102
RTVSPropertyOp9
 70
     1
102
RTVSPropertyOp10
 70
     1
102
RTVSPropertyOp11
 70
     1
102
RTVSPropertyOp12
 70
     1
102
RTVSPropertyOp13
 70
     1
102
RTVSPropertyOp14
 70
     1
102
RTVSPropertyOp15
 70
     1
102
RTVSPropertyOp16
 70
     1
102
RTVSPropertyOp17
 70
     1
102
RTVSPropertyOp18
 70
     1
102
RTVSPropertyOp19
 70
     1
102
RTVSPropertyOp20
 70
     1
102
RTVSPropertyOp21
 70
     1
102
RTVSPropertyOp22
 70
     1
102
RTVSPropertyOp23
 70
     1
102
RTVSPropertyOp24
 70
     1
102
RTVSPropertyOp25
 70
     1
102
RTVSPropertyOp26
 70
     1
102
RTVSPropertyOp27
 70
     1
102
RTVSPropertyOp28
 70
     1
102
RTVSPropertyOp29
 70
     1
102
RTVSPropertyOp30
 70
     1
102
RTVSPropertyOp31
 70
     1
102
RTVSPropertyOp32
 70
     1
102
RTVSPropertyOp33
 70
     1
102
RTVSPropertyOp34
 70
     1
102
RTVSPropertyOp35
 70
     1
102
RTVSPropertyOp36
 70
     1
102
RTVSPropertyOp37
 70
     1
102
RTVSPropertyOp38
 70
     1
102
RTVSPropertyOp39
 70
     1
102
RTVSPropertyOp40
 70
     1
102
RTVSPropertyOp41
 70
     1
102
RTVSPropertyOp42
 70
     1
102
RTVSPropertyOp43
 70
     1
102
RTVSPropertyOp44
 70
     1
102
RTVSPropertyOp45
 70
     1
102
RTVSPropertyOp46
 70
     1
102
RTVSPropertyOp47
 70
     1
102
RTVSPropertyOp48
 70
     1
102
RTVSPropertyOp49
 70
     1
102
RTVSPropertyOp50
 70
     1
102
RTVSPropertyOp51
 70
     0
102
RTVSPropertyOp52
 70
     0
102
RTVSPropertyOp53
 70
     1
102
RTVSPropertyOp54
 70
     1
102
RTVSPropertyOp55
 70
     1
102
RTVSPropertyOp56
 70
     1
102
RTVSPropertyOp57
 70
     1
102
RTVSPropertyOp58
 70
     1
102
RTVSPropertyOp59
 70
     1
102
RTVSPropertyOp60
 70
     1
102
RTVSPropertyOp61
 70
     1
102
RTVSPropertyOp62
 70
     1
  0
XRECORD
  5
9A7F
102
{ACAD_REACTORS
330
9A7E
102
}
330
9A7E
100
AcDbXrecord
280
     1
102
RTVSPost2010Prop28
280
     0
102
RTVSPost2010PropOp28
 70
     1
102
RTVSPost2010Prop29
280
     1
102
RTVSPost2010PropOp29
 70
     1
102
RTVSPost2010Prop30
280
     1
102
RTVSPost2010PropOp30
 70
     1
102
RTVSPost2010Prop31
280
     0
102
RTVSPost2010PropOp31
 70
     1
102
RTVSPost2010Prop32
280
     0
102
RTVSPost2010PropOp32
 70
     1
102
RTVSPost2010Prop33
280
     0
102
RTVSPost2010PropOp33
 70
     1
102
RTVSPost2010Prop34
280
     0
102
RTVSPost2010PropOp34
 70
     1
102
RTVSPost2010Prop35
280
     0
102
RTVSPost2010PropOp35
 70
     1
102
RTVSPost2010Prop36
280
     0
102
RTVSPost2010PropOp36
 70
     1
102
RTVSPost2010Prop37
 90
       50
102
RTVSPost2010PropOp37
 70
     1
102
RTVSPost2010Prop38
140
0.0
102
RTVSPost2010PropOp38
 70
     1
102
RTVSPost2010Prop39
140
1.0
102
RTVSPost2010PropOp39
 70
     1
102
RTVSPost2010Prop40
 90
        0
102
RTVSPost2010PropOp40
 70
     1
102
RTVSPost2010Prop41ColorIndex
 90
       18
102
RTVSPost2010Prop41ColorRGB
 90
        0
102
RTVSPost2010PropOp41
 70
     1
102
RTVSPost2010Prop42
 90
       50
102
RTVSPost2010PropOp42
 70
     1
102
RTVSPost2010Prop43
 90
        3
102
RTVSPost2010PropOp43
 70
     1
102
RTVSPost2010Prop44ColorIndex
 90
        5
102
RTVSPost2010Prop44ColorRGB
 90
      255
102
RTVSPost2010PropOp44
 70
     1
102
RTVSPost2010Prop45
280
     0
102
RTVSPost2010PropOp45
 70
     1
102
RTVSPost2010Prop46
 90
       50
102
RTVSPost2010PropOp46
 70
     1
102
RTVSPost2010Prop47
 90
       50
102
RTVSPost2010PropOp47
 70
     1
102
RTVSPost2010Prop48
 90
       50
102
RTVSPost2010PropOp48
 70
     1
102
RTVSPost2010Prop49
280
     0
102
RTVSPost2010PropOp49
 70
     1
102
RTVSPost2010Prop50
 90
       50
102
RTVSPost2010PropOp50
 70
     1
102
RTVSPost2010Prop51ColorIndex
 90
      256
102
RTVSPost2010Prop51ColorRGB
 90
-16777216
102
RTVSPost2010PropOp51
 70
     0
102
RTVSPost2010Prop52
140
1.0
102
RTVSPost2010PropOp52
 70
     0
102
RTVSPost2010Prop53
 90
        2
102
RTVSPost2010PropOp53
 70
     1
102
RTVSPost2010Prop54
  1
strokes_ogs.tif
102
RTVSPost2010PropOp54
 70
     1
102
RTVSPost2010Prop55
280
     0
102
RTVSPost2010PropOp55
 70
     1
102
RTVSPost2010Prop56
140
1.0
102
RTVSPost2010PropOp56
 70
     1
102
RTVSPost2010Prop57
140
1.0
102
RTVSPost2010PropOp57
 70
     1
102
RTVSPropertyOp0
 70
     1
102
RTVSPropertyOp1
 70
     1
102
RTVSPropertyOp2
 70
     1
102
RTVSPropertyOp3
 70
     1
102
RTVSPropertyOp4
 70
     1
102
RTVSPropertyOp5
 70
     1
102
RTVSPropertyOp6
 70
     1
102
RTVSPropertyOp7
 70
     1
102
RTVSPropertyOp8
 70
     1
102
RTVSPropertyOp9
 70
     1
102
RTVSPropertyOp10
 70
     1
102
RTVSPropertyOp11
 70
     1
102
RTVSPropertyOp12
 70
     1
102
RTVSPropertyOp13
 70
     1
102
RTVSPropertyOp14
 70
     1
102
RTVSPropertyOp15
 70
     1
102
RTVSPropertyOp16
 70
     1
102
RTVSPropertyOp17
 70
     1
102
RTVSPropertyOp18
 70
     1
102
RTVSPropertyOp19
 70
     1
102
RTVSPropertyOp20
 70
     1
102
RTVSPropertyOp21
 70
     1
102
RTVSPropertyOp22
 70
     1
102
RTVSPropertyOp23
 70
     1
102
RTVSPropertyOp24
 70
     1
102
RTVSPropertyOp25
 70
     1
102
RTVSPropertyOp26
 70
     1
102
RTVSPropertyOp27
 70
     1
102
RTVSPropertyOp28
 70
     1
102
RTVSPropertyOp29
 70
     1
102
RTVSPropertyOp30
 70
     1
102
RTVSPropertyOp31
 70
     1
102
RTVSPropertyOp32
 70
     1
102
RTVSPropertyOp33
 70
     1
102
RTVSPropertyOp34
 70
     1
102
RTVSPropertyOp35
 70
     1
102
RTVSPropertyOp36
 70
     1
102
RTVSPropertyOp37
 70
     1
102
RTVSPropertyOp38
 70
     1
102
RTVSPropertyOp39
 70
     1
102
RTVSPropertyOp40
 70
     1
102
RTVSPropertyOp41
 70
     1
102
RTVSPropertyOp42
 70
     1
102
RTVSPropertyOp43
 70
     1
102
RTVSPropertyOp44
 70
     1
102
RTVSPropertyOp45
 70
     1
102
RTVSPropertyOp46
 70
     1
102
RTVSPropertyOp47
 70
     1
102
RTVSPropertyOp48
 70
     1
102
RTVSPropertyOp49
 70
     1
102
RTVSPropertyOp50
 70
     1
102
RTVSPropertyOp51
 70
     0
102
RTVSPropertyOp52
 70
     0
102
RTVSPropertyOp53
 70
     1
102
RTVSPropertyOp54
 70
     1
102
RTVSPropertyOp55
 70
     1
102
RTVSPropertyOp56
 70
     1
102
RTVSPropertyOp57
 70
     1
102
RTVSPropertyOp58
 70
     1
102
RTVSPropertyOp59
 70
     1
102
RTVSPropertyOp60
 70
     1
102
RTVSPropertyOp61
 70
     1
102
RTVSPropertyOp62
 70
     1
  0
XRECORD
  5
9A87
102
{ACAD_REACTORS
330
9A86
102
}
330
9A86
100
AcDbXrecord
280
     1
102
RTVSPost2010Prop28
280
     0
102
RTVSPost2010PropOp28
 70
     1
102
RTVSPost2010Prop29
280
     1
102
RTVSPost2010PropOp29
 70
     1
102
RTVSPost2010Prop30
280
     1
102
RTVSPost2010PropOp30
 70
     1
102
RTVSPost2010Prop31
280
     0
102
RTVSPost2010PropOp31
 70
     1
102
RTVSPost2010Prop32
280
     0
102
RTVSPost2010PropOp32
 70
     1
102
RTVSPost2010Prop33
280
     0
102
RTVSPost2010PropOp33
 70
     1
102
RTVSPost2010Prop34
280
     0
102
RTVSPost2010PropOp34
 70
     1
102
RTVSPost2010Prop35
280
     0
102
RTVSPost2010PropOp35
 70
     1
102
RTVSPost2010Prop36
280
     0
102
RTVSPost2010PropOp36
 70
     1
102
RTVSPost2010Prop37
 90
       50
102
RTVSPost2010PropOp37
 70
     1
102
RTVSPost2010Prop38
140
0.0
102
RTVSPost2010PropOp38
 70
     1
102
RTVSPost2010Prop39
140
1.0
102
RTVSPost2010PropOp39
 70
     1
102
RTVSPost2010Prop40
 90
        0
102
RTVSPost2010PropOp40
 70
     1
102
RTVSPost2010Prop41ColorIndex
 90
       18
102
RTVSPost2010Prop41ColorRGB
 90
        0
102
RTVSPost2010PropOp41
 70
     1
102
RTVSPost2010Prop42
 90
       50
102
RTVSPost2010PropOp42
 70
     1
102
RTVSPost2010Prop43
 90
        3
102
RTVSPost2010PropOp43
 70
     1
102
RTVSPost2010Prop44ColorIndex
 90
        5
102
RTVSPost2010Prop44ColorRGB
 90
      255
102
RTVSPost2010PropOp44
 70
     1
102
RTVSPost2010Prop45
280
     0
102
RTVSPost2010PropOp45
 70
     1
102
RTVSPost2010Prop46
 90
       50
102
RTVSPost2010PropOp46
 70
     1
102
RTVSPost2010Prop47
 90
       50
102
RTVSPost2010PropOp47
 70
     1
102
RTVSPost2010Prop48
 90
       50
102
RTVSPost2010PropOp48
 70
     1
102
RTVSPost2010Prop49
280
     0
102
RTVSPost2010PropOp49
 70
     1
102
RTVSPost2010Prop50
 90
       50
102
RTVSPost2010PropOp50
 70
     1
102
RTVSPost2010Prop51ColorIndex
 90
      256
102
RTVSPost2010Prop51ColorRGB
 90
-16777216
102
RTVSPost2010PropOp51
 70
     0
102
RTVSPost2010Prop52
140
1.0
102
RTVSPost2010PropOp52
 70
     0
102
RTVSPost2010Prop53
 90
        2
102
RTVSPost2010PropOp53
 70
     1
102
RTVSPost2010Prop54
  1
strokes_ogs.tif
102
RTVSPost2010PropOp54
 70
     1
102
RTVSPost2010Prop55
280
     0
102
RTVSPost2010PropOp55
 70
     1
102
RTVSPost2010Prop56
140
1.0
102
RTVSPost2010PropOp56
 70
     1
102
RTVSPost2010Prop57
140
1.0
102
RTVSPost2010PropOp57
 70
     1
102
RTVSPropertyOp0
 70
     1
102
RTVSPropertyOp1
 70
     1
102
RTVSPropertyOp2
 70
     1
102
RTVSPropertyOp3
 70
     1
102
RTVSPropertyOp4
 70
     1
102
RTVSPropertyOp5
 70
     1
102
RTVSPropertyOp6
 70
     1
102
RTVSPropertyOp7
 70
     1
102
RTVSPropertyOp8
 70
     1
102
RTVSPropertyOp9
 70
     1
102
RTVSPropertyOp10
 70
     1
102
RTVSPropertyOp11
 70
     1
102
RTVSPropertyOp12
 70
     1
102
RTVSPropertyOp13
 70
     1
102
RTVSPropertyOp14
 70
     1
102
RTVSPropertyOp15
 70
     1
102
RTVSPropertyOp16
 70
     1
102
RTVSPropertyOp17
 70
     1
102
RTVSPropertyOp18
 70
     1
102
RTVSPropertyOp19
 70
     1
102
RTVSPropertyOp20
 70
     1
102
RTVSPropertyOp21
 70
     1
102
RTVSPropertyOp22
 70
     1
102
RTVSPropertyOp23
 70
     1
102
RTVSPropertyOp24
 70
     1
102
RTVSPropertyOp25
 70
     1
102
RTVSPropertyOp26
 70
     1
102
RTVSPropertyOp27
 70
     1
102
RTVSPropertyOp28
 70
     1
102
RTVSPropertyOp29
 70
     1
102
RTVSPropertyOp30
 70
     1
102
RTVSPropertyOp31
 70
     1
102
RTVSPropertyOp32
 70
     1
102
RTVSPropertyOp33
 70
     1
102
RTVSPropertyOp34
 70
     1
102
RTVSPropertyOp35
 70
     1
102
RTVSPropertyOp36
 70
     1
102
RTVSPropertyOp37
 70
     1
102
RTVSPropertyOp38
 70
     1
102
RTVSPropertyOp39
 70
     1
102
RTVSPropertyOp40
 70
     1
102
RTVSPropertyOp41
 70
     1
102
RTVSPropertyOp42
 70
     1
102
RTVSPropertyOp43
 70
     1
102
RTVSPropertyOp44
 70
     1
102
RTVSPropertyOp45
 70
     1
102
RTVSPropertyOp46
 70
     1
102
RTVSPropertyOp47
 70
     1
102
RTVSPropertyOp48
 70
     1
102
RTVSPropertyOp49
 70
     1
102
RTVSPropertyOp50
 70
     1
102
RTVSPropertyOp51
 70
     0
102
RTVSPropertyOp52
 70
     0
102
RTVSPropertyOp53
 70
     1
102
RTVSPropertyOp54
 70
     1
102
RTVSPropertyOp55
 70
     1
102
RTVSPropertyOp56
 70
     1
102
RTVSPropertyOp57
 70
     1
102
RTVSPropertyOp58
 70
     1
102
RTVSPropertyOp59
 70
     1
102
RTVSPropertyOp60
 70
     1
102
RTVSPropertyOp61
 70
     1
102
RTVSPropertyOp62
 70
     1
  0
XRECORD
  5
9AA3
102
{ACAD_REACTORS
330
9AA2
102
}
330
9AA2
100
AcDbXrecord
280
     1
102
RTVSPost2010Prop28
280
     0
102
RTVSPost2010PropOp28
 70
     1
102
RTVSPost2010Prop29
280
     1
102
RTVSPost2010PropOp29
 70
     1
102
RTVSPost2010Prop30
280
     1
102
RTVSPost2010PropOp30
 70
     1
102
RTVSPost2010Prop31
280
     0
102
RTVSPost2010PropOp31
 70
     1
102
RTVSPost2010Prop32
280
     0
102
RTVSPost2010PropOp32
 70
     1
102
RTVSPost2010Prop33
280
     0
102
RTVSPost2010PropOp33
 70
     1
102
RTVSPost2010Prop34
280
     0
102
RTVSPost2010PropOp34
 70
     1
102
RTVSPost2010Prop35
280
     0
102
RTVSPost2010PropOp35
 70
     1
102
RTVSPost2010Prop36
280
     0
102
RTVSPost2010PropOp36
 70
     1
102
RTVSPost2010Prop37
 90
       50
102
RTVSPost2010PropOp37
 70
     0
102
RTVSPost2010Prop38
140
0.0
102
RTVSPost2010PropOp38
 70
     0
102
RTVSPost2010Prop39
140
1.0
102
RTVSPost2010PropOp39
 70
     0
102
RTVSPost2010Prop40
 90
        0
102
RTVSPost2010PropOp40
 70
     0
102
RTVSPost2010Prop41ColorIndex
 90
       18
102
RTVSPost2010Prop41ColorRGB
 90
        0
102
RTVSPost2010PropOp41
 70
     0
102
RTVSPost2010Prop42
 90
       50
102
RTVSPost2010PropOp42
 70
     0
102
RTVSPost2010Prop43
 90
        3
102
RTVSPost2010PropOp43
 70
     0
102
RTVSPost2010Prop44ColorIndex
 90
        5
102
RTVSPost2010Prop44ColorRGB
 90
      255
102
RTVSPost2010PropOp44
 70
     0
102
RTVSPost2010Prop45
280
     0
102
RTVSPost2010PropOp45
 70
     1
102
RTVSPost2010Prop46
 90
       50
102
RTVSPost2010PropOp46
 70
     0
102
RTVSPost2010Prop47
 90
       50
102
RTVSPost2010PropOp47
 70
     0
102
RTVSPost2010Prop48
 90
       50
102
RTVSPost2010PropOp48
 70
     0
102
RTVSPost2010Prop49
280
     0
102
RTVSPost2010PropOp49
 70
     1
102
RTVSPost2010Prop50
 90
       50
102
RTVSPost2010PropOp50
 70
     0
102
RTVSPost2010Prop51ColorIndex
 90
      256
102
RTVSPost2010Prop51ColorRGB
 90
-16777216
102
RTVSPost2010PropOp51
 70
     0
102
RTVSPost2010Prop52
140
1.0
102
RTVSPost2010PropOp52
 70
     0
102
RTVSPost2010Prop53
 90
        2
102
RTVSPost2010PropOp53
 70
     0
102
RTVSPost2010Prop54
  1
strokes_ogs.tif
102
RTVSPost2010PropOp54
 70
     0
102
RTVSPost2010Prop55
280
     0
102
RTVSPost2010PropOp55
 70
     1
102
RTVSPost2010Prop56
140
1.0
102
RTVSPost2010PropOp56
 70
     0
102
RTVSPost2010Prop57
140
1.0
102
RTVSPost2010PropOp57
 70
     0
102
RTVSPropertyOp0
 70
     0
102
RTVSPropertyOp1
 70
     0
102
RTVSPropertyOp2
 70
     0
102
RTVSPropertyOp3
 70
     0
102
RTVSPropertyOp4
 70
     0
102
RTVSPropertyOp5
 70
     0
102
RTVSPropertyOp6
 70
     0
102
RTVSPropertyOp7
 70
     0
102
RTVSPropertyOp8
 70
     0
102
RTVSPropertyOp9
 70
     0
102
RTVSPropertyOp10
 70
     0
102
RTVSPropertyOp11
 70
     0
102
RTVSPropertyOp12
 70
     0
102
RTVSPropertyOp13
 70
     0
102
RTVSPropertyOp14
 70
     2
102
RTVSPropertyOp15
 70
     0
102
RTVSPropertyOp16
 70
     0
102
RTVSPropertyOp17
 70
     0
102
RTVSPropertyOp18
 70
     0
102
RTVSPropertyOp19
 70
     0
102
RTVSPropertyOp20
 70
     0
102
RTVSPropertyOp21
 70
     0
102
RTVSPropertyOp22
 70
     0
102
RTVSPropertyOp23
 70
     0
102
RTVSPropertyOp24
 70
     0
102
RTVSPropertyOp25
 70
     0
102
RTVSPropertyOp26
 70
     0
102
RTVSPropertyOp27
 70
     0
102
RTVSPropertyOp28
 70
     1
102
RTVSPropertyOp29
 70
     1
102
RTVSPropertyOp30
 70
     1
102
RTVSPropertyOp31
 70
     1
102
RTVSPropertyOp32
 70
     1
102
RTVSPropertyOp33
 70
     1
102
RTVSPropertyOp34
 70
     1
102
RTVSPropertyOp35
 70
     1
102
RTVSPropertyOp36
 70
     1
102
RTVSPropertyOp37
 70
     0
102
RTVSPropertyOp38
 70
     0
102
RTVSPropertyOp39
 70
     0
102
RTVSPropertyOp40
 70
     0
102
RTVSPropertyOp41
 70
     0
102
RTVSPropertyOp42
 70
     0
102
RTVSPropertyOp43
 70
     0
102
RTVSPropertyOp44
 70
     0
102
RTVSPropertyOp45
 70
     1
102
RTVSPropertyOp46
 70
     0
102
RTVSPropertyOp47
 70
     0
102
RTVSPropertyOp48
 70
     0
102
RTVSPropertyOp49
 70
     1
102
RTVSPropertyOp50
 70
     0
102
RTVSPropertyOp51
 70
     0
102
RTVSPropertyOp52
 70
     0
102
RTVSPropertyOp53
 70
     0
102
RTVSPropertyOp54
 70
     0
102
RTVSPropertyOp55
 70
     1
102
RTVSPropertyOp56
 70
     0
102
RTVSPropertyOp57
 70
     0
102
RTVSPropertyOp58
 70
     0
102
RTVSPropertyOp59
 70
     0
102
RTVSPropertyOp60
 70
     0
102
RTVSPropertyOp61
 70
     0
102
RTVSPropertyOp62
 70
     0
  0
XRECORD
  5
9A93
102
{ACAD_REACTORS
330
9A92
102
}
330
9A92
100
AcDbXrecord
280
     1
102
RTVSPost2010Prop28
280
     0
102
RTVSPost2010PropOp28
 70
     1
102
RTVSPost2010Prop29
280
     1
102
RTVSPost2010PropOp29
 70
     1
102
RTVSPost2010Prop30
280
     1
102
RTVSPost2010PropOp30
 70
     1
102
RTVSPost2010Prop31
280
     0
102
RTVSPost2010PropOp31
 70
     1
102
RTVSPost2010Prop32
280
     0
102
RTVSPost2010PropOp32
 70
     1
102
RTVSPost2010Prop33
280
     0
102
RTVSPost2010PropOp33
 70
     1
102
RTVSPost2010Prop34
280
     0
102
RTVSPost2010PropOp34
 70
     1
102
RTVSPost2010Prop35
280
     0
102
RTVSPost2010PropOp35
 70
     1
102
RTVSPost2010Prop36
280
     0
102
RTVSPost2010PropOp36
 70
     1
102
RTVSPost2010Prop37
 90
       50
102
RTVSPost2010PropOp37
 70
     1
102
RTVSPost2010Prop38
140
0.0
102
RTVSPost2010PropOp38
 70
     1
102
RTVSPost2010Prop39
140
1.0
102
RTVSPost2010PropOp39
 70
     1
102
RTVSPost2010Prop40
 90
        0
102
RTVSPost2010PropOp40
 70
     1
102
RTVSPost2010Prop41ColorIndex
 90
       18
102
RTVSPost2010Prop41ColorRGB
 90
        0
102
RTVSPost2010PropOp41
 70
     1
102
RTVSPost2010Prop42
 90
       50
102
RTVSPost2010PropOp42
 70
     1
102
RTVSPost2010Prop43
 90
        3
102
RTVSPost2010PropOp43
 70
     1
102
RTVSPost2010Prop44ColorIndex
 90
        5
102
RTVSPost2010Prop44ColorRGB
 90
      255
102
RTVSPost2010PropOp44
 70
     1
102
RTVSPost2010Prop45
280
     0
102
RTVSPost2010PropOp45
 70
     1
102
RTVSPost2010Prop46
 90
       50
102
RTVSPost2010PropOp46
 70
     1
102
RTVSPost2010Prop47
 90
       50
102
RTVSPost2010PropOp47
 70
     1
102
RTVSPost2010Prop48
 90
       50
102
RTVSPost2010PropOp48
 70
     1
102
RTVSPost2010Prop49
280
     0
102
RTVSPost2010PropOp49
 70
     1
102
RTVSPost2010Prop50
 90
       50
102
RTVSPost2010PropOp50
 70
     1
102
RTVSPost2010Prop51ColorIndex
 90
      256
102
RTVSPost2010Prop51ColorRGB
 90
-16777216
102
RTVSPost2010PropOp51
 70
     0
102
RTVSPost2010Prop52
140
1.0
102
RTVSPost2010PropOp52
 70
     0
102
RTVSPost2010Prop53
 90
        2
102
RTVSPost2010PropOp53
 70
     1
102
RTVSPost2010Prop54
  1
strokes_ogs.tif
102
RTVSPost2010PropOp54
 70
     1
102
RTVSPost2010Prop55
280
     0
102
RTVSPost2010PropOp55
 70
     1
102
RTVSPost2010Prop56
140
1.0
102
RTVSPost2010PropOp56
 70
     1
102
RTVSPost2010Prop57
140
1.0
102
RTVSPost2010PropOp57
 70
     1
102
RTVSPropertyOp0
 70
     1
102
RTVSPropertyOp1
 70
     1
102
RTVSPropertyOp2
 70
     1
102
RTVSPropertyOp3
 70
     1
102
RTVSPropertyOp4
 70
     1
102
RTVSPropertyOp5
 70
     1
102
RTVSPropertyOp6
 70
     1
102
RTVSPropertyOp7
 70
     1
102
RTVSPropertyOp8
 70
     1
102
RTVSPropertyOp9
 70
     1
102
RTVSPropertyOp10
 70
     1
102
RTVSPropertyOp11
 70
     1
102
RTVSPropertyOp12
 70
     1
102
RTVSPropertyOp13
 70
     1
102
RTVSPropertyOp14
 70
     1
102
RTVSPropertyOp15
 70
     1
102
RTVSPropertyOp16
 70
     1
102
RTVSPropertyOp17
 70
     1
102
RTVSPropertyOp18
 70
     1
102
RTVSPropertyOp19
 70
     1
102
RTVSPropertyOp20
 70
     1
102
RTVSPropertyOp21
 70
     1
102
RTVSPropertyOp22
 70
     1
102
RTVSPropertyOp23
 70
     1
102
RTVSPropertyOp24
 70
     1
102
RTVSPropertyOp25
 70
     1
102
RTVSPropertyOp26
 70
     1
102
RTVSPropertyOp27
 70
     1
102
RTVSPropertyOp28
 70
     1
102
RTVSPropertyOp29
 70
     1
102
RTVSPropertyOp30
 70
     1
102
RTVSPropertyOp31
 70
     1
102
RTVSPropertyOp32
 70
     1
102
RTVSPropertyOp33
 70
     1
102
RTVSPropertyOp34
 70
     1
102
RTVSPropertyOp35
 70
     1
102
RTVSPropertyOp36
 70
     1
102
RTVSPropertyOp37
 70
     1
102
RTVSPropertyOp38
 70
     1
102
RTVSPropertyOp39
 70
     1
102
RTVSPropertyOp40
 70
     1
102
RTVSPropertyOp41
 70
     1
102
RTVSPropertyOp42
 70
     1
102
RTVSPropertyOp43
 70
     1
102
RTVSPropertyOp44
 70
     1
102
RTVSPropertyOp45
 70
     1
102
RTVSPropertyOp46
 70
     1
102
RTVSPropertyOp47
 70
     1
102
RTVSPropertyOp48
 70
     1
102
RTVSPropertyOp49
 70
     1
102
RTVSPropertyOp50
 70
     1
102
RTVSPropertyOp51
 70
     0
102
RTVSPropertyOp52
 70
     0
102
RTVSPropertyOp53
 70
     1
102
RTVSPropertyOp54
 70
     1
102
RTVSPropertyOp55
 70
     1
102
RTVSPropertyOp56
 70
     1
102
RTVSPropertyOp57
 70
     1
102
RTVSPropertyOp58
 70
     1
102
RTVSPropertyOp59
 70
     1
102
RTVSPropertyOp60
 70
     1
102
RTVSPropertyOp61
 70
     1
102
RTVSPropertyOp62
 70
     1
  0
XRECORD
  5
9AA5
102
{ACAD_REACTORS
330
9AA4
102
}
330
9AA4
100
AcDbXrecord
280
     1
102
RTVSPost2010Prop28
280
     0
102
RTVSPost2010PropOp28
 70
     1
102
RTVSPost2010Prop29
280
     1
102
RTVSPost2010PropOp29
 70
     1
102
RTVSPost2010Prop30
280
     1
102
RTVSPost2010PropOp30
 70
     1
102
RTVSPost2010Prop31
280
     0
102
RTVSPost2010PropOp31
 70
     1
102
RTVSPost2010Prop32
280
     0
102
RTVSPost2010PropOp32
 70
     1
102
RTVSPost2010Prop33
280
     0
102
RTVSPost2010PropOp33
 70
     1
102
RTVSPost2010Prop34
280
     0
102
RTVSPost2010PropOp34
 70
     1
102
RTVSPost2010Prop35
280
     0
102
RTVSPost2010PropOp35
 70
     1
102
RTVSPost2010Prop36
280
     0
102
RTVSPost2010PropOp36
 70
     1
102
RTVSPost2010Prop37
 90
       50
102
RTVSPost2010PropOp37
 70
     0
102
RTVSPost2010Prop38
140
0.0
102
RTVSPost2010PropOp38
 70
     0
102
RTVSPost2010Prop39
140
1.0
102
RTVSPost2010PropOp39
 70
     0
102
RTVSPost2010Prop40
 90
        0
102
RTVSPost2010PropOp40
 70
     0
102
RTVSPost2010Prop41ColorIndex
 90
       18
102
RTVSPost2010Prop41ColorRGB
 90
        0
102
RTVSPost2010PropOp41
 70
     0
102
RTVSPost2010Prop42
 90
       50
102
RTVSPost2010PropOp42
 70
     0
102
RTVSPost2010Prop43
 90
        3
102
RTVSPost2010PropOp43
 70
     0
102
RTVSPost2010Prop44ColorIndex
 90
        5
102
RTVSPost2010Prop44ColorRGB
 90
      255
102
RTVSPost2010PropOp44
 70
     0
102
RTVSPost2010Prop45
280
     0
102
RTVSPost2010PropOp45
 70
     1
102
RTVSPost2010Prop46
 90
       50
102
RTVSPost2010PropOp46
 70
     0
102
RTVSPost2010Prop47
 90
       50
102
RTVSPost2010PropOp47
 70
     0
102
RTVSPost2010Prop48
 90
       50
102
RTVSPost2010PropOp48
 70
     0
102
RTVSPost2010Prop49
280
     0
102
RTVSPost2010PropOp49
 70
     1
102
RTVSPost2010Prop50
 90
       50
102
RTVSPost2010PropOp50
 70
     0
102
RTVSPost2010Prop51ColorIndex
 90
      256
102
RTVSPost2010Prop51ColorRGB
 90
-16777216
102
RTVSPost2010PropOp51
 70
     0
102
RTVSPost2010Prop52
140
1.0
102
RTVSPost2010PropOp52
 70
     0
102
RTVSPost2010Prop53
 90
        2
102
RTVSPost2010PropOp53
 70
     0
102
RTVSPost2010Prop54
  1
strokes_ogs.tif
102
RTVSPost2010PropOp54
 70
     0
102
RTVSPost2010Prop55
280
     0
102
RTVSPost2010PropOp55
 70
     1
102
RTVSPost2010Prop56
140
1.0
102
RTVSPost2010PropOp56
 70
     0
102
RTVSPost2010Prop57
140
1.0
102
RTVSPost2010PropOp57
 70
     0
102
RTVSPropertyOp0
 70
     0
102
RTVSPropertyOp1
 70
     0
102
RTVSPropertyOp2
 70
     0
102
RTVSPropertyOp3
 70
     0
102
RTVSPropertyOp4
 70
     0
102
RTVSPropertyOp5
 70
     0
102
RTVSPropertyOp6
 70
     0
102
RTVSPropertyOp7
 70
     0
102
RTVSPropertyOp8
 70
     0
102
RTVSPropertyOp9
 70
     0
102
RTVSPropertyOp10
 70
     0
102
RTVSPropertyOp11
 70
     0
102
RTVSPropertyOp12
 70
     0
102
RTVSPropertyOp13
 70
     0
102
RTVSPropertyOp14
 70
     2
102
RTVSPropertyOp15
 70
     0
102
RTVSPropertyOp16
 70
     0
102
RTVSPropertyOp17
 70
     0
102
RTVSPropertyOp18
 70
     0
102
RTVSPropertyOp19
 70
     0
102
RTVSPropertyOp20
 70
     0
102
RTVSPropertyOp21
 70
     0
102
RTVSPropertyOp22
 70
     0
102
RTVSPropertyOp23
 70
     0
102
RTVSPropertyOp24
 70
     0
102
RTVSPropertyOp25
 70
     0
102
RTVSPropertyOp26
 70
     0
102
RTVSPropertyOp27
 70
     0
102
RTVSPropertyOp28
 70
     1
102
RTVSPropertyOp29
 70
     1
102
RTVSPropertyOp30
 70
     1
102
RTVSPropertyOp31
 70
     1
102
RTVSPropertyOp32
 70
     1
102
RTVSPropertyOp33
 70
     1
102
RTVSPropertyOp34
 70
     1
102
RTVSPropertyOp35
 70
     1
102
RTVSPropertyOp36
 70
     1
102
RTVSPropertyOp37
 70
     0
102
RTVSPropertyOp38
 70
     0
102
RTVSPropertyOp39
 70
     0
102
RTVSPropertyOp40
 70
     0
102
RTVSPropertyOp41
 70
     0
102
RTVSPropertyOp42
 70
     0
102
RTVSPropertyOp43
 70
     0
102
RTVSPropertyOp44
 70
     0
102
RTVSPropertyOp45
 70
     1
102
RTVSPropertyOp46
 70
     0
102
RTVSPropertyOp47
 70
     0
102
RTVSPropertyOp48
 70
     0
102
RTVSPropertyOp49
 70
     1
102
RTVSPropertyOp50
 70
     0
102
RTVSPropertyOp51
 70
     0
102
RTVSPropertyOp52
 70
     0
102
RTVSPropertyOp53
 70
     0
102
RTVSPropertyOp54
 70
     0
102
RTVSPropertyOp55
 70
     1
102
RTVSPropertyOp56
 70
     0
102
RTVSPropertyOp57
 70
     0
102
RTVSPropertyOp58
 70
     0
102
RTVSPropertyOp59
 70
     0
102
RTVSPropertyOp60
 70
     0
102
RTVSPropertyOp61
 70
     0
102
RTVSPropertyOp62
 70
     0
  0
XRECORD
  5
9A8B
102
{ACAD_REACTORS
330
9A8A
102
}
330
9A8A
100
AcDbXrecord
280
     1
102
RTVSPost2010Prop28
280
     0
102
RTVSPost2010PropOp28
 70
     1
102
RTVSPost2010Prop29
280
     1
102
RTVSPost2010PropOp29
 70
     1
102
RTVSPost2010Prop30
280
     1
102
RTVSPost2010PropOp30
 70
     1
102
RTVSPost2010Prop31
280
     0
102
RTVSPost2010PropOp31
 70
     1
102
RTVSPost2010Prop32
280
     0
102
RTVSPost2010PropOp32
 70
     1
102
RTVSPost2010Prop33
280
     0
102
RTVSPost2010PropOp33
 70
     1
102
RTVSPost2010Prop34
280
     0
102
RTVSPost2010PropOp34
 70
     1
102
RTVSPost2010Prop35
280
     0
102
RTVSPost2010PropOp35
 70
     1
102
RTVSPost2010Prop36
280
     0
102
RTVSPost2010PropOp36
 70
     1
102
RTVSPost2010Prop37
 90
       50
102
RTVSPost2010PropOp37
 70
     1
102
RTVSPost2010Prop38
140
0.0
102
RTVSPost2010PropOp38
 70
     1
102
RTVSPost2010Prop39
140
1.0
102
RTVSPost2010PropOp39
 70
     1
102
RTVSPost2010Prop40
 90
        0
102
RTVSPost2010PropOp40
 70
     1
102
RTVSPost2010Prop41ColorIndex
 90
       18
102
RTVSPost2010Prop41ColorRGB
 90
        0
102
RTVSPost2010PropOp41
 70
     1
102
RTVSPost2010Prop42
 90
       50
102
RTVSPost2010PropOp42
 70
     1
102
RTVSPost2010Prop43
 90
        3
102
RTVSPost2010PropOp43
 70
     1
102
RTVSPost2010Prop44ColorIndex
 90
        5
102
RTVSPost2010Prop44ColorRGB
 90
      255
102
RTVSPost2010PropOp44
 70
     1
102
RTVSPost2010Prop45
280
     0
102
RTVSPost2010PropOp45
 70
     1
102
RTVSPost2010Prop46
 90
       50
102
RTVSPost2010PropOp46
 70
     1
102
RTVSPost2010Prop47
 90
       50
102
RTVSPost2010PropOp47
 70
     1
102
RTVSPost2010Prop48
 90
       50
102
RTVSPost2010PropOp48
 70
     1
102
RTVSPost2010Prop49
280
     0
102
RTVSPost2010PropOp49
 70
     1
102
RTVSPost2010Prop50
 90
       50
102
RTVSPost2010PropOp50
 70
     1
102
RTVSPost2010Prop51ColorIndex
 90
      256
102
RTVSPost2010Prop51ColorRGB
 90
-16777216
102
RTVSPost2010PropOp51
 70
     0
102
RTVSPost2010Prop52
140
1.0
102
RTVSPost2010PropOp52
 70
     0
102
RTVSPost2010Prop53
 90
        2
102
RTVSPost2010PropOp53
 70
     1
102
RTVSPost2010Prop54
  1
strokes_ogs.tif
102
RTVSPost2010PropOp54
 70
     1
102
RTVSPost2010Prop55
280
     0
102
RTVSPost2010PropOp55
 70
     1
102
RTVSPost2010Prop56
140
1.0
102
RTVSPost2010PropOp56
 70
     1
102
RTVSPost2010Prop57
140
1.0
102
RTVSPost2010PropOp57
 70
     1
102
RTVSPropertyOp0
 70
     1
102
RTVSPropertyOp1
 70
     1
102
RTVSPropertyOp2
 70
     1
102
RTVSPropertyOp3
 70
     1
102
RTVSPropertyOp4
 70
     1
102
RTVSPropertyOp5
 70
     1
102
RTVSPropertyOp6
 70
     1
102
RTVSPropertyOp7
 70
     1
102
RTVSPropertyOp8
 70
     1
102
RTVSPropertyOp9
 70
     1
102
RTVSPropertyOp10
 70
     1
102
RTVSPropertyOp11
 70
     1
102
RTVSPropertyOp12
 70
     1
102
RTVSPropertyOp13
 70
     1
102
RTVSPropertyOp14
 70
     1
102
RTVSPropertyOp15
 70
     1
102
RTVSPropertyOp16
 70
     1
102
RTVSPropertyOp17
 70
     1
102
RTVSPropertyOp18
 70
     1
102
RTVSPropertyOp19
 70
     1
102
RTVSPropertyOp20
 70
     1
102
RTVSPropertyOp21
 70
     1
102
RTVSPropertyOp22
 70
     1
102
RTVSPropertyOp23
 70
     1
102
RTVSPropertyOp24
 70
     1
102
RTVSPropertyOp25
 70
     1
102
RTVSPropertyOp26
 70
     1
102
RTVSPropertyOp27
 70
     1
102
RTVSPropertyOp28
 70
     1
102
RTVSPropertyOp29
 70
     1
102
RTVSPropertyOp30
 70
     1
102
RTVSPropertyOp31
 70
     1
102
RTVSPropertyOp32
 70
     1
102
RTVSPropertyOp33
 70
     1
102
RTVSPropertyOp34
 70
     1
102
RTVSPropertyOp35
 70
     1
102
RTVSPropertyOp36
 70
     1
102
RTVSPropertyOp37
 70
     1
102
RTVSPropertyOp38
 70
     1
102
RTVSPropertyOp39
 70
     1
102
RTVSPropertyOp40
 70
     1
102
RTVSPropertyOp41
 70
     1
102
RTVSPropertyOp42
 70
     1
102
RTVSPropertyOp43
 70
     1
102
RTVSPropertyOp44
 70
     1
102
RTVSPropertyOp45
 70
     1
102
RTVSPropertyOp46
 70
     1
102
RTVSPropertyOp47
 70
     1
102
RTVSPropertyOp48
 70
     1
102
RTVSPropertyOp49
 70
     1
102
RTVSPropertyOp50
 70
     1
102
RTVSPropertyOp51
 70
     0
102
RTVSPropertyOp52
 70
     0
102
RTVSPropertyOp53
 70
     1
102
RTVSPropertyOp54
 70
     1
102
RTVSPropertyOp55
 70
     1
102
RTVSPropertyOp56
 70
     1
102
RTVSPropertyOp57
 70
     1
102
RTVSPropertyOp58
 70
     1
102
RTVSPropertyOp59
 70
     1
102
RTVSPropertyOp60
 70
     1
102
RTVSPropertyOp61
 70
     1
102
RTVSPropertyOp62
 70
     1
  0
XRECORD
  5
9AA1
102
{ACAD_REACTORS
330
9AA0
102
}
330
9AA0
100
AcDbXrecord
280
     1
102
RTVSPost2010Prop28
280
     0
102
RTVSPost2010PropOp28
 70
     1
102
RTVSPost2010Prop29
280
     1
102
RTVSPost2010PropOp29
 70
     1
102
RTVSPost2010Prop30
280
     1
102
RTVSPost2010PropOp30
 70
     1
102
RTVSPost2010Prop31
280
     0
102
RTVSPost2010PropOp31
 70
     1
102
RTVSPost2010Prop32
280
     0
102
RTVSPost2010PropOp32
 70
     1
102
RTVSPost2010Prop33
280
     0
102
RTVSPost2010PropOp33
 70
     1
102
RTVSPost2010Prop34
280
     0
102
RTVSPost2010PropOp34
 70
     1
102
RTVSPost2010Prop35
280
     0
102
RTVSPost2010PropOp35
 70
     1
102
RTVSPost2010Prop36
280
     0
102
RTVSPost2010PropOp36
 70
     1
102
RTVSPost2010Prop37
 90
       50
102
RTVSPost2010PropOp37
 70
     1
102
RTVSPost2010Prop38
140
0.0
102
RTVSPost2010PropOp38
 70
     1
102
RTVSPost2010Prop39
140
1.0
102
RTVSPost2010PropOp39
 70
     1
102
RTVSPost2010Prop40
 90
        0
102
RTVSPost2010PropOp40
 70
     1
102
RTVSPost2010Prop41ColorIndex
 90
       18
102
RTVSPost2010Prop41ColorRGB
 90
        0
102
RTVSPost2010PropOp41
 70
     1
102
RTVSPost2010Prop42
 90
       50
102
RTVSPost2010PropOp42
 70
     1
102
RTVSPost2010Prop43
 90
        3
102
RTVSPost2010PropOp43
 70
     1
102
RTVSPost2010Prop44ColorIndex
 90
        5
102
RTVSPost2010Prop44ColorRGB
 90
      255
102
RTVSPost2010PropOp44
 70
     1
102
RTVSPost2010Prop45
280
     0
102
RTVSPost2010PropOp45
 70
     1
102
RTVSPost2010Prop46
 90
       50
102
RTVSPost2010PropOp46
 70
     1
102
RTVSPost2010Prop47
 90
       50
102
RTVSPost2010PropOp47
 70
     1
102
RTVSPost2010Prop48
 90
       50
102
RTVSPost2010PropOp48
 70
     1
102
RTVSPost2010Prop49
280
     0
102
RTVSPost2010PropOp49
 70
     1
102
RTVSPost2010Prop50
 90
       50
102
RTVSPost2010PropOp50
 70
     1
102
RTVSPost2010Prop51ColorIndex
 90
      256
102
RTVSPost2010Prop51ColorRGB
 90
-16777216
102
RTVSPost2010PropOp51
 70
     0
102
RTVSPost2010Prop52
140
1.0
102
RTVSPost2010PropOp52
 70
     0
102
RTVSPost2010Prop53
 90
        2
102
RTVSPost2010PropOp53
 70
     1
102
RTVSPost2010Prop54
  1
strokes_ogs.tif
102
RTVSPost2010PropOp54
 70
     1
102
RTVSPost2010Prop55
280
     0
102
RTVSPost2010PropOp55
 70
     1
102
RTVSPost2010Prop56
140
1.0
102
RTVSPost2010PropOp56
 70
     1
102
RTVSPost2010Prop57
140
1.0
102
RTVSPost2010PropOp57
 70
     1
102
RTVSPropertyOp0
 70
     1
102
RTVSPropertyOp1
 70
     1
102
RTVSPropertyOp2
 70
     1
102
RTVSPropertyOp3
 70
     1
102
RTVSPropertyOp4
 70
     1
102
RTVSPropertyOp5
 70
     1
102
RTVSPropertyOp6
 70
     1
102
RTVSPropertyOp7
 70
     1
102
RTVSPropertyOp8
 70
     1
102
RTVSPropertyOp9
 70
     1
102
RTVSPropertyOp10
 70
     1
102
RTVSPropertyOp11
 70
     1
102
RTVSPropertyOp12
 70
     1
102
RTVSPropertyOp13
 70
     1
102
RTVSPropertyOp14
 70
     1
102
RTVSPropertyOp15
 70
     1
102
RTVSPropertyOp16
 70
     1
102
RTVSPropertyOp17
 70
     1
102
RTVSPropertyOp18
 70
     1
102
RTVSPropertyOp19
 70
     1
102
RTVSPropertyOp20
 70
     1
102
RTVSPropertyOp21
 70
     1
102
RTVSPropertyOp22
 70
     1
102
RTVSPropertyOp23
 70
     1
102
RTVSPropertyOp24
 70
     1
102
RTVSPropertyOp25
 70
     1
102
RTVSPropertyOp26
 70
     1
102
RTVSPropertyOp27
 70
     1
102
RTVSPropertyOp28
 70
     1
102
RTVSPropertyOp29
 70
     1
102
RTVSPropertyOp30
 70
     1
102
RTVSPropertyOp31
 70
     1
102
RTVSPropertyOp32
 70
     1
102
RTVSPropertyOp33
 70
     1
102
RTVSPropertyOp34
 70
     1
102
RTVSPropertyOp35
 70
     1
102
RTVSPropertyOp36
 70
     1
102
RTVSPropertyOp37
 70
     1
102
RTVSPropertyOp38
 70
     1
102
RTVSPropertyOp39
 70
     1
102
RTVSPropertyOp40
 70
     1
102
RTVSPropertyOp41
 70
     1
102
RTVSPropertyOp42
 70
     1
102
RTVSPropertyOp43
 70
     1
102
RTVSPropertyOp44
 70
     1
102
RTVSPropertyOp45
 70
     1
102
RTVSPropertyOp46
 70
     1
102
RTVSPropertyOp47
 70
     1
102
RTVSPropertyOp48
 70
     1
102
RTVSPropertyOp49
 70
     1
102
RTVSPropertyOp50
 70
     1
102
RTVSPropertyOp51
 70
     0
102
RTVSPropertyOp52
 70
     0
102
RTVSPropertyOp53
 70
     1
102
RTVSPropertyOp54
 70
     1
102
RTVSPropertyOp55
 70
     1
102
RTVSPropertyOp56
 70
     1
102
RTVSPropertyOp57
 70
     1
102
RTVSPropertyOp58
 70
     1
102
RTVSPropertyOp59
 70
     1
102
RTVSPropertyOp60
 70
     1
102
RTVSPropertyOp61
 70
     1
102
RTVSPropertyOp62
 70
     1
  0
XRECORD
  5
9A9F
102
{ACAD_REACTORS
330
9A9E
102
}
330
9A9E
100
AcDbXrecord
280
     1
102
RTVSPost2010Prop28
280
     0
102
RTVSPost2010PropOp28
 70
     1
102
RTVSPost2010Prop29
280
     1
102
RTVSPost2010PropOp29
 70
     1
102
RTVSPost2010Prop30
280
     1
102
RTVSPost2010PropOp30
 70
     1
102
RTVSPost2010Prop31
280
     0
102
RTVSPost2010PropOp31
 70
     1
102
RTVSPost2010Prop32
280
     0
102
RTVSPost2010PropOp32
 70
     1
102
RTVSPost2010Prop33
280
     0
102
RTVSPost2010PropOp33
 70
     1
102
RTVSPost2010Prop34
280
     0
102
RTVSPost2010PropOp34
 70
     1
102
RTVSPost2010Prop35
280
     0
102
RTVSPost2010PropOp35
 70
     1
102
RTVSPost2010Prop36
280
     0
102
RTVSPost2010PropOp36
 70
     1
102
RTVSPost2010Prop37
 90
       50
102
RTVSPost2010PropOp37
 70
     1
102
RTVSPost2010Prop38
140
0.0
102
RTVSPost2010PropOp38
 70
     1
102
RTVSPost2010Prop39
140
1.0
102
RTVSPost2010PropOp39
 70
     1
102
RTVSPost2010Prop40
 90
        0
102
RTVSPost2010PropOp40
 70
     1
102
RTVSPost2010Prop41ColorIndex
 90
       18
102
RTVSPost2010Prop41ColorRGB
 90
        0
102
RTVSPost2010PropOp41
 70
     1
102
RTVSPost2010Prop42
 90
       50
102
RTVSPost2010PropOp42
 70
     1
102
RTVSPost2010Prop43
 90
        3
102
RTVSPost2010PropOp43
 70
     1
102
RTVSPost2010Prop44ColorIndex
 90
        5
102
RTVSPost2010Prop44ColorRGB
 90
      255
102
RTVSPost2010PropOp44
 70
     1
102
RTVSPost2010Prop45
280
     0
102
RTVSPost2010PropOp45
 70
     1
102
RTVSPost2010Prop46
 90
       50
102
RTVSPost2010PropOp46
 70
     1
102
RTVSPost2010Prop47
 90
       50
102
RTVSPost2010PropOp47
 70
     1
102
RTVSPost2010Prop48
 90
       50
102
RTVSPost2010PropOp48
 70
     1
102
RTVSPost2010Prop49
280
     0
102
RTVSPost2010PropOp49
 70
     1
102
RTVSPost2010Prop50
 90
       50
102
RTVSPost2010PropOp50
 70
     1
102
RTVSPost2010Prop51ColorIndex
 90
      256
102
RTVSPost2010Prop51ColorRGB
 90
-16777216
102
RTVSPost2010PropOp51
 70
     0
102
RTVSPost2010Prop52
140
1.0
102
RTVSPost2010PropOp52
 70
     0
102
RTVSPost2010Prop53
 90
        2
102
RTVSPost2010PropOp53
 70
     1
102
RTVSPost2010Prop54
  1
strokes_ogs.tif
102
RTVSPost2010PropOp54
 70
     1
102
RTVSPost2010Prop55
280
     0
102
RTVSPost2010PropOp55
 70
     1
102
RTVSPost2010Prop56
140
1.0
102
RTVSPost2010PropOp56
 70
     1
102
RTVSPost2010Prop57
140
1.0
102
RTVSPost2010PropOp57
 70
     1
102
RTVSPropertyOp0
 70
     1
102
RTVSPropertyOp1
 70
     1
102
RTVSPropertyOp2
 70
     1
102
RTVSPropertyOp3
 70
     1
102
RTVSPropertyOp4
 70
     1
102
RTVSPropertyOp5
 70
     1
102
RTVSPropertyOp6
 70
     1
102
RTVSPropertyOp7
 70
     1
102
RTVSPropertyOp8
 70
     1
102
RTVSPropertyOp9
 70
     1
102
RTVSPropertyOp10
 70
     1
102
RTVSPropertyOp11
 70
     1
102
RTVSPropertyOp12
 70
     1
102
RTVSPropertyOp13
 70
     1
102
RTVSPropertyOp14
 70
     1
102
RTVSPropertyOp15
 70
     1
102
RTVSPropertyOp16
 70
     1
102
RTVSPropertyOp17
 70
     1
102
RTVSPropertyOp18
 70
     1
102
RTVSPropertyOp19
 70
     1
102
RTVSPropertyOp20
 70
     1
102
RTVSPropertyOp21
 70
     1
102
RTVSPropertyOp22
 70
     1
102
RTVSPropertyOp23
 70
     1
102
RTVSPropertyOp24
 70
     1
102
RTVSPropertyOp25
 70
     1
102
RTVSPropertyOp26
 70
     1
102
RTVSPropertyOp27
 70
     1
102
RTVSPropertyOp28
 70
     1
102
RTVSPropertyOp29
 70
     1
102
RTVSPropertyOp30
 70
     1
102
RTVSPropertyOp31
 70
     1
102
RTVSPropertyOp32
 70
     1
102
RTVSPropertyOp33
 70
     1
102
RTVSPropertyOp34
 70
     1
102
RTVSPropertyOp35
 70
     1
102
RTVSPropertyOp36
 70
     1
102
RTVSPropertyOp37
 70
     1
102
RTVSPropertyOp38
 70
     1
102
RTVSPropertyOp39
 70
     1
102
RTVSPropertyOp40
 70
     1
102
RTVSPropertyOp41
 70
     1
102
RTVSPropertyOp42
 70
     1
102
RTVSPropertyOp43
 70
     1
102
RTVSPropertyOp44
 70
     1
102
RTVSPropertyOp45
 70
     1
102
RTVSPropertyOp46
 70
     1
102
RTVSPropertyOp47
 70
     1
102
RTVSPropertyOp48
 70
     1
102
RTVSPropertyOp49
 70
     1
102
RTVSPropertyOp50
 70
     1
102
RTVSPropertyOp51
 70
     0
102
RTVSPropertyOp52
 70
     0
102
RTVSPropertyOp53
 70
     1
102
RTVSPropertyOp54
 70
     1
102
RTVSPropertyOp55
 70
     1
102
RTVSPropertyOp56
 70
     1
102
RTVSPropertyOp57
 70
     1
102
RTVSPropertyOp58
 70
     1
102
RTVSPropertyOp59
 70
     1
102
RTVSPropertyOp60
 70
     1
102
RTVSPropertyOp61
 70
     1
102
RTVSPropertyOp62
 70
     1
  0
XRECORD
  5
9A99
102
{ACAD_REACTORS
330
9A98
102
}
330
9A98
100
AcDbXrecord
280
     1
102
RTVSPost2010Prop28
280
     0
102
RTVSPost2010PropOp28
 70
     1
102
RTVSPost2010Prop29
280
     1
102
RTVSPost2010PropOp29
 70
     1
102
RTVSPost2010Prop30
280
     1
102
RTVSPost2010PropOp30
 70
     1
102
RTVSPost2010Prop31
280
     0
102
RTVSPost2010PropOp31
 70
     1
102
RTVSPost2010Prop32
280
     0
102
RTVSPost2010PropOp32
 70
     1
102
RTVSPost2010Prop33
280
     0
102
RTVSPost2010PropOp33
 70
     1
102
RTVSPost2010Prop34
280
     0
102
RTVSPost2010PropOp34
 70
     1
102
RTVSPost2010Prop35
280
     0
102
RTVSPost2010PropOp35
 70
     1
102
RTVSPost2010Prop36
280
     0
102
RTVSPost2010PropOp36
 70
     1
102
RTVSPost2010Prop37
 90
       50
102
RTVSPost2010PropOp37
 70
     1
102
RTVSPost2010Prop38
140
0.0
102
RTVSPost2010PropOp38
 70
     1
102
RTVSPost2010Prop39
140
1.0
102
RTVSPost2010PropOp39
 70
     1
102
RTVSPost2010Prop40
 90
        0
102
RTVSPost2010PropOp40
 70
     1
102
RTVSPost2010Prop41ColorIndex
 90
       18
102
RTVSPost2010Prop41ColorRGB
 90
        0
102
RTVSPost2010PropOp41
 70
     1
102
RTVSPost2010Prop42
 90
       50
102
RTVSPost2010PropOp42
 70
     1
102
RTVSPost2010Prop43
 90
        3
102
RTVSPost2010PropOp43
 70
     1
102
RTVSPost2010Prop44ColorIndex
 90
        5
102
RTVSPost2010Prop44ColorRGB
 90
      255
102
RTVSPost2010PropOp44
 70
     1
102
RTVSPost2010Prop45
280
     0
102
RTVSPost2010PropOp45
 70
     1
102
RTVSPost2010Prop46
 90
       50
102
RTVSPost2010PropOp46
 70
     1
102
RTVSPost2010Prop47
 90
       50
102
RTVSPost2010PropOp47
 70
     1
102
RTVSPost2010Prop48
 90
       50
102
RTVSPost2010PropOp48
 70
     1
102
RTVSPost2010Prop49
280
     0
102
RTVSPost2010PropOp49
 70
     1
102
RTVSPost2010Prop50
 90
       50
102
RTVSPost2010PropOp50
 70
     1
102
RTVSPost2010Prop51ColorIndex
 90
      256
102
RTVSPost2010Prop51ColorRGB
 90
-16777216
102
RTVSPost2010PropOp51
 70
     0
102
RTVSPost2010Prop52
140
1.0
102
RTVSPost2010PropOp52
 70
     0
102
RTVSPost2010Prop53
 90
        2
102
RTVSPost2010PropOp53
 70
     1
102
RTVSPost2010Prop54
  1
strokes_ogs.tif
102
RTVSPost2010PropOp54
 70
     1
102
RTVSPost2010Prop55
280
     0
102
RTVSPost2010PropOp55
 70
     1
102
RTVSPost2010Prop56
140
1.0
102
RTVSPost2010PropOp56
 70
     1
102
RTVSPost2010Prop57
140
1.0
102
RTVSPost2010PropOp57
 70
     1
102
RTVSPropertyOp0
 70
     1
102
RTVSPropertyOp1
 70
     1
102
RTVSPropertyOp2
 70
     1
102
RTVSPropertyOp3
 70
     1
102
RTVSPropertyOp4
 70
     1
102
RTVSPropertyOp5
 70
     1
102
RTVSPropertyOp6
 70
     1
102
RTVSPropertyOp7
 70
     1
102
RTVSPropertyOp8
 70
     1
102
RTVSPropertyOp9
 70
     1
102
RTVSPropertyOp10
 70
     1
102
RTVSPropertyOp11
 70
     1
102
RTVSPropertyOp12
 70
     1
102
RTVSPropertyOp13
 70
     1
102
RTVSPropertyOp14
 70
     1
102
RTVSPropertyOp15
 70
     1
102
RTVSPropertyOp16
 70
     1
102
RTVSPropertyOp17
 70
     1
102
RTVSPropertyOp18
 70
     1
102
RTVSPropertyOp19
 70
     1
102
RTVSPropertyOp20
 70
     1
102
RTVSPropertyOp21
 70
     1
102
RTVSPropertyOp22
 70
     1
102
RTVSPropertyOp23
 70
     1
102
RTVSPropertyOp24
 70
     1
102
RTVSPropertyOp25
 70
     1
102
RTVSPropertyOp26
 70
     1
102
RTVSPropertyOp27
 70
     1
102
RTVSPropertyOp28
 70
     1
102
RTVSPropertyOp29
 70
     1
102
RTVSPropertyOp30
 70
     1
102
RTVSPropertyOp31
 70
     1
102
RTVSPropertyOp32
 70
     1
102
RTVSPropertyOp33
 70
     1
102
RTVSPropertyOp34
 70
     1
102
RTVSPropertyOp35
 70
     1
102
RTVSPropertyOp36
 70
     1
102
RTVSPropertyOp37
 70
     1
102
RTVSPropertyOp38
 70
     1
102
RTVSPropertyOp39
 70
     1
102
RTVSPropertyOp40
 70
     1
102
RTVSPropertyOp41
 70
     1
102
RTVSPropertyOp42
 70
     1
102
RTVSPropertyOp43
 70
     1
102
RTVSPropertyOp44
 70
     1
102
RTVSPropertyOp45
 70
     1
102
RTVSPropertyOp46
 70
     1
102
RTVSPropertyOp47
 70
     1
102
RTVSPropertyOp48
 70
     1
102
RTVSPropertyOp49
 70
     1
102
RTVSPropertyOp50
 70
     1
102
RTVSPropertyOp51
 70
     0
102
RTVSPropertyOp52
 70
     0
102
RTVSPropertyOp53
 70
     1
102
RTVSPropertyOp54
 70
     1
102
RTVSPropertyOp55
 70
     1
102
RTVSPropertyOp56
 70
     1
102
RTVSPropertyOp57
 70
     1
102
RTVSPropertyOp58
 70
     1
102
RTVSPropertyOp59
 70
     1
102
RTVSPropertyOp60
 70
     1
102
RTVSPropertyOp61
 70
     1
102
RTVSPropertyOp62
 70
     1
  0
XRECORD
  5
9A9B
102
{ACAD_REACTORS
330
9A9A
102
}
330
9A9A
100
AcDbXrecord
280
     1
102
RTVSPost2010Prop28
280
     0
102
RTVSPost2010PropOp28
 70
     1
102
RTVSPost2010Prop29
280
     1
102
RTVSPost2010PropOp29
 70
     1
102
RTVSPost2010Prop30
280
     1
102
RTVSPost2010PropOp30
 70
     1
102
RTVSPost2010Prop31
280
     0
102
RTVSPost2010PropOp31
 70
     1
102
RTVSPost2010Prop32
280
     0
102
RTVSPost2010PropOp32
 70
     1
102
RTVSPost2010Prop33
280
     0
102
RTVSPost2010PropOp33
 70
     1
102
RTVSPost2010Prop34
280
     0
102
RTVSPost2010PropOp34
 70
     1
102
RTVSPost2010Prop35
280
     0
102
RTVSPost2010PropOp35
 70
     1
102
RTVSPost2010Prop36
280
     0
102
RTVSPost2010PropOp36
 70
     1
102
RTVSPost2010Prop37
 90
       50
102
RTVSPost2010PropOp37
 70
     1
102
RTVSPost2010Prop38
140
0.0
102
RTVSPost2010PropOp38
 70
     1
102
RTVSPost2010Prop39
140
1.0
102
RTVSPost2010PropOp39
 70
     1
102
RTVSPost2010Prop40
 90
        0
102
RTVSPost2010PropOp40
 70
     1
102
RTVSPost2010Prop41ColorIndex
 90
       18
102
RTVSPost2010Prop41ColorRGB
 90
        0
102
RTVSPost2010PropOp41
 70
     1
102
RTVSPost2010Prop42
 90
       50
102
RTVSPost2010PropOp42
 70
     1
102
RTVSPost2010Prop43
 90
        3
102
RTVSPost2010PropOp43
 70
     1
102
RTVSPost2010Prop44ColorIndex
 90
        5
102
RTVSPost2010Prop44ColorRGB
 90
      255
102
RTVSPost2010PropOp44
 70
     1
102
RTVSPost2010Prop45
280
     0
102
RTVSPost2010PropOp45
 70
     1
102
RTVSPost2010Prop46
 90
       50
102
RTVSPost2010PropOp46
 70
     1
102
RTVSPost2010Prop47
 90
       50
102
RTVSPost2010PropOp47
 70
     1
102
RTVSPost2010Prop48
 90
       50
102
RTVSPost2010PropOp48
 70
     1
102
RTVSPost2010Prop49
280
     0
102
RTVSPost2010PropOp49
 70
     1
102
RTVSPost2010Prop50
 90
       50
102
RTVSPost2010PropOp50
 70
     1
102
RTVSPost2010Prop51ColorIndex
 90
      256
102
RTVSPost2010Prop51ColorRGB
 90
-16777216
102
RTVSPost2010PropOp51
 70
     0
102
RTVSPost2010Prop52
140
1.0
102
RTVSPost2010PropOp52
 70
     0
102
RTVSPost2010Prop53
 90
        2
102
RTVSPost2010PropOp53
 70
     1
102
RTVSPost2010Prop54
  1
strokes_ogs.tif
102
RTVSPost2010PropOp54
 70
     1
102
RTVSPost2010Prop55
280
     0
102
RTVSPost2010PropOp55
 70
     1
102
RTVSPost2010Prop56
140
1.0
102
RTVSPost2010PropOp56
 70
     1
102
RTVSPost2010Prop57
140
1.0
102
RTVSPost2010PropOp57
 70
     1
102
RTVSPropertyOp0
 70
     1
102
RTVSPropertyOp1
 70
     1
102
RTVSPropertyOp2
 70
     1
102
RTVSPropertyOp3
 70
     1
102
RTVSPropertyOp4
 70
     1
102
RTVSPropertyOp5
 70
     1
102
RTVSPropertyOp6
 70
     1
102
RTVSPropertyOp7
 70
     1
102
RTVSPropertyOp8
 70
     1
102
RTVSPropertyOp9
 70
     1
102
RTVSPropertyOp10
 70
     1
102
RTVSPropertyOp11
 70
     1
102
RTVSPropertyOp12
 70
     1
102
RTVSPropertyOp13
 70
     1
102
RTVSPropertyOp14
 70
     1
102
RTVSPropertyOp15
 70
     1
102
RTVSPropertyOp16
 70
     1
102
RTVSPropertyOp17
 70
     1
102
RTVSPropertyOp18
 70
     1
102
RTVSPropertyOp19
 70
     1
102
RTVSPropertyOp20
 70
     1
102
RTVSPropertyOp21
 70
     1
102
RTVSPropertyOp22
 70
     1
102
RTVSPropertyOp23
 70
     1
102
RTVSPropertyOp24
 70
     1
102
RTVSPropertyOp25
 70
     1
102
RTVSPropertyOp26
 70
     1
102
RTVSPropertyOp27
 70
     1
102
RTVSPropertyOp28
 70
     1
102
RTVSPropertyOp29
 70
     1
102
RTVSPropertyOp30
 70
     1
102
RTVSPropertyOp31
 70
     1
102
RTVSPropertyOp32
 70
     1
102
RTVSPropertyOp33
 70
     1
102
RTVSPropertyOp34
 70
     1
102
RTVSPropertyOp35
 70
     1
102
RTVSPropertyOp36
 70
     1
102
RTVSPropertyOp37
 70
     1
102
RTVSPropertyOp38
 70
     1
102
RTVSPropertyOp39
 70
     1
102
RTVSPropertyOp40
 70
     1
102
RTVSPropertyOp41
 70
     1
102
RTVSPropertyOp42
 70
     1
102
RTVSPropertyOp43
 70
     1
102
RTVSPropertyOp44
 70
     1
102
RTVSPropertyOp45
 70
     1
102
RTVSPropertyOp46
 70
     1
102
RTVSPropertyOp47
 70
     1
102
RTVSPropertyOp48
 70
     1
102
RTVSPropertyOp49
 70
     1
102
RTVSPropertyOp50
 70
     1
102
RTVSPropertyOp51
 70
     0
102
RTVSPropertyOp52
 70
     0
102
RTVSPropertyOp53
 70
     1
102
RTVSPropertyOp54
 70
     1
102
RTVSPropertyOp55
 70
     1
102
RTVSPropertyOp56
 70
     1
102
RTVSPropertyOp57
 70
     1
102
RTVSPropertyOp58
 70
     1
102
RTVSPropertyOp59
 70
     1
102
RTVSPropertyOp60
 70
     1
102
RTVSPropertyOp61
 70
     1
102
RTVSPropertyOp62
 70
     1
  0
XRECORD
  5
9A91
102
{ACAD_REACTORS
330
9A90
102
}
330
9A90
100
AcDbXrecord
280
     1
102
RTVSPost2010Prop28
280
     0
102
RTVSPost2010PropOp28
 70
     1
102
RTVSPost2010Prop29
280
     1
102
RTVSPost2010PropOp29
 70
     1
102
RTVSPost2010Prop30
280
     1
102
RTVSPost2010PropOp30
 70
     1
102
RTVSPost2010Prop31
280
     0
102
RTVSPost2010PropOp31
 70
     1
102
RTVSPost2010Prop32
280
     0
102
RTVSPost2010PropOp32
 70
     1
102
RTVSPost2010Prop33
280
     0
102
RTVSPost2010PropOp33
 70
     1
102
RTVSPost2010Prop34
280
     0
102
RTVSPost2010PropOp34
 70
     1
102
RTVSPost2010Prop35
280
     0
102
RTVSPost2010PropOp35
 70
     1
102
RTVSPost2010Prop36
280
     0
102
RTVSPost2010PropOp36
 70
     1
102
RTVSPost2010Prop37
 90
       50
102
RTVSPost2010PropOp37
 70
     1
102
RTVSPost2010Prop38
140
0.0
102
RTVSPost2010PropOp38
 70
     1
102
RTVSPost2010Prop39
140
1.0
102
RTVSPost2010PropOp39
 70
     1
102
RTVSPost2010Prop40
 90
        0
102
RTVSPost2010PropOp40
 70
     1
102
RTVSPost2010Prop41ColorIndex
 90
       18
102
RTVSPost2010Prop41ColorRGB
 90
        0
102
RTVSPost2010PropOp41
 70
     1
102
RTVSPost2010Prop42
 90
       50
102
RTVSPost2010PropOp42
 70
     1
102
RTVSPost2010Prop43
 90
        3
102
RTVSPost2010PropOp43
 70
     1
102
RTVSPost2010Prop44ColorIndex
 90
        5
102
RTVSPost2010Prop44ColorRGB
 90
      255
102
RTVSPost2010PropOp44
 70
     1
102
RTVSPost2010Prop45
280
     0
102
RTVSPost2010PropOp45
 70
     1
102
RTVSPost2010Prop46
 90
       50
102
RTVSPost2010PropOp46
 70
     1
102
RTVSPost2010Prop47
 90
       50
102
RTVSPost2010PropOp47
 70
     1
102
RTVSPost2010Prop48
 90
       50
102
RTVSPost2010PropOp48
 70
     1
102
RTVSPost2010Prop49
280
     0
102
RTVSPost2010PropOp49
 70
     1
102
RTVSPost2010Prop50
 90
       50
102
RTVSPost2010PropOp50
 70
     1
102
RTVSPost2010Prop51ColorIndex
 90
      256
102
RTVSPost2010Prop51ColorRGB
 90
-16777216
102
RTVSPost2010PropOp51
 70
     0
102
RTVSPost2010Prop52
140
1.0
102
RTVSPost2010PropOp52
 70
     0
102
RTVSPost2010Prop53
 90
        2
102
RTVSPost2010PropOp53
 70
     1
102
RTVSPost2010Prop54
  1
strokes_ogs.tif
102
RTVSPost2010PropOp54
 70
     1
102
RTVSPost2010Prop55
280
     0
102
RTVSPost2010PropOp55
 70
     1
102
RTVSPost2010Prop56
140
1.0
102
RTVSPost2010PropOp56
 70
     1
102
RTVSPost2010Prop57
140
1.0
102
RTVSPost2010PropOp57
 70
     1
102
RTVSPropertyOp0
 70
     1
102
RTVSPropertyOp1
 70
     1
102
RTVSPropertyOp2
 70
     1
102
RTVSPropertyOp3
 70
     1
102
RTVSPropertyOp4
 70
     1
102
RTVSPropertyOp5
 70
     1
102
RTVSPropertyOp6
 70
     1
102
RTVSPropertyOp7
 70
     1
102
RTVSPropertyOp8
 70
     1
102
RTVSPropertyOp9
 70
     1
102
RTVSPropertyOp10
 70
     1
102
RTVSPropertyOp11
 70
     1
102
RTVSPropertyOp12
 70
     1
102
RTVSPropertyOp13
 70
     1
102
RTVSPropertyOp14
 70
     1
102
RTVSPropertyOp15
 70
     1
102
RTVSPropertyOp16
 70
     1
102
RTVSPropertyOp17
 70
     1
102
RTVSPropertyOp18
 70
     1
102
RTVSPropertyOp19
 70
     1
102
RTVSPropertyOp20
 70
     1
102
RTVSPropertyOp21
 70
     1
102
RTVSPropertyOp22
 70
     1
102
RTVSPropertyOp23
 70
     1
102
RTVSPropertyOp24
 70
     1
102
RTVSPropertyOp25
 70
     1
102
RTVSPropertyOp26
 70
     1
102
RTVSPropertyOp27
 70
     1
102
RTVSPropertyOp28
 70
     1
102
RTVSPropertyOp29
 70
     1
102
RTVSPropertyOp30
 70
     1
102
RTVSPropertyOp31
 70
     1
102
RTVSPropertyOp32
 70
     1
102
RTVSPropertyOp33
 70
     1
102
RTVSPropertyOp34
 70
     1
102
RTVSPropertyOp35
 70
     1
102
RTVSPropertyOp36
 70
     1
102
RTVSPropertyOp37
 70
     1
102
RTVSPropertyOp38
 70
     1
102
RTVSPropertyOp39
 70
     1
102
RTVSPropertyOp40
 70
     1
102
RTVSPropertyOp41
 70
     1
102
RTVSPropertyOp42
 70
     1
102
RTVSPropertyOp43
 70
     1
102
RTVSPropertyOp44
 70
     1
102
RTVSPropertyOp45
 70
     1
102
RTVSPropertyOp46
 70
     1
102
RTVSPropertyOp47
 70
     1
102
RTVSPropertyOp48
 70
     1
102
RTVSPropertyOp49
 70
     1
102
RTVSPropertyOp50
 70
     1
102
RTVSPropertyOp51
 70
     0
102
RTVSPropertyOp52
 70
     0
102
RTVSPropertyOp53
 70
     1
102
RTVSPropertyOp54
 70
     1
102
RTVSPropertyOp55
 70
     1
102
RTVSPropertyOp56
 70
     1
102
RTVSPropertyOp57
 70
     1
102
RTVSPropertyOp58
 70
     1
102
RTVSPropertyOp59
 70
     1
102
RTVSPropertyOp60
 70
     1
102
RTVSPropertyOp61
 70
     1
102
RTVSPropertyOp62
 70
     1
  0
XRECORD
  5
9A85
102
{ACAD_REACTORS
330
9A84
102
}
330
9A84
100
AcDbXrecord
280
     1
102
RTVSPost2010Prop28
280
     0
102
RTVSPost2010PropOp28
 70
     1
102
RTVSPost2010Prop29
280
     1
102
RTVSPost2010PropOp29
 70
     1
102
RTVSPost2010Prop30
280
     1
102
RTVSPost2010PropOp30
 70
     1
102
RTVSPost2010Prop31
280
     0
102
RTVSPost2010PropOp31
 70
     1
102
RTVSPost2010Prop32
280
     0
102
RTVSPost2010PropOp32
 70
     1
102
RTVSPost2010Prop33
280
     0
102
RTVSPost2010PropOp33
 70
     1
102
RTVSPost2010Prop34
280
     0
102
RTVSPost2010PropOp34
 70
     1
102
RTVSPost2010Prop35
280
     0
102
RTVSPost2010PropOp35
 70
     1
102
RTVSPost2010Prop36
280
     0
102
RTVSPost2010PropOp36
 70
     1
102
RTVSPost2010Prop37
 90
       50
102
RTVSPost2010PropOp37
 70
     1
102
RTVSPost2010Prop38
140
0.0
102
RTVSPost2010PropOp38
 70
     1
102
RTVSPost2010Prop39
140
1.0
102
RTVSPost2010PropOp39
 70
     1
102
RTVSPost2010Prop40
 90
        0
102
RTVSPost2010PropOp40
 70
     1
102
RTVSPost2010Prop41ColorIndex
 90
       18
102
RTVSPost2010Prop41ColorRGB
 90
        0
102
RTVSPost2010PropOp41
 70
     1
102
RTVSPost2010Prop42
 90
       50
102
RTVSPost2010PropOp42
 70
     1
102
RTVSPost2010Prop43
 90
        3
102
RTVSPost2010PropOp43
 70
     1
102
RTVSPost2010Prop44ColorIndex
 90
        5
102
RTVSPost2010Prop44ColorRGB
 90
      255
102
RTVSPost2010PropOp44
 70
     1
102
RTVSPost2010Prop45
280
     0
102
RTVSPost2010PropOp45
 70
     1
102
RTVSPost2010Prop46
 90
       50
102
RTVSPost2010PropOp46
 70
     1
102
RTVSPost2010Prop47
 90
       50
102
RTVSPost2010PropOp47
 70
     1
102
RTVSPost2010Prop48
 90
       50
102
RTVSPost2010PropOp48
 70
     1
102
RTVSPost2010Prop49
280
     0
102
RTVSPost2010PropOp49
 70
     1
102
RTVSPost2010Prop50
 90
       50
102
RTVSPost2010PropOp50
 70
     1
102
RTVSPost2010Prop51ColorIndex
 90
      256
102
RTVSPost2010Prop51ColorRGB
 90
-16777216
102
RTVSPost2010PropOp51
 70
     0
102
RTVSPost2010Prop52
140
1.0
102
RTVSPost2010PropOp52
 70
     0
102
RTVSPost2010Prop53
 90
        2
102
RTVSPost2010PropOp53
 70
     1
102
RTVSPost2010Prop54
  1
strokes_ogs.tif
102
RTVSPost2010PropOp54
 70
     1
102
RTVSPost2010Prop55
280
     0
102
RTVSPost2010PropOp55
 70
     1
102
RTVSPost2010Prop56
140
1.0
102
RTVSPost2010PropOp56
 70
     1
102
RTVSPost2010Prop57
140
1.0
102
RTVSPost2010PropOp57
 70
     1
102
RTVSPropertyOp0
 70
     1
102
RTVSPropertyOp1
 70
     1
102
RTVSPropertyOp2
 70
     1
102
RTVSPropertyOp3
 70
     1
102
RTVSPropertyOp4
 70
     1
102
RTVSPropertyOp5
 70
     1
102
RTVSPropertyOp6
 70
     1
102
RTVSPropertyOp7
 70
     1
102
RTVSPropertyOp8
 70
     1
102
RTVSPropertyOp9
 70
     1
102
RTVSPropertyOp10
 70
     1
102
RTVSPropertyOp11
 70
     1
102
RTVSPropertyOp12
 70
     1
102
RTVSPropertyOp13
 70
     1
102
RTVSPropertyOp14
 70
     1
102
RTVSPropertyOp15
 70
     1
102
RTVSPropertyOp16
 70
     1
102
RTVSPropertyOp17
 70
     1
102
RTVSPropertyOp18
 70
     1
102
RTVSPropertyOp19
 70
     1
102
RTVSPropertyOp20
 70
     1
102
RTVSPropertyOp21
 70
     1
102
RTVSPropertyOp22
 70
     1
102
RTVSPropertyOp23
 70
     1
102
RTVSPropertyOp24
 70
     1
102
RTVSPropertyOp25
 70
     1
102
RTVSPropertyOp26
 70
     1
102
RTVSPropertyOp27
 70
     1
102
RTVSPropertyOp28
 70
     1
102
RTVSPropertyOp29
 70
     1
102
RTVSPropertyOp30
 70
     1
102
RTVSPropertyOp31
 70
     1
102
RTVSPropertyOp32
 70
     1
102
RTVSPropertyOp33
 70
     1
102
RTVSPropertyOp34
 70
     1
102
RTVSPropertyOp35
 70
     1
102
RTVSPropertyOp36
 70
     1
102
RTVSPropertyOp37
 70
     1
102
RTVSPropertyOp38
 70
     1
102
RTVSPropertyOp39
 70
     1
102
RTVSPropertyOp40
 70
     1
102
RTVSPropertyOp41
 70
     1
102
RTVSPropertyOp42
 70
     1
102
RTVSPropertyOp43
 70
     1
102
RTVSPropertyOp44
 70
     1
102
RTVSPropertyOp45
 70
     1
102
RTVSPropertyOp46
 70
     1
102
RTVSPropertyOp47
 70
     1
102
RTVSPropertyOp48
 70
     1
102
RTVSPropertyOp49
 70
     1
102
RTVSPropertyOp50
 70
     1
102
RTVSPropertyOp51
 70
     0
102
RTVSPropertyOp52
 70
     0
102
RTVSPropertyOp53
 70
     1
102
RTVSPropertyOp54
 70
     1
102
RTVSPropertyOp55
 70
     1
102
RTVSPropertyOp56
 70
     1
102
RTVSPropertyOp57
 70
     1
102
RTVSPropertyOp58
 70
     1
102
RTVSPropertyOp59
 70
     1
102
RTVSPropertyOp60
 70
     1
102
RTVSPropertyOp61
 70
     1
102
RTVSPropertyOp62
 70
     1
  0
XRECORD
  5
9A9D
102
{ACAD_REACTORS
330
9A9C
102
}
330
9A9C
100
AcDbXrecord
280
     1
102
RTVSPost2010Prop28
280
     0
102
RTVSPost2010PropOp28
 70
     1
102
RTVSPost2010Prop29
280
     1
102
RTVSPost2010PropOp29
 70
     1
102
RTVSPost2010Prop30
280
     1
102
RTVSPost2010PropOp30
 70
     1
102
RTVSPost2010Prop31
280
     0
102
RTVSPost2010PropOp31
 70
     1
102
RTVSPost2010Prop32
280
     0
102
RTVSPost2010PropOp32
 70
     1
102
RTVSPost2010Prop33
280
     0
102
RTVSPost2010PropOp33
 70
     1
102
RTVSPost2010Prop34
280
     0
102
RTVSPost2010PropOp34
 70
     1
102
RTVSPost2010Prop35
280
     0
102
RTVSPost2010PropOp35
 70
     1
102
RTVSPost2010Prop36
280
     0
102
RTVSPost2010PropOp36
 70
     1
102
RTVSPost2010Prop37
 90
       50
102
RTVSPost2010PropOp37
 70
     1
102
RTVSPost2010Prop38
140
0.0
102
RTVSPost2010PropOp38
 70
     1
102
RTVSPost2010Prop39
140
1.0
102
RTVSPost2010PropOp39
 70
     1
102
RTVSPost2010Prop40
 90
        0
102
RTVSPost2010PropOp40
 70
     1
102
RTVSPost2010Prop41ColorIndex
 90
       18
102
RTVSPost2010Prop41ColorRGB
 90
        0
102
RTVSPost2010PropOp41
 70
     1
102
RTVSPost2010Prop42
 90
       50
102
RTVSPost2010PropOp42
 70
     1
102
RTVSPost2010Prop43
 90
        3
102
RTVSPost2010PropOp43
 70
     1
102
RTVSPost2010Prop44ColorIndex
 90
        5
102
RTVSPost2010Prop44ColorRGB
 90
      255
102
RTVSPost2010PropOp44
 70
     1
102
RTVSPost2010Prop45
280
     0
102
RTVSPost2010PropOp45
 70
     1
102
RTVSPost2010Prop46
 90
       50
102
RTVSPost2010PropOp46
 70
     1
102
RTVSPost2010Prop47
 90
       50
102
RTVSPost2010PropOp47
 70
     1
102
RTVSPost2010Prop48
 90
       50
102
RTVSPost2010PropOp48
 70
     1
102
RTVSPost2010Prop49
280
     0
102
RTVSPost2010PropOp49
 70
     1
102
RTVSPost2010Prop50
 90
       50
102
RTVSPost2010PropOp50
 70
     1
102
RTVSPost2010Prop51ColorIndex
 90
      256
102
RTVSPost2010Prop51ColorRGB
 90
-16777216
102
RTVSPost2010PropOp51
 70
     0
102
RTVSPost2010Prop52
140
1.0
102
RTVSPost2010PropOp52
 70
     0
102
RTVSPost2010Prop53
 90
        2
102
RTVSPost2010PropOp53
 70
     1
102
RTVSPost2010Prop54
  1
strokes_ogs.tif
102
RTVSPost2010PropOp54
 70
     1
102
RTVSPost2010Prop55
280
     0
102
RTVSPost2010PropOp55
 70
     1
102
RTVSPost2010Prop56
140
1.0
102
RTVSPost2010PropOp56
 70
     1
102
RTVSPost2010Prop57
140
1.0
102
RTVSPost2010PropOp57
 70
     1
102
RTVSPropertyOp0
 70
     1
102
RTVSPropertyOp1
 70
     1
102
RTVSPropertyOp2
 70
     1
102
RTVSPropertyOp3
 70
     1
102
RTVSPropertyOp4
 70
     1
102
RTVSPropertyOp5
 70
     1
102
RTVSPropertyOp6
 70
     1
102
RTVSPropertyOp7
 70
     1
102
RTVSPropertyOp8
 70
     1
102
RTVSPropertyOp9
 70
     1
102
RTVSPropertyOp10
 70
     1
102
RTVSPropertyOp11
 70
     1
102
RTVSPropertyOp12
 70
     1
102
RTVSPropertyOp13
 70
     1
102
RTVSPropertyOp14
 70
     1
102
RTVSPropertyOp15
 70
     1
102
RTVSPropertyOp16
 70
     1
102
RTVSPropertyOp17
 70
     1
102
RTVSPropertyOp18
 70
     1
102
RTVSPropertyOp19
 70
     1
102
RTVSPropertyOp20
 70
     1
102
RTVSPropertyOp21
 70
     1
102
RTVSPropertyOp22
 70
     1
102
RTVSPropertyOp23
 70
     1
102
RTVSPropertyOp24
 70
     1
102
RTVSPropertyOp25
 70
     1
102
RTVSPropertyOp26
 70
     1
102
RTVSPropertyOp27
 70
     1
102
RTVSPropertyOp28
 70
     1
102
RTVSPropertyOp29
 70
     1
102
RTVSPropertyOp30
 70
     1
102
RTVSPropertyOp31
 70
     1
102
RTVSPropertyOp32
 70
     1
102
RTVSPropertyOp33
 70
     1
102
RTVSPropertyOp34
 70
     1
102
RTVSPropertyOp35
 70
     1
102
RTVSPropertyOp36
 70
     1
102
RTVSPropertyOp37
 70
     1
102
RTVSPropertyOp38
 70
     1
102
RTVSPropertyOp39
 70
     1
102
RTVSPropertyOp40
 70
     1
102
RTVSPropertyOp41
 70
     1
102
RTVSPropertyOp42
 70
     1
102
RTVSPropertyOp43
 70
     1
102
RTVSPropertyOp44
 70
     1
102
RTVSPropertyOp45
 70
     1
102
RTVSPropertyOp46
 70
     1
102
RTVSPropertyOp47
 70
     1
102
RTVSPropertyOp48
 70
     1
102
RTVSPropertyOp49
 70
     1
102
RTVSPropertyOp50
 70
     1
102
RTVSPropertyOp51
 70
     0
102
RTVSPropertyOp52
 70
     0
102
RTVSPropertyOp53
 70
     1
102
RTVSPropertyOp54
 70
     1
102
RTVSPropertyOp55
 70
     1
102
RTVSPropertyOp56
 70
     1
102
RTVSPropertyOp57
 70
     1
102
RTVSPropertyOp58
 70
     1
102
RTVSPropertyOp59
 70
     1
102
RTVSPropertyOp60
 70
     1
102
RTVSPropertyOp61
 70
     1
102
RTVSPropertyOp62
 70
     1
  0
ENDSEC
  0
EOF
