  0
SECTION
  2
HEADER
  9
$ACADVER
  1
AC1015
  9
$ACADMAINTVER
 70
    20
  9
$DWGCODEPAGE
  3
ANSI_932
  9
$INSBASE
 10
0.0
 20
0.0
 30
0.0
  9
$EXTMIN
 10
10.0
 20
9.999999999999998
 30
0.0
  9
$EXTMAX
 10
579.455198
 20
375.1835639999998
 30
0.0
  9
$LIMMIN
 10
0.0
 20
0.0
  9
$LIMMAX
 10
633.6
 20
436.8
  9
$ORTHOMODE
 70
     1
  9
$REGENMODE
 70
     1
  9
$FILLMODE
 70
     1
  9
$QTEXTMODE
 70
     0
  9
$MIRRTEXT
 70
     1
  9
$LTSCALE
 40
20.0
  9
$ATTMODE
 70
     1
  9
$TEXTSIZE
 40
5.0
  9
$TRACEWID
 40
1.0
  9
$TEXTSTYLE
  7
STANDARD
  9
$CLAYER
  8
0
  9
$CELTYPE
  6
BYLAYER
  9
$CECOLOR
 62
   256
  9
$CELTSCALE
 40
1.0
  9
$DISPSILH
 70
     0
  9
$DIMSCALE
 40
1.0
  9
$DIMASZ
 40
2.5
  9
$DIMEXO
 40
1.0
  9
$DIMDLI
 40
10.0
  9
$DIMRND
 40
0.0
  9
$DIMDLE
 40
0.0
  9
$DIMEXE
 40
1.0
  9
$DIMTP
 40
0.0
  9
$DIMTM
 40
0.0
  9
$DIMTXT
 40
2.5
  9
$DIMCEN
 40
0.0
  9
$DIMTSZ
 40
0.0
  9
$DIMTOL
 70
     0
  9
$DIMLIM
 70
     0
  9
$DIMTIH
 70
     0
  9
$DIMTOH
 70
     0
  9
$DIMSE1
 70
     0
  9
$DIMSE2
 70
     0
  9
$DIMTAD
 70
     3
  9
$DIMZIN
 70
     8
  9
$DIMBLK
  1

  9
$DIMASO
 70
     1
  9
$DIMSHO
 70
     1
  9
$DIMPOST
  1

  9
$DIMAPOST
  1

  9
$DIMALT
 70
     0
  9
$DIMALTD
 70
     2
  9
$DIMALTF
 40
25.4
  9
$DIMLFAC
 40
1.0
  9
$DIMTOFL
 70
     1
  9
$DIMTVP
 40
0.0
  9
$DIMTIX
 70
     0
  9
$DIMSOXD
 70
     0
  9
$DIMSAH
 70
     1
  9
$DIMBLK1
  1
OPEN
  9
$DIMBLK2
  1
OPEN
  9
$DIMSTYLE
  2
STANDARD
  9
$DIMCLRD
 70
     0
  9
$DIMCLRE
 70
     0
  9
$DIMCLRT
 70
     0
  9
$DIMTFAC
 40
1.0
  9
$DIMGAP
 40
1.0
  9
$DIMJUST
 70
     0
  9
$DIMSD1
 70
     0
  9
$DIMSD2
 70
     0
  9
$DIMTOLJ
 70
     1
  9
$DIMTZIN
 70
     0
  9
$DIMALTZ
 70
     0
  9
$DIMALTTZ
 70
     0
  9
$DIMUPT
 70
     0
  9
$DIMDEC
 70
     4
  9
$DIMTDEC
 70
     4
  9
$DIMALTU
 70
     2
  9
$DIMALTTD
 70
     2
  9
$DIMTXSTY
  7
STANDARD
  9
$DIMAUNIT
 70
     0
  9
$DIMADEC
 70
     0
  9
$DIMALTRND
 40
0.0
  9
$DIMAZIN
 70
     0
  9
$DIMDSEP
 70
    46
  9
$DIMATFIT
 70
     3
  9
$DIMFRAC
 70
     0
  9
$DIMLDRBLK
  1
OPEN
  9
$DIMLUNIT
 70
     2
  9
$DIMLWD
 70
    -2
  9
$DIMLWE
 70
    -2
  9
$DIMTMOVE
 70
     0
  9
$LUNITS
 70
     2
  9
$LUPREC
 70
     4
  9
$SKETCHINC
 40
1.0
  9
$FILLETRAD
 40
0.0
  9
$AUNITS
 70
     0
  9
$AUPREC
 70
     2
  9
$MENU
  1
.
  9
$ELEVATION
 40
0.0
  9
$PELEVATION
 40
0.0
  9
$THICKNESS
 40
0.0
  9
$LIMCHECK
 70
     0
  9
$CHAMFERA
 40
10.0
  9
$CHAMFERB
 40
10.0
  9
$CHAMFERC
 40
0.0
  9
$CHAMFERD
 40
0.0
  9
$SKPOLY
 70
     0
  9
$TDCREATE
 40
2451368.502221065
  9
$TDUCREATE
 40
2451368.127221065
  9
$TDUPDATE
 40
2457192.642907465
  9
$TDUUPDATE
 40
2457192.267907466
  9
$TDINDWG
 40
0.0000164815
  9
$TDUSRTIMER
 40
0.0000161806
  9
$USRTIMER
 70
     1
  9
$ANGBASE
 50
0.0
  9
$ANGDIR
 70
     0
  9
$PDMODE
 70
     0
  9
$PDSIZE
 40
0.0
  9
$PLINEWID
 40
0.0
  9
$SPLFRAME
 70
     0
  9
$SPLINETYPE
 70
     6
  9
$SPLINESEGS
 70
     8
  9
$HANDSEED
  5
B90A
  9
$SURFTAB1
 70
     6
  9
$SURFTAB2
 70
     6
  9
$SURFTYPE
 70
     6
  9
$SURFU
 70
     6
  9
$SURFV
 70
     6
  9
$UCSBASE
  2

  9
$UCSNAME
  2

  9
$UCSORG
 10
0.0
 20
0.0
 30
0.0
  9
$UCSXDIR
 10
1.0
 20
0.0
 30
0.0
  9
$UCSYDIR
 10
0.0
 20
1.0
 30
0.0
  9
$UCSORTHOREF
  2

  9
$UCSORTHOVIEW
 70
     0
  9
$UCSORGTOP
 10
0.0
 20
0.0
 30
0.0
  9
$UCSORGBOTTOM
 10
0.0
 20
0.0
 30
0.0
  9
$UCSORGLEFT
 10
0.0
 20
0.0
 30
0.0
  9
$UCSORGRIGHT
 10
0.0
 20
0.0
 30
0.0
  9
$UCSORGFRONT
 10
0.0
 20
0.0
 30
0.0
  9
$UCSORGBACK
 10
0.0
 20
0.0
 30
0.0
  9
$PUCSBASE
  2

  9
$PUCSNAME
  2

  9
$PUCSORG
 10
0.0
 20
0.0
 30
0.0
  9
$PUCSXDIR
 10
1.0
 20
0.0
 30
0.0
  9
$PUCSYDIR
 10
0.0
 20
1.0
 30
0.0
  9
$PUCSORTHOREF
  2

  9
$PUCSORTHOVIEW
 70
     0
  9
$PUCSORGTOP
 10
0.0
 20
0.0
 30
0.0
  9
$PUCSORGBOTTOM
 10
0.0
 20
0.0
 30
0.0
  9
$PUCSORGLEFT
 10
0.0
 20
0.0
 30
0.0
  9
$PUCSORGRIGHT
 10
0.0
 20
0.0
 30
0.0
  9
$PUCSORGFRONT
 10
0.0
 20
0.0
 30
0.0
  9
$PUCSORGBACK
 10
0.0
 20
0.0
 30
0.0
  9
$USERI1
 70
     0
  9
$USERI2
 70
     0
  9
$USERI3
 70
     0
  9
$USERI4
 70
     0
  9
$USERI5
 70
     0
  9
$USERR1
 40
0.0
  9
$USERR2
 40
0.0
  9
$USERR3
 40
0.0
  9
$USERR4
 40
0.0
  9
$USERR5
 40
0.0
  9
$WORLDVIEW
 70
     1
  9
$SHADEDGE
 70
     3
  9
$SHADEDIF
 70
    70
  9
$TILEMODE
 70
     1
  9
$MAXACTVP
 70
    16
  9
$PINSBASE
 10
0.0
 20
0.0
 30
0.0
  9
$PLIMCHECK
 70
     0
  9
$PEXTMIN
 10
1.000000000000000E+20
 20
1.000000000000000E+20
 30
1.000000000000000E+20
  9
$PEXTMAX
 10
-1.000000000000000E+20
 20
-1.000000000000000E+20
 30
-1.000000000000000E+20
  9
$PLIMMIN
 10
0.0
 20
0.0
  9
$PLIMMAX
 10
420.0
 20
297.0
  9
$UNITMODE
 70
     0
  9
$VISRETAIN
 70
     0
  9
$PLINEGEN
 70
     0
  9
$PSLTSCALE
 70
     0
  9
$TREEDEPTH
 70
  3020
  9
$CMLSTYLE
  2
STANDARD
  9
$CMLJUST
 70
     0
  9
$CMLSCALE
 40
1.0
  9
$PROXYGRAPHICS
 70
     1
  9
$MEASUREMENT
 70
     0
  9
$CELWEIGHT
370
    -1
  9
$ENDCAPS
280
     0
  9
$JOINSTYLE
280
     0
  9
$LWDISPLAY
290
     0
  9
$INSUNITS
 70
     0
  9
$HYPERLINKBASE
  1

  9
$STYLESHEET
  1

  9
$XEDIT
290
     1
  9
$CEPSNTYPE
380
     0
  9
$PSTYLEMODE
290
     1
  9
$FINGERPRINTGUID
  2
{7B483283-7165-42D5-A77C-E74559DB9380}
  9
$VERSIONGUID
  2
{9CD9EADE-80E2-4C9B-BA7D-4C6EE78F9890}
  9
$EXTNAMES
290
     1
  9
$PSVPSCALE
 40
0.0
  9
$OLESTARTUP
290
     0
  0
ENDSEC
  0
SECTION
  2
CLASSES
  0
CLASS
  1
ACDBDICTIONARYWDFLT
  2
AcDbDictionaryWithDefault
  3
ObjectDBX Classes
 90
        0
280
     0
281
     0
  0
CLASS
  1
ACDBPLACEHOLDER
  2
AcDbPlaceHolder
  3
ObjectDBX Classes
 90
        0
280
     0
281
     0
  0
CLASS
  1
LAYOUT
  2
AcDbLayout
  3
ObjectDBX Classes
 90
        0
280
     0
281
     0
  0
CLASS
  1
DICTIONARYVAR
  2
AcDbDictionaryVar
  3
ObjectDBX Classes
 90
        0
280
     0
281
     0
  0
CLASS
  1
MATERIAL
  2
AcDbMaterial
  3
ObjectDBX Classes
 90
     1153
280
     0
281
     0
  0
CLASS
  1
VISUALSTYLE
  2
AcDbVisualStyle
  3
ObjectDBX Classes
 90
     4095
280
     0
281
     0
  0
CLASS
  1
TABLESTYLE
  2
AcDbTableStyle
  3
ObjectDBX Classes
 90
     4095
280
     0
281
     0
  0
CLASS
  1
SCALE
  2
AcDbScale
  3
ObjectDBX Classes
 90
     1153
280
     0
281
     0
  0
CLASS
  1
MLEADERSTYLE
  2
AcDbMLeaderStyle
  3
ACDB_MLEADERSTYLE_CLASS
 90
     4095
280
     0
281
     0
  0
CLASS
  1
ACDBSECTIONVIEWSTYLE
  2
AcDbSectionViewStyle
  3
ObjectDBX Classes
 90
     1025
280
     0
281
     0
  0
CLASS
  1
ACDBDETAILVIEWSTYLE
  2
AcDbDetailViewStyle
  3
ObjectDBX Classes
 90
     1025
280
     0
281
     0
  0
CLASS
  1
CELLSTYLEMAP
  2
AcDbCellStyleMap
  3
ObjectDBX Classes
 90
     1152
280
     0
281
     0
  0
ENDSEC
  0
SECTION
  2
TABLES
  0
TABLE
  2
VPORT
  5
B523
330
0
100
AcDbSymbolTable
 70
     1
  0
VPORT
  5
B853
330
B523
100
AcDbSymbolTableRecord
100
AcDbViewportTableRecord
  2
*ACTIVE
 70
     0
 10
0.0
 20
0.0
 11
1.0
 21
1.0
 12
405.3486288075209
 22
192.5896372174258
 13
0.0
 23
0.0
 14
10.0
 24
10.0
 15
10.0
 25
10.0
 16
0.0
 26
0.0
 36
1.0
 17
0.0
 27
0.0
 37
0.0
 40
369.2954856467892
 41
1.899603698811096
 42
50.0
 43
0.0
 44
0.0
 50
0.0
 51
0.0
 71
     0
 72
   100
 73
     1
 74
     0
 75
     0
 76
     0
 77
     0
 78
     0
281
     0
 65
     1
110
0.0
120
0.0
130
0.0
111
1.0
121
0.0
131
0.0
112
0.0
122
1.0
132
0.0
 79
     0
146
0.0
1001
ACAD_NAV_VCDISPLAY
1070
     3
  0
ENDTAB
  0
TABLE
  2
LTYPE
  5
B520
330
0
100
AcDbSymbolTable
 70
     4
  0
LTYPE
  5
B52E
330
B520
100
AcDbSymbolTableRecord
100
AcDbLinetypeTableRecord
  2
BYBLOCK
 70
     0
  3

 72
    65
 73
     0
 40
0.0
  0
LTYPE
  5
B52F
330
B520
100
AcDbSymbolTableRecord
100
AcDbLinetypeTableRecord
  2
BYLAYER
 70
     0
  3

 72
    65
 73
     0
 40
0.0
  0
LTYPE
  5
B530
330
B520
100
AcDbSymbolTableRecord
100
AcDbLinetypeTableRecord
  2
CONTINUOUS
 70
     0
  3
Solid line
 72
    65
 73
     0
 40
0.0
  0
LTYPE
  5
B53E
330
B520
100
AcDbSymbolTableRecord
100
AcDbLinetypeTableRecord
  2
DASHED
 70
     0
  3
__ __ __ __ __ __ __ __ __ __ __ __ __ __ __ __
 72
    65
 73
     2
 40
0.75
 49
0.5
 74
     0
 49
-0.25
 74
     0
  0
LTYPE
  5
B53F
330
B520
100
AcDbSymbolTableRecord
100
AcDbLinetypeTableRecord
  2
CENTER
 70
     0
  3
____ _ ____ _ ____ _ ____ _ ____ _ ____ _ ____ 
 72
    65
 73
     4
 40
2.0
 49
1.25
 74
     0
 49
-0.25
 74
     0
 49
0.25
 74
     0
 49
-0.25
 74
     0
  0
LTYPE
  5
B540
330
B520
100
AcDbSymbolTableRecord
100
AcDbLinetypeTableRecord
  2
PHANTOM
 70
     0
  3
______  __  __  ______  __  __  ______  __  __ 
 72
    65
 73
     6
 40
2.5
 49
1.25
 74
     0
 49
-0.25
 74
     0
 49
0.25
 74
     0
 49
-0.25
 74
     0
 49
0.25
 74
     0
 49
-0.25
 74
     0
  0
ENDTAB
  0
TABLE
  2
LAYER
  5
B51D
330
0
100
AcDbSymbolTable
 70
     8
  0
LAYER
  5
B52B
102
{ACAD_XDICTIONARY
360
B8AE
102
}
330
B51D
100
AcDbSymbolTableRecord
100
AcDbLayerTableRecord
  2
0
 70
     0
 62
     7
  6
CONTINUOUS
370
    -3
390
B85C
  0
LAYER
  5
B541
102
{ACAD_XDICTIONARY
360
B8B0
102
}
330
B51D
100
AcDbSymbolTableRecord
100
AcDbLayerTableRecord
  2
4
 70
     0
 62
     1
  6
CENTER
370
    -3
390
B85C
  0
LAYER
  5
B542
102
{ACAD_XDICTIONARY
360
B8B2
102
}
330
B51D
100
AcDbSymbolTableRecord
100
AcDbLayerTableRecord
  2
5
 70
     0
 62
     6
  6
PHANTOM
370
    -3
390
B85C
  0
LAYER
  5
B543
102
{ACAD_XDICTIONARY
360
B8B4
102
}
330
B51D
100
AcDbSymbolTableRecord
100
AcDbLayerTableRecord
  2
1
 70
     0
 62
     7
  6
CONTINUOUS
370
    -3
390
B85C
  0
LAYER
  5
B544
102
{ACAD_XDICTIONARY
360
B8B6
102
}
330
B51D
100
AcDbSymbolTableRecord
100
AcDbLayerTableRecord
  2
2
 70
     0
 62
     4
  6
CONTINUOUS
370
    -3
390
B85C
  0
LAYER
  5
B545
102
{ACAD_XDICTIONARY
360
B8B8
102
}
330
B51D
100
AcDbSymbolTableRecord
100
AcDbLayerTableRecord
  2
3
 70
     0
 62
     2
  6
DASHED
370
    -3
390
B85C
  0
LAYER
  5
B546
102
{ACAD_XDICTIONARY
360
B8BA
102
}
330
B51D
100
AcDbSymbolTableRecord
100
AcDbLayerTableRecord
  2
6
 70
     0
 62
     5
  6
CONTINUOUS
370
    -3
390
B85C
  0
LAYER
  5
B547
102
{ACAD_XDICTIONARY
360
B8BC
102
}
330
B51D
100
AcDbSymbolTableRecord
100
AcDbLayerTableRecord
  2
7
 70
     0
 62
     3
  6
CONTINUOUS
370
    -3
390
B85C
  0
ENDTAB
  0
TABLE
  2
STYLE
  5
B51E
330
0
100
AcDbSymbolTable
 70
     1
  0
STYLE
  5
B52C
330
B51E
100
AcDbSymbolTableRecord
100
AcDbTextStyleTableRecord
  2
STANDARD
 70
     0
 40
0.0
 41
1.0
 50
0.0
 71
     0
 42
5.0
  3
txt
  4

  0
ENDTAB
  0
TABLE
  2
VIEW
  5
B521
330
0
100
AcDbSymbolTable
 70
     0
  0
ENDTAB
  0
TABLE
  2
UCS
  5
B522
330
0
100
AcDbSymbolTable
 70
     0
  0
ENDTAB
  0
TABLE
  2
APPID
  5
B524
330
0
100
AcDbSymbolTable
 70
     3
  0
APPID
  5
B52D
330
B524
100
AcDbSymbolTableRecord
100
AcDbRegAppTableRecord
  2
ACAD
 70
     0
  0
APPID
  5
B8C8
330
B524
100
AcDbSymbolTableRecord
100
AcDbRegAppTableRecord
  2
ACAD_NAV_VCDISPLAY
 70
     0
  0
APPID
  5
B901
330
B524
100
AcDbSymbolTableRecord
100
AcDbRegAppTableRecord
  2
ACAD_MLEADERVER
 70
     0
  0
ENDTAB
  0
TABLE
  2
DIMSTYLE
  5
B525
330
0
100
AcDbSymbolTable
 70
     1
100
AcDbDimStyleTable
 71
     0
  0
DIMSTYLE
105
B549
330
B525
100
AcDbSymbolTableRecord
100
AcDbDimStyleTableRecord
  2
STANDARD
 70
     0
 41
2.5
 42
1.0
 43
10.0
 44
1.0
 73
     0
 74
     0
 77
     3
 78
     8
140
2.5
141
0.0
147
1.0
172
     1
173
     1
284
     8
285
     8
286
     8
340
B52C
  0
ENDTAB
  0
TABLE
  2
BLOCK_RECORD
  5
B51C
330
0
100
AcDbSymbolTable
 70
     1
  0
BLOCK_RECORD
  5
B539
102
{ACAD_XDICTIONARY
360
B856
102
}
330
B51C
100
AcDbSymbolTableRecord
100
AcDbBlockTableRecord
  2
*MODEL_SPACE
340
B8AA
  0
BLOCK_RECORD
  5
B535
102
{ACAD_XDICTIONARY
360
B854
102
}
330
B51C
100
AcDbSymbolTableRecord
100
AcDbBlockTableRecord
  2
*PAPER_SPACE
340
B8AB
  0
BLOCK_RECORD
  5
B551
330
B51C
100
AcDbSymbolTableRecord
100
AcDbBlockTableRecord
  2
_OPEN
340
0
  0
ENDTAB
  0
ENDSEC
  0
SECTION
  2
BLOCKS
  0
BLOCK
  5
B53A
330
B539
100
AcDbEntity
  8
0
100
AcDbBlockBegin
  2
*MODEL_SPACE
 70
     0
 10
0.0
 20
0.0
 30
0.0
  3
*MODEL_SPACE
  1

  0
ENDBLK
  5
B53B
330
B539
100
AcDbEntity
  8
0
100
AcDbBlockEnd
  0
BLOCK
  5
B536
330
B535
100
AcDbEntity
 67
     1
  8
0
100
AcDbBlockBegin
  2
*PAPER_SPACE
 70
     0
 10
0.0
 20
0.0
 30
0.0
  3
*PAPER_SPACE
  1

  0
ENDBLK
  5
B537
330
B535
100
AcDbEntity
 67
     1
  8
0
100
AcDbBlockEnd
  0
BLOCK
  5
B552
330
B551
100
AcDbEntity
  8
0
100
AcDbBlockBegin
  2
_OPEN
 70
     0
 10
0.0
 20
0.0
 30
0.0
  3
_OPEN
  1

  0
LINE
  5
B553
330
B551
100
AcDbEntity
  8
0
  6
ByBlock
 62
     0
100
AcDbLine
 10
-1.0
 20
0.166667
 30
0.0
 11
0.0
 21
0.0
 31
0.0
  0
LINE
  5
B554
330
B551
100
AcDbEntity
  8
0
  6
ByBlock
 62
     0
100
AcDbLine
 10
0.0
 20
0.0
 30
0.0
 11
-1.0
 21
-0.166667
 31
0.0
  0
LINE
  5
B555
330
B551
100
AcDbEntity
  8
0
  6
ByBlock
 62
     0
100
AcDbLine
 10
0.0
 20
0.0
 30
0.0
 11
-1.0
 21
0.0
 31
0.0
  0
ENDBLK
  5
B556
330
B551
100
AcDbEntity
  8
0
100
AcDbBlockEnd
  0
ENDSEC
  0
SECTION
  2
ENTITIES
  0
TEXT
  5
B557
330
B539
100
AcDbEntity
  8
7
  6
Continuous
100
AcDbText
 10
10.0
 20
18.0
 30
0.0
 40
3.0
  1
TYPE No.THA-429-1K
100
AcDbText
  0
TEXT
  5
B558
330
B539
100
AcDbEntity
  8
7
  6
Continuous
100
AcDbText
 10
10.0
 20
26.0
 30
0.0
 40
3.0
  1
CODE No.3608
100
AcDbText
  0
TEXT
  5
B559
330
B539
100
AcDbEntity
  8
1
  6
Continuous
100
AcDbText
 10
10.0
 20
10.0
 30
0.0
 40
1.399999999999999
  1
LAYER
100
AcDbText
  0
TEXT
  5
B55A
330
B539
100
AcDbEntity
  8
1
  6
Continuous
100
AcDbText
 10
17.97951099999998
 20
10.04873699999998
 30
0.0
 40
1.399999999999999
  1
1
100
AcDbText
  0
TEXT
  5
B55B
330
B539
100
AcDbEntity
  8
7
  6
Continuous
100
AcDbText
 10
29.97951099999999
 20
10.04873699999998
 30
0.0
 40
1.399999999999999
  1
7
100
AcDbText
  0
TEXT
  5
B55C
330
B539
100
AcDbEntity
  8
4
  6
CENTER
100
AcDbText
 10
23.97951099999999
 20
10.04873699999998
 30
0.0
 40
1.399999999999999
  1
4
100
AcDbText
  0
TEXT
  5
B55D
330
B539
100
AcDbEntity
  8
3
  6
DASHED
100
AcDbText
 10
21.979511
 20
10.04873699999998
 30
0.0
 40
1.399999999999999
  1
3
100
AcDbText
  0
TEXT
  5
B55E
330
B539
100
AcDbEntity
  8
2
  6
Continuous
100
AcDbText
 10
19.97951099999999
 20
10.04873699999998
 30
0.0
 40
1.399999999999999
  1
2
100
AcDbText
  0
TEXT
  5
B55F
330
B539
100
AcDbEntity
  8
6
  6
Continuous
100
AcDbText
 10
27.979511
 20
10.04873699999998
 30
0.0
 40
1.399999999999999
  1
6
100
AcDbText
  0
TEXT
  5
B560
330
B539
100
AcDbEntity
  8
5
  6
PHANTOM
100
AcDbText
 10
25.97951099999999
 20
10.04873699999998
 30
0.0
 40
1.399999999999999
  1
5
100
AcDbText
  0
LINE
  5
B561
330
B539
100
AcDbEntity
  8
1
  6
Continuous
100
AcDbLine
 10
244.4596740000001
 20
45.590497
 30
0.0
 11
244.4596740000001
 21
45.28610599999999
 31
0.0
  0
LINE
  5
B562
330
B539
100
AcDbEntity
  8
1
  6
Continuous
100
AcDbLine
 10
244.4596740000001
 20
48.5
 30
0.0
 11
244.4596740000001
 21
47.600478
 31
0.0
  0
LINE
  5
B563
330
B539
100
AcDbEntity
  8
1
  6
Continuous
100
AcDbLine
 10
240.4596740000001
 20
45.99060099999999
 30
0.0
 11
240.4596740000001
 21
45.28610599999999
 31
0.0
  0
LINE
  5
B564
330
B539
100
AcDbEntity
  8
1
  6
Continuous
100
AcDbLine
 10
240.5435479999999
 20
48.5
 30
0.0
 11
240.5435479999999
 21
47.99219199999998
 31
0.0
  0
ARC
  5
B565
330
B539
100
AcDbEntity
  8
1
  6
Continuous
100
AcDbCircle
 10
242.4596740000001
 20
49.886106
 30
0.0
 40
9.0
100
AcDbArc
 50
254.11915
 51
285.88085
  0
LINE
  5
B566
330
B539
100
AcDbEntity
  8
1
  6
Continuous
100
AcDbLine
 10
238.9596739999999
 20
43.48610599999999
 30
0.0
 11
239.05761
 21
42.36669099999999
 31
0.0
  0
LINE
  5
B567
330
B539
100
AcDbEntity
  8
1
  6
Continuous
100
AcDbLine
 10
245.959674
 20
43.48610599999999
 30
0.0
 11
245.861738
 21
42.36669099999999
 31
0.0
  0
ARC
  5
B568
330
B539
100
AcDbEntity
  8
1
  6
Continuous
100
AcDbCircle
 10
244.566685
 20
42.479994
 30
0.0
 40
1.3
100
AcDbArc
 50
285.88085
 51
355.0
  0
ARC
  5
B569
330
B539
100
AcDbEntity
  8
1
  6
Continuous
100
AcDbCircle
 10
240.3526629999999
 20
42.479994
 30
0.0
 40
1.3
100
AcDbArc
 50
185.0
 51
254.11915
  0
LINE
  5
B56A
330
B539
100
AcDbEntity
  8
1
  6
Continuous
100
AcDbLine
 10
247.4596739999999
 20
44.486106
 30
0.0
 11
237.459674
 21
44.486106
 31
0.0
  0
LINE
  5
B56B
330
B539
100
AcDbEntity
  8
1
  6
Continuous
100
AcDbLine
 10
246.2596739999999
 20
43.48610599999999
 30
0.0
 11
238.659674
 21
43.48610599999999
 31
0.0
  0
LINE
  5
B56C
330
B539
100
AcDbEntity
  8
1
  6
Continuous
100
AcDbLine
 10
246.2596739999999
 20
43.48610599999999
 30
0.0
 11
246.2596739999999
 21
44.486106
 31
0.0
  0
LINE
  5
B56D
330
B539
100
AcDbEntity
  8
1
  6
Continuous
100
AcDbLine
 10
238.659674
 20
43.48610599999999
 30
0.0
 11
238.659674
 21
44.486106
 31
0.0
  0
LINE
  5
B56E
330
B539
100
AcDbEntity
  8
1
  6
Continuous
100
AcDbLine
 10
237.459674
 20
44.486106
 30
0.0
 11
237.459674
 21
45.28610599999999
 31
0.0
  0
LINE
  5
B56F
330
B539
100
AcDbEntity
  8
1
  6
Continuous
100
AcDbLine
 10
247.4596739999999
 20
44.486106
 30
0.0
 11
247.4596739999999
 21
45.28610599999999
 31
0.0
  0
LINE
  5
B570
330
B539
100
AcDbEntity
  8
1
  6
Continuous
100
AcDbLine
 10
247.4596739999999
 20
45.28610599999999
 30
0.0
 11
237.459674
 21
45.28610599999999
 31
0.0
  0
LINE
  5
B571
330
B539
100
AcDbEntity
  8
1
  6
Continuous
100
AcDbLine
 10
239.959674
 20
46.04061399999999
 30
0.0
 11
239.959674
 21
45.28610599999999
 31
0.0
  0
LINE
  5
B572
330
B539
100
AcDbEntity
  8
1
  6
Continuous
100
AcDbLine
 10
239.959674
 20
48.5
 30
0.0
 11
239.959674
 21
48.050594
 31
0.0
  0
LINE
  5
B573
330
B539
100
AcDbEntity
  8
1
  6
Continuous
100
AcDbLine
 10
25.0
 20
199.391782
 30
0.0
 11
37.20000000000001
 21
199.391782
 31
0.0
  0
LINE
  5
B574
330
B539
100
AcDbEntity
  8
1
  6
Continuous
100
AcDbLine
 10
25.0
 20
213.7917819999999
 30
0.0
 11
37.20000000000001
 21
213.7917819999999
 31
0.0
  0
ARC
  5
B575
330
B539
100
AcDbEntity
  8
1
  6
Continuous
100
AcDbCircle
 10
36.0
 20
212.591782
 30
0.0
 40
1.0
100
AcDbArc
 50
0.0
 51
90.0
  0
ARC
  5
B576
330
B539
100
AcDbEntity
  8
1
  6
Continuous
100
AcDbCircle
 10
36.0
 20
200.591782
 30
0.0
 40
1.0
100
AcDbArc
 50
270.0
 51
0.0
  0
LINE
  5
B577
330
B539
100
AcDbEntity
  8
1
  6
Continuous
100
AcDbLine
 10
37.0
 20
200.591782
 30
0.0
 11
37.0
 21
212.591782
 31
0.0
  0
LINE
  5
B578
330
B539
100
AcDbEntity
  8
1
  6
Continuous
100
AcDbLine
 10
52.0
 20
155.5917819999999
 30
0.0
 11
52.0
 21
257.5917819999999
 31
0.0
  0
LINE
  5
B579
330
B539
100
AcDbEntity
  8
1
  6
Continuous
100
AcDbLine
 10
258.997762
 20
168.591782
 30
0.0
 11
258.997762
 21
244.591782
 31
0.0
  0
LINE
  5
B57A
330
B539
100
AcDbEntity
  8
1
  6
Continuous
100
AcDbLine
 10
251.383978
 20
166.5917819999999
 30
0.0
 11
256.997762
 21
166.5917819999999
 31
0.0
  0
LINE
  5
B57B
330
B539
100
AcDbEntity
  8
1
  6
Continuous
100
AcDbLine
 10
251.383978
 20
246.591782
 30
0.0
 11
256.997762
 21
246.591782
 31
0.0
  0
ARC
  5
B57C
330
B539
100
AcDbEntity
  8
1
  6
Continuous
100
AcDbCircle
 10
256.997762
 20
168.591782
 30
0.0
 40
2.0
100
AcDbArc
 50
270.0
 51
0.0
  0
ARC
  5
B57D
330
B539
100
AcDbEntity
  8
1
  6
Continuous
100
AcDbCircle
 10
256.997762
 20
244.591782
 30
0.0
 40
2.0
100
AcDbArc
 50
0.0
 51
90.0
  0
LINE
  5
B57E
330
B539
100
AcDbEntity
  8
1
  6
Continuous
100
AcDbLine
 10
169.959674
 20
68.0
 30
0.0
 11
252.9596740000001
 21
68.0
 31
0.0
  0
ARC
  5
B57F
330
B539
100
AcDbEntity
  8
1
  6
Continuous
100
AcDbCircle
 10
-255.5403259999999
 20
206.591782
 30
0.0
 40
475.4999999999998
100
AcDbArc
 50
355.2045969999999
 51
4.795403
  0
ARC
  5
B580
330
B539
100
AcDbEntity
  8
1
  6
Continuous
100
AcDbCircle
 10
215.305721
 20
246.091782
 30
0.0
 40
3.0
100
AcDbArc
 50
4.795403
 51
90.0
  0
ARC
  5
B581
330
B539
100
AcDbEntity
  8
1
  6
Continuous
100
AcDbCircle
 10
215.305721
 20
167.0917819999999
 30
0.0
 40
3.0
100
AcDbArc
 50
270.0
 51
355.2045969999999
  0
ARC
  5
B582
330
B539
100
AcDbEntity
  8
5
  6
PHANTOM
100
AcDbCircle
 10
211.6624939999999
 20
84.40918999999999
 30
0.0
 40
2.232850999999997
100
AcDbArc
 50
252.456704
 51
118.145981
  0
ARC
  5
B583
330
B539
100
AcDbEntity
  8
5
  6
PHANTOM
100
AcDbCircle
 10
210.6880269999999
 20
81.326701
 30
0.0
 40
1.0
100
AcDbArc
 50
72.456704
 51
118.7731
  0
CIRCLE
  5
B584
330
B539
100
AcDbEntity
  8
1
  6
Continuous
100
AcDbCircle
 10
157.959674
 20
193.141782
 30
0.0
 40
0.9
  0
CIRCLE
  5
B585
330
B539
100
AcDbEntity
  8
1
  6
Continuous
100
AcDbCircle
 10
162.959674
 20
193.141782
 30
0.0
 40
0.9
  0
CIRCLE
  5
B586
330
B539
100
AcDbEntity
  8
1
  6
Continuous
100
AcDbCircle
 10
157.959674
 20
220.0417819999999
 30
0.0
 40
0.9
  0
CIRCLE
  5
B587
330
B539
100
AcDbEntity
  8
1
  6
Continuous
100
AcDbCircle
 10
162.959674
 20
220.0417819999999
 30
0.0
 40
0.9
  0
LINE
  5
B588
330
B539
100
AcDbEntity
  8
1
  6
Continuous
100
AcDbLine
 10
152.959674
 20
161.5917819999999
 30
0.0
 11
171.9870549999999
 21
161.5917819999999
 31
0.0
  0
LINE
  5
B589
330
B539
100
AcDbEntity
  8
1
  6
Continuous
100
AcDbLine
 10
152.959674
 20
251.5917819999998
 30
0.0
 11
171.9870549999999
 21
251.5917819999998
 31
0.0
  0
LINE
  5
B58A
330
B539
100
AcDbEntity
  8
1
  6
Continuous
100
AcDbLine
 10
155.959674
 20
172.991782
 30
0.0
 11
156.959674
 21
172.991782
 31
0.0
  0
LINE
  5
B58B
330
B539
100
AcDbEntity
  8
1
  6
Continuous
100
AcDbLine
 10
155.959674
 20
180.1917819999999
 30
0.0
 11
156.959674
 21
180.1917819999999
 31
0.0
  0
LINE
  5
B58C
330
B539
100
AcDbEntity
  8
1
  6
Continuous
100
AcDbLine
 10
156.959674
 20
180.1917819999999
 30
0.0
 11
156.959674
 21
172.991782
 31
0.0
  0
ARC
  5
B58D
330
B539
100
AcDbEntity
  8
1
  6
Continuous
100
AcDbCircle
 10
155.959674
 20
181.1917819999999
 30
0.0
 40
1.0
100
AcDbArc
 50
180.0
 51
270.0
  0
ARC
  5
B58E
330
B539
100
AcDbEntity
  8
1
  6
Continuous
100
AcDbCircle
 10
155.959674
 20
171.991782
 30
0.0
 40
1.0
100
AcDbArc
 50
90.0
 51
180.0
  0
LINE
  5
B58F
330
B539
100
AcDbEntity
  8
1
  6
Continuous
100
AcDbLine
 10
155.959674
 20
232.9917819999999
 30
0.0
 11
156.959674
 21
232.9917819999999
 31
0.0
  0
LINE
  5
B590
330
B539
100
AcDbEntity
  8
1
  6
Continuous
100
AcDbLine
 10
155.959674
 20
240.1917819999999
 30
0.0
 11
156.959674
 21
240.1917819999999
 31
0.0
  0
LINE
  5
B591
330
B539
100
AcDbEntity
  8
1
  6
Continuous
100
AcDbLine
 10
156.959674
 20
240.1917819999999
 30
0.0
 11
156.959674
 21
232.9917819999999
 31
0.0
  0
ARC
  5
B592
330
B539
100
AcDbEntity
  8
1
  6
Continuous
100
AcDbCircle
 10
155.959674
 20
241.1917819999999
 30
0.0
 40
1.0
100
AcDbArc
 50
180.0
 51
270.0
  0
ARC
  5
B593
330
B539
100
AcDbEntity
  8
1
  6
Continuous
100
AcDbCircle
 10
155.959674
 20
231.9917819999998
 30
0.0
 40
1.0
100
AcDbArc
 50
90.0
 51
180.0
  0
LINE
  5
B594
330
B539
100
AcDbEntity
  8
4
  6
CENTER
100
AcDbLine
 10
134.959674
 20
206.591782
 30
0.0
 11
263.997762
 21
206.591782
 31
0.0
  0
LINE
  5
B595
330
B539
100
AcDbEntity
  8
1
  6
Continuous
100
AcDbLine
 10
164.9596739999998
 20
223.4917819999998
 30
0.0
 11
164.9596739999998
 21
189.6917819999999
 31
0.0
  0
LINE
  5
B596
330
B539
100
AcDbEntity
  8
1
  6
Continuous
100
AcDbLine
 10
139.9596739999998
 20
198.591782
 30
0.0
 11
139.9596739999998
 21
214.591782
 31
0.0
  0
LINE
  5
B597
330
B539
100
AcDbEntity
  8
1
  6
Continuous
100
AcDbLine
 10
139.9596739999998
 20
198.591782
 30
0.0
 11
164.9596739999998
 21
198.591782
 31
0.0
  0
LINE
  5
B598
330
B539
100
AcDbEntity
  8
1
  6
Continuous
100
AcDbLine
 10
139.9596739999998
 20
214.591782
 30
0.0
 11
164.9596739999998
 21
214.591782
 31
0.0
  0
LINE
  5
B599
330
B539
100
AcDbEntity
  8
1
  6
Continuous
100
AcDbLine
 10
154.959674
 20
223.4917819999998
 30
0.0
 11
164.9596739999998
 21
223.4917819999998
 31
0.0
  0
LINE
  5
B59A
330
B539
100
AcDbEntity
  8
1
  6
Continuous
100
AcDbLine
 10
154.959674
 20
189.6917819999999
 30
0.0
 11
164.9596739999998
 21
189.6917819999999
 31
0.0
  0
LINE
  5
B59B
330
B539
100
AcDbEntity
  8
1
  6
Continuous
100
AcDbLine
 10
154.959674
 20
216.591782
 30
0.0
 11
156.959674
 21
216.591782
 31
0.0
  0
LINE
  5
B59C
330
B539
100
AcDbEntity
  8
1
  6
Continuous
100
AcDbLine
 10
154.959674
 20
196.5917819999999
 30
0.0
 11
156.959674
 21
196.5917819999999
 31
0.0
  0
LINE
  5
B59D
330
B539
100
AcDbEntity
  8
1
  6
Continuous
100
AcDbLine
 10
156.959674
 20
216.591782
 30
0.0
 11
156.959674
 21
196.5917819999999
 31
0.0
  0
LINE
  5
B59E
330
B539
100
AcDbEntity
  8
1
  6
Continuous
100
AcDbLine
 10
152.959674
 20
198.591782
 30
0.0
 11
152.959674
 21
161.5917819999999
 31
0.0
  0
LINE
  5
B59F
330
B539
100
AcDbEntity
  8
1
  6
Continuous
100
AcDbLine
 10
152.959674
 20
251.5917819999998
 30
0.0
 11
152.959674
 21
214.591782
 31
0.0
  0
LINE
  5
B5A0
330
B539
100
AcDbEntity
  8
1
  6
Continuous
100
AcDbLine
 10
154.959674
 20
198.591782
 30
0.0
 11
154.959674
 21
161.5917819999999
 31
0.0
  0
LINE
  5
B5A1
330
B539
100
AcDbEntity
  8
1
  6
Continuous
100
AcDbLine
 10
154.959674
 20
251.5917819999998
 30
0.0
 11
154.959674
 21
214.591782
 31
0.0
  0
LINE
  5
B5A2
330
B539
100
AcDbEntity
  8
1
  6
Continuous
100
AcDbLine
 10
179.459674
 20
165.091782
 30
0.0
 11
179.459674
 21
248.091782
 31
0.0
  0
LINE
  5
B5A3
330
B539
100
AcDbEntity
  8
1
  6
Continuous
100
AcDbLine
 10
180.459674
 20
249.0917819999999
 30
0.0
 11
215.305721
 21
249.0917819999999
 31
0.0
  0
LINE
  5
B5A4
330
B539
100
AcDbEntity
  8
1
  6
Continuous
100
AcDbLine
 10
180.459674
 20
164.091782
 30
0.0
 11
215.305721
 21
164.091782
 31
0.0
  0
LINE
  5
B5A5
330
B539
100
AcDbEntity
  8
1
  6
Continuous
100
AcDbLine
 10
182.029754
 20
165.3196379999999
 30
0.0
 11
182.029754
 21
183.56021
 31
0.0
  0
LINE
  5
B5A6
330
B539
100
AcDbEntity
  8
1
  6
Continuous
100
AcDbLine
 10
182.029754
 20
187.5255519999998
 30
0.0
 11
182.029754
 21
204.0666879999998
 31
0.0
  0
LINE
  5
B5A7
330
B539
100
AcDbEntity
  8
1
  6
Continuous
100
AcDbLine
 10
182.029754
 20
209.2782779999998
 30
0.0
 11
182.029754
 21
230.011347
 31
0.0
  0
LINE
  5
B5A8
330
B539
100
AcDbEntity
  8
1
  6
Continuous
100
AcDbLine
 10
182.029754
 20
234.089991
 30
0.0
 11
182.029754
 21
247.572144
 31
0.0
  0
LINE
  5
B5A9
330
B539
100
AcDbEntity
  8
1
  6
Continuous
100
AcDbLine
 10
196.831137
 20
177.3417819999998
 30
0.0
 11
196.6729219999998
 21
177.3417819999998
 31
0.0
  0
CIRCLE
  5
B5AA
330
B539
100
AcDbEntity
  8
1
  6
Continuous
100
AcDbCircle
 10
203.459674
 20
175.0917819999999
 30
0.0
 40
7.15
  0
LINE
  5
B5AB
330
B539
100
AcDbEntity
  8
1
  6
Continuous
100
AcDbLine
 10
196.831137
 20
172.8417819999999
 30
0.0
 11
196.6729219999998
 21
172.8417819999999
 31
0.0
  0
LINE
  5
B5AC
330
B539
100
AcDbEntity
  8
1
  6
Continuous
100
AcDbLine
 10
201.209674
 20
168.3050299999999
 30
0.0
 11
201.209674
 21
168.463245
 31
0.0
  0
LINE
  5
B5AD
330
B539
100
AcDbEntity
  8
1
  6
Continuous
100
AcDbLine
 10
202.244137
 20
168.198128
 30
0.0
 11
202.218089
 21
168.050407
 31
0.0
  0
LINE
  5
B5AE
330
B539
100
AcDbEntity
  8
1
  6
Continuous
100
AcDbLine
 10
210.3533279999998
 20
176.307319
 30
0.0
 11
210.501049
 21
176.3333669999999
 31
0.0
  0
LINE
  5
B5AF
330
B539
100
AcDbEntity
  8
1
  6
Continuous
100
AcDbLine
 10
210.246426
 20
177.3417819999998
 30
0.0
 11
210.088211
 21
177.3417819999998
 31
0.0
  0
LINE
  5
B5B0
330
B539
100
AcDbEntity
  8
1
  6
Continuous
100
AcDbLine
 10
205.7096739999999
 20
181.7203189999999
 30
0.0
 11
205.7096739999999
 21
181.8785339999998
 31
0.0
  0
LINE
  5
B5B1
330
B539
100
AcDbEntity
  8
1
  6
Continuous
100
AcDbLine
 10
201.209674
 20
181.7203189999999
 30
0.0
 11
201.209674
 21
181.8785339999998
 31
0.0
  0
ARC
  5
B5B2
330
B539
100
AcDbEntity
  8
1
  6
Continuous
100
AcDbCircle
 10
180.459674
 20
248.091782
 30
0.0
 40
1.0
100
AcDbArc
 50
90.0
 51
180.0
  0
ARC
  5
B5B3
330
B539
100
AcDbEntity
  8
1
  6
Continuous
100
AcDbCircle
 10
180.459674
 20
165.091782
 30
0.0
 40
1.0
100
AcDbArc
 50
180.0
 51
270.0
  0
LINE
  5
B5B4
330
B539
100
AcDbEntity
  8
4
  6
CENTER
100
AcDbLine
 10
190.9596739999998
 20
262.1755209999999
 30
0.0
 11
190.9596739999998
 21
151.0080429999999
 31
0.0
  0
ARC
  5
B5B5
330
B539
100
AcDbEntity
  8
1
  6
Continuous
100
AcDbCircle
 10
211.459674
 20
655.5917820000002
 30
0.0
 40
500.0
100
AcDbArc
 50
266.101988
 51
273.8980119999999
  0
ARC
  5
B5B6
330
B539
100
AcDbEntity
  8
1
  6
Continuous
100
AcDbCircle
 10
245.042131
 20
162.7345829999999
 30
0.0
 40
6.0
100
AcDbArc
 50
273.8980119999999
 51
354.992968
  0
ARC
  5
B5B7
330
B539
100
AcDbEntity
  8
1
  6
Continuous
100
AcDbCircle
 10
-255.5403259999999
 20
206.591782
 30
0.0
 40
508.4999999999998
100
AcDbArc
 50
354.992968
 51
5.007031999999997
  0
ARC
  5
B5B8
330
B539
100
AcDbEntity
  8
1
  6
Continuous
100
AcDbCircle
 10
245.042131
 20
250.4489809999999
 30
0.0
 40
6.0
100
AcDbArc
 50
5.007031999999997
 51
86.101988
  0
ARC
  5
B5B9
330
B539
100
AcDbEntity
  8
1
  6
Continuous
100
AcDbCircle
 10
211.459674
 20
-242.408218
 30
0.0
 40
500.0
100
AcDbArc
 50
86.101988
 51
93.89801199999999
  0
ARC
  5
B5BA
330
B539
100
AcDbEntity
  8
1
  6
Continuous
100
AcDbCircle
 10
177.877217
 20
250.4489809999999
 30
0.0
 40
6.0
100
AcDbArc
 50
93.89801199999999
 51
174.9929679999999
  0
ARC
  5
B5BB
330
B539
100
AcDbEntity
  8
1
  6
Continuous
100
AcDbCircle
 10
678.4596739999998
 20
206.591782
 30
0.0
 40
508.4999999999998
100
AcDbArc
 50
174.9929679999999
 51
185.007032
  0
ARC
  5
B5BC
330
B539
100
AcDbEntity
  8
1
  6
Continuous
100
AcDbCircle
 10
177.877217
 20
162.7345829999999
 30
0.0
 40
6.0
100
AcDbArc
 50
185.007032
 51
266.101988
  0
LINE
  5
B5BD
330
B539
100
AcDbEntity
  8
1
  6
Continuous
100
AcDbLine
 10
179.459674
 20
163.5917819999999
 30
0.0
 11
239.847401
 21
163.5917819999999
 31
0.0
  0
ARC
  5
B5BE
330
B539
100
AcDbEntity
  8
1
  6
Continuous
100
AcDbCircle
 10
239.847401
 20
166.5917819999999
 30
0.0
 40
3.0
100
AcDbArc
 50
270.0
 51
355.3836769999999
  0
ARC
  5
B5BF
330
B539
100
AcDbEntity
  8
1
  6
Continuous
100
AcDbCircle
 10
-255.5403259999999
 20
206.591782
 30
0.0
 40
500.0
100
AcDbArc
 50
355.3836769999999
 51
4.616323
  0
ARC
  5
B5C0
330
B539
100
AcDbEntity
  8
1
  6
Continuous
100
AcDbCircle
 10
239.847401
 20
246.591782
 30
0.0
 40
3.0
100
AcDbArc
 50
4.616323
 51
90.0
  0
LINE
  5
B5C1
330
B539
100
AcDbEntity
  8
1
  6
Continuous
100
AcDbLine
 10
179.459674
 20
249.5917819999998
 30
0.0
 11
239.847401
 21
249.5917819999998
 31
0.0
  0
ARC
  5
B5C2
330
B539
100
AcDbEntity
  8
1
  6
Continuous
100
AcDbCircle
 10
179.459674
 20
249.0917819999999
 30
0.0
 40
0.5
100
AcDbArc
 50
90.0
 51
180.0
  0
LINE
  5
B5C3
330
B539
100
AcDbEntity
  8
1
  6
Continuous
100
AcDbLine
 10
178.959674
 20
164.091782
 30
0.0
 11
178.959674
 21
249.0917819999999
 31
0.0
  0
ARC
  5
B5C4
330
B539
100
AcDbEntity
  8
1
  6
Continuous
100
AcDbCircle
 10
179.459674
 20
164.091782
 30
0.0
 40
0.5
100
AcDbArc
 50
180.0
 51
270.0
  0
LINE
  5
B5C5
330
B539
100
AcDbEntity
  8
1
  6
Continuous
100
AcDbLine
 10
196.959674
 20
163.5917819999999
 30
0.0
 11
196.959674
 21
164.091782
 31
0.0
  0
LINE
  5
B5C6
330
B539
100
AcDbEntity
  8
1
  6
Continuous
100
AcDbLine
 10
196.959674
 20
249.0917819999999
 30
0.0
 11
196.959674
 21
249.5917819999998
 31
0.0
  0
LINE
  5
B5C7
330
B539
100
AcDbEntity
  8
1
  6
Continuous
100
AcDbLine
 10
184.959674
 20
163.5917819999999
 30
0.0
 11
184.959674
 21
164.091782
 31
0.0
  0
LINE
  5
B5C8
330
B539
100
AcDbEntity
  8
1
  6
Continuous
100
AcDbLine
 10
184.959674
 20
249.0917819999999
 30
0.0
 11
184.959674
 21
249.5917819999998
 31
0.0
  0
LINE
  5
B5C9
330
B539
100
AcDbEntity
  8
1
  6
Continuous
100
AcDbLine
 10
210.959674
 20
163.5917819999999
 30
0.0
 11
210.959674
 21
164.091782
 31
0.0
  0
LINE
  5
B5CA
330
B539
100
AcDbEntity
  8
1
  6
Continuous
100
AcDbLine
 10
210.959674
 20
249.5917819999998
 30
0.0
 11
210.959674
 21
249.0917819999999
 31
0.0
  0
CIRCLE
  5
B5CB
330
B539
100
AcDbEntity
  8
1
  6
Continuous
100
AcDbCircle
 10
203.459674
 20
175.0917819999999
 30
0.0
 40
6.7
  0
CIRCLE
  5
B5CC
330
B539
100
AcDbEntity
  8
1
  6
Continuous
100
AcDbCircle
 10
203.459674
 20
175.0917819999999
 30
0.0
 40
7.0
  0
LINE
  5
B5CD
330
B539
100
AcDbEntity
  8
1
  6
Continuous
100
AcDbLine
 10
198.359674
 20
176.141782
 30
0.0
 11
207.9596739999999
 21
176.141782
 31
0.0
  0
LINE
  5
B5CE
330
B539
100
AcDbEntity
  8
1
  6
Continuous
100
AcDbLine
 10
198.359674
 20
176.141782
 30
0.0
 11
198.359674
 21
174.041782
 31
0.0
  0
LINE
  5
B5CF
330
B539
100
AcDbEntity
  8
1
  6
Continuous
100
AcDbLine
 10
198.359674
 20
174.041782
 30
0.0
 11
207.9596739999999
 21
174.041782
 31
0.0
  0
LINE
  5
B5D0
330
B539
100
AcDbEntity
  8
1
  6
Continuous
100
AcDbLine
 10
199.959674
 20
175.2417819999998
 30
0.0
 11
199.959674
 21
174.041782
 31
0.0
  0
LINE
  5
B5D1
330
B539
100
AcDbEntity
  8
1
  6
Continuous
100
AcDbLine
 10
199.959674
 20
175.2417819999998
 30
0.0
 11
201.4596739999999
 21
175.2417819999998
 31
0.0
  0
LINE
  5
B5D2
330
B539
100
AcDbEntity
  8
1
  6
Continuous
100
AcDbLine
 10
201.4596739999999
 20
176.141782
 30
0.0
 11
201.4596739999999
 21
175.2417819999998
 31
0.0
  0
LINE
  5
B5D3
330
B539
100
AcDbEntity
  8
1
  6
Continuous
100
AcDbLine
 10
204.459674
 20
176.141782
 30
0.0
 11
204.459674
 21
175.3417819999999
 31
0.0
  0
LINE
  5
B5D4
330
B539
100
AcDbEntity
  8
1
  6
Continuous
100
AcDbLine
 10
205.459674
 20
176.141782
 30
0.0
 11
205.459674
 21
175.3417819999999
 31
0.0
  0
LINE
  5
B5D5
330
B539
100
AcDbEntity
  8
1
  6
Continuous
100
AcDbLine
 10
204.459674
 20
175.3417819999999
 30
0.0
 11
205.459674
 21
175.3417819999999
 31
0.0
  0
LINE
  5
B5D6
330
B539
100
AcDbEntity
  8
1
  6
Continuous
100
AcDbLine
 10
202.459674
 20
174.841782
 30
0.0
 11
203.459674
 21
174.841782
 31
0.0
  0
LINE
  5
B5D7
330
B539
100
AcDbEntity
  8
1
  6
Continuous
100
AcDbLine
 10
202.459674
 20
174.841782
 30
0.0
 11
202.459674
 21
174.041782
 31
0.0
  0
LINE
  5
B5D8
330
B539
100
AcDbEntity
  8
1
  6
Continuous
100
AcDbLine
 10
203.459674
 20
174.841782
 30
0.0
 11
203.459674
 21
174.041782
 31
0.0
  0
LINE
  5
B5D9
330
B539
100
AcDbEntity
  8
1
  6
Continuous
100
AcDbLine
 10
206.359674
 20
176.141782
 30
0.0
 11
206.359674
 21
174.041782
 31
0.0
  0
LINE
  5
B5DA
330
B539
100
AcDbEntity
  8
1
  6
Continuous
100
AcDbLine
 10
207.9596739999999
 20
176.141782
 30
0.0
 11
207.9596739999999
 21
174.041782
 31
0.0
  0
LINE
  5
B5DB
330
B539
100
AcDbEntity
  8
1
  6
Continuous
100
AcDbLine
 10
154.959674
 20
41.0
 30
0.0
 11
237.459674
 21
41.0
 31
0.0
  0
LINE
  5
B5DC
330
B539
100
AcDbEntity
  8
1
  6
Continuous
100
AcDbLine
 10
154.959674
 20
43.0
 30
0.0
 11
237.459674
 21
43.0
 31
0.0
  0
LINE
  5
B5DD
330
B539
100
AcDbEntity
  8
1
  6
Continuous
100
AcDbLine
 10
154.959674
 20
62.0
 30
0.0
 11
154.959674
 21
43.0
 31
0.0
  0
ARC
  5
B5DE
330
B539
100
AcDbEntity
  8
1
  6
Continuous
100
AcDbCircle
 10
154.959674
 20
43.0
 30
0.0
 40
2.0
100
AcDbArc
 50
180.0
 51
270.0
  0
LINE
  5
B5DF
330
B539
100
AcDbEntity
  8
1
  6
Continuous
100
AcDbLine
 10
152.959674
 20
58.0
 30
0.0
 11
154.959674
 21
58.0
 31
0.0
  0
LINE
  5
B5E0
330
B539
100
AcDbEntity
  8
1
  6
Continuous
100
AcDbLine
 10
237.459674
 20
43.0
 30
0.0
 11
237.459674
 21
41.0
 31
0.0
  0
LINE
  5
B5E1
330
B539
100
AcDbEntity
  8
1
  6
Continuous
100
AcDbLine
 10
155.959674
 20
47.4
 30
0.0
 11
156.959674
 21
47.4
 31
0.0
  0
LINE
  5
B5E2
330
B539
100
AcDbEntity
  8
1
  6
Continuous
100
AcDbLine
 10
155.959674
 20
54.6
 30
0.0
 11
156.959674
 21
54.6
 31
0.0
  0
LINE
  5
B5E3
330
B539
100
AcDbEntity
  8
1
  6
Continuous
100
AcDbLine
 10
152.959674
 20
58.0
 30
0.0
 11
152.959674
 21
43.0
 31
0.0
  0
ARC
  5
B5E4
330
B539
100
AcDbEntity
  8
1
  6
Continuous
100
AcDbCircle
 10
155.959674
 20
55.6
 30
0.0
 40
1.0
100
AcDbArc
 50
180.0
 51
270.0
  0
ARC
  5
B5E5
330
B539
100
AcDbEntity
  8
1
  6
Continuous
100
AcDbCircle
 10
155.959674
 20
46.39999999999999
 30
0.0
 40
1.0
100
AcDbArc
 50
90.0
 51
180.0
  0
LINE
  5
B5E6
330
B539
100
AcDbEntity
  8
1
  6
Continuous
100
AcDbLine
 10
141.959674
 20
62.0
 30
0.0
 11
154.959674
 21
62.0
 31
0.0
  0
LINE
  5
B5E7
330
B539
100
AcDbEntity
  8
1
  6
Continuous
100
AcDbLine
 10
141.959674
 20
62.0
 30
0.0
 11
141.959674
 21
54.5
 31
0.0
  0
LINE
  5
B5E8
330
B539
100
AcDbEntity
  8
1
  6
Continuous
100
AcDbLine
 10
156.959674
 20
62.0
 30
0.0
 11
156.959674
 21
45.0
 31
0.0
  0
LINE
  5
B5E9
330
B539
100
AcDbEntity
  8
1
  6
Continuous
100
AcDbLine
 10
164.9596739999998
 20
55.2
 30
0.0
 11
164.9596739999998
 21
43.0
 31
0.0
  0
LINE
  5
B5EA
330
B539
100
AcDbEntity
  8
1
  6
Continuous
100
AcDbLine
 10
139.9596739999998
 20
62.0
 30
0.0
 11
139.9596739999998
 21
54.5
 31
0.0
  0
LINE
  5
B5EB
330
B539
100
AcDbEntity
  8
1
  6
Continuous
100
AcDbLine
 10
141.959674
 20
64.0
 30
0.0
 11
154.959674
 21
64.0
 31
0.0
  0
ARC
  5
B5EC
330
B539
100
AcDbEntity
  8
1
  6
Continuous
100
AcDbCircle
 10
141.959674
 20
62.0
 30
0.0
 40
2.0
100
AcDbArc
 50
90.0
 51
180.0
  0
ARC
  5
B5ED
330
B539
100
AcDbEntity
  8
1
  6
Continuous
100
AcDbCircle
 10
154.959674
 20
62.0
 30
0.0
 40
2.0
100
AcDbArc
 50
0.0
 51
90.0
  0
LINE
  5
B5EE
330
B539
100
AcDbEntity
  8
1
  6
Continuous
100
AcDbLine
 10
156.959674
 20
55.2
 30
0.0
 11
164.9596739999998
 21
55.2
 31
0.0
  0
LINE
  5
B5EF
330
B539
100
AcDbEntity
  8
1
  6
Continuous
100
AcDbLine
 10
154.959674
 20
45.0
 30
0.0
 11
164.9596739999998
 21
45.0
 31
0.0
  0
LINE
  5
B5F0
330
B539
100
AcDbEntity
  8
1
  6
Continuous
100
AcDbLine
 10
139.9596739999998
 20
54.5
 30
0.0
 11
141.959674
 21
54.5
 31
0.0
  0
ARC
  5
B5F1
330
B539
100
AcDbEntity
  8
1
  6
Continuous
100
AcDbCircle
 10
141.959674
 20
52.0
 30
0.0
 40
1.0
100
AcDbArc
 50
90.0
 51
211.018345
  0
LINE
  5
B5F2
330
B539
100
AcDbEntity
  8
1
  6
Continuous
100
AcDbLine
 10
149.549674
 20
43.0
 30
0.0
 11
152.959674
 21
43.0
 31
0.0
  0
LINE
  5
B5F3
330
B539
100
AcDbEntity
  8
1
  6
Continuous
100
AcDbLine
 10
201.9596739999999
 20
45.49999999999999
 30
0.0
 11
213.9596739999999
 21
45.49999999999999
 31
0.0
  0
LINE
  5
B5F4
330
B539
100
AcDbEntity
  8
1
  6
Continuous
100
AcDbLine
 10
201.9596739999999
 20
50.5
 30
0.0
 11
212.5518899999999
 21
50.5
 31
0.0
  0
LINE
  5
B5F5
330
B539
100
AcDbEntity
  8
1
  6
Continuous
100
AcDbLine
 10
141.959674
 20
53.0
 30
0.0
 11
152.959674
 21
53.0
 31
0.0
  0
LINE
  5
B5F6
330
B539
100
AcDbEntity
  8
1
  6
Continuous
100
AcDbLine
 10
164.9596739999998
 20
53.0
 30
0.0
 11
176.959674
 21
53.0
 31
0.0
  0
LINE
  5
B5F7
330
B539
100
AcDbEntity
  8
1
  6
Continuous
100
AcDbLine
 10
176.959674
 20
68.0
 30
0.0
 11
176.959674
 21
43.0
 31
0.0
  0
LINE
  5
B5F8
330
B539
100
AcDbEntity
  8
1
  6
Continuous
100
AcDbLine
 10
169.959674
 20
72.069011
 30
0.0
 11
169.959674
 21
68.0
 31
0.0
  0
LINE
  5
B5F9
330
B539
100
AcDbEntity
  8
1
  6
Continuous
100
AcDbLine
 10
169.959674
 20
70.0
 30
0.0
 11
252.9596740000001
 21
70.0
 31
0.0
  0
ARC
  5
B5FA
330
B539
100
AcDbEntity
  8
1
  6
Continuous
100
AcDbCircle
 10
170.959674
 20
72.069011
 30
0.0
 40
1.0
100
AcDbArc
 50
94.04718499999999
 51
180.0
  0
ARC
  5
B5FB
330
B539
100
AcDbEntity
  8
1
  6
Continuous
100
AcDbCircle
 10
211.459674
 20
-500.333333
 30
0.0
 40
574.833333
100
AcDbArc
 50
85.95281500000002
 51
94.04718499999999
  0
LINE
  5
B5FC
330
B539
100
AcDbEntity
  8
4
  6
CENTER
100
AcDbLine
 10
190.9596739999998
 20
72.0
 30
0.0
 11
190.9596739999998
 21
61.0
 31
0.0
  0
LINE
  5
B5FD
330
B539
100
AcDbEntity
  8
4
  6
CENTER
100
AcDbLine
 10
196.459674
 20
66.5
 30
0.0
 11
185.459674
 21
66.5
 31
0.0
  0
ARC
  5
B5FE
330
B539
100
AcDbEntity
  8
1
  6
Continuous
100
AcDbCircle
 10
229.459674
 20
70.2
 30
0.0
 40
17.0
100
AcDbArc
 50
270.0
 51
352.5643979999999
  0
LINE
  5
B5FF
330
B539
100
AcDbEntity
  8
1
  6
Continuous
100
AcDbLine
 10
252.9596740000001
 20
72.069011
 30
0.0
 11
252.9596740000001
 21
68.0
 31
0.0
  0
ARC
  5
B600
330
B539
100
AcDbEntity
  8
1
  6
Continuous
100
AcDbCircle
 10
251.959674
 20
72.069011
 30
0.0
 40
1.0
100
AcDbArc
 50
0.0
 51
85.95281500000002
  0
LINE
  5
B601
330
B539
100
AcDbEntity
  8
1
  6
Continuous
100
AcDbLine
 10
176.959674
 20
53.2
 30
0.0
 11
229.459674
 21
53.2
 31
0.0
  0
LINE
  5
B602
330
B539
100
AcDbEntity
  8
1
  6
Continuous
100
AcDbLine
 10
231.459674
 20
48.5
 30
0.0
 11
244.4596740000001
 21
48.5
 31
0.0
  0
LINE
  5
B603
330
B539
100
AcDbEntity
  8
1
  6
Continuous
100
AcDbLine
 10
236.459674
 20
54.708067
 30
0.0
 11
236.459674
 21
43.0
 31
0.0
  0
LINE
  5
B604
330
B539
100
AcDbEntity
  8
1
  6
Continuous
100
AcDbLine
 10
226.560694
 20
47.2
 30
0.0
 11
226.560694
 21
53.2
 31
0.0
  0
LINE
  5
B605
330
B539
100
AcDbEntity
  8
1
  6
Continuous
100
AcDbLine
 10
223.8586529999998
 20
47.2
 30
0.0
 11
226.560694
 21
47.2
 31
0.0
  0
LINE
  5
B606
330
B539
100
AcDbEntity
  8
1
  6
Continuous
100
AcDbLine
 10
223.8586529999998
 20
47.2
 30
0.0
 11
223.8586529999998
 21
53.2
 31
0.0
  0
LINE
  5
B607
330
B539
100
AcDbEntity
  8
1
  6
Continuous
100
AcDbLine
 10
223.959674
 20
47.2
 30
0.0
 11
223.959674
 21
45.49999999999999
 31
0.0
  0
LINE
  5
B608
330
B539
100
AcDbEntity
  8
1
  6
Continuous
100
AcDbLine
 10
213.9596739999999
 20
45.49999999999999
 30
0.0
 11
223.959674
 21
45.49999999999999
 31
0.0
  0
LINE
  5
B609
330
B539
100
AcDbEntity
  8
1
  6
Continuous
100
AcDbLine
 10
221.959674
 20
45.49999999999999
 30
0.0
 11
221.959674
 21
43.0
 31
0.0
  0
LINE
  5
B60A
330
B539
100
AcDbEntity
  8
1
  6
Continuous
100
AcDbLine
 10
215.959674
 20
45.49999999999999
 30
0.0
 11
215.959674
 21
43.0
 31
0.0
  0
LINE
  5
B60B
330
B539
100
AcDbEntity
  8
1
  6
Continuous
100
AcDbLine
 10
213.9596739999999
 20
49.753563
 30
0.0
 11
213.9596739999999
 21
45.49999999999999
 31
0.0
  0
LINE
  5
B60C
330
B539
100
AcDbEntity
  8
1
  6
Continuous
100
AcDbLine
 10
214.060694
 20
49.7
 30
0.0
 11
214.060694
 21
53.2
 31
0.0
  0
LINE
  5
B60D
330
B539
100
AcDbEntity
  8
1
  6
Continuous
100
AcDbLine
 10
201.9596739999999
 20
51.0
 30
0.0
 11
211.608887
 21
51.0
 31
0.0
  0
LINE
  5
B60E
330
B539
100
AcDbEntity
  8
1
  6
Continuous
100
AcDbLine
 10
201.9596739999999
 20
51.0
 30
0.0
 11
201.9596739999999
 21
43.0
 31
0.0
  0
LINE
  5
B60F
330
B539
100
AcDbEntity
  8
4
  6
CENTER
100
AcDbLine
 10
218.959674
 20
47.130065
 30
0.0
 11
218.959674
 21
38.339899
 31
0.0
  0
LINE
  5
B610
330
B539
100
AcDbEntity
  8
1
  6
Continuous
100
AcDbLine
 10
217.559674
 20
41.0
 30
0.0
 11
220.359674
 21
41.0
 31
0.0
  0
LINE
  5
B611
330
B539
100
AcDbEntity
  8
1
  6
Continuous
100
AcDbLine
 10
225.959674
 20
47.2
 30
0.0
 11
225.959674
 21
43.0
 31
0.0
  0
ARC
  5
B612
330
B539
100
AcDbEntity
  8
1
  6
Continuous
100
AcDbCircle
 10
190.9596739999998
 20
66.5
 30
0.0
 40
2.5
100
AcDbArc
 50
143.130102
 51
36.869898
  0
LINE
  5
B613
330
B539
100
AcDbEntity
  8
1
  6
Continuous
100
AcDbLine
 10
237.459674
 20
43.0
 30
0.0
 11
239.0022029999999
 21
43.0
 31
0.0
  0
LINE
  5
B614
330
B539
100
AcDbEntity
  8
1
  6
Continuous
100
AcDbLine
 10
178.459674
 20
53.2
 30
0.0
 11
178.459674
 21
43.0
 31
0.0
  0
LINE
  5
B615
330
B539
100
AcDbEntity
  8
1
  6
Continuous
100
AcDbLine
 10
188.459674
 20
53.2
 30
0.0
 11
188.459674
 21
43.0
 31
0.0
  0
LINE
  5
B616
330
B539
100
AcDbEntity
  8
1
  6
Continuous
100
AcDbLine
 10
226.4596739999999
 20
47.2
 30
0.0
 11
226.4596739999999
 21
43.0
 31
0.0
  0
LINE
  5
B617
330
B539
100
AcDbEntity
  8
1
  6
Continuous
100
AcDbLine
 10
207.459674
 20
53.2
 30
0.0
 11
214.060694
 21
49.7
 31
0.0
  0
LINE
  5
B618
330
B539
100
AcDbEntity
  8
1
  6
Continuous
100
AcDbLine
 10
239.959674
 20
46.04061399999999
 30
0.0
 11
239.959674
 21
45.28610599999999
 31
0.0
  0
LINE
  5
B619
330
B539
100
AcDbEntity
  8
1
  6
Continuous
100
AcDbLine
 10
239.959674
 20
48.5
 30
0.0
 11
239.959674
 21
48.050594
 31
0.0
  0
LINE
  5
B61A
330
B539
100
AcDbEntity
  8
1
  6
Continuous
100
AcDbLine
 10
236.459674
 20
46.39070499999998
 30
0.0
 11
247.4050549999998
 21
45.295883
 31
0.0
  0
LINE
  5
B61B
330
B539
100
AcDbEntity
  8
1
  6
Continuous
100
AcDbLine
 10
236.6587319999999
 20
48.380774
 30
0.0
 11
236.459674
 21
46.39070499999998
 31
0.0
  0
LINE
  5
B61C
330
B539
100
AcDbEntity
  8
1
  6
Continuous
100
AcDbLine
 10
236.6587319999999
 20
48.380774
 30
0.0
 11
247.604113
 21
47.28595199999999
 31
0.0
  0
ARC
  5
B61D
330
B539
100
AcDbEntity
  8
1
  6
Continuous
100
AcDbCircle
 10
247.604113
 20
47.28595199999999
 30
0.0
 40
2.0
100
AcDbArc
 50
264.287937
 51
354.287937
  0
LINE
  5
B61E
330
B539
100
AcDbEntity
  8
1
  6
Continuous
100
AcDbLine
 10
247.604113
 20
47.28595199999999
 30
0.0
 11
249.345875
 21
64.69905799999999
 31
0.0
  0
LINE
  5
B61F
330
B539
100
AcDbEntity
  8
1
  6
Continuous
100
AcDbLine
 10
249.594183
 20
47.08689399999999
 30
0.0
 11
251.3359439999999
 21
64.5
 31
0.0
  0
ARC
  5
B620
330
B539
100
AcDbEntity
  8
1
  6
Continuous
100
AcDbCircle
 10
251.3359439999999
 20
64.5
 30
0.0
 40
2.0
100
AcDbArc
 50
84.28793699999998
 51
174.2879369999999
  0
LINE
  5
B621
330
B539
100
AcDbEntity
  8
1
  6
Continuous
100
AcDbLine
 10
251.535003
 20
66.49006899999999
 30
0.0
 11
258.997762
 21
65.7436
 31
0.0
  0
LINE
  5
B622
330
B539
100
AcDbEntity
  8
1
  6
Continuous
100
AcDbLine
 10
258.997762
 20
65.7436
 30
0.0
 11
258.7987039999998
 21
63.753531
 31
0.0
  0
LINE
  5
B623
330
B539
100
AcDbEntity
  8
1
  6
Continuous
100
AcDbLine
 10
251.3359439999999
 20
64.5
 30
0.0
 11
258.7987039999998
 21
63.753531
 31
0.0
  0
LINE
  5
B624
330
B539
100
AcDbEntity
  8
1
  6
Continuous
100
AcDbLine
 10
25.0
 20
251.5917819999998
 30
0.0
 11
25.0
 21
161.5917819999999
 31
0.0
  0
LINE
  5
B625
330
B539
100
AcDbEntity
  8
1
  6
Continuous
100
AcDbLine
 10
39.0
 20
251.5917819999998
 30
0.0
 11
25.0
 21
251.5917819999998
 31
0.0
  0
LINE
  5
B626
330
B539
100
AcDbEntity
  8
1
  6
Continuous
100
AcDbLine
 10
39.0
 20
161.5917819999999
 30
0.0
 11
25.0
 21
161.5917819999999
 31
0.0
  0
ARC
  5
B627
330
B539
100
AcDbEntity
  8
1
  6
Continuous
100
AcDbCircle
 10
39.0
 20
164.591782
 30
0.0
 40
3.0
100
AcDbArc
 50
270.0
 51
0.0
  0
ARC
  5
B628
330
B539
100
AcDbEntity
  8
1
  6
Continuous
100
AcDbCircle
 10
39.0
 20
248.591782
 30
0.0
 40
3.0
100
AcDbArc
 50
0.0
 51
90.0
  0
LINE
  5
B629
330
B539
100
AcDbEntity
  8
1
  6
Continuous
100
AcDbLine
 10
48.0
 20
214.591782
 30
0.0
 11
40.49999999999999
 21
214.591782
 31
0.0
  0
LINE
  5
B62A
330
B539
100
AcDbEntity
  8
1
  6
Continuous
100
AcDbLine
 10
48.0
 20
198.591782
 30
0.0
 11
40.49999999999999
 21
198.591782
 31
0.0
  0
LINE
  5
B62B
330
B539
100
AcDbEntity
  8
1
  6
Continuous
100
AcDbLine
 10
38.5
 20
200.591782
 30
0.0
 11
38.5
 21
212.591782
 31
0.0
  0
LINE
  5
B62C
330
B539
100
AcDbEntity
  8
1
  6
Continuous
100
AcDbLine
 10
48.0
 20
198.591782
 30
0.0
 11
48.0
 21
214.591782
 31
0.0
  0
LINE
  5
B62D
330
B539
100
AcDbEntity
  8
1
  6
Continuous
100
AcDbLine
 10
42.0
 20
198.591782
 30
0.0
 11
42.0
 21
164.591782
 31
0.0
  0
LINE
  5
B62E
330
B539
100
AcDbEntity
  8
1
  6
Continuous
100
AcDbLine
 10
42.0
 20
248.591782
 30
0.0
 11
42.0
 21
214.591782
 31
0.0
  0
LINE
  5
B62F
330
B539
100
AcDbEntity
  8
1
  6
Continuous
100
AcDbLine
 10
27.0
 20
199.391782
 30
0.0
 11
27.0
 21
213.7917819999999
 31
0.0
  0
LINE
  5
B630
330
B539
100
AcDbEntity
  8
1
  6
Continuous
100
AcDbLine
 10
36.0
 20
213.5917819999999
 30
0.0
 11
28.0
 21
213.5917819999999
 31
0.0
  0
LINE
  5
B631
330
B539
100
AcDbEntity
  8
1
  6
Continuous
100
AcDbLine
 10
36.0
 20
199.591782
 30
0.0
 11
28.0
 21
199.591782
 31
0.0
  0
LINE
  5
B632
330
B539
100
AcDbEntity
  8
4
  6
CENTER
100
AcDbLine
 10
39.5
 20
236.5917819999999
 30
0.0
 11
30.5
 21
236.5917819999999
 31
0.0
  0
LINE
  5
B633
330
B539
100
AcDbEntity
  8
4
  6
CENTER
100
AcDbLine
 10
35.0
 20
241.0917819999998
 30
0.0
 11
35.0
 21
232.091782
 31
0.0
  0
LINE
  5
B634
330
B539
100
AcDbEntity
  8
4
  6
CENTER
100
AcDbLine
 10
20.0
 20
206.591782
 30
0.0
 11
63.5
 21
206.591782
 31
0.0
  0
LINE
  5
B635
330
B539
100
AcDbEntity
  8
1
  6
Continuous
100
AcDbLine
 10
37.20000000000001
 20
199.391782
 30
0.0
 11
37.20000000000001
 21
213.7917819999999
 31
0.0
  0
CIRCLE
  5
B636
330
B539
100
AcDbEntity
  8
1
  6
Continuous
100
AcDbCircle
 10
35.0
 20
176.591782
 30
0.0
 40
2.066999999999997
  0
CIRCLE
  5
B637
330
B539
100
AcDbEntity
  8
2
  6
Continuous
100
AcDbCircle
 10
35.0
 20
176.591782
 30
0.0
 40
2.5
  0
CIRCLE
  5
B638
330
B539
100
AcDbEntity
  8
1
  6
Continuous
100
AcDbCircle
 10
35.0
 20
236.5917819999999
 30
0.0
 40
2.066999999999997
  0
CIRCLE
  5
B639
330
B539
100
AcDbEntity
  8
2
  6
Continuous
100
AcDbCircle
 10
35.0
 20
236.5917819999999
 30
0.0
 40
2.5
  0
ARC
  5
B63A
330
B539
100
AcDbEntity
  8
1
  6
Continuous
100
AcDbCircle
 10
28.0
 20
212.591782
 30
0.0
 40
1.0
100
AcDbArc
 50
90.0
 51
180.0
  0
ARC
  5
B63B
330
B539
100
AcDbEntity
  8
1
  6
Continuous
100
AcDbCircle
 10
28.0
 20
200.591782
 30
0.0
 40
1.0
100
AcDbArc
 50
180.0
 51
270.0
  0
ARC
  5
B63C
330
B539
100
AcDbEntity
  8
1
  6
Continuous
100
AcDbCircle
 10
40.49999999999999
 20
212.591782
 30
0.0
 40
2.0
100
AcDbArc
 50
90.0
 51
180.0
  0
ARC
  5
B63D
330
B539
100
AcDbEntity
  8
1
  6
Continuous
100
AcDbCircle
 10
40.49999999999999
 20
200.591782
 30
0.0
 40
2.0
100
AcDbArc
 50
180.0
 51
270.0
  0
LINE
  5
B63E
330
B539
100
AcDbEntity
  8
1
  6
Continuous
100
AcDbLine
 10
58.5
 20
156.5917819999999
 30
0.0
 11
58.5
 21
256.5917819999999
 31
0.0
  0
LINE
  5
B63F
330
B539
100
AcDbEntity
  8
1
  6
Continuous
100
AcDbLine
 10
54.0
 20
155.5917819999999
 30
0.0
 11
54.0
 21
257.5917819999999
 31
0.0
  0
LINE
  5
B640
330
B539
100
AcDbEntity
  8
1
  6
Continuous
100
AcDbLine
 10
57.5
 20
257.5917819999999
 30
0.0
 11
52.0
 21
257.5917819999999
 31
0.0
  0
LINE
  5
B641
330
B539
100
AcDbEntity
  8
1
  6
Continuous
100
AcDbLine
 10
57.5
 20
155.5917819999999
 30
0.0
 11
52.0
 21
155.5917819999999
 31
0.0
  0
LINE
  5
B642
330
B539
100
AcDbEntity
  8
1
  6
Continuous
100
AcDbLine
 10
45.2
 20
252.591782
 30
0.0
 11
52.0
 21
252.591782
 31
0.0
  0
LINE
  5
B643
330
B539
100
AcDbEntity
  8
1
  6
Continuous
100
AcDbLine
 10
45.2
 20
160.5917819999999
 30
0.0
 11
52.0
 21
160.5917819999999
 31
0.0
  0
ARC
  5
B644
330
B539
100
AcDbEntity
  8
1
  6
Continuous
100
AcDbCircle
 10
45.2
 20
244.591782
 30
0.0
 40
8.0
100
AcDbArc
 50
90.0
 51
125.1489999999999
  0
ARC
  5
B645
330
B539
100
AcDbEntity
  8
1
  6
Continuous
100
AcDbCircle
 10
45.2
 20
168.591782
 30
0.0
 40
8.0
100
AcDbArc
 50
234.851
 51
270.0
  0
ARC
  5
B646
330
B539
100
AcDbEntity
  8
1
  6
Continuous
100
AcDbCircle
 10
57.5
 20
256.5917819999999
 30
0.0
 40
1.0
100
AcDbArc
 50
0.0
 51
90.0
  0
ARC
  5
B647
330
B539
100
AcDbEntity
  8
1
  6
Continuous
100
AcDbCircle
 10
57.5
 20
156.5917819999999
 30
0.0
 40
1.0
100
AcDbArc
 50
270.0
 51
0.0
  0
ARC
  5
B648
330
B539
100
AcDbEntity
  8
1
  6
Continuous
100
AcDbCircle
 10
190.9596739999998
 20
66.5
 30
0.0
 40
2.549999999999998
100
AcDbArc
 50
143.968121
 51
36.03187899999999
  0
LINE
  5
B649
330
B539
100
AcDbEntity
  8
5
  6
PHANTOM
100
AcDbLine
 10
202.4229679999999
 20
76.787998
 30
0.0
 11
203.708108
 21
74.447733
 31
0.0
  0
LINE
  5
B64A
330
B539
100
AcDbEntity
  8
5
  6
PHANTOM
100
AcDbLine
 10
204.1760329999999
 20
77.75068199999998
 30
0.0
 11
205.9754899999998
 21
74.473838
 31
0.0
  0
LINE
  5
B64B
330
B539
100
AcDbEntity
  8
5
  6
PHANTOM
100
AcDbLine
 10
195.789963
 20
74.28638499999998
 30
0.0
 11
201.0650929999999
 21
77.183188
 31
0.0
  0
LINE
  5
B64C
330
B539
100
AcDbEntity
  8
5
  6
PHANTOM
100
AcDbLine
 10
204.5712239999998
 20
79.10855699999998
 30
0.0
 11
210.2066849999999
 21
82.20323299999998
 31
0.0
  0
ARC
  5
B64D
330
B539
100
AcDbEntity
  8
5
  6
PHANTOM
100
AcDbCircle
 10
201.546435
 20
76.306655
 30
0.0
 40
1.0
100
AcDbArc
 50
28.77309999999999
 51
118.7731
  0
ARC
  5
B64E
330
B539
100
AcDbEntity
  8
5
  6
PHANTOM
100
AcDbCircle
 10
481.7693959999998
 20
-420.480475
 30
0.0
 40
574.833333
100
AcDbArc
 50
118.145981
 51
120.64937
  0
ARC
  5
B64F
330
B539
100
AcDbEntity
  8
5
  6
PHANTOM
100
AcDbCircle
 10
205.0525659999999
 20
78.23202399999998
 30
0.0
 40
1.0
100
AcDbArc
 50
118.7731
 51
208.7731
  0
LINE
  5
B650
330
B539
100
AcDbEntity
  8
4
  6
CENTER
100
AcDbLine
 10
242.4596740000001
 20
49.940443
 30
0.0
 11
242.4596740000001
 21
38.272562
 31
0.0
  0
LINE
  5
B651
330
B539
100
AcDbEntity
  8
4
  6
CENTER
100
AcDbLine
 10
26.251495
 20
349.15087
 30
0.0
 11
66.31383199999999
 21
349.15087
 31
0.0
  0
ARC
  5
B652
330
B539
100
AcDbEntity
  8
1
  6
Continuous
100
AcDbCircle
 10
45.548862
 20
349.15087
 30
0.0
 40
10.1519
100
AcDbArc
 50
144.462
 51
215.5379999999999
  0
ARC
  5
B653
330
B539
100
AcDbEntity
  8
1
  6
Continuous
100
AcDbCircle
 10
32.32776199999999
 20
349.15087
 30
0.0
 40
10.1519
100
AcDbArc
 50
324.4619999999998
 51
35.5377
  0
LINE
  5
B654
330
B539
100
AcDbEntity
  8
1
  6
Continuous
100
AcDbLine
 10
37.67076199999999
 20
339.28487
 30
0.0
 11
46.938262
 21
344.6508699999998
 31
0.0
  0
LINE
  5
B655
330
B539
100
AcDbEntity
  8
1
  6
Continuous
100
AcDbLine
 10
37.169662
 20
340.1508699999999
 30
0.0
 11
46.938262
 21
345.80587
 31
0.0
  0
LINE
  5
B656
330
B539
100
AcDbEntity
  8
1
  6
Continuous
100
AcDbLine
 10
29.93826199999999
 20
345.990629
 30
0.0
 11
34.430662
 21
340.1508699999999
 31
0.0
  0
LINE
  5
B657
330
B539
100
AcDbEntity
  8
1
  6
Continuous
100
AcDbLine
 10
29.119962
 20
345.416079
 30
0.0
 11
33.63806199999999
 21
339.5408699999999
 31
0.0
  0
LINE
  5
B658
330
B539
100
AcDbEntity
  8
1
  6
Continuous
100
AcDbLine
 10
36.779862
 20
344.0358699999999
 30
0.0
 11
40.17226199999997
 21
344.0358699999999
 31
0.0
  0
ARC
  5
B659
330
B539
100
AcDbEntity
  8
1
  6
Continuous
100
AcDbCircle
 10
38.938262
 20
344.42887
 30
0.0
 40
2.0282
100
AcDbArc
 50
215.5379999999999
 51
256.5369999999999
  0
LINE
  5
B65A
330
B539
100
AcDbEntity
  8
1
  6
Continuous
100
AcDbLine
 10
37.169662
 20
339.15087
 30
0.0
 11
34.430662
 21
339.15087
 31
0.0
  0
LINE
  5
B65B
330
B539
100
AcDbEntity
  8
1
  6
Continuous
100
AcDbLine
 10
37.169662
 20
340.1508699999999
 30
0.0
 11
34.430662
 21
340.1508699999999
 31
0.0
  0
ARC
  5
B65C
330
B539
100
AcDbEntity
  8
1
  6
Continuous
100
AcDbCircle
 10
34.430662
 20
340.1508699999999
 30
0.0
 40
1.0
100
AcDbArc
 50
217.5689999999999
 51
270.0
  0
ARC
  5
B65D
330
B539
100
AcDbEntity
  8
1
  6
Continuous
100
AcDbCircle
 10
37.169662
 20
340.1508699999999
 30
0.0
 40
1.0
100
AcDbArc
 50
270.0
 51
300.069
  0
ARC
  5
B65E
330
B539
100
AcDbEntity
  8
1
  6
Continuous
100
AcDbCircle
 10
38.938262
 20
344.42887
 30
0.0
 40
2.0282
100
AcDbArc
 50
256.5369999999999
 51
324.4619999999998
  0
LINE
  5
B65F
330
B539
100
AcDbEntity
  8
1
  6
Continuous
100
AcDbLine
 10
46.938262
 20
353.65087
 30
0.0
 11
51.438262
 21
353.65087
 31
0.0
  0
LINE
  5
B660
330
B539
100
AcDbEntity
  8
1
  6
Continuous
100
AcDbLine
 10
46.938262
 20
344.6508699999998
 30
0.0
 11
51.438262
 21
344.6508699999998
 31
0.0
  0
LINE
  5
B661
330
B539
100
AcDbEntity
  8
1
  6
Continuous
100
AcDbLine
 10
29.14566199999999
 20
352.9208699999998
 30
0.0
 11
33.63806199999999
 21
358.76087
 31
0.0
  0
LINE
  5
B662
330
B539
100
AcDbEntity
  8
1
  6
Continuous
100
AcDbLine
 10
29.93826199999999
 20
352.31087
 30
0.0
 11
34.430662
 21
358.15087
 31
0.0
  0
LINE
  5
B663
330
B539
100
AcDbEntity
  8
1
  6
Continuous
100
AcDbLine
 10
37.67076199999999
 20
359.0158699999999
 30
0.0
 11
46.938262
 21
353.65087
 31
0.0
  0
LINE
  5
B664
330
B539
100
AcDbEntity
  8
1
  6
Continuous
100
AcDbLine
 10
37.169662
 20
358.15087
 30
0.0
 11
46.938262
 21
352.4948699999998
 31
0.0
  0
LINE
  5
B665
330
B539
100
AcDbEntity
  8
1
  6
Continuous
100
AcDbLine
 10
40.390262
 20
344.82287
 30
0.0
 11
37.48636199999999
 21
344.82287
 31
0.0
  0
LINE
  5
B666
330
B539
100
AcDbEntity
  8
1
  6
Continuous
100
AcDbLine
 10
36.997262
 20
345.60987
 30
0.0
 11
40.879362
 21
345.60987
 31
0.0
  0
LINE
  5
B667
330
B539
100
AcDbEntity
  8
1
  6
Continuous
100
AcDbLine
 10
36.89356200000001
 20
346.3968699999999
 30
0.0
 11
40.982962
 21
346.3968699999999
 31
0.0
  0
LINE
  5
B668
330
B539
100
AcDbEntity
  8
1
  6
Continuous
100
AcDbLine
 10
36.25856199999999
 20
347.96987
 30
0.0
 11
41.617962
 21
347.96987
 31
0.0
  0
LINE
  5
B669
330
B539
100
AcDbEntity
  8
1
  6
Continuous
100
AcDbLine
 10
36.19216199999998
 20
348.75687
 30
0.0
 11
41.68446199999999
 21
348.75687
 31
0.0
  0
LINE
  5
B66A
330
B539
100
AcDbEntity
  8
1
  6
Continuous
100
AcDbLine
 10
36.19216199999998
 20
349.5438700000002
 30
0.0
 11
41.68446199999999
 21
349.5438700000002
 31
0.0
  0
LINE
  5
B66B
330
B539
100
AcDbEntity
  8
1
  6
Continuous
100
AcDbLine
 10
36.348362
 20
350.33087
 30
0.0
 11
41.52826199999998
 21
350.33087
 31
0.0
  0
LINE
  5
B66C
330
B539
100
AcDbEntity
  8
1
  6
Continuous
100
AcDbLine
 10
36.351362
 20
351.90487
 30
0.0
 11
41.27846199999999
 21
351.90487
 31
0.0
  0
LINE
  5
B66D
330
B539
100
AcDbEntity
  8
1
  6
Continuous
100
AcDbLine
 10
36.72216199999999
 20
352.6918699999998
 30
0.0
 11
38.544862
 21
352.6918699999998
 31
0.0
  0
LINE
  5
B66E
330
B539
100
AcDbEntity
  8
1
  6
Continuous
100
AcDbLine
 10
38.544862
 20
353.47887
 30
0.0
 11
36.863562
 21
353.47887
 31
0.0
  0
LINE
  5
B66F
330
B539
100
AcDbEntity
  8
1
  6
Continuous
100
AcDbLine
 10
40.410962
 20
353.87987
 30
0.0
 11
37.09316199999999
 21
354.76887
 31
0.0
  0
ARC
  5
B670
330
B539
100
AcDbEntity
  8
1
  6
Continuous
100
AcDbCircle
 10
38.938262
 20
353.87287
 30
0.0
 40
2.0282
100
AcDbArc
 50
45.6988
 51
144.462
  0
LINE
  5
B671
330
B539
100
AcDbEntity
  8
1
  6
Continuous
100
AcDbLine
 10
30.938262
 20
351.65087
 30
0.0
 11
30.938262
 21
346.6508699999998
 31
0.0
  0
LINE
  5
B672
330
B539
100
AcDbEntity
  8
1
  6
Continuous
100
AcDbLine
 10
33.438262
 20
351.65087
 30
0.0
 11
33.438262
 21
346.6508699999998
 31
0.0
  0
LINE
  5
B673
330
B539
100
AcDbEntity
  8
1
  6
Continuous
100
AcDbLine
 10
29.93826199999999
 20
352.31087
 30
0.0
 11
29.93826199999999
 21
345.990629
 31
0.0
  0
ARC
  5
B674
330
B539
100
AcDbEntity
  8
1
  6
Continuous
100
AcDbCircle
 10
36.71656199999999
 20
350.72487
 30
0.0
 40
0.3935
100
AcDbArc
 50
90.0
 51
169.896
  0
LINE
  5
B675
330
B539
100
AcDbEntity
  8
1
  6
Continuous
100
AcDbLine
 10
28.93826199999999
 20
352.31087
 30
0.0
 11
28.93826199999999
 21
345.9908699999999
 31
0.0
  0
ARC
  5
B676
330
B539
100
AcDbEntity
  8
1
  6
Continuous
100
AcDbCircle
 10
32.938262
 20
346.6508699999998
 30
0.0
 40
0.5
100
AcDbArc
 50
270.0
 51
0.0
  0
LINE
  5
B677
330
B539
100
AcDbEntity
  8
1
  6
Continuous
100
AcDbLine
 10
32.938262
 20
346.1508699999998
 30
0.0
 11
31.43826199999999
 21
346.1508699999998
 31
0.0
  0
ARC
  5
B678
330
B539
100
AcDbEntity
  8
1
  6
Continuous
100
AcDbCircle
 10
31.43826199999999
 20
346.6508699999998
 30
0.0
 40
0.5
100
AcDbArc
 50
180.0
 51
270.0
  0
ARC
  5
B679
330
B539
100
AcDbEntity
  8
1
  6
Continuous
100
AcDbCircle
 10
29.93826199999999
 20
345.9908699999999
 30
0.0
 40
1.0
100
AcDbArc
 50
180.0
 51
217.5689999999999
  0
LINE
  5
B67A
330
B539
100
AcDbEntity
  8
1
  6
Continuous
100
AcDbLine
 10
37.99396199999999
 20
347.18387
 30
0.0
 11
36.490862
 21
347.18387
 31
0.0
  0
ARC
  5
B67B
330
B539
100
AcDbEntity
  8
1
  6
Continuous
100
AcDbCircle
 10
37.48636199999999
 20
345.21587
 30
0.0
 40
0.3935
100
AcDbArc
 50
206.014
 51
270.0
  0
ARC
  5
B67C
330
B539
100
AcDbEntity
  8
1
  6
Continuous
100
AcDbCircle
 10
45.548862
 20
349.15087
 30
0.0
 40
9.3649
100
AcDbArc
 50
202.944
 51
206.014
  0
ARC
  5
B67D
330
B539
100
AcDbEntity
  8
1
  6
Continuous
100
AcDbCircle
 10
36.997262
 20
345.5308699999998
 30
0.0
 40
0.0787
100
AcDbArc
 50
90.0
 51
202.944
  0
ARC
  5
B67E
330
B539
100
AcDbEntity
  8
1
  6
Continuous
100
AcDbCircle
 10
36.490862
 20
347.10487
 30
0.0
 40
0.0787
100
AcDbArc
 50
90.0
 51
192.729
  0
ARC
  5
B67F
330
B539
100
AcDbEntity
  8
1
  6
Continuous
100
AcDbCircle
 10
45.548862
 20
349.15087
 30
0.0
 40
9.3649
100
AcDbArc
 50
192.729
 51
193.2679999999999
  0
ARC
  5
B680
330
B539
100
AcDbEntity
  8
1
  6
Continuous
100
AcDbCircle
 10
45.548862
 20
349.15087
 30
0.0
 40
9.3649
100
AcDbArc
 50
193.2679999999999
 51
195.257
  0
ARC
  5
B681
330
B539
100
AcDbEntity
  8
1
  6
Continuous
100
AcDbCircle
 10
36.89356200000001
 20
346.78987
 30
0.0
 40
0.3935
100
AcDbArc
 50
195.257
 51
270.0
  0
ARC
  5
B682
330
B539
100
AcDbEntity
  8
1
  6
Continuous
100
AcDbCircle
 10
45.548862
 20
349.15087
 30
0.0
 40
9.3649
100
AcDbArc
 50
169.896
 51
172.2069999999999
  0
ARC
  5
B683
330
B539
100
AcDbEntity
  8
1
  6
Continuous
100
AcDbCircle
 10
36.348362
 20
350.40987
 30
0.0
 40
0.0787
100
AcDbArc
 50
172.2069999999999
 51
270.0
  0
ARC
  5
B684
330
B539
100
AcDbEntity
  8
1
  6
Continuous
100
AcDbCircle
 10
32.938262
 20
351.65087
 30
0.0
 40
0.5
100
AcDbArc
 50
0.0
 51
90.0
  0
LINE
  5
B685
330
B539
100
AcDbEntity
  8
1
  6
Continuous
100
AcDbLine
 10
32.938262
 20
352.15087
 30
0.0
 11
31.43826199999999
 21
352.15087
 31
0.0
  0
ARC
  5
B686
330
B539
100
AcDbEntity
  8
1
  6
Continuous
100
AcDbCircle
 10
31.43826199999999
 20
351.65087
 30
0.0
 40
0.5
100
AcDbArc
 50
90.0
 51
180.0
  0
ARC
  5
B687
330
B539
100
AcDbEntity
  8
1
  6
Continuous
100
AcDbCircle
 10
29.93826199999999
 20
352.31087
 30
0.0
 40
1.0
100
AcDbArc
 50
142.431
 51
180.0
  0
LINE
  5
B688
330
B539
100
AcDbEntity
  8
1
  6
Continuous
100
AcDbLine
 10
37.99396199999999
 20
351.1178699999998
 30
0.0
 11
36.71656199999999
 21
351.1178699999998
 31
0.0
  0
LINE
  5
B689
330
B539
100
AcDbEntity
  8
1
  6
Continuous
100
AcDbLine
 10
46.938262
 20
345.80587
 30
0.0
 11
46.938262
 21
352.4948699999998
 31
0.0
  0
LINE
  5
B68A
330
B539
100
AcDbEntity
  8
1
  6
Continuous
100
AcDbLine
 10
38.938262
 20
351.1178699999998
 30
0.0
 11
38.938262
 21
350.72487
 31
0.0
  0
ARC
  5
B68B
330
B539
100
AcDbEntity
  8
1
  6
Continuous
100
AcDbCircle
 10
41.160062
 20
350.72487
 30
0.0
 40
0.3935
100
AcDbArc
 50
10.1042
 51
90.0
  0
LINE
  5
B68C
330
B539
100
AcDbEntity
  8
1
  6
Continuous
100
AcDbLine
 10
41.385762
 20
347.18387
 30
0.0
 11
39.88266199999999
 21
347.18387
 31
0.0
  0
LINE
  5
B68D
330
B539
100
AcDbEntity
  8
1
  6
Continuous
100
AcDbLine
 10
38.938262
 20
348.75687
 30
0.0
 11
38.938262
 21
347.96987
 31
0.0
  0
ARC
  5
B68E
330
B539
100
AcDbEntity
  8
1
  6
Continuous
100
AcDbCircle
 10
40.879362
 20
345.5308699999998
 30
0.0
 40
0.0787
100
AcDbArc
 50
337.0559999999999
 51
90.0
  0
ARC
  5
B68F
330
B539
100
AcDbEntity
  8
1
  6
Continuous
100
AcDbCircle
 10
32.32776199999999
 20
349.15087
 30
0.0
 40
9.3649
100
AcDbArc
 50
333.9859999999998
 51
337.0559999999999
  0
ARC
  5
B690
330
B539
100
AcDbEntity
  8
1
  6
Continuous
100
AcDbCircle
 10
32.32776199999999
 20
349.15087
 30
0.0
 40
9.3649
100
AcDbArc
 50
333.9859999999998
 51
334.7709999999999
  0
ARC
  5
B691
330
B539
100
AcDbEntity
  8
1
  6
Continuous
100
AcDbCircle
 10
40.390262
 20
345.21587
 30
0.0
 40
0.3935
100
AcDbArc
 50
270.0
 51
333.9859999999998
  0
ARC
  5
B692
330
B539
100
AcDbEntity
  8
1
  6
Continuous
100
AcDbCircle
 10
40.982962
 20
346.78987
 30
0.0
 40
0.3935
100
AcDbArc
 50
270.0
 51
344.7419999999998
  0
ARC
  5
B693
330
B539
100
AcDbEntity
  8
1
  6
Continuous
100
AcDbCircle
 10
32.32776199999999
 20
349.15087
 30
0.0
 40
9.3649
100
AcDbArc
 50
344.7419999999998
 51
344.794
  0
ARC
  5
B694
330
B539
100
AcDbEntity
  8
1
  6
Continuous
100
AcDbCircle
 10
32.32776199999999
 20
349.15087
 30
0.0
 40
9.3649
100
AcDbArc
 50
344.794
 51
347.2709999999998
  0
ARC
  5
B695
330
B539
100
AcDbEntity
  8
1
  6
Continuous
100
AcDbCircle
 10
41.385762
 20
347.10487
 30
0.0
 40
0.0787
100
AcDbArc
 50
347.2709999999998
 51
90.0
  0
ARC
  5
B696
330
B539
100
AcDbEntity
  8
1
  6
Continuous
100
AcDbCircle
 10
41.52826199999998
 20
350.40987
 30
0.0
 40
0.0787
100
AcDbArc
 50
270.0
 51
7.792900000000001
  0
ARC
  5
B697
330
B539
100
AcDbEntity
  8
1
  6
Continuous
100
AcDbCircle
 10
32.32776199999999
 20
349.15087
 30
0.0
 40
9.3649
100
AcDbArc
 50
7.792900000000001
 51
10.1042
  0
LINE
  5
B698
330
B539
100
AcDbEntity
  8
1
  6
Continuous
100
AcDbLine
 10
41.160062
 20
351.1178699999998
 30
0.0
 11
38.938262
 21
351.1178699999998
 31
0.0
  0
LINE
  5
B699
330
B539
100
AcDbEntity
  8
1
  6
Continuous
100
AcDbLine
 10
38.938262
 20
353.08587
 30
0.0
 11
40.825962
 21
353.08587
 31
0.0
  0
LINE
  5
B69A
330
B539
100
AcDbEntity
  8
1
  6
Continuous
100
AcDbLine
 10
38.938262
 20
355.90087
 30
0.0
 11
38.938262
 21
354.27487
 31
0.0
  0
ARC
  5
B69B
330
B539
100
AcDbEntity
  8
1
  6
Continuous
100
AcDbCircle
 10
38.938262
 20
353.87287
 30
0.0
 40
2.0282
100
AcDbArc
 50
35.5377
 51
45.6988
  0
ARC
  5
B69C
330
B539
100
AcDbEntity
  8
1
  6
Continuous
100
AcDbCircle
 10
38.544862
 20
353.08587
 30
0.0
 40
0.3935
100
AcDbArc
 50
270.0
 51
90.0
  0
LINE
  5
B69D
330
B539
100
AcDbEntity
  8
1
  6
Continuous
100
AcDbLine
 10
37.169662
 20
359.1508699999998
 30
0.0
 11
34.430662
 21
359.1508699999998
 31
0.0
  0
LINE
  5
B69E
330
B539
100
AcDbEntity
  8
1
  6
Continuous
100
AcDbLine
 10
37.169662
 20
358.15087
 30
0.0
 11
34.430662
 21
358.15087
 31
0.0
  0
ARC
  5
B69F
330
B539
100
AcDbEntity
  8
1
  6
Continuous
100
AcDbCircle
 10
34.430662
 20
358.15087
 30
0.0
 40
1.0
100
AcDbArc
 50
90.0
 51
142.431
  0
ARC
  5
B6A0
330
B539
100
AcDbEntity
  8
1
  6
Continuous
100
AcDbCircle
 10
37.169662
 20
358.15087
 30
0.0
 40
1.0
100
AcDbArc
 50
59.9314
 51
90.0
  0
LINE
  5
B6A1
330
B539
100
AcDbEntity
  8
1
  6
Continuous
100
AcDbLine
 10
51.938262
 20
352.15087
 30
0.0
 11
60.352562
 21
352.15087
 31
0.0
  0
LINE
  5
B6A2
330
B539
100
AcDbEntity
  8
1
  6
Continuous
100
AcDbLine
 10
51.938262
 20
346.1508699999998
 30
0.0
 11
60.352562
 21
346.1508699999998
 31
0.0
  0
LINE
  5
B6A3
330
B539
100
AcDbEntity
  8
1
  6
Continuous
100
AcDbLine
 10
51.938262
 20
345.15087
 30
0.0
 11
51.938262
 21
346.1508699999998
 31
0.0
  0
ARC
  5
B6A4
330
B539
100
AcDbEntity
  8
1
  6
Continuous
100
AcDbCircle
 10
51.438262
 20
345.15087
 30
0.0
 40
0.5
100
AcDbArc
 50
270.0
 51
0.0
  0
LINE
  5
B6A5
330
B539
100
AcDbEntity
  8
1
  6
Continuous
100
AcDbLine
 10
51.938262
 20
353.1508699999998
 30
0.0
 11
51.938262
 21
352.15087
 31
0.0
  0
ARC
  5
B6A6
330
B539
100
AcDbEntity
  8
1
  6
Continuous
100
AcDbCircle
 10
51.438262
 20
353.1508699999998
 30
0.0
 40
0.5
100
AcDbArc
 50
0.0
 51
90.0
  0
LINE
  5
B6A7
330
B539
100
AcDbEntity
  8
1
  6
Continuous
100
AcDbLine
 10
60.352562
 20
352.15087
 30
0.0
 11
62.645362
 21
349.8578699999998
 31
0.0
  0
LINE
  5
B6A8
330
B539
100
AcDbEntity
  8
1
  6
Continuous
100
AcDbLine
 10
60.352562
 20
346.1508699999998
 30
0.0
 11
62.645362
 21
348.44387
 31
0.0
  0
ARC
  5
B6A9
330
B539
100
AcDbEntity
  8
1
  6
Continuous
100
AcDbCircle
 10
61.938262
 20
349.15087
 30
0.0
 40
1.0
100
AcDbArc
 50
315.0
 51
45.0
  0
LINE
  5
B6AA
330
B539
100
AcDbEntity
  8
4
  6
CENTER
100
AcDbLine
 10
39.5
 20
176.591782
 30
0.0
 11
30.5
 21
176.591782
 31
0.0
  0
LINE
  5
B6AB
330
B539
100
AcDbEntity
  8
4
  6
CENTER
100
AcDbLine
 10
35.0
 20
181.091782
 30
0.0
 11
35.0
 21
172.0917819999999
 31
0.0
  0
LINE
  5
B6AC
330
B539
100
AcDbEntity
  8
4
  6
CENTER
100
AcDbLine
 10
159.959674
 20
236.5917819999999
 30
0.0
 11
149.959674
 21
236.5917819999999
 31
0.0
  0
LINE
  5
B6AD
330
B539
100
AcDbEntity
  8
4
  6
CENTER
100
AcDbLine
 10
159.959674
 20
176.591782
 30
0.0
 11
149.959674
 21
176.591782
 31
0.0
  0
LINE
  5
B6AE
330
B539
100
AcDbEntity
  8
4
  6
CENTER
100
AcDbLine
 10
213.609674
 20
175.0917819999999
 30
0.0
 11
193.309674
 21
175.0917819999999
 31
0.0
  0
LINE
  5
B6AF
330
B539
100
AcDbEntity
  8
4
  6
CENTER
100
AcDbLine
 10
203.459674
 20
185.241782
 30
0.0
 11
203.459674
 21
164.941782
 31
0.0
  0
LINE
  5
B6B0
330
B539
100
AcDbEntity
  8
4
  6
CENTER
100
AcDbLine
 10
203.459674
 20
77.444618
 30
0.0
 11
203.459674
 21
67.0
 31
0.0
  0
LINE
  5
B6B1
330
B539
100
AcDbEntity
  8
4
  6
CENTER
100
AcDbLine
 10
149.959674
 20
51.0
 30
0.0
 11
159.959674
 21
51.0
 31
0.0
  0
LINE
  5
B6B2
330
B539
100
AcDbEntity
  8
4
  6
CENTER
100
AcDbLine
 10
22.0
 20
224.0917819999999
 30
0.0
 11
28.0
 21
224.0917819999999
 31
0.0
  0
LINE
  5
B6B3
330
B539
100
AcDbEntity
  8
4
  6
CENTER
100
AcDbLine
 10
22.0
 20
189.091782
 30
0.0
 11
28.0
 21
189.091782
 31
0.0
  0
LINE
  5
B6B4
330
B539
100
AcDbEntity
  8
4
  6
CENTER
100
AcDbLine
 10
22.0
 20
236.5917819999999
 30
0.0
 11
28.0
 21
236.5917819999999
 31
0.0
  0
LINE
  5
B6B5
330
B539
100
AcDbEntity
  8
4
  6
CENTER
100
AcDbLine
 10
22.0
 20
176.591782
 30
0.0
 11
28.0
 21
176.591782
 31
0.0
  0
LINE
  5
B6B6
330
B539
100
AcDbEntity
  8
4
  6
CENTER
100
AcDbLine
 10
183.459674
 20
46.0
 30
0.0
 11
183.459674
 21
38.0
 31
0.0
  0
LINE
  5
B6B7
330
B539
100
AcDbEntity
  8
4
  6
CENTER
100
AcDbLine
 10
231.459674
 20
46.0
 30
0.0
 11
231.459674
 21
38.0
 31
0.0
  0
LINE
  5
B6B8
330
B539
100
AcDbEntity
  8
1
  6
Continuous
100
AcDbLine
 10
243.4596739999999
 20
43.48610599999999
 30
0.0
 11
242.4596740000001
 21
44.486106
 31
0.0
  0
LINE
  5
B6B9
330
B539
100
AcDbEntity
  8
1
  6
Continuous
100
AcDbLine
 10
242.4596740000001
 20
43.48610599999999
 30
0.0
 11
241.4596739999999
 21
44.486106
 31
0.0
  0
LINE
  5
B6BA
330
B539
100
AcDbEntity
  8
2
  6
Continuous
100
AcDbLine
 10
244.0806739999999
 20
48.5
 30
0.0
 11
244.0806739999999
 21
47.63838699999999
 31
0.0
  0
LINE
  5
B6BB
330
B539
100
AcDbEntity
  8
2
  6
Continuous
100
AcDbLine
 10
240.9225479999999
 20
48.5
 30
0.0
 11
240.9225479999999
 21
47.95428199999999
 31
0.0
  0
LINE
  5
B6BC
330
B539
100
AcDbEntity
  8
2
  6
Continuous
100
AcDbLine
 10
244.0806739999999
 20
45.628407
 30
0.0
 11
244.0806739999999
 21
45.28610599999999
 31
0.0
  0
LINE
  5
B6BD
330
B539
100
AcDbEntity
  8
2
  6
Continuous
100
AcDbLine
 10
240.838674
 20
45.95269099999998
 30
0.0
 11
240.838674
 21
45.28610599999999
 31
0.0
  0
LINE
  5
B6BE
330
B539
100
AcDbEntity
  8
1
  6
Continuous
100
AcDbLine
 10
246.4596740000001
 20
68.0
 30
0.0
 11
246.4596740000001
 21
50.5
 31
0.0
  0
ARC
  5
B6BF
330
B539
100
AcDbEntity
  8
1
  6
Continuous
100
AcDbCircle
 10
244.4596740000001
 20
50.5
 30
0.0
 40
2.0
100
AcDbArc
 50
270.0
 51
0.0
  0
ARC
  5
B6C0
330
B539
100
AcDbEntity
  8
1
  6
Continuous
100
AcDbCircle
 10
162.52773
 20
64.3675
 30
0.0
 40
25.0
100
AcDbArc
 50
211.018345
 51
238.7266069999999
  0
ARC
  5
B6C1
330
B539
100
AcDbEntity
  8
5
  6
PHANTOM
100
AcDbCircle
 10
151.959674
 20
52.0
 30
0.0
 40
1.0
100
AcDbArc
 50
90.0
 51
211.018345
  0
ARC
  5
B6C2
330
B539
100
AcDbEntity
  8
5
  6
PHANTOM
100
AcDbCircle
 10
172.5277299999999
 20
64.3675
 30
0.0
 40
25.0
100
AcDbArc
 50
211.018345
 51
238.7266069999999
  0
LINE
  5
B6C3
330
B539
100
AcDbEntity
  8
1
  6
Continuous
100
AcDbLine
 10
251.3359439999999
 20
348.6835639999998
 30
0.0
 11
258.7987039999998
 21
349.4300329999999
 31
0.0
  0
LINE
  5
B6C4
330
B539
100
AcDbEntity
  8
1
  6
Continuous
100
AcDbLine
 10
251.535003
 20
346.6934949999999
 30
0.0
 11
258.997762
 21
347.4399639999999
 31
0.0
  0
ARC
  5
B6C5
330
B539
100
AcDbEntity
  8
5
  6
PHANTOM
100
AcDbCircle
 10
481.7693959999998
 20
833.6640389999999
 30
0.0
 40
574.833333
100
AcDbArc
 50
239.35063
 51
241.854019
  0
ARC
  5
B6C6
330
B539
100
AcDbEntity
  8
1
  6
Continuous
100
AcDbCircle
 10
190.9596739999998
 20
346.6835639999998
 30
0.0
 40
2.549999999999998
100
AcDbArc
 50
323.968121
 51
216.0318789999998
  0
ARC
  5
B6C7
330
B539
100
AcDbEntity
  8
1
  6
Continuous
100
AcDbCircle
 10
190.9596739999998
 20
346.6835639999998
 30
0.0
 40
2.5
100
AcDbArc
 50
323.130102
 51
216.869898
  0
LINE
  5
B6C8
330
B539
100
AcDbEntity
  8
1
  6
Continuous
100
AcDbLine
 10
176.959674
 20
359.983564
 30
0.0
 11
229.459674
 21
359.983564
 31
0.0
  0
LINE
  5
B6C9
330
B539
100
AcDbEntity
  8
4
  6
CENTER
100
AcDbLine
 10
196.459674
 20
346.6835639999998
 30
0.0
 11
185.459674
 21
346.6835639999998
 31
0.0
  0
ARC
  5
B6CA
330
B539
100
AcDbEntity
  8
1
  6
Continuous
100
AcDbCircle
 10
211.459674
 20
913.516897
 30
0.0
 40
574.833333
100
AcDbArc
 50
265.9528149999998
 51
274.047185
  0
LINE
  5
B6CB
330
B539
100
AcDbEntity
  8
1
  6
Continuous
100
AcDbLine
 10
169.959674
 20
343.183564
 30
0.0
 11
252.9596740000001
 21
343.183564
 31
0.0
  0
LINE
  5
B6CC
330
B539
100
AcDbEntity
  8
1
  6
Continuous
100
AcDbLine
 10
154.959674
 20
370.183564
 30
0.0
 11
237.459674
 21
370.183564
 31
0.0
  0
LINE
  5
B6CD
330
B539
100
AcDbEntity
  8
1
  6
Continuous
100
AcDbLine
 10
154.959674
 20
372.183564
 30
0.0
 11
237.459674
 21
372.183564
 31
0.0
  0
LINE
  5
B6CE
330
B539
100
AcDbEntity
  8
1
  6
Continuous
100
AcDbLine
 10
169.959674
 20
345.183564
 30
0.0
 11
252.9596740000001
 21
345.183564
 31
0.0
  0
ARC
  5
B6CF
330
B539
100
AcDbEntity
  8
5
  6
PHANTOM
100
AcDbCircle
 10
172.5277299999999
 20
348.8160639999999
 30
0.0
 40
25.0
100
AcDbArc
 50
121.2733929999999
 51
148.981655
  0
ARC
  5
B6D0
330
B539
100
AcDbEntity
  8
1
  6
Continuous
100
AcDbCircle
 10
162.52773
 20
348.8160639999999
 30
0.0
 40
25.0
100
AcDbArc
 50
121.2733929999999
 51
148.981655
  0
LINE
  5
B6D1
330
B539
100
AcDbEntity
  8
4
  6
CENTER
100
AcDbLine
 10
183.459674
 20
367.1835639999998
 30
0.0
 11
183.459674
 21
375.1835639999998
 31
0.0
  0
LINE
  5
B6D2
330
B539
100
AcDbEntity
  8
1
  6
Continuous
100
AcDbLine
 10
188.459674
 20
359.983564
 30
0.0
 11
188.459674
 21
370.183564
 31
0.0
  0
LINE
  5
B6D3
330
B539
100
AcDbEntity
  8
1
  6
Continuous
100
AcDbLine
 10
178.459674
 20
359.983564
 30
0.0
 11
178.459674
 21
370.183564
 31
0.0
  0
LINE
  5
B6D4
330
B539
100
AcDbEntity
  8
1
  6
Continuous
100
AcDbLine
 10
176.959674
 20
345.183564
 30
0.0
 11
176.959674
 21
370.183564
 31
0.0
  0
LINE
  5
B6D5
330
B539
100
AcDbEntity
  8
1
  6
Continuous
100
AcDbLine
 10
164.9596739999998
 20
357.983564
 30
0.0
 11
164.9596739999998
 21
370.183564
 31
0.0
  0
LINE
  5
B6D6
330
B539
100
AcDbEntity
  8
1
  6
Continuous
100
AcDbLine
 10
152.959674
 20
355.183564
 30
0.0
 11
152.959674
 21
370.183564
 31
0.0
  0
LINE
  5
B6D7
330
B539
100
AcDbEntity
  8
1
  6
Continuous
100
AcDbLine
 10
154.959674
 20
351.183564
 30
0.0
 11
154.959674
 21
370.183564
 31
0.0
  0
LINE
  5
B6D8
330
B539
100
AcDbEntity
  8
1
  6
Continuous
100
AcDbLine
 10
149.549674
 20
370.183564
 30
0.0
 11
152.959674
 21
370.183564
 31
0.0
  0
ARC
  5
B6D9
330
B539
100
AcDbEntity
  8
1
  6
Continuous
100
AcDbCircle
 10
154.959674
 20
370.183564
 30
0.0
 40
2.0
100
AcDbArc
 50
90.0
 51
180.0
  0
LINE
  5
B6DA
330
B539
100
AcDbEntity
  8
4
  6
CENTER
100
AcDbLine
 10
149.959674
 20
362.183564
 30
0.0
 11
159.959674
 21
362.183564
 31
0.0
  0
LINE
  5
B6DB
330
B539
100
AcDbEntity
  8
1
  6
Continuous
100
AcDbLine
 10
154.959674
 20
368.183564
 30
0.0
 11
164.9596739999998
 21
368.183564
 31
0.0
  0
LINE
  5
B6DC
330
B539
100
AcDbEntity
  8
1
  6
Continuous
100
AcDbLine
 10
156.959674
 20
357.983564
 30
0.0
 11
164.9596739999998
 21
357.983564
 31
0.0
  0
LINE
  5
B6DD
330
B539
100
AcDbEntity
  8
1
  6
Continuous
100
AcDbLine
 10
141.959674
 20
360.183564
 30
0.0
 11
152.959674
 21
360.183564
 31
0.0
  0
LINE
  5
B6DE
330
B539
100
AcDbEntity
  8
1
  6
Continuous
100
AcDbLine
 10
141.959674
 20
349.183564
 30
0.0
 11
154.959674
 21
349.183564
 31
0.0
  0
LINE
  5
B6DF
330
B539
100
AcDbEntity
  8
1
  6
Continuous
100
AcDbLine
 10
141.959674
 20
351.183564
 30
0.0
 11
154.959674
 21
351.183564
 31
0.0
  0
ARC
  5
B6E0
330
B539
100
AcDbEntity
  8
1
  6
Continuous
100
AcDbCircle
 10
141.959674
 20
361.1835639999998
 30
0.0
 40
1.0
100
AcDbArc
 50
148.981655
 51
270.0
  0
LINE
  5
B6E1
330
B539
100
AcDbEntity
  8
1
  6
Continuous
100
AcDbLine
 10
139.9596739999998
 20
358.6835639999998
 30
0.0
 11
141.959674
 21
358.6835639999998
 31
0.0
  0
ARC
  5
B6E2
330
B539
100
AcDbEntity
  8
1
  6
Continuous
100
AcDbCircle
 10
141.959674
 20
351.183564
 30
0.0
 40
2.0
100
AcDbArc
 50
180.0
 51
270.0
  0
LINE
  5
B6E3
330
B539
100
AcDbEntity
  8
1
  6
Continuous
100
AcDbLine
 10
139.9596739999998
 20
351.183564
 30
0.0
 11
139.9596739999998
 21
358.6835639999998
 31
0.0
  0
LINE
  5
B6E4
330
B539
100
AcDbEntity
  8
1
  6
Continuous
100
AcDbLine
 10
141.959674
 20
351.183564
 30
0.0
 11
141.959674
 21
358.6835639999998
 31
0.0
  0
ARC
  5
B6E5
330
B539
100
AcDbEntity
  8
5
  6
PHANTOM
100
AcDbCircle
 10
151.959674
 20
361.1835639999998
 30
0.0
 40
1.0
100
AcDbArc
 50
148.981655
 51
270.0
  0
ARC
  5
B6E6
330
B539
100
AcDbEntity
  8
1
  6
Continuous
100
AcDbCircle
 10
154.959674
 20
351.183564
 30
0.0
 40
2.0
100
AcDbArc
 50
270.0
 51
0.0
  0
LINE
  5
B6E7
330
B539
100
AcDbEntity
  8
1
  6
Continuous
100
AcDbLine
 10
156.959674
 20
351.183564
 30
0.0
 11
156.959674
 21
368.183564
 31
0.0
  0
ARC
  5
B6E8
330
B539
100
AcDbEntity
  8
1
  6
Continuous
100
AcDbCircle
 10
155.959674
 20
366.783564
 30
0.0
 40
1.0
100
AcDbArc
 50
180.0
 51
270.0
  0
ARC
  5
B6E9
330
B539
100
AcDbEntity
  8
1
  6
Continuous
100
AcDbCircle
 10
155.959674
 20
357.583564
 30
0.0
 40
1.0
100
AcDbArc
 50
90.0
 51
180.0
  0
LINE
  5
B6EA
330
B539
100
AcDbEntity
  8
1
  6
Continuous
100
AcDbLine
 10
155.959674
 20
358.583564
 30
0.0
 11
156.959674
 21
358.583564
 31
0.0
  0
LINE
  5
B6EB
330
B539
100
AcDbEntity
  8
1
  6
Continuous
100
AcDbLine
 10
155.959674
 20
365.783564
 30
0.0
 11
156.959674
 21
365.783564
 31
0.0
  0
LINE
  5
B6EC
330
B539
100
AcDbEntity
  8
1
  6
Continuous
100
AcDbLine
 10
152.959674
 20
355.183564
 30
0.0
 11
154.959674
 21
355.183564
 31
0.0
  0
LINE
  5
B6ED
330
B539
100
AcDbEntity
  8
4
  6
CENTER
100
AcDbLine
 10
190.9596739999998
 20
341.183564
 30
0.0
 11
190.9596739999998
 21
352.1835639999998
 31
0.0
  0
LINE
  5
B6EE
330
B539
100
AcDbEntity
  8
1
  6
Continuous
100
AcDbLine
 10
164.9596739999998
 20
360.183564
 30
0.0
 11
176.959674
 21
360.183564
 31
0.0
  0
ARC
  5
B6EF
330
B539
100
AcDbEntity
  8
1
  6
Continuous
100
AcDbCircle
 10
170.959674
 20
341.114553
 30
0.0
 40
1.0
100
AcDbArc
 50
180.0
 51
265.9528149999998
  0
LINE
  5
B6F0
330
B539
100
AcDbEntity
  8
1
  6
Continuous
100
AcDbLine
 10
169.959674
 20
341.114553
 30
0.0
 11
169.959674
 21
345.183564
 31
0.0
  0
LINE
  5
B6F1
330
B539
100
AcDbEntity
  8
4
  6
CENTER
100
AcDbLine
 10
242.4596740000001
 20
363.243121
 30
0.0
 11
242.4596740000001
 21
374.9110019999998
 31
0.0
  0
LINE
  5
B6F2
330
B539
100
AcDbEntity
  8
1
  6
Continuous
100
AcDbLine
 10
241.4596739999999
 20
369.697458
 30
0.0
 11
242.4596740000001
 21
368.6974579999999
 31
0.0
  0
LINE
  5
B6F3
330
B539
100
AcDbEntity
  8
1
  6
Continuous
100
AcDbLine
 10
242.4596740000001
 20
369.697458
 30
0.0
 11
243.4596739999999
 21
368.6974579999999
 31
0.0
  0
LINE
  5
B6F4
330
B539
100
AcDbEntity
  8
1
  6
Continuous
100
AcDbLine
 10
246.2596739999999
 20
369.697458
 30
0.0
 11
246.2596739999999
 21
368.6974579999999
 31
0.0
  0
LINE
  5
B6F5
330
B539
100
AcDbEntity
  8
1
  6
Continuous
100
AcDbLine
 10
238.659674
 20
369.697458
 30
0.0
 11
238.659674
 21
368.6974579999999
 31
0.0
  0
LINE
  5
B6F6
330
B539
100
AcDbEntity
  8
4
  6
CENTER
100
AcDbLine
 10
231.459674
 20
367.1835639999998
 30
0.0
 11
231.459674
 21
375.1835639999998
 31
0.0
  0
LINE
  5
B6F7
330
B539
100
AcDbEntity
  8
1
  6
Continuous
100
AcDbLine
 10
226.4596739999999
 20
365.983564
 30
0.0
 11
226.4596739999999
 21
370.183564
 31
0.0
  0
LINE
  5
B6F8
330
B539
100
AcDbEntity
  8
1
  6
Continuous
100
AcDbLine
 10
225.959674
 20
365.983564
 30
0.0
 11
225.959674
 21
370.183564
 31
0.0
  0
LINE
  5
B6F9
330
B539
100
AcDbEntity
  8
4
  6
CENTER
100
AcDbLine
 10
218.959674
 20
366.0534989999999
 30
0.0
 11
218.959674
 21
374.8436649999999
 31
0.0
  0
LINE
  5
B6FA
330
B539
100
AcDbEntity
  8
1
  6
Continuous
100
AcDbLine
 10
201.9596739999999
 20
362.183564
 30
0.0
 11
201.9596739999999
 21
370.183564
 31
0.0
  0
LINE
  5
B6FB
330
B539
100
AcDbEntity
  8
1
  6
Continuous
100
AcDbLine
 10
215.959674
 20
367.683564
 30
0.0
 11
215.959674
 21
370.183564
 31
0.0
  0
LINE
  5
B6FC
330
B539
100
AcDbEntity
  8
1
  6
Continuous
100
AcDbLine
 10
221.959674
 20
367.683564
 30
0.0
 11
221.959674
 21
370.183564
 31
0.0
  0
LINE
  5
B6FD
330
B539
100
AcDbEntity
  8
1
  6
Continuous
100
AcDbLine
 10
236.459674
 20
358.475497
 30
0.0
 11
236.459674
 21
370.183564
 31
0.0
  0
LINE
  5
B6FE
330
B539
100
AcDbEntity
  8
1
  6
Continuous
100
AcDbLine
 10
217.559674
 20
372.183564
 30
0.0
 11
220.359674
 21
372.183564
 31
0.0
  0
ARC
  5
B6FF
330
B539
100
AcDbEntity
  8
1
  6
Continuous
100
AcDbCircle
 10
240.3526629999999
 20
370.70357
 30
0.0
 40
1.3
100
AcDbArc
 50
105.88085
 51
175.0
  0
LINE
  5
B700
330
B539
100
AcDbEntity
  8
1
  6
Continuous
100
AcDbLine
 10
246.2596739999999
 20
369.697458
 30
0.0
 11
238.659674
 21
369.697458
 31
0.0
  0
LINE
  5
B701
330
B539
100
AcDbEntity
  8
1
  6
Continuous
100
AcDbLine
 10
238.9596739999999
 20
369.697458
 30
0.0
 11
239.05761
 21
370.816873
 31
0.0
  0
LINE
  5
B702
330
B539
100
AcDbEntity
  8
1
  6
Continuous
100
AcDbLine
 10
237.459674
 20
370.183564
 30
0.0
 11
239.0022029999999
 21
370.183564
 31
0.0
  0
LINE
  5
B703
330
B539
100
AcDbEntity
  8
1
  6
Continuous
100
AcDbLine
 10
237.459674
 20
370.183564
 30
0.0
 11
237.459674
 21
372.183564
 31
0.0
  0
ARC
  5
B704
330
B539
100
AcDbEntity
  8
1
  6
Continuous
100
AcDbCircle
 10
244.566685
 20
370.70357
 30
0.0
 40
1.3
100
AcDbArc
 50
5.0
 51
74.11915
  0
LINE
  5
B705
330
B539
100
AcDbEntity
  8
1
  6
Continuous
100
AcDbLine
 10
245.959674
 20
369.697458
 30
0.0
 11
245.861738
 21
370.816873
 31
0.0
  0
ARC
  5
B706
330
B539
100
AcDbEntity
  8
1
  6
Continuous
100
AcDbCircle
 10
242.4596740000001
 20
363.2974579999999
 30
0.0
 40
9.0
100
AcDbArc
 50
74.11915
 51
105.88085
  0
LINE
  5
B707
330
B539
100
AcDbEntity
  8
1
  6
Continuous
100
AcDbLine
 10
213.9596739999999
 20
367.683564
 30
0.0
 11
223.959674
 21
367.683564
 31
0.0
  0
LINE
  5
B708
330
B539
100
AcDbEntity
  8
4
  6
CENTER
100
AcDbLine
 10
203.459674
 20
335.738946
 30
0.0
 11
203.459674
 21
346.1835639999998
 31
0.0
  0
LINE
  5
B709
330
B539
100
AcDbEntity
  8
1
  6
Continuous
100
AcDbLine
 10
201.9596739999999
 20
362.183564
 30
0.0
 11
211.608887
 21
362.183564
 31
0.0
  0
LINE
  5
B70A
330
B539
100
AcDbEntity
  8
1
  6
Continuous
100
AcDbLine
 10
201.9596739999999
 20
362.6835639999998
 30
0.0
 11
212.5518899999999
 21
362.6835639999998
 31
0.0
  0
LINE
  5
B70B
330
B539
100
AcDbEntity
  8
1
  6
Continuous
100
AcDbLine
 10
201.9596739999999
 20
367.683564
 30
0.0
 11
213.9596739999999
 21
367.683564
 31
0.0
  0
LINE
  5
B70C
330
B539
100
AcDbEntity
  8
1
  6
Continuous
100
AcDbLine
 10
207.459674
 20
359.983564
 30
0.0
 11
214.060694
 21
363.4835639999999
 31
0.0
  0
LINE
  5
B70D
330
B539
100
AcDbEntity
  8
1
  6
Continuous
100
AcDbLine
 10
214.060694
 20
363.4835639999999
 30
0.0
 11
214.060694
 21
359.983564
 31
0.0
  0
LINE
  5
B70E
330
B539
100
AcDbEntity
  8
1
  6
Continuous
100
AcDbLine
 10
213.9596739999999
 20
363.430001
 30
0.0
 11
213.9596739999999
 21
367.683564
 31
0.0
  0
LINE
  5
B70F
330
B539
100
AcDbEntity
  8
5
  6
PHANTOM
100
AcDbLine
 10
204.5712239999998
 20
334.0750069999999
 30
0.0
 11
210.2066849999999
 21
330.9803309999999
 31
0.0
  0
ARC
  5
B710
330
B539
100
AcDbEntity
  8
5
  6
PHANTOM
100
AcDbCircle
 10
205.0525659999999
 20
334.9515399999999
 30
0.0
 40
1.0
100
AcDbArc
 50
151.2269
 51
241.2269
  0
ARC
  5
B711
330
B539
100
AcDbEntity
  8
5
  6
PHANTOM
100
AcDbCircle
 10
201.546435
 20
336.876909
 30
0.0
 40
1.0
100
AcDbArc
 50
241.2269
 51
331.2269
  0
LINE
  5
B712
330
B539
100
AcDbEntity
  8
5
  6
PHANTOM
100
AcDbLine
 10
195.789963
 20
338.8971789999998
 30
0.0
 11
201.0650929999999
 21
336.0003759999999
 31
0.0
  0
LINE
  5
B713
330
B539
100
AcDbEntity
  8
5
  6
PHANTOM
100
AcDbLine
 10
204.1760329999999
 20
335.432882
 30
0.0
 11
205.9754899999998
 21
338.7097259999998
 31
0.0
  0
LINE
  5
B714
330
B539
100
AcDbEntity
  8
5
  6
PHANTOM
100
AcDbLine
 10
202.4229679999999
 20
336.3955659999998
 30
0.0
 11
203.708108
 21
338.735831
 31
0.0
  0
ARC
  5
B715
330
B539
100
AcDbEntity
  8
5
  6
PHANTOM
100
AcDbCircle
 10
210.6880269999999
 20
331.8568629999999
 30
0.0
 40
1.0
100
AcDbArc
 50
241.2269
 51
287.5432959999999
  0
ARC
  5
B716
330
B539
100
AcDbEntity
  8
5
  6
PHANTOM
100
AcDbCircle
 10
211.6624939999999
 20
328.774374
 30
0.0
 40
2.232850999999997
100
AcDbArc
 50
241.854019
 51
107.543296
  0
LINE
  5
B717
330
B539
100
AcDbEntity
  8
1
  6
Continuous
100
AcDbLine
 10
246.4596740000001
 20
345.183564
 30
0.0
 11
246.4596740000001
 21
362.6835639999998
 31
0.0
  0
ARC
  5
B718
330
B539
100
AcDbEntity
  8
1
  6
Continuous
100
AcDbCircle
 10
251.3359439999999
 20
348.6835639999998
 30
0.0
 40
2.0
100
AcDbArc
 50
185.712063
 51
275.712063
  0
ARC
  5
B719
330
B539
100
AcDbEntity
  8
1
  6
Continuous
100
AcDbCircle
 10
229.459674
 20
342.983564
 30
0.0
 40
17.0
100
AcDbArc
 50
7.435602
 51
90.0
  0
LINE
  5
B71A
330
B539
100
AcDbEntity
  8
1
  6
Continuous
100
AcDbLine
 10
247.4596739999999
 20
367.8974579999998
 30
0.0
 11
237.459674
 21
367.8974579999998
 31
0.0
  0
LINE
  5
B71B
330
B539
100
AcDbEntity
  8
1
  6
Continuous
100
AcDbLine
 10
247.4596739999999
 20
368.6974579999999
 30
0.0
 11
237.459674
 21
368.6974579999999
 31
0.0
  0
LINE
  5
B71C
330
B539
100
AcDbEntity
  8
1
  6
Continuous
100
AcDbLine
 10
236.6587319999999
 20
364.80279
 30
0.0
 11
247.604113
 21
365.8976119999999
 31
0.0
  0
LINE
  5
B71D
330
B539
100
AcDbEntity
  8
1
  6
Continuous
100
AcDbLine
 10
236.459674
 20
366.7928589999998
 30
0.0
 11
247.4050549999998
 21
367.8876809999999
 31
0.0
  0
LINE
  5
B71E
330
B539
100
AcDbEntity
  8
1
  6
Continuous
100
AcDbLine
 10
231.459674
 20
364.6835639999998
 30
0.0
 11
244.4596740000001
 21
364.6835639999998
 31
0.0
  0
LINE
  5
B71F
330
B539
100
AcDbEntity
  8
1
  6
Continuous
100
AcDbLine
 10
237.459674
 20
368.6974579999999
 30
0.0
 11
237.459674
 21
367.8974579999998
 31
0.0
  0
LINE
  5
B720
330
B539
100
AcDbEntity
  8
1
  6
Continuous
100
AcDbLine
 10
236.6587319999999
 20
364.80279
 30
0.0
 11
236.459674
 21
366.7928589999998
 31
0.0
  0
LINE
  5
B721
330
B539
100
AcDbEntity
  8
1
  6
Continuous
100
AcDbLine
 10
223.959674
 20
365.983564
 30
0.0
 11
223.959674
 21
367.683564
 31
0.0
  0
LINE
  5
B722
330
B539
100
AcDbEntity
  8
1
  6
Continuous
100
AcDbLine
 10
223.8586529999998
 20
365.983564
 30
0.0
 11
223.8586529999998
 21
359.983564
 31
0.0
  0
LINE
  5
B723
330
B539
100
AcDbEntity
  8
1
  6
Continuous
100
AcDbLine
 10
223.8586529999998
 20
365.983564
 30
0.0
 11
226.560694
 21
365.983564
 31
0.0
  0
LINE
  5
B724
330
B539
100
AcDbEntity
  8
1
  6
Continuous
100
AcDbLine
 10
226.560694
 20
365.983564
 30
0.0
 11
226.560694
 21
359.983564
 31
0.0
  0
LINE
  5
B725
330
B539
100
AcDbEntity
  8
1
  6
Continuous
100
AcDbLine
 10
240.5435479999999
 20
364.6835639999998
 30
0.0
 11
240.5435479999999
 21
365.191372
 31
0.0
  0
LINE
  5
B726
330
B539
100
AcDbEntity
  8
2
  6
Continuous
100
AcDbLine
 10
240.9225479999999
 20
364.6835639999998
 30
0.0
 11
240.9225479999999
 21
365.2292819999999
 31
0.0
  0
LINE
  5
B727
330
B539
100
AcDbEntity
  8
1
  6
Continuous
100
AcDbLine
 10
244.4596740000001
 20
364.6835639999998
 30
0.0
 11
244.4596740000001
 21
365.583086
 31
0.0
  0
LINE
  5
B728
330
B539
100
AcDbEntity
  8
2
  6
Continuous
100
AcDbLine
 10
244.0806739999999
 20
364.6835639999998
 30
0.0
 11
244.0806739999999
 21
365.545177
 31
0.0
  0
LINE
  5
B729
330
B539
100
AcDbEntity
  8
1
  6
Continuous
100
AcDbLine
 10
244.4596740000001
 20
367.593067
 30
0.0
 11
244.4596740000001
 21
367.8974579999998
 31
0.0
  0
LINE
  5
B72A
330
B539
100
AcDbEntity
  8
2
  6
Continuous
100
AcDbLine
 10
244.0806739999999
 20
367.555157
 30
0.0
 11
244.0806739999999
 21
367.8974579999998
 31
0.0
  0
LINE
  5
B72B
330
B539
100
AcDbEntity
  8
1
  6
Continuous
100
AcDbLine
 10
247.4596739999999
 20
368.6974579999999
 30
0.0
 11
247.4596739999999
 21
367.8974579999998
 31
0.0
  0
LINE
  5
B72C
330
B539
100
AcDbEntity
  8
1
  6
Continuous
100
AcDbLine
 10
240.4596740000001
 20
367.1929629999998
 30
0.0
 11
240.4596740000001
 21
367.8974579999998
 31
0.0
  0
LINE
  5
B72D
330
B539
100
AcDbEntity
  8
2
  6
Continuous
100
AcDbLine
 10
240.838674
 20
367.2308729999999
 30
0.0
 11
240.838674
 21
367.8974579999998
 31
0.0
  0
ARC
  5
B72E
330
B539
100
AcDbEntity
  8
1
  6
Continuous
100
AcDbCircle
 10
244.4596740000001
 20
362.6835639999998
 30
0.0
 40
2.0
100
AcDbArc
 50
0.0
 51
90.0
  0
LINE
  5
B72F
330
B539
100
AcDbEntity
  8
1
  6
Continuous
100
AcDbLine
 10
249.594183
 20
366.09667
 30
0.0
 11
251.3359439999999
 21
348.6835639999998
 31
0.0
  0
LINE
  5
B730
330
B539
100
AcDbEntity
  8
1
  6
Continuous
100
AcDbLine
 10
247.604113
 20
365.8976119999999
 30
0.0
 11
249.345875
 21
348.484506
 31
0.0
  0
ARC
  5
B731
330
B539
100
AcDbEntity
  8
1
  6
Continuous
100
AcDbCircle
 10
247.604113
 20
365.8976119999999
 30
0.0
 40
2.0
100
AcDbArc
 50
5.712062999999998
 51
95.712063
  0
LINE
  5
B732
330
B539
100
AcDbEntity
  8
1
  6
Continuous
100
AcDbLine
 10
239.959674
 20
364.6835639999998
 30
0.0
 11
239.959674
 21
365.13297
 31
0.0
  0
LINE
  5
B733
330
B539
100
AcDbEntity
  8
1
  6
Continuous
100
AcDbLine
 10
239.959674
 20
367.1429499999999
 30
0.0
 11
239.959674
 21
367.8974579999998
 31
0.0
  0
LINE
  5
B734
330
B539
100
AcDbEntity
  8
1
  6
Continuous
100
AcDbLine
 10
239.959674
 20
364.6835639999998
 30
0.0
 11
239.959674
 21
365.13297
 31
0.0
  0
LINE
  5
B735
330
B539
100
AcDbEntity
  8
1
  6
Continuous
100
AcDbLine
 10
239.959674
 20
367.1429499999999
 30
0.0
 11
239.959674
 21
367.8974579999998
 31
0.0
  0
ARC
  5
B736
330
B539
100
AcDbEntity
  8
1
  6
Continuous
100
AcDbCircle
 10
251.959674
 20
341.114553
 30
0.0
 40
1.0
100
AcDbArc
 50
274.047185
 51
0.0
  0
LINE
  5
B737
330
B539
100
AcDbEntity
  8
1
  6
Continuous
100
AcDbLine
 10
252.9596740000001
 20
341.114553
 30
0.0
 11
252.9596740000001
 21
345.183564
 31
0.0
  0
LINE
  5
B738
330
B539
100
AcDbEntity
  8
1
  6
Continuous
100
AcDbLine
 10
258.997762
 20
347.4399639999999
 30
0.0
 11
258.7987039999998
 21
349.4300329999999
 31
0.0
  0
LINE
  5
B739
330
B539
100
AcDbEntity
  8
4
  6
CENTER
100
AcDbLine
 10
363.9574359999999
 20
181.091782
 30
0.0
 11
363.9574359999999
 21
172.0917819999999
 31
0.0
  0
LINE
  5
B73A
330
B539
100
AcDbEntity
  8
1
  6
Continuous
100
AcDbLine
 10
344.9574359999999
 20
155.5917819999999
 30
0.0
 11
344.9574359999999
 21
257.5917819999999
 31
0.0
  0
LINE
  5
B73B
330
B539
100
AcDbEntity
  8
1
  6
Continuous
100
AcDbLine
 10
340.4574359999998
 20
156.5917819999999
 30
0.0
 11
340.4574359999998
 21
256.5917819999999
 31
0.0
  0
LINE
  5
B73C
330
B539
100
AcDbEntity
  8
1
  6
Continuous
100
AcDbLine
 10
373.9574359999999
 20
251.5917819999998
 30
0.0
 11
373.9574359999999
 21
233.0200179999999
 31
0.0
  0
LINE
  5
B73D
330
B539
100
AcDbEntity
  8
1
  6
Continuous
100
AcDbLine
 10
346.9574359999999
 20
155.5917819999999
 30
0.0
 11
346.9574359999999
 21
257.5917819999999
 31
0.0
  0
LINE
  5
B73E
330
B539
100
AcDbEntity
  8
1
  6
Continuous
100
AcDbLine
 10
359.9574359999999
 20
161.5917819999999
 30
0.0
 11
373.9574359999999
 21
161.5917819999999
 31
0.0
  0
LINE
  5
B73F
330
B539
100
AcDbEntity
  8
1
  6
Continuous
100
AcDbLine
 10
353.7574359999999
 20
160.5917819999999
 30
0.0
 11
346.9574359999999
 21
160.5917819999999
 31
0.0
  0
ARC
  5
B740
330
B539
100
AcDbEntity
  8
1
  6
Continuous
100
AcDbCircle
 10
341.4574359999999
 20
156.5917819999999
 30
0.0
 40
1.0
100
AcDbArc
 50
180.0
 51
270.0
  0
LINE
  5
B741
330
B539
100
AcDbEntity
  8
1
  6
Continuous
100
AcDbLine
 10
341.4574359999999
 20
155.5917819999999
 30
0.0
 11
346.9574359999999
 21
155.5917819999999
 31
0.0
  0
LINE
  5
B742
330
B539
100
AcDbEntity
  8
4
  6
CENTER
100
AcDbLine
 10
359.4574359999999
 20
176.591782
 30
0.0
 11
368.4574359999999
 21
176.591782
 31
0.0
  0
LINE
  5
B743
330
B539
100
AcDbEntity
  8
4
  6
CENTER
100
AcDbLine
 10
378.9574359999999
 20
206.591782
 30
0.0
 11
335.4574359999999
 21
206.591782
 31
0.0
  0
LINE
  5
B744
330
B539
100
AcDbEntity
  8
4
  6
CENTER
100
AcDbLine
 10
376.957436
 20
176.591782
 30
0.0
 11
370.9574359999999
 21
176.591782
 31
0.0
  0
LINE
  5
B745
330
B539
100
AcDbEntity
  8
4
  6
CENTER
100
AcDbLine
 10
376.957436
 20
189.091782
 30
0.0
 11
366.804692
 21
189.091782
 31
0.0
  0
LINE
  5
B746
330
B539
100
AcDbEntity
  8
4
  6
CENTER
100
AcDbLine
 10
359.4574359999999
 20
236.5917819999999
 30
0.0
 11
368.4574359999999
 21
236.5917819999999
 31
0.0
  0
LINE
  5
B747
330
B539
100
AcDbEntity
  8
1
  6
Continuous
100
AcDbLine
 10
359.9574359999999
 20
251.5917819999998
 30
0.0
 11
373.9574359999999
 21
251.5917819999998
 31
0.0
  0
LINE
  5
B748
330
B539
100
AcDbEntity
  8
4
  6
CENTER
100
AcDbLine
 10
376.957436
 20
236.5917819999999
 30
0.0
 11
370.9574359999999
 21
236.5917819999999
 31
0.0
  0
LINE
  5
B749
330
B539
100
AcDbEntity
  8
4
  6
CENTER
100
AcDbLine
 10
376.957436
 20
224.0917819999999
 30
0.0
 11
366.804692
 21
224.0917819999999
 31
0.0
  0
LINE
  5
B74A
330
B539
100
AcDbEntity
  8
4
  6
CENTER
100
AcDbLine
 10
363.9574359999999
 20
241.0917819999998
 30
0.0
 11
363.9574359999999
 21
232.091782
 31
0.0
  0
LINE
  5
B74B
330
B539
100
AcDbEntity
  8
1
  6
Continuous
100
AcDbLine
 10
353.7574359999999
 20
252.591782
 30
0.0
 11
346.9574359999999
 21
252.591782
 31
0.0
  0
ARC
  5
B74C
330
B539
100
AcDbEntity
  8
1
  6
Continuous
100
AcDbCircle
 10
353.7574359999999
 20
244.591782
 30
0.0
 40
8.0
100
AcDbArc
 50
14.47751199999999
 51
90.0
  0
ARC
  5
B74D
330
B539
100
AcDbEntity
  8
1
  6
Continuous
100
AcDbCircle
 10
359.9574359999999
 20
248.591782
 30
0.0
 40
3.0
100
AcDbArc
 50
90.0
 51
122.103752
  0
ARC
  5
B74E
330
B539
100
AcDbEntity
  8
1
  6
Continuous
100
AcDbCircle
 10
341.4574359999999
 20
256.5917819999999
 30
0.0
 40
1.0
100
AcDbArc
 50
90.0
 51
180.0
  0
LINE
  5
B74F
330
B539
100
AcDbEntity
  8
1
  6
Continuous
100
AcDbLine
 10
341.4574359999999
 20
257.5917819999999
 30
0.0
 11
346.9574359999999
 21
257.5917819999999
 31
0.0
  0
LINE
  5
B750
330
B539
100
AcDbEntity
  8
4
  6
CENTER
100
AcDbLine
 10
579.455198
 20
206.591782
 30
0.0
 11
450.4171099999998
 21
206.591782
 31
0.0
  0
LINE
  5
B751
330
B539
100
AcDbEntity
  8
1
  6
Continuous
100
AcDbLine
 10
475.955198
 20
246.591782
 30
0.0
 11
457.41711
 21
246.591782
 31
0.0
  0
LINE
  5
B752
330
B539
100
AcDbEntity
  8
1
  6
Continuous
100
AcDbLine
 10
475.955198
 20
166.5917819999999
 30
0.0
 11
457.41711
 21
166.5917819999999
 31
0.0
  0
ARC
  5
B753
330
B539
100
AcDbEntity
  8
1
  6
Continuous
100
AcDbCircle
 10
969.955198
 20
206.591782
 30
0.0
 40
508.4999999999998
100
AcDbArc
 50
174.9929679999999
 51
175.4882959999999
  0
LINE
  5
B754
330
B539
100
AcDbEntity
  8
4
  6
CENTER
100
AcDbLine
 10
523.4551979999999
 20
262.1755209999999
 30
0.0
 11
523.4551979999999
 21
151.0080429999999
 31
0.0
  0
LINE
  5
B755
330
B539
100
AcDbEntity
  8
1
  6
Continuous
100
AcDbLine
 10
561.4551979999998
 20
199.391782
 30
0.0
 11
561.4551979999998
 21
161.5917819999999
 31
0.0
  0
ARC
  5
B756
330
B539
100
AcDbEntity
  8
1
  6
Continuous
100
AcDbCircle
 10
502.955198
 20
655.5917820000002
 30
0.0
 40
500.0
100
AcDbArc
 50
266.101988
 51
273.8980119999999
  0
LINE
  5
B757
330
B539
100
AcDbEntity
  8
1
  6
Continuous
100
AcDbLine
 10
561.4551979999998
 20
161.5917819999999
 30
0.0
 11
476.9551980000001
 21
161.5917819999999
 31
0.0
  0
ARC
  5
B758
330
B539
100
AcDbEntity
  8
1
  6
Continuous
100
AcDbCircle
 10
536.5376549999998
 20
162.7345829999999
 30
0.0
 40
6.0
100
AcDbArc
 50
273.8980119999999
 51
349.019971
  0
ARC
  5
B759
330
B539
100
AcDbEntity
  8
1
  6
Continuous
100
AcDbCircle
 10
469.372741
 20
162.7345829999999
 30
0.0
 40
6.0
100
AcDbArc
 50
185.007032
 51
266.101988
  0
ARC
  5
B75A
330
B539
100
AcDbEntity
  8
1
  6
Continuous
100
AcDbCircle
 10
502.955198
 20
-242.408218
 30
0.0
 40
500.0
100
AcDbArc
 50
86.101988
 51
93.89801199999999
  0
LINE
  5
B75B
330
B539
100
AcDbEntity
  8
1
  6
Continuous
100
AcDbLine
 10
561.4551979999998
 20
251.5917819999998
 30
0.0
 11
561.4551979999998
 21
213.7917819999999
 31
0.0
  0
LINE
  5
B75C
330
B539
100
AcDbEntity
  8
4
  6
CENTER
100
AcDbLine
 10
554.455198
 20
176.591782
 30
0.0
 11
564.455198
 21
176.591782
 31
0.0
  0
LINE
  5
B75D
330
B539
100
AcDbEntity
  8
1
  6
Continuous
100
AcDbLine
 10
574.4551979999998
 20
214.591782
 30
0.0
 11
561.4551979999998
 21
214.591782
 31
0.0
  0
LINE
  5
B75E
330
B539
100
AcDbEntity
  8
1
  6
Continuous
100
AcDbLine
 10
574.4551979999998
 20
198.591782
 30
0.0
 11
561.4551979999998
 21
198.591782
 31
0.0
  0
LINE
  5
B75F
330
B539
100
AcDbEntity
  8
1
  6
Continuous
100
AcDbLine
 10
574.4551979999998
 20
198.591782
 30
0.0
 11
574.4551979999998
 21
214.591782
 31
0.0
  0
LINE
  5
B760
330
B539
100
AcDbEntity
  8
4
  6
CENTER
100
AcDbLine
 10
554.455198
 20
236.5917819999999
 30
0.0
 11
564.455198
 21
236.5917819999999
 31
0.0
  0
LINE
  5
B761
330
B539
100
AcDbEntity
  8
1
  6
Continuous
100
AcDbLine
 10
561.4551979999998
 20
251.5917819999998
 30
0.0
 11
476.9551980000001
 21
251.5917819999998
 31
0.0
  0
ARC
  5
B762
330
B539
100
AcDbEntity
  8
1
  6
Continuous
100
AcDbCircle
 10
536.5376549999998
 20
250.4489809999999
 30
0.0
 40
6.0
100
AcDbArc
 50
10.980029
 51
86.101988
  0
ARC
  5
B763
330
B539
100
AcDbEntity
  8
1
  6
Continuous
100
AcDbCircle
 10
469.372741
 20
250.4489809999999
 30
0.0
 40
6.0
100
AcDbArc
 50
93.89801199999999
 51
174.9929679999999
  0
LINE
  5
B764
330
B539
100
AcDbEntity
  8
1
  6
Continuous
100
AcDbLine
 10
455.4171099999998
 20
168.591782
 30
0.0
 11
455.4171099999998
 21
244.591782
 31
0.0
  0
ARC
  5
B765
330
B539
100
AcDbEntity
  8
1
  6
Continuous
100
AcDbCircle
 10
457.41711
 20
168.591782
 30
0.0
 40
2.0
100
AcDbArc
 50
180.0
 51
270.0
  0
ARC
  5
B766
330
B539
100
AcDbEntity
  8
1
  6
Continuous
100
AcDbCircle
 10
457.41711
 20
244.591782
 30
0.0
 40
2.0
100
AcDbArc
 50
90.0
 51
180.0
  0
LINE
  5
B767
330
B539
100
AcDbEntity
  8
1
  6
Continuous
100
AcDbLine
 10
371.9574359999999
 20
251.5917819999998
 30
0.0
 11
371.9574359999999
 21
235.0492669999999
 31
0.0
  0
LINE
  5
B768
330
B539
100
AcDbEntity
  8
1
  6
Continuous
100
AcDbLine
 10
348.4574359999998
 20
246.591782
 30
0.0
 11
369.6714839999998
 21
246.591782
 31
0.0
  0
LINE
  5
B769
330
B539
100
AcDbEntity
  8
1
  6
Continuous
100
AcDbLine
 10
348.4574359999998
 20
166.5917819999999
 30
0.0
 11
369.6714839999998
 21
166.5917819999999
 31
0.0
  0
ARC
  5
B76A
330
B539
100
AcDbEntity
  8
1
  6
Continuous
100
AcDbCircle
 10
353.7574359999999
 20
168.591782
 30
0.0
 40
8.0
100
AcDbArc
 50
270.0
 51
345.522488
  0
ARC
  5
B76B
330
B539
100
AcDbEntity
  8
1
  6
Continuous
100
AcDbCircle
 10
359.9574359999999
 20
164.591782
 30
0.0
 40
3.0
100
AcDbArc
 50
237.8962479999999
 51
270.0
  0
LINE
  5
B76C
330
B539
100
AcDbEntity
  8
1
  6
Continuous
100
AcDbLine
 10
371.4714839999999
 20
232.5917819999999
 30
0.0
 11
370.4714839999998
 21
231.591782
 31
0.0
  0
LINE
  5
B76D
330
B539
100
AcDbEntity
  8
1
  6
Continuous
100
AcDbLine
 10
371.4714839999999
 20
231.591782
 30
0.0
 11
370.4714839999998
 21
230.5917819999999
 31
0.0
  0
LINE
  5
B76E
330
B539
100
AcDbEntity
  8
1
  6
Continuous
100
AcDbLine
 10
371.4714839999999
 20
235.3917819999999
 30
0.0
 11
370.4714839999998
 21
235.3917819999999
 31
0.0
  0
LINE
  5
B76F
330
B539
100
AcDbEntity
  8
1
  6
Continuous
100
AcDbLine
 10
371.4714839999999
 20
227.7917819999999
 30
0.0
 11
370.4714839999998
 21
227.7917819999999
 31
0.0
  0
ARC
  5
B770
330
B539
100
AcDbEntity
  8
1
  6
Continuous
100
AcDbCircle
 10
372.477596
 20
229.4847709999999
 30
0.0
 40
1.3
100
AcDbArc
 50
275.0
 51
344.1191499999998
  0
LINE
  5
B771
330
B539
100
AcDbEntity
  8
1
  6
Continuous
100
AcDbLine
 10
371.4714839999999
 20
235.3917819999999
 30
0.0
 11
371.4714839999999
 21
227.7917819999999
 31
0.0
  0
LINE
  5
B772
330
B539
100
AcDbEntity
  8
1
  6
Continuous
100
AcDbLine
 10
371.4714839999999
 20
228.0917819999999
 30
0.0
 11
372.5908989999999
 21
228.189718
 31
0.0
  0
ARC
  5
B773
330
B539
100
AcDbEntity
  8
1
  6
Continuous
100
AcDbCircle
 10
372.477596
 20
233.6987929999999
 30
0.0
 40
1.3
100
AcDbArc
 50
15.88085
 51
85.0
  0
LINE
  5
B774
330
B539
100
AcDbEntity
  8
1
  6
Continuous
100
AcDbLine
 10
371.4714839999999
 20
235.0917819999998
 30
0.0
 11
372.5908989999999
 21
234.993846
 31
0.0
  0
ARC
  5
B775
330
B539
100
AcDbEntity
  8
1
  6
Continuous
100
AcDbCircle
 10
365.071484
 20
231.591782
 30
0.0
 40
9.0
100
AcDbArc
 50
344.1191499999998
 51
15.88085
  0
LINE
  5
B776
330
B539
100
AcDbEntity
  8
1
  6
Continuous
100
AcDbLine
 10
369.6714839999998
 20
236.5917819999999
 30
0.0
 11
369.6714839999998
 21
226.5917819999998
 31
0.0
  0
LINE
  5
B777
330
B539
100
AcDbEntity
  8
1
  6
Continuous
100
AcDbLine
 10
370.4714839999998
 20
236.5917819999999
 30
0.0
 11
370.4714839999998
 21
226.5917819999998
 31
0.0
  0
LINE
  5
B778
330
B539
100
AcDbEntity
  8
1
  6
Continuous
100
AcDbLine
 10
370.4714839999998
 20
226.5917819999998
 30
0.0
 11
369.6714839999998
 21
226.5917819999998
 31
0.0
  0
LINE
  5
B779
330
B539
100
AcDbEntity
  8
1
  6
Continuous
100
AcDbLine
 10
370.4714839999998
 20
236.5917819999999
 30
0.0
 11
369.6714839999998
 21
236.5917819999999
 31
0.0
  0
LINE
  5
B77A
330
B539
100
AcDbEntity
  8
1
  6
Continuous
100
AcDbLine
 10
349.213836
 20
166.5917819999999
 30
0.0
 11
349.213836
 21
246.591782
 31
0.0
  0
LINE
  5
B77B
330
B539
100
AcDbEntity
  8
1
  6
Continuous
100
AcDbLine
 10
351.2039049999998
 20
166.5917819999999
 30
0.0
 11
351.2039049999998
 21
246.591782
 31
0.0
  0
LINE
  5
B77C
330
B539
100
AcDbEntity
  8
1
  6
Continuous
100
AcDbLine
 10
348.4574359999998
 20
166.5917819999999
 30
0.0
 11
348.4574359999998
 21
246.591782
 31
0.0
  0
LINE
  5
B77D
330
B539
100
AcDbEntity
  8
1
  6
Continuous
100
AcDbLine
 10
369.6714839999998
 20
166.5917819999999
 30
0.0
 11
369.6714839999998
 21
246.591782
 31
0.0
  0
LINE
  5
B77E
330
B539
100
AcDbEntity
  8
4
  6
CENTER
100
AcDbLine
 10
22.0
 20
231.591782
 30
0.0
 11
28.0
 21
231.591782
 31
0.0
  0
LINE
  5
B77F
330
B539
100
AcDbEntity
  8
4
  6
CENTER
100
AcDbLine
 10
22.0
 20
181.5917819999999
 30
0.0
 11
28.0
 21
181.5917819999999
 31
0.0
  0
LINE
  5
B780
330
B539
100
AcDbEntity
  8
4
  6
CENTER
100
AcDbLine
 10
376.957436
 20
231.591782
 30
0.0
 11
365.724274
 21
231.591782
 31
0.0
  0
LINE
  5
B781
330
B539
100
AcDbEntity
  8
1
  6
Continuous
100
AcDbLine
 10
371.9574359999999
 20
228.134297
 30
0.0
 11
371.9574359999999
 21
185.0492669999999
 31
0.0
  0
LINE
  5
B782
330
B539
100
AcDbEntity
  8
1
  6
Continuous
100
AcDbLine
 10
373.9574359999999
 20
230.1635459999999
 30
0.0
 11
373.9574359999999
 21
183.020018
 31
0.0
  0
LINE
  5
B783
330
B539
100
AcDbEntity
  8
1
  6
Continuous
100
AcDbLine
 10
371.4714839999999
 20
181.5917819999999
 30
0.0
 11
370.4714839999998
 21
180.5917819999999
 31
0.0
  0
LINE
  5
B784
330
B539
100
AcDbEntity
  8
1
  6
Continuous
100
AcDbLine
 10
371.4714839999999
 20
182.5917819999999
 30
0.0
 11
370.4714839999998
 21
181.5917819999999
 31
0.0
  0
LINE
  5
B785
330
B539
100
AcDbEntity
  8
1
  6
Continuous
100
AcDbLine
 10
371.4714839999999
 20
177.791782
 30
0.0
 11
370.4714839999998
 21
177.791782
 31
0.0
  0
LINE
  5
B786
330
B539
100
AcDbEntity
  8
1
  6
Continuous
100
AcDbLine
 10
370.4714839999998
 20
176.591782
 30
0.0
 11
369.6714839999998
 21
176.591782
 31
0.0
  0
LINE
  5
B787
330
B539
100
AcDbEntity
  8
1
  6
Continuous
100
AcDbLine
 10
369.6714839999998
 20
186.5917819999999
 30
0.0
 11
369.6714839999998
 21
176.591782
 31
0.0
  0
LINE
  5
B788
330
B539
100
AcDbEntity
  8
1
  6
Continuous
100
AcDbLine
 10
370.4714839999998
 20
186.5917819999999
 30
0.0
 11
369.6714839999998
 21
186.5917819999999
 31
0.0
  0
LINE
  5
B789
330
B539
100
AcDbEntity
  8
1
  6
Continuous
100
AcDbLine
 10
370.4714839999998
 20
186.5917819999999
 30
0.0
 11
370.4714839999998
 21
176.591782
 31
0.0
  0
LINE
  5
B78A
330
B539
100
AcDbEntity
  8
1
  6
Continuous
100
AcDbLine
 10
371.4714839999999
 20
185.091782
 30
0.0
 11
372.5908989999999
 21
184.9938459999999
 31
0.0
  0
LINE
  5
B78B
330
B539
100
AcDbEntity
  8
1
  6
Continuous
100
AcDbLine
 10
371.4714839999999
 20
185.391782
 30
0.0
 11
370.4714839999998
 21
185.391782
 31
0.0
  0
LINE
  5
B78C
330
B539
100
AcDbEntity
  8
1
  6
Continuous
100
AcDbLine
 10
371.4714839999999
 20
185.391782
 30
0.0
 11
371.4714839999999
 21
177.791782
 31
0.0
  0
ARC
  5
B78D
330
B539
100
AcDbEntity
  8
1
  6
Continuous
100
AcDbCircle
 10
372.477596
 20
183.698793
 30
0.0
 40
1.3
100
AcDbArc
 50
15.88085
 51
85.0
  0
ARC
  5
B78E
330
B539
100
AcDbEntity
  8
1
  6
Continuous
100
AcDbCircle
 10
365.071484
 20
181.5917819999999
 30
0.0
 40
9.0
100
AcDbArc
 50
344.1191499999998
 51
15.88085
  0
LINE
  5
B78F
330
B539
100
AcDbEntity
  8
1
  6
Continuous
100
AcDbLine
 10
371.4714839999999
 20
178.0917819999999
 30
0.0
 11
372.5908989999999
 21
178.189718
 31
0.0
  0
ARC
  5
B790
330
B539
100
AcDbEntity
  8
1
  6
Continuous
100
AcDbCircle
 10
372.477596
 20
179.4847709999999
 30
0.0
 40
1.3
100
AcDbArc
 50
275.0
 51
344.1191499999998
  0
LINE
  5
B791
330
B539
100
AcDbEntity
  8
4
  6
CENTER
100
AcDbLine
 10
376.957436
 20
181.5917819999999
 30
0.0
 11
365.724274
 21
181.5917819999999
 31
0.0
  0
LINE
  5
B792
330
B539
100
AcDbEntity
  8
1
  6
Continuous
100
AcDbLine
 10
371.9574359999999
 20
178.134297
 30
0.0
 11
371.9574359999999
 21
161.5917819999999
 31
0.0
  0
LINE
  5
B793
330
B539
100
AcDbEntity
  8
1
  6
Continuous
100
AcDbLine
 10
373.9574359999999
 20
180.1635459999999
 30
0.0
 11
373.9574359999999
 21
161.5917819999999
 31
0.0
  0
LINE
  5
B794
330
B539
100
AcDbEntity
  8
1
  6
Continuous
100
AcDbLine
 10
371.9574359999999
 20
216.1917819999999
 30
0.0
 11
369.6714839999998
 21
216.1917819999999
 31
0.0
  0
LINE
  5
B795
330
B539
100
AcDbEntity
  8
1
  6
Continuous
100
AcDbLine
 10
371.9574359999999
 20
196.991782
 30
0.0
 11
369.6714839999998
 21
196.991782
 31
0.0
  0
LINE
  5
B796
330
B539
100
AcDbEntity
  8
1
  6
Continuous
100
AcDbLine
 10
371.9574359999999
 20
219.091782
 30
0.0
 11
369.6714839999998
 21
219.091782
 31
0.0
  0
LINE
  5
B797
330
B539
100
AcDbEntity
  8
1
  6
Continuous
100
AcDbLine
 10
371.9574359999999
 20
194.0917819999999
 30
0.0
 11
369.6714839999998
 21
194.0917819999999
 31
0.0
  0
LINE
  5
B798
330
B539
100
AcDbEntity
  8
1
  6
Continuous
100
AcDbLine
 10
559.455198
 20
213.7917819999999
 30
0.0
 11
559.455198
 21
199.391782
 31
0.0
  0
LINE
  5
B799
330
B539
100
AcDbEntity
  8
1
  6
Continuous
100
AcDbLine
 10
573.4551979999999
 20
213.5917819999999
 30
0.0
 11
573.4551979999999
 21
199.591782
 31
0.0
  0
LINE
  5
B79A
330
B539
100
AcDbEntity
  8
1
  6
Continuous
100
AcDbLine
 10
573.4551979999999
 20
213.5917819999999
 30
0.0
 11
559.455198
 21
213.5917819999999
 31
0.0
  0
LINE
  5
B79B
330
B539
100
AcDbEntity
  8
1
  6
Continuous
100
AcDbLine
 10
573.4551979999999
 20
199.591782
 30
0.0
 11
559.455198
 21
199.591782
 31
0.0
  0
LINE
  5
B79C
330
B539
100
AcDbEntity
  8
1
  6
Continuous
100
AcDbLine
 10
572.455198
 20
198.591782
 30
0.0
 11
572.455198
 21
199.591782
 31
0.0
  0
LINE
  5
B79D
330
B539
100
AcDbEntity
  8
1
  6
Continuous
100
AcDbLine
 10
572.455198
 20
213.5917819999999
 30
0.0
 11
572.455198
 21
214.591782
 31
0.0
  0
LINE
  5
B79E
330
B539
100
AcDbEntity
  8
1
  6
Continuous
100
AcDbLine
 10
561.4551979999998
 20
213.7917819999999
 30
0.0
 11
559.455198
 21
213.7917819999999
 31
0.0
  0
LINE
  5
B79F
330
B539
100
AcDbEntity
  8
1
  6
Continuous
100
AcDbLine
 10
561.4551979999998
 20
199.391782
 30
0.0
 11
559.455198
 21
199.391782
 31
0.0
  0
LINE
  5
B7A0
330
B539
100
AcDbEntity
  8
1
  6
Continuous
100
AcDbLine
 10
476.9551980000001
 20
251.5917819999998
 30
0.0
 11
476.9551980000001
 21
161.5917819999999
 31
0.0
  0
LINE
  5
B7A1
330
B539
100
AcDbEntity
  8
4
  6
CENTER
100
AcDbLine
 10
479.955198
 20
231.591782
 30
0.0
 11
463.955198
 21
231.591782
 31
0.0
  0
ARC
  5
B7A2
330
B539
100
AcDbEntity
  8
1
  6
Continuous
100
AcDbCircle
 10
475.955198
 20
244.591782
 30
0.0
 40
2.0
100
AcDbArc
 50
60.0
 51
90.0
  0
ARC
  5
B7A3
330
B539
100
AcDbEntity
  8
1
  6
Continuous
100
AcDbCircle
 10
475.955198
 20
168.591782
 30
0.0
 40
2.0
100
AcDbArc
 50
270.0
 51
300.0
  0
LINE
  5
B7A4
330
B539
100
AcDbEntity
  8
4
  6
CENTER
100
AcDbLine
 10
471.955198
 20
223.591782
 30
0.0
 11
471.955198
 21
239.591782
 31
0.0
  0
ARC
  5
B7A5
330
B539
100
AcDbEntity
  8
1
  6
Continuous
100
AcDbCircle
 10
969.955198
 20
206.591782
 30
0.0
 40
508.4999999999998
100
AcDbArc
 50
184.511704
 51
185.007032
  0
CIRCLE
  5
B7A6
330
B539
100
AcDbEntity
  8
1
  6
Continuous
100
AcDbCircle
 10
471.955198
 20
231.591782
 30
0.0
 40
3.799999999999998
  0
CIRCLE
  5
B7A7
330
B539
100
AcDbEntity
  8
1
  6
Continuous
100
AcDbCircle
 10
471.955198
 20
231.591782
 30
0.0
 40
5.0
  0
CIRCLE
  5
B7A8
330
B539
100
AcDbEntity
  8
1
  6
Continuous
100
AcDbCircle
 10
471.955198
 20
231.591782
 30
0.0
 40
3.5
  0
LINE
  5
B7A9
330
B539
100
AcDbEntity
  8
1
  6
Continuous
100
AcDbLine
 10
472.479578
 20
230.451219
 30
0.0
 11
473.1131459999998
 21
229.840279
 31
0.0
  0
LINE
  5
B7AA
330
B539
100
AcDbEntity
  8
1
  6
Continuous
100
AcDbLine
 10
472.4802849999998
 20
232.7330519999999
 30
0.0
 11
473.1124389999997
 21
233.343993
 31
0.0
  0
ARC
  5
B7AB
330
B539
100
AcDbEntity
  8
1
  6
Continuous
100
AcDbCircle
 10
471.954198
 20
231.591782
 30
0.0
 40
2.1
100
AcDbArc
 50
213.463
 51
236.5369999999999
  0
ARC
  5
B7AC
330
B539
100
AcDbEntity
  8
1
  6
Continuous
100
AcDbCircle
 10
471.954198
 20
231.591782
 30
0.0
 40
2.1
100
AcDbArc
 50
123.4629999999998
 51
146.537
  0
LINE
  5
B7AD
330
B539
100
AcDbEntity
  8
1
  6
Continuous
100
AcDbLine
 10
470.813635
 20
231.066402
 30
0.0
 11
470.202695
 21
230.4342479999998
 31
0.0
  0
LINE
  5
B7AE
330
B539
100
AcDbEntity
  8
1
  6
Continuous
100
AcDbLine
 10
470.813635
 20
232.117162
 30
0.0
 11
470.202695
 21
232.7493159999999
 31
0.0
  0
LINE
  5
B7AF
330
B539
100
AcDbEntity
  8
1
  6
Continuous
100
AcDbLine
 10
471.954905
 20
230.6421379999999
 30
0.0
 11
472.479578
 21
230.451219
 31
0.0
  0
LINE
  5
B7B0
330
B539
100
AcDbEntity
  8
1
  6
Continuous
100
AcDbLine
 10
471.004554
 20
231.592489
 30
0.0
 11
470.813635
 21
231.066402
 31
0.0
  0
LINE
  5
B7B1
330
B539
100
AcDbEntity
  8
1
  6
Continuous
100
AcDbLine
 10
471.4288179999998
 20
230.451219
 30
0.0
 11
470.7966639999998
 21
229.840279
 31
0.0
  0
LINE
  5
B7B2
330
B539
100
AcDbEntity
  8
1
  6
Continuous
100
AcDbLine
 10
471.954905
 20
230.6421379999999
 30
0.0
 11
471.4288179999998
 21
230.451219
 31
0.0
  0
LINE
  5
B7B3
330
B539
100
AcDbEntity
  8
1
  6
Continuous
100
AcDbLine
 10
471.954198
 20
232.5421339999998
 30
0.0
 11
471.429525
 21
232.7330519999999
 31
0.0
  0
LINE
  5
B7B4
330
B539
100
AcDbEntity
  8
1
  6
Continuous
100
AcDbLine
 10
471.429525
 20
232.7330519999999
 30
0.0
 11
470.7966639999998
 21
233.343285
 31
0.0
  0
LINE
  5
B7B5
330
B539
100
AcDbEntity
  8
1
  6
Continuous
100
AcDbLine
 10
471.004554
 20
231.592489
 30
0.0
 11
470.813635
 21
232.117162
 31
0.0
  0
LINE
  5
B7B6
330
B539
100
AcDbEntity
  8
1
  6
Continuous
100
AcDbLine
 10
471.954198
 20
232.5421339999998
 30
0.0
 11
472.4802849999998
 21
232.7330519999999
 31
0.0
  0
ARC
  5
B7B7
330
B539
100
AcDbEntity
  8
1
  6
Continuous
100
AcDbCircle
 10
471.954198
 20
231.591782
 30
0.0
 40
2.1
100
AcDbArc
 50
303.4629999999999
 51
326.5369999999998
  0
ARC
  5
B7B8
330
B539
100
AcDbEntity
  8
1
  6
Continuous
100
AcDbCircle
 10
471.954198
 20
231.591782
 30
0.0
 40
2.1
100
AcDbArc
 50
33.463
 51
56.537
  0
LINE
  5
B7B9
330
B539
100
AcDbEntity
  8
1
  6
Continuous
100
AcDbLine
 10
473.0954679999999
 20
231.067109
 30
0.0
 11
473.706409
 21
230.4335409999999
 31
0.0
  0
LINE
  5
B7BA
330
B539
100
AcDbEntity
  8
1
  6
Continuous
100
AcDbLine
 10
472.9045499999998
 20
231.591782
 30
0.0
 11
473.0954679999999
 21
231.067109
 31
0.0
  0
LINE
  5
B7BB
330
B539
100
AcDbEntity
  8
1
  6
Continuous
100
AcDbLine
 10
473.0954679999999
 20
232.1178689999999
 30
0.0
 11
473.706409
 21
232.750023
 31
0.0
  0
LINE
  5
B7BC
330
B539
100
AcDbEntity
  8
1
  6
Continuous
100
AcDbLine
 10
472.9045499999998
 20
231.591782
 30
0.0
 11
473.0954679999999
 21
232.1178689999999
 31
0.0
  0
LINE
  5
B7BD
330
B539
100
AcDbEntity
  8
4
  6
CENTER
100
AcDbLine
 10
479.955198
 20
181.5917819999999
 30
0.0
 11
463.955198
 21
181.5917819999999
 31
0.0
  0
LINE
  5
B7BE
330
B539
100
AcDbEntity
  8
4
  6
CENTER
100
AcDbLine
 10
471.955198
 20
173.591782
 30
0.0
 11
471.955198
 21
189.591782
 31
0.0
  0
LINE
  5
B7BF
330
B539
100
AcDbEntity
  8
1
  6
Continuous
100
AcDbLine
 10
472.9045499999998
 20
181.5917819999999
 30
0.0
 11
473.0954679999999
 21
182.1178689999999
 31
0.0
  0
LINE
  5
B7C0
330
B539
100
AcDbEntity
  8
1
  6
Continuous
100
AcDbLine
 10
473.0954679999999
 20
182.1178689999999
 30
0.0
 11
473.706409
 21
182.750023
 31
0.0
  0
LINE
  5
B7C1
330
B539
100
AcDbEntity
  8
1
  6
Continuous
100
AcDbLine
 10
472.9045499999998
 20
181.5917819999999
 30
0.0
 11
473.0954679999999
 21
181.0671089999999
 31
0.0
  0
LINE
  5
B7C2
330
B539
100
AcDbEntity
  8
1
  6
Continuous
100
AcDbLine
 10
473.0954679999999
 20
181.0671089999999
 30
0.0
 11
473.706409
 21
180.433541
 31
0.0
  0
ARC
  5
B7C3
330
B539
100
AcDbEntity
  8
1
  6
Continuous
100
AcDbCircle
 10
471.954198
 20
181.5917819999999
 30
0.0
 40
2.1
100
AcDbArc
 50
33.463
 51
56.537
  0
ARC
  5
B7C4
330
B539
100
AcDbEntity
  8
1
  6
Continuous
100
AcDbCircle
 10
471.954198
 20
181.5917819999999
 30
0.0
 40
2.1
100
AcDbArc
 50
303.4629999999999
 51
326.5369999999998
  0
LINE
  5
B7C5
330
B539
100
AcDbEntity
  8
1
  6
Continuous
100
AcDbLine
 10
471.954198
 20
182.542134
 30
0.0
 11
472.4802849999998
 21
182.7330519999999
 31
0.0
  0
LINE
  5
B7C6
330
B539
100
AcDbEntity
  8
1
  6
Continuous
100
AcDbLine
 10
471.004554
 20
181.5924889999998
 30
0.0
 11
470.813635
 21
182.117162
 31
0.0
  0
LINE
  5
B7C7
330
B539
100
AcDbEntity
  8
1
  6
Continuous
100
AcDbLine
 10
471.429525
 20
182.7330519999999
 30
0.0
 11
470.7966639999998
 21
183.343285
 31
0.0
  0
LINE
  5
B7C8
330
B539
100
AcDbEntity
  8
1
  6
Continuous
100
AcDbLine
 10
471.954198
 20
182.542134
 30
0.0
 11
471.429525
 21
182.7330519999999
 31
0.0
  0
LINE
  5
B7C9
330
B539
100
AcDbEntity
  8
1
  6
Continuous
100
AcDbLine
 10
471.954905
 20
180.6421379999999
 30
0.0
 11
471.4288179999998
 21
180.4512189999999
 31
0.0
  0
LINE
  5
B7CA
330
B539
100
AcDbEntity
  8
1
  6
Continuous
100
AcDbLine
 10
471.4288179999998
 20
180.4512189999999
 30
0.0
 11
470.7966639999998
 21
179.840279
 31
0.0
  0
LINE
  5
B7CB
330
B539
100
AcDbEntity
  8
1
  6
Continuous
100
AcDbLine
 10
471.004554
 20
181.5924889999998
 30
0.0
 11
470.813635
 21
181.066402
 31
0.0
  0
LINE
  5
B7CC
330
B539
100
AcDbEntity
  8
1
  6
Continuous
100
AcDbLine
 10
471.954905
 20
180.6421379999999
 30
0.0
 11
472.479578
 21
180.4512189999999
 31
0.0
  0
LINE
  5
B7CD
330
B539
100
AcDbEntity
  8
1
  6
Continuous
100
AcDbLine
 10
470.813635
 20
182.117162
 30
0.0
 11
470.202695
 21
182.7493159999999
 31
0.0
  0
LINE
  5
B7CE
330
B539
100
AcDbEntity
  8
1
  6
Continuous
100
AcDbLine
 10
470.813635
 20
181.066402
 30
0.0
 11
470.202695
 21
180.434248
 31
0.0
  0
ARC
  5
B7CF
330
B539
100
AcDbEntity
  8
1
  6
Continuous
100
AcDbCircle
 10
471.954198
 20
181.5917819999999
 30
0.0
 40
2.1
100
AcDbArc
 50
123.4629999999998
 51
146.537
  0
ARC
  5
B7D0
330
B539
100
AcDbEntity
  8
1
  6
Continuous
100
AcDbCircle
 10
471.954198
 20
181.5917819999999
 30
0.0
 40
2.1
100
AcDbArc
 50
213.463
 51
236.5369999999999
  0
LINE
  5
B7D1
330
B539
100
AcDbEntity
  8
1
  6
Continuous
100
AcDbLine
 10
472.4802849999998
 20
182.7330519999999
 30
0.0
 11
473.1124389999997
 21
183.3439929999999
 31
0.0
  0
LINE
  5
B7D2
330
B539
100
AcDbEntity
  8
1
  6
Continuous
100
AcDbLine
 10
472.479578
 20
180.4512189999999
 30
0.0
 11
473.1131459999998
 21
179.840279
 31
0.0
  0
CIRCLE
  5
B7D3
330
B539
100
AcDbEntity
  8
1
  6
Continuous
100
AcDbCircle
 10
471.955198
 20
181.5917819999999
 30
0.0
 40
3.5
  0
CIRCLE
  5
B7D4
330
B539
100
AcDbEntity
  8
1
  6
Continuous
100
AcDbCircle
 10
471.955198
 20
181.5917819999999
 30
0.0
 40
5.0
  0
CIRCLE
  5
B7D5
330
B539
100
AcDbEntity
  8
1
  6
Continuous
100
AcDbCircle
 10
471.955198
 20
181.5917819999999
 30
0.0
 40
3.799999999999998
  0
LINE
  5
B7D6
330
B539
100
AcDbEntity
  8
4
  6
CENTER
100
AcDbLine
 10
500.855198
 20
224.0917819999999
 30
0.0
 11
475.955198
 21
224.0917819999999
 31
0.0
  0
LINE
  5
B7D7
330
B539
100
AcDbEntity
  8
4
  6
CENTER
100
AcDbLine
 10
482.955198
 20
217.091782
 30
0.0
 11
482.955198
 21
231.0917819999999
 31
0.0
  0
LINE
  5
B7D8
330
B539
100
AcDbEntity
  8
4
  6
CENTER
100
AcDbLine
 10
495.455198
 20
218.691782
 30
0.0
 11
495.455198
 21
229.4917819999998
 31
0.0
  0
CIRCLE
  5
B7D9
330
B539
100
AcDbEntity
  8
1
  6
Continuous
100
AcDbCircle
 10
495.455198
 20
224.0917819999999
 30
0.0
 40
2.399999999999999
  0
LINE
  5
B7DA
330
B539
100
AcDbEntity
  8
1
  6
Continuous
100
AcDbLine
 10
483.5251259999998
 20
225.279721
 30
0.0
 11
484.2216259999998
 21
225.9521799999999
 31
0.0
  0
CIRCLE
  5
B7DB
330
B539
100
AcDbEntity
  8
1
  6
Continuous
100
AcDbCircle
 10
482.955198
 20
224.0917819999999
 30
0.0
 40
4.0
  0
LINE
  5
B7DC
330
B539
100
AcDbEntity
  8
1
  6
Continuous
100
AcDbLine
 10
483.524419
 20
222.90455
 30
0.0
 11
484.2216259999998
 21
222.2313839999999
 31
0.0
  0
ARC
  5
B7DD
330
B539
100
AcDbEntity
  8
1
  6
Continuous
100
AcDbCircle
 10
482.955198
 20
224.0917819999999
 30
0.0
 40
2.25
100
AcDbArc
 50
124.2416999999998
 51
145.7579999999999
  0
LINE
  5
B7DE
330
B539
100
AcDbEntity
  8
1
  6
Continuous
100
AcDbLine
 10
481.767966
 20
223.522561
 30
0.0
 11
481.095507
 21
222.8260609999999
 31
0.0
  0
LINE
  5
B7DF
330
B539
100
AcDbEntity
  8
1
  6
Continuous
100
AcDbLine
 10
481.767966
 20
224.6610029999999
 30
0.0
 11
481.095507
 21
225.3575029999999
 31
0.0
  0
ARC
  5
B7E0
330
B539
100
AcDbEntity
  8
1
  6
Continuous
100
AcDbCircle
 10
482.955198
 20
224.0917819999999
 30
0.0
 40
2.25
100
AcDbArc
 50
214.2419999999999
 51
235.758
  0
LINE
  5
B7E1
330
B539
100
AcDbEntity
  8
1
  6
Continuous
100
AcDbLine
 10
482.955198
 20
223.111732
 30
0.0
 11
483.524419
 21
222.90455
 31
0.0
  0
LINE
  5
B7E2
330
B539
100
AcDbEntity
  8
1
  6
Continuous
100
AcDbLine
 10
482.955198
 20
225.0718319999998
 30
0.0
 11
483.5251259999998
 21
225.279721
 31
0.0
  0
LINE
  5
B7E3
330
B539
100
AcDbEntity
  8
1
  6
Continuous
100
AcDbLine
 10
481.9751479999998
 20
224.0917819999999
 30
0.0
 11
481.767966
 21
223.522561
 31
0.0
  0
LINE
  5
B7E4
330
B539
100
AcDbEntity
  8
1
  6
Continuous
100
AcDbLine
 10
481.9751479999998
 20
224.0917819999999
 30
0.0
 11
481.767966
 21
224.6610029999999
 31
0.0
  0
LINE
  5
B7E5
330
B539
100
AcDbEntity
  8
1
  6
Continuous
100
AcDbLine
 10
482.3859769999998
 20
225.279014
 30
0.0
 11
481.6894769999998
 21
225.9514729999999
 31
0.0
  0
LINE
  5
B7E6
330
B539
100
AcDbEntity
  8
1
  6
Continuous
100
AcDbLine
 10
482.955198
 20
223.111732
 30
0.0
 11
482.3859769999998
 21
222.90455
 31
0.0
  0
LINE
  5
B7E7
330
B539
100
AcDbEntity
  8
1
  6
Continuous
100
AcDbLine
 10
482.955198
 20
225.0718319999998
 30
0.0
 11
482.3859769999998
 21
225.279014
 31
0.0
  0
LINE
  5
B7E8
330
B539
100
AcDbEntity
  8
1
  6
Continuous
100
AcDbLine
 10
482.3859769999998
 20
222.90455
 30
0.0
 11
481.6894769999998
 21
222.232091
 31
0.0
  0
LINE
  5
B7E9
330
B539
100
AcDbEntity
  8
1
  6
Continuous
100
AcDbLine
 10
484.1424299999998
 20
223.522561
 30
0.0
 11
484.8155959999998
 21
222.825354
 31
0.0
  0
LINE
  5
B7EA
330
B539
100
AcDbEntity
  8
1
  6
Continuous
100
AcDbLine
 10
484.143137
 20
224.6617099999999
 30
0.0
 11
484.8155959999998
 21
225.35821
 31
0.0
  0
ARC
  5
B7EB
330
B539
100
AcDbEntity
  8
1
  6
Continuous
100
AcDbCircle
 10
482.955198
 20
224.0917819999999
 30
0.0
 40
2.25
100
AcDbArc
 50
34.24199999999999
 51
55.75829999999999
  0
LINE
  5
B7EC
330
B539
100
AcDbEntity
  8
1
  6
Continuous
100
AcDbLine
 10
483.935248
 20
224.0917819999999
 30
0.0
 11
484.1424299999998
 21
223.522561
 31
0.0
  0
LINE
  5
B7ED
330
B539
100
AcDbEntity
  8
1
  6
Continuous
100
AcDbLine
 10
483.935248
 20
224.0917819999999
 30
0.0
 11
484.143137
 21
224.6617099999999
 31
0.0
  0
ARC
  5
B7EE
330
B539
100
AcDbEntity
  8
1
  6
Continuous
100
AcDbCircle
 10
482.955198
 20
224.0917819999999
 30
0.0
 40
2.25
100
AcDbArc
 50
304.242
 51
325.7579999999999
  0
LINE
  5
B7EF
330
B539
100
AcDbEntity
  8
4
  6
CENTER
100
AcDbLine
 10
500.855198
 20
189.091782
 30
0.0
 11
475.955198
 21
189.091782
 31
0.0
  0
CIRCLE
  5
B7F0
330
B539
100
AcDbEntity
  8
1
  6
Continuous
100
AcDbCircle
 10
495.455198
 20
189.091782
 30
0.0
 40
2.399999999999999
  0
LINE
  5
B7F1
330
B539
100
AcDbEntity
  8
4
  6
CENTER
100
AcDbLine
 10
482.955198
 20
182.091782
 30
0.0
 11
482.955198
 21
196.0917819999998
 31
0.0
  0
ARC
  5
B7F2
330
B539
100
AcDbEntity
  8
1
  6
Continuous
100
AcDbCircle
 10
482.955198
 20
189.091782
 30
0.0
 40
2.25
100
AcDbArc
 50
304.242
 51
325.7579999999999
  0
LINE
  5
B7F3
330
B539
100
AcDbEntity
  8
1
  6
Continuous
100
AcDbLine
 10
483.935248
 20
189.091782
 30
0.0
 11
484.143137
 21
189.66171
 31
0.0
  0
LINE
  5
B7F4
330
B539
100
AcDbEntity
  8
1
  6
Continuous
100
AcDbLine
 10
483.935248
 20
189.091782
 30
0.0
 11
484.1424299999998
 21
188.5225609999999
 31
0.0
  0
ARC
  5
B7F5
330
B539
100
AcDbEntity
  8
1
  6
Continuous
100
AcDbCircle
 10
482.955198
 20
189.091782
 30
0.0
 40
2.25
100
AcDbArc
 50
34.24199999999999
 51
55.75829999999999
  0
LINE
  5
B7F6
330
B539
100
AcDbEntity
  8
1
  6
Continuous
100
AcDbLine
 10
484.143137
 20
189.66171
 30
0.0
 11
484.8155959999998
 21
190.35821
 31
0.0
  0
LINE
  5
B7F7
330
B539
100
AcDbEntity
  8
1
  6
Continuous
100
AcDbLine
 10
484.1424299999998
 20
188.5225609999999
 30
0.0
 11
484.8155959999998
 21
187.825354
 31
0.0
  0
LINE
  5
B7F8
330
B539
100
AcDbEntity
  8
1
  6
Continuous
100
AcDbLine
 10
482.3859769999998
 20
187.90455
 30
0.0
 11
481.6894769999998
 21
187.232091
 31
0.0
  0
LINE
  5
B7F9
330
B539
100
AcDbEntity
  8
1
  6
Continuous
100
AcDbLine
 10
482.955198
 20
190.071832
 30
0.0
 11
482.3859769999998
 21
190.279014
 31
0.0
  0
LINE
  5
B7FA
330
B539
100
AcDbEntity
  8
1
  6
Continuous
100
AcDbLine
 10
482.955198
 20
188.1117319999999
 30
0.0
 11
482.3859769999998
 21
187.90455
 31
0.0
  0
LINE
  5
B7FB
330
B539
100
AcDbEntity
  8
1
  6
Continuous
100
AcDbLine
 10
482.3859769999998
 20
190.279014
 30
0.0
 11
481.6894769999998
 21
190.9514729999999
 31
0.0
  0
LINE
  5
B7FC
330
B539
100
AcDbEntity
  8
1
  6
Continuous
100
AcDbLine
 10
481.9751479999998
 20
189.091782
 30
0.0
 11
481.767966
 21
189.6610029999999
 31
0.0
  0
LINE
  5
B7FD
330
B539
100
AcDbEntity
  8
1
  6
Continuous
100
AcDbLine
 10
481.9751479999998
 20
189.091782
 30
0.0
 11
481.767966
 21
188.5225609999999
 31
0.0
  0
LINE
  5
B7FE
330
B539
100
AcDbEntity
  8
1
  6
Continuous
100
AcDbLine
 10
482.955198
 20
190.071832
 30
0.0
 11
483.5251259999998
 21
190.2797209999999
 31
0.0
  0
LINE
  5
B7FF
330
B539
100
AcDbEntity
  8
1
  6
Continuous
100
AcDbLine
 10
482.955198
 20
188.1117319999999
 30
0.0
 11
483.524419
 21
187.90455
 31
0.0
  0
ARC
  5
B800
330
B539
100
AcDbEntity
  8
1
  6
Continuous
100
AcDbCircle
 10
482.955198
 20
189.091782
 30
0.0
 40
2.25
100
AcDbArc
 50
214.2419999999999
 51
235.758
  0
LINE
  5
B801
330
B539
100
AcDbEntity
  8
1
  6
Continuous
100
AcDbLine
 10
481.767966
 20
189.6610029999999
 30
0.0
 11
481.095507
 21
190.357503
 31
0.0
  0
LINE
  5
B802
330
B539
100
AcDbEntity
  8
1
  6
Continuous
100
AcDbLine
 10
481.767966
 20
188.5225609999999
 30
0.0
 11
481.095507
 21
187.826061
 31
0.0
  0
ARC
  5
B803
330
B539
100
AcDbEntity
  8
1
  6
Continuous
100
AcDbCircle
 10
482.955198
 20
189.091782
 30
0.0
 40
2.25
100
AcDbArc
 50
124.2416999999998
 51
145.7579999999999
  0
LINE
  5
B804
330
B539
100
AcDbEntity
  8
1
  6
Continuous
100
AcDbLine
 10
483.524419
 20
187.90455
 30
0.0
 11
484.2216259999998
 21
187.2313839999999
 31
0.0
  0
CIRCLE
  5
B805
330
B539
100
AcDbEntity
  8
1
  6
Continuous
100
AcDbCircle
 10
482.955198
 20
189.091782
 30
0.0
 40
4.0
  0
LINE
  5
B806
330
B539
100
AcDbEntity
  8
1
  6
Continuous
100
AcDbLine
 10
483.5251259999998
 20
190.2797209999999
 30
0.0
 11
484.2216259999998
 21
190.95218
 31
0.0
  0
LINE
  5
B807
330
B539
100
AcDbEntity
  8
4
  6
CENTER
100
AcDbLine
 10
495.455198
 20
183.691782
 30
0.0
 11
495.455198
 21
194.491782
 31
0.0
  0
ARC
  5
B808
330
B539
100
AcDbEntity
  8
1
  6
Continuous
100
AcDbCircle
 10
530.955198
 20
236.5917819999999
 30
0.0
 40
2.25
100
AcDbArc
 50
304.242
 51
325.7579999999999
  0
LINE
  5
B809
330
B539
100
AcDbEntity
  8
1
  6
Continuous
100
AcDbLine
 10
531.935248
 20
236.5917819999999
 30
0.0
 11
532.1431369999998
 21
237.1617099999999
 31
0.0
  0
LINE
  5
B80A
330
B539
100
AcDbEntity
  8
1
  6
Continuous
100
AcDbLine
 10
531.935248
 20
236.5917819999999
 30
0.0
 11
532.14243
 21
236.022561
 31
0.0
  0
ARC
  5
B80B
330
B539
100
AcDbEntity
  8
1
  6
Continuous
100
AcDbCircle
 10
530.955198
 20
236.5917819999999
 30
0.0
 40
2.25
100
AcDbArc
 50
34.24199999999999
 51
55.75829999999999
  0
LINE
  5
B80C
330
B539
100
AcDbEntity
  8
1
  6
Continuous
100
AcDbLine
 10
532.1431369999998
 20
237.1617099999999
 30
0.0
 11
532.815596
 21
237.85821
 31
0.0
  0
LINE
  5
B80D
330
B539
100
AcDbEntity
  8
1
  6
Continuous
100
AcDbLine
 10
532.14243
 20
236.022561
 30
0.0
 11
532.815596
 21
235.325354
 31
0.0
  0
LINE
  5
B80E
330
B539
100
AcDbEntity
  8
1
  6
Continuous
100
AcDbLine
 10
530.3859769999998
 20
235.40455
 30
0.0
 11
529.689477
 21
234.732091
 31
0.0
  0
LINE
  5
B80F
330
B539
100
AcDbEntity
  8
1
  6
Continuous
100
AcDbLine
 10
530.955198
 20
237.5718319999998
 30
0.0
 11
530.3859769999998
 21
237.779014
 31
0.0
  0
LINE
  5
B810
330
B539
100
AcDbEntity
  8
1
  6
Continuous
100
AcDbLine
 10
530.955198
 20
235.611732
 30
0.0
 11
530.3859769999998
 21
235.40455
 31
0.0
  0
LINE
  5
B811
330
B539
100
AcDbEntity
  8
1
  6
Continuous
100
AcDbLine
 10
530.3859769999998
 20
237.779014
 30
0.0
 11
529.689477
 21
238.4514729999999
 31
0.0
  0
LINE
  5
B812
330
B539
100
AcDbEntity
  8
1
  6
Continuous
100
AcDbLine
 10
529.975148
 20
236.5917819999999
 30
0.0
 11
529.767966
 21
237.1610029999999
 31
0.0
  0
LINE
  5
B813
330
B539
100
AcDbEntity
  8
1
  6
Continuous
100
AcDbLine
 10
529.975148
 20
236.5917819999999
 30
0.0
 11
529.767966
 21
236.022561
 31
0.0
  0
LINE
  5
B814
330
B539
100
AcDbEntity
  8
1
  6
Continuous
100
AcDbLine
 10
530.955198
 20
237.5718319999998
 30
0.0
 11
531.525126
 21
237.779721
 31
0.0
  0
LINE
  5
B815
330
B539
100
AcDbEntity
  8
1
  6
Continuous
100
AcDbLine
 10
530.955198
 20
235.611732
 30
0.0
 11
531.5244189999998
 21
235.40455
 31
0.0
  0
ARC
  5
B816
330
B539
100
AcDbEntity
  8
1
  6
Continuous
100
AcDbCircle
 10
530.955198
 20
236.5917819999999
 30
0.0
 40
2.25
100
AcDbArc
 50
214.2419999999999
 51
235.758
  0
LINE
  5
B817
330
B539
100
AcDbEntity
  8
1
  6
Continuous
100
AcDbLine
 10
529.767966
 20
237.1610029999999
 30
0.0
 11
529.0955069999998
 21
237.8575029999999
 31
0.0
  0
LINE
  5
B818
330
B539
100
AcDbEntity
  8
1
  6
Continuous
100
AcDbLine
 10
529.767966
 20
236.022561
 30
0.0
 11
529.0955069999998
 21
235.3260609999999
 31
0.0
  0
ARC
  5
B819
330
B539
100
AcDbEntity
  8
1
  6
Continuous
100
AcDbCircle
 10
530.955198
 20
236.5917819999999
 30
0.0
 40
2.25
100
AcDbArc
 50
124.2416999999998
 51
145.7579999999999
  0
LINE
  5
B81A
330
B539
100
AcDbEntity
  8
1
  6
Continuous
100
AcDbLine
 10
531.5244189999998
 20
235.40455
 30
0.0
 11
532.221626
 21
234.7313839999999
 31
0.0
  0
CIRCLE
  5
B81B
330
B539
100
AcDbEntity
  8
1
  6
Continuous
100
AcDbCircle
 10
530.955198
 20
236.5917819999999
 30
0.0
 40
4.0
  0
LINE
  5
B81C
330
B539
100
AcDbEntity
  8
1
  6
Continuous
100
AcDbLine
 10
531.525126
 20
237.779721
 30
0.0
 11
532.221626
 21
238.4521799999999
 31
0.0
  0
LINE
  5
B81D
330
B539
100
AcDbEntity
  8
4
  6
CENTER
100
AcDbLine
 10
530.955198
 20
229.591782
 30
0.0
 11
530.955198
 21
243.5917819999999
 31
0.0
  0
LINE
  5
B81E
330
B539
100
AcDbEntity
  8
4
  6
CENTER
100
AcDbLine
 10
537.955198
 20
236.5917819999999
 30
0.0
 11
523.9551979999998
 21
236.5917819999999
 31
0.0
  0
LINE
  5
B81F
330
B539
100
AcDbEntity
  8
4
  6
CENTER
100
AcDbLine
 10
537.955198
 20
176.591782
 30
0.0
 11
523.9551979999998
 21
176.591782
 31
0.0
  0
CIRCLE
  5
B820
330
B539
100
AcDbEntity
  8
1
  6
Continuous
100
AcDbCircle
 10
530.955198
 20
176.591782
 30
0.0
 40
4.0
  0
LINE
  5
B821
330
B539
100
AcDbEntity
  8
1
  6
Continuous
100
AcDbLine
 10
530.3859769999998
 20
177.779014
 30
0.0
 11
529.689477
 21
178.4514729999999
 31
0.0
  0
LINE
  5
B822
330
B539
100
AcDbEntity
  8
1
  6
Continuous
100
AcDbLine
 10
530.3859769999998
 20
175.40455
 30
0.0
 11
529.689477
 21
174.732091
 31
0.0
  0
ARC
  5
B823
330
B539
100
AcDbEntity
  8
1
  6
Continuous
100
AcDbCircle
 10
530.955198
 20
176.591782
 30
0.0
 40
2.25
100
AcDbArc
 50
124.2416999999998
 51
145.7579999999999
  0
LINE
  5
B824
330
B539
100
AcDbEntity
  8
1
  6
Continuous
100
AcDbLine
 10
529.767966
 20
176.0225609999999
 30
0.0
 11
529.0955069999998
 21
175.326061
 31
0.0
  0
LINE
  5
B825
330
B539
100
AcDbEntity
  8
1
  6
Continuous
100
AcDbLine
 10
529.767966
 20
177.1610029999999
 30
0.0
 11
529.0955069999998
 21
177.857503
 31
0.0
  0
ARC
  5
B826
330
B539
100
AcDbEntity
  8
1
  6
Continuous
100
AcDbCircle
 10
530.955198
 20
176.591782
 30
0.0
 40
2.25
100
AcDbArc
 50
214.2419999999999
 51
235.758
  0
LINE
  5
B827
330
B539
100
AcDbEntity
  8
1
  6
Continuous
100
AcDbLine
 10
529.975148
 20
176.591782
 30
0.0
 11
529.767966
 21
176.0225609999999
 31
0.0
  0
LINE
  5
B828
330
B539
100
AcDbEntity
  8
1
  6
Continuous
100
AcDbLine
 10
529.975148
 20
176.591782
 30
0.0
 11
529.767966
 21
177.1610029999999
 31
0.0
  0
LINE
  5
B829
330
B539
100
AcDbEntity
  8
4
  6
CENTER
100
AcDbLine
 10
530.955198
 20
169.591782
 30
0.0
 11
530.955198
 21
183.5917819999998
 31
0.0
  0
LINE
  5
B82A
330
B539
100
AcDbEntity
  8
1
  6
Continuous
100
AcDbLine
 10
531.525126
 20
177.7797209999999
 30
0.0
 11
532.221626
 21
178.45218
 31
0.0
  0
LINE
  5
B82B
330
B539
100
AcDbEntity
  8
1
  6
Continuous
100
AcDbLine
 10
531.5244189999998
 20
175.40455
 30
0.0
 11
532.221626
 21
174.7313839999999
 31
0.0
  0
LINE
  5
B82C
330
B539
100
AcDbEntity
  8
1
  6
Continuous
100
AcDbLine
 10
530.955198
 20
175.6117319999999
 30
0.0
 11
531.5244189999998
 21
175.40455
 31
0.0
  0
LINE
  5
B82D
330
B539
100
AcDbEntity
  8
1
  6
Continuous
100
AcDbLine
 10
530.955198
 20
177.571832
 30
0.0
 11
531.525126
 21
177.7797209999999
 31
0.0
  0
LINE
  5
B82E
330
B539
100
AcDbEntity
  8
1
  6
Continuous
100
AcDbLine
 10
530.955198
 20
175.6117319999999
 30
0.0
 11
530.3859769999998
 21
175.40455
 31
0.0
  0
LINE
  5
B82F
330
B539
100
AcDbEntity
  8
1
  6
Continuous
100
AcDbLine
 10
530.955198
 20
177.571832
 30
0.0
 11
530.3859769999998
 21
177.779014
 31
0.0
  0
LINE
  5
B830
330
B539
100
AcDbEntity
  8
1
  6
Continuous
100
AcDbLine
 10
532.14243
 20
176.0225609999999
 30
0.0
 11
532.815596
 21
175.325354
 31
0.0
  0
LINE
  5
B831
330
B539
100
AcDbEntity
  8
1
  6
Continuous
100
AcDbLine
 10
532.1431369999998
 20
177.16171
 30
0.0
 11
532.815596
 21
177.85821
 31
0.0
  0
ARC
  5
B832
330
B539
100
AcDbEntity
  8
1
  6
Continuous
100
AcDbCircle
 10
530.955198
 20
176.591782
 30
0.0
 40
2.25
100
AcDbArc
 50
34.24199999999999
 51
55.75829999999999
  0
LINE
  5
B833
330
B539
100
AcDbEntity
  8
1
  6
Continuous
100
AcDbLine
 10
531.935248
 20
176.591782
 30
0.0
 11
532.14243
 21
176.0225609999999
 31
0.0
  0
LINE
  5
B834
330
B539
100
AcDbEntity
  8
1
  6
Continuous
100
AcDbLine
 10
531.935248
 20
176.591782
 30
0.0
 11
532.1431369999998
 21
177.16171
 31
0.0
  0
ARC
  5
B835
330
B539
100
AcDbEntity
  8
1
  6
Continuous
100
AcDbCircle
 10
530.955198
 20
176.591782
 30
0.0
 40
2.25
100
AcDbArc
 50
304.242
 51
325.7579999999999
  0
LINE
  5
B836
330
B539
100
AcDbEntity
  8
1
  6
Continuous
100
AcDbLine
 10
476.9551980000001
 20
216.1917819999999
 30
0.0
 11
474.455198
 21
216.1917819999999
 31
0.0
  0
LINE
  5
B837
330
B539
100
AcDbEntity
  8
1
  6
Continuous
100
AcDbLine
 10
476.9551980000001
 20
196.991782
 30
0.0
 11
474.455198
 21
196.991782
 31
0.0
  0
LINE
  5
B838
330
B539
100
AcDbEntity
  8
1
  6
Continuous
100
AcDbLine
 10
474.455198
 20
196.991782
 30
0.0
 11
474.455198
 21
216.1917819999999
 31
0.0
  0
LINE
  5
B839
330
B539
100
AcDbEntity
  8
1
  6
Continuous
100
AcDbLine
 10
472.955198
 20
196.5917819999999
 30
0.0
 11
472.955198
 21
216.591782
 31
0.0
  0
LINE
  5
B83A
330
B539
100
AcDbEntity
  8
1
  6
Continuous
100
AcDbLine
 10
476.9551980000001
 20
216.591782
 30
0.0
 11
472.955198
 21
216.591782
 31
0.0
  0
LINE
  5
B83B
330
B539
100
AcDbEntity
  8
1
  6
Continuous
100
AcDbLine
 10
476.9551980000001
 20
196.5917819999999
 30
0.0
 11
472.955198
 21
196.5917819999999
 31
0.0
  0
LINE
  5
B83C
330
B539
100
AcDbEntity
  8
1
  6
Continuous
100
AcDbLine
 10
473.955198
 20
252.591782
 30
0.0
 11
534.455198
 21
252.591782
 31
0.0
  0
ARC
  5
B83D
330
B539
100
AcDbEntity
  8
1
  6
Continuous
100
AcDbCircle
 10
534.455198
 20
249.5917819999998
 30
0.0
 40
3.0
100
AcDbArc
 50
41.810315
 51
90.0
  0
ARC
  5
B83E
330
B539
100
AcDbEntity
  8
1
  6
Continuous
100
AcDbCircle
 10
473.955198
 20
246.591782
 30
0.0
 40
6.0
100
AcDbArc
 50
90.0
 51
180.0
  0
ARC
  5
B83F
330
B539
100
AcDbEntity
  8
1
  6
Continuous
100
AcDbCircle
 10
534.455198
 20
163.5917819999999
 30
0.0
 40
3.0
100
AcDbArc
 50
270.0
 51
318.189685
  0
LINE
  5
B840
330
B539
100
AcDbEntity
  8
1
  6
Continuous
100
AcDbLine
 10
473.955198
 20
160.5917819999999
 30
0.0
 11
534.455198
 21
160.5917819999999
 31
0.0
  0
ARC
  5
B841
330
B539
100
AcDbEntity
  8
1
  6
Continuous
100
AcDbCircle
 10
473.955198
 20
166.5917819999999
 30
0.0
 40
6.0
100
AcDbArc
 50
180.0
 51
270.0
  0
LINE
  5
B842
330
B539
100
AcDbEntity
  8
1
  6
Continuous
100
AcDbLine
 10
463.078928
 20
166.5917819999999
 30
0.0
 11
463.078928
 21
246.591782
 31
0.0
  0
LINE
  5
B843
330
B539
100
AcDbEntity
  8
1
  6
Continuous
100
AcDbLine
 10
465.019747
 20
166.5917819999999
 30
0.0
 11
465.019747
 21
246.591782
 31
0.0
  0
LINE
  5
B844
330
B539
100
AcDbEntity
  8
4
  6
CENTER
100
AcDbLine
 10
347.9574359999999
 20
175.0917819999999
 30
0.0
 11
337.4574359999999
 21
175.0917819999999
 31
0.0
  0
LINE
  5
B845
330
B539
100
AcDbEntity
  8
4
  6
CENTER
100
AcDbLine
 10
51.0
 20
175.0917819999999
 30
0.0
 11
61.5
 21
175.0917819999999
 31
0.0
  0
LINE
  5
B846
330
B539
100
AcDbEntity
  8
4
  6
CENTER
100
AcDbLine
 10
348.4574359999998
 20
155.5917819999999
 30
0.0
 11
348.4574359999998
 21
257.5917819999999
 31
0.0
  0
LINE
  5
B847
330
B539
100
AcDbEntity
  8
4
  6
CENTER
100
AcDbLine
 10
50.5
 20
155.5917819999999
 30
0.0
 11
50.5
 21
257.5917819999999
 31
0.0
  0
ENDSEC
  0
SECTION
  2
OBJECTS
  0
DICTIONARY
  5
B527
330
0
100
AcDbDictionary
281
     1
  3
ACAD_CIP_PREVIOUS_PRODUCT_INFO
350
B8AD
  3
ACAD_COLOR
350
B88F
  3
ACAD_DETAILVIEWSTYLE
350
B8A8
  3
ACAD_GROUP
350
B528
  3
ACAD_LAYOUT
350
B534
  3
ACAD_MATERIAL
350
B85D
  3
ACAD_MLEADERSTYLE
350
B8A4
  3
ACAD_MLINESTYLE
350
B531
  3
ACAD_PLOTSETTINGS
350
B533
  3
ACAD_PLOTSTYLENAME
350
B85B
  3
ACAD_SCALELIST
350
B892
  3
ACAD_SECTIONVIEWSTYLE
350
B8A6
  3
ACAD_TABLESTYLE
350
B890
  3
ACAD_VISUALSTYLE
350
B876
  3
ACDB_RECOMPOSE_DATA
350
B8CB
  3
AcDbVariableDictionary
350
B8BE
  3
DWGPROPS
350
B8CC
  0
DICTIONARY
  5
B8AE
330
B52B
100
AcDbDictionary
280
     1
281
     1
  3
ADSK_XREC_LAYER_RECONCILED
360
B8AF
  0
DICTIONARY
  5
B8B0
330
B541
100
AcDbDictionary
280
     1
281
     1
  3
ADSK_XREC_LAYER_RECONCILED
360
B8B1
  0
DICTIONARY
  5
B8B2
330
B542
100
AcDbDictionary
280
     1
281
     1
  3
ADSK_XREC_LAYER_RECONCILED
360
B8B3
  0
DICTIONARY
  5
B8B4
330
B543
100
AcDbDictionary
280
     1
281
     1
  3
ADSK_XREC_LAYER_RECONCILED
360
B8B5
  0
DICTIONARY
  5
B8B6
330
B544
100
AcDbDictionary
280
     1
281
     1
  3
ADSK_XREC_LAYER_RECONCILED
360
B8B7
  0
DICTIONARY
  5
B8B8
330
B545
100
AcDbDictionary
280
     1
281
     1
  3
ADSK_XREC_LAYER_RECONCILED
360
B8B9
  0
DICTIONARY
  5
B8BA
330
B546
100
AcDbDictionary
280
     1
281
     1
  3
ADSK_XREC_LAYER_RECONCILED
360
B8BB
  0
DICTIONARY
  5
B8BC
330
B547
100
AcDbDictionary
280
     1
281
     1
  3
ADSK_XREC_LAYER_RECONCILED
360
B8BD
  0
DICTIONARY
  5
B856
330
B539
100
AcDbDictionary
281
     1
  3
ACAD_LAYOUTSELFREF
350
B857
  0
DICTIONARY
  5
B854
330
B535
100
AcDbDictionary
281
     1
  3
ACAD_LAYOUTSELFREF
350
B855
  0
XRECORD
  5
B8AD
102
{ACAD_REACTORS
330
B527
102
}
330
B527
100
AcDbXrecord
280
     1
300
ACDLT
300
2014
300
ACDLT_F_S
  0
DICTIONARY
  5
B88F
102
{ACAD_REACTORS
330
B527
102
}
330
B527
100
AcDbDictionary
281
     1
  0
DICTIONARY
  5
B8A8
102
{ACAD_REACTORS
330
B527
102
}
330
B527
100
AcDbDictionary
281
     1
  3
Imperial24
350
B8A9
  0
DICTIONARY
  5
B528
102
{ACAD_REACTORS
330
B527
102
}
330
B527
100
AcDbDictionary
281
     1
  0
DICTIONARY
  5
B534
102
{ACAD_REACTORS
330
B527
102
}
330
B527
100
AcDbDictionary
281
     1
  3
Model
350
B8AA
  3
レイアウト1
350
B8AB
  0
DICTIONARY
  5
B85D
102
{ACAD_REACTORS
330
B527
102
}
330
B527
100
AcDbDictionary
281
     1
  3
ByBlock
350
B866
  3
ByLayer
350
B85E
  3
Global
350
B86E
  0
DICTIONARY
  5
B8A4
102
{ACAD_REACTORS
330
B527
102
}
330
B527
100
AcDbDictionary
281
     1
  3
Standard
350
B8A5
  0
DICTIONARY
  5
B531
102
{ACAD_REACTORS
330
B527
102
}
330
B527
100
AcDbDictionary
281
     1
  3
STANDARD
350
B532
  0
DICTIONARY
  5
B533
102
{ACAD_REACTORS
330
B527
102
}
330
B527
100
AcDbDictionary
281
     1
  0
ACDBDICTIONARYWDFLT
  5
B85B
102
{ACAD_REACTORS
330
B527
102
}
330
B527
100
AcDbDictionary
281
     1
  3
Normal
350
B85C
100
AcDbDictionaryWithDefault
340
B85C
  0
DICTIONARY
  5
B892
102
{ACAD_REACTORS
330
B527
102
}
330
B527
100
AcDbDictionary
281
     1
  3
A0
350
B893
  3
A1
350
B894
  3
A2
350
B895
  3
A3
350
B896
  3
A4
350
B897
  3
A5
350
B898
  3
A6
350
B899
  3
A7
350
B89A
  3
A8
350
B89B
  3
A9
350
B89C
  3
B0
350
B89D
  3
B1
350
B89E
  3
B2
350
B89F
  3
B3
350
B8A0
  3
B4
350
B8A1
  3
B5
350
B8A2
  3
B6
350
B8A3
  0
DICTIONARY
  5
B8A6
102
{ACAD_REACTORS
330
B527
102
}
330
B527
100
AcDbDictionary
281
     1
  3
Imperial24
350
B8A7
  0
DICTIONARY
  5
B890
102
{ACAD_REACTORS
330
B527
102
}
330
B527
100
AcDbDictionary
281
     1
  3
Standard
350
B891
  0
DICTIONARY
  5
B876
102
{ACAD_REACTORS
330
B527
102
}
330
B527
100
AcDbDictionary
281
     1
  3
2dWireframe
350
B87C
  3
Basic
350
B87B
  3
Brighten
350
B882
  3
ColorChange
350
B886
  3
Conceptual
350
B87F
  3
Dim
350
B881
  3
EdgeColorOff
350
B88E
  3
Facepattern
350
B885
  3
Flat
350
B877
  3
FlatWithEdges
350
B878
  3
Gouraud
350
B879
  3
GouraudWithEdges
350
B87A
  3
Hidden
350
B87E
  3
JitterOff
350
B88C
  3
Linepattern
350
B884
  3
OverhangOff
350
B88D
  3
Realistic
350
B880
  3
Shaded
350
B88B
  3
Shaded with edges
350
B88A
  3
Shades of Gray
350
B887
  3
Sketchy
350
B888
  3
Thicken
350
B883
  3
Wireframe
350
B87D
  3
X-Ray
350
B889
  0
XRECORD
  5
B8CB
102
{ACAD_REACTORS
330
B527
102
}
330
B527
100
AcDbXrecord
280
     1
 90
        1
330
B891
  0
DICTIONARY
  5
B8BE
102
{ACAD_REACTORS
330
B527
102
}
330
B527
100
AcDbDictionary
281
     1
  3
CANNOSCALE
350
B8C3
  3
CMLEADERSTYLE
350
B8C0
  3
CTABLESTYLE
350
B8BF
  3
CVIEWDETAILSTYLE
350
B8C1
  3
CVIEWSECTIONSTYLE
350
B8C2
  3
DIMASSOC
350
B8C6
  3
INDEXCTL
350
B8C5
  3
SORTENTS
350
B8C4
  3
XCLIPFRAME
350
B8C7
  0
XRECORD
  5
B8CC
102
{ACAD_REACTORS
330
B527
102
}
330
B527
100
AcDbXrecord
280
     1
  1
DWGPROPS COOKIE
  2

  3

  4

  6

  7

  8
Yoshitsune
  9

300
=
301
=
302
=
303
=
304
=
305
=
306
=
307
=
308
=
309
=
 40
0.0000157638888889
 41
2451368.502221065
 42
2457192.642907465
  1

 90
        0
  0
XRECORD
  5
B8AF
102
{ACAD_REACTORS
330
B8AE
102
}
330
B8AE
100
AcDbXrecord
280
     1
290
     1
  0
XRECORD
  5
B8B1
102
{ACAD_REACTORS
330
B8B0
102
}
330
B8B0
100
AcDbXrecord
280
     1
290
     1
  0
XRECORD
  5
B8B3
102
{ACAD_REACTORS
330
B8B2
102
}
330
B8B2
100
AcDbXrecord
280
     1
290
     1
  0
XRECORD
  5
B8B5
102
{ACAD_REACTORS
330
B8B4
102
}
330
B8B4
100
AcDbXrecord
280
     1
290
     1
  0
XRECORD
  5
B8B7
102
{ACAD_REACTORS
330
B8B6
102
}
330
B8B6
100
AcDbXrecord
280
     1
290
     1
  0
XRECORD
  5
B8B9
102
{ACAD_REACTORS
330
B8B8
102
}
330
B8B8
100
AcDbXrecord
280
     1
290
     1
  0
XRECORD
  5
B8BB
102
{ACAD_REACTORS
330
B8BA
102
}
330
B8BA
100
AcDbXrecord
280
     1
290
     1
  0
XRECORD
  5
B8BD
102
{ACAD_REACTORS
330
B8BC
102
}
330
B8BC
100
AcDbXrecord
280
     1
290
     1
  0
XRECORD
  5
B857
102
{ACAD_REACTORS
330
B856
102
}
330
B856
100
AcDbXrecord
280
     1
340
B539
  0
XRECORD
  5
B855
102
{ACAD_REACTORS
330
B854
102
}
330
B854
100
AcDbXrecord
280
     1
340
B535
  0
ACDBDETAILVIEWSTYLE
  5
B8A9
102
{ACAD_XDICTIONARY
360
B904
102
}
102
{ACAD_REACTORS
330
B8A8
102
}
330
B8A8
100
AcDbModelDocViewStyle
 70
     0
  3
Imperial24
290
     0
100
AcDbDetailViewStyle
 70
     0
 71
     0
 90
        3
 71
     1
340
B52C
 40
0.24
340
0
 40
0.24
300

 40
0.36
280
     3
 71
     2
340
B530
 90
       25
 71
     3
340
B52C
 40
0.24
 90
        1
 40
0.75
 90
        1
300
%<\AcVar ViewType \f "%tc1">% %<\AcVar ViewDetailId>%\PSCALE %<\AcVar ViewScale \f "%sn">%
 71
     4
340
B530
 90
       25
340
B530
 90
       25
280
     0
  0
LAYOUT
  5
B8AA
102
{ACAD_XDICTIONARY
360
B906
102
}
102
{ACAD_REACTORS
330
B534
102
}
330
B534
100
AcDbPlotSettings
  1

  2
Canon LBP9100C
  4

  6

 40
0.0
 41
0.0
 42
0.0
 43
0.0
 44
0.0
 45
0.0
 46
0.0
 47
0.0
 48
0.0
 49
0.0
140
0.0
141
0.0
142
1.0
143
1.0
 70
  1712
 72
     0
 73
     0
 74
     0
  7

 75
     0
147
1.0
148
0.0
149
0.0
100
AcDbLayout
  1
Model
 70
     1
 71
     0
 10
0.0
 20
0.0
 11
12.0
 21
9.0
 12
0.0
 22
0.0
 32
0.0
 14
0.0
 24
0.0
 34
0.0
 15
0.0
 25
0.0
 35
0.0
146
0.0
 13
0.0
 23
0.0
 33
0.0
 16
1.0
 26
0.0
 36
0.0
 17
0.0
 27
1.0
 37
0.0
 76
     0
330
B539
331
B853
  0
LAYOUT
  5
B8AB
102
{ACAD_XDICTIONARY
360
B908
102
}
102
{ACAD_REACTORS
330
B534
102
}
330
B534
100
AcDbPlotSettings
  1

  2
Canon LBP9100C
  4

  6

 40
0.0
 41
0.0
 42
0.0
 43
0.0
 44
0.0
 45
0.0
 46
0.0
 47
0.0
 48
0.0
 49
0.0
140
0.0
141
0.0
142
1.0
143
1.0
 70
   688
 72
     0
 73
     0
 74
     5
  7

 75
    16
147
1.0
148
0.0
149
0.0
100
AcDbLayout
  1
レイアウト1
 70
     0
 71
     1
 10
0.0
 20
0.0
 11
420.0
 21
297.0
 12
0.0
 22
0.0
 32
0.0
 14
1.000000000000000E+20
 24
1.000000000000000E+20
 34
1.000000000000000E+20
 15
-1.000000000000000E+20
 25
-1.000000000000000E+20
 35
-1.000000000000000E+20
146
0.0
 13
0.0
 23
0.0
 33
0.0
 16
1.0
 26
0.0
 36
0.0
 17
0.0
 27
1.0
 37
0.0
 76
     0
330
B535
  0
MATERIAL
  5
B866
102
{ACAD_XDICTIONARY
360
B867
102
}
102
{ACAD_REACTORS
330
B85D
102
}
330
B85D
100
AcDbMaterial
  1
ByBlock
 72
     0
 43
0.0208333333333333
 43
0.0
 43
0.0
 43
0.0
 43
0.0
 43
0.0208333333333333
 43
0.0
 43
0.0
 43
0.0
 43
0.0
 43
1.0
 43
0.0
 43
0.0
 43
0.0
 43
0.0
 43
1.0
 77
     0
 47
0.0208333333333333
 47
0.0
 47
0.0
 47
0.0
 47
0.0
 47
0.0208333333333333
 47
0.0
 47
0.0
 47
0.0
 47
0.0
 47
1.0
 47
0.0
 47
0.0
 47
0.0
 47
0.0
 47
1.0
171
     0
 49
0.0208333333333333
 49
0.0
 49
0.0
 49
0.0
 49
0.0
 49
0.0208333333333333
 49
0.0
 49
0.0
 49
0.0
 49
0.0
 49
1.0
 49
0.0
 49
0.0
 49
0.0
 49
0.0
 49
1.0
175
     0
142
0.0208333333333333
142
0.0
142
0.0
142
0.0
142
0.0
142
0.0208333333333333
142
0.0
142
0.0
142
0.0
142
0.0
142
1.0
142
0.0
142
0.0
142
0.0
142
0.0
142
1.0
179
     0
144
0.0208333333333333
144
0.0
144
0.0
144
0.0
144
0.0
144
0.0208333333333333
144
0.0
144
0.0
144
0.0
144
0.0
144
1.0
144
0.0
144
0.0
144
0.0
144
0.0
144
1.0
147
0.0208333333333333
147
0.0
147
0.0
147
0.0
147
0.0
147
0.0208333333333333
147
0.0
147
0.0
147
0.0
147
0.0
147
1.0
147
0.0
147
0.0
147
0.0
147
0.0
147
1.0
  0
MATERIAL
  5
B85E
102
{ACAD_XDICTIONARY
360
B85F
102
}
102
{ACAD_REACTORS
330
B85D
102
}
330
B85D
100
AcDbMaterial
  1
ByLayer
 72
     0
 43
0.0208333333333333
 43
0.0
 43
0.0
 43
0.0
 43
0.0
 43
0.0208333333333333
 43
0.0
 43
0.0
 43
0.0
 43
0.0
 43
1.0
 43
0.0
 43
0.0
 43
0.0
 43
0.0
 43
1.0
 77
     0
 47
0.0208333333333333
 47
0.0
 47
0.0
 47
0.0
 47
0.0
 47
0.0208333333333333
 47
0.0
 47
0.0
 47
0.0
 47
0.0
 47
1.0
 47
0.0
 47
0.0
 47
0.0
 47
0.0
 47
1.0
171
     0
 49
0.0208333333333333
 49
0.0
 49
0.0
 49
0.0
 49
0.0
 49
0.0208333333333333
 49
0.0
 49
0.0
 49
0.0
 49
0.0
 49
1.0
 49
0.0
 49
0.0
 49
0.0
 49
0.0
 49
1.0
175
     0
142
0.0208333333333333
142
0.0
142
0.0
142
0.0
142
0.0
142
0.0208333333333333
142
0.0
142
0.0
142
0.0
142
0.0
142
1.0
142
0.0
142
0.0
142
0.0
142
0.0
142
1.0
179
     0
144
0.0208333333333333
144
0.0
144
0.0
144
0.0
144
0.0
144
0.0208333333333333
144
0.0
144
0.0
144
0.0
144
0.0
144
1.0
144
0.0
144
0.0
144
0.0
144
0.0
144
1.0
147
0.0208333333333333
147
0.0
147
0.0
147
0.0
147
0.0
147
0.0208333333333333
147
0.0
147
0.0
147
0.0
147
0.0
147
1.0
147
0.0
147
0.0
147
0.0
147
0.0
147
1.0
  0
MATERIAL
  5
B86E
102
{ACAD_XDICTIONARY
360
B86F
102
}
102
{ACAD_REACTORS
330
B85D
102
}
330
B85D
100
AcDbMaterial
  1
Global
 72
     0
 43
0.0208333333333333
 43
0.0
 43
0.0
 43
0.0
 43
0.0
 43
0.0208333333333333
 43
0.0
 43
0.0
 43
0.0
 43
0.0
 43
1.0
 43
0.0
 43
0.0
 43
0.0
 43
0.0
 43
1.0
 77
     0
 47
0.0208333333333333
 47
0.0
 47
0.0
 47
0.0
 47
0.0
 47
0.0208333333333333
 47
0.0
 47
0.0
 47
0.0
 47
0.0
 47
1.0
 47
0.0
 47
0.0
 47
0.0
 47
0.0
 47
1.0
171
     0
 49
0.0208333333333333
 49
0.0
 49
0.0
 49
0.0
 49
0.0
 49
0.0208333333333333
 49
0.0
 49
0.0
 49
0.0
 49
0.0
 49
1.0
 49
0.0
 49
0.0
 49
0.0
 49
0.0
 49
1.0
175
     0
142
0.0208333333333333
142
0.0
142
0.0
142
0.0
142
0.0
142
0.0208333333333333
142
0.0
142
0.0
142
0.0
142
0.0
142
1.0
142
0.0
142
0.0
142
0.0
142
0.0
142
1.0
179
     0
144
0.0208333333333333
144
0.0
144
0.0
144
0.0
144
0.0
144
0.0208333333333333
144
0.0
144
0.0
144
0.0
144
0.0
144
1.0
144
0.0
144
0.0
144
0.0
144
0.0
144
1.0
147
0.0208333333333333
147
0.0
147
0.0
147
0.0
147
0.0
147
0.0208333333333333
147
0.0
147
0.0
147
0.0
147
0.0
147
1.0
147
0.0
147
0.0
147
0.0
147
0.0
147
1.0
  0
MLEADERSTYLE
  5
B8A5
102
{ACAD_REACTORS
330
B8A4
102
}
330
B8A4
100
AcDbMLeaderStyle
170
     2
171
     1
172
     0
 90
        2
 40
0.0
 41
0.0
173
     1
 91
-1056964608
340
B52E
 92
       -2
290
     1
 42
0.09
291
     1
 43
0.36
  3
Standard
 44
0.18
300

342
B52C
174
     1
178
     6
175
     1
176
     0
 93
-1056964608
 45
0.18
292
     0
297
     0
 46
0.18
 94
-1056964608
 47
1.0
 49
1.0
140
1.0
293
     1
141
0.0
294
     1
177
     0
142
1.0
295
     0
296
     0
143
0.125
1001
ACAD_MLEADERVER
1070
     2
  0
MLINESTYLE
  5
B532
102
{ACAD_REACTORS
330
B531
102
}
330
B531
100
AcDbMlineStyle
  2
STANDARD
 70
     0
  3

 62
   256
 51
90.0
 52
90.0
 71
     2
 49
0.5
 62
   256
  6
BYLAYER
 49
-0.5
 62
   256
  6
BYLAYER
  0
ACDBPLACEHOLDER
  5
B85C
102
{ACAD_REACTORS
330
B85B
102
}
330
B85B
  0
SCALE
  5
B893
102
{ACAD_REACTORS
330
B892
102
}
330
B892
100
AcDbScale
 70
     0
300
1:1
140
1.0
141
1.0
290
     1
  0
SCALE
  5
B894
102
{ACAD_REACTORS
330
B892
102
}
330
B892
100
AcDbScale
 70
     0
300
1/128" = 1'-0"
140
0.0078125
141
12.0
290
     0
  0
SCALE
  5
B895
102
{ACAD_REACTORS
330
B892
102
}
330
B892
100
AcDbScale
 70
     0
300
1/64" = 1'-0"
140
0.015625
141
12.0
290
     0
  0
SCALE
  5
B896
102
{ACAD_REACTORS
330
B892
102
}
330
B892
100
AcDbScale
 70
     0
300
1/32" = 1'-0"
140
0.03125
141
12.0
290
     0
  0
SCALE
  5
B897
102
{ACAD_REACTORS
330
B892
102
}
330
B892
100
AcDbScale
 70
     0
300
1/16" = 1'-0"
140
0.0625
141
12.0
290
     0
  0
SCALE
  5
B898
102
{ACAD_REACTORS
330
B892
102
}
330
B892
100
AcDbScale
 70
     0
300
3/32" = 1'-0"
140
0.09375
141
12.0
290
     0
  0
SCALE
  5
B899
102
{ACAD_REACTORS
330
B892
102
}
330
B892
100
AcDbScale
 70
     0
300
1/8" = 1'-0"
140
0.125
141
12.0
290
     0
  0
SCALE
  5
B89A
102
{ACAD_REACTORS
330
B892
102
}
330
B892
100
AcDbScale
 70
     0
300
3/16" = 1'-0"
140
0.1875
141
12.0
290
     0
  0
SCALE
  5
B89B
102
{ACAD_REACTORS
330
B892
102
}
330
B892
100
AcDbScale
 70
     0
300
1/4" = 1'-0"
140
0.25
141
12.0
290
     0
  0
SCALE
  5
B89C
102
{ACAD_REACTORS
330
B892
102
}
330
B892
100
AcDbScale
 70
     0
300
3/8" = 1'-0"
140
0.375
141
12.0
290
     0
  0
SCALE
  5
B89D
102
{ACAD_REACTORS
330
B892
102
}
330
B892
100
AcDbScale
 70
     0
300
1/2" = 1'-0"
140
0.5
141
12.0
290
     0
  0
SCALE
  5
B89E
102
{ACAD_REACTORS
330
B892
102
}
330
B892
100
AcDbScale
 70
     0
300
3/4" = 1'-0"
140
0.75
141
12.0
290
     0
  0
SCALE
  5
B89F
102
{ACAD_REACTORS
330
B892
102
}
330
B892
100
AcDbScale
 70
     0
300
1" = 1'-0"
140
1.0
141
12.0
290
     0
  0
SCALE
  5
B8A0
102
{ACAD_REACTORS
330
B892
102
}
330
B892
100
AcDbScale
 70
     0
300
1-1/2" = 1'-0"
140
1.5
141
12.0
290
     0
  0
SCALE
  5
B8A1
102
{ACAD_REACTORS
330
B892
102
}
330
B892
100
AcDbScale
 70
     0
300
3" = 1'-0"
140
3.0
141
12.0
290
     0
  0
SCALE
  5
B8A2
102
{ACAD_REACTORS
330
B892
102
}
330
B892
100
AcDbScale
 70
     0
300
6" = 1'-0"
140
6.0
141
12.0
290
     0
  0
SCALE
  5
B8A3
102
{ACAD_REACTORS
330
B892
102
}
330
B892
100
AcDbScale
 70
     0
300
1'-0" = 1'-0"
140
12.0
141
12.0
290
     0
  0
ACDBSECTIONVIEWSTYLE
  5
B8A7
102
{ACAD_XDICTIONARY
360
B902
102
}
102
{ACAD_REACTORS
330
B8A6
102
}
330
B8A6
100
AcDbModelDocViewStyle
 70
     0
  3
Imperial24
290
     0
100
AcDbSectionViewStyle
 70
     0
 71
     0
 90
       78
 71
     1
340
B52C
 40
0.24
340
0
340
0
 40
0.24
300
I, O, Q, S, X, Z
 40
0.48
 90
        3
 40
0.18
 90
        1
 71
     2
340
B530
 90
       25
340
B530
 90
       50
 40
0.24
 40
0.0
 40
0.24
 71
     3
340
B52C
 40
0.24
 90
        1
 40
0.75
 90
        1
300
%<\AcVar ViewType \f "%tc1">% %<\AcVar ViewSectionStartId>%-%<\AcVar ViewSectionEndId>%\PSCALE %<\AcVar ViewScale \f "%sn">%
 71
     4
300
ANSI31
 40
1.0
 90
        0
290
     0
290
     0
 90
        6
 40
0.0
 40
1.570796326794896
 40
0.2617993877991494
 40
1.308996938995747
 40
-0.2617993877991494
 40
1.832595714594046
  0
TABLESTYLE
  5
B891
102
{ACAD_XDICTIONARY
360
B8C9
102
}
102
{ACAD_REACTORS
330
B890
102
}
330
B890
100
AcDbTableStyle
  3
Standard
 70
     0
 71
     0
 40
0.06
 41
0.06
280
     0
281
     0
  7
STANDARD
140
0.18
170
     2
 62
     0
 63
     7
283
     0
274
    -2
284
     1
 64
     0
275
    -2
285
     1
 65
     0
276
    -2
286
     1
 66
     0
277
    -2
287
     1
 67
     0
278
    -2
288
     1
 68
     0
279
    -2
289
     1
 69
     0
  7
STANDARD
140
0.25
170
     5
 62
     0
 63
     7
283
     0
274
    -2
284
     1
 64
     0
275
    -2
285
     1
 65
     0
276
    -2
286
     1
 66
     0
277
    -2
287
     1
 67
     0
278
    -2
288
     1
 68
     0
279
    -2
289
     1
 69
     0
  7
STANDARD
140
0.18
170
     5
 62
     0
 63
     7
283
     0
274
    -2
284
     1
 64
     0
275
    -2
285
     1
 65
     0
276
    -2
286
     1
 66
     0
277
    -2
287
     1
 67
     0
278
    -2
288
     1
 68
     0
279
    -2
289
     1
 69
     0
  0
VISUALSTYLE
  5
B87C
102
{ACAD_XDICTIONARY
360
B8DA
102
}
102
{ACAD_REACTORS
330
B876
102
}
330
B876
100
AcDbVisualStyle
  2
2dWireframe
 70
     4
 71
     0
 72
     2
 73
     0
 90
        0
 40
-0.6
 41
-30.0
 62
     5
 63
     7
 74
     1
 91
        4
 64
     7
 65
   257
 75
     1
175
     1
 42
1.0
 92
        0
 66
   257
 43
1.0
 76
     1
 77
     6
 78
     2
 67
     7
 79
     5
170
     0
171
     0
290
     0
174
     0
 93
        1
 44
0.0
173
     0
291
     0
 45
0.0
1001
ACAD
1000
AcDbSavedByObjectVersion
1070
     0
  0
VISUALSTYLE
  5
B87B
102
{ACAD_XDICTIONARY
360
B8D8
102
}
102
{ACAD_REACTORS
330
B876
102
}
330
B876
100
AcDbVisualStyle
  2
Basic
 70
     7
 71
     1
 72
     0
 73
     1
 90
        0
 40
-0.6
 41
-30.0
 62
     5
 63
     7
 74
     0
 91
        4
 64
     7
 65
   257
 75
     1
175
     1
 42
1.0
 92
        8
 66
     7
 43
1.0
 76
     1
 77
     6
 78
     2
 67
     7
 79
     5
170
     0
171
     0
290
     0
174
     0
 93
        1
 44
0.0
173
     0
291
     1
 45
0.0
1001
ACAD
1000
AcDbSavedByObjectVersion
1070
     0
  0
VISUALSTYLE
  5
B882
102
{ACAD_XDICTIONARY
360
B8E6
102
}
102
{ACAD_REACTORS
330
B876
102
}
330
B876
100
AcDbVisualStyle
  2
Brighten
 70
    12
 71
     2
 72
     2
 73
     0
 90
        0
 40
-0.6
 41
-30.0
 62
     5
 63
     7
 74
     1
 91
        4
 64
     7
 65
   257
 75
     1
175
     1
 42
1.0
 92
        8
 66
     7
 43
1.0
 76
     1
 77
     6
 78
     2
 67
     7
 79
     5
170
     0
171
     0
290
     0
174
     0
 93
        1
 44
50.0
173
     0
291
     1
 45
0.0
1001
ACAD
1000
AcDbSavedByObjectVersion
1070
     0
  0
VISUALSTYLE
  5
B886
102
{ACAD_XDICTIONARY
360
B8EE
102
}
102
{ACAD_REACTORS
330
B876
102
}
330
B876
100
AcDbVisualStyle
  2
ColorChange
 70
    16
 71
     2
 72
     2
 73
     3
 90
        0
 40
-0.6
 41
-30.0
 62
     5
 63
     8
 74
     1
 91
        4
 64
     7
 65
   257
 75
     1
175
     1
 42
1.0
 92
        8
 66
     8
 43
1.0
 76
     1
 77
     6
 78
     2
 67
     7
 79
     5
170
     0
171
     0
290
     0
174
     0
 93
        1
 44
0.0
173
     0
291
     1
 45
0.0
1001
ACAD
1000
AcDbSavedByObjectVersion
1070
     0
  0
VISUALSTYLE
  5
B87F
102
{ACAD_XDICTIONARY
360
B8E0
102
}
102
{ACAD_REACTORS
330
B876
102
}
330
B876
100
AcDbVisualStyle
  2
Conceptual
 70
     9
 71
     3
 72
     2
 73
     0
 90
        0
 40
-0.6
 41
-30.0
 62
     5
 63
     7
 74
     2
 91
        2
 64
     7
 65
   257
 75
     1
175
     1
 42
179.0
 92
        8
 66
     7
 43
1.0
 76
     1
 77
     6
 78
     2
 67
     7
 79
     3
170
     0
171
     0
290
     0
174
     0
 93
        1
 44
0.0
173
     0
291
     0
 45
0.0
1001
ACAD
1000
AcDbSavedByObjectVersion
1070
     0
  0
VISUALSTYLE
  5
B881
102
{ACAD_XDICTIONARY
360
B8E4
102
}
102
{ACAD_REACTORS
330
B876
102
}
330
B876
100
AcDbVisualStyle
  2
Dim
 70
    11
 71
     2
 72
     2
 73
     0
 90
        0
 40
-0.6
 41
-30.0
 62
     5
 63
     7
 74
     1
 91
        4
 64
     7
 65
   257
 75
     1
175
     1
 42
1.0
 92
        8
 66
     7
 43
1.0
 76
     1
 77
     6
 78
     2
 67
     7
 79
     5
170
     0
171
     0
290
     0
174
     0
 93
        1
 44
-50.0
173
     0
291
     1
 45
0.0
1001
ACAD
1000
AcDbSavedByObjectVersion
1070
     0
  0
VISUALSTYLE
  5
B88E
102
{ACAD_XDICTIONARY
360
B8FE
102
}
102
{ACAD_REACTORS
330
B876
102
}
330
B876
100
AcDbVisualStyle
  2
EdgeColorOff
 70
    22
 71
     2
 72
     2
 73
     0
 90
        0
 40
-0.6
 41
-30.0
 62
     5
 63
     7
 74
     1
 91
        4
 64
     7
 65
   257
 75
     1
175
     1
 42
1.0
 92
        8
 66
     7
 43
1.0
 76
     1
 77
     6
 78
     2
 67
     7
 79
     5
170
     0
171
     0
290
     0
174
     0
 93
        1
 44
0.0
173
     0
291
     1
 45
0.0
1001
ACAD
1000
AcDbSavedByObjectVersion
1070
     0
  0
VISUALSTYLE
  5
B885
102
{ACAD_XDICTIONARY
360
B8EC
102
}
102
{ACAD_REACTORS
330
B876
102
}
330
B876
100
AcDbVisualStyle
  2
Facepattern
 70
    15
 71
     2
 72
     2
 73
     0
 90
        0
 40
-0.6
 41
-30.0
 62
     5
 63
     7
 74
     1
 91
        4
 64
     7
 65
   257
 75
     1
175
     1
 42
1.0
 92
        8
 66
     7
 43
1.0
 76
     1
 77
     6
 78
     2
 67
     7
 79
     5
170
     0
171
     0
290
     0
174
     0
 93
        1
 44
0.0
173
     0
291
     1
 45
0.0
1001
ACAD
1000
AcDbSavedByObjectVersion
1070
     0
  0
VISUALSTYLE
  5
B877
102
{ACAD_XDICTIONARY
360
B8D0
102
}
102
{ACAD_REACTORS
330
B876
102
}
330
B876
100
AcDbVisualStyle
  2
Flat
 70
     0
 71
     2
 72
     1
 73
     1
 90
        2
 40
-0.6
 41
30.0
 62
     5
 63
     7
 74
     0
 91
        0
 64
     7
 65
   257
 75
     1
175
     1
 42
1.0
 92
        8
 66
     7
 43
1.0
 76
     1
 77
     6
 78
     2
 67
     7
 79
     5
170
     0
171
     0
290
     0
174
     0
 93
       13
 44
0.0
173
     0
291
     1
 45
0.0
1001
ACAD
1000
AcDbSavedByObjectVersion
1070
     0
  0
VISUALSTYLE
  5
B878
102
{ACAD_XDICTIONARY
360
B8D2
102
}
102
{ACAD_REACTORS
330
B876
102
}
330
B876
100
AcDbVisualStyle
  2
FlatWithEdges
 70
     1
 71
     2
 72
     1
 73
     1
 90
        2
 40
-0.6
 41
30.0
 62
     5
 63
     7
 74
     1
 91
        0
 64
     7
 65
   257
 75
     1
175
     1
 42
1.0
 92
        0
 66
   257
 43
1.0
 76
     1
 77
     6
 78
     2
 67
     7
 79
     5
170
     0
171
     0
290
     0
174
     0
 93
       13
 44
0.0
173
     0
291
     1
 45
0.0
1001
ACAD
1000
AcDbSavedByObjectVersion
1070
     0
  0
VISUALSTYLE
  5
B879
102
{ACAD_XDICTIONARY
360
B8D4
102
}
102
{ACAD_REACTORS
330
B876
102
}
330
B876
100
AcDbVisualStyle
  2
Gouraud
 70
     2
 71
     2
 72
     2
 73
     1
 90
        2
 40
-0.6
 41
30.0
 62
     5
 63
     7
 74
     0
 91
        0
 64
     7
 65
   257
 75
     1
175
     1
 42
1.0
 92
        0
 66
     7
 43
1.0
 76
     1
 77
     6
 78
     2
 67
     7
 79
     5
170
     0
171
     0
290
     0
174
     0
 93
       13
 44
0.0
173
     0
291
     1
 45
0.0
1001
ACAD
1000
AcDbSavedByObjectVersion
1070
     0
  0
VISUALSTYLE
  5
B87A
102
{ACAD_XDICTIONARY
360
B8D6
102
}
102
{ACAD_REACTORS
330
B876
102
}
330
B876
100
AcDbVisualStyle
  2
GouraudWithEdges
 70
     3
 71
     2
 72
     2
 73
     1
 90
        2
 40
-0.6
 41
30.0
 62
     5
 63
     7
 74
     1
 91
        0
 64
     7
 65
   257
 75
     1
175
     1
 42
1.0
 92
        0
 66
   257
 43
1.0
 76
     1
 77
     6
 78
     2
 67
     7
 79
     5
170
     0
171
     0
290
     0
174
     0
 93
       13
 44
0.0
173
     0
291
     1
 45
0.0
1001
ACAD
1000
AcDbSavedByObjectVersion
1070
     0
  0
VISUALSTYLE
  5
B87E
102
{ACAD_XDICTIONARY
360
B8DE
102
}
102
{ACAD_REACTORS
330
B876
102
}
330
B876
100
AcDbVisualStyle
  2
Hidden
 70
     6
 71
     1
 72
     2
 73
     2
 90
        0
 40
-0.6
 41
-30.0
 62
     5
 63
     7
 74
     2
 91
        2
 64
     7
 65
   257
 75
     2
175
     1
 42
40.0
 92
        0
 66
   257
 43
1.0
 76
     1
 77
     6
 78
     2
 67
     7
 79
     3
170
     0
171
     0
290
     0
174
     0
 93
        1
 44
0.0
173
     0
291
     0
 45
0.0
1001
ACAD
1000
AcDbSavedByObjectVersion
1070
     0
  0
VISUALSTYLE
  5
B88C
102
{ACAD_XDICTIONARY
360
B8FA
102
}
102
{ACAD_REACTORS
330
B876
102
}
330
B876
100
AcDbVisualStyle
  2
JitterOff
 70
    20
 71
     2
 72
     2
 73
     0
 90
        0
 40
-0.6
 41
-30.0
 62
     5
 63
     7
 74
     1
 91
        4
 64
     7
 65
   257
 75
     1
175
     1
 42
1.0
 92
       10
 66
     7
 43
1.0
 76
     1
 77
     6
 78
     2
 67
     7
 79
     5
170
     0
171
     0
290
     0
174
     0
 93
        1
 44
0.0
173
     0
291
     1
 45
0.0
1001
ACAD
1000
AcDbSavedByObjectVersion
1070
     0
  0
VISUALSTYLE
  5
B884
102
{ACAD_XDICTIONARY
360
B8EA
102
}
102
{ACAD_REACTORS
330
B876
102
}
330
B876
100
AcDbVisualStyle
  2
Linepattern
 70
    14
 71
     2
 72
     2
 73
     0
 90
        0
 40
-0.6
 41
-30.0
 62
     5
 63
     7
 74
     1
 91
        4
 64
     7
 65
   257
 75
     7
175
     7
 42
1.0
 92
        8
 66
     7
 43
1.0
 76
     1
 77
     6
 78
     2
 67
     7
 79
     5
170
     0
171
     0
290
     0
174
     0
 93
        1
 44
0.0
173
     0
291
     1
 45
0.0
1001
ACAD
1000
AcDbSavedByObjectVersion
1070
     0
  0
VISUALSTYLE
  5
B88D
102
{ACAD_XDICTIONARY
360
B8FC
102
}
102
{ACAD_REACTORS
330
B876
102
}
330
B876
100
AcDbVisualStyle
  2
OverhangOff
 70
    21
 71
     2
 72
     2
 73
     0
 90
        0
 40
-0.6
 41
-30.0
 62
     5
 63
     7
 74
     1
 91
        4
 64
     7
 65
   257
 75
     1
175
     1
 42
1.0
 92
        9
 66
     7
 43
1.0
 76
     1
 77
     6
 78
     2
 67
     7
 79
     5
170
     0
171
     0
290
     0
174
     0
 93
        1
 44
0.0
173
     0
291
     1
 45
0.0
1001
ACAD
1000
AcDbSavedByObjectVersion
1070
     0
  0
VISUALSTYLE
  5
B880
102
{ACAD_XDICTIONARY
360
B8E2
102
}
102
{ACAD_REACTORS
330
B876
102
}
330
B876
100
AcDbVisualStyle
  2
Realistic
 70
     8
 71
     2
 72
     3
 73
     0
 90
        2
 40
-0.6
 41
30.0
 62
     5
 63
     7
 74
     0
 91
        0
 64
     7
 65
   257
 75
     1
175
     1
 42
1.0
 92
        8
 66
   257
 43
1.0
 76
     1
 77
     6
 78
     2
 67
     7
 79
     3
170
     0
171
     0
290
     0
174
     0
 93
       13
 44
0.0
173
     0
291
     0
 45
0.0
1001
ACAD
1000
AcDbSavedByObjectVersion
1070
     0
  0
VISUALSTYLE
  5
B88B
102
{ACAD_XDICTIONARY
360
B8F8
102
}
102
{ACAD_REACTORS
330
B876
102
}
330
B876
100
AcDbVisualStyle
  2
Shaded
 70
    27
 71
     2
 72
     2
 73
     1
 90
        2
 40
-0.6
 41
30.0
 62
     5
 63
     7
 74
     0
 91
        4
 64
     7
 65
   257
 75
     1
175
     1
 42
1.0
 92
        8
 66
   257
 43
1.0
 76
     1
 77
     6
 78
     2
 67
     8
 79
     3
170
     0
171
     0
290
     0
174
     0
 93
        5
 44
0.0
173
     0
291
     0
 45
0.0
1001
ACAD
1000
AcDbSavedByObjectVersion
1070
     0
  0
VISUALSTYLE
  5
B88A
102
{ACAD_XDICTIONARY
360
B8F6
102
}
102
{ACAD_REACTORS
330
B876
102
}
330
B876
100
AcDbVisualStyle
  2
Shaded with edges
 70
    26
 71
     2
 72
     2
 73
     1
 90
        2
 40
-0.6
 41
30.0
 62
     5
 63
     7
 74
     1
 91
       10
 64
     7
 65
   257
 75
     2
175
     1
 42
1.0
 92
        8
 66
   257
 43
1.0
 76
     1
 77
     6
 78
     2
 67
     7
 79
     3
170
     0
171
     0
290
     0
174
     0
 93
        5
 44
0.0
173
     0
291
     0
 45
0.0
1001
ACAD
1000
AcDbSavedByObjectVersion
1070
     0
  0
VISUALSTYLE
  5
B887
102
{ACAD_XDICTIONARY
360
B8F0
102
}
102
{ACAD_REACTORS
330
B876
102
}
330
B876
100
AcDbVisualStyle
  2
Shades of Gray
 70
    23
 71
     2
 72
     2
 73
     3
 90
        0
 40
-0.6
 41
-30.0
 62
     5
 63
     7
 74
     2
 91
        2
 64
     7
 65
     7
 75
     1
175
     1
 42
40.0
 92
        8
 66
     7
 43
1.0
 76
     1
 77
     6
 78
     2
 67
     7
 79
     3
170
     0
171
     0
290
     0
174
     0
 93
        1
 44
0.0
173
     0
291
     0
 45
0.0
1001
ACAD
1000
AcDbSavedByObjectVersion
1070
     0
  0
VISUALSTYLE
  5
B888
102
{ACAD_XDICTIONARY
360
B8F2
102
}
102
{ACAD_REACTORS
330
B876
102
}
330
B876
100
AcDbVisualStyle
  2
Sketchy
 70
    24
 71
     1
 72
     2
 73
     2
 90
        0
 40
-0.6
 41
-30.0
 62
     5
 63
     7
 74
     2
 91
        2
 64
     7
 65
     7
 75
     1
175
     1
 42
40.0
 92
       11
 66
     7
 43
1.0
 76
     1
 77
     6
 78
     2
 67
     7
 79
     6
170
     0
171
     0
290
     0
174
     0
 93
        1
 44
0.0
173
     0
291
     0
 45
0.0
1001
ACAD
1000
AcDbSavedByObjectVersion
1070
     0
  0
VISUALSTYLE
  5
B883
102
{ACAD_XDICTIONARY
360
B8E8
102
}
102
{ACAD_REACTORS
330
B876
102
}
330
B876
100
AcDbVisualStyle
  2
Thicken
 70
    13
 71
     2
 72
     2
 73
     0
 90
        0
 40
-0.6
 41
-30.0
 62
     5
 63
     7
 74
     1
 91
        4
 64
     7
 65
   257
 75
     1
175
     1
 42
1.0
 92
       12
 66
     7
 43
1.0
 76
     1
 77
     6
 78
     2
 67
     7
 79
     5
170
     0
171
     0
290
     0
174
     0
 93
        1
 44
0.0
173
     0
291
     1
 45
0.0
1001
ACAD
1000
AcDbSavedByObjectVersion
1070
     0
  0
VISUALSTYLE
  5
B87D
102
{ACAD_XDICTIONARY
360
B8DC
102
}
102
{ACAD_REACTORS
330
B876
102
}
330
B876
100
AcDbVisualStyle
  2
Wireframe
 70
     5
 71
     0
 72
     2
 73
     0
 90
        0
 40
-0.6
 41
-30.0
 62
     5
 63
     7
 74
     1
 91
        4
 64
     7
 65
   257
 75
     1
175
     1
 42
1.0
 92
        0
 66
   257
 43
1.0
 76
     1
 77
     6
 78
     2
 67
     7
 79
     3
170
     0
171
     0
290
     0
174
     0
 93
        1
 44
0.0
173
     0
291
     0
 45
0.0
1001
ACAD
1000
AcDbSavedByObjectVersion
1070
     0
  0
VISUALSTYLE
  5
B889
102
{ACAD_XDICTIONARY
360
B8F4
102
}
102
{ACAD_REACTORS
330
B876
102
}
330
B876
100
AcDbVisualStyle
  2
X-Ray
 70
    25
 71
     2
 72
     2
 73
     1
 90
        1
 40
0.5
 41
-30.0
 62
     5
 63
     7
 74
     1
 91
        0
 64
     7
 65
   257
 75
     1
175
     1
 42
1.0
 92
        8
 66
     7
 43
1.0
 76
     1
 77
     6
 78
     2
 67
     7
 79
     3
170
     0
171
     0
290
     0
174
     0
 93
       13
 44
0.0
173
     0
291
     0
 45
0.0
1001
ACAD
1000
AcDbSavedByObjectVersion
1070
     0
  0
DICTIONARYVAR
  5
B8C3
102
{ACAD_REACTORS
330
B8BE
102
}
330
B8BE
100
DictionaryVariables
280
     0
  1
1:1
  0
DICTIONARYVAR
  5
B8C0
102
{ACAD_REACTORS
330
B8BE
102
}
330
B8BE
100
DictionaryVariables
280
     0
  1
STANDARD
  0
DICTIONARYVAR
  5
B8BF
102
{ACAD_REACTORS
330
B8BE
102
}
330
B8BE
100
DictionaryVariables
280
     0
  1
STANDARD
  0
DICTIONARYVAR
  5
B8C1
102
{ACAD_REACTORS
330
B8BE
102
}
330
B8BE
100
DictionaryVariables
280
     0
  1
Imperial24
  0
DICTIONARYVAR
  5
B8C2
102
{ACAD_REACTORS
330
B8BE
102
}
330
B8BE
100
DictionaryVariables
280
     0
  1
Imperial24
  0
DICTIONARYVAR
  5
B8C6
102
{ACAD_REACTORS
330
B8BE
102
}
330
B8BE
100
DictionaryVariables
280
     0
  1
1
  0
DICTIONARYVAR
  5
B8C5
102
{ACAD_REACTORS
330
B8BE
102
}
330
B8BE
100
DictionaryVariables
280
     0
  1
0
  0
DICTIONARYVAR
  5
B8C4
102
{ACAD_REACTORS
330
B8BE
102
}
330
B8BE
100
DictionaryVariables
280
     0
  1
127
  0
DICTIONARYVAR
  5
B8C7
102
{ACAD_REACTORS
330
B8BE
102
}
330
B8BE
100
DictionaryVariables
280
     0
  1
2
  0
DICTIONARY
  5
B904
330
B8A9
100
AcDbDictionary
280
     1
281
     1
  3
ACAD_XREC_ROUNDTRIP
360
B905
  0
DICTIONARY
  5
B906
330
B8AA
100
AcDbDictionary
280
     1
281
     1
  3
ACAD_XREC_ROUNDTRIP
360
B907
  0
DICTIONARY
  5
B908
330
B8AB
100
AcDbDictionary
280
     1
281
     1
  3
ACAD_XREC_ROUNDTRIP
360
B909
  0
DICTIONARY
  5
B867
330
B866
100
AcDbDictionary
280
     1
281
     1
  3
ACAD_XREC_ROUNDTRIP
360
B8CE
  3
BUMPTILE
360
B869
  3
DIFFUSETILE
360
B868
  3
OPACITYTILE
360
B86C
  3
REFLECTIONTILE
360
B86B
  3
REFRACTIONTILE
360
B86D
  3
SPECULARTILE
360
B86A
  0
DICTIONARY
  5
B85F
330
B85E
100
AcDbDictionary
280
     1
281
     1
  3
ACAD_XREC_ROUNDTRIP
360
B8CD
  3
BUMPTILE
360
B861
  3
DIFFUSETILE
360
B860
  3
OPACITYTILE
360
B864
  3
REFLECTIONTILE
360
B863
  3
REFRACTIONTILE
360
B865
  3
SPECULARTILE
360
B862
  0
DICTIONARY
  5
B86F
330
B86E
100
AcDbDictionary
280
     1
281
     1
  3
ACAD_XREC_ROUNDTRIP
360
B8CF
  3
BUMPTILE
360
B871
  3
DIFFUSETILE
360
B870
  3
OPACITYTILE
360
B874
  3
REFLECTIONTILE
360
B873
  3
REFRACTIONTILE
360
B875
  3
SPECULARTILE
360
B872
  0
DICTIONARY
  5
B902
330
B8A7
100
AcDbDictionary
280
     1
281
     1
  3
ACAD_XREC_ROUNDTRIP
360
B903
  0
DICTIONARY
  5
B8C9
330
B891
100
AcDbDictionary
280
     1
281
     1
  3
ACAD_ROUNDTRIP_2008_TABLESTYLE_CELLSTYLEMAP
360
B8CA
  3
ACAD_XREC_ROUNDTRIP
360
B900
  0
DICTIONARY
  5
B8DA
330
B87C
100
AcDbDictionary
280
     1
281
     1
  3
ACAD_XREC_ROUNDTRIP
360
B8DB
  0
DICTIONARY
  5
B8D8
330
B87B
100
AcDbDictionary
280
     1
281
     1
  3
ACAD_XREC_ROUNDTRIP
360
B8D9
  0
DICTIONARY
  5
B8E6
330
B882
100
AcDbDictionary
280
     1
281
     1
  3
ACAD_XREC_ROUNDTRIP
360
B8E7
  0
DICTIONARY
  5
B8EE
330
B886
100
AcDbDictionary
280
     1
281
     1
  3
ACAD_XREC_ROUNDTRIP
360
B8EF
  0
DICTIONARY
  5
B8E0
330
B87F
100
AcDbDictionary
280
     1
281
     1
  3
ACAD_XREC_ROUNDTRIP
360
B8E1
  0
DICTIONARY
  5
B8E4
330
B881
100
AcDbDictionary
280
     1
281
     1
  3
ACAD_XREC_ROUNDTRIP
360
B8E5
  0
DICTIONARY
  5
B8FE
330
B88E
100
AcDbDictionary
280
     1
281
     1
  3
ACAD_XREC_ROUNDTRIP
360
B8FF
  0
DICTIONARY
  5
B8EC
330
B885
100
AcDbDictionary
280
     1
281
     1
  3
ACAD_XREC_ROUNDTRIP
360
B8ED
  0
DICTIONARY
  5
B8D0
330
B877
100
AcDbDictionary
280
     1
281
     1
  3
ACAD_XREC_ROUNDTRIP
360
B8D1
  0
DICTIONARY
  5
B8D2
330
B878
100
AcDbDictionary
280
     1
281
     1
  3
ACAD_XREC_ROUNDTRIP
360
B8D3
  0
DICTIONARY
  5
B8D4
330
B879
100
AcDbDictionary
280
     1
281
     1
  3
ACAD_XREC_ROUNDTRIP
360
B8D5
  0
DICTIONARY
  5
B8D6
330
B87A
100
AcDbDictionary
280
     1
281
     1
  3
ACAD_XREC_ROUNDTRIP
360
B8D7
  0
DICTIONARY
  5
B8DE
330
B87E
100
AcDbDictionary
280
     1
281
     1
  3
ACAD_XREC_ROUNDTRIP
360
B8DF
  0
DICTIONARY
  5
B8FA
330
B88C
100
AcDbDictionary
280
     1
281
     1
  3
ACAD_XREC_ROUNDTRIP
360
B8FB
  0
DICTIONARY
  5
B8EA
330
B884
100
AcDbDictionary
280
     1
281
     1
  3
ACAD_XREC_ROUNDTRIP
360
B8EB
  0
DICTIONARY
  5
B8FC
330
B88D
100
AcDbDictionary
280
     1
281
     1
  3
ACAD_XREC_ROUNDTRIP
360
B8FD
  0
DICTIONARY
  5
B8E2
330
B880
100
AcDbDictionary
280
     1
281
     1
  3
ACAD_XREC_ROUNDTRIP
360
B8E3
  0
DICTIONARY
  5
B8F8
330
B88B
100
AcDbDictionary
280
     1
281
     1
  3
ACAD_XREC_ROUNDTRIP
360
B8F9
  0
DICTIONARY
  5
B8F6
330
B88A
100
AcDbDictionary
280
     1
281
     1
  3
ACAD_XREC_ROUNDTRIP
360
B8F7
  0
DICTIONARY
  5
B8F0
330
B887
100
AcDbDictionary
280
     1
281
     1
  3
ACAD_XREC_ROUNDTRIP
360
B8F1
  0
DICTIONARY
  5
B8F2
330
B888
100
AcDbDictionary
280
     1
281
     1
  3
ACAD_XREC_ROUNDTRIP
360
B8F3
  0
DICTIONARY
  5
B8E8
330
B883
100
AcDbDictionary
280
     1
281
     1
  3
ACAD_XREC_ROUNDTRIP
360
B8E9
  0
DICTIONARY
  5
B8DC
330
B87D
100
AcDbDictionary
280
     1
281
     1
  3
ACAD_XREC_ROUNDTRIP
360
B8DD
  0
DICTIONARY
  5
B8F4
330
B889
100
AcDbDictionary
280
     1
281
     1
  3
ACAD_XREC_ROUNDTRIP
360
B8F5
  0
XRECORD
  5
B905
102
{ACAD_REACTORS
330
B904
102
}
330
B904
100
AcDbXrecord
280
     1
102
DISPLAYNAME
  1
Imperial24
102
FLAGS
 90
        0
  0
XRECORD
  5
B907
102
{ACAD_REACTORS
330
B906
102
}
330
B906
100
AcDbXrecord
280
     1
102
SHADEPLOT
 70
     0
102
SHADEPLOTRESLEVEL
 70
     2
102
SHADEPLOTCUSTOMDPI
 70
   300
  0
XRECORD
  5
B909
102
{ACAD_REACTORS
330
B908
102
}
330
B908
100
AcDbXrecord
280
     1
102
SHADEPLOT
 70
     0
102
SHADEPLOTRESLEVEL
 70
     2
102
SHADEPLOTCUSTOMDPI
 70
   300
  0
XRECORD
  5
B8CE
102
{ACAD_REACTORS
330
B867
102
}
330
B867
100
AcDbXrecord
280
     1
102
MATERIAL
148
0.0
149
0.0
149
0.0
 93
        0
 94
      127
282
     0
 72
     0
 77
     0
171
     0
175
     0
179
     0
273
     0
  0
XRECORD
  5
B869
102
{ACAD_REACTORS
330
B867
102
}
330
B867
100
AcDbXrecord
280
     1
270
     1
271
     1
  0
XRECORD
  5
B868
102
{ACAD_REACTORS
330
B867
102
}
330
B867
100
AcDbXrecord
280
     1
270
     1
271
     1
  0
XRECORD
  5
B86C
102
{ACAD_REACTORS
330
B867
102
}
330
B867
100
AcDbXrecord
280
     1
270
     1
271
     1
  0
XRECORD
  5
B86B
102
{ACAD_REACTORS
330
B867
102
}
330
B867
100
AcDbXrecord
280
     1
270
     1
271
     1
  0
XRECORD
  5
B86D
102
{ACAD_REACTORS
330
B867
102
}
330
B867
100
AcDbXrecord
280
     1
270
     1
271
     1
  0
XRECORD
  5
B86A
102
{ACAD_REACTORS
330
B867
102
}
330
B867
100
AcDbXrecord
280
     1
270
     1
271
     1
  0
XRECORD
  5
B8CD
102
{ACAD_REACTORS
330
B85F
102
}
330
B85F
100
AcDbXrecord
280
     1
102
MATERIAL
148
0.0
149
0.0
149
0.0
 93
        0
 94
      127
282
     0
 72
     0
 77
     0
171
     0
175
     0
179
     0
273
     0
  0
XRECORD
  5
B861
102
{ACAD_REACTORS
330
B85F
102
}
330
B85F
100
AcDbXrecord
280
     1
270
     1
271
     1
  0
XRECORD
  5
B860
102
{ACAD_REACTORS
330
B85F
102
}
330
B85F
100
AcDbXrecord
280
     1
270
     1
271
     1
  0
XRECORD
  5
B864
102
{ACAD_REACTORS
330
B85F
102
}
330
B85F
100
AcDbXrecord
280
     1
270
     1
271
     1
  0
XRECORD
  5
B863
102
{ACAD_REACTORS
330
B85F
102
}
330
B85F
100
AcDbXrecord
280
     1
270
     1
271
     1
  0
XRECORD
  5
B865
102
{ACAD_REACTORS
330
B85F
102
}
330
B85F
100
AcDbXrecord
280
     1
270
     1
271
     1
  0
XRECORD
  5
B862
102
{ACAD_REACTORS
330
B85F
102
}
330
B85F
100
AcDbXrecord
280
     1
270
     1
271
     1
  0
XRECORD
  5
B8CF
102
{ACAD_REACTORS
330
B86F
102
}
330
B86F
100
AcDbXrecord
280
     1
102
MATERIAL
148
0.0
149
0.0
149
0.0
 93
        0
 94
      127
282
     0
 72
     0
 77
     0
171
     0
175
     0
179
     0
273
     0
  0
XRECORD
  5
B871
102
{ACAD_REACTORS
330
B86F
102
}
330
B86F
100
AcDbXrecord
280
     1
270
     1
271
     1
  0
XRECORD
  5
B870
102
{ACAD_REACTORS
330
B86F
102
}
330
B86F
100
AcDbXrecord
280
     1
270
     1
271
     1
  0
XRECORD
  5
B874
102
{ACAD_REACTORS
330
B86F
102
}
330
B86F
100
AcDbXrecord
280
     1
270
     1
271
     1
  0
XRECORD
  5
B873
102
{ACAD_REACTORS
330
B86F
102
}
330
B86F
100
AcDbXrecord
280
     1
270
     1
271
     1
  0
XRECORD
  5
B875
102
{ACAD_REACTORS
330
B86F
102
}
330
B86F
100
AcDbXrecord
280
     1
270
     1
271
     1
  0
XRECORD
  5
B872
102
{ACAD_REACTORS
330
B86F
102
}
330
B86F
100
AcDbXrecord
280
     1
270
     1
271
     1
  0
XRECORD
  5
B903
102
{ACAD_REACTORS
330
B902
102
}
330
B902
100
AcDbXrecord
280
     1
102
DISPLAYNAME
  1
Imperial24
102
FLAGS
 90
        0
  0
CELLSTYLEMAP
  5
B8CA
102
{ACAD_REACTORS
330
B8C9
102
}
330
B8C9
100
AcDbCellStyleMap
 90
        3
300
CELLSTYLE
  1
TABLEFORMAT_BEGIN
 90
        5
170
     1
 91
        0
 92
    32768
 62
   257
 93
        1
300
CONTENTFORMAT
  1
CONTENTFORMAT_BEGIN
 90
        0
 91
        0
 92
      512
 93
        0
300

 40
0.0
140
1.0
 94
        5
 62
     0
340
B52C
144
0.25
309
CONTENTFORMAT_END
171
     0
 94
        0
309
TABLEFORMAT_END
  1
CELLSTYLE_BEGIN
 90
        1
 91
        1
300
_TITLE
309
CELLSTYLE_END
300
CELLSTYLE
  1
TABLEFORMAT_BEGIN
 90
        5
170
     1
 91
        0
 92
        0
 62
   257
 93
        1
300
CONTENTFORMAT
  1
CONTENTFORMAT_BEGIN
 90
        0
 91
        0
 92
      512
 93
        0
300

 40
0.0
140
1.0
 94
        5
 62
     0
340
B52C
144
0.18
309
CONTENTFORMAT_END
171
     0
 94
        0
309
TABLEFORMAT_END
  1
CELLSTYLE_BEGIN
 90
        2
 91
        1
300
_HEADER
309
CELLSTYLE_END
300
CELLSTYLE
  1
TABLEFORMAT_BEGIN
 90
        5
170
     1
 91
        0
 92
        0
 62
   257
 93
        1
300
CONTENTFORMAT
  1
CONTENTFORMAT_BEGIN
 90
        0
 91
        0
 92
      512
 93
        0
300

 40
0.0
140
1.0
 94
        2
 62
     0
340
B52C
144
0.18
309
CONTENTFORMAT_END
171
     0
 94
        0
309
TABLEFORMAT_END
  1
CELLSTYLE_BEGIN
 90
        3
 91
        2
300
_DATA
309
CELLSTYLE_END
  0
XRECORD
  5
B900
102
{ACAD_REACTORS
330
B8C9
102
}
330
B8C9
100
AcDbXrecord
280
     1
102
ACAD_ROUNDTRIP_PRE2007_TABLESTYLE
 90
      512
 91
        0
  1

 92
      512
 93
        0
  2

 94
      512
 95
        0
  3

  0
XRECORD
  5
B8DB
102
{ACAD_REACTORS
330
B8DA
102
}
330
B8DA
100
AcDbXrecord
280
     1
102
RTVSPost2010Prop28
280
     1
102
RTVSPost2010PropOp28
 70
     1
102
RTVSPost2010Prop29
280
     1
102
RTVSPost2010PropOp29
 70
     1
102
RTVSPost2010Prop30
280
     0
102
RTVSPost2010PropOp30
 70
     1
102
RTVSPost2010Prop31
280
     0
102
RTVSPost2010PropOp31
 70
     1
102
RTVSPost2010Prop32
280
     0
102
RTVSPost2010PropOp32
 70
     1
102
RTVSPost2010Prop33
280
     0
102
RTVSPost2010PropOp33
 70
     1
102
RTVSPost2010Prop34
280
     0
102
RTVSPost2010PropOp34
 70
     1
102
RTVSPost2010Prop35
280
     0
102
RTVSPost2010PropOp35
 70
     1
102
RTVSPost2010Prop36
280
     0
102
RTVSPost2010PropOp36
 70
     1
102
RTVSPost2010Prop37
 90
       50
102
RTVSPost2010PropOp37
 70
     1
102
RTVSPost2010Prop38
140
0.0
102
RTVSPost2010PropOp38
 70
     1
102
RTVSPost2010Prop39
140
1.0
102
RTVSPost2010PropOp39
 70
     1
102
RTVSPost2010Prop40
 90
        0
102
RTVSPost2010PropOp40
 70
     1
102
RTVSPost2010Prop41ColorIndex
 90
       18
102
RTVSPost2010Prop41ColorRGB
 90
        0
102
RTVSPost2010PropOp41
 70
     1
102
RTVSPost2010Prop42
 90
       50
102
RTVSPost2010PropOp42
 70
     1
102
RTVSPost2010Prop43
 90
        3
102
RTVSPost2010PropOp43
 70
     1
102
RTVSPost2010Prop44ColorIndex
 90
        5
102
RTVSPost2010Prop44ColorRGB
 90
      255
102
RTVSPost2010PropOp44
 70
     1
102
RTVSPost2010Prop45
280
     0
102
RTVSPost2010PropOp45
 70
     1
102
RTVSPost2010Prop46
 90
       50
102
RTVSPost2010PropOp46
 70
     1
102
RTVSPost2010Prop47
 90
       50
102
RTVSPost2010PropOp47
 70
     1
102
RTVSPost2010Prop48
 90
       50
102
RTVSPost2010PropOp48
 70
     1
102
RTVSPost2010Prop49
280
     0
102
RTVSPost2010PropOp49
 70
     1
102
RTVSPost2010Prop50
 90
       50
102
RTVSPost2010PropOp50
 70
     1
102
RTVSPost2010Prop51ColorIndex
 90
      256
102
RTVSPost2010Prop51ColorRGB
 90
-16777216
102
RTVSPost2010PropOp51
 70
     0
102
RTVSPost2010Prop52
140
1.0
102
RTVSPost2010PropOp52
 70
     0
102
RTVSPost2010Prop53
 90
        2
102
RTVSPost2010PropOp53
 70
     1
102
RTVSPost2010Prop54
  1
strokes_ogs.tif
102
RTVSPost2010PropOp54
 70
     1
102
RTVSPost2010Prop55
280
     0
102
RTVSPost2010PropOp55
 70
     1
102
RTVSPost2010Prop56
140
1.0
102
RTVSPost2010PropOp56
 70
     1
102
RTVSPost2010Prop57
140
1.0
102
RTVSPost2010PropOp57
 70
     1
102
RTVSPropertyOp0
 70
     1
102
RTVSPropertyOp1
 70
     1
102
RTVSPropertyOp2
 70
     1
102
RTVSPropertyOp3
 70
     1
102
RTVSPropertyOp4
 70
     1
102
RTVSPropertyOp5
 70
     1
102
RTVSPropertyOp6
 70
     1
102
RTVSPropertyOp7
 70
     1
102
RTVSPropertyOp8
 70
     1
102
RTVSPropertyOp9
 70
     1
102
RTVSPropertyOp10
 70
     1
102
RTVSPropertyOp11
 70
     1
102
RTVSPropertyOp12
 70
     1
102
RTVSPropertyOp13
 70
     1
102
RTVSPropertyOp14
 70
     1
102
RTVSPropertyOp15
 70
     1
102
RTVSPropertyOp16
 70
     1
102
RTVSPropertyOp17
 70
     1
102
RTVSPropertyOp18
 70
     1
102
RTVSPropertyOp19
 70
     1
102
RTVSPropertyOp20
 70
     1
102
RTVSPropertyOp21
 70
     1
102
RTVSPropertyOp22
 70
     1
102
RTVSPropertyOp23
 70
     1
102
RTVSPropertyOp24
 70
     1
102
RTVSPropertyOp25
 70
     1
102
RTVSPropertyOp26
 70
     1
102
RTVSPropertyOp27
 70
     1
102
RTVSPropertyOp28
 70
     1
102
RTVSPropertyOp29
 70
     1
102
RTVSPropertyOp30
 70
     1
102
RTVSPropertyOp31
 70
     1
102
RTVSPropertyOp32
 70
     1
102
RTVSPropertyOp33
 70
     1
102
RTVSPropertyOp34
 70
     1
102
RTVSPropertyOp35
 70
     1
102
RTVSPropertyOp36
 70
     1
102
RTVSPropertyOp37
 70
     1
102
RTVSPropertyOp38
 70
     1
102
RTVSPropertyOp39
 70
     1
102
RTVSPropertyOp40
 70
     1
102
RTVSPropertyOp41
 70
     1
102
RTVSPropertyOp42
 70
     1
102
RTVSPropertyOp43
 70
     1
102
RTVSPropertyOp44
 70
     1
102
RTVSPropertyOp45
 70
     1
102
RTVSPropertyOp46
 70
     1
102
RTVSPropertyOp47
 70
     1
102
RTVSPropertyOp48
 70
     1
102
RTVSPropertyOp49
 70
     1
102
RTVSPropertyOp50
 70
     1
102
RTVSPropertyOp51
 70
     0
102
RTVSPropertyOp52
 70
     0
102
RTVSPropertyOp53
 70
     1
102
RTVSPropertyOp54
 70
     1
102
RTVSPropertyOp55
 70
     1
102
RTVSPropertyOp56
 70
     1
102
RTVSPropertyOp57
 70
     1
102
RTVSPropertyOp58
 70
     1
102
RTVSPropertyOp59
 70
     1
102
RTVSPropertyOp60
 70
     1
102
RTVSPropertyOp61
 70
     1
102
RTVSPropertyOp62
 70
     1
  0
XRECORD
  5
B8D9
102
{ACAD_REACTORS
330
B8D8
102
}
330
B8D8
100
AcDbXrecord
280
     1
102
RTVSPost2010Prop28
280
     0
102
RTVSPost2010PropOp28
 70
     1
102
RTVSPost2010Prop29
280
     1
102
RTVSPost2010PropOp29
 70
     1
102
RTVSPost2010Prop30
280
     1
102
RTVSPost2010PropOp30
 70
     1
102
RTVSPost2010Prop31
280
     0
102
RTVSPost2010PropOp31
 70
     1
102
RTVSPost2010Prop32
280
     0
102
RTVSPost2010PropOp32
 70
     1
102
RTVSPost2010Prop33
280
     0
102
RTVSPost2010PropOp33
 70
     1
102
RTVSPost2010Prop34
280
     0
102
RTVSPost2010PropOp34
 70
     1
102
RTVSPost2010Prop35
280
     0
102
RTVSPost2010PropOp35
 70
     1
102
RTVSPost2010Prop36
280
     0
102
RTVSPost2010PropOp36
 70
     1
102
RTVSPost2010Prop37
 90
       50
102
RTVSPost2010PropOp37
 70
     1
102
RTVSPost2010Prop38
140
0.0
102
RTVSPost2010PropOp38
 70
     1
102
RTVSPost2010Prop39
140
1.0
102
RTVSPost2010PropOp39
 70
     1
102
RTVSPost2010Prop40
 90
        0
102
RTVSPost2010PropOp40
 70
     1
102
RTVSPost2010Prop41ColorIndex
 90
       18
102
RTVSPost2010Prop41ColorRGB
 90
        0
102
RTVSPost2010PropOp41
 70
     1
102
RTVSPost2010Prop42
 90
       50
102
RTVSPost2010PropOp42
 70
     1
102
RTVSPost2010Prop43
 90
        3
102
RTVSPost2010PropOp43
 70
     1
102
RTVSPost2010Prop44ColorIndex
 90
        5
102
RTVSPost2010Prop44ColorRGB
 90
      255
102
RTVSPost2010PropOp44
 70
     1
102
RTVSPost2010Prop45
280
     0
102
RTVSPost2010PropOp45
 70
     1
102
RTVSPost2010Prop46
 90
       50
102
RTVSPost2010PropOp46
 70
     1
102
RTVSPost2010Prop47
 90
       50
102
RTVSPost2010PropOp47
 70
     1
102
RTVSPost2010Prop48
 90
       50
102
RTVSPost2010PropOp48
 70
     1
102
RTVSPost2010Prop49
280
     0
102
RTVSPost2010PropOp49
 70
     1
102
RTVSPost2010Prop50
 90
       50
102
RTVSPost2010PropOp50
 70
     1
102
RTVSPost2010Prop51ColorIndex
 90
      256
102
RTVSPost2010Prop51ColorRGB
 90
-16777216
102
RTVSPost2010PropOp51
 70
     0
102
RTVSPost2010Prop52
140
1.0
102
RTVSPost2010PropOp52
 70
     0
102
RTVSPost2010Prop53
 90
        2
102
RTVSPost2010PropOp53
 70
     1
102
RTVSPost2010Prop54
  1
strokes_ogs.tif
102
RTVSPost2010PropOp54
 70
     1
102
RTVSPost2010Prop55
280
     0
102
RTVSPost2010PropOp55
 70
     1
102
RTVSPost2010Prop56
140
1.0
102
RTVSPost2010PropOp56
 70
     1
102
RTVSPost2010Prop57
140
1.0
102
RTVSPost2010PropOp57
 70
     1
102
RTVSPropertyOp0
 70
     1
102
RTVSPropertyOp1
 70
     1
102
RTVSPropertyOp2
 70
     1
102
RTVSPropertyOp3
 70
     1
102
RTVSPropertyOp4
 70
     1
102
RTVSPropertyOp5
 70
     1
102
RTVSPropertyOp6
 70
     1
102
RTVSPropertyOp7
 70
     1
102
RTVSPropertyOp8
 70
     1
102
RTVSPropertyOp9
 70
     1
102
RTVSPropertyOp10
 70
     1
102
RTVSPropertyOp11
 70
     1
102
RTVSPropertyOp12
 70
     1
102
RTVSPropertyOp13
 70
     1
102
RTVSPropertyOp14
 70
     1
102
RTVSPropertyOp15
 70
     1
102
RTVSPropertyOp16
 70
     1
102
RTVSPropertyOp17
 70
     1
102
RTVSPropertyOp18
 70
     1
102
RTVSPropertyOp19
 70
     1
102
RTVSPropertyOp20
 70
     1
102
RTVSPropertyOp21
 70
     1
102
RTVSPropertyOp22
 70
     1
102
RTVSPropertyOp23
 70
     1
102
RTVSPropertyOp24
 70
     1
102
RTVSPropertyOp25
 70
     1
102
RTVSPropertyOp26
 70
     1
102
RTVSPropertyOp27
 70
     1
102
RTVSPropertyOp28
 70
     1
102
RTVSPropertyOp29
 70
     1
102
RTVSPropertyOp30
 70
     1
102
RTVSPropertyOp31
 70
     1
102
RTVSPropertyOp32
 70
     1
102
RTVSPropertyOp33
 70
     1
102
RTVSPropertyOp34
 70
     1
102
RTVSPropertyOp35
 70
     1
102
RTVSPropertyOp36
 70
     1
102
RTVSPropertyOp37
 70
     1
102
RTVSPropertyOp38
 70
     1
102
RTVSPropertyOp39
 70
     1
102
RTVSPropertyOp40
 70
     1
102
RTVSPropertyOp41
 70
     1
102
RTVSPropertyOp42
 70
     1
102
RTVSPropertyOp43
 70
     1
102
RTVSPropertyOp44
 70
     1
102
RTVSPropertyOp45
 70
     1
102
RTVSPropertyOp46
 70
     1
102
RTVSPropertyOp47
 70
     1
102
RTVSPropertyOp48
 70
     1
102
RTVSPropertyOp49
 70
     1
102
RTVSPropertyOp50
 70
     1
102
RTVSPropertyOp51
 70
     0
102
RTVSPropertyOp52
 70
     0
102
RTVSPropertyOp53
 70
     1
102
RTVSPropertyOp54
 70
     1
102
RTVSPropertyOp55
 70
     1
102
RTVSPropertyOp56
 70
     1
102
RTVSPropertyOp57
 70
     1
102
RTVSPropertyOp58
 70
     1
102
RTVSPropertyOp59
 70
     1
102
RTVSPropertyOp60
 70
     1
102
RTVSPropertyOp61
 70
     1
102
RTVSPropertyOp62
 70
     1
  0
XRECORD
  5
B8E7
102
{ACAD_REACTORS
330
B8E6
102
}
330
B8E6
100
AcDbXrecord
280
     1
102
RTVSPost2010Prop28
280
     0
102
RTVSPost2010PropOp28
 70
     1
102
RTVSPost2010Prop29
280
     1
102
RTVSPost2010PropOp29
 70
     1
102
RTVSPost2010Prop30
280
     1
102
RTVSPost2010PropOp30
 70
     1
102
RTVSPost2010Prop31
280
     0
102
RTVSPost2010PropOp31
 70
     1
102
RTVSPost2010Prop32
280
     0
102
RTVSPost2010PropOp32
 70
     1
102
RTVSPost2010Prop33
280
     0
102
RTVSPost2010PropOp33
 70
     1
102
RTVSPost2010Prop34
280
     0
102
RTVSPost2010PropOp34
 70
     1
102
RTVSPost2010Prop35
280
     0
102
RTVSPost2010PropOp35
 70
     1
102
RTVSPost2010Prop36
280
     0
102
RTVSPost2010PropOp36
 70
     1
102
RTVSPost2010Prop37
 90
       50
102
RTVSPost2010PropOp37
 70
     1
102
RTVSPost2010Prop38
140
0.0
102
RTVSPost2010PropOp38
 70
     1
102
RTVSPost2010Prop39
140
1.0
102
RTVSPost2010PropOp39
 70
     1
102
RTVSPost2010Prop40
 90
        0
102
RTVSPost2010PropOp40
 70
     1
102
RTVSPost2010Prop41ColorIndex
 90
       18
102
RTVSPost2010Prop41ColorRGB
 90
        0
102
RTVSPost2010PropOp41
 70
     1
102
RTVSPost2010Prop42
 90
       50
102
RTVSPost2010PropOp42
 70
     1
102
RTVSPost2010Prop43
 90
        3
102
RTVSPost2010PropOp43
 70
     1
102
RTVSPost2010Prop44ColorIndex
 90
        5
102
RTVSPost2010Prop44ColorRGB
 90
      255
102
RTVSPost2010PropOp44
 70
     1
102
RTVSPost2010Prop45
280
     0
102
RTVSPost2010PropOp45
 70
     1
102
RTVSPost2010Prop46
 90
       50
102
RTVSPost2010PropOp46
 70
     1
102
RTVSPost2010Prop47
 90
       50
102
RTVSPost2010PropOp47
 70
     1
102
RTVSPost2010Prop48
 90
       50
102
RTVSPost2010PropOp48
 70
     1
102
RTVSPost2010Prop49
280
     0
102
RTVSPost2010PropOp49
 70
     1
102
RTVSPost2010Prop50
 90
       50
102
RTVSPost2010PropOp50
 70
     1
102
RTVSPost2010Prop51ColorIndex
 90
      256
102
RTVSPost2010Prop51ColorRGB
 90
-16777216
102
RTVSPost2010PropOp51
 70
     0
102
RTVSPost2010Prop52
140
1.0
102
RTVSPost2010PropOp52
 70
     0
102
RTVSPost2010Prop53
 90
        2
102
RTVSPost2010PropOp53
 70
     1
102
RTVSPost2010Prop54
  1
strokes_ogs.tif
102
RTVSPost2010PropOp54
 70
     1
102
RTVSPost2010Prop55
280
     0
102
RTVSPost2010PropOp55
 70
     1
102
RTVSPost2010Prop56
140
1.0
102
RTVSPost2010PropOp56
 70
     1
102
RTVSPost2010Prop57
140
1.0
102
RTVSPost2010PropOp57
 70
     1
102
RTVSPropertyOp0
 70
     1
102
RTVSPropertyOp1
 70
     1
102
RTVSPropertyOp2
 70
     1
102
RTVSPropertyOp3
 70
     1
102
RTVSPropertyOp4
 70
     1
102
RTVSPropertyOp5
 70
     1
102
RTVSPropertyOp6
 70
     1
102
RTVSPropertyOp7
 70
     1
102
RTVSPropertyOp8
 70
     1
102
RTVSPropertyOp9
 70
     1
102
RTVSPropertyOp10
 70
     1
102
RTVSPropertyOp11
 70
     1
102
RTVSPropertyOp12
 70
     1
102
RTVSPropertyOp13
 70
     1
102
RTVSPropertyOp14
 70
     1
102
RTVSPropertyOp15
 70
     1
102
RTVSPropertyOp16
 70
     1
102
RTVSPropertyOp17
 70
     1
102
RTVSPropertyOp18
 70
     1
102
RTVSPropertyOp19
 70
     1
102
RTVSPropertyOp20
 70
     1
102
RTVSPropertyOp21
 70
     1
102
RTVSPropertyOp22
 70
     1
102
RTVSPropertyOp23
 70
     1
102
RTVSPropertyOp24
 70
     1
102
RTVSPropertyOp25
 70
     1
102
RTVSPropertyOp26
 70
     1
102
RTVSPropertyOp27
 70
     1
102
RTVSPropertyOp28
 70
     1
102
RTVSPropertyOp29
 70
     1
102
RTVSPropertyOp30
 70
     1
102
RTVSPropertyOp31
 70
     1
102
RTVSPropertyOp32
 70
     1
102
RTVSPropertyOp33
 70
     1
102
RTVSPropertyOp34
 70
     1
102
RTVSPropertyOp35
 70
     1
102
RTVSPropertyOp36
 70
     1
102
RTVSPropertyOp37
 70
     1
102
RTVSPropertyOp38
 70
     1
102
RTVSPropertyOp39
 70
     1
102
RTVSPropertyOp40
 70
     1
102
RTVSPropertyOp41
 70
     1
102
RTVSPropertyOp42
 70
     1
102
RTVSPropertyOp43
 70
     1
102
RTVSPropertyOp44
 70
     1
102
RTVSPropertyOp45
 70
     1
102
RTVSPropertyOp46
 70
     1
102
RTVSPropertyOp47
 70
     1
102
RTVSPropertyOp48
 70
     1
102
RTVSPropertyOp49
 70
     1
102
RTVSPropertyOp50
 70
     1
102
RTVSPropertyOp51
 70
     0
102
RTVSPropertyOp52
 70
     0
102
RTVSPropertyOp53
 70
     1
102
RTVSPropertyOp54
 70
     1
102
RTVSPropertyOp55
 70
     1
102
RTVSPropertyOp56
 70
     1
102
RTVSPropertyOp57
 70
     1
102
RTVSPropertyOp58
 70
     1
102
RTVSPropertyOp59
 70
     1
102
RTVSPropertyOp60
 70
     1
102
RTVSPropertyOp61
 70
     1
102
RTVSPropertyOp62
 70
     1
  0
XRECORD
  5
B8EF
102
{ACAD_REACTORS
330
B8EE
102
}
330
B8EE
100
AcDbXrecord
280
     1
102
RTVSPost2010Prop28
280
     0
102
RTVSPost2010PropOp28
 70
     1
102
RTVSPost2010Prop29
280
     1
102
RTVSPost2010PropOp29
 70
     1
102
RTVSPost2010Prop30
280
     1
102
RTVSPost2010PropOp30
 70
     1
102
RTVSPost2010Prop31
280
     0
102
RTVSPost2010PropOp31
 70
     1
102
RTVSPost2010Prop32
280
     0
102
RTVSPost2010PropOp32
 70
     1
102
RTVSPost2010Prop33
280
     0
102
RTVSPost2010PropOp33
 70
     1
102
RTVSPost2010Prop34
280
     0
102
RTVSPost2010PropOp34
 70
     1
102
RTVSPost2010Prop35
280
     0
102
RTVSPost2010PropOp35
 70
     1
102
RTVSPost2010Prop36
280
     0
102
RTVSPost2010PropOp36
 70
     1
102
RTVSPost2010Prop37
 90
       50
102
RTVSPost2010PropOp37
 70
     1
102
RTVSPost2010Prop38
140
0.0
102
RTVSPost2010PropOp38
 70
     1
102
RTVSPost2010Prop39
140
1.0
102
RTVSPost2010PropOp39
 70
     1
102
RTVSPost2010Prop40
 90
        0
102
RTVSPost2010PropOp40
 70
     1
102
RTVSPost2010Prop41ColorIndex
 90
       18
102
RTVSPost2010Prop41ColorRGB
 90
        0
102
RTVSPost2010PropOp41
 70
     1
102
RTVSPost2010Prop42
 90
       50
102
RTVSPost2010PropOp42
 70
     1
102
RTVSPost2010Prop43
 90
        3
102
RTVSPost2010PropOp43
 70
     1
102
RTVSPost2010Prop44ColorIndex
 90
        5
102
RTVSPost2010Prop44ColorRGB
 90
      255
102
RTVSPost2010PropOp44
 70
     1
102
RTVSPost2010Prop45
280
     0
102
RTVSPost2010PropOp45
 70
     1
102
RTVSPost2010Prop46
 90
       50
102
RTVSPost2010PropOp46
 70
     1
102
RTVSPost2010Prop47
 90
       50
102
RTVSPost2010PropOp47
 70
     1
102
RTVSPost2010Prop48
 90
       50
102
RTVSPost2010PropOp48
 70
     1
102
RTVSPost2010Prop49
280
     0
102
RTVSPost2010PropOp49
 70
     1
102
RTVSPost2010Prop50
 90
       50
102
RTVSPost2010PropOp50
 70
     1
102
RTVSPost2010Prop51ColorIndex
 90
      256
102
RTVSPost2010Prop51ColorRGB
 90
-16777216
102
RTVSPost2010PropOp51
 70
     0
102
RTVSPost2010Prop52
140
1.0
102
RTVSPost2010PropOp52
 70
     0
102
RTVSPost2010Prop53
 90
        2
102
RTVSPost2010PropOp53
 70
     1
102
RTVSPost2010Prop54
  1
strokes_ogs.tif
102
RTVSPost2010PropOp54
 70
     1
102
RTVSPost2010Prop55
280
     0
102
RTVSPost2010PropOp55
 70
     1
102
RTVSPost2010Prop56
140
1.0
102
RTVSPost2010PropOp56
 70
     1
102
RTVSPost2010Prop57
140
1.0
102
RTVSPost2010PropOp57
 70
     1
102
RTVSPropertyOp0
 70
     1
102
RTVSPropertyOp1
 70
     1
102
RTVSPropertyOp2
 70
     1
102
RTVSPropertyOp3
 70
     1
102
RTVSPropertyOp4
 70
     1
102
RTVSPropertyOp5
 70
     1
102
RTVSPropertyOp6
 70
     1
102
RTVSPropertyOp7
 70
     1
102
RTVSPropertyOp8
 70
     1
102
RTVSPropertyOp9
 70
     1
102
RTVSPropertyOp10
 70
     1
102
RTVSPropertyOp11
 70
     1
102
RTVSPropertyOp12
 70
     1
102
RTVSPropertyOp13
 70
     1
102
RTVSPropertyOp14
 70
     1
102
RTVSPropertyOp15
 70
     1
102
RTVSPropertyOp16
 70
     1
102
RTVSPropertyOp17
 70
     1
102
RTVSPropertyOp18
 70
     1
102
RTVSPropertyOp19
 70
     1
102
RTVSPropertyOp20
 70
     1
102
RTVSPropertyOp21
 70
     1
102
RTVSPropertyOp22
 70
     1
102
RTVSPropertyOp23
 70
     1
102
RTVSPropertyOp24
 70
     1
102
RTVSPropertyOp25
 70
     1
102
RTVSPropertyOp26
 70
     1
102
RTVSPropertyOp27
 70
     1
102
RTVSPropertyOp28
 70
     1
102
RTVSPropertyOp29
 70
     1
102
RTVSPropertyOp30
 70
     1
102
RTVSPropertyOp31
 70
     1
102
RTVSPropertyOp32
 70
     1
102
RTVSPropertyOp33
 70
     1
102
RTVSPropertyOp34
 70
     1
102
RTVSPropertyOp35
 70
     1
102
RTVSPropertyOp36
 70
     1
102
RTVSPropertyOp37
 70
     1
102
RTVSPropertyOp38
 70
     1
102
RTVSPropertyOp39
 70
     1
102
RTVSPropertyOp40
 70
     1
102
RTVSPropertyOp41
 70
     1
102
RTVSPropertyOp42
 70
     1
102
RTVSPropertyOp43
 70
     1
102
RTVSPropertyOp44
 70
     1
102
RTVSPropertyOp45
 70
     1
102
RTVSPropertyOp46
 70
     1
102
RTVSPropertyOp47
 70
     1
102
RTVSPropertyOp48
 70
     1
102
RTVSPropertyOp49
 70
     1
102
RTVSPropertyOp50
 70
     1
102
RTVSPropertyOp51
 70
     0
102
RTVSPropertyOp52
 70
     0
102
RTVSPropertyOp53
 70
     1
102
RTVSPropertyOp54
 70
     1
102
RTVSPropertyOp55
 70
     1
102
RTVSPropertyOp56
 70
     1
102
RTVSPropertyOp57
 70
     1
102
RTVSPropertyOp58
 70
     1
102
RTVSPropertyOp59
 70
     1
102
RTVSPropertyOp60
 70
     1
102
RTVSPropertyOp61
 70
     1
102
RTVSPropertyOp62
 70
     1
  0
XRECORD
  5
B8E1
102
{ACAD_REACTORS
330
B8E0
102
}
330
B8E0
100
AcDbXrecord
280
     1
102
RTVSPost2010Prop28
280
     0
102
RTVSPost2010PropOp28
 70
     1
102
RTVSPost2010Prop29
280
     1
102
RTVSPost2010PropOp29
 70
     1
102
RTVSPost2010Prop30
280
     1
102
RTVSPost2010PropOp30
 70
     1
102
RTVSPost2010Prop31
280
     0
102
RTVSPost2010PropOp31
 70
     1
102
RTVSPost2010Prop32
280
     0
102
RTVSPost2010PropOp32
 70
     1
102
RTVSPost2010Prop33
280
     0
102
RTVSPost2010PropOp33
 70
     1
102
RTVSPost2010Prop34
280
     0
102
RTVSPost2010PropOp34
 70
     1
102
RTVSPost2010Prop35
280
     0
102
RTVSPost2010PropOp35
 70
     1
102
RTVSPost2010Prop36
280
     0
102
RTVSPost2010PropOp36
 70
     1
102
RTVSPost2010Prop37
 90
       50
102
RTVSPost2010PropOp37
 70
     1
102
RTVSPost2010Prop38
140
0.0
102
RTVSPost2010PropOp38
 70
     1
102
RTVSPost2010Prop39
140
1.0
102
RTVSPost2010PropOp39
 70
     1
102
RTVSPost2010Prop40
 90
        0
102
RTVSPost2010PropOp40
 70
     1
102
RTVSPost2010Prop41ColorIndex
 90
       18
102
RTVSPost2010Prop41ColorRGB
 90
        0
102
RTVSPost2010PropOp41
 70
     1
102
RTVSPost2010Prop42
 90
       50
102
RTVSPost2010PropOp42
 70
     1
102
RTVSPost2010Prop43
 90
        3
102
RTVSPost2010PropOp43
 70
     1
102
RTVSPost2010Prop44ColorIndex
 90
        5
102
RTVSPost2010Prop44ColorRGB
 90
      255
102
RTVSPost2010PropOp44
 70
     1
102
RTVSPost2010Prop45
280
     0
102
RTVSPost2010PropOp45
 70
     1
102
RTVSPost2010Prop46
 90
       50
102
RTVSPost2010PropOp46
 70
     1
102
RTVSPost2010Prop47
 90
       50
102
RTVSPost2010PropOp47
 70
     1
102
RTVSPost2010Prop48
 90
       50
102
RTVSPost2010PropOp48
 70
     1
102
RTVSPost2010Prop49
280
     0
102
RTVSPost2010PropOp49
 70
     1
102
RTVSPost2010Prop50
 90
       50
102
RTVSPost2010PropOp50
 70
     1
102
RTVSPost2010Prop51ColorIndex
 90
      256
102
RTVSPost2010Prop51ColorRGB
 90
-16777216
102
RTVSPost2010PropOp51
 70
     0
102
RTVSPost2010Prop52
140
1.0
102
RTVSPost2010PropOp52
 70
     0
102
RTVSPost2010Prop53
 90
        2
102
RTVSPost2010PropOp53
 70
     1
102
RTVSPost2010Prop54
  1
strokes_ogs.tif
102
RTVSPost2010PropOp54
 70
     1
102
RTVSPost2010Prop55
280
     0
102
RTVSPost2010PropOp55
 70
     1
102
RTVSPost2010Prop56
140
1.0
102
RTVSPost2010PropOp56
 70
     1
102
RTVSPost2010Prop57
140
1.0
102
RTVSPost2010PropOp57
 70
     1
102
RTVSPropertyOp0
 70
     1
102
RTVSPropertyOp1
 70
     1
102
RTVSPropertyOp2
 70
     1
102
RTVSPropertyOp3
 70
     1
102
RTVSPropertyOp4
 70
     1
102
RTVSPropertyOp5
 70
     1
102
RTVSPropertyOp6
 70
     1
102
RTVSPropertyOp7
 70
     1
102
RTVSPropertyOp8
 70
     1
102
RTVSPropertyOp9
 70
     1
102
RTVSPropertyOp10
 70
     1
102
RTVSPropertyOp11
 70
     1
102
RTVSPropertyOp12
 70
     1
102
RTVSPropertyOp13
 70
     1
102
RTVSPropertyOp14
 70
     1
102
RTVSPropertyOp15
 70
     1
102
RTVSPropertyOp16
 70
     1
102
RTVSPropertyOp17
 70
     1
102
RTVSPropertyOp18
 70
     1
102
RTVSPropertyOp19
 70
     1
102
RTVSPropertyOp20
 70
     1
102
RTVSPropertyOp21
 70
     1
102
RTVSPropertyOp22
 70
     1
102
RTVSPropertyOp23
 70
     1
102
RTVSPropertyOp24
 70
     1
102
RTVSPropertyOp25
 70
     1
102
RTVSPropertyOp26
 70
     1
102
RTVSPropertyOp27
 70
     1
102
RTVSPropertyOp28
 70
     1
102
RTVSPropertyOp29
 70
     1
102
RTVSPropertyOp30
 70
     1
102
RTVSPropertyOp31
 70
     1
102
RTVSPropertyOp32
 70
     1
102
RTVSPropertyOp33
 70
     1
102
RTVSPropertyOp34
 70
     1
102
RTVSPropertyOp35
 70
     1
102
RTVSPropertyOp36
 70
     1
102
RTVSPropertyOp37
 70
     1
102
RTVSPropertyOp38
 70
     1
102
RTVSPropertyOp39
 70
     1
102
RTVSPropertyOp40
 70
     1
102
RTVSPropertyOp41
 70
     1
102
RTVSPropertyOp42
 70
     1
102
RTVSPropertyOp43
 70
     1
102
RTVSPropertyOp44
 70
     1
102
RTVSPropertyOp45
 70
     1
102
RTVSPropertyOp46
 70
     1
102
RTVSPropertyOp47
 70
     1
102
RTVSPropertyOp48
 70
     1
102
RTVSPropertyOp49
 70
     1
102
RTVSPropertyOp50
 70
     1
102
RTVSPropertyOp51
 70
     0
102
RTVSPropertyOp52
 70
     0
102
RTVSPropertyOp53
 70
     1
102
RTVSPropertyOp54
 70
     1
102
RTVSPropertyOp55
 70
     1
102
RTVSPropertyOp56
 70
     1
102
RTVSPropertyOp57
 70
     1
102
RTVSPropertyOp58
 70
     1
102
RTVSPropertyOp59
 70
     1
102
RTVSPropertyOp60
 70
     1
102
RTVSPropertyOp61
 70
     1
102
RTVSPropertyOp62
 70
     1
  0
XRECORD
  5
B8E5
102
{ACAD_REACTORS
330
B8E4
102
}
330
B8E4
100
AcDbXrecord
280
     1
102
RTVSPost2010Prop28
280
     0
102
RTVSPost2010PropOp28
 70
     1
102
RTVSPost2010Prop29
280
     1
102
RTVSPost2010PropOp29
 70
     1
102
RTVSPost2010Prop30
280
     1
102
RTVSPost2010PropOp30
 70
     1
102
RTVSPost2010Prop31
280
     0
102
RTVSPost2010PropOp31
 70
     1
102
RTVSPost2010Prop32
280
     0
102
RTVSPost2010PropOp32
 70
     1
102
RTVSPost2010Prop33
280
     0
102
RTVSPost2010PropOp33
 70
     1
102
RTVSPost2010Prop34
280
     0
102
RTVSPost2010PropOp34
 70
     1
102
RTVSPost2010Prop35
280
     0
102
RTVSPost2010PropOp35
 70
     1
102
RTVSPost2010Prop36
280
     0
102
RTVSPost2010PropOp36
 70
     1
102
RTVSPost2010Prop37
 90
       50
102
RTVSPost2010PropOp37
 70
     1
102
RTVSPost2010Prop38
140
0.0
102
RTVSPost2010PropOp38
 70
     1
102
RTVSPost2010Prop39
140
1.0
102
RTVSPost2010PropOp39
 70
     1
102
RTVSPost2010Prop40
 90
        0
102
RTVSPost2010PropOp40
 70
     1
102
RTVSPost2010Prop41ColorIndex
 90
       18
102
RTVSPost2010Prop41ColorRGB
 90
        0
102
RTVSPost2010PropOp41
 70
     1
102
RTVSPost2010Prop42
 90
       50
102
RTVSPost2010PropOp42
 70
     1
102
RTVSPost2010Prop43
 90
        3
102
RTVSPost2010PropOp43
 70
     1
102
RTVSPost2010Prop44ColorIndex
 90
        5
102
RTVSPost2010Prop44ColorRGB
 90
      255
102
RTVSPost2010PropOp44
 70
     1
102
RTVSPost2010Prop45
280
     0
102
RTVSPost2010PropOp45
 70
     1
102
RTVSPost2010Prop46
 90
       50
102
RTVSPost2010PropOp46
 70
     1
102
RTVSPost2010Prop47
 90
       50
102
RTVSPost2010PropOp47
 70
     1
102
RTVSPost2010Prop48
 90
       50
102
RTVSPost2010PropOp48
 70
     1
102
RTVSPost2010Prop49
280
     0
102
RTVSPost2010PropOp49
 70
     1
102
RTVSPost2010Prop50
 90
       50
102
RTVSPost2010PropOp50
 70
     1
102
RTVSPost2010Prop51ColorIndex
 90
      256
102
RTVSPost2010Prop51ColorRGB
 90
-16777216
102
RTVSPost2010PropOp51
 70
     0
102
RTVSPost2010Prop52
140
1.0
102
RTVSPost2010PropOp52
 70
     0
102
RTVSPost2010Prop53
 90
        2
102
RTVSPost2010PropOp53
 70
     1
102
RTVSPost2010Prop54
  1
strokes_ogs.tif
102
RTVSPost2010PropOp54
 70
     1
102
RTVSPost2010Prop55
280
     0
102
RTVSPost2010PropOp55
 70
     1
102
RTVSPost2010Prop56
140
1.0
102
RTVSPost2010PropOp56
 70
     1
102
RTVSPost2010Prop57
140
1.0
102
RTVSPost2010PropOp57
 70
     1
102
RTVSPropertyOp0
 70
     1
102
RTVSPropertyOp1
 70
     1
102
RTVSPropertyOp2
 70
     1
102
RTVSPropertyOp3
 70
     1
102
RTVSPropertyOp4
 70
     1
102
RTVSPropertyOp5
 70
     1
102
RTVSPropertyOp6
 70
     1
102
RTVSPropertyOp7
 70
     1
102
RTVSPropertyOp8
 70
     1
102
RTVSPropertyOp9
 70
     1
102
RTVSPropertyOp10
 70
     1
102
RTVSPropertyOp11
 70
     1
102
RTVSPropertyOp12
 70
     1
102
RTVSPropertyOp13
 70
     1
102
RTVSPropertyOp14
 70
     1
102
RTVSPropertyOp15
 70
     1
102
RTVSPropertyOp16
 70
     1
102
RTVSPropertyOp17
 70
     1
102
RTVSPropertyOp18
 70
     1
102
RTVSPropertyOp19
 70
     1
102
RTVSPropertyOp20
 70
     1
102
RTVSPropertyOp21
 70
     1
102
RTVSPropertyOp22
 70
     1
102
RTVSPropertyOp23
 70
     1
102
RTVSPropertyOp24
 70
     1
102
RTVSPropertyOp25
 70
     1
102
RTVSPropertyOp26
 70
     1
102
RTVSPropertyOp27
 70
     1
102
RTVSPropertyOp28
 70
     1
102
RTVSPropertyOp29
 70
     1
102
RTVSPropertyOp30
 70
     1
102
RTVSPropertyOp31
 70
     1
102
RTVSPropertyOp32
 70
     1
102
RTVSPropertyOp33
 70
     1
102
RTVSPropertyOp34
 70
     1
102
RTVSPropertyOp35
 70
     1
102
RTVSPropertyOp36
 70
     1
102
RTVSPropertyOp37
 70
     1
102
RTVSPropertyOp38
 70
     1
102
RTVSPropertyOp39
 70
     1
102
RTVSPropertyOp40
 70
     1
102
RTVSPropertyOp41
 70
     1
102
RTVSPropertyOp42
 70
     1
102
RTVSPropertyOp43
 70
     1
102
RTVSPropertyOp44
 70
     1
102
RTVSPropertyOp45
 70
     1
102
RTVSPropertyOp46
 70
     1
102
RTVSPropertyOp47
 70
     1
102
RTVSPropertyOp48
 70
     1
102
RTVSPropertyOp49
 70
     1
102
RTVSPropertyOp50
 70
     1
102
RTVSPropertyOp51
 70
     0
102
RTVSPropertyOp52
 70
     0
102
RTVSPropertyOp53
 70
     1
102
RTVSPropertyOp54
 70
     1
102
RTVSPropertyOp55
 70
     1
102
RTVSPropertyOp56
 70
     1
102
RTVSPropertyOp57
 70
     1
102
RTVSPropertyOp58
 70
     1
102
RTVSPropertyOp59
 70
     1
102
RTVSPropertyOp60
 70
     1
102
RTVSPropertyOp61
 70
     1
102
RTVSPropertyOp62
 70
     1
  0
XRECORD
  5
B8FF
102
{ACAD_REACTORS
330
B8FE
102
}
330
B8FE
100
AcDbXrecord
280
     1
102
RTVSPost2010Prop28
280
     0
102
RTVSPost2010PropOp28
 70
     1
102
RTVSPost2010Prop29
280
     1
102
RTVSPost2010PropOp29
 70
     1
102
RTVSPost2010Prop30
280
     1
102
RTVSPost2010PropOp30
 70
     1
102
RTVSPost2010Prop31
280
     0
102
RTVSPost2010PropOp31
 70
     1
102
RTVSPost2010Prop32
280
     0
102
RTVSPost2010PropOp32
 70
     1
102
RTVSPost2010Prop33
280
     0
102
RTVSPost2010PropOp33
 70
     1
102
RTVSPost2010Prop34
280
     0
102
RTVSPost2010PropOp34
 70
     1
102
RTVSPost2010Prop35
280
     0
102
RTVSPost2010PropOp35
 70
     1
102
RTVSPost2010Prop36
280
     0
102
RTVSPost2010PropOp36
 70
     1
102
RTVSPost2010Prop37
 90
       50
102
RTVSPost2010PropOp37
 70
     0
102
RTVSPost2010Prop38
140
0.0
102
RTVSPost2010PropOp38
 70
     0
102
RTVSPost2010Prop39
140
1.0
102
RTVSPost2010PropOp39
 70
     0
102
RTVSPost2010Prop40
 90
        0
102
RTVSPost2010PropOp40
 70
     0
102
RTVSPost2010Prop41ColorIndex
 90
       18
102
RTVSPost2010Prop41ColorRGB
 90
        0
102
RTVSPost2010PropOp41
 70
     0
102
RTVSPost2010Prop42
 90
       50
102
RTVSPost2010PropOp42
 70
     0
102
RTVSPost2010Prop43
 90
        3
102
RTVSPost2010PropOp43
 70
     0
102
RTVSPost2010Prop44ColorIndex
 90
        5
102
RTVSPost2010Prop44ColorRGB
 90
      255
102
RTVSPost2010PropOp44
 70
     0
102
RTVSPost2010Prop45
280
     0
102
RTVSPost2010PropOp45
 70
     1
102
RTVSPost2010Prop46
 90
       50
102
RTVSPost2010PropOp46
 70
     0
102
RTVSPost2010Prop47
 90
       50
102
RTVSPost2010PropOp47
 70
     0
102
RTVSPost2010Prop48
 90
       50
102
RTVSPost2010PropOp48
 70
     0
102
RTVSPost2010Prop49
280
     0
102
RTVSPost2010PropOp49
 70
     1
102
RTVSPost2010Prop50
 90
       50
102
RTVSPost2010PropOp50
 70
     0
102
RTVSPost2010Prop51ColorIndex
 90
      256
102
RTVSPost2010Prop51ColorRGB
 90
-16777216
102
RTVSPost2010PropOp51
 70
     0
102
RTVSPost2010Prop52
140
1.0
102
RTVSPost2010PropOp52
 70
     0
102
RTVSPost2010Prop53
 90
        2
102
RTVSPost2010PropOp53
 70
     0
102
RTVSPost2010Prop54
  1
strokes_ogs.tif
102
RTVSPost2010PropOp54
 70
     0
102
RTVSPost2010Prop55
280
     0
102
RTVSPost2010PropOp55
 70
     1
102
RTVSPost2010Prop56
140
1.0
102
RTVSPost2010PropOp56
 70
     0
102
RTVSPost2010Prop57
140
1.0
102
RTVSPost2010PropOp57
 70
     0
102
RTVSPropertyOp0
 70
     0
102
RTVSPropertyOp1
 70
     0
102
RTVSPropertyOp2
 70
     0
102
RTVSPropertyOp3
 70
     0
102
RTVSPropertyOp4
 70
     0
102
RTVSPropertyOp5
 70
     0
102
RTVSPropertyOp6
 70
     0
102
RTVSPropertyOp7
 70
     0
102
RTVSPropertyOp8
 70
     0
102
RTVSPropertyOp9
 70
     0
102
RTVSPropertyOp10
 70
     0
102
RTVSPropertyOp11
 70
     0
102
RTVSPropertyOp12
 70
     0
102
RTVSPropertyOp13
 70
     0
102
RTVSPropertyOp14
 70
     2
102
RTVSPropertyOp15
 70
     0
102
RTVSPropertyOp16
 70
     0
102
RTVSPropertyOp17
 70
     0
102
RTVSPropertyOp18
 70
     0
102
RTVSPropertyOp19
 70
     0
102
RTVSPropertyOp20
 70
     0
102
RTVSPropertyOp21
 70
     0
102
RTVSPropertyOp22
 70
     0
102
RTVSPropertyOp23
 70
     0
102
RTVSPropertyOp24
 70
     0
102
RTVSPropertyOp25
 70
     0
102
RTVSPropertyOp26
 70
     0
102
RTVSPropertyOp27
 70
     0
102
RTVSPropertyOp28
 70
     1
102
RTVSPropertyOp29
 70
     1
102
RTVSPropertyOp30
 70
     1
102
RTVSPropertyOp31
 70
     1
102
RTVSPropertyOp32
 70
     1
102
RTVSPropertyOp33
 70
     1
102
RTVSPropertyOp34
 70
     1
102
RTVSPropertyOp35
 70
     1
102
RTVSPropertyOp36
 70
     1
102
RTVSPropertyOp37
 70
     0
102
RTVSPropertyOp38
 70
     0
102
RTVSPropertyOp39
 70
     0
102
RTVSPropertyOp40
 70
     0
102
RTVSPropertyOp41
 70
     0
102
RTVSPropertyOp42
 70
     0
102
RTVSPropertyOp43
 70
     0
102
RTVSPropertyOp44
 70
     0
102
RTVSPropertyOp45
 70
     1
102
RTVSPropertyOp46
 70
     0
102
RTVSPropertyOp47
 70
     0
102
RTVSPropertyOp48
 70
     0
102
RTVSPropertyOp49
 70
     1
102
RTVSPropertyOp50
 70
     0
102
RTVSPropertyOp51
 70
     0
102
RTVSPropertyOp52
 70
     0
102
RTVSPropertyOp53
 70
     0
102
RTVSPropertyOp54
 70
     0
102
RTVSPropertyOp55
 70
     1
102
RTVSPropertyOp56
 70
     0
102
RTVSPropertyOp57
 70
     0
102
RTVSPropertyOp58
 70
     0
102
RTVSPropertyOp59
 70
     0
102
RTVSPropertyOp60
 70
     0
102
RTVSPropertyOp61
 70
     0
102
RTVSPropertyOp62
 70
     0
  0
XRECORD
  5
B8ED
102
{ACAD_REACTORS
330
B8EC
102
}
330
B8EC
100
AcDbXrecord
280
     1
102
RTVSPost2010Prop28
280
     0
102
RTVSPost2010PropOp28
 70
     1
102
RTVSPost2010Prop29
280
     1
102
RTVSPost2010PropOp29
 70
     1
102
RTVSPost2010Prop30
280
     1
102
RTVSPost2010PropOp30
 70
     1
102
RTVSPost2010Prop31
280
     0
102
RTVSPost2010PropOp31
 70
     1
102
RTVSPost2010Prop32
280
     0
102
RTVSPost2010PropOp32
 70
     1
102
RTVSPost2010Prop33
280
     0
102
RTVSPost2010PropOp33
 70
     1
102
RTVSPost2010Prop34
280
     0
102
RTVSPost2010PropOp34
 70
     1
102
RTVSPost2010Prop35
280
     0
102
RTVSPost2010PropOp35
 70
     1
102
RTVSPost2010Prop36
280
     0
102
RTVSPost2010PropOp36
 70
     1
102
RTVSPost2010Prop37
 90
       50
102
RTVSPost2010PropOp37
 70
     1
102
RTVSPost2010Prop38
140
0.0
102
RTVSPost2010PropOp38
 70
     1
102
RTVSPost2010Prop39
140
1.0
102
RTVSPost2010PropOp39
 70
     1
102
RTVSPost2010Prop40
 90
        0
102
RTVSPost2010PropOp40
 70
     1
102
RTVSPost2010Prop41ColorIndex
 90
       18
102
RTVSPost2010Prop41ColorRGB
 90
        0
102
RTVSPost2010PropOp41
 70
     1
102
RTVSPost2010Prop42
 90
       50
102
RTVSPost2010PropOp42
 70
     1
102
RTVSPost2010Prop43
 90
        3
102
RTVSPost2010PropOp43
 70
     1
102
RTVSPost2010Prop44ColorIndex
 90
        5
102
RTVSPost2010Prop44ColorRGB
 90
      255
102
RTVSPost2010PropOp44
 70
     1
102
RTVSPost2010Prop45
280
     0
102
RTVSPost2010PropOp45
 70
     1
102
RTVSPost2010Prop46
 90
       50
102
RTVSPost2010PropOp46
 70
     1
102
RTVSPost2010Prop47
 90
       50
102
RTVSPost2010PropOp47
 70
     1
102
RTVSPost2010Prop48
 90
       50
102
RTVSPost2010PropOp48
 70
     1
102
RTVSPost2010Prop49
280
     0
102
RTVSPost2010PropOp49
 70
     1
102
RTVSPost2010Prop50
 90
       50
102
RTVSPost2010PropOp50
 70
     1
102
RTVSPost2010Prop51ColorIndex
 90
      256
102
RTVSPost2010Prop51ColorRGB
 90
-16777216
102
RTVSPost2010PropOp51
 70
     0
102
RTVSPost2010Prop52
140
1.0
102
RTVSPost2010PropOp52
 70
     0
102
RTVSPost2010Prop53
 90
        2
102
RTVSPost2010PropOp53
 70
     1
102
RTVSPost2010Prop54
  1
strokes_ogs.tif
102
RTVSPost2010PropOp54
 70
     1
102
RTVSPost2010Prop55
280
     0
102
RTVSPost2010PropOp55
 70
     1
102
RTVSPost2010Prop56
140
1.0
102
RTVSPost2010PropOp56
 70
     1
102
RTVSPost2010Prop57
140
1.0
102
RTVSPost2010PropOp57
 70
     1
102
RTVSPropertyOp0
 70
     1
102
RTVSPropertyOp1
 70
     1
102
RTVSPropertyOp2
 70
     1
102
RTVSPropertyOp3
 70
     1
102
RTVSPropertyOp4
 70
     1
102
RTVSPropertyOp5
 70
     1
102
RTVSPropertyOp6
 70
     1
102
RTVSPropertyOp7
 70
     1
102
RTVSPropertyOp8
 70
     1
102
RTVSPropertyOp9
 70
     1
102
RTVSPropertyOp10
 70
     1
102
RTVSPropertyOp11
 70
     1
102
RTVSPropertyOp12
 70
     1
102
RTVSPropertyOp13
 70
     1
102
RTVSPropertyOp14
 70
     1
102
RTVSPropertyOp15
 70
     1
102
RTVSPropertyOp16
 70
     1
102
RTVSPropertyOp17
 70
     1
102
RTVSPropertyOp18
 70
     1
102
RTVSPropertyOp19
 70
     1
102
RTVSPropertyOp20
 70
     1
102
RTVSPropertyOp21
 70
     1
102
RTVSPropertyOp22
 70
     1
102
RTVSPropertyOp23
 70
     1
102
RTVSPropertyOp24
 70
     1
102
RTVSPropertyOp25
 70
     1
102
RTVSPropertyOp26
 70
     1
102
RTVSPropertyOp27
 70
     1
102
RTVSPropertyOp28
 70
     1
102
RTVSPropertyOp29
 70
     1
102
RTVSPropertyOp30
 70
     1
102
RTVSPropertyOp31
 70
     1
102
RTVSPropertyOp32
 70
     1
102
RTVSPropertyOp33
 70
     1
102
RTVSPropertyOp34
 70
     1
102
RTVSPropertyOp35
 70
     1
102
RTVSPropertyOp36
 70
     1
102
RTVSPropertyOp37
 70
     1
102
RTVSPropertyOp38
 70
     1
102
RTVSPropertyOp39
 70
     1
102
RTVSPropertyOp40
 70
     1
102
RTVSPropertyOp41
 70
     1
102
RTVSPropertyOp42
 70
     1
102
RTVSPropertyOp43
 70
     1
102
RTVSPropertyOp44
 70
     1
102
RTVSPropertyOp45
 70
     1
102
RTVSPropertyOp46
 70
     1
102
RTVSPropertyOp47
 70
     1
102
RTVSPropertyOp48
 70
     1
102
RTVSPropertyOp49
 70
     1
102
RTVSPropertyOp50
 70
     1
102
RTVSPropertyOp51
 70
     0
102
RTVSPropertyOp52
 70
     0
102
RTVSPropertyOp53
 70
     1
102
RTVSPropertyOp54
 70
     1
102
RTVSPropertyOp55
 70
     1
102
RTVSPropertyOp56
 70
     1
102
RTVSPropertyOp57
 70
     1
102
RTVSPropertyOp58
 70
     1
102
RTVSPropertyOp59
 70
     1
102
RTVSPropertyOp60
 70
     1
102
RTVSPropertyOp61
 70
     1
102
RTVSPropertyOp62
 70
     1
  0
XRECORD
  5
B8D1
102
{ACAD_REACTORS
330
B8D0
102
}
330
B8D0
100
AcDbXrecord
280
     1
102
RTVSPost2010Prop28
280
     0
102
RTVSPost2010PropOp28
 70
     1
102
RTVSPost2010Prop29
280
     1
102
RTVSPost2010PropOp29
 70
     1
102
RTVSPost2010Prop30
280
     1
102
RTVSPost2010PropOp30
 70
     1
102
RTVSPost2010Prop31
280
     0
102
RTVSPost2010PropOp31
 70
     1
102
RTVSPost2010Prop32
280
     0
102
RTVSPost2010PropOp32
 70
     1
102
RTVSPost2010Prop33
280
     0
102
RTVSPost2010PropOp33
 70
     1
102
RTVSPost2010Prop34
280
     0
102
RTVSPost2010PropOp34
 70
     1
102
RTVSPost2010Prop35
280
     0
102
RTVSPost2010PropOp35
 70
     1
102
RTVSPost2010Prop36
280
     0
102
RTVSPost2010PropOp36
 70
     1
102
RTVSPost2010Prop37
 90
       50
102
RTVSPost2010PropOp37
 70
     1
102
RTVSPost2010Prop38
140
0.0
102
RTVSPost2010PropOp38
 70
     1
102
RTVSPost2010Prop39
140
1.0
102
RTVSPost2010PropOp39
 70
     1
102
RTVSPost2010Prop40
 90
        0
102
RTVSPost2010PropOp40
 70
     1
102
RTVSPost2010Prop41ColorIndex
 90
       18
102
RTVSPost2010Prop41ColorRGB
 90
        0
102
RTVSPost2010PropOp41
 70
     1
102
RTVSPost2010Prop42
 90
       50
102
RTVSPost2010PropOp42
 70
     1
102
RTVSPost2010Prop43
 90
        3
102
RTVSPost2010PropOp43
 70
     1
102
RTVSPost2010Prop44ColorIndex
 90
        5
102
RTVSPost2010Prop44ColorRGB
 90
      255
102
RTVSPost2010PropOp44
 70
     1
102
RTVSPost2010Prop45
280
     0
102
RTVSPost2010PropOp45
 70
     1
102
RTVSPost2010Prop46
 90
       50
102
RTVSPost2010PropOp46
 70
     1
102
RTVSPost2010Prop47
 90
       50
102
RTVSPost2010PropOp47
 70
     1
102
RTVSPost2010Prop48
 90
       50
102
RTVSPost2010PropOp48
 70
     1
102
RTVSPost2010Prop49
280
     0
102
RTVSPost2010PropOp49
 70
     1
102
RTVSPost2010Prop50
 90
       50
102
RTVSPost2010PropOp50
 70
     1
102
RTVSPost2010Prop51ColorIndex
 90
      256
102
RTVSPost2010Prop51ColorRGB
 90
-16777216
102
RTVSPost2010PropOp51
 70
     0
102
RTVSPost2010Prop52
140
1.0
102
RTVSPost2010PropOp52
 70
     0
102
RTVSPost2010Prop53
 90
        2
102
RTVSPost2010PropOp53
 70
     1
102
RTVSPost2010Prop54
  1
strokes_ogs.tif
102
RTVSPost2010PropOp54
 70
     1
102
RTVSPost2010Prop55
280
     0
102
RTVSPost2010PropOp55
 70
     1
102
RTVSPost2010Prop56
140
1.0
102
RTVSPost2010PropOp56
 70
     1
102
RTVSPost2010Prop57
140
1.0
102
RTVSPost2010PropOp57
 70
     1
102
RTVSPropertyOp0
 70
     1
102
RTVSPropertyOp1
 70
     1
102
RTVSPropertyOp2
 70
     1
102
RTVSPropertyOp3
 70
     1
102
RTVSPropertyOp4
 70
     1
102
RTVSPropertyOp5
 70
     1
102
RTVSPropertyOp6
 70
     1
102
RTVSPropertyOp7
 70
     1
102
RTVSPropertyOp8
 70
     1
102
RTVSPropertyOp9
 70
     1
102
RTVSPropertyOp10
 70
     1
102
RTVSPropertyOp11
 70
     1
102
RTVSPropertyOp12
 70
     1
102
RTVSPropertyOp13
 70
     1
102
RTVSPropertyOp14
 70
     1
102
RTVSPropertyOp15
 70
     1
102
RTVSPropertyOp16
 70
     1
102
RTVSPropertyOp17
 70
     1
102
RTVSPropertyOp18
 70
     1
102
RTVSPropertyOp19
 70
     1
102
RTVSPropertyOp20
 70
     1
102
RTVSPropertyOp21
 70
     1
102
RTVSPropertyOp22
 70
     1
102
RTVSPropertyOp23
 70
     1
102
RTVSPropertyOp24
 70
     1
102
RTVSPropertyOp25
 70
     1
102
RTVSPropertyOp26
 70
     1
102
RTVSPropertyOp27
 70
     1
102
RTVSPropertyOp28
 70
     1
102
RTVSPropertyOp29
 70
     1
102
RTVSPropertyOp30
 70
     1
102
RTVSPropertyOp31
 70
     1
102
RTVSPropertyOp32
 70
     1
102
RTVSPropertyOp33
 70
     1
102
RTVSPropertyOp34
 70
     1
102
RTVSPropertyOp35
 70
     1
102
RTVSPropertyOp36
 70
     1
102
RTVSPropertyOp37
 70
     1
102
RTVSPropertyOp38
 70
     1
102
RTVSPropertyOp39
 70
     1
102
RTVSPropertyOp40
 70
     1
102
RTVSPropertyOp41
 70
     1
102
RTVSPropertyOp42
 70
     1
102
RTVSPropertyOp43
 70
     1
102
RTVSPropertyOp44
 70
     1
102
RTVSPropertyOp45
 70
     1
102
RTVSPropertyOp46
 70
     1
102
RTVSPropertyOp47
 70
     1
102
RTVSPropertyOp48
 70
     1
102
RTVSPropertyOp49
 70
     1
102
RTVSPropertyOp50
 70
     1
102
RTVSPropertyOp51
 70
     0
102
RTVSPropertyOp52
 70
     0
102
RTVSPropertyOp53
 70
     1
102
RTVSPropertyOp54
 70
     1
102
RTVSPropertyOp55
 70
     1
102
RTVSPropertyOp56
 70
     1
102
RTVSPropertyOp57
 70
     1
102
RTVSPropertyOp58
 70
     1
102
RTVSPropertyOp59
 70
     1
102
RTVSPropertyOp60
 70
     1
102
RTVSPropertyOp61
 70
     1
102
RTVSPropertyOp62
 70
     1
  0
XRECORD
  5
B8D3
102
{ACAD_REACTORS
330
B8D2
102
}
330
B8D2
100
AcDbXrecord
280
     1
102
RTVSPost2010Prop28
280
     0
102
RTVSPost2010PropOp28
 70
     1
102
RTVSPost2010Prop29
280
     1
102
RTVSPost2010PropOp29
 70
     1
102
RTVSPost2010Prop30
280
     1
102
RTVSPost2010PropOp30
 70
     1
102
RTVSPost2010Prop31
280
     0
102
RTVSPost2010PropOp31
 70
     1
102
RTVSPost2010Prop32
280
     0
102
RTVSPost2010PropOp32
 70
     1
102
RTVSPost2010Prop33
280
     0
102
RTVSPost2010PropOp33
 70
     1
102
RTVSPost2010Prop34
280
     0
102
RTVSPost2010PropOp34
 70
     1
102
RTVSPost2010Prop35
280
     0
102
RTVSPost2010PropOp35
 70
     1
102
RTVSPost2010Prop36
280
     0
102
RTVSPost2010PropOp36
 70
     1
102
RTVSPost2010Prop37
 90
       50
102
RTVSPost2010PropOp37
 70
     1
102
RTVSPost2010Prop38
140
0.0
102
RTVSPost2010PropOp38
 70
     1
102
RTVSPost2010Prop39
140
1.0
102
RTVSPost2010PropOp39
 70
     1
102
RTVSPost2010Prop40
 90
        0
102
RTVSPost2010PropOp40
 70
     1
102
RTVSPost2010Prop41ColorIndex
 90
       18
102
RTVSPost2010Prop41ColorRGB
 90
        0
102
RTVSPost2010PropOp41
 70
     1
102
RTVSPost2010Prop42
 90
       50
102
RTVSPost2010PropOp42
 70
     1
102
RTVSPost2010Prop43
 90
        3
102
RTVSPost2010PropOp43
 70
     1
102
RTVSPost2010Prop44ColorIndex
 90
        5
102
RTVSPost2010Prop44ColorRGB
 90
      255
102
RTVSPost2010PropOp44
 70
     1
102
RTVSPost2010Prop45
280
     0
102
RTVSPost2010PropOp45
 70
     1
102
RTVSPost2010Prop46
 90
       50
102
RTVSPost2010PropOp46
 70
     1
102
RTVSPost2010Prop47
 90
       50
102
RTVSPost2010PropOp47
 70
     1
102
RTVSPost2010Prop48
 90
       50
102
RTVSPost2010PropOp48
 70
     1
102
RTVSPost2010Prop49
280
     0
102
RTVSPost2010PropOp49
 70
     1
102
RTVSPost2010Prop50
 90
       50
102
RTVSPost2010PropOp50
 70
     1
102
RTVSPost2010Prop51ColorIndex
 90
      256
102
RTVSPost2010Prop51ColorRGB
 90
-16777216
102
RTVSPost2010PropOp51
 70
     0
102
RTVSPost2010Prop52
140
1.0
102
RTVSPost2010PropOp52
 70
     0
102
RTVSPost2010Prop53
 90
        2
102
RTVSPost2010PropOp53
 70
     1
102
RTVSPost2010Prop54
  1
strokes_ogs.tif
102
RTVSPost2010PropOp54
 70
     1
102
RTVSPost2010Prop55
280
     0
102
RTVSPost2010PropOp55
 70
     1
102
RTVSPost2010Prop56
140
1.0
102
RTVSPost2010PropOp56
 70
     1
102
RTVSPost2010Prop57
140
1.0
102
RTVSPost2010PropOp57
 70
     1
102
RTVSPropertyOp0
 70
     1
102
RTVSPropertyOp1
 70
     1
102
RTVSPropertyOp2
 70
     1
102
RTVSPropertyOp3
 70
     1
102
RTVSPropertyOp4
 70
     1
102
RTVSPropertyOp5
 70
     1
102
RTVSPropertyOp6
 70
     1
102
RTVSPropertyOp7
 70
     1
102
RTVSPropertyOp8
 70
     1
102
RTVSPropertyOp9
 70
     1
102
RTVSPropertyOp10
 70
     1
102
RTVSPropertyOp11
 70
     1
102
RTVSPropertyOp12
 70
     1
102
RTVSPropertyOp13
 70
     1
102
RTVSPropertyOp14
 70
     1
102
RTVSPropertyOp15
 70
     1
102
RTVSPropertyOp16
 70
     1
102
RTVSPropertyOp17
 70
     1
102
RTVSPropertyOp18
 70
     1
102
RTVSPropertyOp19
 70
     1
102
RTVSPropertyOp20
 70
     1
102
RTVSPropertyOp21
 70
     1
102
RTVSPropertyOp22
 70
     1
102
RTVSPropertyOp23
 70
     1
102
RTVSPropertyOp24
 70
     1
102
RTVSPropertyOp25
 70
     1
102
RTVSPropertyOp26
 70
     1
102
RTVSPropertyOp27
 70
     1
102
RTVSPropertyOp28
 70
     1
102
RTVSPropertyOp29
 70
     1
102
RTVSPropertyOp30
 70
     1
102
RTVSPropertyOp31
 70
     1
102
RTVSPropertyOp32
 70
     1
102
RTVSPropertyOp33
 70
     1
102
RTVSPropertyOp34
 70
     1
102
RTVSPropertyOp35
 70
     1
102
RTVSPropertyOp36
 70
     1
102
RTVSPropertyOp37
 70
     1
102
RTVSPropertyOp38
 70
     1
102
RTVSPropertyOp39
 70
     1
102
RTVSPropertyOp40
 70
     1
102
RTVSPropertyOp41
 70
     1
102
RTVSPropertyOp42
 70
     1
102
RTVSPropertyOp43
 70
     1
102
RTVSPropertyOp44
 70
     1
102
RTVSPropertyOp45
 70
     1
102
RTVSPropertyOp46
 70
     1
102
RTVSPropertyOp47
 70
     1
102
RTVSPropertyOp48
 70
     1
102
RTVSPropertyOp49
 70
     1
102
RTVSPropertyOp50
 70
     1
102
RTVSPropertyOp51
 70
     0
102
RTVSPropertyOp52
 70
     0
102
RTVSPropertyOp53
 70
     1
102
RTVSPropertyOp54
 70
     1
102
RTVSPropertyOp55
 70
     1
102
RTVSPropertyOp56
 70
     1
102
RTVSPropertyOp57
 70
     1
102
RTVSPropertyOp58
 70
     1
102
RTVSPropertyOp59
 70
     1
102
RTVSPropertyOp60
 70
     1
102
RTVSPropertyOp61
 70
     1
102
RTVSPropertyOp62
 70
     1
  0
XRECORD
  5
B8D5
102
{ACAD_REACTORS
330
B8D4
102
}
330
B8D4
100
AcDbXrecord
280
     1
102
RTVSPost2010Prop28
280
     0
102
RTVSPost2010PropOp28
 70
     1
102
RTVSPost2010Prop29
280
     1
102
RTVSPost2010PropOp29
 70
     1
102
RTVSPost2010Prop30
280
     1
102
RTVSPost2010PropOp30
 70
     1
102
RTVSPost2010Prop31
280
     0
102
RTVSPost2010PropOp31
 70
     1
102
RTVSPost2010Prop32
280
     0
102
RTVSPost2010PropOp32
 70
     1
102
RTVSPost2010Prop33
280
     0
102
RTVSPost2010PropOp33
 70
     1
102
RTVSPost2010Prop34
280
     0
102
RTVSPost2010PropOp34
 70
     1
102
RTVSPost2010Prop35
280
     0
102
RTVSPost2010PropOp35
 70
     1
102
RTVSPost2010Prop36
280
     0
102
RTVSPost2010PropOp36
 70
     1
102
RTVSPost2010Prop37
 90
       50
102
RTVSPost2010PropOp37
 70
     1
102
RTVSPost2010Prop38
140
0.0
102
RTVSPost2010PropOp38
 70
     1
102
RTVSPost2010Prop39
140
1.0
102
RTVSPost2010PropOp39
 70
     1
102
RTVSPost2010Prop40
 90
        0
102
RTVSPost2010PropOp40
 70
     1
102
RTVSPost2010Prop41ColorIndex
 90
       18
102
RTVSPost2010Prop41ColorRGB
 90
        0
102
RTVSPost2010PropOp41
 70
     1
102
RTVSPost2010Prop42
 90
       50
102
RTVSPost2010PropOp42
 70
     1
102
RTVSPost2010Prop43
 90
        3
102
RTVSPost2010PropOp43
 70
     1
102
RTVSPost2010Prop44ColorIndex
 90
        5
102
RTVSPost2010Prop44ColorRGB
 90
      255
102
RTVSPost2010PropOp44
 70
     1
102
RTVSPost2010Prop45
280
     0
102
RTVSPost2010PropOp45
 70
     1
102
RTVSPost2010Prop46
 90
       50
102
RTVSPost2010PropOp46
 70
     1
102
RTVSPost2010Prop47
 90
       50
102
RTVSPost2010PropOp47
 70
     1
102
RTVSPost2010Prop48
 90
       50
102
RTVSPost2010PropOp48
 70
     1
102
RTVSPost2010Prop49
280
     0
102
RTVSPost2010PropOp49
 70
     1
102
RTVSPost2010Prop50
 90
       50
102
RTVSPost2010PropOp50
 70
     1
102
RTVSPost2010Prop51ColorIndex
 90
      256
102
RTVSPost2010Prop51ColorRGB
 90
-16777216
102
RTVSPost2010PropOp51
 70
     0
102
RTVSPost2010Prop52
140
1.0
102
RTVSPost2010PropOp52
 70
     0
102
RTVSPost2010Prop53
 90
        2
102
RTVSPost2010PropOp53
 70
     1
102
RTVSPost2010Prop54
  1
strokes_ogs.tif
102
RTVSPost2010PropOp54
 70
     1
102
RTVSPost2010Prop55
280
     0
102
RTVSPost2010PropOp55
 70
     1
102
RTVSPost2010Prop56
140
1.0
102
RTVSPost2010PropOp56
 70
     1
102
RTVSPost2010Prop57
140
1.0
102
RTVSPost2010PropOp57
 70
     1
102
RTVSPropertyOp0
 70
     1
102
RTVSPropertyOp1
 70
     1
102
RTVSPropertyOp2
 70
     1
102
RTVSPropertyOp3
 70
     1
102
RTVSPropertyOp4
 70
     1
102
RTVSPropertyOp5
 70
     1
102
RTVSPropertyOp6
 70
     1
102
RTVSPropertyOp7
 70
     1
102
RTVSPropertyOp8
 70
     1
102
RTVSPropertyOp9
 70
     1
102
RTVSPropertyOp10
 70
     1
102
RTVSPropertyOp11
 70
     1
102
RTVSPropertyOp12
 70
     1
102
RTVSPropertyOp13
 70
     1
102
RTVSPropertyOp14
 70
     1
102
RTVSPropertyOp15
 70
     1
102
RTVSPropertyOp16
 70
     1
102
RTVSPropertyOp17
 70
     1
102
RTVSPropertyOp18
 70
     1
102
RTVSPropertyOp19
 70
     1
102
RTVSPropertyOp20
 70
     1
102
RTVSPropertyOp21
 70
     1
102
RTVSPropertyOp22
 70
     1
102
RTVSPropertyOp23
 70
     1
102
RTVSPropertyOp24
 70
     1
102
RTVSPropertyOp25
 70
     1
102
RTVSPropertyOp26
 70
     1
102
RTVSPropertyOp27
 70
     1
102
RTVSPropertyOp28
 70
     1
102
RTVSPropertyOp29
 70
     1
102
RTVSPropertyOp30
 70
     1
102
RTVSPropertyOp31
 70
     1
102
RTVSPropertyOp32
 70
     1
102
RTVSPropertyOp33
 70
     1
102
RTVSPropertyOp34
 70
     1
102
RTVSPropertyOp35
 70
     1
102
RTVSPropertyOp36
 70
     1
102
RTVSPropertyOp37
 70
     1
102
RTVSPropertyOp38
 70
     1
102
RTVSPropertyOp39
 70
     1
102
RTVSPropertyOp40
 70
     1
102
RTVSPropertyOp41
 70
     1
102
RTVSPropertyOp42
 70
     1
102
RTVSPropertyOp43
 70
     1
102
RTVSPropertyOp44
 70
     1
102
RTVSPropertyOp45
 70
     1
102
RTVSPropertyOp46
 70
     1
102
RTVSPropertyOp47
 70
     1
102
RTVSPropertyOp48
 70
     1
102
RTVSPropertyOp49
 70
     1
102
RTVSPropertyOp50
 70
     1
102
RTVSPropertyOp51
 70
     0
102
RTVSPropertyOp52
 70
     0
102
RTVSPropertyOp53
 70
     1
102
RTVSPropertyOp54
 70
     1
102
RTVSPropertyOp55
 70
     1
102
RTVSPropertyOp56
 70
     1
102
RTVSPropertyOp57
 70
     1
102
RTVSPropertyOp58
 70
     1
102
RTVSPropertyOp59
 70
     1
102
RTVSPropertyOp60
 70
     1
102
RTVSPropertyOp61
 70
     1
102
RTVSPropertyOp62
 70
     1
  0
XRECORD
  5
B8D7
102
{ACAD_REACTORS
330
B8D6
102
}
330
B8D6
100
AcDbXrecord
280
     1
102
RTVSPost2010Prop28
280
     0
102
RTVSPost2010PropOp28
 70
     1
102
RTVSPost2010Prop29
280
     1
102
RTVSPost2010PropOp29
 70
     1
102
RTVSPost2010Prop30
280
     1
102
RTVSPost2010PropOp30
 70
     1
102
RTVSPost2010Prop31
280
     0
102
RTVSPost2010PropOp31
 70
     1
102
RTVSPost2010Prop32
280
     0
102
RTVSPost2010PropOp32
 70
     1
102
RTVSPost2010Prop33
280
     0
102
RTVSPost2010PropOp33
 70
     1
102
RTVSPost2010Prop34
280
     0
102
RTVSPost2010PropOp34
 70
     1
102
RTVSPost2010Prop35
280
     0
102
RTVSPost2010PropOp35
 70
     1
102
RTVSPost2010Prop36
280
     0
102
RTVSPost2010PropOp36
 70
     1
102
RTVSPost2010Prop37
 90
       50
102
RTVSPost2010PropOp37
 70
     1
102
RTVSPost2010Prop38
140
0.0
102
RTVSPost2010PropOp38
 70
     1
102
RTVSPost2010Prop39
140
1.0
102
RTVSPost2010PropOp39
 70
     1
102
RTVSPost2010Prop40
 90
        0
102
RTVSPost2010PropOp40
 70
     1
102
RTVSPost2010Prop41ColorIndex
 90
       18
102
RTVSPost2010Prop41ColorRGB
 90
        0
102
RTVSPost2010PropOp41
 70
     1
102
RTVSPost2010Prop42
 90
       50
102
RTVSPost2010PropOp42
 70
     1
102
RTVSPost2010Prop43
 90
        3
102
RTVSPost2010PropOp43
 70
     1
102
RTVSPost2010Prop44ColorIndex
 90
        5
102
RTVSPost2010Prop44ColorRGB
 90
      255
102
RTVSPost2010PropOp44
 70
     1
102
RTVSPost2010Prop45
280
     0
102
RTVSPost2010PropOp45
 70
     1
102
RTVSPost2010Prop46
 90
       50
102
RTVSPost2010PropOp46
 70
     1
102
RTVSPost2010Prop47
 90
       50
102
RTVSPost2010PropOp47
 70
     1
102
RTVSPost2010Prop48
 90
       50
102
RTVSPost2010PropOp48
 70
     1
102
RTVSPost2010Prop49
280
     0
102
RTVSPost2010PropOp49
 70
     1
102
RTVSPost2010Prop50
 90
       50
102
RTVSPost2010PropOp50
 70
     1
102
RTVSPost2010Prop51ColorIndex
 90
      256
102
RTVSPost2010Prop51ColorRGB
 90
-16777216
102
RTVSPost2010PropOp51
 70
     0
102
RTVSPost2010Prop52
140
1.0
102
RTVSPost2010PropOp52
 70
     0
102
RTVSPost2010Prop53
 90
        2
102
RTVSPost2010PropOp53
 70
     1
102
RTVSPost2010Prop54
  1
strokes_ogs.tif
102
RTVSPost2010PropOp54
 70
     1
102
RTVSPost2010Prop55
280
     0
102
RTVSPost2010PropOp55
 70
     1
102
RTVSPost2010Prop56
140
1.0
102
RTVSPost2010PropOp56
 70
     1
102
RTVSPost2010Prop57
140
1.0
102
RTVSPost2010PropOp57
 70
     1
102
RTVSPropertyOp0
 70
     1
102
RTVSPropertyOp1
 70
     1
102
RTVSPropertyOp2
 70
     1
102
RTVSPropertyOp3
 70
     1
102
RTVSPropertyOp4
 70
     1
102
RTVSPropertyOp5
 70
     1
102
RTVSPropertyOp6
 70
     1
102
RTVSPropertyOp7
 70
     1
102
RTVSPropertyOp8
 70
     1
102
RTVSPropertyOp9
 70
     1
102
RTVSPropertyOp10
 70
     1
102
RTVSPropertyOp11
 70
     1
102
RTVSPropertyOp12
 70
     1
102
RTVSPropertyOp13
 70
     1
102
RTVSPropertyOp14
 70
     1
102
RTVSPropertyOp15
 70
     1
102
RTVSPropertyOp16
 70
     1
102
RTVSPropertyOp17
 70
     1
102
RTVSPropertyOp18
 70
     1
102
RTVSPropertyOp19
 70
     1
102
RTVSPropertyOp20
 70
     1
102
RTVSPropertyOp21
 70
     1
102
RTVSPropertyOp22
 70
     1
102
RTVSPropertyOp23
 70
     1
102
RTVSPropertyOp24
 70
     1
102
RTVSPropertyOp25
 70
     1
102
RTVSPropertyOp26
 70
     1
102
RTVSPropertyOp27
 70
     1
102
RTVSPropertyOp28
 70
     1
102
RTVSPropertyOp29
 70
     1
102
RTVSPropertyOp30
 70
     1
102
RTVSPropertyOp31
 70
     1
102
RTVSPropertyOp32
 70
     1
102
RTVSPropertyOp33
 70
     1
102
RTVSPropertyOp34
 70
     1
102
RTVSPropertyOp35
 70
     1
102
RTVSPropertyOp36
 70
     1
102
RTVSPropertyOp37
 70
     1
102
RTVSPropertyOp38
 70
     1
102
RTVSPropertyOp39
 70
     1
102
RTVSPropertyOp40
 70
     1
102
RTVSPropertyOp41
 70
     1
102
RTVSPropertyOp42
 70
     1
102
RTVSPropertyOp43
 70
     1
102
RTVSPropertyOp44
 70
     1
102
RTVSPropertyOp45
 70
     1
102
RTVSPropertyOp46
 70
     1
102
RTVSPropertyOp47
 70
     1
102
RTVSPropertyOp48
 70
     1
102
RTVSPropertyOp49
 70
     1
102
RTVSPropertyOp50
 70
     1
102
RTVSPropertyOp51
 70
     0
102
RTVSPropertyOp52
 70
     0
102
RTVSPropertyOp53
 70
     1
102
RTVSPropertyOp54
 70
     1
102
RTVSPropertyOp55
 70
     1
102
RTVSPropertyOp56
 70
     1
102
RTVSPropertyOp57
 70
     1
102
RTVSPropertyOp58
 70
     1
102
RTVSPropertyOp59
 70
     1
102
RTVSPropertyOp60
 70
     1
102
RTVSPropertyOp61
 70
     1
102
RTVSPropertyOp62
 70
     1
  0
XRECORD
  5
B8DF
102
{ACAD_REACTORS
330
B8DE
102
}
330
B8DE
100
AcDbXrecord
280
     1
102
RTVSPost2010Prop28
280
     0
102
RTVSPost2010PropOp28
 70
     1
102
RTVSPost2010Prop29
280
     1
102
RTVSPost2010PropOp29
 70
     1
102
RTVSPost2010Prop30
280
     1
102
RTVSPost2010PropOp30
 70
     1
102
RTVSPost2010Prop31
280
     0
102
RTVSPost2010PropOp31
 70
     1
102
RTVSPost2010Prop32
280
     0
102
RTVSPost2010PropOp32
 70
     1
102
RTVSPost2010Prop33
280
     0
102
RTVSPost2010PropOp33
 70
     1
102
RTVSPost2010Prop34
280
     0
102
RTVSPost2010PropOp34
 70
     1
102
RTVSPost2010Prop35
280
     0
102
RTVSPost2010PropOp35
 70
     1
102
RTVSPost2010Prop36
280
     0
102
RTVSPost2010PropOp36
 70
     1
102
RTVSPost2010Prop37
 90
       50
102
RTVSPost2010PropOp37
 70
     1
102
RTVSPost2010Prop38
140
0.0
102
RTVSPost2010PropOp38
 70
     1
102
RTVSPost2010Prop39
140
1.0
102
RTVSPost2010PropOp39
 70
     1
102
RTVSPost2010Prop40
 90
        0
102
RTVSPost2010PropOp40
 70
     1
102
RTVSPost2010Prop41ColorIndex
 90
       18
102
RTVSPost2010Prop41ColorRGB
 90
        0
102
RTVSPost2010PropOp41
 70
     1
102
RTVSPost2010Prop42
 90
       50
102
RTVSPost2010PropOp42
 70
     1
102
RTVSPost2010Prop43
 90
        3
102
RTVSPost2010PropOp43
 70
     1
102
RTVSPost2010Prop44ColorIndex
 90
        5
102
RTVSPost2010Prop44ColorRGB
 90
      255
102
RTVSPost2010PropOp44
 70
     1
102
RTVSPost2010Prop45
280
     0
102
RTVSPost2010PropOp45
 70
     1
102
RTVSPost2010Prop46
 90
       50
102
RTVSPost2010PropOp46
 70
     1
102
RTVSPost2010Prop47
 90
       50
102
RTVSPost2010PropOp47
 70
     1
102
RTVSPost2010Prop48
 90
       50
102
RTVSPost2010PropOp48
 70
     1
102
RTVSPost2010Prop49
280
     0
102
RTVSPost2010PropOp49
 70
     1
102
RTVSPost2010Prop50
 90
       50
102
RTVSPost2010PropOp50
 70
     1
102
RTVSPost2010Prop51ColorIndex
 90
      256
102
RTVSPost2010Prop51ColorRGB
 90
-16777216
102
RTVSPost2010PropOp51
 70
     0
102
RTVSPost2010Prop52
140
1.0
102
RTVSPost2010PropOp52
 70
     0
102
RTVSPost2010Prop53
 90
        2
102
RTVSPost2010PropOp53
 70
     1
102
RTVSPost2010Prop54
  1
strokes_ogs.tif
102
RTVSPost2010PropOp54
 70
     1
102
RTVSPost2010Prop55
280
     0
102
RTVSPost2010PropOp55
 70
     1
102
RTVSPost2010Prop56
140
1.0
102
RTVSPost2010PropOp56
 70
     1
102
RTVSPost2010Prop57
140
1.0
102
RTVSPost2010PropOp57
 70
     1
102
RTVSPropertyOp0
 70
     1
102
RTVSPropertyOp1
 70
     1
102
RTVSPropertyOp2
 70
     1
102
RTVSPropertyOp3
 70
     1
102
RTVSPropertyOp4
 70
     1
102
RTVSPropertyOp5
 70
     1
102
RTVSPropertyOp6
 70
     1
102
RTVSPropertyOp7
 70
     1
102
RTVSPropertyOp8
 70
     1
102
RTVSPropertyOp9
 70
     1
102
RTVSPropertyOp10
 70
     1
102
RTVSPropertyOp11
 70
     1
102
RTVSPropertyOp12
 70
     1
102
RTVSPropertyOp13
 70
     1
102
RTVSPropertyOp14
 70
     1
102
RTVSPropertyOp15
 70
     1
102
RTVSPropertyOp16
 70
     1
102
RTVSPropertyOp17
 70
     1
102
RTVSPropertyOp18
 70
     1
102
RTVSPropertyOp19
 70
     1
102
RTVSPropertyOp20
 70
     1
102
RTVSPropertyOp21
 70
     1
102
RTVSPropertyOp22
 70
     1
102
RTVSPropertyOp23
 70
     1
102
RTVSPropertyOp24
 70
     1
102
RTVSPropertyOp25
 70
     1
102
RTVSPropertyOp26
 70
     1
102
RTVSPropertyOp27
 70
     1
102
RTVSPropertyOp28
 70
     1
102
RTVSPropertyOp29
 70
     1
102
RTVSPropertyOp30
 70
     1
102
RTVSPropertyOp31
 70
     1
102
RTVSPropertyOp32
 70
     1
102
RTVSPropertyOp33
 70
     1
102
RTVSPropertyOp34
 70
     1
102
RTVSPropertyOp35
 70
     1
102
RTVSPropertyOp36
 70
     1
102
RTVSPropertyOp37
 70
     1
102
RTVSPropertyOp38
 70
     1
102
RTVSPropertyOp39
 70
     1
102
RTVSPropertyOp40
 70
     1
102
RTVSPropertyOp41
 70
     1
102
RTVSPropertyOp42
 70
     1
102
RTVSPropertyOp43
 70
     1
102
RTVSPropertyOp44
 70
     1
102
RTVSPropertyOp45
 70
     1
102
RTVSPropertyOp46
 70
     1
102
RTVSPropertyOp47
 70
     1
102
RTVSPropertyOp48
 70
     1
102
RTVSPropertyOp49
 70
     1
102
RTVSPropertyOp50
 70
     1
102
RTVSPropertyOp51
 70
     0
102
RTVSPropertyOp52
 70
     0
102
RTVSPropertyOp53
 70
     1
102
RTVSPropertyOp54
 70
     1
102
RTVSPropertyOp55
 70
     1
102
RTVSPropertyOp56
 70
     1
102
RTVSPropertyOp57
 70
     1
102
RTVSPropertyOp58
 70
     1
102
RTVSPropertyOp59
 70
     1
102
RTVSPropertyOp60
 70
     1
102
RTVSPropertyOp61
 70
     1
102
RTVSPropertyOp62
 70
     1
  0
XRECORD
  5
B8FB
102
{ACAD_REACTORS
330
B8FA
102
}
330
B8FA
100
AcDbXrecord
280
     1
102
RTVSPost2010Prop28
280
     0
102
RTVSPost2010PropOp28
 70
     1
102
RTVSPost2010Prop29
280
     1
102
RTVSPost2010PropOp29
 70
     1
102
RTVSPost2010Prop30
280
     1
102
RTVSPost2010PropOp30
 70
     1
102
RTVSPost2010Prop31
280
     0
102
RTVSPost2010PropOp31
 70
     1
102
RTVSPost2010Prop32
280
     0
102
RTVSPost2010PropOp32
 70
     1
102
RTVSPost2010Prop33
280
     0
102
RTVSPost2010PropOp33
 70
     1
102
RTVSPost2010Prop34
280
     0
102
RTVSPost2010PropOp34
 70
     1
102
RTVSPost2010Prop35
280
     0
102
RTVSPost2010PropOp35
 70
     1
102
RTVSPost2010Prop36
280
     0
102
RTVSPost2010PropOp36
 70
     1
102
RTVSPost2010Prop37
 90
       50
102
RTVSPost2010PropOp37
 70
     0
102
RTVSPost2010Prop38
140
0.0
102
RTVSPost2010PropOp38
 70
     0
102
RTVSPost2010Prop39
140
1.0
102
RTVSPost2010PropOp39
 70
     0
102
RTVSPost2010Prop40
 90
        0
102
RTVSPost2010PropOp40
 70
     0
102
RTVSPost2010Prop41ColorIndex
 90
       18
102
RTVSPost2010Prop41ColorRGB
 90
        0
102
RTVSPost2010PropOp41
 70
     0
102
RTVSPost2010Prop42
 90
       50
102
RTVSPost2010PropOp42
 70
     0
102
RTVSPost2010Prop43
 90
        3
102
RTVSPost2010PropOp43
 70
     0
102
RTVSPost2010Prop44ColorIndex
 90
        5
102
RTVSPost2010Prop44ColorRGB
 90
      255
102
RTVSPost2010PropOp44
 70
     0
102
RTVSPost2010Prop45
280
     0
102
RTVSPost2010PropOp45
 70
     1
102
RTVSPost2010Prop46
 90
       50
102
RTVSPost2010PropOp46
 70
     0
102
RTVSPost2010Prop47
 90
       50
102
RTVSPost2010PropOp47
 70
     0
102
RTVSPost2010Prop48
 90
       50
102
RTVSPost2010PropOp48
 70
     0
102
RTVSPost2010Prop49
280
     0
102
RTVSPost2010PropOp49
 70
     1
102
RTVSPost2010Prop50
 90
       50
102
RTVSPost2010PropOp50
 70
     0
102
RTVSPost2010Prop51ColorIndex
 90
      256
102
RTVSPost2010Prop51ColorRGB
 90
-16777216
102
RTVSPost2010PropOp51
 70
     0
102
RTVSPost2010Prop52
140
1.0
102
RTVSPost2010PropOp52
 70
     0
102
RTVSPost2010Prop53
 90
        2
102
RTVSPost2010PropOp53
 70
     0
102
RTVSPost2010Prop54
  1
strokes_ogs.tif
102
RTVSPost2010PropOp54
 70
     0
102
RTVSPost2010Prop55
280
     0
102
RTVSPost2010PropOp55
 70
     1
102
RTVSPost2010Prop56
140
1.0
102
RTVSPost2010PropOp56
 70
     0
102
RTVSPost2010Prop57
140
1.0
102
RTVSPost2010PropOp57
 70
     0
102
RTVSPropertyOp0
 70
     0
102
RTVSPropertyOp1
 70
     0
102
RTVSPropertyOp2
 70
     0
102
RTVSPropertyOp3
 70
     0
102
RTVSPropertyOp4
 70
     0
102
RTVSPropertyOp5
 70
     0
102
RTVSPropertyOp6
 70
     0
102
RTVSPropertyOp7
 70
     0
102
RTVSPropertyOp8
 70
     0
102
RTVSPropertyOp9
 70
     0
102
RTVSPropertyOp10
 70
     0
102
RTVSPropertyOp11
 70
     0
102
RTVSPropertyOp12
 70
     0
102
RTVSPropertyOp13
 70
     0
102
RTVSPropertyOp14
 70
     2
102
RTVSPropertyOp15
 70
     0
102
RTVSPropertyOp16
 70
     0
102
RTVSPropertyOp17
 70
     0
102
RTVSPropertyOp18
 70
     0
102
RTVSPropertyOp19
 70
     0
102
RTVSPropertyOp20
 70
     0
102
RTVSPropertyOp21
 70
     0
102
RTVSPropertyOp22
 70
     0
102
RTVSPropertyOp23
 70
     0
102
RTVSPropertyOp24
 70
     0
102
RTVSPropertyOp25
 70
     0
102
RTVSPropertyOp26
 70
     0
102
RTVSPropertyOp27
 70
     0
102
RTVSPropertyOp28
 70
     1
102
RTVSPropertyOp29
 70
     1
102
RTVSPropertyOp30
 70
     1
102
RTVSPropertyOp31
 70
     1
102
RTVSPropertyOp32
 70
     1
102
RTVSPropertyOp33
 70
     1
102
RTVSPropertyOp34
 70
     1
102
RTVSPropertyOp35
 70
     1
102
RTVSPropertyOp36
 70
     1
102
RTVSPropertyOp37
 70
     0
102
RTVSPropertyOp38
 70
     0
102
RTVSPropertyOp39
 70
     0
102
RTVSPropertyOp40
 70
     0
102
RTVSPropertyOp41
 70
     0
102
RTVSPropertyOp42
 70
     0
102
RTVSPropertyOp43
 70
     0
102
RTVSPropertyOp44
 70
     0
102
RTVSPropertyOp45
 70
     1
102
RTVSPropertyOp46
 70
     0
102
RTVSPropertyOp47
 70
     0
102
RTVSPropertyOp48
 70
     0
102
RTVSPropertyOp49
 70
     1
102
RTVSPropertyOp50
 70
     0
102
RTVSPropertyOp51
 70
     0
102
RTVSPropertyOp52
 70
     0
102
RTVSPropertyOp53
 70
     0
102
RTVSPropertyOp54
 70
     0
102
RTVSPropertyOp55
 70
     1
102
RTVSPropertyOp56
 70
     0
102
RTVSPropertyOp57
 70
     0
102
RTVSPropertyOp58
 70
     0
102
RTVSPropertyOp59
 70
     0
102
RTVSPropertyOp60
 70
     0
102
RTVSPropertyOp61
 70
     0
102
RTVSPropertyOp62
 70
     0
  0
XRECORD
  5
B8EB
102
{ACAD_REACTORS
330
B8EA
102
}
330
B8EA
100
AcDbXrecord
280
     1
102
RTVSPost2010Prop28
280
     0
102
RTVSPost2010PropOp28
 70
     1
102
RTVSPost2010Prop29
280
     1
102
RTVSPost2010PropOp29
 70
     1
102
RTVSPost2010Prop30
280
     1
102
RTVSPost2010PropOp30
 70
     1
102
RTVSPost2010Prop31
280
     0
102
RTVSPost2010PropOp31
 70
     1
102
RTVSPost2010Prop32
280
     0
102
RTVSPost2010PropOp32
 70
     1
102
RTVSPost2010Prop33
280
     0
102
RTVSPost2010PropOp33
 70
     1
102
RTVSPost2010Prop34
280
     0
102
RTVSPost2010PropOp34
 70
     1
102
RTVSPost2010Prop35
280
     0
102
RTVSPost2010PropOp35
 70
     1
102
RTVSPost2010Prop36
280
     0
102
RTVSPost2010PropOp36
 70
     1
102
RTVSPost2010Prop37
 90
       50
102
RTVSPost2010PropOp37
 70
     1
102
RTVSPost2010Prop38
140
0.0
102
RTVSPost2010PropOp38
 70
     1
102
RTVSPost2010Prop39
140
1.0
102
RTVSPost2010PropOp39
 70
     1
102
RTVSPost2010Prop40
 90
        0
102
RTVSPost2010PropOp40
 70
     1
102
RTVSPost2010Prop41ColorIndex
 90
       18
102
RTVSPost2010Prop41ColorRGB
 90
        0
102
RTVSPost2010PropOp41
 70
     1
102
RTVSPost2010Prop42
 90
       50
102
RTVSPost2010PropOp42
 70
     1
102
RTVSPost2010Prop43
 90
        3
102
RTVSPost2010PropOp43
 70
     1
102
RTVSPost2010Prop44ColorIndex
 90
        5
102
RTVSPost2010Prop44ColorRGB
 90
      255
102
RTVSPost2010PropOp44
 70
     1
102
RTVSPost2010Prop45
280
     0
102
RTVSPost2010PropOp45
 70
     1
102
RTVSPost2010Prop46
 90
       50
102
RTVSPost2010PropOp46
 70
     1
102
RTVSPost2010Prop47
 90
       50
102
RTVSPost2010PropOp47
 70
     1
102
RTVSPost2010Prop48
 90
       50
102
RTVSPost2010PropOp48
 70
     1
102
RTVSPost2010Prop49
280
     0
102
RTVSPost2010PropOp49
 70
     1
102
RTVSPost2010Prop50
 90
       50
102
RTVSPost2010PropOp50
 70
     1
102
RTVSPost2010Prop51ColorIndex
 90
      256
102
RTVSPost2010Prop51ColorRGB
 90
-16777216
102
RTVSPost2010PropOp51
 70
     0
102
RTVSPost2010Prop52
140
1.0
102
RTVSPost2010PropOp52
 70
     0
102
RTVSPost2010Prop53
 90
        2
102
RTVSPost2010PropOp53
 70
     1
102
RTVSPost2010Prop54
  1
strokes_ogs.tif
102
RTVSPost2010PropOp54
 70
     1
102
RTVSPost2010Prop55
280
     0
102
RTVSPost2010PropOp55
 70
     1
102
RTVSPost2010Prop56
140
1.0
102
RTVSPost2010PropOp56
 70
     1
102
RTVSPost2010Prop57
140
1.0
102
RTVSPost2010PropOp57
 70
     1
102
RTVSPropertyOp0
 70
     1
102
RTVSPropertyOp1
 70
     1
102
RTVSPropertyOp2
 70
     1
102
RTVSPropertyOp3
 70
     1
102
RTVSPropertyOp4
 70
     1
102
RTVSPropertyOp5
 70
     1
102
RTVSPropertyOp6
 70
     1
102
RTVSPropertyOp7
 70
     1
102
RTVSPropertyOp8
 70
     1
102
RTVSPropertyOp9
 70
     1
102
RTVSPropertyOp10
 70
     1
102
RTVSPropertyOp11
 70
     1
102
RTVSPropertyOp12
 70
     1
102
RTVSPropertyOp13
 70
     1
102
RTVSPropertyOp14
 70
     1
102
RTVSPropertyOp15
 70
     1
102
RTVSPropertyOp16
 70
     1
102
RTVSPropertyOp17
 70
     1
102
RTVSPropertyOp18
 70
     1
102
RTVSPropertyOp19
 70
     1
102
RTVSPropertyOp20
 70
     1
102
RTVSPropertyOp21
 70
     1
102
RTVSPropertyOp22
 70
     1
102
RTVSPropertyOp23
 70
     1
102
RTVSPropertyOp24
 70
     1
102
RTVSPropertyOp25
 70
     1
102
RTVSPropertyOp26
 70
     1
102
RTVSPropertyOp27
 70
     1
102
RTVSPropertyOp28
 70
     1
102
RTVSPropertyOp29
 70
     1
102
RTVSPropertyOp30
 70
     1
102
RTVSPropertyOp31
 70
     1
102
RTVSPropertyOp32
 70
     1
102
RTVSPropertyOp33
 70
     1
102
RTVSPropertyOp34
 70
     1
102
RTVSPropertyOp35
 70
     1
102
RTVSPropertyOp36
 70
     1
102
RTVSPropertyOp37
 70
     1
102
RTVSPropertyOp38
 70
     1
102
RTVSPropertyOp39
 70
     1
102
RTVSPropertyOp40
 70
     1
102
RTVSPropertyOp41
 70
     1
102
RTVSPropertyOp42
 70
     1
102
RTVSPropertyOp43
 70
     1
102
RTVSPropertyOp44
 70
     1
102
RTVSPropertyOp45
 70
     1
102
RTVSPropertyOp46
 70
     1
102
RTVSPropertyOp47
 70
     1
102
RTVSPropertyOp48
 70
     1
102
RTVSPropertyOp49
 70
     1
102
RTVSPropertyOp50
 70
     1
102
RTVSPropertyOp51
 70
     0
102
RTVSPropertyOp52
 70
     0
102
RTVSPropertyOp53
 70
     1
102
RTVSPropertyOp54
 70
     1
102
RTVSPropertyOp55
 70
     1
102
RTVSPropertyOp56
 70
     1
102
RTVSPropertyOp57
 70
     1
102
RTVSPropertyOp58
 70
     1
102
RTVSPropertyOp59
 70
     1
102
RTVSPropertyOp60
 70
     1
102
RTVSPropertyOp61
 70
     1
102
RTVSPropertyOp62
 70
     1
  0
XRECORD
  5
B8FD
102
{ACAD_REACTORS
330
B8FC
102
}
330
B8FC
100
AcDbXrecord
280
     1
102
RTVSPost2010Prop28
280
     0
102
RTVSPost2010PropOp28
 70
     1
102
RTVSPost2010Prop29
280
     1
102
RTVSPost2010PropOp29
 70
     1
102
RTVSPost2010Prop30
280
     1
102
RTVSPost2010PropOp30
 70
     1
102
RTVSPost2010Prop31
280
     0
102
RTVSPost2010PropOp31
 70
     1
102
RTVSPost2010Prop32
280
     0
102
RTVSPost2010PropOp32
 70
     1
102
RTVSPost2010Prop33
280
     0
102
RTVSPost2010PropOp33
 70
     1
102
RTVSPost2010Prop34
280
     0
102
RTVSPost2010PropOp34
 70
     1
102
RTVSPost2010Prop35
280
     0
102
RTVSPost2010PropOp35
 70
     1
102
RTVSPost2010Prop36
280
     0
102
RTVSPost2010PropOp36
 70
     1
102
RTVSPost2010Prop37
 90
       50
102
RTVSPost2010PropOp37
 70
     0
102
RTVSPost2010Prop38
140
0.0
102
RTVSPost2010PropOp38
 70
     0
102
RTVSPost2010Prop39
140
1.0
102
RTVSPost2010PropOp39
 70
     0
102
RTVSPost2010Prop40
 90
        0
102
RTVSPost2010PropOp40
 70
     0
102
RTVSPost2010Prop41ColorIndex
 90
       18
102
RTVSPost2010Prop41ColorRGB
 90
        0
102
RTVSPost2010PropOp41
 70
     0
102
RTVSPost2010Prop42
 90
       50
102
RTVSPost2010PropOp42
 70
     0
102
RTVSPost2010Prop43
 90
        3
102
RTVSPost2010PropOp43
 70
     0
102
RTVSPost2010Prop44ColorIndex
 90
        5
102
RTVSPost2010Prop44ColorRGB
 90
      255
102
RTVSPost2010PropOp44
 70
     0
102
RTVSPost2010Prop45
280
     0
102
RTVSPost2010PropOp45
 70
     1
102
RTVSPost2010Prop46
 90
       50
102
RTVSPost2010PropOp46
 70
     0
102
RTVSPost2010Prop47
 90
       50
102
RTVSPost2010PropOp47
 70
     0
102
RTVSPost2010Prop48
 90
       50
102
RTVSPost2010PropOp48
 70
     0
102
RTVSPost2010Prop49
280
     0
102
RTVSPost2010PropOp49
 70
     1
102
RTVSPost2010Prop50
 90
       50
102
RTVSPost2010PropOp50
 70
     0
102
RTVSPost2010Prop51ColorIndex
 90
      256
102
RTVSPost2010Prop51ColorRGB
 90
-16777216
102
RTVSPost2010PropOp51
 70
     0
102
RTVSPost2010Prop52
140
1.0
102
RTVSPost2010PropOp52
 70
     0
102
RTVSPost2010Prop53
 90
        2
102
RTVSPost2010PropOp53
 70
     0
102
RTVSPost2010Prop54
  1
strokes_ogs.tif
102
RTVSPost2010PropOp54
 70
     0
102
RTVSPost2010Prop55
280
     0
102
RTVSPost2010PropOp55
 70
     1
102
RTVSPost2010Prop56
140
1.0
102
RTVSPost2010PropOp56
 70
     0
102
RTVSPost2010Prop57
140
1.0
102
RTVSPost2010PropOp57
 70
     0
102
RTVSPropertyOp0
 70
     0
102
RTVSPropertyOp1
 70
     0
102
RTVSPropertyOp2
 70
     0
102
RTVSPropertyOp3
 70
     0
102
RTVSPropertyOp4
 70
     0
102
RTVSPropertyOp5
 70
     0
102
RTVSPropertyOp6
 70
     0
102
RTVSPropertyOp7
 70
     0
102
RTVSPropertyOp8
 70
     0
102
RTVSPropertyOp9
 70
     0
102
RTVSPropertyOp10
 70
     0
102
RTVSPropertyOp11
 70
     0
102
RTVSPropertyOp12
 70
     0
102
RTVSPropertyOp13
 70
     0
102
RTVSPropertyOp14
 70
     2
102
RTVSPropertyOp15
 70
     0
102
RTVSPropertyOp16
 70
     0
102
RTVSPropertyOp17
 70
     0
102
RTVSPropertyOp18
 70
     0
102
RTVSPropertyOp19
 70
     0
102
RTVSPropertyOp20
 70
     0
102
RTVSPropertyOp21
 70
     0
102
RTVSPropertyOp22
 70
     0
102
RTVSPropertyOp23
 70
     0
102
RTVSPropertyOp24
 70
     0
102
RTVSPropertyOp25
 70
     0
102
RTVSPropertyOp26
 70
     0
102
RTVSPropertyOp27
 70
     0
102
RTVSPropertyOp28
 70
     1
102
RTVSPropertyOp29
 70
     1
102
RTVSPropertyOp30
 70
     1
102
RTVSPropertyOp31
 70
     1
102
RTVSPropertyOp32
 70
     1
102
RTVSPropertyOp33
 70
     1
102
RTVSPropertyOp34
 70
     1
102
RTVSPropertyOp35
 70
     1
102
RTVSPropertyOp36
 70
     1
102
RTVSPropertyOp37
 70
     0
102
RTVSPropertyOp38
 70
     0
102
RTVSPropertyOp39
 70
     0
102
RTVSPropertyOp40
 70
     0
102
RTVSPropertyOp41
 70
     0
102
RTVSPropertyOp42
 70
     0
102
RTVSPropertyOp43
 70
     0
102
RTVSPropertyOp44
 70
     0
102
RTVSPropertyOp45
 70
     1
102
RTVSPropertyOp46
 70
     0
102
RTVSPropertyOp47
 70
     0
102
RTVSPropertyOp48
 70
     0
102
RTVSPropertyOp49
 70
     1
102
RTVSPropertyOp50
 70
     0
102
RTVSPropertyOp51
 70
     0
102
RTVSPropertyOp52
 70
     0
102
RTVSPropertyOp53
 70
     0
102
RTVSPropertyOp54
 70
     0
102
RTVSPropertyOp55
 70
     1
102
RTVSPropertyOp56
 70
     0
102
RTVSPropertyOp57
 70
     0
102
RTVSPropertyOp58
 70
     0
102
RTVSPropertyOp59
 70
     0
102
RTVSPropertyOp60
 70
     0
102
RTVSPropertyOp61
 70
     0
102
RTVSPropertyOp62
 70
     0
  0
XRECORD
  5
B8E3
102
{ACAD_REACTORS
330
B8E2
102
}
330
B8E2
100
AcDbXrecord
280
     1
102
RTVSPost2010Prop28
280
     0
102
RTVSPost2010PropOp28
 70
     1
102
RTVSPost2010Prop29
280
     1
102
RTVSPost2010PropOp29
 70
     1
102
RTVSPost2010Prop30
280
     1
102
RTVSPost2010PropOp30
 70
     1
102
RTVSPost2010Prop31
280
     0
102
RTVSPost2010PropOp31
 70
     1
102
RTVSPost2010Prop32
280
     0
102
RTVSPost2010PropOp32
 70
     1
102
RTVSPost2010Prop33
280
     0
102
RTVSPost2010PropOp33
 70
     1
102
RTVSPost2010Prop34
280
     0
102
RTVSPost2010PropOp34
 70
     1
102
RTVSPost2010Prop35
280
     0
102
RTVSPost2010PropOp35
 70
     1
102
RTVSPost2010Prop36
280
     0
102
RTVSPost2010PropOp36
 70
     1
102
RTVSPost2010Prop37
 90
       50
102
RTVSPost2010PropOp37
 70
     1
102
RTVSPost2010Prop38
140
0.0
102
RTVSPost2010PropOp38
 70
     1
102
RTVSPost2010Prop39
140
1.0
102
RTVSPost2010PropOp39
 70
     1
102
RTVSPost2010Prop40
 90
        0
102
RTVSPost2010PropOp40
 70
     1
102
RTVSPost2010Prop41ColorIndex
 90
       18
102
RTVSPost2010Prop41ColorRGB
 90
        0
102
RTVSPost2010PropOp41
 70
     1
102
RTVSPost2010Prop42
 90
       50
102
RTVSPost2010PropOp42
 70
     1
102
RTVSPost2010Prop43
 90
        3
102
RTVSPost2010PropOp43
 70
     1
102
RTVSPost2010Prop44ColorIndex
 90
        5
102
RTVSPost2010Prop44ColorRGB
 90
      255
102
RTVSPost2010PropOp44
 70
     1
102
RTVSPost2010Prop45
280
     0
102
RTVSPost2010PropOp45
 70
     1
102
RTVSPost2010Prop46
 90
       50
102
RTVSPost2010PropOp46
 70
     1
102
RTVSPost2010Prop47
 90
       50
102
RTVSPost2010PropOp47
 70
     1
102
RTVSPost2010Prop48
 90
       50
102
RTVSPost2010PropOp48
 70
     1
102
RTVSPost2010Prop49
280
     0
102
RTVSPost2010PropOp49
 70
     1
102
RTVSPost2010Prop50
 90
       50
102
RTVSPost2010PropOp50
 70
     1
102
RTVSPost2010Prop51ColorIndex
 90
      256
102
RTVSPost2010Prop51ColorRGB
 90
-16777216
102
RTVSPost2010PropOp51
 70
     0
102
RTVSPost2010Prop52
140
1.0
102
RTVSPost2010PropOp52
 70
     0
102
RTVSPost2010Prop53
 90
        2
102
RTVSPost2010PropOp53
 70
     1
102
RTVSPost2010Prop54
  1
strokes_ogs.tif
102
RTVSPost2010PropOp54
 70
     1
102
RTVSPost2010Prop55
280
     0
102
RTVSPost2010PropOp55
 70
     1
102
RTVSPost2010Prop56
140
1.0
102
RTVSPost2010PropOp56
 70
     1
102
RTVSPost2010Prop57
140
1.0
102
RTVSPost2010PropOp57
 70
     1
102
RTVSPropertyOp0
 70
     1
102
RTVSPropertyOp1
 70
     1
102
RTVSPropertyOp2
 70
     1
102
RTVSPropertyOp3
 70
     1
102
RTVSPropertyOp4
 70
     1
102
RTVSPropertyOp5
 70
     1
102
RTVSPropertyOp6
 70
     1
102
RTVSPropertyOp7
 70
     1
102
RTVSPropertyOp8
 70
     1
102
RTVSPropertyOp9
 70
     1
102
RTVSPropertyOp10
 70
     1
102
RTVSPropertyOp11
 70
     1
102
RTVSPropertyOp12
 70
     1
102
RTVSPropertyOp13
 70
     1
102
RTVSPropertyOp14
 70
     1
102
RTVSPropertyOp15
 70
     1
102
RTVSPropertyOp16
 70
     1
102
RTVSPropertyOp17
 70
     1
102
RTVSPropertyOp18
 70
     1
102
RTVSPropertyOp19
 70
     1
102
RTVSPropertyOp20
 70
     1
102
RTVSPropertyOp21
 70
     1
102
RTVSPropertyOp22
 70
     1
102
RTVSPropertyOp23
 70
     1
102
RTVSPropertyOp24
 70
     1
102
RTVSPropertyOp25
 70
     1
102
RTVSPropertyOp26
 70
     1
102
RTVSPropertyOp27
 70
     1
102
RTVSPropertyOp28
 70
     1
102
RTVSPropertyOp29
 70
     1
102
RTVSPropertyOp30
 70
     1
102
RTVSPropertyOp31
 70
     1
102
RTVSPropertyOp32
 70
     1
102
RTVSPropertyOp33
 70
     1
102
RTVSPropertyOp34
 70
     1
102
RTVSPropertyOp35
 70
     1
102
RTVSPropertyOp36
 70
     1
102
RTVSPropertyOp37
 70
     1
102
RTVSPropertyOp38
 70
     1
102
RTVSPropertyOp39
 70
     1
102
RTVSPropertyOp40
 70
     1
102
RTVSPropertyOp41
 70
     1
102
RTVSPropertyOp42
 70
     1
102
RTVSPropertyOp43
 70
     1
102
RTVSPropertyOp44
 70
     1
102
RTVSPropertyOp45
 70
     1
102
RTVSPropertyOp46
 70
     1
102
RTVSPropertyOp47
 70
     1
102
RTVSPropertyOp48
 70
     1
102
RTVSPropertyOp49
 70
     1
102
RTVSPropertyOp50
 70
     1
102
RTVSPropertyOp51
 70
     0
102
RTVSPropertyOp52
 70
     0
102
RTVSPropertyOp53
 70
     1
102
RTVSPropertyOp54
 70
     1
102
RTVSPropertyOp55
 70
     1
102
RTVSPropertyOp56
 70
     1
102
RTVSPropertyOp57
 70
     1
102
RTVSPropertyOp58
 70
     1
102
RTVSPropertyOp59
 70
     1
102
RTVSPropertyOp60
 70
     1
102
RTVSPropertyOp61
 70
     1
102
RTVSPropertyOp62
 70
     1
  0
XRECORD
  5
B8F9
102
{ACAD_REACTORS
330
B8F8
102
}
330
B8F8
100
AcDbXrecord
280
     1
102
RTVSPost2010Prop28
280
     0
102
RTVSPost2010PropOp28
 70
     1
102
RTVSPost2010Prop29
280
     1
102
RTVSPost2010PropOp29
 70
     1
102
RTVSPost2010Prop30
280
     1
102
RTVSPost2010PropOp30
 70
     1
102
RTVSPost2010Prop31
280
     0
102
RTVSPost2010PropOp31
 70
     1
102
RTVSPost2010Prop32
280
     0
102
RTVSPost2010PropOp32
 70
     1
102
RTVSPost2010Prop33
280
     0
102
RTVSPost2010PropOp33
 70
     1
102
RTVSPost2010Prop34
280
     0
102
RTVSPost2010PropOp34
 70
     1
102
RTVSPost2010Prop35
280
     0
102
RTVSPost2010PropOp35
 70
     1
102
RTVSPost2010Prop36
280
     0
102
RTVSPost2010PropOp36
 70
     1
102
RTVSPost2010Prop37
 90
       50
102
RTVSPost2010PropOp37
 70
     1
102
RTVSPost2010Prop38
140
0.0
102
RTVSPost2010PropOp38
 70
     1
102
RTVSPost2010Prop39
140
1.0
102
RTVSPost2010PropOp39
 70
     1
102
RTVSPost2010Prop40
 90
        0
102
RTVSPost2010PropOp40
 70
     1
102
RTVSPost2010Prop41ColorIndex
 90
       18
102
RTVSPost2010Prop41ColorRGB
 90
        0
102
RTVSPost2010PropOp41
 70
     1
102
RTVSPost2010Prop42
 90
       50
102
RTVSPost2010PropOp42
 70
     1
102
RTVSPost2010Prop43
 90
        3
102
RTVSPost2010PropOp43
 70
     1
102
RTVSPost2010Prop44ColorIndex
 90
        5
102
RTVSPost2010Prop44ColorRGB
 90
      255
102
RTVSPost2010PropOp44
 70
     1
102
RTVSPost2010Prop45
280
     0
102
RTVSPost2010PropOp45
 70
     1
102
RTVSPost2010Prop46
 90
       50
102
RTVSPost2010PropOp46
 70
     1
102
RTVSPost2010Prop47
 90
       50
102
RTVSPost2010PropOp47
 70
     1
102
RTVSPost2010Prop48
 90
       50
102
RTVSPost2010PropOp48
 70
     1
102
RTVSPost2010Prop49
280
     0
102
RTVSPost2010PropOp49
 70
     1
102
RTVSPost2010Prop50
 90
       50
102
RTVSPost2010PropOp50
 70
     1
102
RTVSPost2010Prop51ColorIndex
 90
      256
102
RTVSPost2010Prop51ColorRGB
 90
-16777216
102
RTVSPost2010PropOp51
 70
     0
102
RTVSPost2010Prop52
140
1.0
102
RTVSPost2010PropOp52
 70
     0
102
RTVSPost2010Prop53
 90
        2
102
RTVSPost2010PropOp53
 70
     1
102
RTVSPost2010Prop54
  1
strokes_ogs.tif
102
RTVSPost2010PropOp54
 70
     1
102
RTVSPost2010Prop55
280
     0
102
RTVSPost2010PropOp55
 70
     1
102
RTVSPost2010Prop56
140
1.0
102
RTVSPost2010PropOp56
 70
     1
102
RTVSPost2010Prop57
140
1.0
102
RTVSPost2010PropOp57
 70
     1
102
RTVSPropertyOp0
 70
     1
102
RTVSPropertyOp1
 70
     1
102
RTVSPropertyOp2
 70
     1
102
RTVSPropertyOp3
 70
     1
102
RTVSPropertyOp4
 70
     1
102
RTVSPropertyOp5
 70
     1
102
RTVSPropertyOp6
 70
     1
102
RTVSPropertyOp7
 70
     1
102
RTVSPropertyOp8
 70
     1
102
RTVSPropertyOp9
 70
     1
102
RTVSPropertyOp10
 70
     1
102
RTVSPropertyOp11
 70
     1
102
RTVSPropertyOp12
 70
     1
102
RTVSPropertyOp13
 70
     1
102
RTVSPropertyOp14
 70
     1
102
RTVSPropertyOp15
 70
     1
102
RTVSPropertyOp16
 70
     1
102
RTVSPropertyOp17
 70
     1
102
RTVSPropertyOp18
 70
     1
102
RTVSPropertyOp19
 70
     1
102
RTVSPropertyOp20
 70
     1
102
RTVSPropertyOp21
 70
     1
102
RTVSPropertyOp22
 70
     1
102
RTVSPropertyOp23
 70
     1
102
RTVSPropertyOp24
 70
     1
102
RTVSPropertyOp25
 70
     1
102
RTVSPropertyOp26
 70
     1
102
RTVSPropertyOp27
 70
     1
102
RTVSPropertyOp28
 70
     1
102
RTVSPropertyOp29
 70
     1
102
RTVSPropertyOp30
 70
     1
102
RTVSPropertyOp31
 70
     1
102
RTVSPropertyOp32
 70
     1
102
RTVSPropertyOp33
 70
     1
102
RTVSPropertyOp34
 70
     1
102
RTVSPropertyOp35
 70
     1
102
RTVSPropertyOp36
 70
     1
102
RTVSPropertyOp37
 70
     1
102
RTVSPropertyOp38
 70
     1
102
RTVSPropertyOp39
 70
     1
102
RTVSPropertyOp40
 70
     1
102
RTVSPropertyOp41
 70
     1
102
RTVSPropertyOp42
 70
     1
102
RTVSPropertyOp43
 70
     1
102
RTVSPropertyOp44
 70
     1
102
RTVSPropertyOp45
 70
     1
102
RTVSPropertyOp46
 70
     1
102
RTVSPropertyOp47
 70
     1
102
RTVSPropertyOp48
 70
     1
102
RTVSPropertyOp49
 70
     1
102
RTVSPropertyOp50
 70
     1
102
RTVSPropertyOp51
 70
     0
102
RTVSPropertyOp52
 70
     0
102
RTVSPropertyOp53
 70
     1
102
RTVSPropertyOp54
 70
     1
102
RTVSPropertyOp55
 70
     1
102
RTVSPropertyOp56
 70
     1
102
RTVSPropertyOp57
 70
     1
102
RTVSPropertyOp58
 70
     1
102
RTVSPropertyOp59
 70
     1
102
RTVSPropertyOp60
 70
     1
102
RTVSPropertyOp61
 70
     1
102
RTVSPropertyOp62
 70
     1
  0
XRECORD
  5
B8F7
102
{ACAD_REACTORS
330
B8F6
102
}
330
B8F6
100
AcDbXrecord
280
     1
102
RTVSPost2010Prop28
280
     0
102
RTVSPost2010PropOp28
 70
     1
102
RTVSPost2010Prop29
280
     1
102
RTVSPost2010PropOp29
 70
     1
102
RTVSPost2010Prop30
280
     1
102
RTVSPost2010PropOp30
 70
     1
102
RTVSPost2010Prop31
280
     0
102
RTVSPost2010PropOp31
 70
     1
102
RTVSPost2010Prop32
280
     0
102
RTVSPost2010PropOp32
 70
     1
102
RTVSPost2010Prop33
280
     0
102
RTVSPost2010PropOp33
 70
     1
102
RTVSPost2010Prop34
280
     0
102
RTVSPost2010PropOp34
 70
     1
102
RTVSPost2010Prop35
280
     0
102
RTVSPost2010PropOp35
 70
     1
102
RTVSPost2010Prop36
280
     0
102
RTVSPost2010PropOp36
 70
     1
102
RTVSPost2010Prop37
 90
       50
102
RTVSPost2010PropOp37
 70
     1
102
RTVSPost2010Prop38
140
0.0
102
RTVSPost2010PropOp38
 70
     1
102
RTVSPost2010Prop39
140
1.0
102
RTVSPost2010PropOp39
 70
     1
102
RTVSPost2010Prop40
 90
        0
102
RTVSPost2010PropOp40
 70
     1
102
RTVSPost2010Prop41ColorIndex
 90
       18
102
RTVSPost2010Prop41ColorRGB
 90
        0
102
RTVSPost2010PropOp41
 70
     1
102
RTVSPost2010Prop42
 90
       50
102
RTVSPost2010PropOp42
 70
     1
102
RTVSPost2010Prop43
 90
        3
102
RTVSPost2010PropOp43
 70
     1
102
RTVSPost2010Prop44ColorIndex
 90
        5
102
RTVSPost2010Prop44ColorRGB
 90
      255
102
RTVSPost2010PropOp44
 70
     1
102
RTVSPost2010Prop45
280
     0
102
RTVSPost2010PropOp45
 70
     1
102
RTVSPost2010Prop46
 90
       50
102
RTVSPost2010PropOp46
 70
     1
102
RTVSPost2010Prop47
 90
       50
102
RTVSPost2010PropOp47
 70
     1
102
RTVSPost2010Prop48
 90
       50
102
RTVSPost2010PropOp48
 70
     1
102
RTVSPost2010Prop49
280
     0
102
RTVSPost2010PropOp49
 70
     1
102
RTVSPost2010Prop50
 90
       50
102
RTVSPost2010PropOp50
 70
     1
102
RTVSPost2010Prop51ColorIndex
 90
      256
102
RTVSPost2010Prop51ColorRGB
 90
-16777216
102
RTVSPost2010PropOp51
 70
     0
102
RTVSPost2010Prop52
140
1.0
102
RTVSPost2010PropOp52
 70
     0
102
RTVSPost2010Prop53
 90
        2
102
RTVSPost2010PropOp53
 70
     1
102
RTVSPost2010Prop54
  1
strokes_ogs.tif
102
RTVSPost2010PropOp54
 70
     1
102
RTVSPost2010Prop55
280
     0
102
RTVSPost2010PropOp55
 70
     1
102
RTVSPost2010Prop56
140
1.0
102
RTVSPost2010PropOp56
 70
     1
102
RTVSPost2010Prop57
140
1.0
102
RTVSPost2010PropOp57
 70
     1
102
RTVSPropertyOp0
 70
     1
102
RTVSPropertyOp1
 70
     1
102
RTVSPropertyOp2
 70
     1
102
RTVSPropertyOp3
 70
     1
102
RTVSPropertyOp4
 70
     1
102
RTVSPropertyOp5
 70
     1
102
RTVSPropertyOp6
 70
     1
102
RTVSPropertyOp7
 70
     1
102
RTVSPropertyOp8
 70
     1
102
RTVSPropertyOp9
 70
     1
102
RTVSPropertyOp10
 70
     1
102
RTVSPropertyOp11
 70
     1
102
RTVSPropertyOp12
 70
     1
102
RTVSPropertyOp13
 70
     1
102
RTVSPropertyOp14
 70
     1
102
RTVSPropertyOp15
 70
     1
102
RTVSPropertyOp16
 70
     1
102
RTVSPropertyOp17
 70
     1
102
RTVSPropertyOp18
 70
     1
102
RTVSPropertyOp19
 70
     1
102
RTVSPropertyOp20
 70
     1
102
RTVSPropertyOp21
 70
     1
102
RTVSPropertyOp22
 70
     1
102
RTVSPropertyOp23
 70
     1
102
RTVSPropertyOp24
 70
     1
102
RTVSPropertyOp25
 70
     1
102
RTVSPropertyOp26
 70
     1
102
RTVSPropertyOp27
 70
     1
102
RTVSPropertyOp28
 70
     1
102
RTVSPropertyOp29
 70
     1
102
RTVSPropertyOp30
 70
     1
102
RTVSPropertyOp31
 70
     1
102
RTVSPropertyOp32
 70
     1
102
RTVSPropertyOp33
 70
     1
102
RTVSPropertyOp34
 70
     1
102
RTVSPropertyOp35
 70
     1
102
RTVSPropertyOp36
 70
     1
102
RTVSPropertyOp37
 70
     1
102
RTVSPropertyOp38
 70
     1
102
RTVSPropertyOp39
 70
     1
102
RTVSPropertyOp40
 70
     1
102
RTVSPropertyOp41
 70
     1
102
RTVSPropertyOp42
 70
     1
102
RTVSPropertyOp43
 70
     1
102
RTVSPropertyOp44
 70
     1
102
RTVSPropertyOp45
 70
     1
102
RTVSPropertyOp46
 70
     1
102
RTVSPropertyOp47
 70
     1
102
RTVSPropertyOp48
 70
     1
102
RTVSPropertyOp49
 70
     1
102
RTVSPropertyOp50
 70
     1
102
RTVSPropertyOp51
 70
     0
102
RTVSPropertyOp52
 70
     0
102
RTVSPropertyOp53
 70
     1
102
RTVSPropertyOp54
 70
     1
102
RTVSPropertyOp55
 70
     1
102
RTVSPropertyOp56
 70
     1
102
RTVSPropertyOp57
 70
     1
102
RTVSPropertyOp58
 70
     1
102
RTVSPropertyOp59
 70
     1
102
RTVSPropertyOp60
 70
     1
102
RTVSPropertyOp61
 70
     1
102
RTVSPropertyOp62
 70
     1
  0
XRECORD
  5
B8F1
102
{ACAD_REACTORS
330
B8F0
102
}
330
B8F0
100
AcDbXrecord
280
     1
102
RTVSPost2010Prop28
280
     0
102
RTVSPost2010PropOp28
 70
     1
102
RTVSPost2010Prop29
280
     1
102
RTVSPost2010PropOp29
 70
     1
102
RTVSPost2010Prop30
280
     1
102
RTVSPost2010PropOp30
 70
     1
102
RTVSPost2010Prop31
280
     0
102
RTVSPost2010PropOp31
 70
     1
102
RTVSPost2010Prop32
280
     0
102
RTVSPost2010PropOp32
 70
     1
102
RTVSPost2010Prop33
280
     0
102
RTVSPost2010PropOp33
 70
     1
102
RTVSPost2010Prop34
280
     0
102
RTVSPost2010PropOp34
 70
     1
102
RTVSPost2010Prop35
280
     0
102
RTVSPost2010PropOp35
 70
     1
102
RTVSPost2010Prop36
280
     0
102
RTVSPost2010PropOp36
 70
     1
102
RTVSPost2010Prop37
 90
       50
102
RTVSPost2010PropOp37
 70
     1
102
RTVSPost2010Prop38
140
0.0
102
RTVSPost2010PropOp38
 70
     1
102
RTVSPost2010Prop39
140
1.0
102
RTVSPost2010PropOp39
 70
     1
102
RTVSPost2010Prop40
 90
        0
102
RTVSPost2010PropOp40
 70
     1
102
RTVSPost2010Prop41ColorIndex
 90
       18
102
RTVSPost2010Prop41ColorRGB
 90
        0
102
RTVSPost2010PropOp41
 70
     1
102
RTVSPost2010Prop42
 90
       50
102
RTVSPost2010PropOp42
 70
     1
102
RTVSPost2010Prop43
 90
        3
102
RTVSPost2010PropOp43
 70
     1
102
RTVSPost2010Prop44ColorIndex
 90
        5
102
RTVSPost2010Prop44ColorRGB
 90
      255
102
RTVSPost2010PropOp44
 70
     1
102
RTVSPost2010Prop45
280
     0
102
RTVSPost2010PropOp45
 70
     1
102
RTVSPost2010Prop46
 90
       50
102
RTVSPost2010PropOp46
 70
     1
102
RTVSPost2010Prop47
 90
       50
102
RTVSPost2010PropOp47
 70
     1
102
RTVSPost2010Prop48
 90
       50
102
RTVSPost2010PropOp48
 70
     1
102
RTVSPost2010Prop49
280
     0
102
RTVSPost2010PropOp49
 70
     1
102
RTVSPost2010Prop50
 90
       50
102
RTVSPost2010PropOp50
 70
     1
102
RTVSPost2010Prop51ColorIndex
 90
      256
102
RTVSPost2010Prop51ColorRGB
 90
-16777216
102
RTVSPost2010PropOp51
 70
     0
102
RTVSPost2010Prop52
140
1.0
102
RTVSPost2010PropOp52
 70
     0
102
RTVSPost2010Prop53
 90
        2
102
RTVSPost2010PropOp53
 70
     1
102
RTVSPost2010Prop54
  1
strokes_ogs.tif
102
RTVSPost2010PropOp54
 70
     1
102
RTVSPost2010Prop55
280
     0
102
RTVSPost2010PropOp55
 70
     1
102
RTVSPost2010Prop56
140
1.0
102
RTVSPost2010PropOp56
 70
     1
102
RTVSPost2010Prop57
140
1.0
102
RTVSPost2010PropOp57
 70
     1
102
RTVSPropertyOp0
 70
     1
102
RTVSPropertyOp1
 70
     1
102
RTVSPropertyOp2
 70
     1
102
RTVSPropertyOp3
 70
     1
102
RTVSPropertyOp4
 70
     1
102
RTVSPropertyOp5
 70
     1
102
RTVSPropertyOp6
 70
     1
102
RTVSPropertyOp7
 70
     1
102
RTVSPropertyOp8
 70
     1
102
RTVSPropertyOp9
 70
     1
102
RTVSPropertyOp10
 70
     1
102
RTVSPropertyOp11
 70
     1
102
RTVSPropertyOp12
 70
     1
102
RTVSPropertyOp13
 70
     1
102
RTVSPropertyOp14
 70
     1
102
RTVSPropertyOp15
 70
     1
102
RTVSPropertyOp16
 70
     1
102
RTVSPropertyOp17
 70
     1
102
RTVSPropertyOp18
 70
     1
102
RTVSPropertyOp19
 70
     1
102
RTVSPropertyOp20
 70
     1
102
RTVSPropertyOp21
 70
     1
102
RTVSPropertyOp22
 70
     1
102
RTVSPropertyOp23
 70
     1
102
RTVSPropertyOp24
 70
     1
102
RTVSPropertyOp25
 70
     1
102
RTVSPropertyOp26
 70
     1
102
RTVSPropertyOp27
 70
     1
102
RTVSPropertyOp28
 70
     1
102
RTVSPropertyOp29
 70
     1
102
RTVSPropertyOp30
 70
     1
102
RTVSPropertyOp31
 70
     1
102
RTVSPropertyOp32
 70
     1
102
RTVSPropertyOp33
 70
     1
102
RTVSPropertyOp34
 70
     1
102
RTVSPropertyOp35
 70
     1
102
RTVSPropertyOp36
 70
     1
102
RTVSPropertyOp37
 70
     1
102
RTVSPropertyOp38
 70
     1
102
RTVSPropertyOp39
 70
     1
102
RTVSPropertyOp40
 70
     1
102
RTVSPropertyOp41
 70
     1
102
RTVSPropertyOp42
 70
     1
102
RTVSPropertyOp43
 70
     1
102
RTVSPropertyOp44
 70
     1
102
RTVSPropertyOp45
 70
     1
102
RTVSPropertyOp46
 70
     1
102
RTVSPropertyOp47
 70
     1
102
RTVSPropertyOp48
 70
     1
102
RTVSPropertyOp49
 70
     1
102
RTVSPropertyOp50
 70
     1
102
RTVSPropertyOp51
 70
     0
102
RTVSPropertyOp52
 70
     0
102
RTVSPropertyOp53
 70
     1
102
RTVSPropertyOp54
 70
     1
102
RTVSPropertyOp55
 70
     1
102
RTVSPropertyOp56
 70
     1
102
RTVSPropertyOp57
 70
     1
102
RTVSPropertyOp58
 70
     1
102
RTVSPropertyOp59
 70
     1
102
RTVSPropertyOp60
 70
     1
102
RTVSPropertyOp61
 70
     1
102
RTVSPropertyOp62
 70
     1
  0
XRECORD
  5
B8F3
102
{ACAD_REACTORS
330
B8F2
102
}
330
B8F2
100
AcDbXrecord
280
     1
102
RTVSPost2010Prop28
280
     0
102
RTVSPost2010PropOp28
 70
     1
102
RTVSPost2010Prop29
280
     1
102
RTVSPost2010PropOp29
 70
     1
102
RTVSPost2010Prop30
280
     1
102
RTVSPost2010PropOp30
 70
     1
102
RTVSPost2010Prop31
280
     0
102
RTVSPost2010PropOp31
 70
     1
102
RTVSPost2010Prop32
280
     0
102
RTVSPost2010PropOp32
 70
     1
102
RTVSPost2010Prop33
280
     0
102
RTVSPost2010PropOp33
 70
     1
102
RTVSPost2010Prop34
280
     0
102
RTVSPost2010PropOp34
 70
     1
102
RTVSPost2010Prop35
280
     0
102
RTVSPost2010PropOp35
 70
     1
102
RTVSPost2010Prop36
280
     0
102
RTVSPost2010PropOp36
 70
     1
102
RTVSPost2010Prop37
 90
       50
102
RTVSPost2010PropOp37
 70
     1
102
RTVSPost2010Prop38
140
0.0
102
RTVSPost2010PropOp38
 70
     1
102
RTVSPost2010Prop39
140
1.0
102
RTVSPost2010PropOp39
 70
     1
102
RTVSPost2010Prop40
 90
        0
102
RTVSPost2010PropOp40
 70
     1
102
RTVSPost2010Prop41ColorIndex
 90
       18
102
RTVSPost2010Prop41ColorRGB
 90
        0
102
RTVSPost2010PropOp41
 70
     1
102
RTVSPost2010Prop42
 90
       50
102
RTVSPost2010PropOp42
 70
     1
102
RTVSPost2010Prop43
 90
        3
102
RTVSPost2010PropOp43
 70
     1
102
RTVSPost2010Prop44ColorIndex
 90
        5
102
RTVSPost2010Prop44ColorRGB
 90
      255
102
RTVSPost2010PropOp44
 70
     1
102
RTVSPost2010Prop45
280
     0
102
RTVSPost2010PropOp45
 70
     1
102
RTVSPost2010Prop46
 90
       50
102
RTVSPost2010PropOp46
 70
     1
102
RTVSPost2010Prop47
 90
       50
102
RTVSPost2010PropOp47
 70
     1
102
RTVSPost2010Prop48
 90
       50
102
RTVSPost2010PropOp48
 70
     1
102
RTVSPost2010Prop49
280
     0
102
RTVSPost2010PropOp49
 70
     1
102
RTVSPost2010Prop50
 90
       50
102
RTVSPost2010PropOp50
 70
     1
102
RTVSPost2010Prop51ColorIndex
 90
      256
102
RTVSPost2010Prop51ColorRGB
 90
-16777216
102
RTVSPost2010PropOp51
 70
     0
102
RTVSPost2010Prop52
140
1.0
102
RTVSPost2010PropOp52
 70
     0
102
RTVSPost2010Prop53
 90
        2
102
RTVSPost2010PropOp53
 70
     1
102
RTVSPost2010Prop54
  1
strokes_ogs.tif
102
RTVSPost2010PropOp54
 70
     1
102
RTVSPost2010Prop55
280
     0
102
RTVSPost2010PropOp55
 70
     1
102
RTVSPost2010Prop56
140
1.0
102
RTVSPost2010PropOp56
 70
     1
102
RTVSPost2010Prop57
140
1.0
102
RTVSPost2010PropOp57
 70
     1
102
RTVSPropertyOp0
 70
     1
102
RTVSPropertyOp1
 70
     1
102
RTVSPropertyOp2
 70
     1
102
RTVSPropertyOp3
 70
     1
102
RTVSPropertyOp4
 70
     1
102
RTVSPropertyOp5
 70
     1
102
RTVSPropertyOp6
 70
     1
102
RTVSPropertyOp7
 70
     1
102
RTVSPropertyOp8
 70
     1
102
RTVSPropertyOp9
 70
     1
102
RTVSPropertyOp10
 70
     1
102
RTVSPropertyOp11
 70
     1
102
RTVSPropertyOp12
 70
     1
102
RTVSPropertyOp13
 70
     1
102
RTVSPropertyOp14
 70
     1
102
RTVSPropertyOp15
 70
     1
102
RTVSPropertyOp16
 70
     1
102
RTVSPropertyOp17
 70
     1
102
RTVSPropertyOp18
 70
     1
102
RTVSPropertyOp19
 70
     1
102
RTVSPropertyOp20
 70
     1
102
RTVSPropertyOp21
 70
     1
102
RTVSPropertyOp22
 70
     1
102
RTVSPropertyOp23
 70
     1
102
RTVSPropertyOp24
 70
     1
102
RTVSPropertyOp25
 70
     1
102
RTVSPropertyOp26
 70
     1
102
RTVSPropertyOp27
 70
     1
102
RTVSPropertyOp28
 70
     1
102
RTVSPropertyOp29
 70
     1
102
RTVSPropertyOp30
 70
     1
102
RTVSPropertyOp31
 70
     1
102
RTVSPropertyOp32
 70
     1
102
RTVSPropertyOp33
 70
     1
102
RTVSPropertyOp34
 70
     1
102
RTVSPropertyOp35
 70
     1
102
RTVSPropertyOp36
 70
     1
102
RTVSPropertyOp37
 70
     1
102
RTVSPropertyOp38
 70
     1
102
RTVSPropertyOp39
 70
     1
102
RTVSPropertyOp40
 70
     1
102
RTVSPropertyOp41
 70
     1
102
RTVSPropertyOp42
 70
     1
102
RTVSPropertyOp43
 70
     1
102
RTVSPropertyOp44
 70
     1
102
RTVSPropertyOp45
 70
     1
102
RTVSPropertyOp46
 70
     1
102
RTVSPropertyOp47
 70
     1
102
RTVSPropertyOp48
 70
     1
102
RTVSPropertyOp49
 70
     1
102
RTVSPropertyOp50
 70
     1
102
RTVSPropertyOp51
 70
     0
102
RTVSPropertyOp52
 70
     0
102
RTVSPropertyOp53
 70
     1
102
RTVSPropertyOp54
 70
     1
102
RTVSPropertyOp55
 70
     1
102
RTVSPropertyOp56
 70
     1
102
RTVSPropertyOp57
 70
     1
102
RTVSPropertyOp58
 70
     1
102
RTVSPropertyOp59
 70
     1
102
RTVSPropertyOp60
 70
     1
102
RTVSPropertyOp61
 70
     1
102
RTVSPropertyOp62
 70
     1
  0
XRECORD
  5
B8E9
102
{ACAD_REACTORS
330
B8E8
102
}
330
B8E8
100
AcDbXrecord
280
     1
102
RTVSPost2010Prop28
280
     0
102
RTVSPost2010PropOp28
 70
     1
102
RTVSPost2010Prop29
280
     1
102
RTVSPost2010PropOp29
 70
     1
102
RTVSPost2010Prop30
280
     1
102
RTVSPost2010PropOp30
 70
     1
102
RTVSPost2010Prop31
280
     0
102
RTVSPost2010PropOp31
 70
     1
102
RTVSPost2010Prop32
280
     0
102
RTVSPost2010PropOp32
 70
     1
102
RTVSPost2010Prop33
280
     0
102
RTVSPost2010PropOp33
 70
     1
102
RTVSPost2010Prop34
280
     0
102
RTVSPost2010PropOp34
 70
     1
102
RTVSPost2010Prop35
280
     0
102
RTVSPost2010PropOp35
 70
     1
102
RTVSPost2010Prop36
280
     0
102
RTVSPost2010PropOp36
 70
     1
102
RTVSPost2010Prop37
 90
       50
102
RTVSPost2010PropOp37
 70
     1
102
RTVSPost2010Prop38
140
0.0
102
RTVSPost2010PropOp38
 70
     1
102
RTVSPost2010Prop39
140
1.0
102
RTVSPost2010PropOp39
 70
     1
102
RTVSPost2010Prop40
 90
        0
102
RTVSPost2010PropOp40
 70
     1
102
RTVSPost2010Prop41ColorIndex
 90
       18
102
RTVSPost2010Prop41ColorRGB
 90
        0
102
RTVSPost2010PropOp41
 70
     1
102
RTVSPost2010Prop42
 90
       50
102
RTVSPost2010PropOp42
 70
     1
102
RTVSPost2010Prop43
 90
        3
102
RTVSPost2010PropOp43
 70
     1
102
RTVSPost2010Prop44ColorIndex
 90
        5
102
RTVSPost2010Prop44ColorRGB
 90
      255
102
RTVSPost2010PropOp44
 70
     1
102
RTVSPost2010Prop45
280
     0
102
RTVSPost2010PropOp45
 70
     1
102
RTVSPost2010Prop46
 90
       50
102
RTVSPost2010PropOp46
 70
     1
102
RTVSPost2010Prop47
 90
       50
102
RTVSPost2010PropOp47
 70
     1
102
RTVSPost2010Prop48
 90
       50
102
RTVSPost2010PropOp48
 70
     1
102
RTVSPost2010Prop49
280
     0
102
RTVSPost2010PropOp49
 70
     1
102
RTVSPost2010Prop50
 90
       50
102
RTVSPost2010PropOp50
 70
     1
102
RTVSPost2010Prop51ColorIndex
 90
      256
102
RTVSPost2010Prop51ColorRGB
 90
-16777216
102
RTVSPost2010PropOp51
 70
     0
102
RTVSPost2010Prop52
140
1.0
102
RTVSPost2010PropOp52
 70
     0
102
RTVSPost2010Prop53
 90
        2
102
RTVSPost2010PropOp53
 70
     1
102
RTVSPost2010Prop54
  1
strokes_ogs.tif
102
RTVSPost2010PropOp54
 70
     1
102
RTVSPost2010Prop55
280
     0
102
RTVSPost2010PropOp55
 70
     1
102
RTVSPost2010Prop56
140
1.0
102
RTVSPost2010PropOp56
 70
     1
102
RTVSPost2010Prop57
140
1.0
102
RTVSPost2010PropOp57
 70
     1
102
RTVSPropertyOp0
 70
     1
102
RTVSPropertyOp1
 70
     1
102
RTVSPropertyOp2
 70
     1
102
RTVSPropertyOp3
 70
     1
102
RTVSPropertyOp4
 70
     1
102
RTVSPropertyOp5
 70
     1
102
RTVSPropertyOp6
 70
     1
102
RTVSPropertyOp7
 70
     1
102
RTVSPropertyOp8
 70
     1
102
RTVSPropertyOp9
 70
     1
102
RTVSPropertyOp10
 70
     1
102
RTVSPropertyOp11
 70
     1
102
RTVSPropertyOp12
 70
     1
102
RTVSPropertyOp13
 70
     1
102
RTVSPropertyOp14
 70
     1
102
RTVSPropertyOp15
 70
     1
102
RTVSPropertyOp16
 70
     1
102
RTVSPropertyOp17
 70
     1
102
RTVSPropertyOp18
 70
     1
102
RTVSPropertyOp19
 70
     1
102
RTVSPropertyOp20
 70
     1
102
RTVSPropertyOp21
 70
     1
102
RTVSPropertyOp22
 70
     1
102
RTVSPropertyOp23
 70
     1
102
RTVSPropertyOp24
 70
     1
102
RTVSPropertyOp25
 70
     1
102
RTVSPropertyOp26
 70
     1
102
RTVSPropertyOp27
 70
     1
102
RTVSPropertyOp28
 70
     1
102
RTVSPropertyOp29
 70
     1
102
RTVSPropertyOp30
 70
     1
102
RTVSPropertyOp31
 70
     1
102
RTVSPropertyOp32
 70
     1
102
RTVSPropertyOp33
 70
     1
102
RTVSPropertyOp34
 70
     1
102
RTVSPropertyOp35
 70
     1
102
RTVSPropertyOp36
 70
     1
102
RTVSPropertyOp37
 70
     1
102
RTVSPropertyOp38
 70
     1
102
RTVSPropertyOp39
 70
     1
102
RTVSPropertyOp40
 70
     1
102
RTVSPropertyOp41
 70
     1
102
RTVSPropertyOp42
 70
     1
102
RTVSPropertyOp43
 70
     1
102
RTVSPropertyOp44
 70
     1
102
RTVSPropertyOp45
 70
     1
102
RTVSPropertyOp46
 70
     1
102
RTVSPropertyOp47
 70
     1
102
RTVSPropertyOp48
 70
     1
102
RTVSPropertyOp49
 70
     1
102
RTVSPropertyOp50
 70
     1
102
RTVSPropertyOp51
 70
     0
102
RTVSPropertyOp52
 70
     0
102
RTVSPropertyOp53
 70
     1
102
RTVSPropertyOp54
 70
     1
102
RTVSPropertyOp55
 70
     1
102
RTVSPropertyOp56
 70
     1
102
RTVSPropertyOp57
 70
     1
102
RTVSPropertyOp58
 70
     1
102
RTVSPropertyOp59
 70
     1
102
RTVSPropertyOp60
 70
     1
102
RTVSPropertyOp61
 70
     1
102
RTVSPropertyOp62
 70
     1
  0
XRECORD
  5
B8DD
102
{ACAD_REACTORS
330
B8DC
102
}
330
B8DC
100
AcDbXrecord
280
     1
102
RTVSPost2010Prop28
280
     0
102
RTVSPost2010PropOp28
 70
     1
102
RTVSPost2010Prop29
280
     1
102
RTVSPost2010PropOp29
 70
     1
102
RTVSPost2010Prop30
280
     1
102
RTVSPost2010PropOp30
 70
     1
102
RTVSPost2010Prop31
280
     0
102
RTVSPost2010PropOp31
 70
     1
102
RTVSPost2010Prop32
280
     0
102
RTVSPost2010PropOp32
 70
     1
102
RTVSPost2010Prop33
280
     0
102
RTVSPost2010PropOp33
 70
     1
102
RTVSPost2010Prop34
280
     0
102
RTVSPost2010PropOp34
 70
     1
102
RTVSPost2010Prop35
280
     0
102
RTVSPost2010PropOp35
 70
     1
102
RTVSPost2010Prop36
280
     0
102
RTVSPost2010PropOp36
 70
     1
102
RTVSPost2010Prop37
 90
       50
102
RTVSPost2010PropOp37
 70
     1
102
RTVSPost2010Prop38
140
0.0
102
RTVSPost2010PropOp38
 70
     1
102
RTVSPost2010Prop39
140
1.0
102
RTVSPost2010PropOp39
 70
     1
102
RTVSPost2010Prop40
 90
        0
102
RTVSPost2010PropOp40
 70
     1
102
RTVSPost2010Prop41ColorIndex
 90
       18
102
RTVSPost2010Prop41ColorRGB
 90
        0
102
RTVSPost2010PropOp41
 70
     1
102
RTVSPost2010Prop42
 90
       50
102
RTVSPost2010PropOp42
 70
     1
102
RTVSPost2010Prop43
 90
        3
102
RTVSPost2010PropOp43
 70
     1
102
RTVSPost2010Prop44ColorIndex
 90
        5
102
RTVSPost2010Prop44ColorRGB
 90
      255
102
RTVSPost2010PropOp44
 70
     1
102
RTVSPost2010Prop45
280
     0
102
RTVSPost2010PropOp45
 70
     1
102
RTVSPost2010Prop46
 90
       50
102
RTVSPost2010PropOp46
 70
     1
102
RTVSPost2010Prop47
 90
       50
102
RTVSPost2010PropOp47
 70
     1
102
RTVSPost2010Prop48
 90
       50
102
RTVSPost2010PropOp48
 70
     1
102
RTVSPost2010Prop49
280
     0
102
RTVSPost2010PropOp49
 70
     1
102
RTVSPost2010Prop50
 90
       50
102
RTVSPost2010PropOp50
 70
     1
102
RTVSPost2010Prop51ColorIndex
 90
      256
102
RTVSPost2010Prop51ColorRGB
 90
-16777216
102
RTVSPost2010PropOp51
 70
     0
102
RTVSPost2010Prop52
140
1.0
102
RTVSPost2010PropOp52
 70
     0
102
RTVSPost2010Prop53
 90
        2
102
RTVSPost2010PropOp53
 70
     1
102
RTVSPost2010Prop54
  1
strokes_ogs.tif
102
RTVSPost2010PropOp54
 70
     1
102
RTVSPost2010Prop55
280
     0
102
RTVSPost2010PropOp55
 70
     1
102
RTVSPost2010Prop56
140
1.0
102
RTVSPost2010PropOp56
 70
     1
102
RTVSPost2010Prop57
140
1.0
102
RTVSPost2010PropOp57
 70
     1
102
RTVSPropertyOp0
 70
     1
102
RTVSPropertyOp1
 70
     1
102
RTVSPropertyOp2
 70
     1
102
RTVSPropertyOp3
 70
     1
102
RTVSPropertyOp4
 70
     1
102
RTVSPropertyOp5
 70
     1
102
RTVSPropertyOp6
 70
     1
102
RTVSPropertyOp7
 70
     1
102
RTVSPropertyOp8
 70
     1
102
RTVSPropertyOp9
 70
     1
102
RTVSPropertyOp10
 70
     1
102
RTVSPropertyOp11
 70
     1
102
RTVSPropertyOp12
 70
     1
102
RTVSPropertyOp13
 70
     1
102
RTVSPropertyOp14
 70
     1
102
RTVSPropertyOp15
 70
     1
102
RTVSPropertyOp16
 70
     1
102
RTVSPropertyOp17
 70
     1
102
RTVSPropertyOp18
 70
     1
102
RTVSPropertyOp19
 70
     1
102
RTVSPropertyOp20
 70
     1
102
RTVSPropertyOp21
 70
     1
102
RTVSPropertyOp22
 70
     1
102
RTVSPropertyOp23
 70
     1
102
RTVSPropertyOp24
 70
     1
102
RTVSPropertyOp25
 70
     1
102
RTVSPropertyOp26
 70
     1
102
RTVSPropertyOp27
 70
     1
102
RTVSPropertyOp28
 70
     1
102
RTVSPropertyOp29
 70
     1
102
RTVSPropertyOp30
 70
     1
102
RTVSPropertyOp31
 70
     1
102
RTVSPropertyOp32
 70
     1
102
RTVSPropertyOp33
 70
     1
102
RTVSPropertyOp34
 70
     1
102
RTVSPropertyOp35
 70
     1
102
RTVSPropertyOp36
 70
     1
102
RTVSPropertyOp37
 70
     1
102
RTVSPropertyOp38
 70
     1
102
RTVSPropertyOp39
 70
     1
102
RTVSPropertyOp40
 70
     1
102
RTVSPropertyOp41
 70
     1
102
RTVSPropertyOp42
 70
     1
102
RTVSPropertyOp43
 70
     1
102
RTVSPropertyOp44
 70
     1
102
RTVSPropertyOp45
 70
     1
102
RTVSPropertyOp46
 70
     1
102
RTVSPropertyOp47
 70
     1
102
RTVSPropertyOp48
 70
     1
102
RTVSPropertyOp49
 70
     1
102
RTVSPropertyOp50
 70
     1
102
RTVSPropertyOp51
 70
     0
102
RTVSPropertyOp52
 70
     0
102
RTVSPropertyOp53
 70
     1
102
RTVSPropertyOp54
 70
     1
102
RTVSPropertyOp55
 70
     1
102
RTVSPropertyOp56
 70
     1
102
RTVSPropertyOp57
 70
     1
102
RTVSPropertyOp58
 70
     1
102
RTVSPropertyOp59
 70
     1
102
RTVSPropertyOp60
 70
     1
102
RTVSPropertyOp61
 70
     1
102
RTVSPropertyOp62
 70
     1
  0
XRECORD
  5
B8F5
102
{ACAD_REACTORS
330
B8F4
102
}
330
B8F4
100
AcDbXrecord
280
     1
102
RTVSPost2010Prop28
280
     0
102
RTVSPost2010PropOp28
 70
     1
102
RTVSPost2010Prop29
280
     1
102
RTVSPost2010PropOp29
 70
     1
102
RTVSPost2010Prop30
280
     1
102
RTVSPost2010PropOp30
 70
     1
102
RTVSPost2010Prop31
280
     0
102
RTVSPost2010PropOp31
 70
     1
102
RTVSPost2010Prop32
280
     0
102
RTVSPost2010PropOp32
 70
     1
102
RTVSPost2010Prop33
280
     0
102
RTVSPost2010PropOp33
 70
     1
102
RTVSPost2010Prop34
280
     0
102
RTVSPost2010PropOp34
 70
     1
102
RTVSPost2010Prop35
280
     0
102
RTVSPost2010PropOp35
 70
     1
102
RTVSPost2010Prop36
280
     0
102
RTVSPost2010PropOp36
 70
     1
102
RTVSPost2010Prop37
 90
       50
102
RTVSPost2010PropOp37
 70
     1
102
RTVSPost2010Prop38
140
0.0
102
RTVSPost2010PropOp38
 70
     1
102
RTVSPost2010Prop39
140
1.0
102
RTVSPost2010PropOp39
 70
     1
102
RTVSPost2010Prop40
 90
        0
102
RTVSPost2010PropOp40
 70
     1
102
RTVSPost2010Prop41ColorIndex
 90
       18
102
RTVSPost2010Prop41ColorRGB
 90
        0
102
RTVSPost2010PropOp41
 70
     1
102
RTVSPost2010Prop42
 90
       50
102
RTVSPost2010PropOp42
 70
     1
102
RTVSPost2010Prop43
 90
        3
102
RTVSPost2010PropOp43
 70
     1
102
RTVSPost2010Prop44ColorIndex
 90
        5
102
RTVSPost2010Prop44ColorRGB
 90
      255
102
RTVSPost2010PropOp44
 70
     1
102
RTVSPost2010Prop45
280
     0
102
RTVSPost2010PropOp45
 70
     1
102
RTVSPost2010Prop46
 90
       50
102
RTVSPost2010PropOp46
 70
     1
102
RTVSPost2010Prop47
 90
       50
102
RTVSPost2010PropOp47
 70
     1
102
RTVSPost2010Prop48
 90
       50
102
RTVSPost2010PropOp48
 70
     1
102
RTVSPost2010Prop49
280
     0
102
RTVSPost2010PropOp49
 70
     1
102
RTVSPost2010Prop50
 90
       50
102
RTVSPost2010PropOp50
 70
     1
102
RTVSPost2010Prop51ColorIndex
 90
      256
102
RTVSPost2010Prop51ColorRGB
 90
-16777216
102
RTVSPost2010PropOp51
 70
     0
102
RTVSPost2010Prop52
140
1.0
102
RTVSPost2010PropOp52
 70
     0
102
RTVSPost2010Prop53
 90
        2
102
RTVSPost2010PropOp53
 70
     1
102
RTVSPost2010Prop54
  1
strokes_ogs.tif
102
RTVSPost2010PropOp54
 70
     1
102
RTVSPost2010Prop55
280
     0
102
RTVSPost2010PropOp55
 70
     1
102
RTVSPost2010Prop56
140
1.0
102
RTVSPost2010PropOp56
 70
     1
102
RTVSPost2010Prop57
140
1.0
102
RTVSPost2010PropOp57
 70
     1
102
RTVSPropertyOp0
 70
     1
102
RTVSPropertyOp1
 70
     1
102
RTVSPropertyOp2
 70
     1
102
RTVSPropertyOp3
 70
     1
102
RTVSPropertyOp4
 70
     1
102
RTVSPropertyOp5
 70
     1
102
RTVSPropertyOp6
 70
     1
102
RTVSPropertyOp7
 70
     1
102
RTVSPropertyOp8
 70
     1
102
RTVSPropertyOp9
 70
     1
102
RTVSPropertyOp10
 70
     1
102
RTVSPropertyOp11
 70
     1
102
RTVSPropertyOp12
 70
     1
102
RTVSPropertyOp13
 70
     1
102
RTVSPropertyOp14
 70
     1
102
RTVSPropertyOp15
 70
     1
102
RTVSPropertyOp16
 70
     1
102
RTVSPropertyOp17
 70
     1
102
RTVSPropertyOp18
 70
     1
102
RTVSPropertyOp19
 70
     1
102
RTVSPropertyOp20
 70
     1
102
RTVSPropertyOp21
 70
     1
102
RTVSPropertyOp22
 70
     1
102
RTVSPropertyOp23
 70
     1
102
RTVSPropertyOp24
 70
     1
102
RTVSPropertyOp25
 70
     1
102
RTVSPropertyOp26
 70
     1
102
RTVSPropertyOp27
 70
     1
102
RTVSPropertyOp28
 70
     1
102
RTVSPropertyOp29
 70
     1
102
RTVSPropertyOp30
 70
     1
102
RTVSPropertyOp31
 70
     1
102
RTVSPropertyOp32
 70
     1
102
RTVSPropertyOp33
 70
     1
102
RTVSPropertyOp34
 70
     1
102
RTVSPropertyOp35
 70
     1
102
RTVSPropertyOp36
 70
     1
102
RTVSPropertyOp37
 70
     1
102
RTVSPropertyOp38
 70
     1
102
RTVSPropertyOp39
 70
     1
102
RTVSPropertyOp40
 70
     1
102
RTVSPropertyOp41
 70
     1
102
RTVSPropertyOp42
 70
     1
102
RTVSPropertyOp43
 70
     1
102
RTVSPropertyOp44
 70
     1
102
RTVSPropertyOp45
 70
     1
102
RTVSPropertyOp46
 70
     1
102
RTVSPropertyOp47
 70
     1
102
RTVSPropertyOp48
 70
     1
102
RTVSPropertyOp49
 70
     1
102
RTVSPropertyOp50
 70
     1
102
RTVSPropertyOp51
 70
     0
102
RTVSPropertyOp52
 70
     0
102
RTVSPropertyOp53
 70
     1
102
RTVSPropertyOp54
 70
     1
102
RTVSPropertyOp55
 70
     1
102
RTVSPropertyOp56
 70
     1
102
RTVSPropertyOp57
 70
     1
102
RTVSPropertyOp58
 70
     1
102
RTVSPropertyOp59
 70
     1
102
RTVSPropertyOp60
 70
     1
102
RTVSPropertyOp61
 70
     1
102
RTVSPropertyOp62
 70
     1
  0
ENDSEC
  0
EOF
