  0
SECTION
  2
HEADER
  9
$ACADVER
  1
AC1015
  9
$ACADMAINTVER
 70
    20
  9
$DWGCODEPAGE
  3
ANSI_932
  9
$INSBASE
 10
0.0
 20
0.0
 30
0.0
  9
$EXTMIN
 10
10.0
 20
9.999999999999998
 30
0.0
  9
$EXTMAX
 10
537.398059
 20
389.5730879999999
 30
0.0
  9
$LIMMIN
 10
0.0
 20
0.0
  9
$LIMMAX
 10
633.6
 20
436.8
  9
$ORTHOMODE
 70
     1
  9
$REGENMODE
 70
     1
  9
$FILLMODE
 70
     1
  9
$QTEXTMODE
 70
     0
  9
$MIRRTEXT
 70
     1
  9
$LTSCALE
 40
20.0
  9
$ATTMODE
 70
     1
  9
$TEXTSIZE
 40
5.0
  9
$TRACEWID
 40
1.0
  9
$TEXTSTYLE
  7
STANDARD
  9
$CLAYER
  8
0
  9
$CELTYPE
  6
BYLAYER
  9
$CECOLOR
 62
   256
  9
$CELTSCALE
 40
1.0
  9
$DISPSILH
 70
     0
  9
$DIMSCALE
 40
1.0
  9
$DIMASZ
 40
2.5
  9
$DIMEXO
 40
1.0
  9
$DIMDLI
 40
10.0
  9
$DIMRND
 40
0.0
  9
$DIMDLE
 40
0.0
  9
$DIMEXE
 40
1.0
  9
$DIMTP
 40
0.0
  9
$DIMTM
 40
0.0
  9
$DIMTXT
 40
2.5
  9
$DIMCEN
 40
0.0
  9
$DIMTSZ
 40
0.0
  9
$DIMTOL
 70
     0
  9
$DIMLIM
 70
     0
  9
$DIMTIH
 70
     0
  9
$DIMTOH
 70
     0
  9
$DIMSE1
 70
     0
  9
$DIMSE2
 70
     0
  9
$DIMTAD
 70
     3
  9
$DIMZIN
 70
     8
  9
$DIMBLK
  1

  9
$DIMASO
 70
     1
  9
$DIMSHO
 70
     1
  9
$DIMPOST
  1

  9
$DIMAPOST
  1

  9
$DIMALT
 70
     0
  9
$DIMALTD
 70
     2
  9
$DIMALTF
 40
25.4
  9
$DIMLFAC
 40
1.0
  9
$DIMTOFL
 70
     1
  9
$DIMTVP
 40
0.0
  9
$DIMTIX
 70
     0
  9
$DIMSOXD
 70
     0
  9
$DIMSAH
 70
     1
  9
$DIMBLK1
  1
OPEN
  9
$DIMBLK2
  1
OPEN
  9
$DIMSTYLE
  2
STANDARD
  9
$DIMCLRD
 70
     0
  9
$DIMCLRE
 70
     0
  9
$DIMCLRT
 70
     0
  9
$DIMTFAC
 40
1.0
  9
$DIMGAP
 40
1.0
  9
$DIMJUST
 70
     0
  9
$DIMSD1
 70
     0
  9
$DIMSD2
 70
     0
  9
$DIMTOLJ
 70
     1
  9
$DIMTZIN
 70
     0
  9
$DIMALTZ
 70
     0
  9
$DIMALTTZ
 70
     0
  9
$DIMUPT
 70
     0
  9
$DIMDEC
 70
     4
  9
$DIMTDEC
 70
     4
  9
$DIMALTU
 70
     2
  9
$DIMALTTD
 70
     2
  9
$DIMTXSTY
  7
STANDARD
  9
$DIMAUNIT
 70
     0
  9
$DIMADEC
 70
     0
  9
$DIMALTRND
 40
0.0
  9
$DIMAZIN
 70
     0
  9
$DIMDSEP
 70
    46
  9
$DIMATFIT
 70
     3
  9
$DIMFRAC
 70
     0
  9
$DIMLDRBLK
  1
OPEN
  9
$DIMLUNIT
 70
     2
  9
$DIMLWD
 70
    -2
  9
$DIMLWE
 70
    -2
  9
$DIMTMOVE
 70
     0
  9
$LUNITS
 70
     2
  9
$LUPREC
 70
     4
  9
$SKETCHINC
 40
1.0
  9
$FILLETRAD
 40
0.0
  9
$AUNITS
 70
     0
  9
$AUPREC
 70
     2
  9
$MENU
  1
.
  9
$ELEVATION
 40
0.0
  9
$PELEVATION
 40
0.0
  9
$THICKNESS
 40
0.0
  9
$LIMCHECK
 70
     0
  9
$CHAMFERA
 40
10.0
  9
$CHAMFERB
 40
10.0
  9
$CHAMFERC
 40
0.0
  9
$CHAMFERD
 40
0.0
  9
$SKPOLY
 70
     0
  9
$TDCREATE
 40
2451368.502786921
  9
$TDUCREATE
 40
2451368.127786921
  9
$TDUPDATE
 40
2457192.642917315
  9
$TDUUPDATE
 40
2457192.267917315
  9
$TDINDWG
 40
0.0000175116
  9
$TDUSRTIMER
 40
0.0000171991
  9
$USRTIMER
 70
     1
  9
$ANGBASE
 50
0.0
  9
$ANGDIR
 70
     0
  9
$PDMODE
 70
     0
  9
$PDSIZE
 40
0.0
  9
$PLINEWID
 40
0.0
  9
$SPLFRAME
 70
     0
  9
$SPLINETYPE
 70
     6
  9
$SPLINESEGS
 70
     8
  9
$HANDSEED
  5
DBD2
  9
$SURFTAB1
 70
     6
  9
$SURFTAB2
 70
     6
  9
$SURFTYPE
 70
     6
  9
$SURFU
 70
     6
  9
$SURFV
 70
     6
  9
$UCSBASE
  2

  9
$UCSNAME
  2

  9
$UCSORG
 10
0.0
 20
0.0
 30
0.0
  9
$UCSXDIR
 10
1.0
 20
0.0
 30
0.0
  9
$UCSYDIR
 10
0.0
 20
1.0
 30
0.0
  9
$UCSORTHOREF
  2

  9
$UCSORTHOVIEW
 70
     0
  9
$UCSORGTOP
 10
0.0
 20
0.0
 30
0.0
  9
$UCSORGBOTTOM
 10
0.0
 20
0.0
 30
0.0
  9
$UCSORGLEFT
 10
0.0
 20
0.0
 30
0.0
  9
$UCSORGRIGHT
 10
0.0
 20
0.0
 30
0.0
  9
$UCSORGFRONT
 10
0.0
 20
0.0
 30
0.0
  9
$UCSORGBACK
 10
0.0
 20
0.0
 30
0.0
  9
$PUCSBASE
  2

  9
$PUCSNAME
  2

  9
$PUCSORG
 10
0.0
 20
0.0
 30
0.0
  9
$PUCSXDIR
 10
1.0
 20
0.0
 30
0.0
  9
$PUCSYDIR
 10
0.0
 20
1.0
 30
0.0
  9
$PUCSORTHOREF
  2

  9
$PUCSORTHOVIEW
 70
     0
  9
$PUCSORGTOP
 10
0.0
 20
0.0
 30
0.0
  9
$PUCSORGBOTTOM
 10
0.0
 20
0.0
 30
0.0
  9
$PUCSORGLEFT
 10
0.0
 20
0.0
 30
0.0
  9
$PUCSORGRIGHT
 10
0.0
 20
0.0
 30
0.0
  9
$PUCSORGFRONT
 10
0.0
 20
0.0
 30
0.0
  9
$PUCSORGBACK
 10
0.0
 20
0.0
 30
0.0
  9
$USERI1
 70
     0
  9
$USERI2
 70
     0
  9
$USERI3
 70
     0
  9
$USERI4
 70
     0
  9
$USERI5
 70
     0
  9
$USERR1
 40
0.0
  9
$USERR2
 40
0.0
  9
$USERR3
 40
0.0
  9
$USERR4
 40
0.0
  9
$USERR5
 40
0.0
  9
$WORLDVIEW
 70
     1
  9
$SHADEDGE
 70
     3
  9
$SHADEDIF
 70
    70
  9
$TILEMODE
 70
     1
  9
$MAXACTVP
 70
    16
  9
$PINSBASE
 10
0.0
 20
0.0
 30
0.0
  9
$PLIMCHECK
 70
     0
  9
$PEXTMIN
 10
1.000000000000000E+20
 20
1.000000000000000E+20
 30
1.000000000000000E+20
  9
$PEXTMAX
 10
-1.000000000000000E+20
 20
-1.000000000000000E+20
 30
-1.000000000000000E+20
  9
$PLIMMIN
 10
0.0
 20
0.0
  9
$PLIMMAX
 10
420.0
 20
297.0
  9
$UNITMODE
 70
     0
  9
$VISRETAIN
 70
     0
  9
$PLINEGEN
 70
     0
  9
$PSLTSCALE
 70
     0
  9
$TREEDEPTH
 70
  3020
  9
$CMLSTYLE
  2
STANDARD
  9
$CMLJUST
 70
     0
  9
$CMLSCALE
 40
1.0
  9
$PROXYGRAPHICS
 70
     1
  9
$MEASUREMENT
 70
     0
  9
$CELWEIGHT
370
    -1
  9
$ENDCAPS
280
     0
  9
$JOINSTYLE
280
     0
  9
$LWDISPLAY
290
     0
  9
$INSUNITS
 70
     0
  9
$HYPERLINKBASE
  1

  9
$STYLESHEET
  1

  9
$XEDIT
290
     1
  9
$CEPSNTYPE
380
     0
  9
$PSTYLEMODE
290
     1
  9
$FINGERPRINTGUID
  2
{20FE6DB8-3926-4A9C-94FF-C635AE258C19}
  9
$VERSIONGUID
  2
{B1E98F16-3E1B-47D4-9E93-02E1D6347590}
  9
$EXTNAMES
290
     1
  9
$PSVPSCALE
 40
0.0
  9
$OLESTARTUP
290
     0
  0
ENDSEC
  0
SECTION
  2
CLASSES
  0
CLASS
  1
ACDBDICTIONARYWDFLT
  2
AcDbDictionaryWithDefault
  3
ObjectDBX Classes
 90
        0
280
     0
281
     0
  0
CLASS
  1
ACDBPLACEHOLDER
  2
AcDbPlaceHolder
  3
ObjectDBX Classes
 90
        0
280
     0
281
     0
  0
CLASS
  1
LAYOUT
  2
AcDbLayout
  3
ObjectDBX Classes
 90
        0
280
     0
281
     0
  0
CLASS
  1
DICTIONARYVAR
  2
AcDbDictionaryVar
  3
ObjectDBX Classes
 90
        0
280
     0
281
     0
  0
CLASS
  1
MATERIAL
  2
AcDbMaterial
  3
ObjectDBX Classes
 90
     1153
280
     0
281
     0
  0
CLASS
  1
VISUALSTYLE
  2
AcDbVisualStyle
  3
ObjectDBX Classes
 90
     4095
280
     0
281
     0
  0
CLASS
  1
TABLESTYLE
  2
AcDbTableStyle
  3
ObjectDBX Classes
 90
     4095
280
     0
281
     0
  0
CLASS
  1
SCALE
  2
AcDbScale
  3
ObjectDBX Classes
 90
     1153
280
     0
281
     0
  0
CLASS
  1
MLEADERSTYLE
  2
AcDbMLeaderStyle
  3
ACDB_MLEADERSTYLE_CLASS
 90
     4095
280
     0
281
     0
  0
CLASS
  1
ACDBSECTIONVIEWSTYLE
  2
AcDbSectionViewStyle
  3
ObjectDBX Classes
 90
     1025
280
     0
281
     0
  0
CLASS
  1
ACDBDETAILVIEWSTYLE
  2
AcDbDetailViewStyle
  3
ObjectDBX Classes
 90
     1025
280
     0
281
     0
  0
CLASS
  1
CELLSTYLEMAP
  2
AcDbCellStyleMap
  3
ObjectDBX Classes
 90
     1152
280
     0
281
     0
  0
ENDSEC
  0
SECTION
  2
TABLES
  0
TABLE
  2
VPORT
  5
D74C
330
0
100
AcDbSymbolTable
 70
     1
  0
VPORT
  5
DB1B
330
D74C
100
AcDbSymbolTableRecord
100
AcDbViewportTableRecord
  2
*ACTIVE
 70
     0
 10
0.0
 20
0.0
 11
1.0
 21
1.0
 12
388.6812321009506
 22
199.7878794133056
 13
0.0
 23
0.0
 14
10.0
 24
10.0
 15
10.0
 25
10.0
 16
0.0
 26
0.0
 36
1.0
 17
0.0
 27
0.0
 37
0.0
 40
383.8529863331241
 41
1.899603698811096
 42
50.0
 43
0.0
 44
0.0
 50
0.0
 51
0.0
 71
     0
 72
   100
 73
     1
 74
     0
 75
     0
 76
     0
 77
     0
 78
     0
281
     0
 65
     1
110
0.0
120
0.0
130
0.0
111
1.0
121
0.0
131
0.0
112
0.0
122
1.0
132
0.0
 79
     0
146
0.0
1001
ACAD_NAV_VCDISPLAY
1070
     3
  0
ENDTAB
  0
TABLE
  2
LTYPE
  5
D749
330
0
100
AcDbSymbolTable
 70
     4
  0
LTYPE
  5
D757
330
D749
100
AcDbSymbolTableRecord
100
AcDbLinetypeTableRecord
  2
BYBLOCK
 70
     0
  3

 72
    65
 73
     0
 40
0.0
  0
LTYPE
  5
D758
330
D749
100
AcDbSymbolTableRecord
100
AcDbLinetypeTableRecord
  2
BYLAYER
 70
     0
  3

 72
    65
 73
     0
 40
0.0
  0
LTYPE
  5
D759
330
D749
100
AcDbSymbolTableRecord
100
AcDbLinetypeTableRecord
  2
CONTINUOUS
 70
     0
  3
Solid line
 72
    65
 73
     0
 40
0.0
  0
LTYPE
  5
D767
330
D749
100
AcDbSymbolTableRecord
100
AcDbLinetypeTableRecord
  2
DASHED
 70
     0
  3
__ __ __ __ __ __ __ __ __ __ __ __ __ __ __ __
 72
    65
 73
     2
 40
0.75
 49
0.5
 74
     0
 49
-0.25
 74
     0
  0
LTYPE
  5
D768
330
D749
100
AcDbSymbolTableRecord
100
AcDbLinetypeTableRecord
  2
CENTER
 70
     0
  3
____ _ ____ _ ____ _ ____ _ ____ _ ____ _ ____ 
 72
    65
 73
     4
 40
2.0
 49
1.25
 74
     0
 49
-0.25
 74
     0
 49
0.25
 74
     0
 49
-0.25
 74
     0
  0
LTYPE
  5
D769
330
D749
100
AcDbSymbolTableRecord
100
AcDbLinetypeTableRecord
  2
PHANTOM
 70
     0
  3
______  __  __  ______  __  __  ______  __  __ 
 72
    65
 73
     6
 40
2.5
 49
1.25
 74
     0
 49
-0.25
 74
     0
 49
0.25
 74
     0
 49
-0.25
 74
     0
 49
0.25
 74
     0
 49
-0.25
 74
     0
  0
ENDTAB
  0
TABLE
  2
LAYER
  5
D746
330
0
100
AcDbSymbolTable
 70
     8
  0
LAYER
  5
D754
102
{ACAD_XDICTIONARY
360
DB76
102
}
330
D746
100
AcDbSymbolTableRecord
100
AcDbLayerTableRecord
  2
0
 70
     0
 62
     7
  6
CONTINUOUS
370
    -3
390
DB24
  0
LAYER
  5
D76A
102
{ACAD_XDICTIONARY
360
DB78
102
}
330
D746
100
AcDbSymbolTableRecord
100
AcDbLayerTableRecord
  2
4
 70
     0
 62
     1
  6
CENTER
370
    -3
390
DB24
  0
LAYER
  5
D76B
102
{ACAD_XDICTIONARY
360
DB7A
102
}
330
D746
100
AcDbSymbolTableRecord
100
AcDbLayerTableRecord
  2
5
 70
     0
 62
     6
  6
PHANTOM
370
    -3
390
DB24
  0
LAYER
  5
D76C
102
{ACAD_XDICTIONARY
360
DB7C
102
}
330
D746
100
AcDbSymbolTableRecord
100
AcDbLayerTableRecord
  2
1
 70
     0
 62
     7
  6
CONTINUOUS
370
    -3
390
DB24
  0
LAYER
  5
D76D
102
{ACAD_XDICTIONARY
360
DB7E
102
}
330
D746
100
AcDbSymbolTableRecord
100
AcDbLayerTableRecord
  2
2
 70
     0
 62
     4
  6
CONTINUOUS
370
    -3
390
DB24
  0
LAYER
  5
D76E
102
{ACAD_XDICTIONARY
360
DB80
102
}
330
D746
100
AcDbSymbolTableRecord
100
AcDbLayerTableRecord
  2
3
 70
     0
 62
     2
  6
DASHED
370
    -3
390
DB24
  0
LAYER
  5
D76F
102
{ACAD_XDICTIONARY
360
DB82
102
}
330
D746
100
AcDbSymbolTableRecord
100
AcDbLayerTableRecord
  2
6
 70
     0
 62
     5
  6
CONTINUOUS
370
    -3
390
DB24
  0
LAYER
  5
D770
102
{ACAD_XDICTIONARY
360
DB84
102
}
330
D746
100
AcDbSymbolTableRecord
100
AcDbLayerTableRecord
  2
7
 70
     0
 62
     3
  6
CONTINUOUS
370
    -3
390
DB24
  0
ENDTAB
  0
TABLE
  2
STYLE
  5
D747
330
0
100
AcDbSymbolTable
 70
     1
  0
STYLE
  5
D755
330
D747
100
AcDbSymbolTableRecord
100
AcDbTextStyleTableRecord
  2
STANDARD
 70
     0
 40
0.0
 41
1.0
 50
0.0
 71
     0
 42
5.0
  3
txt
  4

  0
ENDTAB
  0
TABLE
  2
VIEW
  5
D74A
330
0
100
AcDbSymbolTable
 70
     0
  0
ENDTAB
  0
TABLE
  2
UCS
  5
D74B
330
0
100
AcDbSymbolTable
 70
     0
  0
ENDTAB
  0
TABLE
  2
APPID
  5
D74D
330
0
100
AcDbSymbolTable
 70
     3
  0
APPID
  5
D756
330
D74D
100
AcDbSymbolTableRecord
100
AcDbRegAppTableRecord
  2
ACAD
 70
     0
  0
APPID
  5
DB90
330
D74D
100
AcDbSymbolTableRecord
100
AcDbRegAppTableRecord
  2
ACAD_NAV_VCDISPLAY
 70
     0
  0
APPID
  5
DBC9
330
D74D
100
AcDbSymbolTableRecord
100
AcDbRegAppTableRecord
  2
ACAD_MLEADERVER
 70
     0
  0
ENDTAB
  0
TABLE
  2
DIMSTYLE
  5
D74E
330
0
100
AcDbSymbolTable
 70
     1
100
AcDbDimStyleTable
 71
     0
  0
DIMSTYLE
105
D772
330
D74E
100
AcDbSymbolTableRecord
100
AcDbDimStyleTableRecord
  2
STANDARD
 70
     0
 41
2.5
 42
1.0
 43
10.0
 44
1.0
 73
     0
 74
     0
 77
     3
 78
     8
140
2.5
141
0.0
147
1.0
172
     1
173
     1
284
     8
285
     8
286
     8
340
D755
  0
ENDTAB
  0
TABLE
  2
BLOCK_RECORD
  5
D745
330
0
100
AcDbSymbolTable
 70
     1
  0
BLOCK_RECORD
  5
D762
102
{ACAD_XDICTIONARY
360
DB1E
102
}
330
D745
100
AcDbSymbolTableRecord
100
AcDbBlockTableRecord
  2
*MODEL_SPACE
340
DB72
  0
BLOCK_RECORD
  5
D75E
102
{ACAD_XDICTIONARY
360
DB1C
102
}
330
D745
100
AcDbSymbolTableRecord
100
AcDbBlockTableRecord
  2
*PAPER_SPACE
340
DB73
  0
BLOCK_RECORD
  5
D77A
330
D745
100
AcDbSymbolTableRecord
100
AcDbBlockTableRecord
  2
_OPEN
340
0
  0
ENDTAB
  0
ENDSEC
  0
SECTION
  2
BLOCKS
  0
BLOCK
  5
D763
330
D762
100
AcDbEntity
  8
0
100
AcDbBlockBegin
  2
*MODEL_SPACE
 70
     0
 10
0.0
 20
0.0
 30
0.0
  3
*MODEL_SPACE
  1

  0
ENDBLK
  5
D764
330
D762
100
AcDbEntity
  8
0
100
AcDbBlockEnd
  0
BLOCK
  5
D75F
330
D75E
100
AcDbEntity
 67
     1
  8
0
100
AcDbBlockBegin
  2
*PAPER_SPACE
 70
     0
 10
0.0
 20
0.0
 30
0.0
  3
*PAPER_SPACE
  1

  0
ENDBLK
  5
D760
330
D75E
100
AcDbEntity
 67
     1
  8
0
100
AcDbBlockEnd
  0
BLOCK
  5
D77B
330
D77A
100
AcDbEntity
  8
0
100
AcDbBlockBegin
  2
_OPEN
 70
     0
 10
0.0
 20
0.0
 30
0.0
  3
_OPEN
  1

  0
LINE
  5
D77C
330
D77A
100
AcDbEntity
  8
0
  6
ByBlock
 62
     0
100
AcDbLine
 10
-1.0
 20
0.166667
 30
0.0
 11
0.0
 21
0.0
 31
0.0
  0
LINE
  5
D77D
330
D77A
100
AcDbEntity
  8
0
  6
ByBlock
 62
     0
100
AcDbLine
 10
0.0
 20
0.0
 30
0.0
 11
-1.0
 21
-0.166667
 31
0.0
  0
LINE
  5
D77E
330
D77A
100
AcDbEntity
  8
0
  6
ByBlock
 62
     0
100
AcDbLine
 10
0.0
 20
0.0
 30
0.0
 11
-1.0
 21
0.0
 31
0.0
  0
ENDBLK
  5
D77F
330
D77A
100
AcDbEntity
  8
0
100
AcDbBlockEnd
  0
ENDSEC
  0
SECTION
  2
ENTITIES
  0
TEXT
  5
D780
330
D762
100
AcDbEntity
  8
7
  6
Continuous
100
AcDbText
 10
10.0
 20
18.0
 30
0.0
 40
3.0
  1
TYPE No.THA-429-1K-2P
100
AcDbText
  0
TEXT
  5
D781
330
D762
100
AcDbEntity
  8
7
  6
Continuous
100
AcDbText
 10
10.0
 20
26.0
 30
0.0
 40
3.0
  1
CODE No.13103
100
AcDbText
  0
TEXT
  5
D782
330
D762
100
AcDbEntity
  8
1
  6
Continuous
100
AcDbText
 10
10.0
 20
10.0
 30
0.0
 40
1.399999999999999
  1
LAYER
100
AcDbText
  0
TEXT
  5
D783
330
D762
100
AcDbEntity
  8
1
  6
Continuous
100
AcDbText
 10
17.97951099999998
 20
10.04873699999998
 30
0.0
 40
1.399999999999999
  1
1
100
AcDbText
  0
TEXT
  5
D784
330
D762
100
AcDbEntity
  8
7
  6
Continuous
100
AcDbText
 10
29.97951099999999
 20
10.04873699999998
 30
0.0
 40
1.399999999999999
  1
7
100
AcDbText
  0
TEXT
  5
D785
330
D762
100
AcDbEntity
  8
4
  6
CENTER
100
AcDbText
 10
23.97951099999999
 20
10.04873699999998
 30
0.0
 40
1.399999999999999
  1
4
100
AcDbText
  0
TEXT
  5
D786
330
D762
100
AcDbEntity
  8
3
  6
DASHED
100
AcDbText
 10
21.979511
 20
10.04873699999998
 30
0.0
 40
1.399999999999999
  1
3
100
AcDbText
  0
TEXT
  5
D787
330
D762
100
AcDbEntity
  8
2
  6
Continuous
100
AcDbText
 10
19.97951099999999
 20
10.04873699999998
 30
0.0
 40
1.399999999999999
  1
2
100
AcDbText
  0
TEXT
  5
D788
330
D762
100
AcDbEntity
  8
6
  6
Continuous
100
AcDbText
 10
27.979511
 20
10.04873699999998
 30
0.0
 40
1.399999999999999
  1
6
100
AcDbText
  0
TEXT
  5
D789
330
D762
100
AcDbEntity
  8
5
  6
PHANTOM
100
AcDbText
 10
25.97951099999999
 20
10.04873699999998
 30
0.0
 40
1.399999999999999
  1
5
100
AcDbText
  0
LINE
  5
D78A
330
D762
100
AcDbEntity
  8
1
  6
Continuous
100
AcDbLine
 10
226.3313649999998
 20
53.112926
 30
0.0
 11
226.3313649999998
 21
52.808535
 31
0.0
  0
LINE
  5
D78B
330
D762
100
AcDbEntity
  8
1
  6
Continuous
100
AcDbLine
 10
226.3313649999998
 20
56.022429
 30
0.0
 11
226.3313649999998
 21
55.122907
 31
0.0
  0
LINE
  5
D78C
330
D762
100
AcDbEntity
  8
1
  6
Continuous
100
AcDbLine
 10
222.3313649999998
 20
53.51303000000001
 30
0.0
 11
222.3313649999998
 21
52.808535
 31
0.0
  0
LINE
  5
D78D
330
D762
100
AcDbEntity
  8
1
  6
Continuous
100
AcDbLine
 10
222.4152389999999
 20
56.022429
 30
0.0
 11
222.4152389999999
 21
55.514621
 31
0.0
  0
ARC
  5
D78E
330
D762
100
AcDbEntity
  8
1
  6
Continuous
100
AcDbCircle
 10
224.3313649999998
 20
57.408535
 30
0.0
 40
9.0
100
AcDbArc
 50
254.11915
 51
285.88085
  0
LINE
  5
D78F
330
D762
100
AcDbEntity
  8
1
  6
Continuous
100
AcDbLine
 10
220.831365
 20
51.00853499999999
 30
0.0
 11
220.9293009999999
 21
49.88912
 31
0.0
  0
LINE
  5
D790
330
D762
100
AcDbEntity
  8
1
  6
Continuous
100
AcDbLine
 10
227.8313649999998
 20
51.00853499999999
 30
0.0
 11
227.733429
 21
49.88912
 31
0.0
  0
ARC
  5
D791
330
D762
100
AcDbEntity
  8
1
  6
Continuous
100
AcDbCircle
 10
226.4383759999998
 20
50.002423
 30
0.0
 40
1.3
100
AcDbArc
 50
285.88085
 51
355.0
  0
ARC
  5
D792
330
D762
100
AcDbEntity
  8
1
  6
Continuous
100
AcDbCircle
 10
222.224354
 20
50.002423
 30
0.0
 40
1.3
100
AcDbArc
 50
185.0
 51
254.11915
  0
LINE
  5
D793
330
D762
100
AcDbEntity
  8
1
  6
Continuous
100
AcDbLine
 10
229.3313649999999
 20
52.008535
 30
0.0
 11
219.3313649999999
 21
52.008535
 31
0.0
  0
LINE
  5
D794
330
D762
100
AcDbEntity
  8
1
  6
Continuous
100
AcDbLine
 10
228.1313649999999
 20
51.00853499999999
 30
0.0
 11
220.5313649999999
 21
51.00853499999999
 31
0.0
  0
LINE
  5
D795
330
D762
100
AcDbEntity
  8
1
  6
Continuous
100
AcDbLine
 10
228.1313649999999
 20
51.00853499999999
 30
0.0
 11
228.1313649999999
 21
52.008535
 31
0.0
  0
LINE
  5
D796
330
D762
100
AcDbEntity
  8
1
  6
Continuous
100
AcDbLine
 10
220.5313649999999
 20
51.00853499999999
 30
0.0
 11
220.5313649999999
 21
52.008535
 31
0.0
  0
LINE
  5
D797
330
D762
100
AcDbEntity
  8
1
  6
Continuous
100
AcDbLine
 10
219.3313649999999
 20
52.008535
 30
0.0
 11
219.3313649999999
 21
52.808535
 31
0.0
  0
LINE
  5
D798
330
D762
100
AcDbEntity
  8
1
  6
Continuous
100
AcDbLine
 10
229.3313649999999
 20
52.008535
 30
0.0
 11
229.3313649999999
 21
52.808535
 31
0.0
  0
LINE
  5
D799
330
D762
100
AcDbEntity
  8
1
  6
Continuous
100
AcDbLine
 10
229.3313649999999
 20
52.808535
 30
0.0
 11
219.3313649999999
 21
52.808535
 31
0.0
  0
LINE
  5
D79A
330
D762
100
AcDbEntity
  8
1
  6
Continuous
100
AcDbLine
 10
221.8313649999998
 20
53.56304300000001
 30
0.0
 11
221.8313649999998
 21
52.808535
 31
0.0
  0
LINE
  5
D79B
330
D762
100
AcDbEntity
  8
1
  6
Continuous
100
AcDbLine
 10
221.8313649999998
 20
56.022429
 30
0.0
 11
221.8313649999998
 21
55.57302299999999
 31
0.0
  0
LINE
  5
D79C
330
D762
100
AcDbEntity
  8
1
  6
Continuous
100
AcDbLine
 10
59.522429
 20
163.114211
 30
0.0
 11
59.522429
 21
265.114211
 31
0.0
  0
LINE
  5
D79D
330
D762
100
AcDbEntity
  8
1
  6
Continuous
100
AcDbLine
 10
240.869453
 20
176.114211
 30
0.0
 11
240.869453
 21
252.1142109999999
 31
0.0
  0
LINE
  5
D79E
330
D762
100
AcDbEntity
  8
1
  6
Continuous
100
AcDbLine
 10
233.255669
 20
174.114211
 30
0.0
 11
238.8694529999999
 21
174.114211
 31
0.0
  0
LINE
  5
D79F
330
D762
100
AcDbEntity
  8
1
  6
Continuous
100
AcDbLine
 10
233.255669
 20
254.114211
 30
0.0
 11
238.8694529999999
 21
254.114211
 31
0.0
  0
ARC
  5
D7A0
330
D762
100
AcDbEntity
  8
1
  6
Continuous
100
AcDbCircle
 10
238.8694529999999
 20
176.114211
 30
0.0
 40
2.0
100
AcDbArc
 50
270.0
 51
0.0
  0
ARC
  5
D7A1
330
D762
100
AcDbEntity
  8
1
  6
Continuous
100
AcDbCircle
 10
238.8694529999999
 20
252.1142109999999
 30
0.0
 40
2.0
100
AcDbArc
 50
0.0
 51
90.0
  0
LINE
  5
D7A2
330
D762
100
AcDbEntity
  8
1
  6
Continuous
100
AcDbLine
 10
151.8313649999998
 20
75.522429
 30
0.0
 11
234.8313649999998
 21
75.522429
 31
0.0
  0
ARC
  5
D7A3
330
D762
100
AcDbEntity
  8
1
  6
Continuous
100
AcDbCircle
 10
-273.6686349999998
 20
214.114211
 30
0.0
 40
475.4999999999998
100
AcDbArc
 50
355.2045969999999
 51
4.795403
  0
ARC
  5
D7A4
330
D762
100
AcDbEntity
  8
1
  6
Continuous
100
AcDbCircle
 10
197.177412
 20
253.6142109999999
 30
0.0
 40
3.0
100
AcDbArc
 50
4.795403
 51
90.0
  0
ARC
  5
D7A5
330
D762
100
AcDbEntity
  8
1
  6
Continuous
100
AcDbCircle
 10
197.177412
 20
174.614211
 30
0.0
 40
3.0
100
AcDbArc
 50
270.0
 51
355.2045969999999
  0
LINE
  5
D7A6
330
D762
100
AcDbEntity
  8
4
  6
CENTER
100
AcDbLine
 10
141.0224289999999
 20
214.114211
 30
0.0
 11
245.8694529999999
 21
214.114211
 31
0.0
  0
LINE
  5
D7A7
330
D762
100
AcDbEntity
  8
1
  6
Continuous
100
AcDbLine
 10
161.3313649999998
 20
172.614211
 30
0.0
 11
161.3313649999998
 21
255.6142109999999
 31
0.0
  0
LINE
  5
D7A8
330
D762
100
AcDbEntity
  8
1
  6
Continuous
100
AcDbLine
 10
162.3313649999998
 20
256.614211
 30
0.0
 11
197.177412
 21
256.614211
 31
0.0
  0
LINE
  5
D7A9
330
D762
100
AcDbEntity
  8
1
  6
Continuous
100
AcDbLine
 10
162.3313649999998
 20
171.614211
 30
0.0
 11
197.177412
 21
171.614211
 31
0.0
  0
LINE
  5
D7AA
330
D762
100
AcDbEntity
  8
1
  6
Continuous
100
AcDbLine
 10
163.9014449999999
 20
172.842067
 30
0.0
 11
163.9014449999999
 21
191.082639
 31
0.0
  0
LINE
  5
D7AB
330
D762
100
AcDbEntity
  8
1
  6
Continuous
100
AcDbLine
 10
163.9014449999999
 20
195.047981
 30
0.0
 11
163.9014449999999
 21
211.5891169999999
 31
0.0
  0
LINE
  5
D7AC
330
D762
100
AcDbEntity
  8
1
  6
Continuous
100
AcDbLine
 10
163.9014449999999
 20
216.8007069999999
 30
0.0
 11
163.9014449999999
 21
237.5337759999999
 31
0.0
  0
LINE
  5
D7AD
330
D762
100
AcDbEntity
  8
1
  6
Continuous
100
AcDbLine
 10
163.9014449999999
 20
241.61242
 30
0.0
 11
163.9014449999999
 21
255.094573
 31
0.0
  0
ARC
  5
D7AE
330
D762
100
AcDbEntity
  8
1
  6
Continuous
100
AcDbCircle
 10
162.3313649999998
 20
255.6142109999999
 30
0.0
 40
1.0
100
AcDbArc
 50
90.0
 51
180.0
  0
ARC
  5
D7AF
330
D762
100
AcDbEntity
  8
1
  6
Continuous
100
AcDbCircle
 10
162.3313649999998
 20
172.614211
 30
0.0
 40
1.0
100
AcDbArc
 50
180.0
 51
270.0
  0
LINE
  5
D7B0
330
D762
100
AcDbEntity
  8
4
  6
CENTER
100
AcDbLine
 10
172.8313649999998
 20
269.6979499999998
 30
0.0
 11
172.8313649999998
 21
158.530472
 31
0.0
  0
ARC
  5
D7B1
330
D762
100
AcDbEntity
  8
1
  6
Continuous
100
AcDbCircle
 10
193.3313649999998
 20
663.1142109999998
 30
0.0
 40
500.0
100
AcDbArc
 50
266.101988
 51
273.8980119999999
  0
ARC
  5
D7B2
330
D762
100
AcDbEntity
  8
1
  6
Continuous
100
AcDbCircle
 10
226.913822
 20
170.257012
 30
0.0
 40
6.0
100
AcDbArc
 50
273.8980119999999
 51
354.992968
  0
ARC
  5
D7B3
330
D762
100
AcDbEntity
  8
1
  6
Continuous
100
AcDbCircle
 10
-273.6686349999998
 20
214.114211
 30
0.0
 40
508.4999999999998
100
AcDbArc
 50
354.992968
 51
5.007031999999997
  0
ARC
  5
D7B4
330
D762
100
AcDbEntity
  8
1
  6
Continuous
100
AcDbCircle
 10
226.913822
 20
257.9714099999999
 30
0.0
 40
6.0
100
AcDbArc
 50
5.007031999999997
 51
86.101988
  0
ARC
  5
D7B5
330
D762
100
AcDbEntity
  8
1
  6
Continuous
100
AcDbCircle
 10
193.3313649999998
 20
-234.885789
 30
0.0
 40
500.0
100
AcDbArc
 50
86.101988
 51
93.89801199999999
  0
ARC
  5
D7B6
330
D762
100
AcDbEntity
  8
1
  6
Continuous
100
AcDbCircle
 10
159.748908
 20
257.9714099999999
 30
0.0
 40
6.0
100
AcDbArc
 50
93.89801199999999
 51
174.9929679999999
  0
ARC
  5
D7B7
330
D762
100
AcDbEntity
  8
1
  6
Continuous
100
AcDbCircle
 10
660.331365
 20
214.114211
 30
0.0
 40
508.4999999999998
100
AcDbArc
 50
174.9929679999999
 51
185.007032
  0
ARC
  5
D7B8
330
D762
100
AcDbEntity
  8
1
  6
Continuous
100
AcDbCircle
 10
159.748908
 20
170.257012
 30
0.0
 40
6.0
100
AcDbArc
 50
185.007032
 51
266.101988
  0
LINE
  5
D7B9
330
D762
100
AcDbEntity
  8
1
  6
Continuous
100
AcDbLine
 10
161.3313649999998
 20
171.114211
 30
0.0
 11
221.7190919999999
 21
171.114211
 31
0.0
  0
ARC
  5
D7BA
330
D762
100
AcDbEntity
  8
1
  6
Continuous
100
AcDbCircle
 10
221.7190919999999
 20
174.114211
 30
0.0
 40
3.0
100
AcDbArc
 50
270.0
 51
355.3836769999999
  0
ARC
  5
D7BB
330
D762
100
AcDbEntity
  8
1
  6
Continuous
100
AcDbCircle
 10
-273.6686349999998
 20
214.114211
 30
0.0
 40
500.0
100
AcDbArc
 50
355.3836769999999
 51
4.616323
  0
ARC
  5
D7BC
330
D762
100
AcDbEntity
  8
1
  6
Continuous
100
AcDbCircle
 10
221.7190919999999
 20
254.114211
 30
0.0
 40
3.0
100
AcDbArc
 50
4.616323
 51
90.0
  0
LINE
  5
D7BD
330
D762
100
AcDbEntity
  8
1
  6
Continuous
100
AcDbLine
 10
161.3313649999998
 20
257.114211
 30
0.0
 11
221.7190919999999
 21
257.114211
 31
0.0
  0
ARC
  5
D7BE
330
D762
100
AcDbEntity
  8
1
  6
Continuous
100
AcDbCircle
 10
161.3313649999998
 20
256.614211
 30
0.0
 40
0.5
100
AcDbArc
 50
90.0
 51
180.0
  0
LINE
  5
D7BF
330
D762
100
AcDbEntity
  8
1
  6
Continuous
100
AcDbLine
 10
160.8313649999998
 20
171.614211
 30
0.0
 11
160.8313649999998
 21
256.614211
 31
0.0
  0
ARC
  5
D7C0
330
D762
100
AcDbEntity
  8
1
  6
Continuous
100
AcDbCircle
 10
161.3313649999998
 20
171.614211
 30
0.0
 40
0.5
100
AcDbArc
 50
180.0
 51
270.0
  0
LINE
  5
D7C1
330
D762
100
AcDbEntity
  8
1
  6
Continuous
100
AcDbLine
 10
178.8313649999999
 20
171.114211
 30
0.0
 11
178.8313649999999
 21
171.614211
 31
0.0
  0
LINE
  5
D7C2
330
D762
100
AcDbEntity
  8
1
  6
Continuous
100
AcDbLine
 10
178.8313649999999
 20
256.614211
 30
0.0
 11
178.8313649999999
 21
257.114211
 31
0.0
  0
LINE
  5
D7C3
330
D762
100
AcDbEntity
  8
1
  6
Continuous
100
AcDbLine
 10
166.8313649999998
 20
171.114211
 30
0.0
 11
166.8313649999998
 21
171.614211
 31
0.0
  0
LINE
  5
D7C4
330
D762
100
AcDbEntity
  8
1
  6
Continuous
100
AcDbLine
 10
166.8313649999998
 20
256.614211
 30
0.0
 11
166.8313649999998
 21
257.114211
 31
0.0
  0
LINE
  5
D7C5
330
D762
100
AcDbEntity
  8
1
  6
Continuous
100
AcDbLine
 10
192.8313649999998
 20
171.114211
 30
0.0
 11
192.8313649999998
 21
171.614211
 31
0.0
  0
LINE
  5
D7C6
330
D762
100
AcDbEntity
  8
1
  6
Continuous
100
AcDbLine
 10
192.8313649999998
 20
257.114211
 30
0.0
 11
192.8313649999998
 21
256.614211
 31
0.0
  0
LINE
  5
D7C7
330
D762
100
AcDbEntity
  8
1
  6
Continuous
100
AcDbLine
 10
158.8313649999998
 20
48.522429
 30
0.0
 11
219.3313649999999
 21
48.522429
 31
0.0
  0
LINE
  5
D7C8
330
D762
100
AcDbEntity
  8
1
  6
Continuous
100
AcDbLine
 10
158.8313649999998
 20
50.52242899999999
 30
0.0
 11
219.3313649999999
 21
50.52242899999999
 31
0.0
  0
LINE
  5
D7C9
330
D762
100
AcDbEntity
  8
1
  6
Continuous
100
AcDbLine
 10
219.3313649999999
 20
50.52242899999999
 30
0.0
 11
219.3313649999999
 21
48.522429
 31
0.0
  0
LINE
  5
D7CA
330
D762
100
AcDbEntity
  8
1
  6
Continuous
100
AcDbLine
 10
195.734614
 20
53.022429
 30
0.0
 11
195.8313649999998
 21
53.022429
 31
0.0
  0
LINE
  5
D7CB
330
D762
100
AcDbEntity
  8
1
  6
Continuous
100
AcDbLine
 10
191.268449
 20
58.022429
 30
0.0
 11
194.423581
 21
58.022429
 31
0.0
  0
LINE
  5
D7CC
330
D762
100
AcDbEntity
  8
1
  6
Continuous
100
AcDbLine
 10
158.8313649999998
 20
75.522429
 30
0.0
 11
158.8313649999998
 21
48.522429
 31
0.0
  0
LINE
  5
D7CD
330
D762
100
AcDbEntity
  8
1
  6
Continuous
100
AcDbLine
 10
151.8313649999998
 20
79.59144000000001
 30
0.0
 11
151.8313649999998
 21
75.522429
 31
0.0
  0
LINE
  5
D7CE
330
D762
100
AcDbEntity
  8
1
  6
Continuous
100
AcDbLine
 10
151.8313649999998
 20
77.522429
 30
0.0
 11
234.8313649999998
 21
77.522429
 31
0.0
  0
ARC
  5
D7CF
330
D762
100
AcDbEntity
  8
1
  6
Continuous
100
AcDbCircle
 10
152.8313649999998
 20
79.59144000000001
 30
0.0
 40
1.0
100
AcDbArc
 50
94.04718499999999
 51
180.0
  0
ARC
  5
D7D0
330
D762
100
AcDbEntity
  8
1
  6
Continuous
100
AcDbCircle
 10
193.3313649999998
 20
-492.8109039999998
 30
0.0
 40
574.833333
100
AcDbArc
 50
85.95281500000002
 51
94.04718499999999
  0
LINE
  5
D7D1
330
D762
100
AcDbEntity
  8
4
  6
CENTER
100
AcDbLine
 10
172.8313649999998
 20
79.522429
 30
0.0
 11
172.8313649999998
 21
68.522429
 31
0.0
  0
LINE
  5
D7D2
330
D762
100
AcDbEntity
  8
4
  6
CENTER
100
AcDbLine
 10
178.3313649999998
 20
74.022429
 30
0.0
 11
167.3313649999998
 21
74.022429
 31
0.0
  0
ARC
  5
D7D3
330
D762
100
AcDbEntity
  8
1
  6
Continuous
100
AcDbCircle
 10
211.3313649999998
 20
77.72242900000001
 30
0.0
 40
17.0
100
AcDbArc
 50
270.0
 51
352.5643979999999
  0
LINE
  5
D7D4
330
D762
100
AcDbEntity
  8
1
  6
Continuous
100
AcDbLine
 10
234.8313649999998
 20
79.59144000000001
 30
0.0
 11
234.8313649999998
 21
75.522429
 31
0.0
  0
ARC
  5
D7D5
330
D762
100
AcDbEntity
  8
1
  6
Continuous
100
AcDbCircle
 10
233.8313649999999
 20
79.59144000000001
 30
0.0
 40
1.0
100
AcDbArc
 50
0.0
 51
85.95281500000002
  0
LINE
  5
D7D6
330
D762
100
AcDbEntity
  8
1
  6
Continuous
100
AcDbLine
 10
158.8313649999998
 20
60.72242899999999
 30
0.0
 11
211.3313649999998
 21
60.72242899999999
 31
0.0
  0
LINE
  5
D7D7
330
D762
100
AcDbEntity
  8
1
  6
Continuous
100
AcDbLine
 10
213.3313649999998
 20
56.022429
 30
0.0
 11
226.3313649999998
 21
56.022429
 31
0.0
  0
LINE
  5
D7D8
330
D762
100
AcDbEntity
  8
1
  6
Continuous
100
AcDbLine
 10
218.3313649999998
 20
62.23049599999999
 30
0.0
 11
218.3313649999998
 21
50.52242899999999
 31
0.0
  0
LINE
  5
D7D9
330
D762
100
AcDbEntity
  8
1
  6
Continuous
100
AcDbLine
 10
208.432385
 20
54.72242900000001
 30
0.0
 11
208.432385
 21
60.72242899999999
 31
0.0
  0
LINE
  5
D7DA
330
D762
100
AcDbEntity
  8
1
  6
Continuous
100
AcDbLine
 10
205.730344
 20
54.72242900000001
 30
0.0
 11
208.432385
 21
54.72242900000001
 31
0.0
  0
LINE
  5
D7DB
330
D762
100
AcDbEntity
  8
1
  6
Continuous
100
AcDbLine
 10
205.730344
 20
54.72242900000001
 30
0.0
 11
205.730344
 21
60.72242899999999
 31
0.0
  0
LINE
  5
D7DC
330
D762
100
AcDbEntity
  8
1
  6
Continuous
100
AcDbLine
 10
205.8313649999998
 20
54.72242900000001
 30
0.0
 11
205.8313649999998
 21
53.022429
 31
0.0
  0
LINE
  5
D7DD
330
D762
100
AcDbEntity
  8
1
  6
Continuous
100
AcDbLine
 10
195.8313649999998
 20
53.022429
 30
0.0
 11
205.8313649999998
 21
53.022429
 31
0.0
  0
LINE
  5
D7DE
330
D762
100
AcDbEntity
  8
1
  6
Continuous
100
AcDbLine
 10
203.8313649999998
 20
53.022429
 30
0.0
 11
203.8313649999998
 21
52.822429
 31
0.0
  0
LINE
  5
D7DF
330
D762
100
AcDbEntity
  8
1
  6
Continuous
100
AcDbLine
 10
197.8313649999998
 20
53.022429
 30
0.0
 11
197.8313649999998
 21
52.822429
 31
0.0
  0
LINE
  5
D7E0
330
D762
100
AcDbEntity
  8
1
  6
Continuous
100
AcDbLine
 10
195.8313649999998
 20
57.275992
 30
0.0
 11
195.8313649999998
 21
53.022429
 31
0.0
  0
LINE
  5
D7E1
330
D762
100
AcDbEntity
  8
1
  6
Continuous
100
AcDbLine
 10
195.932385
 20
57.22242900000001
 30
0.0
 11
195.932385
 21
60.72242899999999
 31
0.0
  0
LINE
  5
D7E2
330
D762
100
AcDbEntity
  8
1
  6
Continuous
100
AcDbLine
 10
191.0684489999999
 20
58.522429
 30
0.0
 11
193.4805779999998
 21
58.522429
 31
0.0
  0
LINE
  5
D7E3
330
D762
100
AcDbEntity
  8
4
  6
CENTER
100
AcDbLine
 10
200.8313649999998
 20
54.652494
 30
0.0
 11
200.8313649999998
 21
45.862328
 31
0.0
  0
LINE
  5
D7E4
330
D762
100
AcDbEntity
  8
1
  6
Continuous
100
AcDbLine
 10
199.431365
 20
48.522429
 30
0.0
 11
202.231365
 21
48.522429
 31
0.0
  0
LINE
  5
D7E5
330
D762
100
AcDbEntity
  8
1
  6
Continuous
100
AcDbLine
 10
207.8313649999998
 20
54.72242900000001
 30
0.0
 11
207.8313649999998
 21
50.52242899999999
 31
0.0
  0
ARC
  5
D7E6
330
D762
100
AcDbEntity
  8
1
  6
Continuous
100
AcDbCircle
 10
172.8313649999998
 20
74.022429
 30
0.0
 40
2.5
100
AcDbArc
 50
143.130102
 51
36.869898
  0
LINE
  5
D7E7
330
D762
100
AcDbEntity
  8
1
  6
Continuous
100
AcDbLine
 10
219.3313649999999
 20
50.52242899999999
 30
0.0
 11
220.8738939999999
 21
50.52242899999999
 31
0.0
  0
LINE
  5
D7E8
330
D762
100
AcDbEntity
  8
1
  6
Continuous
100
AcDbLine
 10
160.3313649999998
 20
60.72242899999999
 30
0.0
 11
160.3313649999998
 21
50.52242899999999
 31
0.0
  0
LINE
  5
D7E9
330
D762
100
AcDbEntity
  8
1
  6
Continuous
100
AcDbLine
 10
170.3313649999998
 20
60.72242899999999
 30
0.0
 11
170.3313649999998
 21
50.52242899999999
 31
0.0
  0
LINE
  5
D7EA
330
D762
100
AcDbEntity
  8
1
  6
Continuous
100
AcDbLine
 10
208.331365
 20
54.72242900000001
 30
0.0
 11
208.331365
 21
50.52242899999999
 31
0.0
  0
LINE
  5
D7EB
330
D762
100
AcDbEntity
  8
1
  6
Continuous
100
AcDbLine
 10
189.3313649999998
 20
60.72242899999999
 30
0.0
 11
195.932385
 21
57.22242900000001
 31
0.0
  0
LINE
  5
D7EC
330
D762
100
AcDbEntity
  8
1
  6
Continuous
100
AcDbLine
 10
221.8313649999998
 20
53.56304300000001
 30
0.0
 11
221.8313649999998
 21
52.808535
 31
0.0
  0
LINE
  5
D7ED
330
D762
100
AcDbEntity
  8
1
  6
Continuous
100
AcDbLine
 10
221.8313649999998
 20
56.022429
 30
0.0
 11
221.8313649999998
 21
55.57302299999999
 31
0.0
  0
LINE
  5
D7EE
330
D762
100
AcDbEntity
  8
1
  6
Continuous
100
AcDbLine
 10
218.3313649999998
 20
53.913134
 30
0.0
 11
229.2767459999998
 21
52.818312
 31
0.0
  0
LINE
  5
D7EF
330
D762
100
AcDbEntity
  8
1
  6
Continuous
100
AcDbLine
 10
218.5304229999999
 20
55.90320300000001
 30
0.0
 11
218.3313649999998
 21
53.913134
 31
0.0
  0
LINE
  5
D7F0
330
D762
100
AcDbEntity
  8
1
  6
Continuous
100
AcDbLine
 10
218.5304229999999
 20
55.90320300000001
 30
0.0
 11
229.475804
 21
54.80838099999999
 31
0.0
  0
ARC
  5
D7F1
330
D762
100
AcDbEntity
  8
1
  6
Continuous
100
AcDbCircle
 10
229.475804
 20
54.80838099999999
 30
0.0
 40
2.0
100
AcDbArc
 50
264.287937
 51
354.287937
  0
LINE
  5
D7F2
330
D762
100
AcDbEntity
  8
1
  6
Continuous
100
AcDbLine
 10
229.475804
 20
54.80838099999999
 30
0.0
 11
231.217566
 21
72.22148699999998
 31
0.0
  0
LINE
  5
D7F3
330
D762
100
AcDbEntity
  8
1
  6
Continuous
100
AcDbLine
 10
231.465874
 20
54.60932299999999
 30
0.0
 11
233.207635
 21
72.022429
 31
0.0
  0
ARC
  5
D7F4
330
D762
100
AcDbEntity
  8
1
  6
Continuous
100
AcDbCircle
 10
233.207635
 20
72.022429
 30
0.0
 40
2.0
100
AcDbArc
 50
84.28793699999998
 51
174.2879369999999
  0
LINE
  5
D7F5
330
D762
100
AcDbEntity
  8
1
  6
Continuous
100
AcDbLine
 10
233.406694
 20
74.01249799999998
 30
0.0
 11
240.869453
 21
73.26602900000001
 31
0.0
  0
LINE
  5
D7F6
330
D762
100
AcDbEntity
  8
1
  6
Continuous
100
AcDbLine
 10
240.869453
 20
73.26602900000001
 30
0.0
 11
240.670395
 21
71.27596
 31
0.0
  0
LINE
  5
D7F7
330
D762
100
AcDbEntity
  8
1
  6
Continuous
100
AcDbLine
 10
233.207635
 20
72.022429
 30
0.0
 11
240.670395
 21
71.27596
 31
0.0
  0
LINE
  5
D7F8
330
D762
100
AcDbEntity
  8
4
  6
CENTER
100
AcDbLine
 10
24.340847
 20
214.114211
 30
0.0
 11
71.022429
 21
214.114211
 31
0.0
  0
LINE
  5
D7F9
330
D762
100
AcDbEntity
  8
1
  6
Continuous
100
AcDbLine
 10
66.022429
 20
164.114211
 30
0.0
 11
66.022429
 21
264.114211
 31
0.0
  0
LINE
  5
D7FA
330
D762
100
AcDbEntity
  8
1
  6
Continuous
100
AcDbLine
 10
61.522429
 20
163.114211
 30
0.0
 11
61.522429
 21
265.114211
 31
0.0
  0
LINE
  5
D7FB
330
D762
100
AcDbEntity
  8
1
  6
Continuous
100
AcDbLine
 10
65.022429
 20
265.114211
 30
0.0
 11
59.522429
 21
265.114211
 31
0.0
  0
LINE
  5
D7FC
330
D762
100
AcDbEntity
  8
1
  6
Continuous
100
AcDbLine
 10
65.022429
 20
163.114211
 30
0.0
 11
59.522429
 21
163.114211
 31
0.0
  0
LINE
  5
D7FD
330
D762
100
AcDbEntity
  8
1
  6
Continuous
100
AcDbLine
 10
52.72242900000001
 20
260.114211
 30
0.0
 11
59.522429
 21
260.114211
 31
0.0
  0
LINE
  5
D7FE
330
D762
100
AcDbEntity
  8
1
  6
Continuous
100
AcDbLine
 10
52.72242900000001
 20
168.114211
 30
0.0
 11
59.522429
 21
168.114211
 31
0.0
  0
ARC
  5
D7FF
330
D762
100
AcDbEntity
  8
1
  6
Continuous
100
AcDbCircle
 10
52.72242900000001
 20
252.1142109999999
 30
0.0
 40
8.0
100
AcDbArc
 50
90.0
 51
165.5224879999998
  0
ARC
  5
D800
330
D762
100
AcDbEntity
  8
1
  6
Continuous
100
AcDbCircle
 10
52.72242900000001
 20
176.114211
 30
0.0
 40
8.0
100
AcDbArc
 50
194.4775119999999
 51
270.0
  0
ARC
  5
D801
330
D762
100
AcDbEntity
  8
1
  6
Continuous
100
AcDbCircle
 10
65.022429
 20
264.114211
 30
0.0
 40
1.0
100
AcDbArc
 50
0.0
 51
90.0
  0
ARC
  5
D802
330
D762
100
AcDbEntity
  8
1
  6
Continuous
100
AcDbCircle
 10
65.022429
 20
164.114211
 30
0.0
 40
1.0
100
AcDbArc
 50
270.0
 51
0.0
  0
ARC
  5
D803
330
D762
100
AcDbEntity
  8
1
  6
Continuous
100
AcDbCircle
 10
172.8313649999998
 20
74.022429
 30
0.0
 40
2.549999999999998
100
AcDbArc
 50
143.968121
 51
36.03187899999999
  0
LINE
  5
D804
330
D762
100
AcDbEntity
  8
4
  6
CENTER
100
AcDbLine
 10
224.3313649999998
 20
59.15139100000001
 30
0.0
 11
224.3313649999998
 21
45.79499099999998
 31
0.0
  0
LINE
  5
D805
330
D762
100
AcDbEntity
  8
4
  6
CENTER
100
AcDbLine
 10
165.3313649999998
 20
53.522429
 30
0.0
 11
165.3313649999998
 21
45.52242899999998
 31
0.0
  0
LINE
  5
D806
330
D762
100
AcDbEntity
  8
4
  6
CENTER
100
AcDbLine
 10
213.3313649999998
 20
53.522429
 30
0.0
 11
213.3313649999998
 21
45.52242899999998
 31
0.0
  0
LINE
  5
D807
330
D762
100
AcDbEntity
  8
1
  6
Continuous
100
AcDbLine
 10
225.3313649999999
 20
51.00853499999999
 30
0.0
 11
224.3313649999998
 21
52.008535
 31
0.0
  0
LINE
  5
D808
330
D762
100
AcDbEntity
  8
1
  6
Continuous
100
AcDbLine
 10
224.3313649999998
 20
51.00853499999999
 30
0.0
 11
223.3313649999999
 21
52.008535
 31
0.0
  0
LINE
  5
D809
330
D762
100
AcDbEntity
  8
2
  6
Continuous
100
AcDbLine
 10
225.9523649999999
 20
56.022429
 30
0.0
 11
225.9523649999999
 21
55.16081599999999
 31
0.0
  0
LINE
  5
D80A
330
D762
100
AcDbEntity
  8
2
  6
Continuous
100
AcDbLine
 10
222.7942389999999
 20
56.022429
 30
0.0
 11
222.7942389999999
 21
55.476711
 31
0.0
  0
LINE
  5
D80B
330
D762
100
AcDbEntity
  8
2
  6
Continuous
100
AcDbLine
 10
225.9523649999999
 20
53.150836
 30
0.0
 11
225.9523649999999
 21
52.808535
 31
0.0
  0
LINE
  5
D80C
330
D762
100
AcDbEntity
  8
2
  6
Continuous
100
AcDbLine
 10
222.710365
 20
53.47512
 30
0.0
 11
222.710365
 21
52.808535
 31
0.0
  0
LINE
  5
D80D
330
D762
100
AcDbEntity
  8
1
  6
Continuous
100
AcDbLine
 10
228.3313649999998
 20
75.522429
 30
0.0
 11
228.3313649999998
 21
58.022429
 31
0.0
  0
ARC
  5
D80E
330
D762
100
AcDbEntity
  8
1
  6
Continuous
100
AcDbCircle
 10
226.3313649999998
 20
58.022429
 30
0.0
 40
2.0
100
AcDbArc
 50
270.0
 51
0.0
  0
LINE
  5
D80F
330
D762
100
AcDbEntity
  8
1
  6
Continuous
100
AcDbLine
 10
325.3694529999999
 20
163.114211
 30
0.0
 11
325.3694529999999
 21
265.114211
 31
0.0
  0
LINE
  5
D810
330
D762
100
AcDbEntity
  8
1
  6
Continuous
100
AcDbLine
 10
320.8694529999998
 20
164.114211
 30
0.0
 11
320.8694529999998
 21
264.114211
 31
0.0
  0
LINE
  5
D811
330
D762
100
AcDbEntity
  8
1
  6
Continuous
100
AcDbLine
 10
354.3694529999998
 20
259.114211
 30
0.0
 11
354.3694529999998
 21
240.542447
 31
0.0
  0
LINE
  5
D812
330
D762
100
AcDbEntity
  8
1
  6
Continuous
100
AcDbLine
 10
327.3694529999999
 20
163.114211
 30
0.0
 11
327.3694529999999
 21
265.114211
 31
0.0
  0
LINE
  5
D813
330
D762
100
AcDbEntity
  8
1
  6
Continuous
100
AcDbLine
 10
352.3694529999998
 20
169.114211
 30
0.0
 11
354.3694529999998
 21
169.114211
 31
0.0
  0
LINE
  5
D814
330
D762
100
AcDbEntity
  8
1
  6
Continuous
100
AcDbLine
 10
334.1694529999998
 20
168.114211
 30
0.0
 11
327.3694529999999
 21
168.114211
 31
0.0
  0
ARC
  5
D815
330
D762
100
AcDbEntity
  8
1
  6
Continuous
100
AcDbCircle
 10
321.8694529999999
 20
164.114211
 30
0.0
 40
1.0
100
AcDbArc
 50
180.0
 51
270.0
  0
LINE
  5
D816
330
D762
100
AcDbEntity
  8
1
  6
Continuous
100
AcDbLine
 10
321.8694529999999
 20
163.114211
 30
0.0
 11
327.3694529999999
 21
163.114211
 31
0.0
  0
LINE
  5
D817
330
D762
100
AcDbEntity
  8
4
  6
CENTER
100
AcDbLine
 10
362.551035
 20
214.114211
 30
0.0
 11
315.8694529999999
 21
214.114211
 31
0.0
  0
LINE
  5
D818
330
D762
100
AcDbEntity
  8
4
  6
CENTER
100
AcDbLine
 10
357.3694529999999
 20
184.114211
 30
0.0
 11
351.3694529999999
 21
184.114211
 31
0.0
  0
LINE
  5
D819
330
D762
100
AcDbEntity
  8
4
  6
CENTER
100
AcDbLine
 10
357.3694529999999
 20
196.614211
 30
0.0
 11
347.2167089999999
 21
196.614211
 31
0.0
  0
LINE
  5
D81A
330
D762
100
AcDbEntity
  8
1
  6
Continuous
100
AcDbLine
 10
352.3694529999998
 20
259.114211
 30
0.0
 11
354.3694529999998
 21
259.114211
 31
0.0
  0
LINE
  5
D81B
330
D762
100
AcDbEntity
  8
4
  6
CENTER
100
AcDbLine
 10
357.3694529999999
 20
244.1142109999999
 30
0.0
 11
351.3694529999999
 21
244.1142109999999
 31
0.0
  0
LINE
  5
D81C
330
D762
100
AcDbEntity
  8
4
  6
CENTER
100
AcDbLine
 10
357.3694529999999
 20
231.6142109999999
 30
0.0
 11
347.2167089999999
 21
231.6142109999999
 31
0.0
  0
LINE
  5
D81D
330
D762
100
AcDbEntity
  8
1
  6
Continuous
100
AcDbLine
 10
334.1694529999998
 20
260.114211
 30
0.0
 11
327.3694529999999
 21
260.114211
 31
0.0
  0
ARC
  5
D81E
330
D762
100
AcDbEntity
  8
1
  6
Continuous
100
AcDbCircle
 10
334.1694529999998
 20
252.1142109999999
 30
0.0
 40
8.0
100
AcDbArc
 50
14.47751199999999
 51
90.0
  0
ARC
  5
D81F
330
D762
100
AcDbEntity
  8
1
  6
Continuous
100
AcDbCircle
 10
321.8694529999999
 20
264.114211
 30
0.0
 40
1.0
100
AcDbArc
 50
90.0
 51
180.0
  0
LINE
  5
D820
330
D762
100
AcDbEntity
  8
1
  6
Continuous
100
AcDbLine
 10
321.8694529999999
 20
265.114211
 30
0.0
 11
327.3694529999999
 21
265.114211
 31
0.0
  0
LINE
  5
D821
330
D762
100
AcDbEntity
  8
4
  6
CENTER
100
AcDbLine
 10
537.398059
 20
214.114211
 30
0.0
 11
432.551035
 21
214.114211
 31
0.0
  0
LINE
  5
D822
330
D762
100
AcDbEntity
  8
1
  6
Continuous
100
AcDbLine
 10
458.0891229999998
 20
254.114211
 30
0.0
 11
439.5510349999998
 21
254.114211
 31
0.0
  0
LINE
  5
D823
330
D762
100
AcDbEntity
  8
1
  6
Continuous
100
AcDbLine
 10
458.0891229999998
 20
174.114211
 30
0.0
 11
439.5510349999998
 21
174.114211
 31
0.0
  0
ARC
  5
D824
330
D762
100
AcDbEntity
  8
1
  6
Continuous
100
AcDbCircle
 10
952.089123
 20
214.114211
 30
0.0
 40
508.4999999999998
100
AcDbArc
 50
174.9929679999999
 51
175.4882959999999
  0
LINE
  5
D825
330
D762
100
AcDbEntity
  8
4
  6
CENTER
100
AcDbLine
 10
505.5891229999998
 20
269.6979499999998
 30
0.0
 11
505.5891229999998
 21
158.530472
 31
0.0
  0
ARC
  5
D826
330
D762
100
AcDbEntity
  8
1
  6
Continuous
100
AcDbCircle
 10
485.089123
 20
663.1142109999998
 30
0.0
 40
500.0
100
AcDbArc
 50
266.101988
 51
270.0645049999998
  0
LINE
  5
D827
330
D762
100
AcDbEntity
  8
1
  6
Continuous
100
AcDbLine
 10
519.5891229999999
 20
169.114211
 30
0.0
 11
459.0891229999998
 21
169.114211
 31
0.0
  0
ARC
  5
D828
330
D762
100
AcDbEntity
  8
1
  6
Continuous
100
AcDbCircle
 10
518.6715799999998
 20
170.257012
 30
0.0
 40
6.0
100
AcDbArc
 50
273.8980119999999
 51
355.006257
  0
ARC
  5
D829
330
D762
100
AcDbEntity
  8
1
  6
Continuous
100
AcDbCircle
 10
451.506666
 20
170.257012
 30
0.0
 40
6.0
100
AcDbArc
 50
185.007032
 51
266.101988
  0
ARC
  5
D82A
330
D762
100
AcDbEntity
  8
1
  6
Continuous
100
AcDbCircle
 10
485.089123
 20
-234.885789
 30
0.0
 40
500.0
100
AcDbArc
 50
86.101988
 51
88.56024399999999
  0
LINE
  5
D82B
330
D762
100
AcDbEntity
  8
1
  6
Continuous
100
AcDbLine
 10
519.5891229999999
 20
259.114211
 30
0.0
 11
459.0891229999998
 21
259.114211
 31
0.0
  0
ARC
  5
D82C
330
D762
100
AcDbEntity
  8
1
  6
Continuous
100
AcDbCircle
 10
518.6715799999998
 20
257.9714099999999
 30
0.0
 40
6.0
100
AcDbArc
 50
4.993743
 51
86.101988
  0
ARC
  5
D82D
330
D762
100
AcDbEntity
  8
1
  6
Continuous
100
AcDbCircle
 10
451.506666
 20
257.9714099999999
 30
0.0
 40
6.0
100
AcDbArc
 50
93.89801199999999
 51
174.9929679999999
  0
LINE
  5
D82E
330
D762
100
AcDbEntity
  8
1
  6
Continuous
100
AcDbLine
 10
437.5510349999998
 20
176.114211
 30
0.0
 11
437.5510349999998
 21
252.1142109999999
 31
0.0
  0
ARC
  5
D82F
330
D762
100
AcDbEntity
  8
1
  6
Continuous
100
AcDbCircle
 10
439.5510349999998
 20
176.114211
 30
0.0
 40
2.0
100
AcDbArc
 50
180.0
 51
270.0
  0
ARC
  5
D830
330
D762
100
AcDbEntity
  8
1
  6
Continuous
100
AcDbCircle
 10
439.5510349999998
 20
252.1142109999999
 30
0.0
 40
2.0
100
AcDbArc
 50
90.0
 51
180.0
  0
LINE
  5
D831
330
D762
100
AcDbEntity
  8
1
  6
Continuous
100
AcDbLine
 10
352.3694529999998
 20
259.114211
 30
0.0
 11
352.3694529999998
 21
242.5716959999999
 31
0.0
  0
LINE
  5
D832
330
D762
100
AcDbEntity
  8
1
  6
Continuous
100
AcDbLine
 10
328.8694529999999
 20
254.114211
 30
0.0
 11
352.3694529999998
 21
254.114211
 31
0.0
  0
LINE
  5
D833
330
D762
100
AcDbEntity
  8
1
  6
Continuous
100
AcDbLine
 10
328.8694529999999
 20
174.114211
 30
0.0
 11
352.3694529999998
 21
174.114211
 31
0.0
  0
ARC
  5
D834
330
D762
100
AcDbEntity
  8
1
  6
Continuous
100
AcDbCircle
 10
334.1694529999998
 20
176.114211
 30
0.0
 40
8.0
100
AcDbArc
 50
270.0
 51
345.522488
  0
LINE
  5
D835
330
D762
100
AcDbEntity
  8
1
  6
Continuous
100
AcDbLine
 10
351.8835009999999
 20
240.1142109999999
 30
0.0
 11
350.8835009999998
 21
239.114211
 31
0.0
  0
LINE
  5
D836
330
D762
100
AcDbEntity
  8
1
  6
Continuous
100
AcDbLine
 10
351.8835009999999
 20
239.114211
 30
0.0
 11
350.8835009999998
 21
238.1142109999999
 31
0.0
  0
LINE
  5
D837
330
D762
100
AcDbEntity
  8
1
  6
Continuous
100
AcDbLine
 10
351.8835009999999
 20
242.9142109999999
 30
0.0
 11
350.8835009999998
 21
242.9142109999999
 31
0.0
  0
LINE
  5
D838
330
D762
100
AcDbEntity
  8
1
  6
Continuous
100
AcDbLine
 10
351.8835009999999
 20
235.3142109999998
 30
0.0
 11
350.8835009999998
 21
235.3142109999998
 31
0.0
  0
ARC
  5
D839
330
D762
100
AcDbEntity
  8
1
  6
Continuous
100
AcDbCircle
 10
352.889613
 20
237.0071999999999
 30
0.0
 40
1.3
100
AcDbArc
 50
275.0
 51
344.1191499999998
  0
LINE
  5
D83A
330
D762
100
AcDbEntity
  8
1
  6
Continuous
100
AcDbLine
 10
351.8835009999999
 20
242.9142109999999
 30
0.0
 11
351.8835009999999
 21
235.3142109999998
 31
0.0
  0
LINE
  5
D83B
330
D762
100
AcDbEntity
  8
1
  6
Continuous
100
AcDbLine
 10
351.8835009999999
 20
235.6142109999999
 30
0.0
 11
353.0029160000001
 21
235.712147
 31
0.0
  0
ARC
  5
D83C
330
D762
100
AcDbEntity
  8
1
  6
Continuous
100
AcDbCircle
 10
352.889613
 20
241.221222
 30
0.0
 40
1.3
100
AcDbArc
 50
15.88085
 51
85.0
  0
LINE
  5
D83D
330
D762
100
AcDbEntity
  8
1
  6
Continuous
100
AcDbLine
 10
351.8835009999999
 20
242.6142109999999
 30
0.0
 11
353.0029160000001
 21
242.516275
 31
0.0
  0
ARC
  5
D83E
330
D762
100
AcDbEntity
  8
1
  6
Continuous
100
AcDbCircle
 10
345.483501
 20
239.114211
 30
0.0
 40
9.0
100
AcDbArc
 50
344.1191499999998
 51
15.88085
  0
LINE
  5
D83F
330
D762
100
AcDbEntity
  8
1
  6
Continuous
100
AcDbLine
 10
350.0835009999998
 20
244.1142109999999
 30
0.0
 11
350.0835009999998
 21
234.1142109999999
 31
0.0
  0
LINE
  5
D840
330
D762
100
AcDbEntity
  8
1
  6
Continuous
100
AcDbLine
 10
350.8835009999998
 20
244.1142109999999
 30
0.0
 11
350.8835009999998
 21
234.1142109999999
 31
0.0
  0
LINE
  5
D841
330
D762
100
AcDbEntity
  8
1
  6
Continuous
100
AcDbLine
 10
350.8835009999998
 20
234.1142109999999
 30
0.0
 11
350.0835009999998
 21
234.1142109999999
 31
0.0
  0
LINE
  5
D842
330
D762
100
AcDbEntity
  8
1
  6
Continuous
100
AcDbLine
 10
350.8835009999998
 20
244.1142109999999
 30
0.0
 11
350.0835009999998
 21
244.1142109999999
 31
0.0
  0
LINE
  5
D843
330
D762
100
AcDbEntity
  8
1
  6
Continuous
100
AcDbLine
 10
329.625853
 20
174.114211
 30
0.0
 11
329.625853
 21
254.114211
 31
0.0
  0
LINE
  5
D844
330
D762
100
AcDbEntity
  8
1
  6
Continuous
100
AcDbLine
 10
331.615922
 20
174.114211
 30
0.0
 11
331.615922
 21
254.114211
 31
0.0
  0
LINE
  5
D845
330
D762
100
AcDbEntity
  8
1
  6
Continuous
100
AcDbLine
 10
328.8694529999999
 20
174.114211
 30
0.0
 11
328.8694529999999
 21
254.114211
 31
0.0
  0
LINE
  5
D846
330
D762
100
AcDbEntity
  8
1
  6
Continuous
100
AcDbLine
 10
350.0835009999998
 20
174.114211
 30
0.0
 11
350.0835009999998
 21
254.114211
 31
0.0
  0
LINE
  5
D847
330
D762
100
AcDbEntity
  8
4
  6
CENTER
100
AcDbLine
 10
357.3694529999999
 20
239.114211
 30
0.0
 11
344.1941529999998
 21
239.114211
 31
0.0
  0
LINE
  5
D848
330
D762
100
AcDbEntity
  8
1
  6
Continuous
100
AcDbLine
 10
352.3694529999998
 20
235.6567259999999
 30
0.0
 11
352.3694529999998
 21
192.571696
 31
0.0
  0
LINE
  5
D849
330
D762
100
AcDbEntity
  8
1
  6
Continuous
100
AcDbLine
 10
354.3694529999998
 20
237.685975
 30
0.0
 11
354.3694529999998
 21
190.5424469999999
 31
0.0
  0
LINE
  5
D84A
330
D762
100
AcDbEntity
  8
1
  6
Continuous
100
AcDbLine
 10
351.8835009999999
 20
189.114211
 30
0.0
 11
350.8835009999998
 21
188.114211
 31
0.0
  0
LINE
  5
D84B
330
D762
100
AcDbEntity
  8
1
  6
Continuous
100
AcDbLine
 10
351.8835009999999
 20
190.114211
 30
0.0
 11
350.8835009999998
 21
189.114211
 31
0.0
  0
LINE
  5
D84C
330
D762
100
AcDbEntity
  8
1
  6
Continuous
100
AcDbLine
 10
351.8835009999999
 20
185.314211
 30
0.0
 11
350.8835009999998
 21
185.314211
 31
0.0
  0
LINE
  5
D84D
330
D762
100
AcDbEntity
  8
1
  6
Continuous
100
AcDbLine
 10
350.8835009999998
 20
184.114211
 30
0.0
 11
350.0835009999998
 21
184.114211
 31
0.0
  0
LINE
  5
D84E
330
D762
100
AcDbEntity
  8
1
  6
Continuous
100
AcDbLine
 10
350.0835009999998
 20
194.114211
 30
0.0
 11
350.0835009999998
 21
184.114211
 31
0.0
  0
LINE
  5
D84F
330
D762
100
AcDbEntity
  8
1
  6
Continuous
100
AcDbLine
 10
350.8835009999998
 20
194.114211
 30
0.0
 11
350.0835009999998
 21
194.114211
 31
0.0
  0
LINE
  5
D850
330
D762
100
AcDbEntity
  8
1
  6
Continuous
100
AcDbLine
 10
350.8835009999998
 20
194.114211
 30
0.0
 11
350.8835009999998
 21
184.114211
 31
0.0
  0
LINE
  5
D851
330
D762
100
AcDbEntity
  8
1
  6
Continuous
100
AcDbLine
 10
351.8835009999999
 20
192.614211
 30
0.0
 11
353.0029160000001
 21
192.516275
 31
0.0
  0
LINE
  5
D852
330
D762
100
AcDbEntity
  8
1
  6
Continuous
100
AcDbLine
 10
351.8835009999999
 20
192.9142109999999
 30
0.0
 11
350.8835009999998
 21
192.9142109999999
 31
0.0
  0
LINE
  5
D853
330
D762
100
AcDbEntity
  8
1
  6
Continuous
100
AcDbLine
 10
351.8835009999999
 20
192.9142109999999
 30
0.0
 11
351.8835009999999
 21
185.314211
 31
0.0
  0
ARC
  5
D854
330
D762
100
AcDbEntity
  8
1
  6
Continuous
100
AcDbCircle
 10
352.889613
 20
191.2212219999999
 30
0.0
 40
1.3
100
AcDbArc
 50
15.88085
 51
85.0
  0
ARC
  5
D855
330
D762
100
AcDbEntity
  8
1
  6
Continuous
100
AcDbCircle
 10
345.483501
 20
189.114211
 30
0.0
 40
9.0
100
AcDbArc
 50
344.1191499999998
 51
15.88085
  0
LINE
  5
D856
330
D762
100
AcDbEntity
  8
1
  6
Continuous
100
AcDbLine
 10
351.8835009999999
 20
185.614211
 30
0.0
 11
353.0029160000001
 21
185.7121469999999
 31
0.0
  0
ARC
  5
D857
330
D762
100
AcDbEntity
  8
1
  6
Continuous
100
AcDbCircle
 10
352.889613
 20
187.0072
 30
0.0
 40
1.3
100
AcDbArc
 50
275.0
 51
344.1191499999998
  0
LINE
  5
D858
330
D762
100
AcDbEntity
  8
1
  6
Continuous
100
AcDbLine
 10
352.3694529999998
 20
185.656726
 30
0.0
 11
352.3694529999998
 21
169.114211
 31
0.0
  0
LINE
  5
D859
330
D762
100
AcDbEntity
  8
1
  6
Continuous
100
AcDbLine
 10
354.3694529999998
 20
187.685975
 30
0.0
 11
354.3694529999998
 21
169.114211
 31
0.0
  0
LINE
  5
D85A
330
D762
100
AcDbEntity
  8
1
  6
Continuous
100
AcDbLine
 10
352.3694529999998
 20
223.7142109999998
 30
0.0
 11
350.0835009999998
 21
223.7142109999998
 31
0.0
  0
LINE
  5
D85B
330
D762
100
AcDbEntity
  8
1
  6
Continuous
100
AcDbLine
 10
352.3694529999998
 20
204.514211
 30
0.0
 11
350.0835009999998
 21
204.514211
 31
0.0
  0
LINE
  5
D85C
330
D762
100
AcDbEntity
  8
1
  6
Continuous
100
AcDbLine
 10
352.3694529999998
 20
226.614211
 30
0.0
 11
350.0835009999998
 21
226.614211
 31
0.0
  0
LINE
  5
D85D
330
D762
100
AcDbEntity
  8
1
  6
Continuous
100
AcDbLine
 10
352.3694529999998
 20
201.614211
 30
0.0
 11
350.0835009999998
 21
201.614211
 31
0.0
  0
LINE
  5
D85E
330
D762
100
AcDbEntity
  8
1
  6
Continuous
100
AcDbLine
 10
459.0891229999998
 20
259.114211
 30
0.0
 11
459.0891229999998
 21
169.114211
 31
0.0
  0
LINE
  5
D85F
330
D762
100
AcDbEntity
  8
4
  6
CENTER
100
AcDbLine
 10
462.0891229999998
 20
239.114211
 30
0.0
 11
446.0891229999998
 21
239.114211
 31
0.0
  0
ARC
  5
D860
330
D762
100
AcDbEntity
  8
1
  6
Continuous
100
AcDbCircle
 10
458.0891229999998
 20
252.1142109999999
 30
0.0
 40
2.0
100
AcDbArc
 50
60.0
 51
90.0
  0
ARC
  5
D861
330
D762
100
AcDbEntity
  8
1
  6
Continuous
100
AcDbCircle
 10
458.0891229999998
 20
176.114211
 30
0.0
 40
2.0
100
AcDbArc
 50
270.0
 51
300.0
  0
LINE
  5
D862
330
D762
100
AcDbEntity
  8
4
  6
CENTER
100
AcDbLine
 10
454.0891229999998
 20
231.114211
 30
0.0
 11
454.0891229999998
 21
247.1142109999999
 31
0.0
  0
ARC
  5
D863
330
D762
100
AcDbEntity
  8
1
  6
Continuous
100
AcDbCircle
 10
952.089123
 20
214.114211
 30
0.0
 40
508.4999999999998
100
AcDbArc
 50
184.511704
 51
185.007032
  0
CIRCLE
  5
D864
330
D762
100
AcDbEntity
  8
1
  6
Continuous
100
AcDbCircle
 10
454.0891229999998
 20
239.114211
 30
0.0
 40
3.799999999999998
  0
CIRCLE
  5
D865
330
D762
100
AcDbEntity
  8
1
  6
Continuous
100
AcDbCircle
 10
454.0891229999998
 20
239.114211
 30
0.0
 40
5.0
  0
CIRCLE
  5
D866
330
D762
100
AcDbEntity
  8
1
  6
Continuous
100
AcDbCircle
 10
454.0891229999998
 20
239.114211
 30
0.0
 40
3.5
  0
LINE
  5
D867
330
D762
100
AcDbEntity
  8
1
  6
Continuous
100
AcDbLine
 10
454.613503
 20
237.973648
 30
0.0
 11
455.247071
 21
237.3627079999999
 31
0.0
  0
LINE
  5
D868
330
D762
100
AcDbEntity
  8
1
  6
Continuous
100
AcDbLine
 10
454.6142099999998
 20
240.255481
 30
0.0
 11
455.246364
 21
240.866422
 31
0.0
  0
ARC
  5
D869
330
D762
100
AcDbEntity
  8
1
  6
Continuous
100
AcDbCircle
 10
454.088123
 20
239.114211
 30
0.0
 40
2.1
100
AcDbArc
 50
213.463
 51
236.5369999999999
  0
ARC
  5
D86A
330
D762
100
AcDbEntity
  8
1
  6
Continuous
100
AcDbCircle
 10
454.088123
 20
239.114211
 30
0.0
 40
2.1
100
AcDbArc
 50
123.4629999999998
 51
146.537
  0
LINE
  5
D86B
330
D762
100
AcDbEntity
  8
1
  6
Continuous
100
AcDbLine
 10
452.9475599999998
 20
238.5888309999999
 30
0.0
 11
452.3366199999999
 21
237.956677
 31
0.0
  0
LINE
  5
D86C
330
D762
100
AcDbEntity
  8
1
  6
Continuous
100
AcDbLine
 10
452.9475599999998
 20
239.639591
 30
0.0
 11
452.3366199999999
 21
240.271745
 31
0.0
  0
LINE
  5
D86D
330
D762
100
AcDbEntity
  8
1
  6
Continuous
100
AcDbLine
 10
454.0888299999998
 20
238.164567
 30
0.0
 11
454.613503
 21
237.973648
 31
0.0
  0
LINE
  5
D86E
330
D762
100
AcDbEntity
  8
1
  6
Continuous
100
AcDbLine
 10
453.138479
 20
239.1149179999999
 30
0.0
 11
452.9475599999998
 21
238.5888309999999
 31
0.0
  0
LINE
  5
D86F
330
D762
100
AcDbEntity
  8
1
  6
Continuous
100
AcDbLine
 10
453.5627429999998
 20
237.973648
 30
0.0
 11
452.9305889999998
 21
237.3627079999999
 31
0.0
  0
LINE
  5
D870
330
D762
100
AcDbEntity
  8
1
  6
Continuous
100
AcDbLine
 10
454.0888299999998
 20
238.164567
 30
0.0
 11
453.5627429999998
 21
237.973648
 31
0.0
  0
LINE
  5
D871
330
D762
100
AcDbEntity
  8
1
  6
Continuous
100
AcDbLine
 10
454.088123
 20
240.064563
 30
0.0
 11
453.5634499999998
 21
240.255481
 31
0.0
  0
LINE
  5
D872
330
D762
100
AcDbEntity
  8
1
  6
Continuous
100
AcDbLine
 10
453.5634499999998
 20
240.255481
 30
0.0
 11
452.9305889999998
 21
240.865714
 31
0.0
  0
LINE
  5
D873
330
D762
100
AcDbEntity
  8
1
  6
Continuous
100
AcDbLine
 10
453.138479
 20
239.1149179999999
 30
0.0
 11
452.9475599999998
 21
239.639591
 31
0.0
  0
LINE
  5
D874
330
D762
100
AcDbEntity
  8
1
  6
Continuous
100
AcDbLine
 10
454.088123
 20
240.064563
 30
0.0
 11
454.6142099999998
 21
240.255481
 31
0.0
  0
ARC
  5
D875
330
D762
100
AcDbEntity
  8
1
  6
Continuous
100
AcDbCircle
 10
454.088123
 20
239.114211
 30
0.0
 40
2.1
100
AcDbArc
 50
303.4629999999999
 51
326.5369999999998
  0
ARC
  5
D876
330
D762
100
AcDbEntity
  8
1
  6
Continuous
100
AcDbCircle
 10
454.088123
 20
239.114211
 30
0.0
 40
2.1
100
AcDbArc
 50
33.463
 51
56.537
  0
LINE
  5
D877
330
D762
100
AcDbEntity
  8
1
  6
Continuous
100
AcDbLine
 10
455.2293929999998
 20
238.589538
 30
0.0
 11
455.8403339999999
 21
237.95597
 31
0.0
  0
LINE
  5
D878
330
D762
100
AcDbEntity
  8
1
  6
Continuous
100
AcDbLine
 10
455.038475
 20
239.114211
 30
0.0
 11
455.2293929999998
 21
238.589538
 31
0.0
  0
LINE
  5
D879
330
D762
100
AcDbEntity
  8
1
  6
Continuous
100
AcDbLine
 10
455.2293929999998
 20
239.6402979999999
 30
0.0
 11
455.8403339999999
 21
240.272452
 31
0.0
  0
LINE
  5
D87A
330
D762
100
AcDbEntity
  8
1
  6
Continuous
100
AcDbLine
 10
455.038475
 20
239.114211
 30
0.0
 11
455.2293929999998
 21
239.6402979999999
 31
0.0
  0
LINE
  5
D87B
330
D762
100
AcDbEntity
  8
4
  6
CENTER
100
AcDbLine
 10
462.0891229999998
 20
189.114211
 30
0.0
 11
446.0891229999998
 21
189.114211
 31
0.0
  0
LINE
  5
D87C
330
D762
100
AcDbEntity
  8
4
  6
CENTER
100
AcDbLine
 10
454.0891229999998
 20
181.114211
 30
0.0
 11
454.0891229999998
 21
197.114211
 31
0.0
  0
LINE
  5
D87D
330
D762
100
AcDbEntity
  8
1
  6
Continuous
100
AcDbLine
 10
455.038475
 20
189.114211
 30
0.0
 11
455.2293929999998
 21
189.6402979999998
 31
0.0
  0
LINE
  5
D87E
330
D762
100
AcDbEntity
  8
1
  6
Continuous
100
AcDbLine
 10
455.2293929999998
 20
189.6402979999998
 30
0.0
 11
455.8403339999999
 21
190.2724519999999
 31
0.0
  0
LINE
  5
D87F
330
D762
100
AcDbEntity
  8
1
  6
Continuous
100
AcDbLine
 10
455.038475
 20
189.114211
 30
0.0
 11
455.2293929999998
 21
188.5895379999998
 31
0.0
  0
LINE
  5
D880
330
D762
100
AcDbEntity
  8
1
  6
Continuous
100
AcDbLine
 10
455.2293929999998
 20
188.5895379999998
 30
0.0
 11
455.8403339999999
 21
187.95597
 31
0.0
  0
ARC
  5
D881
330
D762
100
AcDbEntity
  8
1
  6
Continuous
100
AcDbCircle
 10
454.088123
 20
189.114211
 30
0.0
 40
2.1
100
AcDbArc
 50
33.463
 51
56.537
  0
ARC
  5
D882
330
D762
100
AcDbEntity
  8
1
  6
Continuous
100
AcDbCircle
 10
454.088123
 20
189.114211
 30
0.0
 40
2.1
100
AcDbArc
 50
303.4629999999999
 51
326.5369999999998
  0
LINE
  5
D883
330
D762
100
AcDbEntity
  8
1
  6
Continuous
100
AcDbLine
 10
454.088123
 20
190.0645629999999
 30
0.0
 11
454.6142099999998
 21
190.2554809999998
 31
0.0
  0
LINE
  5
D884
330
D762
100
AcDbEntity
  8
1
  6
Continuous
100
AcDbLine
 10
453.138479
 20
189.114918
 30
0.0
 11
452.9475599999998
 21
189.639591
 31
0.0
  0
LINE
  5
D885
330
D762
100
AcDbEntity
  8
1
  6
Continuous
100
AcDbLine
 10
453.5634499999998
 20
190.2554809999998
 30
0.0
 11
452.9305889999998
 21
190.865714
 31
0.0
  0
LINE
  5
D886
330
D762
100
AcDbEntity
  8
1
  6
Continuous
100
AcDbLine
 10
454.088123
 20
190.0645629999999
 30
0.0
 11
453.5634499999998
 21
190.2554809999998
 31
0.0
  0
LINE
  5
D887
330
D762
100
AcDbEntity
  8
1
  6
Continuous
100
AcDbLine
 10
454.0888299999998
 20
188.164567
 30
0.0
 11
453.5627429999998
 21
187.973648
 31
0.0
  0
LINE
  5
D888
330
D762
100
AcDbEntity
  8
1
  6
Continuous
100
AcDbLine
 10
453.5627429999998
 20
187.973648
 30
0.0
 11
452.9305889999998
 21
187.362708
 31
0.0
  0
LINE
  5
D889
330
D762
100
AcDbEntity
  8
1
  6
Continuous
100
AcDbLine
 10
453.138479
 20
189.114918
 30
0.0
 11
452.9475599999998
 21
188.588831
 31
0.0
  0
LINE
  5
D88A
330
D762
100
AcDbEntity
  8
1
  6
Continuous
100
AcDbLine
 10
454.0888299999998
 20
188.164567
 30
0.0
 11
454.613503
 21
187.973648
 31
0.0
  0
LINE
  5
D88B
330
D762
100
AcDbEntity
  8
1
  6
Continuous
100
AcDbLine
 10
452.9475599999998
 20
189.639591
 30
0.0
 11
452.3366199999999
 21
190.2717449999999
 31
0.0
  0
LINE
  5
D88C
330
D762
100
AcDbEntity
  8
1
  6
Continuous
100
AcDbLine
 10
452.9475599999998
 20
188.588831
 30
0.0
 11
452.3366199999999
 21
187.956677
 31
0.0
  0
ARC
  5
D88D
330
D762
100
AcDbEntity
  8
1
  6
Continuous
100
AcDbCircle
 10
454.088123
 20
189.114211
 30
0.0
 40
2.1
100
AcDbArc
 50
123.4629999999998
 51
146.537
  0
ARC
  5
D88E
330
D762
100
AcDbEntity
  8
1
  6
Continuous
100
AcDbCircle
 10
454.088123
 20
189.114211
 30
0.0
 40
2.1
100
AcDbArc
 50
213.463
 51
236.5369999999999
  0
LINE
  5
D88F
330
D762
100
AcDbEntity
  8
1
  6
Continuous
100
AcDbLine
 10
454.6142099999998
 20
190.2554809999998
 30
0.0
 11
455.246364
 21
190.866422
 31
0.0
  0
LINE
  5
D890
330
D762
100
AcDbEntity
  8
1
  6
Continuous
100
AcDbLine
 10
454.613503
 20
187.973648
 30
0.0
 11
455.247071
 21
187.362708
 31
0.0
  0
CIRCLE
  5
D891
330
D762
100
AcDbEntity
  8
1
  6
Continuous
100
AcDbCircle
 10
454.0891229999998
 20
189.114211
 30
0.0
 40
3.5
  0
CIRCLE
  5
D892
330
D762
100
AcDbEntity
  8
1
  6
Continuous
100
AcDbCircle
 10
454.0891229999998
 20
189.114211
 30
0.0
 40
5.0
  0
CIRCLE
  5
D893
330
D762
100
AcDbEntity
  8
1
  6
Continuous
100
AcDbCircle
 10
454.0891229999998
 20
189.114211
 30
0.0
 40
3.799999999999998
  0
LINE
  5
D894
330
D762
100
AcDbEntity
  8
4
  6
CENTER
100
AcDbLine
 10
482.989123
 20
231.6142109999999
 30
0.0
 11
458.0891229999998
 21
231.6142109999999
 31
0.0
  0
LINE
  5
D895
330
D762
100
AcDbEntity
  8
4
  6
CENTER
100
AcDbLine
 10
465.089123
 20
224.614211
 30
0.0
 11
465.089123
 21
238.6142109999999
 31
0.0
  0
LINE
  5
D896
330
D762
100
AcDbEntity
  8
4
  6
CENTER
100
AcDbLine
 10
477.589123
 20
226.2142109999998
 30
0.0
 11
477.589123
 21
237.0142109999999
 31
0.0
  0
CIRCLE
  5
D897
330
D762
100
AcDbEntity
  8
1
  6
Continuous
100
AcDbCircle
 10
477.589123
 20
231.6142109999999
 30
0.0
 40
2.399999999999999
  0
LINE
  5
D898
330
D762
100
AcDbEntity
  8
1
  6
Continuous
100
AcDbLine
 10
465.659051
 20
232.80215
 30
0.0
 11
466.355551
 21
233.4746089999999
 31
0.0
  0
CIRCLE
  5
D899
330
D762
100
AcDbEntity
  8
1
  6
Continuous
100
AcDbCircle
 10
465.089123
 20
231.6142109999999
 30
0.0
 40
4.0
  0
LINE
  5
D89A
330
D762
100
AcDbEntity
  8
1
  6
Continuous
100
AcDbLine
 10
465.658344
 20
230.4269789999999
 30
0.0
 11
466.355551
 21
229.7538129999999
 31
0.0
  0
ARC
  5
D89B
330
D762
100
AcDbEntity
  8
1
  6
Continuous
100
AcDbCircle
 10
465.089123
 20
231.6142109999999
 30
0.0
 40
2.25
100
AcDbArc
 50
124.2416999999998
 51
145.7579999999999
  0
LINE
  5
D89C
330
D762
100
AcDbEntity
  8
1
  6
Continuous
100
AcDbLine
 10
463.9018909999998
 20
231.04499
 30
0.0
 11
463.2294319999998
 21
230.3484899999999
 31
0.0
  0
LINE
  5
D89D
330
D762
100
AcDbEntity
  8
1
  6
Continuous
100
AcDbLine
 10
463.9018909999998
 20
232.1834319999999
 30
0.0
 11
463.2294319999998
 21
232.8799319999999
 31
0.0
  0
ARC
  5
D89E
330
D762
100
AcDbEntity
  8
1
  6
Continuous
100
AcDbCircle
 10
465.089123
 20
231.6142109999999
 30
0.0
 40
2.25
100
AcDbArc
 50
214.2419999999999
 51
235.758
  0
LINE
  5
D89F
330
D762
100
AcDbEntity
  8
1
  6
Continuous
100
AcDbLine
 10
465.089123
 20
230.634161
 30
0.0
 11
465.658344
 21
230.4269789999999
 31
0.0
  0
LINE
  5
D8A0
330
D762
100
AcDbEntity
  8
1
  6
Continuous
100
AcDbLine
 10
465.089123
 20
232.5942609999999
 30
0.0
 11
465.659051
 21
232.80215
 31
0.0
  0
LINE
  5
D8A1
330
D762
100
AcDbEntity
  8
1
  6
Continuous
100
AcDbLine
 10
464.109073
 20
231.6142109999999
 30
0.0
 11
463.9018909999998
 21
231.04499
 31
0.0
  0
LINE
  5
D8A2
330
D762
100
AcDbEntity
  8
1
  6
Continuous
100
AcDbLine
 10
464.109073
 20
231.6142109999999
 30
0.0
 11
463.9018909999998
 21
232.1834319999999
 31
0.0
  0
LINE
  5
D8A3
330
D762
100
AcDbEntity
  8
1
  6
Continuous
100
AcDbLine
 10
464.5199019999998
 20
232.801443
 30
0.0
 11
463.8234019999998
 21
233.473902
 31
0.0
  0
LINE
  5
D8A4
330
D762
100
AcDbEntity
  8
1
  6
Continuous
100
AcDbLine
 10
465.089123
 20
230.634161
 30
0.0
 11
464.5199019999998
 21
230.4269789999999
 31
0.0
  0
LINE
  5
D8A5
330
D762
100
AcDbEntity
  8
1
  6
Continuous
100
AcDbLine
 10
465.089123
 20
232.5942609999999
 30
0.0
 11
464.5199019999998
 21
232.801443
 31
0.0
  0
LINE
  5
D8A6
330
D762
100
AcDbEntity
  8
1
  6
Continuous
100
AcDbLine
 10
464.5199019999998
 20
230.4269789999999
 30
0.0
 11
463.8234019999998
 21
229.75452
 31
0.0
  0
LINE
  5
D8A7
330
D762
100
AcDbEntity
  8
1
  6
Continuous
100
AcDbLine
 10
466.276355
 20
231.04499
 30
0.0
 11
466.949521
 21
230.3477829999999
 31
0.0
  0
LINE
  5
D8A8
330
D762
100
AcDbEntity
  8
1
  6
Continuous
100
AcDbLine
 10
466.2770619999998
 20
232.1841389999999
 30
0.0
 11
466.949521
 21
232.880639
 31
0.0
  0
ARC
  5
D8A9
330
D762
100
AcDbEntity
  8
1
  6
Continuous
100
AcDbCircle
 10
465.089123
 20
231.6142109999999
 30
0.0
 40
2.25
100
AcDbArc
 50
34.24199999999999
 51
55.75829999999999
  0
LINE
  5
D8AA
330
D762
100
AcDbEntity
  8
1
  6
Continuous
100
AcDbLine
 10
466.0691729999999
 20
231.6142109999999
 30
0.0
 11
466.276355
 21
231.04499
 31
0.0
  0
LINE
  5
D8AB
330
D762
100
AcDbEntity
  8
1
  6
Continuous
100
AcDbLine
 10
466.0691729999999
 20
231.6142109999999
 30
0.0
 11
466.2770619999998
 21
232.1841389999999
 31
0.0
  0
ARC
  5
D8AC
330
D762
100
AcDbEntity
  8
1
  6
Continuous
100
AcDbCircle
 10
465.089123
 20
231.6142109999999
 30
0.0
 40
2.25
100
AcDbArc
 50
304.242
 51
325.7579999999999
  0
LINE
  5
D8AD
330
D762
100
AcDbEntity
  8
4
  6
CENTER
100
AcDbLine
 10
482.989123
 20
196.614211
 30
0.0
 11
458.0891229999998
 21
196.614211
 31
0.0
  0
CIRCLE
  5
D8AE
330
D762
100
AcDbEntity
  8
1
  6
Continuous
100
AcDbCircle
 10
477.589123
 20
196.614211
 30
0.0
 40
2.399999999999999
  0
LINE
  5
D8AF
330
D762
100
AcDbEntity
  8
4
  6
CENTER
100
AcDbLine
 10
465.089123
 20
189.614211
 30
0.0
 11
465.089123
 21
203.614211
 31
0.0
  0
ARC
  5
D8B0
330
D762
100
AcDbEntity
  8
1
  6
Continuous
100
AcDbCircle
 10
465.089123
 20
196.614211
 30
0.0
 40
2.25
100
AcDbArc
 50
304.242
 51
325.7579999999999
  0
LINE
  5
D8B1
330
D762
100
AcDbEntity
  8
1
  6
Continuous
100
AcDbLine
 10
466.0691729999999
 20
196.614211
 30
0.0
 11
466.2770619999998
 21
197.1841389999999
 31
0.0
  0
LINE
  5
D8B2
330
D762
100
AcDbEntity
  8
1
  6
Continuous
100
AcDbLine
 10
466.0691729999999
 20
196.614211
 30
0.0
 11
466.276355
 21
196.04499
 31
0.0
  0
ARC
  5
D8B3
330
D762
100
AcDbEntity
  8
1
  6
Continuous
100
AcDbCircle
 10
465.089123
 20
196.614211
 30
0.0
 40
2.25
100
AcDbArc
 50
34.24199999999999
 51
55.75829999999999
  0
LINE
  5
D8B4
330
D762
100
AcDbEntity
  8
1
  6
Continuous
100
AcDbLine
 10
466.2770619999998
 20
197.1841389999999
 30
0.0
 11
466.949521
 21
197.880639
 31
0.0
  0
LINE
  5
D8B5
330
D762
100
AcDbEntity
  8
1
  6
Continuous
100
AcDbLine
 10
466.276355
 20
196.04499
 30
0.0
 11
466.949521
 21
195.3477829999999
 31
0.0
  0
LINE
  5
D8B6
330
D762
100
AcDbEntity
  8
1
  6
Continuous
100
AcDbLine
 10
464.5199019999998
 20
195.4269789999999
 30
0.0
 11
463.8234019999998
 21
194.75452
 31
0.0
  0
LINE
  5
D8B7
330
D762
100
AcDbEntity
  8
1
  6
Continuous
100
AcDbLine
 10
465.089123
 20
197.5942609999999
 30
0.0
 11
464.5199019999998
 21
197.801443
 31
0.0
  0
LINE
  5
D8B8
330
D762
100
AcDbEntity
  8
1
  6
Continuous
100
AcDbLine
 10
465.089123
 20
195.634161
 30
0.0
 11
464.5199019999998
 21
195.4269789999999
 31
0.0
  0
LINE
  5
D8B9
330
D762
100
AcDbEntity
  8
1
  6
Continuous
100
AcDbLine
 10
464.5199019999998
 20
197.801443
 30
0.0
 11
463.8234019999998
 21
198.473902
 31
0.0
  0
LINE
  5
D8BA
330
D762
100
AcDbEntity
  8
1
  6
Continuous
100
AcDbLine
 10
464.109073
 20
196.614211
 30
0.0
 11
463.9018909999998
 21
197.183432
 31
0.0
  0
LINE
  5
D8BB
330
D762
100
AcDbEntity
  8
1
  6
Continuous
100
AcDbLine
 10
464.109073
 20
196.614211
 30
0.0
 11
463.9018909999998
 21
196.04499
 31
0.0
  0
LINE
  5
D8BC
330
D762
100
AcDbEntity
  8
1
  6
Continuous
100
AcDbLine
 10
465.089123
 20
197.5942609999999
 30
0.0
 11
465.659051
 21
197.80215
 31
0.0
  0
LINE
  5
D8BD
330
D762
100
AcDbEntity
  8
1
  6
Continuous
100
AcDbLine
 10
465.089123
 20
195.634161
 30
0.0
 11
465.658344
 21
195.4269789999999
 31
0.0
  0
ARC
  5
D8BE
330
D762
100
AcDbEntity
  8
1
  6
Continuous
100
AcDbCircle
 10
465.089123
 20
196.614211
 30
0.0
 40
2.25
100
AcDbArc
 50
214.2419999999999
 51
235.758
  0
LINE
  5
D8BF
330
D762
100
AcDbEntity
  8
1
  6
Continuous
100
AcDbLine
 10
463.9018909999998
 20
197.183432
 30
0.0
 11
463.2294319999998
 21
197.879932
 31
0.0
  0
LINE
  5
D8C0
330
D762
100
AcDbEntity
  8
1
  6
Continuous
100
AcDbLine
 10
463.9018909999998
 20
196.04499
 30
0.0
 11
463.2294319999998
 21
195.34849
 31
0.0
  0
ARC
  5
D8C1
330
D762
100
AcDbEntity
  8
1
  6
Continuous
100
AcDbCircle
 10
465.089123
 20
196.614211
 30
0.0
 40
2.25
100
AcDbArc
 50
124.2416999999998
 51
145.7579999999999
  0
LINE
  5
D8C2
330
D762
100
AcDbEntity
  8
1
  6
Continuous
100
AcDbLine
 10
465.658344
 20
195.4269789999999
 30
0.0
 11
466.355551
 21
194.7538129999998
 31
0.0
  0
CIRCLE
  5
D8C3
330
D762
100
AcDbEntity
  8
1
  6
Continuous
100
AcDbCircle
 10
465.089123
 20
196.614211
 30
0.0
 40
4.0
  0
LINE
  5
D8C4
330
D762
100
AcDbEntity
  8
1
  6
Continuous
100
AcDbLine
 10
465.659051
 20
197.80215
 30
0.0
 11
466.355551
 21
198.4746089999999
 31
0.0
  0
LINE
  5
D8C5
330
D762
100
AcDbEntity
  8
4
  6
CENTER
100
AcDbLine
 10
477.589123
 20
191.2142109999998
 30
0.0
 11
477.589123
 21
202.014211
 31
0.0
  0
LINE
  5
D8C6
330
D762
100
AcDbEntity
  8
4
  6
CENTER
100
AcDbLine
 10
513.0891230000002
 20
237.114211
 30
0.0
 11
513.0891230000002
 21
251.1142109999999
 31
0.0
  0
LINE
  5
D8C7
330
D762
100
AcDbEntity
  8
4
  6
CENTER
100
AcDbLine
 10
520.0891229999998
 20
244.1142109999999
 30
0.0
 11
506.089123
 21
244.1142109999999
 31
0.0
  0
LINE
  5
D8C8
330
D762
100
AcDbEntity
  8
4
  6
CENTER
100
AcDbLine
 10
520.0891229999998
 20
184.114211
 30
0.0
 11
506.089123
 21
184.114211
 31
0.0
  0
LINE
  5
D8C9
330
D762
100
AcDbEntity
  8
4
  6
CENTER
100
AcDbLine
 10
513.0891230000002
 20
177.114211
 30
0.0
 11
513.0891230000002
 21
191.114211
 31
0.0
  0
LINE
  5
D8CA
330
D762
100
AcDbEntity
  8
1
  6
Continuous
100
AcDbLine
 10
459.0891229999998
 20
223.7142109999998
 30
0.0
 11
456.589123
 21
223.7142109999998
 31
0.0
  0
LINE
  5
D8CB
330
D762
100
AcDbEntity
  8
1
  6
Continuous
100
AcDbLine
 10
459.0891229999998
 20
204.514211
 30
0.0
 11
456.589123
 21
204.514211
 31
0.0
  0
LINE
  5
D8CC
330
D762
100
AcDbEntity
  8
1
  6
Continuous
100
AcDbLine
 10
456.589123
 20
204.514211
 30
0.0
 11
456.589123
 21
223.7142109999998
 31
0.0
  0
LINE
  5
D8CD
330
D762
100
AcDbEntity
  8
1
  6
Continuous
100
AcDbLine
 10
455.0891229999998
 20
204.114211
 30
0.0
 11
455.0891229999998
 21
224.1142109999999
 31
0.0
  0
LINE
  5
D8CE
330
D762
100
AcDbEntity
  8
1
  6
Continuous
100
AcDbLine
 10
459.0891229999998
 20
224.1142109999999
 30
0.0
 11
455.0891229999998
 21
224.1142109999999
 31
0.0
  0
LINE
  5
D8CF
330
D762
100
AcDbEntity
  8
1
  6
Continuous
100
AcDbLine
 10
459.0891229999998
 20
204.114211
 30
0.0
 11
455.0891229999998
 21
204.114211
 31
0.0
  0
LINE
  5
D8D0
330
D762
100
AcDbEntity
  8
1
  6
Continuous
100
AcDbLine
 10
456.089123
 20
260.114211
 30
0.0
 11
485.6520389999998
 21
260.114211
 31
0.0
  0
ARC
  5
D8D1
330
D762
100
AcDbEntity
  8
1
  6
Continuous
100
AcDbCircle
 10
516.5891229999998
 20
257.114211
 30
0.0
 40
3.0
100
AcDbArc
 50
41.810315
 51
90.0
  0
ARC
  5
D8D2
330
D762
100
AcDbEntity
  8
1
  6
Continuous
100
AcDbCircle
 10
456.089123
 20
254.114211
 30
0.0
 40
6.0
100
AcDbArc
 50
90.0
 51
180.0
  0
ARC
  5
D8D3
330
D762
100
AcDbEntity
  8
1
  6
Continuous
100
AcDbCircle
 10
516.5891229999998
 20
171.114211
 30
0.0
 40
3.0
100
AcDbArc
 50
270.0
 51
318.189685
  0
LINE
  5
D8D4
330
D762
100
AcDbEntity
  8
1
  6
Continuous
100
AcDbLine
 10
456.089123
 20
168.114211
 30
0.0
 11
485.6520389999998
 21
168.114211
 31
0.0
  0
ARC
  5
D8D5
330
D762
100
AcDbEntity
  8
1
  6
Continuous
100
AcDbCircle
 10
456.089123
 20
174.114211
 30
0.0
 40
6.0
100
AcDbArc
 50
180.0
 51
270.0
  0
LINE
  5
D8D6
330
D762
100
AcDbEntity
  8
1
  6
Continuous
100
AcDbLine
 10
445.212853
 20
174.114211
 30
0.0
 11
445.212853
 21
254.114211
 31
0.0
  0
LINE
  5
D8D7
330
D762
100
AcDbEntity
  8
1
  6
Continuous
100
AcDbLine
 10
447.1536719999998
 20
174.114211
 30
0.0
 11
447.1536719999998
 21
254.114211
 31
0.0
  0
LINE
  5
D8D8
330
D762
100
AcDbEntity
  8
1
  6
Continuous
100
AcDbLine
 10
153.6829139999998
 20
72.022429
 30
0.0
 11
146.2193599999999
 21
71.28394
 31
0.0
  0
LINE
  5
D8D9
330
D762
100
AcDbEntity
  8
1
  6
Continuous
100
AcDbLine
 10
153.485983
 20
74.01271
 30
0.0
 11
146.022429
 21
73.27422099999998
 31
0.0
  0
LINE
  5
D8DA
330
D762
100
AcDbEntity
  8
1
  6
Continuous
100
AcDbLine
 10
146.022429
 20
73.27422099999998
 30
0.0
 11
146.2193599999999
 21
71.28394
 31
0.0
  0
LINE
  5
D8DB
330
D762
100
AcDbEntity
  8
1
  6
Continuous
100
AcDbLine
 10
156.144543
 20
47.143917
 30
0.0
 11
153.6829139999998
 21
72.022429
 31
0.0
  0
LINE
  5
D8DC
330
D762
100
AcDbEntity
  8
1
  6
Continuous
100
AcDbLine
 10
158.134824
 20
47.34084699999999
 30
0.0
 11
155.6731949999999
 21
72.21935899999998
 31
0.0
  0
LINE
  5
D8DD
330
D762
100
AcDbEntity
  8
4
  6
CENTER
100
AcDbLine
 10
163.8313649999998
 20
54.771891
 30
0.0
 11
163.8313649999998
 21
38.655334
 31
0.0
  0
LINE
  5
D8DE
330
D762
100
AcDbEntity
  8
1
  6
Continuous
100
AcDbLine
 10
168.8313649999998
 20
45.4
 30
0.0
 11
158.8313649999998
 21
45.4
 31
0.0
  0
LINE
  5
D8DF
330
D762
100
AcDbEntity
  8
1
  6
Continuous
100
AcDbLine
 10
167.6313649999999
 20
43.6
 30
0.0
 11
160.0313649999999
 21
43.6
 31
0.0
  0
LINE
  5
D8E0
330
D762
100
AcDbEntity
  8
1
  6
Continuous
100
AcDbLine
 10
168.8313649999998
 20
44.59999999999999
 30
0.0
 11
158.8313649999998
 21
44.59999999999999
 31
0.0
  0
ARC
  5
D8E1
330
D762
100
AcDbEntity
  8
1
  6
Continuous
100
AcDbCircle
 10
163.8313649999998
 20
50.0
 30
0.0
 40
9.0
100
AcDbArc
 50
254.11915
 51
285.88085
  0
LINE
  5
D8E2
330
D762
100
AcDbEntity
  8
1
  6
Continuous
100
AcDbLine
 10
170.07651
 20
48.522429
 30
0.0
 11
158.134824
 21
47.34084699999999
 31
0.0
  0
LINE
  5
D8E3
330
D762
100
AcDbEntity
  8
1
  6
Continuous
100
AcDbLine
 10
170.2734399999999
 20
46.53214799999999
 30
0.0
 11
158.3317539999999
 21
45.35056599999999
 31
0.0
  0
LINE
  5
D8E4
330
D762
100
AcDbEntity
  8
1
  6
Continuous
100
AcDbLine
 10
158.8313649999998
 20
44.59999999999999
 30
0.0
 11
158.8313649999998
 21
45.4
 31
0.0
  0
LINE
  5
D8E5
330
D762
100
AcDbEntity
  8
1
  6
Continuous
100
AcDbLine
 10
160.0313649999999
 20
43.6
 30
0.0
 11
160.0313649999999
 21
44.59999999999999
 31
0.0
  0
ARC
  5
D8E6
330
D762
100
AcDbEntity
  8
1
  6
Continuous
100
AcDbCircle
 10
161.724354
 20
42.59388799999999
 30
0.0
 40
1.3
100
AcDbArc
 50
185.0
 51
254.11915
  0
LINE
  5
D8E7
330
D762
100
AcDbEntity
  8
1
  6
Continuous
100
AcDbLine
 10
160.3313649999998
 20
43.6
 30
0.0
 11
160.429301
 21
42.48058499999999
 31
0.0
  0
LINE
  5
D8E8
330
D762
100
AcDbEntity
  8
1
  6
Continuous
100
AcDbLine
 10
161.8313649999998
 20
48.522429
 30
0.0
 11
161.8313649999998
 21
47.70660499999999
 31
0.0
  0
LINE
  5
D8E9
330
D762
100
AcDbEntity
  8
1
  6
Continuous
100
AcDbLine
 10
161.8313649999998
 20
45.69683799999999
 30
0.0
 11
161.8313649999998
 21
45.4
 31
0.0
  0
ARC
  5
D8EA
330
D762
100
AcDbEntity
  8
1
  6
Continuous
100
AcDbCircle
 10
158.134824
 20
47.34084699999999
 30
0.0
 40
2.0
100
AcDbArc
 50
185.6507949999999
 51
275.650795
  0
LINE
  5
D8EB
330
D762
100
AcDbEntity
  8
1
  6
Continuous
100
AcDbLine
 10
168.8313649999998
 20
44.59999999999999
 30
0.0
 11
168.8313649999998
 21
45.4
 31
0.0
  0
LINE
  5
D8EC
330
D762
100
AcDbEntity
  8
1
  6
Continuous
100
AcDbLine
 10
167.6313649999999
 20
43.6
 30
0.0
 11
167.6313649999999
 21
44.59999999999999
 31
0.0
  0
ARC
  5
D8ED
330
D762
100
AcDbEntity
  8
1
  6
Continuous
100
AcDbCircle
 10
165.938375
 20
42.59388799999999
 30
0.0
 40
1.3
100
AcDbArc
 50
285.88085
 51
355.0
  0
LINE
  5
D8EE
330
D762
100
AcDbEntity
  8
1
  6
Continuous
100
AcDbLine
 10
167.3313649999998
 20
43.6
 30
0.0
 11
167.233429
 21
42.48058499999999
 31
0.0
  0
LINE
  5
D8EF
330
D762
100
AcDbEntity
  8
1
  6
Continuous
100
AcDbLine
 10
165.8313649999998
 20
48.522429
 30
0.0
 11
165.8313649999998
 21
48.102389
 31
0.0
  0
LINE
  5
D8F0
330
D762
100
AcDbEntity
  8
1
  6
Continuous
100
AcDbLine
 10
165.8313649999998
 20
46.09262199999998
 30
0.0
 11
165.8313649999998
 21
45.4
 31
0.0
  0
LINE
  5
D8F1
330
D762
100
AcDbEntity
  8
1
  6
Continuous
100
AcDbLine
 10
170.07651
 20
48.522429
 30
0.0
 11
170.2734399999999
 21
46.53214799999999
 31
0.0
  0
ARC
  5
D8F2
330
D762
100
AcDbEntity
  8
1
  6
Continuous
100
AcDbCircle
 10
153.6829139999998
 20
72.022429
 30
0.0
 40
2.0
100
AcDbArc
 50
5.650794999999997
 51
95.65079500000001
  0
LINE
  5
D8F3
330
D762
100
AcDbEntity
  8
1
  6
Continuous
100
AcDbLine
 10
146.022429
 20
176.114211
 30
0.0
 11
146.022429
 21
252.1142109999999
 31
0.0
  0
ARC
  5
D8F4
330
D762
100
AcDbEntity
  8
1
  6
Continuous
100
AcDbCircle
 10
148.0224289999999
 20
176.114211
 30
0.0
 40
2.0
100
AcDbArc
 50
180.0
 51
270.0
  0
LINE
  5
D8F5
330
D762
100
AcDbEntity
  8
1
  6
Continuous
100
AcDbLine
 10
153.407061
 20
174.114211
 30
0.0
 11
148.0224289999999
 21
174.114211
 31
0.0
  0
ARC
  5
D8F6
330
D762
100
AcDbEntity
  8
1
  6
Continuous
100
AcDbCircle
 10
148.0224289999999
 20
252.1142109999999
 30
0.0
 40
2.0
100
AcDbArc
 50
90.0
 51
180.0
  0
LINE
  5
D8F7
330
D762
100
AcDbEntity
  8
1
  6
Continuous
100
AcDbLine
 10
153.407061
 20
254.114211
 30
0.0
 11
148.0224289999999
 21
254.114211
 31
0.0
  0
LINE
  5
D8F8
330
D762
100
AcDbEntity
  8
1
  6
Continuous
100
AcDbLine
 10
519.5891229999999
 20
259.114211
 30
0.0
 11
519.5891229999999
 21
254.114211
 31
0.0
  0
LINE
  5
D8F9
330
D762
100
AcDbEntity
  8
2
  6
Continuous
100
AcDbLine
 10
165.4523649999999
 20
48.522429
 30
0.0
 11
165.4523649999999
 21
48.064888
 31
0.0
  0
LINE
  5
D8FA
330
D762
100
AcDbEntity
  8
2
  6
Continuous
100
AcDbLine
 10
162.2103649999999
 20
45.734339
 30
0.0
 11
162.2103649999999
 21
45.4
 31
0.0
  0
LINE
  5
D8FB
330
D762
100
AcDbEntity
  8
1
  6
Continuous
100
AcDbLine
 10
163.8313649999998
 20
43.6
 30
0.0
 11
162.8313649999998
 21
44.59999999999999
 31
0.0
  0
LINE
  5
D8FC
330
D762
100
AcDbEntity
  8
1
  6
Continuous
100
AcDbLine
 10
164.8313649999998
 20
43.6
 30
0.0
 11
163.8313649999998
 21
44.59999999999999
 31
0.0
  0
LINE
  5
D8FD
330
D762
100
AcDbEntity
  8
2
  6
Continuous
100
AcDbLine
 10
165.4523649999999
 20
46.05512199999998
 30
0.0
 11
165.4523649999999
 21
45.4
 31
0.0
  0
LINE
  5
D8FE
330
D762
100
AcDbEntity
  8
2
  6
Continuous
100
AcDbLine
 10
162.2103649999999
 20
48.522429
 30
0.0
 11
162.2103649999999
 21
47.744105
 31
0.0
  0
LINE
  5
D8FF
330
D762
100
AcDbEntity
  8
1
  6
Continuous
100
AcDbLine
 10
58.022429
 20
254.114211
 30
0.0
 11
29.34084699999999
 21
254.114211
 31
0.0
  0
LINE
  5
D900
330
D762
100
AcDbEntity
  8
1
  6
Continuous
100
AcDbLine
 10
58.022429
 20
174.114211
 30
0.0
 11
29.34084699999999
 21
174.114211
 31
0.0
  0
LINE
  5
D901
330
D762
100
AcDbEntity
  8
1
  6
Continuous
100
AcDbLine
 10
57.274221
 20
174.114211
 30
0.0
 11
57.274221
 21
254.114211
 31
0.0
  0
LINE
  5
D902
330
D762
100
AcDbEntity
  8
1
  6
Continuous
100
AcDbLine
 10
55.28394
 20
174.114211
 30
0.0
 11
55.28394
 21
254.114211
 31
0.0
  0
LINE
  5
D903
330
D762
100
AcDbEntity
  8
1
  6
Continuous
100
AcDbLine
 10
58.022429
 20
174.114211
 30
0.0
 11
58.022429
 21
254.114211
 31
0.0
  0
LINE
  5
D904
330
D762
100
AcDbEntity
  8
1
  6
Continuous
100
AcDbLine
 10
29.34084699999999
 20
174.114211
 30
0.0
 11
29.34084699999999
 21
254.114211
 31
0.0
  0
LINE
  5
D905
330
D762
100
AcDbEntity
  8
1
  6
Continuous
100
AcDbLine
 10
32.52242899999998
 20
259.114211
 30
0.0
 11
32.52242899999998
 21
254.114211
 31
0.0
  0
LINE
  5
D906
330
D762
100
AcDbEntity
  8
1
  6
Continuous
100
AcDbLine
 10
34.52242899999999
 20
259.114211
 30
0.0
 11
34.52242899999999
 21
254.114211
 31
0.0
  0
LINE
  5
D907
330
D762
100
AcDbEntity
  8
1
  6
Continuous
100
AcDbLine
 10
32.52242899999998
 20
259.114211
 30
0.0
 11
34.52242899999999
 21
259.114211
 31
0.0
  0
LINE
  5
D908
330
D762
100
AcDbEntity
  8
1
  6
Continuous
100
AcDbLine
 10
32.52242899999998
 20
169.114211
 30
0.0
 11
34.52242899999999
 21
169.114211
 31
0.0
  0
LINE
  5
D909
330
D762
100
AcDbEntity
  8
1
  6
Continuous
100
AcDbLine
 10
34.52242899999999
 20
174.114211
 30
0.0
 11
34.52242899999999
 21
169.114211
 31
0.0
  0
LINE
  5
D90A
330
D762
100
AcDbEntity
  8
1
  6
Continuous
100
AcDbLine
 10
32.52242899999998
 20
174.114211
 30
0.0
 11
32.52242899999998
 21
169.114211
 31
0.0
  0
ARC
  5
D90B
330
D762
100
AcDbEntity
  8
1
  6
Continuous
100
AcDbCircle
 10
26.593888
 20
236.2212219999999
 30
0.0
 40
1.3
100
AcDbArc
 50
95.0
 51
164.1191499999998
  0
ARC
  5
D90C
330
D762
100
AcDbEntity
  8
1
  6
Continuous
100
AcDbCircle
 10
34.0
 20
234.1142109999999
 30
0.0
 40
9.0
100
AcDbArc
 50
164.1191499999998
 51
195.88085
  0
LINE
  5
D90D
330
D762
100
AcDbEntity
  8
1
  6
Continuous
100
AcDbLine
 10
27.6
 20
237.914211
 30
0.0
 11
28.6
 21
237.914211
 31
0.0
  0
LINE
  5
D90E
330
D762
100
AcDbEntity
  8
1
  6
Continuous
100
AcDbLine
 10
28.6
 20
239.114211
 30
0.0
 11
29.34084699999999
 21
239.114211
 31
0.0
  0
LINE
  5
D90F
330
D762
100
AcDbEntity
  8
1
  6
Continuous
100
AcDbLine
 10
27.6
 20
237.6142109999999
 30
0.0
 11
26.48058499999999
 21
237.516275
 31
0.0
  0
LINE
  5
D910
330
D762
100
AcDbEntity
  8
1
  6
Continuous
100
AcDbLine
 10
28.6
 20
229.114211
 30
0.0
 11
28.6
 21
239.114211
 31
0.0
  0
LINE
  5
D911
330
D762
100
AcDbEntity
  8
1
  6
Continuous
100
AcDbLine
 10
27.6
 20
230.314211
 30
0.0
 11
27.6
 21
237.914211
 31
0.0
  0
LINE
  5
D912
330
D762
100
AcDbEntity
  8
1
  6
Continuous
100
AcDbLine
 10
27.6
 20
234.1142109999999
 30
0.0
 11
28.6
 21
235.114211
 31
0.0
  0
LINE
  5
D913
330
D762
100
AcDbEntity
  8
1
  6
Continuous
100
AcDbLine
 10
27.6
 20
233.114211
 30
0.0
 11
28.6
 21
234.1142109999999
 31
0.0
  0
ARC
  5
D914
330
D762
100
AcDbEntity
  8
1
  6
Continuous
100
AcDbCircle
 10
26.593888
 20
232.007201
 30
0.0
 40
1.3
100
AcDbArc
 50
195.88085
 51
265.0
  0
LINE
  5
D915
330
D762
100
AcDbEntity
  8
1
  6
Continuous
100
AcDbLine
 10
27.6
 20
230.6142109999999
 30
0.0
 11
26.48058499999999
 21
230.7121469999999
 31
0.0
  0
LINE
  5
D916
330
D762
100
AcDbEntity
  8
1
  6
Continuous
100
AcDbLine
 10
27.6
 20
230.314211
 30
0.0
 11
28.6
 21
230.314211
 31
0.0
  0
LINE
  5
D917
330
D762
100
AcDbEntity
  8
1
  6
Continuous
100
AcDbLine
 10
28.6
 20
229.114211
 30
0.0
 11
29.34084699999999
 21
229.114211
 31
0.0
  0
ARC
  5
D918
330
D762
100
AcDbEntity
  8
1
  6
Continuous
100
AcDbCircle
 10
26.593888
 20
196.2212219999999
 30
0.0
 40
1.3
100
AcDbArc
 50
95.0
 51
164.1191499999998
  0
ARC
  5
D919
330
D762
100
AcDbEntity
  8
1
  6
Continuous
100
AcDbCircle
 10
26.593888
 20
192.007201
 30
0.0
 40
1.3
100
AcDbArc
 50
195.88085
 51
265.0
  0
ARC
  5
D91A
330
D762
100
AcDbEntity
  8
1
  6
Continuous
100
AcDbCircle
 10
34.0
 20
194.114211
 30
0.0
 40
9.0
100
AcDbArc
 50
164.1191499999998
 51
195.88085
  0
LINE
  5
D91B
330
D762
100
AcDbEntity
  8
1
  6
Continuous
100
AcDbLine
 10
28.6
 20
189.114211
 30
0.0
 11
29.34084699999999
 21
189.114211
 31
0.0
  0
LINE
  5
D91C
330
D762
100
AcDbEntity
  8
1
  6
Continuous
100
AcDbLine
 10
28.6
 20
199.114211
 30
0.0
 11
29.34084699999999
 21
199.114211
 31
0.0
  0
LINE
  5
D91D
330
D762
100
AcDbEntity
  8
1
  6
Continuous
100
AcDbLine
 10
27.6
 20
197.9142109999999
 30
0.0
 11
28.6
 21
197.9142109999999
 31
0.0
  0
LINE
  5
D91E
330
D762
100
AcDbEntity
  8
1
  6
Continuous
100
AcDbLine
 10
27.6
 20
197.6142109999999
 30
0.0
 11
26.48058499999999
 21
197.516275
 31
0.0
  0
LINE
  5
D91F
330
D762
100
AcDbEntity
  8
1
  6
Continuous
100
AcDbLine
 10
28.6
 20
189.114211
 30
0.0
 11
28.6
 21
199.114211
 31
0.0
  0
LINE
  5
D920
330
D762
100
AcDbEntity
  8
1
  6
Continuous
100
AcDbLine
 10
27.6
 20
190.314211
 30
0.0
 11
27.6
 21
197.9142109999999
 31
0.0
  0
LINE
  5
D921
330
D762
100
AcDbEntity
  8
1
  6
Continuous
100
AcDbLine
 10
27.6
 20
194.114211
 30
0.0
 11
28.6
 21
195.114211
 31
0.0
  0
LINE
  5
D922
330
D762
100
AcDbEntity
  8
1
  6
Continuous
100
AcDbLine
 10
27.6
 20
193.114211
 30
0.0
 11
28.6
 21
194.114211
 31
0.0
  0
LINE
  5
D923
330
D762
100
AcDbEntity
  8
1
  6
Continuous
100
AcDbLine
 10
27.6
 20
190.614211
 30
0.0
 11
26.48058499999999
 21
190.7121469999999
 31
0.0
  0
LINE
  5
D924
330
D762
100
AcDbEntity
  8
1
  6
Continuous
100
AcDbLine
 10
27.6
 20
190.314211
 30
0.0
 11
28.6
 21
190.314211
 31
0.0
  0
LINE
  5
D925
330
D762
100
AcDbEntity
  8
1
  6
Continuous
100
AcDbLine
 10
354.3694529999998
 20
174.114211
 30
0.0
 11
357.551035
 21
174.114211
 31
0.0
  0
LINE
  5
D926
330
D762
100
AcDbEntity
  8
1
  6
Continuous
100
AcDbLine
 10
354.3694529999998
 20
254.114211
 30
0.0
 11
357.551035
 21
254.114211
 31
0.0
  0
LINE
  5
D927
330
D762
100
AcDbEntity
  8
4
  6
CENTER
100
AcDbLine
 10
348.060838
 20
234.1142109999999
 30
0.0
 11
364.1773950000001
 21
234.1142109999999
 31
0.0
  0
ARC
  5
D928
330
D762
100
AcDbEntity
  8
1
  6
Continuous
100
AcDbCircle
 10
360.2388409999999
 20
236.2212219999999
 30
0.0
 40
1.3
100
AcDbArc
 50
15.88085
 51
85.0
  0
ARC
  5
D929
330
D762
100
AcDbEntity
  8
1
  6
Continuous
100
AcDbCircle
 10
360.2388409999999
 20
232.007201
 30
0.0
 40
1.3
100
AcDbArc
 50
275.0
 51
344.1191499999998
  0
ARC
  5
D92A
330
D762
100
AcDbEntity
  8
1
  6
Continuous
100
AcDbCircle
 10
352.832729
 20
234.1142109999999
 30
0.0
 40
9.0
100
AcDbArc
 50
344.1191499999998
 51
15.88085
  0
LINE
  5
D92B
330
D762
100
AcDbEntity
  8
1
  6
Continuous
100
AcDbLine
 10
358.232729
 20
229.114211
 30
0.0
 11
357.4918819999999
 21
229.114211
 31
0.0
  0
LINE
  5
D92C
330
D762
100
AcDbEntity
  8
1
  6
Continuous
100
AcDbLine
 10
358.232729
 20
239.114211
 30
0.0
 11
357.4918819999999
 21
239.114211
 31
0.0
  0
LINE
  5
D92D
330
D762
100
AcDbEntity
  8
1
  6
Continuous
100
AcDbLine
 10
359.232729
 20
237.914211
 30
0.0
 11
358.232729
 21
237.914211
 31
0.0
  0
LINE
  5
D92E
330
D762
100
AcDbEntity
  8
1
  6
Continuous
100
AcDbLine
 10
359.232729
 20
237.6142109999999
 30
0.0
 11
360.352144
 21
237.516275
 31
0.0
  0
LINE
  5
D92F
330
D762
100
AcDbEntity
  8
1
  6
Continuous
100
AcDbLine
 10
358.232729
 20
229.114211
 30
0.0
 11
358.232729
 21
239.114211
 31
0.0
  0
LINE
  5
D930
330
D762
100
AcDbEntity
  8
1
  6
Continuous
100
AcDbLine
 10
359.232729
 20
230.314211
 30
0.0
 11
359.232729
 21
237.914211
 31
0.0
  0
LINE
  5
D931
330
D762
100
AcDbEntity
  8
1
  6
Continuous
100
AcDbLine
 10
359.232729
 20
234.1142109999999
 30
0.0
 11
358.232729
 21
233.114211
 31
0.0
  0
LINE
  5
D932
330
D762
100
AcDbEntity
  8
1
  6
Continuous
100
AcDbLine
 10
359.232729
 20
235.114211
 30
0.0
 11
358.232729
 21
234.1142109999999
 31
0.0
  0
LINE
  5
D933
330
D762
100
AcDbEntity
  8
1
  6
Continuous
100
AcDbLine
 10
359.232729
 20
230.6142109999999
 30
0.0
 11
360.352144
 21
230.7121469999999
 31
0.0
  0
LINE
  5
D934
330
D762
100
AcDbEntity
  8
1
  6
Continuous
100
AcDbLine
 10
359.232729
 20
230.314211
 30
0.0
 11
358.232729
 21
230.314211
 31
0.0
  0
LINE
  5
D935
330
D762
100
AcDbEntity
  8
1
  6
Continuous
100
AcDbLine
 10
356.359734
 20
174.114211
 30
0.0
 11
356.359734
 21
254.114211
 31
0.0
  0
LINE
  5
D936
330
D762
100
AcDbEntity
  8
1
  6
Continuous
100
AcDbLine
 10
357.551035
 20
174.114211
 30
0.0
 11
357.551035
 21
189.114211
 31
0.0
  0
LINE
  5
D937
330
D762
100
AcDbEntity
  8
1
  6
Continuous
100
AcDbLine
 10
357.551035
 20
239.114211
 30
0.0
 11
357.551035
 21
254.114211
 31
0.0
  0
LINE
  5
D938
330
D762
100
AcDbEntity
  8
1
  6
Continuous
100
AcDbLine
 10
357.4918819999999
 20
239.114211
 30
0.0
 11
357.4918819999999
 21
229.114211
 31
0.0
  0
LINE
  5
D939
330
D762
100
AcDbEntity
  8
4
  6
CENTER
100
AcDbLine
 10
357.3694529999999
 20
189.114211
 30
0.0
 11
344.1941529999998
 21
189.114211
 31
0.0
  0
ARC
  5
D93A
330
D762
100
AcDbEntity
  8
1
  6
Continuous
100
AcDbCircle
 10
360.2388409999999
 20
192.007201
 30
0.0
 40
1.3
100
AcDbArc
 50
275.0
 51
344.1191499999998
  0
ARC
  5
D93B
330
D762
100
AcDbEntity
  8
1
  6
Continuous
100
AcDbCircle
 10
360.2388409999999
 20
196.2212219999999
 30
0.0
 40
1.3
100
AcDbArc
 50
15.88085
 51
85.0
  0
LINE
  5
D93C
330
D762
100
AcDbEntity
  8
1
  6
Continuous
100
AcDbLine
 10
357.4918819999999
 20
199.114211
 30
0.0
 11
357.4918819999999
 21
189.114211
 31
0.0
  0
LINE
  5
D93D
330
D762
100
AcDbEntity
  8
1
  6
Continuous
100
AcDbLine
 10
359.232729
 20
190.314211
 30
0.0
 11
358.232729
 21
190.314211
 31
0.0
  0
LINE
  5
D93E
330
D762
100
AcDbEntity
  8
1
  6
Continuous
100
AcDbLine
 10
359.232729
 20
195.114211
 30
0.0
 11
358.232729
 21
194.114211
 31
0.0
  0
LINE
  5
D93F
330
D762
100
AcDbEntity
  8
1
  6
Continuous
100
AcDbLine
 10
359.232729
 20
194.114211
 30
0.0
 11
358.232729
 21
193.114211
 31
0.0
  0
LINE
  5
D940
330
D762
100
AcDbEntity
  8
1
  6
Continuous
100
AcDbLine
 10
359.232729
 20
190.314211
 30
0.0
 11
359.232729
 21
197.9142109999999
 31
0.0
  0
LINE
  5
D941
330
D762
100
AcDbEntity
  8
1
  6
Continuous
100
AcDbLine
 10
358.232729
 20
189.114211
 30
0.0
 11
358.232729
 21
199.114211
 31
0.0
  0
LINE
  5
D942
330
D762
100
AcDbEntity
  8
1
  6
Continuous
100
AcDbLine
 10
359.232729
 20
197.9142109999999
 30
0.0
 11
358.232729
 21
197.9142109999999
 31
0.0
  0
LINE
  5
D943
330
D762
100
AcDbEntity
  8
1
  6
Continuous
100
AcDbLine
 10
358.232729
 20
199.114211
 30
0.0
 11
357.4918819999999
 21
199.114211
 31
0.0
  0
LINE
  5
D944
330
D762
100
AcDbEntity
  8
1
  6
Continuous
100
AcDbLine
 10
358.232729
 20
189.114211
 30
0.0
 11
357.4918819999999
 21
189.114211
 31
0.0
  0
LINE
  5
D945
330
D762
100
AcDbEntity
  8
1
  6
Continuous
100
AcDbLine
 10
359.232729
 20
190.614211
 30
0.0
 11
360.352144
 21
190.7121469999999
 31
0.0
  0
LINE
  5
D946
330
D762
100
AcDbEntity
  8
1
  6
Continuous
100
AcDbLine
 10
359.232729
 20
197.6142109999999
 30
0.0
 11
360.352144
 21
197.516275
 31
0.0
  0
ARC
  5
D947
330
D762
100
AcDbEntity
  8
1
  6
Continuous
100
AcDbCircle
 10
352.832729
 20
194.114211
 30
0.0
 40
9.0
100
AcDbArc
 50
344.1191499999998
 51
15.88085
  0
LINE
  5
D948
330
D762
100
AcDbEntity
  8
4
  6
CENTER
100
AcDbLine
 10
348.060838
 20
194.114211
 30
0.0
 11
364.1773950000001
 21
194.114211
 31
0.0
  0
LINE
  5
D949
330
D762
100
AcDbEntity
  8
1
  6
Continuous
100
AcDbLine
 10
357.551035
 20
199.114211
 30
0.0
 11
357.551035
 21
229.114211
 31
0.0
  0
LINE
  5
D94A
330
D762
100
AcDbEntity
  8
4
  6
CENTER
100
AcDbLine
 10
38.831044
 20
194.114211
 30
0.0
 11
22.714487
 21
194.114211
 31
0.0
  0
LINE
  5
D94B
330
D762
100
AcDbEntity
  8
4
  6
CENTER
100
AcDbLine
 10
29.52242899999999
 20
189.114211
 30
0.0
 11
42.69772899999997
 21
189.114211
 31
0.0
  0
LINE
  5
D94C
330
D762
100
AcDbEntity
  8
4
  6
CENTER
100
AcDbLine
 10
29.52242899999999
 20
196.614211
 30
0.0
 11
39.675173
 21
196.614211
 31
0.0
  0
LINE
  5
D94D
330
D762
100
AcDbEntity
  8
4
  6
CENTER
100
AcDbLine
 10
29.52242899999999
 20
184.114211
 30
0.0
 11
35.52242899999999
 21
184.114211
 31
0.0
  0
LINE
  5
D94E
330
D762
100
AcDbEntity
  8
4
  6
CENTER
100
AcDbLine
 10
38.831044
 20
234.1142109999999
 30
0.0
 11
22.714487
 21
234.1142109999999
 31
0.0
  0
LINE
  5
D94F
330
D762
100
AcDbEntity
  8
4
  6
CENTER
100
AcDbLine
 10
29.52242899999999
 20
239.114211
 30
0.0
 11
42.69772899999997
 21
239.114211
 31
0.0
  0
LINE
  5
D950
330
D762
100
AcDbEntity
  8
4
  6
CENTER
100
AcDbLine
 10
29.52242899999999
 20
244.1142109999999
 30
0.0
 11
35.52242899999999
 21
244.1142109999999
 31
0.0
  0
LINE
  5
D951
330
D762
100
AcDbEntity
  8
4
  6
CENTER
100
AcDbLine
 10
29.52242899999999
 20
231.6142109999999
 30
0.0
 11
39.675173
 21
231.6142109999999
 31
0.0
  0
LINE
  5
D952
330
D762
100
AcDbEntity
  8
1
  6
Continuous
100
AcDbLine
 10
532.3980589999998
 20
176.114211
 30
0.0
 11
532.3980589999998
 21
252.1142109999999
 31
0.0
  0
LINE
  5
D953
330
D762
100
AcDbEntity
  8
1
  6
Continuous
100
AcDbLine
 10
530.398059
 20
254.114211
 30
0.0
 11
510.1470479999998
 21
254.114211
 31
0.0
  0
LINE
  5
D954
330
D762
100
AcDbEntity
  8
1
  6
Continuous
100
AcDbLine
 10
530.398059
 20
174.114211
 30
0.0
 11
510.1470479999998
 21
174.114211
 31
0.0
  0
ARC
  5
D955
330
D762
100
AcDbEntity
  8
1
  6
Continuous
100
AcDbCircle
 10
530.398059
 20
252.1142109999999
 30
0.0
 40
2.0
100
AcDbArc
 50
0.0
 51
90.0
  0
ARC
  5
D956
330
D762
100
AcDbEntity
  8
1
  6
Continuous
100
AcDbCircle
 10
530.398059
 20
176.114211
 30
0.0
 40
2.0
100
AcDbArc
 50
270.0
 51
0.0
  0
ARC
  5
D957
330
D762
100
AcDbEntity
  8
1
  6
Continuous
100
AcDbCircle
 10
18.089123
 20
214.114211
 30
0.0
 40
508.4999999999998
100
AcDbArc
 50
354.992968
 51
355.488296
  0
ARC
  5
D958
330
D762
100
AcDbEntity
  8
1
  6
Continuous
100
AcDbCircle
 10
18.089123
 20
214.114211
 30
0.0
 40
508.4999999999998
100
AcDbArc
 50
4.511703999999999
 51
5.007031999999997
  0
LINE
  5
D959
330
D762
100
AcDbEntity
  8
1
  6
Continuous
100
AcDbLine
 10
508.147048
 20
176.114211
 30
0.0
 11
508.147048
 21
252.1142109999999
 31
0.0
  0
ARC
  5
D95A
330
D762
100
AcDbEntity
  8
1
  6
Continuous
100
AcDbCircle
 10
510.1470479999998
 20
252.1142109999999
 30
0.0
 40
2.0
100
AcDbArc
 50
90.0
 51
180.0
  0
ARC
  5
D95B
330
D762
100
AcDbEntity
  8
1
  6
Continuous
100
AcDbCircle
 10
510.1470479999998
 20
176.114211
 30
0.0
 40
2.0
100
AcDbArc
 50
180.0
 51
270.0
  0
LINE
  5
D95C
330
D762
100
AcDbEntity
  8
1
  6
Continuous
100
AcDbLine
 10
519.5891229999999
 20
174.114211
 30
0.0
 11
519.5891229999999
 21
169.114211
 31
0.0
  0
LINE
  5
D95D
330
D762
100
AcDbEntity
  8
1
  6
Continuous
100
AcDbLine
 10
524.7375739999998
 20
174.114211
 30
0.0
 11
524.7375739999998
 21
254.114211
 31
0.0
  0
LINE
  5
D95E
330
D762
100
AcDbEntity
  8
1
  6
Continuous
100
AcDbLine
 10
522.079015
 20
174.114211
 30
0.0
 11
522.079015
 21
254.114211
 31
0.0
  0
ARC
  5
D95F
330
D762
100
AcDbEntity
  8
1
  6
Continuous
100
AcDbCircle
 10
514.5881229999998
 20
194.114211
 30
0.0
 40
2.1
100
AcDbArc
 50
213.463
 51
236.5369999999999
  0
ARC
  5
D960
330
D762
100
AcDbEntity
  8
1
  6
Continuous
100
AcDbCircle
 10
514.5881229999998
 20
194.114211
 30
0.0
 40
2.1
100
AcDbArc
 50
123.4629999999998
 51
146.537
  0
LINE
  5
D961
330
D762
100
AcDbEntity
  8
1
  6
Continuous
100
AcDbLine
 10
513.44756
 20
193.5888309999999
 30
0.0
 11
512.83662
 21
192.956677
 31
0.0
  0
LINE
  5
D962
330
D762
100
AcDbEntity
  8
1
  6
Continuous
100
AcDbLine
 10
513.44756
 20
194.6395909999999
 30
0.0
 11
512.83662
 21
195.2717449999999
 31
0.0
  0
CIRCLE
  5
D963
330
D762
100
AcDbEntity
  8
1
  6
Continuous
100
AcDbCircle
 10
514.5891230000001
 20
194.114211
 30
0.0
 40
3.799999999999998
  0
CIRCLE
  5
D964
330
D762
100
AcDbEntity
  8
1
  6
Continuous
100
AcDbCircle
 10
514.5891230000001
 20
194.114211
 30
0.0
 40
3.5
  0
CIRCLE
  5
D965
330
D762
100
AcDbEntity
  8
1
  6
Continuous
100
AcDbCircle
 10
514.5891230000001
 20
194.114211
 30
0.0
 40
5.0
  0
LINE
  5
D966
330
D762
100
AcDbEntity
  8
1
  6
Continuous
100
AcDbLine
 10
515.113503
 20
192.973648
 30
0.0
 11
515.747071
 21
192.3627079999999
 31
0.0
  0
LINE
  5
D967
330
D762
100
AcDbEntity
  8
1
  6
Continuous
100
AcDbLine
 10
515.1142099999998
 20
195.255481
 30
0.0
 11
515.7463639999998
 21
195.866422
 31
0.0
  0
ARC
  5
D968
330
D762
100
AcDbEntity
  8
1
  6
Continuous
100
AcDbCircle
 10
514.5881229999998
 20
194.114211
 30
0.0
 40
2.1
100
AcDbArc
 50
303.4629999999999
 51
326.5369999999998
  0
ARC
  5
D969
330
D762
100
AcDbEntity
  8
1
  6
Continuous
100
AcDbCircle
 10
514.5881229999998
 20
194.114211
 30
0.0
 40
2.1
100
AcDbArc
 50
33.463
 51
56.537
  0
LINE
  5
D96A
330
D762
100
AcDbEntity
  8
1
  6
Continuous
100
AcDbLine
 10
515.7293929999998
 20
193.5895379999998
 30
0.0
 11
516.340334
 21
192.95597
 31
0.0
  0
LINE
  5
D96B
330
D762
100
AcDbEntity
  8
1
  6
Continuous
100
AcDbLine
 10
515.5384749999998
 20
194.114211
 30
0.0
 11
515.7293929999998
 21
193.5895379999998
 31
0.0
  0
LINE
  5
D96C
330
D762
100
AcDbEntity
  8
1
  6
Continuous
100
AcDbLine
 10
515.7293929999998
 20
194.640298
 30
0.0
 11
516.340334
 21
195.2724519999999
 31
0.0
  0
LINE
  5
D96D
330
D762
100
AcDbEntity
  8
1
  6
Continuous
100
AcDbLine
 10
515.5384749999998
 20
194.114211
 30
0.0
 11
515.7293929999998
 21
194.640298
 31
0.0
  0
LINE
  5
D96E
330
D762
100
AcDbEntity
  8
1
  6
Continuous
100
AcDbLine
 10
513.638479
 20
194.114918
 30
0.0
 11
513.44756
 21
193.5888309999999
 31
0.0
  0
LINE
  5
D96F
330
D762
100
AcDbEntity
  8
1
  6
Continuous
100
AcDbLine
 10
514.0627429999998
 20
192.973648
 30
0.0
 11
513.4305889999999
 21
192.3627079999999
 31
0.0
  0
LINE
  5
D970
330
D762
100
AcDbEntity
  8
1
  6
Continuous
100
AcDbLine
 10
514.58883
 20
193.164567
 30
0.0
 11
514.0627429999998
 21
192.973648
 31
0.0
  0
LINE
  5
D971
330
D762
100
AcDbEntity
  8
1
  6
Continuous
100
AcDbLine
 10
514.5881229999998
 20
195.0645629999999
 30
0.0
 11
514.0634499999999
 21
195.255481
 31
0.0
  0
LINE
  5
D972
330
D762
100
AcDbEntity
  8
1
  6
Continuous
100
AcDbLine
 10
514.0634499999999
 20
195.255481
 30
0.0
 11
513.4305889999999
 21
195.8657139999999
 31
0.0
  0
LINE
  5
D973
330
D762
100
AcDbEntity
  8
1
  6
Continuous
100
AcDbLine
 10
513.638479
 20
194.114918
 30
0.0
 11
513.44756
 21
194.6395909999999
 31
0.0
  0
LINE
  5
D974
330
D762
100
AcDbEntity
  8
1
  6
Continuous
100
AcDbLine
 10
514.58883
 20
193.164567
 30
0.0
 11
515.113503
 21
192.973648
 31
0.0
  0
LINE
  5
D975
330
D762
100
AcDbEntity
  8
1
  6
Continuous
100
AcDbLine
 10
514.5881229999998
 20
195.0645629999999
 30
0.0
 11
515.1142099999998
 21
195.255481
 31
0.0
  0
LINE
  5
D976
330
D762
100
AcDbEntity
  8
4
  6
CENTER
100
AcDbLine
 10
522.5891230000001
 20
194.114211
 30
0.0
 11
506.589123
 21
194.114211
 31
0.0
  0
LINE
  5
D977
330
D762
100
AcDbEntity
  8
4
  6
CENTER
100
AcDbLine
 10
514.5891230000001
 20
186.114211
 30
0.0
 11
514.5891230000001
 21
202.1142109999999
 31
0.0
  0
LINE
  5
D978
330
D762
100
AcDbEntity
  8
4
  6
CENTER
100
AcDbLine
 10
514.5891230000001
 20
226.1142109999999
 30
0.0
 11
514.5891230000001
 21
242.1142109999999
 31
0.0
  0
LINE
  5
D979
330
D762
100
AcDbEntity
  8
4
  6
CENTER
100
AcDbLine
 10
522.5891230000001
 20
234.1142109999999
 30
0.0
 11
506.589123
 21
234.1142109999999
 31
0.0
  0
LINE
  5
D97A
330
D762
100
AcDbEntity
  8
1
  6
Continuous
100
AcDbLine
 10
514.5881229999998
 20
235.0645629999999
 30
0.0
 11
515.1142099999998
 21
235.2554809999999
 31
0.0
  0
LINE
  5
D97B
330
D762
100
AcDbEntity
  8
1
  6
Continuous
100
AcDbLine
 10
514.58883
 20
233.1645669999999
 30
0.0
 11
515.113503
 21
232.973648
 31
0.0
  0
LINE
  5
D97C
330
D762
100
AcDbEntity
  8
1
  6
Continuous
100
AcDbLine
 10
513.638479
 20
234.1149179999999
 30
0.0
 11
513.44756
 21
234.639591
 31
0.0
  0
LINE
  5
D97D
330
D762
100
AcDbEntity
  8
1
  6
Continuous
100
AcDbLine
 10
514.0634499999999
 20
235.2554809999999
 30
0.0
 11
513.4305889999999
 21
235.865714
 31
0.0
  0
LINE
  5
D97E
330
D762
100
AcDbEntity
  8
1
  6
Continuous
100
AcDbLine
 10
514.5881229999998
 20
235.0645629999999
 30
0.0
 11
514.0634499999999
 21
235.2554809999999
 31
0.0
  0
LINE
  5
D97F
330
D762
100
AcDbEntity
  8
1
  6
Continuous
100
AcDbLine
 10
514.58883
 20
233.1645669999999
 30
0.0
 11
514.0627429999998
 21
232.973648
 31
0.0
  0
LINE
  5
D980
330
D762
100
AcDbEntity
  8
1
  6
Continuous
100
AcDbLine
 10
514.0627429999998
 20
232.973648
 30
0.0
 11
513.4305889999999
 21
232.362708
 31
0.0
  0
LINE
  5
D981
330
D762
100
AcDbEntity
  8
1
  6
Continuous
100
AcDbLine
 10
513.638479
 20
234.1149179999999
 30
0.0
 11
513.44756
 21
233.588831
 31
0.0
  0
LINE
  5
D982
330
D762
100
AcDbEntity
  8
1
  6
Continuous
100
AcDbLine
 10
515.5384749999998
 20
234.1142109999999
 30
0.0
 11
515.7293929999998
 21
234.640298
 31
0.0
  0
LINE
  5
D983
330
D762
100
AcDbEntity
  8
1
  6
Continuous
100
AcDbLine
 10
515.7293929999998
 20
234.640298
 30
0.0
 11
516.340334
 21
235.2724519999999
 31
0.0
  0
LINE
  5
D984
330
D762
100
AcDbEntity
  8
1
  6
Continuous
100
AcDbLine
 10
515.5384749999998
 20
234.1142109999999
 30
0.0
 11
515.7293929999998
 21
233.5895379999998
 31
0.0
  0
LINE
  5
D985
330
D762
100
AcDbEntity
  8
1
  6
Continuous
100
AcDbLine
 10
515.7293929999998
 20
233.5895379999998
 30
0.0
 11
516.340334
 21
232.95597
 31
0.0
  0
ARC
  5
D986
330
D762
100
AcDbEntity
  8
1
  6
Continuous
100
AcDbCircle
 10
514.5881229999998
 20
234.1142109999999
 30
0.0
 40
2.1
100
AcDbArc
 50
33.463
 51
56.537
  0
ARC
  5
D987
330
D762
100
AcDbEntity
  8
1
  6
Continuous
100
AcDbCircle
 10
514.5881229999998
 20
234.1142109999999
 30
0.0
 40
2.1
100
AcDbArc
 50
303.4629999999999
 51
326.5369999999998
  0
LINE
  5
D988
330
D762
100
AcDbEntity
  8
1
  6
Continuous
100
AcDbLine
 10
515.1142099999998
 20
235.2554809999999
 30
0.0
 11
515.7463639999998
 21
235.866422
 31
0.0
  0
LINE
  5
D989
330
D762
100
AcDbEntity
  8
1
  6
Continuous
100
AcDbLine
 10
515.113503
 20
232.973648
 30
0.0
 11
515.747071
 21
232.362708
 31
0.0
  0
CIRCLE
  5
D98A
330
D762
100
AcDbEntity
  8
1
  6
Continuous
100
AcDbCircle
 10
514.5891230000001
 20
234.1142109999999
 30
0.0
 40
5.0
  0
CIRCLE
  5
D98B
330
D762
100
AcDbEntity
  8
1
  6
Continuous
100
AcDbCircle
 10
514.5891230000001
 20
234.1142109999999
 30
0.0
 40
3.5
  0
CIRCLE
  5
D98C
330
D762
100
AcDbEntity
  8
1
  6
Continuous
100
AcDbCircle
 10
514.5891230000001
 20
234.1142109999999
 30
0.0
 40
3.799999999999998
  0
LINE
  5
D98D
330
D762
100
AcDbEntity
  8
1
  6
Continuous
100
AcDbLine
 10
513.44756
 20
234.639591
 30
0.0
 11
512.83662
 21
235.271745
 31
0.0
  0
LINE
  5
D98E
330
D762
100
AcDbEntity
  8
1
  6
Continuous
100
AcDbLine
 10
513.44756
 20
233.588831
 30
0.0
 11
512.83662
 21
232.956677
 31
0.0
  0
ARC
  5
D98F
330
D762
100
AcDbEntity
  8
1
  6
Continuous
100
AcDbCircle
 10
514.5881229999998
 20
234.1142109999999
 30
0.0
 40
2.1
100
AcDbArc
 50
123.4629999999998
 51
146.537
  0
ARC
  5
D990
330
D762
100
AcDbEntity
  8
1
  6
Continuous
100
AcDbCircle
 10
514.5881229999998
 20
234.1142109999999
 30
0.0
 40
2.1
100
AcDbArc
 50
213.463
 51
236.5369999999999
  0
ARC
  5
D991
330
D762
100
AcDbEntity
  8
1
  6
Continuous
100
AcDbCircle
 10
186.768449
 20
151.675976
 30
0.0
 40
7.0
100
AcDbArc
 50
148.9972809999999
 51
31.002719
  0
CIRCLE
  5
D992
330
D762
100
AcDbEntity
  8
1
  6
Continuous
100
AcDbCircle
 10
186.768449
 20
151.675976
 30
0.0
 40
3.149999999999999
  0
LINE
  5
D993
330
D762
100
AcDbEntity
  8
4
  6
CENTER
100
AcDbLine
 10
186.768449
 20
139.7770909999999
 30
0.0
 11
186.768449
 21
168.0737259999999
 31
0.0
  0
LINE
  5
D994
330
D762
100
AcDbEntity
  8
1
  6
Continuous
100
AcDbLine
 10
182.268449
 20
58.322429
 30
0.0
 11
191.268449
 21
58.322429
 31
0.0
  0
LINE
  5
D995
330
D762
100
AcDbEntity
  8
1
  6
Continuous
100
AcDbLine
 10
183.268449
 20
59.32242900000001
 30
0.0
 11
190.268449
 21
59.32242900000001
 31
0.0
  0
LINE
  5
D996
330
D762
100
AcDbEntity
  8
1
  6
Continuous
100
AcDbLine
 10
182.268449
 20
57.32242900000001
 30
0.0
 11
191.268449
 21
57.32242900000001
 31
0.0
  0
ARC
  5
D997
330
D762
100
AcDbEntity
  8
1
  6
Continuous
100
AcDbCircle
 10
186.768449
 20
58.601
 30
0.0
 40
6.778571
100
AcDbArc
 50
243.7319549999999
 51
296.2680449999999
  0
LINE
  5
D998
330
D762
100
AcDbEntity
  8
1
  6
Continuous
100
AcDbLine
 10
180.7684489999998
 20
56.82242900000001
 30
0.0
 11
192.768449
 21
56.82242900000001
 31
0.0
  0
LINE
  5
D999
330
D762
100
AcDbEntity
  8
1
  6
Continuous
100
AcDbLine
 10
180.7684489999998
 20
52.522429
 30
0.0
 11
192.768449
 21
52.522429
 31
0.0
  0
LINE
  5
D99A
330
D762
100
AcDbEntity
  8
1
  6
Continuous
100
AcDbLine
 10
179.7684489999998
 20
52.522429
 30
0.0
 11
193.768449
 21
52.522429
 31
0.0
  0
LINE
  5
D99B
330
D762
100
AcDbEntity
  8
1
  6
Continuous
100
AcDbLine
 10
179.7684489999998
 20
54.522429
 30
0.0
 11
193.768449
 21
54.522429
 31
0.0
  0
LINE
  5
D99C
330
D762
100
AcDbEntity
  8
1
  6
Continuous
100
AcDbLine
 10
179.7684489999998
 20
54.522429
 30
0.0
 11
179.7684489999998
 21
52.522429
 31
0.0
  0
LINE
  5
D99D
330
D762
100
AcDbEntity
  8
1
  6
Continuous
100
AcDbLine
 10
183.8313649999999
 20
52.491781
 30
0.0
 11
183.8313649999999
 21
50.52242899999999
 31
0.0
  0
LINE
  5
D99E
330
D762
100
AcDbEntity
  8
1
  6
Continuous
100
AcDbLine
 10
183.768449
 20
57.32242900000001
 30
0.0
 11
183.768449
 21
56.82242900000001
 31
0.0
  0
LINE
  5
D99F
330
D762
100
AcDbEntity
  8
1
  6
Continuous
100
AcDbLine
 10
183.268449
 20
59.32242900000001
 30
0.0
 11
182.268449
 21
58.322429
 31
0.0
  0
LINE
  5
D9A0
330
D762
100
AcDbEntity
  8
1
  6
Continuous
100
AcDbLine
 10
182.268449
 20
58.322429
 30
0.0
 11
182.268449
 21
57.32242900000001
 31
0.0
  0
LINE
  5
D9A1
330
D762
100
AcDbEntity
  8
1
  6
Continuous
100
AcDbLine
 10
180.7684489999998
 20
56.82242900000001
 30
0.0
 11
180.7684489999998
 21
54.522429
 31
0.0
  0
LINE
  5
D9A2
330
D762
100
AcDbEntity
  8
1
  6
Continuous
100
AcDbLine
 10
193.768449
 20
54.21558499999999
 30
0.0
 11
196.064188
 21
52.822429
 31
0.0
  0
LINE
  5
D9A3
330
D762
100
AcDbEntity
  8
1
  6
Continuous
100
AcDbLine
 10
193.768449
 20
54.522429
 30
0.0
 11
193.768449
 21
52.522429
 31
0.0
  0
LINE
  5
D9A4
330
D762
100
AcDbEntity
  8
1
  6
Continuous
100
AcDbLine
 10
196.064188
 20
52.822429
 30
0.0
 11
206.8313649999999
 21
52.822429
 31
0.0
  0
ARC
  5
D9A5
330
D762
100
AcDbEntity
  8
1
  6
Continuous
100
AcDbCircle
 10
196.064188
 20
52.822429
 30
0.0
 40
2.299999999999998
100
AcDbArc
 50
238.7487769999999
 51
270.0
  0
LINE
  5
D9A6
330
D762
100
AcDbEntity
  8
1
  6
Continuous
100
AcDbLine
 10
192.125169
 20
52.522429
 30
0.0
 11
194.870968
 21
50.856157
 31
0.0
  0
LINE
  5
D9A7
330
D762
100
AcDbEntity
  8
1
  6
Continuous
100
AcDbLine
 10
206.8313649999999
 20
52.822429
 30
0.0
 11
206.8313649999999
 21
50.52242899999999
 31
0.0
  0
LINE
  5
D9A8
330
D762
100
AcDbEntity
  8
1
  6
Continuous
100
AcDbLine
 10
189.7684489999998
 20
57.32242900000001
 30
0.0
 11
189.7684489999998
 21
56.82242900000001
 31
0.0
  0
LINE
  5
D9A9
330
D762
100
AcDbEntity
  8
1
  6
Continuous
100
AcDbLine
 10
190.268449
 20
59.32242900000001
 30
0.0
 11
191.268449
 21
58.322429
 31
0.0
  0
LINE
  5
D9AA
330
D762
100
AcDbEntity
  8
1
  6
Continuous
100
AcDbLine
 10
191.268449
 20
58.322429
 30
0.0
 11
191.268449
 21
57.32242900000001
 31
0.0
  0
LINE
  5
D9AB
330
D762
100
AcDbEntity
  8
1
  6
Continuous
100
AcDbLine
 10
192.768449
 20
54.82242900000001
 30
0.0
 11
193.26281
 21
54.522429
 31
0.0
  0
LINE
  5
D9AC
330
D762
100
AcDbEntity
  8
1
  6
Continuous
100
AcDbLine
 10
192.768449
 20
56.82242900000001
 30
0.0
 11
192.768449
 21
54.522429
 31
0.0
  0
LINE
  5
D9AD
330
D762
100
AcDbEntity
  8
4
  6
CENTER
100
AcDbLine
 10
175.5584489999999
 20
151.675976
 30
0.0
 11
199.2744489999998
 21
151.675976
 31
0.0
  0
LINE
  5
D9AE
330
D762
100
AcDbEntity
  8
5
  6
PHANTOM
100
AcDbLine
 10
186.442915
 20
86.63098599999996
 30
0.0
 11
192.0783759999999
 21
89.72566200000001
 31
0.0
  0
ARC
  5
D9AF
330
D762
100
AcDbEntity
  8
5
  6
PHANTOM
100
AcDbCircle
 10
463.641087
 20
-412.958046
 30
0.0
 40
574.833333
100
AcDbArc
 50
118.145981
 51
120.64937
  0
ARC
  5
D9B0
330
D762
100
AcDbEntity
  8
5
  6
PHANTOM
100
AcDbCircle
 10
186.924257
 20
85.754453
 30
0.0
 40
1.0
100
AcDbArc
 50
118.7731
 51
208.7731
  0
ARC
  5
D9B1
330
D762
100
AcDbEntity
  8
5
  6
PHANTOM
100
AcDbCircle
 10
183.418126
 20
83.82908399999998
 30
0.0
 40
1.0
100
AcDbArc
 50
28.77309999999999
 51
118.7731
  0
LINE
  5
D9B2
330
D762
100
AcDbEntity
  8
5
  6
PHANTOM
100
AcDbLine
 10
177.661654
 20
81.808814
 30
0.0
 11
182.9367839999999
 21
84.70561700000002
 31
0.0
  0
LINE
  5
D9B3
330
D762
100
AcDbEntity
  8
5
  6
PHANTOM
100
AcDbLine
 10
186.0477239999999
 20
85.273111
 30
0.0
 11
187.847181
 21
81.996268
 31
0.0
  0
LINE
  5
D9B4
330
D762
100
AcDbEntity
  8
5
  6
PHANTOM
100
AcDbLine
 10
184.294659
 20
84.310427
 30
0.0
 11
185.579799
 21
81.970162
 31
0.0
  0
ARC
  5
D9B5
330
D762
100
AcDbEntity
  8
5
  6
PHANTOM
100
AcDbCircle
 10
192.559718
 20
88.84913
 30
0.0
 40
1.0
100
AcDbArc
 50
72.456704
 51
118.7731
  0
ARC
  5
D9B6
330
D762
100
AcDbEntity
  8
5
  6
PHANTOM
100
AcDbCircle
 10
193.534185
 20
91.93161899999996
 30
0.0
 40
2.232850999999997
100
AcDbArc
 50
252.456704
 51
118.145981
  0
LINE
  5
D9B7
330
D762
100
AcDbEntity
  8
1
  6
Continuous
100
AcDbLine
 10
192.768449
 20
157.553798
 30
0.0
 11
180.7684489999998
 21
157.553798
 31
0.0
  0
LINE
  5
D9B8
330
D762
100
AcDbEntity
  8
1
  6
Continuous
100
AcDbLine
 10
180.2313649999999
 20
181.5642109999998
 30
0.0
 11
189.8313649999998
 21
181.5642109999998
 31
0.0
  0
LINE
  5
D9B9
330
D762
100
AcDbEntity
  8
1
  6
Continuous
100
AcDbLine
 10
180.2313649999999
 20
183.6642109999999
 30
0.0
 11
189.8313649999998
 21
183.6642109999999
 31
0.0
  0
CIRCLE
  5
D9BA
330
D762
100
AcDbEntity
  8
1
  6
Continuous
100
AcDbCircle
 10
185.3313649999998
 20
182.614211
 30
0.0
 40
7.0
  0
CIRCLE
  5
D9BB
330
D762
100
AcDbEntity
  8
1
  6
Continuous
100
AcDbCircle
 10
185.3313649999998
 20
182.614211
 30
0.0
 40
6.7
  0
CIRCLE
  5
D9BC
330
D762
100
AcDbEntity
  8
1
  6
Continuous
100
AcDbCircle
 10
185.3313649999998
 20
182.614211
 30
0.0
 40
7.15
  0
LINE
  5
D9BD
330
D762
100
AcDbEntity
  8
4
  6
CENTER
100
AcDbLine
 10
176.1815729999999
 20
182.6759759999999
 30
0.0
 11
194.4811569999999
 21
182.6759759999999
 31
0.0
  0
LINE
  5
D9BE
330
D762
100
AcDbEntity
  8
1
  6
Continuous
100
AcDbLine
 10
180.7684489999998
 20
155.2814759999999
 30
0.0
 11
180.7684489999998
 21
163.272063
 31
0.0
  0
LINE
  5
D9BF
330
D762
100
AcDbEntity
  8
1
  6
Continuous
100
AcDbLine
 10
184.115827
 20
175.720557
 30
0.0
 11
184.08978
 21
175.572836
 31
0.0
  0
LINE
  5
D9C0
330
D762
100
AcDbEntity
  8
1
  6
Continuous
100
AcDbLine
 10
183.0813649999998
 20
175.827459
 30
0.0
 11
183.0813649999998
 21
175.985674
 31
0.0
  0
LINE
  5
D9C1
330
D762
100
AcDbEntity
  8
4
  6
CENTER
100
AcDbLine
 10
181.7060329999999
 20
165.139594
 30
0.0
 11
181.7060329999999
 21
155.839594
 31
0.0
  0
LINE
  5
D9C2
330
D762
100
AcDbEntity
  8
4
  6
CENTER
100
AcDbLine
 10
186.356033
 20
160.4895939999998
 30
0.0
 11
177.056033
 21
160.4895939999998
 31
0.0
  0
CIRCLE
  5
D9C3
330
D762
100
AcDbEntity
  8
5
  6
PHANTOM
100
AcDbCircle
 10
181.7060329999999
 20
160.4895939999998
 30
0.0
 40
3.149999999999999
  0
LINE
  5
D9C4
330
D762
100
AcDbEntity
  8
1
  6
Continuous
100
AcDbLine
 10
188.231365
 20
183.6642109999999
 30
0.0
 11
188.231365
 21
181.5642109999998
 31
0.0
  0
LINE
  5
D9C5
330
D762
100
AcDbEntity
  8
1
  6
Continuous
100
AcDbLine
 10
185.3313649999998
 20
182.364211
 30
0.0
 11
185.3313649999998
 21
181.5642109999998
 31
0.0
  0
LINE
  5
D9C6
330
D762
100
AcDbEntity
  8
1
  6
Continuous
100
AcDbLine
 10
184.3313649999998
 20
182.364211
 30
0.0
 11
184.3313649999998
 21
181.5642109999998
 31
0.0
  0
LINE
  5
D9C7
330
D762
100
AcDbEntity
  8
1
  6
Continuous
100
AcDbLine
 10
184.3313649999998
 20
182.364211
 30
0.0
 11
185.3313649999998
 21
182.364211
 31
0.0
  0
LINE
  5
D9C8
330
D762
100
AcDbEntity
  8
1
  6
Continuous
100
AcDbLine
 10
186.3313649999998
 20
182.864211
 30
0.0
 11
187.3313649999998
 21
182.864211
 31
0.0
  0
LINE
  5
D9C9
330
D762
100
AcDbEntity
  8
1
  6
Continuous
100
AcDbLine
 10
187.3313649999998
 20
183.6642109999999
 30
0.0
 11
187.3313649999998
 21
182.864211
 31
0.0
  0
LINE
  5
D9CA
330
D762
100
AcDbEntity
  8
1
  6
Continuous
100
AcDbLine
 10
186.3313649999998
 20
183.6642109999999
 30
0.0
 11
186.3313649999998
 21
182.864211
 31
0.0
  0
LINE
  5
D9CB
330
D762
100
AcDbEntity
  8
1
  6
Continuous
100
AcDbLine
 10
183.3313649999998
 20
183.6642109999999
 30
0.0
 11
183.3313649999998
 21
182.764211
 31
0.0
  0
LINE
  5
D9CC
330
D762
100
AcDbEntity
  8
1
  6
Continuous
100
AcDbLine
 10
181.8313649999998
 20
182.764211
 30
0.0
 11
183.3313649999998
 21
182.764211
 31
0.0
  0
LINE
  5
D9CD
330
D762
100
AcDbEntity
  8
1
  6
Continuous
100
AcDbLine
 10
181.8313649999998
 20
182.764211
 30
0.0
 11
181.8313649999998
 21
181.5642109999998
 31
0.0
  0
LINE
  5
D9CE
330
D762
100
AcDbEntity
  8
1
  6
Continuous
100
AcDbLine
 10
180.2313649999999
 20
183.6642109999999
 30
0.0
 11
180.2313649999999
 21
181.5642109999998
 31
0.0
  0
LINE
  5
D9CF
330
D762
100
AcDbEntity
  8
1
  6
Continuous
100
AcDbLine
 10
183.0813649999998
 20
189.242748
 30
0.0
 11
183.0813649999998
 21
189.400963
 31
0.0
  0
LINE
  5
D9D0
330
D762
100
AcDbEntity
  8
1
  6
Continuous
100
AcDbLine
 10
187.5813649999998
 20
189.242748
 30
0.0
 11
187.5813649999998
 21
189.400963
 31
0.0
  0
LINE
  5
D9D1
330
D762
100
AcDbEntity
  8
1
  6
Continuous
100
AcDbLine
 10
178.702828
 20
180.364211
 30
0.0
 11
178.5446129999999
 21
180.364211
 31
0.0
  0
LINE
  5
D9D2
330
D762
100
AcDbEntity
  8
1
  6
Continuous
100
AcDbLine
 10
178.702828
 20
184.864211
 30
0.0
 11
178.5446129999999
 21
184.864211
 31
0.0
  0
LINE
  5
D9D3
330
D762
100
AcDbEntity
  8
1
  6
Continuous
100
AcDbLine
 10
192.768449
 20
155.2814759999999
 30
0.0
 11
192.768449
 21
163.114528
 31
0.0
  0
LINE
  5
D9D4
330
D762
100
AcDbEntity
  8
1
  6
Continuous
100
AcDbLine
 10
189.8313649999998
 20
183.6642109999999
 30
0.0
 11
189.8313649999998
 21
181.5642109999998
 31
0.0
  0
LINE
  5
D9D5
330
D762
100
AcDbEntity
  8
1
  6
Continuous
100
AcDbLine
 10
192.1181169999999
 20
184.864211
 30
0.0
 11
191.9599019999998
 21
184.864211
 31
0.0
  0
LINE
  5
D9D6
330
D762
100
AcDbEntity
  8
1
  6
Continuous
100
AcDbLine
 10
192.2250189999998
 20
183.8297479999999
 30
0.0
 11
192.3727399999999
 21
183.8557959999999
 31
0.0
  0
LINE
  5
D9D7
330
D762
100
AcDbEntity
  8
1
  6
Continuous
100
AcDbLine
 10
192.768449
 20
270.674624
 30
0.0
 11
180.7684489999998
 21
270.674624
 31
0.0
  0
ARC
  5
D9D8
330
D762
100
AcDbEntity
  8
1
  6
Continuous
100
AcDbCircle
 10
186.768449
 20
276.5524459999999
 30
0.0
 40
7.0
100
AcDbArc
 50
328.997281
 51
211.0027189999999
  0
CIRCLE
  5
D9D9
330
D762
100
AcDbEntity
  8
1
  6
Continuous
100
AcDbCircle
 10
186.768449
 20
276.5524459999999
 30
0.0
 40
3.149999999999999
  0
LINE
  5
D9DA
330
D762
100
AcDbEntity
  8
4
  6
CENTER
100
AcDbLine
 10
175.5584489999999
 20
276.5524459999999
 30
0.0
 11
199.2744489999998
 21
276.5524459999999
 31
0.0
  0
LINE
  5
D9DB
330
D762
100
AcDbEntity
  8
4
  6
CENTER
100
AcDbLine
 10
186.768449
 20
288.4513309999999
 30
0.0
 11
186.768449
 21
261.5229489999999
 31
0.0
  0
LINE
  5
D9DC
330
D762
100
AcDbEntity
  8
4
  6
CENTER
100
AcDbLine
 10
181.7060329999999
 20
272.388828
 30
0.0
 11
181.7060329999999
 21
263.0888279999999
 31
0.0
  0
LINE
  5
D9DD
330
D762
100
AcDbEntity
  8
1
  6
Continuous
100
AcDbLine
 10
180.7684489999998
 20
272.9469459999999
 30
0.0
 11
180.7684489999998
 21
264.9563589999999
 31
0.0
  0
LINE
  5
D9DE
330
D762
100
AcDbEntity
  8
4
  6
CENTER
100
AcDbLine
 10
186.356033
 20
267.7388279999998
 30
0.0
 11
177.056033
 21
267.7388279999998
 31
0.0
  0
CIRCLE
  5
D9DF
330
D762
100
AcDbEntity
  8
5
  6
PHANTOM
100
AcDbCircle
 10
181.7060329999999
 20
267.7388279999998
 30
0.0
 40
3.149999999999999
  0
LINE
  5
D9E0
330
D762
100
AcDbEntity
  8
1
  6
Continuous
100
AcDbLine
 10
192.768449
 20
272.9469459999999
 30
0.0
 11
192.768449
 21
265.113894
 31
0.0
  0
LINE
  5
D9E1
330
D762
100
AcDbEntity
  8
1
  6
Continuous
100
AcDbLine
 10
59.139961
 20
353.962965
 30
0.0
 11
59.139961
 21
354.9629649999998
 31
0.0
  0
ARC
  5
D9E2
330
D762
100
AcDbEntity
  8
1
  6
Continuous
100
AcDbCircle
 10
48.08106099999999
 20
354.342965
 30
0.0
 40
0.0787
100
AcDbArc
 50
337.0559999999999
 51
90.0
  0
ARC
  5
D9E3
330
D762
100
AcDbEntity
  8
1
  6
Continuous
100
AcDbCircle
 10
44.19896099999998
 20
354.342965
 30
0.0
 40
0.0787
100
AcDbArc
 50
90.0
 51
202.944
  0
ARC
  5
D9E4
330
D762
100
AcDbEntity
  8
1
  6
Continuous
100
AcDbCircle
 10
37.139961
 20
354.8029649999999
 30
0.0
 40
1.0
100
AcDbArc
 50
180.0
 51
217.5689999999999
  0
LINE
  5
D9E5
330
D762
100
AcDbEntity
  8
1
  6
Continuous
100
AcDbLine
 10
37.139961
 20
354.802724
 30
0.0
 11
41.63236099999997
 21
348.9629649999998
 31
0.0
  0
LINE
  5
D9E6
330
D762
100
AcDbEntity
  8
1
  6
Continuous
100
AcDbLine
 10
44.371361
 20
348.9629649999998
 30
0.0
 11
54.139961
 21
354.6179649999999
 31
0.0
  0
ARC
  5
D9E7
330
D762
100
AcDbEntity
  8
1
  6
Continuous
100
AcDbCircle
 10
39.529461
 20
357.962965
 30
0.0
 40
10.1519
100
AcDbArc
 50
324.4619999999998
 51
35.5377
  0
ARC
  5
D9E8
330
D762
100
AcDbEntity
  8
1
  6
Continuous
100
AcDbCircle
 10
52.750561
 20
357.962965
 30
0.0
 40
10.1519
100
AcDbArc
 50
144.462
 51
215.5379999999999
  0
LINE
  5
D9E9
330
D762
100
AcDbEntity
  8
1
  6
Continuous
100
AcDbLine
 10
38.52242899999998
 20
144.6759759999999
 30
0.0
 11
38.52242899999998
 21
157.553798
 31
0.0
  0
LINE
  5
D9EA
330
D762
100
AcDbEntity
  8
1
  6
Continuous
100
AcDbLine
 10
36.52242899999999
 20
144.6759759999999
 30
0.0
 11
36.52242899999999
 21
157.553798
 31
0.0
  0
LINE
  5
D9EB
330
D762
100
AcDbEntity
  8
1
  6
Continuous
100
AcDbLine
 10
36.52242899999999
 20
144.6759759999999
 30
0.0
 11
38.52242899999998
 21
144.6759759999999
 31
0.0
  0
LINE
  5
D9EC
330
D762
100
AcDbEntity
  8
4
  6
CENTER
100
AcDbLine
 10
33.52242899999998
 20
151.675976
 30
0.0
 11
41.522429
 21
151.675976
 31
0.0
  0
LINE
  5
D9ED
330
D762
100
AcDbEntity
  8
1
  6
Continuous
100
AcDbLine
 10
40.82242899999999
 20
159.553798
 30
0.0
 11
40.82242899999999
 21
174.114211
 31
0.0
  0
LINE
  5
D9EE
330
D762
100
AcDbEntity
  8
1
  6
Continuous
100
AcDbLine
 10
38.82242899999999
 20
159.553798
 30
0.0
 11
38.82242899999999
 21
174.114211
 31
0.0
  0
ARC
  5
D9EF
330
D762
100
AcDbEntity
  8
1
  6
Continuous
100
AcDbCircle
 10
38.82242899999999
 20
159.553798
 30
0.0
 40
2.0
100
AcDbArc
 50
270.0
 51
0.0
  0
ARC
  5
D9F0
330
D762
100
AcDbEntity
  8
1
  6
Continuous
100
AcDbCircle
 10
38.52242899999998
 20
157.553798
 30
0.0
 40
2.0
100
AcDbArc
 50
90.0
 51
180.0
  0
LINE
  5
D9F1
330
D762
100
AcDbEntity
  8
1
  6
Continuous
100
AcDbLine
 10
38.52242899999998
 20
157.553798
 30
0.0
 11
38.82242899999999
 21
157.553798
 31
0.0
  0
LINE
  5
D9F2
330
D762
100
AcDbEntity
  8
1
  6
Continuous
100
AcDbLine
 10
38.52242899999998
 20
159.553798
 30
0.0
 11
38.82242899999999
 21
159.553798
 31
0.0
  0
LINE
  5
D9F3
330
D762
100
AcDbEntity
  8
1
  6
Continuous
100
AcDbLine
 10
38.82242899999999
 20
268.6985159999999
 30
0.0
 11
38.82242899999999
 21
254.114211
 31
0.0
  0
LINE
  5
D9F4
330
D762
100
AcDbEntity
  8
1
  6
Continuous
100
AcDbLine
 10
40.82242899999999
 20
268.6985159999999
 30
0.0
 11
40.82242899999999
 21
254.114211
 31
0.0
  0
LINE
  5
D9F5
330
D762
100
AcDbEntity
  8
1
  6
Continuous
100
AcDbLine
 10
36.52242899999999
 20
283.5524459999998
 30
0.0
 11
38.52242899999998
 21
283.5524459999998
 31
0.0
  0
ARC
  5
D9F6
330
D762
100
AcDbEntity
  8
1
  6
Continuous
100
AcDbCircle
 10
38.82242899999999
 20
268.6985159999999
 30
0.0
 40
2.0
100
AcDbArc
 50
0.0
 51
90.0
  0
ARC
  5
D9F7
330
D762
100
AcDbEntity
  8
1
  6
Continuous
100
AcDbCircle
 10
38.52242899999998
 20
270.6985159999999
 30
0.0
 40
2.0
100
AcDbArc
 50
180.0
 51
270.0
  0
LINE
  5
D9F8
330
D762
100
AcDbEntity
  8
1
  6
Continuous
100
AcDbLine
 10
38.52242899999998
 20
283.5524459999998
 30
0.0
 11
38.52242899999998
 21
270.6985159999999
 31
0.0
  0
LINE
  5
D9F9
330
D762
100
AcDbEntity
  8
1
  6
Continuous
100
AcDbLine
 10
38.52242899999998
 20
270.6985159999999
 30
0.0
 11
38.82242899999999
 21
270.6985159999999
 31
0.0
  0
LINE
  5
D9FA
330
D762
100
AcDbEntity
  8
1
  6
Continuous
100
AcDbLine
 10
38.52242899999998
 20
268.6985159999999
 30
0.0
 11
38.82242899999999
 21
268.6985159999999
 31
0.0
  0
LINE
  5
D9FB
330
D762
100
AcDbEntity
  8
1
  6
Continuous
100
AcDbLine
 10
36.52242899999999
 20
283.5524459999998
 30
0.0
 11
36.52242899999999
 21
270.6985159999999
 31
0.0
  0
LINE
  5
D9FC
330
D762
100
AcDbEntity
  8
4
  6
CENTER
100
AcDbLine
 10
33.52242899999998
 20
276.5524459999999
 30
0.0
 11
41.522429
 21
276.5524459999999
 31
0.0
  0
LINE
  5
D9FD
330
D762
100
AcDbEntity
  8
1
  6
Continuous
100
AcDbLine
 10
44.872461
 20
348.096965
 30
0.0
 11
54.139961
 21
353.4629649999998
 31
0.0
  0
ARC
  5
D9FE
330
D762
100
AcDbEntity
  8
1
  6
Continuous
100
AcDbCircle
 10
47.59196099999999
 20
354.027965
 30
0.0
 40
0.3935
100
AcDbArc
 50
270.0
 51
333.9859999999998
  0
ARC
  5
D9FF
330
D762
100
AcDbEntity
  8
1
  6
Continuous
100
AcDbCircle
 10
39.529461
 20
357.962965
 30
0.0
 40
9.3649
100
AcDbArc
 50
333.9859999999998
 51
334.7709999999999
  0
ARC
  5
DA00
330
D762
100
AcDbEntity
  8
1
  6
Continuous
100
AcDbCircle
 10
39.529461
 20
357.962965
 30
0.0
 40
9.3649
100
AcDbArc
 50
333.9859999999998
 51
337.0559999999999
  0
ARC
  5
DA01
330
D762
100
AcDbEntity
  8
1
  6
Continuous
100
AcDbCircle
 10
52.750561
 20
357.962965
 30
0.0
 40
9.3649
100
AcDbArc
 50
202.944
 51
206.014
  0
ARC
  5
DA02
330
D762
100
AcDbEntity
  8
1
  6
Continuous
100
AcDbCircle
 10
44.688061
 20
354.027965
 30
0.0
 40
0.3935
100
AcDbArc
 50
206.014
 51
270.0
  0
LINE
  5
DA03
330
D762
100
AcDbEntity
  8
1
  6
Continuous
100
AcDbLine
 10
44.19896099999998
 20
354.421965
 30
0.0
 11
48.08106099999999
 21
354.421965
 31
0.0
  0
LINE
  5
DA04
330
D762
100
AcDbEntity
  8
1
  6
Continuous
100
AcDbLine
 10
47.59196099999999
 20
353.6349649999999
 30
0.0
 11
44.688061
 21
353.6349649999999
 31
0.0
  0
ARC
  5
DA05
330
D762
100
AcDbEntity
  8
1
  6
Continuous
100
AcDbCircle
 10
46.139961
 20
353.240965
 30
0.0
 40
2.0282
100
AcDbArc
 50
256.5369999999999
 51
324.4619999999998
  0
ARC
  5
DA06
330
D762
100
AcDbEntity
  8
1
  6
Continuous
100
AcDbCircle
 10
44.371361
 20
348.9629649999998
 30
0.0
 40
1.0
100
AcDbArc
 50
270.0
 51
300.069
  0
ARC
  5
DA07
330
D762
100
AcDbEntity
  8
1
  6
Continuous
100
AcDbCircle
 10
41.63236099999997
 20
348.9629649999998
 30
0.0
 40
1.0
100
AcDbArc
 50
217.5689999999999
 51
270.0
  0
LINE
  5
DA08
330
D762
100
AcDbEntity
  8
1
  6
Continuous
100
AcDbLine
 10
44.371361
 20
348.9629649999998
 30
0.0
 11
41.63236099999997
 21
348.9629649999998
 31
0.0
  0
LINE
  5
DA09
330
D762
100
AcDbEntity
  8
1
  6
Continuous
100
AcDbLine
 10
44.371361
 20
347.962965
 30
0.0
 11
41.63236099999997
 21
347.962965
 31
0.0
  0
ARC
  5
DA0A
330
D762
100
AcDbEntity
  8
1
  6
Continuous
100
AcDbCircle
 10
46.139961
 20
353.240965
 30
0.0
 40
2.0282
100
AcDbArc
 50
215.5379999999999
 51
256.5369999999999
  0
LINE
  5
DA0B
330
D762
100
AcDbEntity
  8
1
  6
Continuous
100
AcDbLine
 10
43.981561
 20
352.8479649999999
 30
0.0
 11
47.373961
 21
352.8479649999999
 31
0.0
  0
LINE
  5
DA0C
330
D762
100
AcDbEntity
  8
1
  6
Continuous
100
AcDbLine
 10
36.321661
 20
354.228174
 30
0.0
 11
40.839761
 21
348.3529649999999
 31
0.0
  0
ARC
  5
DA0D
330
D762
100
AcDbEntity
  8
1
  6
Continuous
100
AcDbCircle
 10
58.639961
 20
353.962965
 30
0.0
 40
0.5
100
AcDbArc
 50
270.0
 51
0.0
  0
LINE
  5
DA0E
330
D762
100
AcDbEntity
  8
1
  6
Continuous
100
AcDbLine
 10
54.139961
 20
353.4629649999998
 30
0.0
 11
58.639961
 21
353.4629649999998
 31
0.0
  0
LINE
  5
DA0F
330
D762
100
AcDbEntity
  8
1
  6
Continuous
100
AcDbLine
 10
59.139961
 20
360.962965
 30
0.0
 11
67.554261
 21
360.962965
 31
0.0
  0
LINE
  5
DA10
330
D762
100
AcDbEntity
  8
1
  6
Continuous
100
AcDbLine
 10
59.139961
 20
354.9629649999998
 30
0.0
 11
67.554261
 21
354.9629649999998
 31
0.0
  0
LINE
  5
DA11
330
D762
100
AcDbEntity
  8
4
  6
CENTER
100
AcDbLine
 10
33.45319400000001
 20
357.962965
 30
0.0
 11
73.51553100000002
 21
357.962965
 31
0.0
  0
LINE
  5
DA12
330
D762
100
AcDbEntity
  8
1
  6
Continuous
100
AcDbLine
 10
44.371361
 20
366.962965
 30
0.0
 11
54.139961
 21
361.3069649999998
 31
0.0
  0
LINE
  5
DA13
330
D762
100
AcDbEntity
  8
1
  6
Continuous
100
AcDbLine
 10
44.872461
 20
367.827965
 30
0.0
 11
54.139961
 21
362.462965
 31
0.0
  0
ARC
  5
DA14
330
D762
100
AcDbEntity
  8
1
  6
Continuous
100
AcDbCircle
 10
44.371361
 20
366.962965
 30
0.0
 40
1.0
100
AcDbArc
 50
59.9314
 51
90.0
  0
ARC
  5
DA15
330
D762
100
AcDbEntity
  8
1
  6
Continuous
100
AcDbCircle
 10
41.63236099999997
 20
366.962965
 30
0.0
 40
1.0
100
AcDbArc
 50
90.0
 51
142.431
  0
LINE
  5
DA16
330
D762
100
AcDbEntity
  8
1
  6
Continuous
100
AcDbLine
 10
44.371361
 20
366.962965
 30
0.0
 11
41.63236099999997
 21
366.962965
 31
0.0
  0
LINE
  5
DA17
330
D762
100
AcDbEntity
  8
1
  6
Continuous
100
AcDbLine
 10
44.371361
 20
367.9629649999998
 30
0.0
 11
41.63236099999997
 21
367.9629649999998
 31
0.0
  0
ARC
  5
DA18
330
D762
100
AcDbEntity
  8
1
  6
Continuous
100
AcDbCircle
 10
45.746561
 20
361.8979649999998
 30
0.0
 40
0.3935
100
AcDbArc
 50
270.0
 51
90.0
  0
ARC
  5
DA19
330
D762
100
AcDbEntity
  8
1
  6
Continuous
100
AcDbCircle
 10
46.139961
 20
362.684965
 30
0.0
 40
2.0282
100
AcDbArc
 50
35.5377
 51
45.6988
  0
LINE
  5
DA1A
330
D762
100
AcDbEntity
  8
1
  6
Continuous
100
AcDbLine
 10
46.139961
 20
364.712965
 30
0.0
 11
46.139961
 21
363.0869649999998
 31
0.0
  0
LINE
  5
DA1B
330
D762
100
AcDbEntity
  8
1
  6
Continuous
100
AcDbLine
 10
46.139961
 20
361.8979649999998
 30
0.0
 11
48.027661
 21
361.8979649999998
 31
0.0
  0
LINE
  5
DA1C
330
D762
100
AcDbEntity
  8
1
  6
Continuous
100
AcDbLine
 10
48.361761
 20
359.9299649999999
 30
0.0
 11
46.139961
 21
359.9299649999999
 31
0.0
  0
ARC
  5
DA1D
330
D762
100
AcDbEntity
  8
1
  6
Continuous
100
AcDbCircle
 10
39.529461
 20
357.962965
 30
0.0
 40
9.3649
100
AcDbArc
 50
7.792900000000001
 51
10.1042
  0
ARC
  5
DA1E
330
D762
100
AcDbEntity
  8
1
  6
Continuous
100
AcDbCircle
 10
48.72996099999999
 20
359.221965
 30
0.0
 40
0.0787
100
AcDbArc
 50
270.0
 51
7.792900000000001
  0
ARC
  5
DA1F
330
D762
100
AcDbEntity
  8
1
  6
Continuous
100
AcDbCircle
 10
48.587461
 20
355.916965
 30
0.0
 40
0.0787
100
AcDbArc
 50
347.2709999999998
 51
90.0
  0
ARC
  5
DA20
330
D762
100
AcDbEntity
  8
1
  6
Continuous
100
AcDbCircle
 10
39.529461
 20
357.962965
 30
0.0
 40
9.3649
100
AcDbArc
 50
344.794
 51
347.2709999999998
  0
ARC
  5
DA21
330
D762
100
AcDbEntity
  8
1
  6
Continuous
100
AcDbCircle
 10
39.529461
 20
357.962965
 30
0.0
 40
9.3649
100
AcDbArc
 50
344.7419999999998
 51
344.794
  0
ARC
  5
DA22
330
D762
100
AcDbEntity
  8
1
  6
Continuous
100
AcDbCircle
 10
48.184661
 20
355.601965
 30
0.0
 40
0.3935
100
AcDbArc
 50
270.0
 51
344.7419999999998
  0
LINE
  5
DA23
330
D762
100
AcDbEntity
  8
1
  6
Continuous
100
AcDbLine
 10
46.139961
 20
357.568965
 30
0.0
 11
46.139961
 21
356.781965
 31
0.0
  0
LINE
  5
DA24
330
D762
100
AcDbEntity
  8
1
  6
Continuous
100
AcDbLine
 10
48.587461
 20
355.995965
 30
0.0
 11
47.084361
 21
355.995965
 31
0.0
  0
ARC
  5
DA25
330
D762
100
AcDbEntity
  8
1
  6
Continuous
100
AcDbCircle
 10
48.361761
 20
359.536965
 30
0.0
 40
0.3935
100
AcDbArc
 50
10.1042
 51
90.0
  0
LINE
  5
DA26
330
D762
100
AcDbEntity
  8
1
  6
Continuous
100
AcDbLine
 10
46.139961
 20
359.9299649999999
 30
0.0
 11
46.139961
 21
359.536965
 31
0.0
  0
LINE
  5
DA27
330
D762
100
AcDbEntity
  8
1
  6
Continuous
100
AcDbLine
 10
45.195661
 20
359.9299649999999
 30
0.0
 11
43.918261
 21
359.9299649999999
 31
0.0
  0
ARC
  5
DA28
330
D762
100
AcDbEntity
  8
1
  6
Continuous
100
AcDbCircle
 10
37.139961
 20
361.1229649999998
 30
0.0
 40
1.0
100
AcDbArc
 50
142.431
 51
180.0
  0
ARC
  5
DA29
330
D762
100
AcDbEntity
  8
1
  6
Continuous
100
AcDbCircle
 10
38.63996099999999
 20
360.462965
 30
0.0
 40
0.5
100
AcDbArc
 50
90.0
 51
180.0
  0
LINE
  5
DA2A
330
D762
100
AcDbEntity
  8
1
  6
Continuous
100
AcDbLine
 10
40.13996099999999
 20
360.962965
 30
0.0
 11
38.63996099999999
 21
360.962965
 31
0.0
  0
ARC
  5
DA2B
330
D762
100
AcDbEntity
  8
1
  6
Continuous
100
AcDbCircle
 10
40.13996099999999
 20
360.462965
 30
0.0
 40
0.5
100
AcDbArc
 50
0.0
 51
90.0
  0
ARC
  5
DA2C
330
D762
100
AcDbEntity
  8
1
  6
Continuous
100
AcDbCircle
 10
43.55006099999999
 20
359.221965
 30
0.0
 40
0.0787
100
AcDbArc
 50
172.2069999999999
 51
270.0
  0
ARC
  5
DA2D
330
D762
100
AcDbEntity
  8
1
  6
Continuous
100
AcDbCircle
 10
52.750561
 20
357.962965
 30
0.0
 40
9.3649
100
AcDbArc
 50
169.896
 51
172.2069999999999
  0
ARC
  5
DA2E
330
D762
100
AcDbEntity
  8
1
  6
Continuous
100
AcDbCircle
 10
44.09526099999999
 20
355.601965
 30
0.0
 40
0.3935
100
AcDbArc
 50
195.257
 51
270.0
  0
ARC
  5
DA2F
330
D762
100
AcDbEntity
  8
1
  6
Continuous
100
AcDbCircle
 10
52.750561
 20
357.962965
 30
0.0
 40
9.3649
100
AcDbArc
 50
193.2679999999999
 51
195.257
  0
ARC
  5
DA30
330
D762
100
AcDbEntity
  8
1
  6
Continuous
100
AcDbCircle
 10
52.750561
 20
357.962965
 30
0.0
 40
9.3649
100
AcDbArc
 50
192.729
 51
193.2679999999999
  0
ARC
  5
DA31
330
D762
100
AcDbEntity
  8
1
  6
Continuous
100
AcDbCircle
 10
43.692561
 20
355.916965
 30
0.0
 40
0.0787
100
AcDbArc
 50
90.0
 51
192.729
  0
LINE
  5
DA32
330
D762
100
AcDbEntity
  8
1
  6
Continuous
100
AcDbLine
 10
45.195661
 20
355.995965
 30
0.0
 11
43.692561
 21
355.995965
 31
0.0
  0
ARC
  5
DA33
330
D762
100
AcDbEntity
  8
1
  6
Continuous
100
AcDbCircle
 10
38.63996099999999
 20
355.4629649999998
 30
0.0
 40
0.5
100
AcDbArc
 50
180.0
 51
270.0
  0
LINE
  5
DA34
330
D762
100
AcDbEntity
  8
1
  6
Continuous
100
AcDbLine
 10
40.13996099999999
 20
354.9629649999998
 30
0.0
 11
38.63996099999999
 21
354.9629649999998
 31
0.0
  0
ARC
  5
DA35
330
D762
100
AcDbEntity
  8
1
  6
Continuous
100
AcDbCircle
 10
40.13996099999999
 20
355.4629649999998
 30
0.0
 40
0.5
100
AcDbArc
 50
270.0
 51
0.0
  0
LINE
  5
DA36
330
D762
100
AcDbEntity
  8
1
  6
Continuous
100
AcDbLine
 10
36.139961
 20
361.1229649999998
 30
0.0
 11
36.139961
 21
354.8029649999999
 31
0.0
  0
ARC
  5
DA37
330
D762
100
AcDbEntity
  8
1
  6
Continuous
100
AcDbCircle
 10
43.918261
 20
359.536965
 30
0.0
 40
0.3935
100
AcDbArc
 50
90.0
 51
169.896
  0
LINE
  5
DA38
330
D762
100
AcDbEntity
  8
1
  6
Continuous
100
AcDbLine
 10
37.139961
 20
361.1229649999998
 30
0.0
 11
37.139961
 21
354.802724
 31
0.0
  0
LINE
  5
DA39
330
D762
100
AcDbEntity
  8
1
  6
Continuous
100
AcDbLine
 10
40.63996099999999
 20
360.462965
 30
0.0
 11
40.63996099999999
 21
355.4629649999998
 31
0.0
  0
LINE
  5
DA3A
330
D762
100
AcDbEntity
  8
1
  6
Continuous
100
AcDbLine
 10
38.139961
 20
360.462965
 30
0.0
 11
38.139961
 21
355.4629649999998
 31
0.0
  0
ARC
  5
DA3B
330
D762
100
AcDbEntity
  8
1
  6
Continuous
100
AcDbCircle
 10
46.139961
 20
362.684965
 30
0.0
 40
2.0282
100
AcDbArc
 50
45.6988
 51
144.462
  0
LINE
  5
DA3C
330
D762
100
AcDbEntity
  8
1
  6
Continuous
100
AcDbLine
 10
47.61266099999999
 20
362.691965
 30
0.0
 11
44.294861
 21
363.580965
 31
0.0
  0
LINE
  5
DA3D
330
D762
100
AcDbEntity
  8
1
  6
Continuous
100
AcDbLine
 10
45.746561
 20
362.2909649999999
 30
0.0
 11
44.06526099999999
 21
362.2909649999999
 31
0.0
  0
LINE
  5
DA3E
330
D762
100
AcDbEntity
  8
1
  6
Continuous
100
AcDbLine
 10
43.92386099999998
 20
361.5039649999998
 30
0.0
 11
45.746561
 21
361.5039649999998
 31
0.0
  0
LINE
  5
DA3F
330
D762
100
AcDbEntity
  8
1
  6
Continuous
100
AcDbLine
 10
43.55306099999999
 20
360.716965
 30
0.0
 11
48.48016099999998
 21
360.716965
 31
0.0
  0
LINE
  5
DA40
330
D762
100
AcDbEntity
  8
1
  6
Continuous
100
AcDbLine
 10
43.55006099999999
 20
359.142965
 30
0.0
 11
48.72996099999999
 21
359.142965
 31
0.0
  0
LINE
  5
DA41
330
D762
100
AcDbEntity
  8
1
  6
Continuous
100
AcDbLine
 10
43.393861
 20
358.3559649999998
 30
0.0
 11
48.886161
 21
358.3559649999998
 31
0.0
  0
LINE
  5
DA42
330
D762
100
AcDbEntity
  8
1
  6
Continuous
100
AcDbLine
 10
43.393861
 20
357.568965
 30
0.0
 11
48.886161
 21
357.568965
 31
0.0
  0
LINE
  5
DA43
330
D762
100
AcDbEntity
  8
1
  6
Continuous
100
AcDbLine
 10
43.46026099999998
 20
356.781965
 30
0.0
 11
48.81966099999999
 21
356.781965
 31
0.0
  0
LINE
  5
DA44
330
D762
100
AcDbEntity
  8
1
  6
Continuous
100
AcDbLine
 10
44.09526099999999
 20
355.2089649999999
 30
0.0
 11
48.184661
 21
355.2089649999999
 31
0.0
  0
LINE
  5
DA45
330
D762
100
AcDbEntity
  8
1
  6
Continuous
100
AcDbLine
 10
37.139961
 20
361.1229649999998
 30
0.0
 11
41.63236099999997
 21
366.962965
 31
0.0
  0
LINE
  5
DA46
330
D762
100
AcDbEntity
  8
1
  6
Continuous
100
AcDbLine
 10
36.347361
 20
361.7329649999998
 30
0.0
 11
40.839761
 21
367.572965
 31
0.0
  0
ARC
  5
DA47
330
D762
100
AcDbEntity
  8
1
  6
Continuous
100
AcDbCircle
 10
58.639961
 20
361.962965
 30
0.0
 40
0.5
100
AcDbArc
 50
0.0
 51
90.0
  0
LINE
  5
DA48
330
D762
100
AcDbEntity
  8
1
  6
Continuous
100
AcDbLine
 10
59.139961
 20
361.962965
 30
0.0
 11
59.139961
 21
360.962965
 31
0.0
  0
LINE
  5
DA49
330
D762
100
AcDbEntity
  8
1
  6
Continuous
100
AcDbLine
 10
54.139961
 20
354.6179649999999
 30
0.0
 11
54.139961
 21
361.3069649999998
 31
0.0
  0
LINE
  5
DA4A
330
D762
100
AcDbEntity
  8
1
  6
Continuous
100
AcDbLine
 10
54.139961
 20
362.462965
 30
0.0
 11
58.639961
 21
362.462965
 31
0.0
  0
ARC
  5
DA4B
330
D762
100
AcDbEntity
  8
1
  6
Continuous
100
AcDbCircle
 10
69.139961
 20
357.962965
 30
0.0
 40
1.0
100
AcDbArc
 50
315.0
 51
45.0
  0
LINE
  5
DA4C
330
D762
100
AcDbEntity
  8
1
  6
Continuous
100
AcDbLine
 10
67.554261
 20
354.9629649999998
 30
0.0
 11
69.847061
 21
357.255965
 31
0.0
  0
LINE
  5
DA4D
330
D762
100
AcDbEntity
  8
1
  6
Continuous
100
AcDbLine
 10
67.554261
 20
360.962965
 30
0.0
 11
69.847061
 21
358.6699649999998
 31
0.0
  0
LINE
  5
DA4E
330
D762
100
AcDbEntity
  8
4
  6
CENTER
100
AcDbLine
 10
185.3313649999998
 20
173.5261839999998
 30
0.0
 11
185.3313649999998
 21
191.8257679999999
 31
0.0
  0
LINE
  5
DA4F
330
D762
100
AcDbEntity
  8
1
  6
Continuous
100
AcDbLine
 10
348.3694529999998
 20
144.6759759999999
 30
0.0
 11
348.3694529999998
 21
157.553798
 31
0.0
  0
LINE
  5
DA50
330
D762
100
AcDbEntity
  8
1
  6
Continuous
100
AcDbLine
 10
350.3694529999998
 20
144.6759759999999
 30
0.0
 11
350.3694529999998
 21
157.553798
 31
0.0
  0
LINE
  5
DA51
330
D762
100
AcDbEntity
  8
1
  6
Continuous
100
AcDbLine
 10
350.3694529999998
 20
144.6759759999999
 30
0.0
 11
348.3694529999998
 21
144.6759759999999
 31
0.0
  0
LINE
  5
DA52
330
D762
100
AcDbEntity
  8
4
  6
CENTER
100
AcDbLine
 10
353.3694529999999
 20
151.675976
 30
0.0
 11
345.3694529999999
 21
151.675976
 31
0.0
  0
LINE
  5
DA53
330
D762
100
AcDbEntity
  8
1
  6
Continuous
100
AcDbLine
 10
348.0694529999998
 20
159.553798
 30
0.0
 11
348.0694529999998
 21
174.114211
 31
0.0
  0
LINE
  5
DA54
330
D762
100
AcDbEntity
  8
1
  6
Continuous
100
AcDbLine
 10
346.0694529999998
 20
159.553798
 30
0.0
 11
346.0694529999998
 21
174.114211
 31
0.0
  0
ARC
  5
DA55
330
D762
100
AcDbEntity
  8
1
  6
Continuous
100
AcDbCircle
 10
348.0694529999998
 20
159.553798
 30
0.0
 40
2.0
100
AcDbArc
 50
180.0
 51
270.0
  0
LINE
  5
DA56
330
D762
100
AcDbEntity
  8
1
  6
Continuous
100
AcDbLine
 10
348.3694529999998
 20
157.553798
 30
0.0
 11
348.0694529999998
 21
157.553798
 31
0.0
  0
LINE
  5
DA57
330
D762
100
AcDbEntity
  8
1
  6
Continuous
100
AcDbLine
 10
348.3694529999998
 20
159.553798
 30
0.0
 11
348.0694529999998
 21
159.553798
 31
0.0
  0
ARC
  5
DA58
330
D762
100
AcDbEntity
  8
1
  6
Continuous
100
AcDbCircle
 10
348.3694529999998
 20
157.553798
 30
0.0
 40
2.0
100
AcDbArc
 50
0.0
 51
90.0
  0
LINE
  5
DA59
330
D762
100
AcDbEntity
  8
1
  6
Continuous
100
AcDbLine
 10
348.0694529999998
 20
268.6985159999999
 30
0.0
 11
348.0694529999998
 21
254.114211
 31
0.0
  0
LINE
  5
DA5A
330
D762
100
AcDbEntity
  8
1
  6
Continuous
100
AcDbLine
 10
346.0694529999998
 20
268.6985159999999
 30
0.0
 11
346.0694529999998
 21
254.114211
 31
0.0
  0
LINE
  5
DA5B
330
D762
100
AcDbEntity
  8
1
  6
Continuous
100
AcDbLine
 10
348.3694529999998
 20
268.6985159999999
 30
0.0
 11
348.0694529999998
 21
268.6985159999999
 31
0.0
  0
LINE
  5
DA5C
330
D762
100
AcDbEntity
  8
1
  6
Continuous
100
AcDbLine
 10
348.3694529999998
 20
283.5524459999998
 30
0.0
 11
348.3694529999998
 21
270.6985159999999
 31
0.0
  0
LINE
  5
DA5D
330
D762
100
AcDbEntity
  8
1
  6
Continuous
100
AcDbLine
 10
350.3694529999998
 20
283.5524459999998
 30
0.0
 11
350.3694529999998
 21
270.6985159999999
 31
0.0
  0
ARC
  5
DA5E
330
D762
100
AcDbEntity
  8
1
  6
Continuous
100
AcDbCircle
 10
348.0694529999998
 20
268.6985159999999
 30
0.0
 40
2.0
100
AcDbArc
 50
90.0
 51
180.0
  0
LINE
  5
DA5F
330
D762
100
AcDbEntity
  8
1
  6
Continuous
100
AcDbLine
 10
348.3694529999998
 20
270.6985159999999
 30
0.0
 11
348.0694529999998
 21
270.6985159999999
 31
0.0
  0
ARC
  5
DA60
330
D762
100
AcDbEntity
  8
1
  6
Continuous
100
AcDbCircle
 10
348.3694529999998
 20
270.6985159999999
 30
0.0
 40
2.0
100
AcDbArc
 50
270.0
 51
0.0
  0
LINE
  5
DA61
330
D762
100
AcDbEntity
  8
1
  6
Continuous
100
AcDbLine
 10
350.3694529999998
 20
283.5524459999998
 30
0.0
 11
348.3694529999998
 21
283.5524459999998
 31
0.0
  0
LINE
  5
DA62
330
D762
100
AcDbEntity
  8
4
  6
CENTER
100
AcDbLine
 10
353.3694529999999
 20
276.5524459999999
 30
0.0
 11
345.3694529999999
 21
276.5524459999999
 31
0.0
  0
LINE
  5
DA63
330
D762
100
AcDbEntity
  8
1
  6
Continuous
100
AcDbLine
 10
497.6520389999998
 20
272.9469459999999
 30
0.0
 11
497.6520389999998
 21
259.114211
 31
0.0
  0
LINE
  5
DA64
330
D762
100
AcDbEntity
  8
1
  6
Continuous
100
AcDbLine
 10
485.6520389999998
 20
272.9469459999999
 30
0.0
 11
485.6520389999998
 21
259.114211
 31
0.0
  0
LINE
  5
DA65
330
D762
100
AcDbEntity
  8
4
  6
CENTER
100
AcDbLine
 10
491.6520389999998
 20
288.4513309999999
 30
0.0
 11
491.6520389999998
 21
261.5229489999999
 31
0.0
  0
LINE
  5
DA66
330
D762
100
AcDbEntity
  8
4
  6
CENTER
100
AcDbLine
 10
491.6520389999998
 20
139.7770909999999
 30
0.0
 11
491.6520389999998
 21
168.0737259999999
 31
0.0
  0
LINE
  5
DA67
330
D762
100
AcDbEntity
  8
1
  6
Continuous
100
AcDbLine
 10
497.6520389999998
 20
155.2814759999999
 30
0.0
 11
497.6520389999998
 21
169.114211
 31
0.0
  0
LINE
  5
DA68
330
D762
100
AcDbEntity
  8
1
  6
Continuous
100
AcDbLine
 10
485.6520389999998
 20
155.2814759999999
 30
0.0
 11
485.6520389999998
 21
169.114211
 31
0.0
  0
CIRCLE
  5
DA69
330
D762
100
AcDbEntity
  8
1
  6
Continuous
100
AcDbCircle
 10
491.6520389999998
 20
151.675976
 30
0.0
 40
3.149999999999999
  0
ARC
  5
DA6A
330
D762
100
AcDbEntity
  8
1
  6
Continuous
100
AcDbCircle
 10
491.6520389999998
 20
151.675976
 30
0.0
 40
7.0
100
AcDbArc
 50
148.9972809999999
 51
31.002719
  0
LINE
  5
DA6B
330
D762
100
AcDbEntity
  8
4
  6
CENTER
100
AcDbLine
 10
502.8620389999998
 20
151.675976
 30
0.0
 11
479.146039
 21
151.675976
 31
0.0
  0
CIRCLE
  5
DA6C
330
D762
100
AcDbEntity
  8
1
  6
Continuous
100
AcDbCircle
 10
491.6520389999998
 20
276.5524459999999
 30
0.0
 40
3.149999999999999
  0
ARC
  5
DA6D
330
D762
100
AcDbEntity
  8
1
  6
Continuous
100
AcDbCircle
 10
491.6520389999998
 20
276.5524459999999
 30
0.0
 40
7.0
100
AcDbArc
 50
328.997281
 51
211.0027189999999
  0
LINE
  5
DA6E
330
D762
100
AcDbEntity
  8
4
  6
CENTER
100
AcDbLine
 10
502.8620389999998
 20
276.5524459999999
 30
0.0
 11
479.146039
 21
276.5524459999999
 31
0.0
  0
LINE
  5
DA6F
330
D762
100
AcDbEntity
  8
1
  6
Continuous
100
AcDbLine
 10
485.6520389999998
 20
268.6985159999999
 30
0.0
 11
497.6520389999998
 21
268.6985159999999
 31
0.0
  0
LINE
  5
DA70
330
D762
100
AcDbEntity
  8
1
  6
Continuous
100
AcDbLine
 10
485.6520389999998
 20
159.553798
 30
0.0
 11
497.6520389999998
 21
159.553798
 31
0.0
  0
LINE
  5
DA71
330
D762
100
AcDbEntity
  8
1
  6
Continuous
100
AcDbLine
 10
151.8313649999998
 20
352.705993
 30
0.0
 11
234.8313649999998
 21
352.705993
 31
0.0
  0
LINE
  5
DA72
330
D762
100
AcDbEntity
  8
1
  6
Continuous
100
AcDbLine
 10
151.8313649999998
 20
350.705993
 30
0.0
 11
234.8313649999998
 21
350.705993
 31
0.0
  0
ARC
  5
DA73
330
D762
100
AcDbEntity
  8
1
  6
Continuous
100
AcDbCircle
 10
193.3313649999998
 20
921.039326
 30
0.0
 40
574.833333
100
AcDbArc
 50
265.9528149999998
 51
274.047185
  0
LINE
  5
DA74
330
D762
100
AcDbEntity
  8
1
  6
Continuous
100
AcDbLine
 10
223.3313649999999
 20
377.219887
 30
0.0
 11
224.3313649999998
 21
376.219887
 31
0.0
  0
ARC
  5
DA75
330
D762
100
AcDbEntity
  8
1
  6
Continuous
100
AcDbCircle
 10
224.3313649999998
 20
370.8198869999998
 30
0.0
 40
9.0
100
AcDbArc
 50
74.11915
 51
105.88085
  0
LINE
  5
DA76
330
D762
100
AcDbEntity
  8
1
  6
Continuous
100
AcDbLine
 10
213.3313649999998
 20
372.2059929999999
 30
0.0
 11
226.3313649999998
 21
372.2059929999999
 31
0.0
  0
LINE
  5
DA77
330
D762
100
AcDbEntity
  8
1
  6
Continuous
100
AcDbLine
 10
229.3313649999999
 20
376.219887
 30
0.0
 11
219.3313649999999
 21
376.219887
 31
0.0
  0
LINE
  5
DA78
330
D762
100
AcDbEntity
  8
1
  6
Continuous
100
AcDbLine
 10
228.1313649999999
 20
377.219887
 30
0.0
 11
220.5313649999999
 21
377.219887
 31
0.0
  0
LINE
  5
DA79
330
D762
100
AcDbEntity
  8
1
  6
Continuous
100
AcDbLine
 10
229.3313649999999
 20
375.419887
 30
0.0
 11
219.3313649999999
 21
375.419887
 31
0.0
  0
LINE
  5
DA7A
330
D762
100
AcDbEntity
  8
1
  6
Continuous
100
AcDbLine
 10
218.3313649999998
 20
374.315288
 30
0.0
 11
229.2767459999998
 21
375.4101099999999
 31
0.0
  0
LINE
  5
DA7B
330
D762
100
AcDbEntity
  8
1
  6
Continuous
100
AcDbLine
 10
218.5304229999999
 20
372.325219
 30
0.0
 11
229.475804
 21
373.420041
 31
0.0
  0
ARC
  5
DA7C
330
D762
100
AcDbEntity
  8
1
  6
Continuous
100
AcDbCircle
 10
211.3313649999998
 20
350.5059929999999
 30
0.0
 40
17.0
100
AcDbArc
 50
7.435602
 51
90.0
  0
LINE
  5
DA7D
330
D762
100
AcDbEntity
  8
5
  6
PHANTOM
100
AcDbLine
 10
186.442915
 20
341.5974359999998
 30
0.0
 11
192.0783759999999
 21
338.50276
 31
0.0
  0
ARC
  5
DA7E
330
D762
100
AcDbEntity
  8
5
  6
PHANTOM
100
AcDbCircle
 10
463.641087
 20
841.186468
 30
0.0
 40
574.833333
100
AcDbArc
 50
239.35063
 51
241.854019
  0
LINE
  5
DA7F
330
D762
100
AcDbEntity
  8
1
  6
Continuous
100
AcDbLine
 10
168.8313649999998
 20
382.828422
 30
0.0
 11
158.8313649999998
 21
382.828422
 31
0.0
  0
LINE
  5
DA80
330
D762
100
AcDbEntity
  8
1
  6
Continuous
100
AcDbLine
 10
170.07651
 20
379.7059929999999
 30
0.0
 11
158.134824
 21
380.887575
 31
0.0
  0
LINE
  5
DA81
330
D762
100
AcDbEntity
  8
1
  6
Continuous
100
AcDbLine
 10
170.2734399999999
 20
381.696274
 30
0.0
 11
158.3317539999999
 21
382.8778559999999
 31
0.0
  0
LINE
  5
DA82
330
D762
100
AcDbEntity
  8
1
  6
Continuous
100
AcDbLine
 10
168.8313649999998
 20
383.6284219999998
 30
0.0
 11
158.8313649999998
 21
383.6284219999998
 31
0.0
  0
LINE
  5
DA83
330
D762
100
AcDbEntity
  8
1
  6
Continuous
100
AcDbLine
 10
167.6313649999999
 20
384.628422
 30
0.0
 11
160.0313649999999
 21
384.628422
 31
0.0
  0
ARC
  5
DA84
330
D762
100
AcDbEntity
  8
1
  6
Continuous
100
AcDbCircle
 10
163.8313649999998
 20
378.228422
 30
0.0
 40
9.0
100
AcDbArc
 50
74.11915
 51
105.88085
  0
LINE
  5
DA85
330
D762
100
AcDbEntity
  8
1
  6
Continuous
100
AcDbLine
 10
158.8313649999998
 20
379.7059929999999
 30
0.0
 11
219.3313649999999
 21
379.7059929999999
 31
0.0
  0
LINE
  5
DA86
330
D762
100
AcDbEntity
  8
1
  6
Continuous
100
AcDbLine
 10
158.8313649999998
 20
377.705993
 30
0.0
 11
219.3313649999999
 21
377.705993
 31
0.0
  0
LINE
  5
DA87
330
D762
100
AcDbEntity
  8
1
  6
Continuous
100
AcDbLine
 10
158.8313649999998
 20
367.5059929999999
 30
0.0
 11
211.3313649999998
 21
367.5059929999999
 31
0.0
  0
LINE
  5
DA88
330
D762
100
AcDbEntity
  8
1
  6
Continuous
100
AcDbLine
 10
160.0313649999999
 20
384.628422
 30
0.0
 11
160.0313649999999
 21
383.6284219999998
 31
0.0
  0
ARC
  5
DA89
330
D762
100
AcDbEntity
  8
1
  6
Continuous
100
AcDbCircle
 10
161.724354
 20
385.6345339999998
 30
0.0
 40
1.3
100
AcDbArc
 50
105.88085
 51
175.0
  0
LINE
  5
DA8A
330
D762
100
AcDbEntity
  8
1
  6
Continuous
100
AcDbLine
 10
160.3313649999998
 20
384.628422
 30
0.0
 11
160.429301
 21
385.7478369999999
 31
0.0
  0
LINE
  5
DA8B
330
D762
100
AcDbEntity
  8
1
  6
Continuous
100
AcDbLine
 10
158.8313649999998
 20
352.705993
 30
0.0
 11
158.8313649999998
 21
379.7059929999999
 31
0.0
  0
LINE
  5
DA8C
330
D762
100
AcDbEntity
  8
1
  6
Continuous
100
AcDbLine
 10
156.144543
 20
381.0845049999999
 30
0.0
 11
153.6829139999998
 21
356.2059929999999
 31
0.0
  0
LINE
  5
DA8D
330
D762
100
AcDbEntity
  8
1
  6
Continuous
100
AcDbLine
 10
158.134824
 20
380.887575
 30
0.0
 11
155.6731949999999
 21
356.0090629999999
 31
0.0
  0
LINE
  5
DA8E
330
D762
100
AcDbEntity
  8
1
  6
Continuous
100
AcDbLine
 10
160.3313649999998
 20
367.5059929999999
 30
0.0
 11
160.3313649999998
 21
377.705993
 31
0.0
  0
LINE
  5
DA8F
330
D762
100
AcDbEntity
  8
1
  6
Continuous
100
AcDbLine
 10
158.8313649999998
 20
383.6284219999998
 30
0.0
 11
158.8313649999998
 21
382.828422
 31
0.0
  0
ARC
  5
DA90
330
D762
100
AcDbEntity
  8
1
  6
Continuous
100
AcDbCircle
 10
158.134824
 20
380.887575
 30
0.0
 40
2.0
100
AcDbArc
 50
84.349205
 51
174.349205
  0
LINE
  5
DA91
330
D762
100
AcDbEntity
  8
1
  6
Continuous
100
AcDbLine
 10
151.8313649999998
 20
348.636982
 30
0.0
 11
151.8313649999998
 21
352.705993
 31
0.0
  0
ARC
  5
DA92
330
D762
100
AcDbEntity
  8
1
  6
Continuous
100
AcDbCircle
 10
152.8313649999998
 20
348.636982
 30
0.0
 40
1.0
100
AcDbArc
 50
180.0
 51
265.9528149999998
  0
ARC
  5
DA93
330
D762
100
AcDbEntity
  8
1
  6
Continuous
100
AcDbCircle
 10
153.6829139999998
 20
356.2059929999999
 30
0.0
 40
2.0
100
AcDbArc
 50
264.3492049999999
 51
354.3492049999999
  0
LINE
  5
DA94
330
D762
100
AcDbEntity
  8
1
  6
Continuous
100
AcDbLine
 10
146.022429
 20
354.9542009999998
 30
0.0
 11
146.2193599999999
 21
356.944482
 31
0.0
  0
LINE
  5
DA95
330
D762
100
AcDbEntity
  8
1
  6
Continuous
100
AcDbLine
 10
153.6829139999998
 20
356.2059929999999
 30
0.0
 11
146.2193599999999
 21
356.944482
 31
0.0
  0
LINE
  5
DA96
330
D762
100
AcDbEntity
  8
1
  6
Continuous
100
AcDbLine
 10
153.485983
 20
354.215712
 30
0.0
 11
146.022429
 21
354.9542009999998
 31
0.0
  0
LINE
  5
DA97
330
D762
100
AcDbEntity
  8
1
  6
Continuous
100
AcDbLine
 10
167.6313649999999
 20
384.628422
 30
0.0
 11
167.6313649999999
 21
383.6284219999998
 31
0.0
  0
LINE
  5
DA98
330
D762
100
AcDbEntity
  8
1
  6
Continuous
100
AcDbLine
 10
163.8313649999998
 20
384.628422
 30
0.0
 11
164.8313649999998
 21
383.6284219999998
 31
0.0
  0
LINE
  5
DA99
330
D762
100
AcDbEntity
  8
1
  6
Continuous
100
AcDbLine
 10
162.8313649999998
 20
384.628422
 30
0.0
 11
163.8313649999998
 21
383.6284219999998
 31
0.0
  0
LINE
  5
DA9A
330
D762
100
AcDbEntity
  8
4
  6
CENTER
100
AcDbLine
 10
163.8313649999998
 20
373.4565309999999
 30
0.0
 11
163.8313649999998
 21
389.5730879999999
 31
0.0
  0
ARC
  5
DA9B
330
D762
100
AcDbEntity
  8
1
  6
Continuous
100
AcDbCircle
 10
165.938375
 20
385.6345339999998
 30
0.0
 40
1.3
100
AcDbArc
 50
5.0
 51
74.11915
  0
LINE
  5
DA9C
330
D762
100
AcDbEntity
  8
1
  6
Continuous
100
AcDbLine
 10
167.3313649999998
 20
384.628422
 30
0.0
 11
167.233429
 21
385.7478369999999
 31
0.0
  0
LINE
  5
DA9D
330
D762
100
AcDbEntity
  8
1
  6
Continuous
100
AcDbLine
 10
191.268449
 20
370.2059929999998
 30
0.0
 11
194.423581
 21
370.2059929999998
 31
0.0
  0
LINE
  5
DA9E
330
D762
100
AcDbEntity
  8
1
  6
Continuous
100
AcDbLine
 10
191.0684489999999
 20
369.7059929999999
 30
0.0
 11
193.4805779999998
 21
369.7059929999999
 31
0.0
  0
LINE
  5
DA9F
330
D762
100
AcDbEntity
  8
1
  6
Continuous
100
AcDbLine
 10
179.7684489999998
 20
375.705993
 30
0.0
 11
193.768449
 21
375.705993
 31
0.0
  0
LINE
  5
DAA0
330
D762
100
AcDbEntity
  8
1
  6
Continuous
100
AcDbLine
 10
179.7684489999998
 20
373.705993
 30
0.0
 11
193.768449
 21
373.705993
 31
0.0
  0
LINE
  5
DAA1
330
D762
100
AcDbEntity
  8
1
  6
Continuous
100
AcDbLine
 10
192.125169
 20
375.705993
 30
0.0
 11
194.870968
 21
377.3722649999998
 31
0.0
  0
LINE
  5
DAA2
330
D762
100
AcDbEntity
  8
1
  6
Continuous
100
AcDbLine
 10
189.3313649999998
 20
367.5059929999999
 30
0.0
 11
195.932385
 21
371.0059929999999
 31
0.0
  0
LINE
  5
DAA3
330
D762
100
AcDbEntity
  8
1
  6
Continuous
100
AcDbLine
 10
170.3313649999998
 20
367.5059929999999
 30
0.0
 11
170.3313649999998
 21
377.705993
 31
0.0
  0
LINE
  5
DAA4
330
D762
100
AcDbEntity
  8
4
  6
CENTER
100
AcDbLine
 10
165.3313649999998
 20
374.7059929999999
 30
0.0
 11
165.3313649999998
 21
382.7059929999998
 31
0.0
  0
LINE
  5
DAA5
330
D762
100
AcDbEntity
  8
1
  6
Continuous
100
AcDbLine
 10
161.8313649999998
 20
379.7059929999999
 30
0.0
 11
161.8313649999998
 21
380.5218169999998
 31
0.0
  0
LINE
  5
DAA6
330
D762
100
AcDbEntity
  8
1
  6
Continuous
100
AcDbLine
 10
161.8313649999998
 20
382.531584
 30
0.0
 11
161.8313649999998
 21
382.828422
 31
0.0
  0
LINE
  5
DAA7
330
D762
100
AcDbEntity
  8
1
  6
Continuous
100
AcDbLine
 10
165.8313649999998
 20
379.7059929999999
 30
0.0
 11
165.8313649999998
 21
380.126033
 31
0.0
  0
LINE
  5
DAA8
330
D762
100
AcDbEntity
  8
1
  6
Continuous
100
AcDbLine
 10
165.8313649999998
 20
382.1358
 30
0.0
 11
165.8313649999998
 21
382.828422
 31
0.0
  0
LINE
  5
DAA9
330
D762
100
AcDbEntity
  8
1
  6
Continuous
100
AcDbLine
 10
170.07651
 20
379.7059929999999
 30
0.0
 11
170.2734399999999
 21
381.696274
 31
0.0
  0
LINE
  5
DAAA
330
D762
100
AcDbEntity
  8
2
  6
Continuous
100
AcDbLine
 10
165.4523649999999
 20
379.7059929999999
 30
0.0
 11
165.4523649999999
 21
380.1635339999998
 31
0.0
  0
LINE
  5
DAAB
330
D762
100
AcDbEntity
  8
2
  6
Continuous
100
AcDbLine
 10
162.2103649999999
 20
382.494083
 30
0.0
 11
162.2103649999999
 21
382.828422
 31
0.0
  0
LINE
  5
DAAC
330
D762
100
AcDbEntity
  8
2
  6
Continuous
100
AcDbLine
 10
165.4523649999999
 20
382.1733
 30
0.0
 11
165.4523649999999
 21
382.828422
 31
0.0
  0
LINE
  5
DAAD
330
D762
100
AcDbEntity
  8
2
  6
Continuous
100
AcDbLine
 10
162.2103649999999
 20
379.7059929999999
 30
0.0
 11
162.2103649999999
 21
380.4843169999998
 31
0.0
  0
LINE
  5
DAAE
330
D762
100
AcDbEntity
  8
1
  6
Continuous
100
AcDbLine
 10
168.8313649999998
 20
383.6284219999998
 30
0.0
 11
168.8313649999998
 21
382.828422
 31
0.0
  0
ARC
  5
DAAF
330
D762
100
AcDbEntity
  8
1
  6
Continuous
100
AcDbCircle
 10
186.768449
 20
369.627422
 30
0.0
 40
6.778571
100
AcDbArc
 50
63.731955
 51
116.268045
  0
LINE
  5
DAB0
330
D762
100
AcDbEntity
  8
1
  6
Continuous
100
AcDbLine
 10
183.8313649999999
 20
375.736641
 30
0.0
 11
183.8313649999999
 21
377.705993
 31
0.0
  0
LINE
  5
DAB1
330
D762
100
AcDbEntity
  8
1
  6
Continuous
100
AcDbLine
 10
180.7684489999998
 20
375.705993
 30
0.0
 11
192.768449
 21
375.705993
 31
0.0
  0
LINE
  5
DAB2
330
D762
100
AcDbEntity
  8
1
  6
Continuous
100
AcDbLine
 10
179.7684489999998
 20
373.705993
 30
0.0
 11
179.7684489999998
 21
375.705993
 31
0.0
  0
LINE
  5
DAB3
330
D762
100
AcDbEntity
  8
1
  6
Continuous
100
AcDbLine
 10
180.7684489999998
 20
371.405993
 30
0.0
 11
180.7684489999998
 21
373.705993
 31
0.0
  0
LINE
  5
DAB4
330
D762
100
AcDbEntity
  8
1
  6
Continuous
100
AcDbLine
 10
190.268449
 20
368.905993
 30
0.0
 11
191.268449
 21
369.905993
 31
0.0
  0
LINE
  5
DAB5
330
D762
100
AcDbEntity
  8
1
  6
Continuous
100
AcDbLine
 10
191.268449
 20
369.905993
 30
0.0
 11
191.268449
 21
370.905993
 31
0.0
  0
LINE
  5
DAB6
330
D762
100
AcDbEntity
  8
1
  6
Continuous
100
AcDbLine
 10
189.7684489999998
 20
370.905993
 30
0.0
 11
189.7684489999998
 21
371.405993
 31
0.0
  0
LINE
  5
DAB7
330
D762
100
AcDbEntity
  8
1
  6
Continuous
100
AcDbLine
 10
183.268449
 20
368.905993
 30
0.0
 11
190.268449
 21
368.905993
 31
0.0
  0
LINE
  5
DAB8
330
D762
100
AcDbEntity
  8
1
  6
Continuous
100
AcDbLine
 10
183.768449
 20
370.905993
 30
0.0
 11
183.768449
 21
371.405993
 31
0.0
  0
LINE
  5
DAB9
330
D762
100
AcDbEntity
  8
1
  6
Continuous
100
AcDbLine
 10
183.268449
 20
368.905993
 30
0.0
 11
182.268449
 21
369.905993
 31
0.0
  0
LINE
  5
DABA
330
D762
100
AcDbEntity
  8
1
  6
Continuous
100
AcDbLine
 10
182.268449
 20
369.905993
 30
0.0
 11
182.268449
 21
370.905993
 31
0.0
  0
LINE
  5
DABB
330
D762
100
AcDbEntity
  8
1
  6
Continuous
100
AcDbLine
 10
182.268449
 20
369.905993
 30
0.0
 11
191.268449
 21
369.905993
 31
0.0
  0
LINE
  5
DABC
330
D762
100
AcDbEntity
  8
1
  6
Continuous
100
AcDbLine
 10
182.268449
 20
370.905993
 30
0.0
 11
191.268449
 21
370.905993
 31
0.0
  0
LINE
  5
DABD
330
D762
100
AcDbEntity
  8
1
  6
Continuous
100
AcDbLine
 10
180.7684489999998
 20
371.405993
 30
0.0
 11
192.768449
 21
371.405993
 31
0.0
  0
LINE
  5
DABE
330
D762
100
AcDbEntity
  8
1
  6
Continuous
100
AcDbLine
 10
192.768449
 20
373.405993
 30
0.0
 11
193.26281
 21
373.705993
 31
0.0
  0
LINE
  5
DABF
330
D762
100
AcDbEntity
  8
1
  6
Continuous
100
AcDbLine
 10
192.768449
 20
371.405993
 30
0.0
 11
192.768449
 21
373.705993
 31
0.0
  0
LINE
  5
DAC0
330
D762
100
AcDbEntity
  8
4
  6
CENTER
100
AcDbLine
 10
178.3313649999998
 20
354.2059929999999
 30
0.0
 11
167.3313649999998
 21
354.2059929999999
 31
0.0
  0
ARC
  5
DAC1
330
D762
100
AcDbEntity
  8
1
  6
Continuous
100
AcDbCircle
 10
172.8313649999998
 20
354.2059929999999
 30
0.0
 40
2.5
100
AcDbArc
 50
323.130102
 51
216.869898
  0
ARC
  5
DAC2
330
D762
100
AcDbEntity
  8
1
  6
Continuous
100
AcDbCircle
 10
172.8313649999998
 20
354.2059929999999
 30
0.0
 40
2.549999999999998
100
AcDbArc
 50
323.968121
 51
216.0318789999998
  0
LINE
  5
DAC3
330
D762
100
AcDbEntity
  8
4
  6
CENTER
100
AcDbLine
 10
172.8313649999998
 20
348.705993
 30
0.0
 11
172.8313649999998
 21
359.7059929999999
 31
0.0
  0
LINE
  5
DAC4
330
D762
100
AcDbEntity
  8
5
  6
PHANTOM
100
AcDbLine
 10
184.294659
 20
343.917995
 30
0.0
 11
185.579799
 21
346.25826
 31
0.0
  0
ARC
  5
DAC5
330
D762
100
AcDbEntity
  8
5
  6
PHANTOM
100
AcDbCircle
 10
183.418126
 20
344.399338
 30
0.0
 40
1.0
100
AcDbArc
 50
241.2269
 51
331.2269
  0
LINE
  5
DAC6
330
D762
100
AcDbEntity
  8
5
  6
PHANTOM
100
AcDbLine
 10
177.661654
 20
346.4196079999999
 30
0.0
 11
182.9367839999999
 21
343.522805
 31
0.0
  0
ARC
  5
DAC7
330
D762
100
AcDbEntity
  8
5
  6
PHANTOM
100
AcDbCircle
 10
186.924257
 20
342.473969
 30
0.0
 40
1.0
100
AcDbArc
 50
151.2269
 51
241.2269
  0
LINE
  5
DAC8
330
D762
100
AcDbEntity
  8
5
  6
PHANTOM
100
AcDbLine
 10
186.0477239999999
 20
342.955311
 30
0.0
 11
187.847181
 21
346.232154
 31
0.0
  0
LINE
  5
DAC9
330
D762
100
AcDbEntity
  8
1
  6
Continuous
100
AcDbLine
 10
203.8313649999998
 20
375.2059929999999
 30
0.0
 11
203.8313649999998
 21
375.405993
 31
0.0
  0
LINE
  5
DACA
330
D762
100
AcDbEntity
  8
1
  6
Continuous
100
AcDbLine
 10
206.8313649999999
 20
375.405993
 30
0.0
 11
206.8313649999999
 21
377.705993
 31
0.0
  0
LINE
  5
DACB
330
D762
100
AcDbEntity
  8
1
  6
Continuous
100
AcDbLine
 10
208.432385
 20
373.5059929999999
 30
0.0
 11
208.432385
 21
367.5059929999999
 31
0.0
  0
LINE
  5
DACC
330
D762
100
AcDbEntity
  8
1
  6
Continuous
100
AcDbLine
 10
207.8313649999998
 20
373.5059929999999
 30
0.0
 11
207.8313649999998
 21
377.705993
 31
0.0
  0
LINE
  5
DACD
330
D762
100
AcDbEntity
  8
1
  6
Continuous
100
AcDbLine
 10
208.331365
 20
373.5059929999999
 30
0.0
 11
208.331365
 21
377.705993
 31
0.0
  0
LINE
  5
DACE
330
D762
100
AcDbEntity
  8
1
  6
Continuous
100
AcDbLine
 10
205.730344
 20
373.5059929999999
 30
0.0
 11
205.730344
 21
367.5059929999999
 31
0.0
  0
LINE
  5
DACF
330
D762
100
AcDbEntity
  8
1
  6
Continuous
100
AcDbLine
 10
205.8313649999998
 20
373.5059929999999
 30
0.0
 11
205.8313649999998
 21
375.2059929999999
 31
0.0
  0
LINE
  5
DAD0
330
D762
100
AcDbEntity
  8
4
  6
CENTER
100
AcDbLine
 10
200.8313649999998
 20
373.5759279999999
 30
0.0
 11
200.8313649999998
 21
382.3660939999999
 31
0.0
  0
LINE
  5
DAD1
330
D762
100
AcDbEntity
  8
1
  6
Continuous
100
AcDbLine
 10
205.730344
 20
373.5059929999999
 30
0.0
 11
208.432385
 21
373.5059929999999
 31
0.0
  0
LINE
  5
DAD2
330
D762
100
AcDbEntity
  8
1
  6
Continuous
100
AcDbLine
 10
197.8313649999998
 20
375.2059929999999
 30
0.0
 11
197.8313649999998
 21
375.405993
 31
0.0
  0
LINE
  5
DAD3
330
D762
100
AcDbEntity
  8
1
  6
Continuous
100
AcDbLine
 10
195.734614
 20
375.2059929999999
 30
0.0
 11
195.8313649999998
 21
375.2059929999999
 31
0.0
  0
LINE
  5
DAD4
330
D762
100
AcDbEntity
  8
1
  6
Continuous
100
AcDbLine
 10
193.768449
 20
373.705993
 30
0.0
 11
193.768449
 21
375.705993
 31
0.0
  0
LINE
  5
DAD5
330
D762
100
AcDbEntity
  8
1
  6
Continuous
100
AcDbLine
 10
193.768449
 20
374.0128369999998
 30
0.0
 11
196.064188
 21
375.405993
 31
0.0
  0
ARC
  5
DAD6
330
D762
100
AcDbEntity
  8
1
  6
Continuous
100
AcDbCircle
 10
196.064188
 20
375.405993
 30
0.0
 40
2.299999999999998
100
AcDbArc
 50
90.0
 51
121.2512229999999
  0
LINE
  5
DAD7
330
D762
100
AcDbEntity
  8
1
  6
Continuous
100
AcDbLine
 10
195.8313649999998
 20
370.9524299999998
 30
0.0
 11
195.8313649999998
 21
375.2059929999999
 31
0.0
  0
LINE
  5
DAD8
330
D762
100
AcDbEntity
  8
1
  6
Continuous
100
AcDbLine
 10
195.932385
 20
371.0059929999999
 30
0.0
 11
195.932385
 21
367.5059929999999
 31
0.0
  0
LINE
  5
DAD9
330
D762
100
AcDbEntity
  8
1
  6
Continuous
100
AcDbLine
 10
196.064188
 20
375.405993
 30
0.0
 11
206.8313649999999
 21
375.405993
 31
0.0
  0
LINE
  5
DADA
330
D762
100
AcDbEntity
  8
1
  6
Continuous
100
AcDbLine
 10
195.8313649999998
 20
375.2059929999999
 30
0.0
 11
205.8313649999998
 21
375.2059929999999
 31
0.0
  0
LINE
  5
DADB
330
D762
100
AcDbEntity
  8
1
  6
Continuous
100
AcDbLine
 10
199.431365
 20
379.7059929999999
 30
0.0
 11
202.231365
 21
379.7059929999999
 31
0.0
  0
LINE
  5
DADC
330
D762
100
AcDbEntity
  8
4
  6
CENTER
100
AcDbLine
 10
224.3313649999998
 20
369.0770309999999
 30
0.0
 11
224.3313649999998
 21
382.4334309999999
 31
0.0
  0
LINE
  5
DADD
330
D762
100
AcDbEntity
  8
1
  6
Continuous
100
AcDbLine
 10
222.3313649999998
 20
374.715392
 30
0.0
 11
222.3313649999998
 21
375.419887
 31
0.0
  0
LINE
  5
DADE
330
D762
100
AcDbEntity
  8
1
  6
Continuous
100
AcDbLine
 10
222.4152389999999
 20
372.2059929999999
 30
0.0
 11
222.4152389999999
 21
372.713801
 31
0.0
  0
LINE
  5
DADF
330
D762
100
AcDbEntity
  8
1
  6
Continuous
100
AcDbLine
 10
220.831365
 20
377.219887
 30
0.0
 11
220.9293009999999
 21
378.3393019999999
 31
0.0
  0
ARC
  5
DAE0
330
D762
100
AcDbEntity
  8
1
  6
Continuous
100
AcDbCircle
 10
222.224354
 20
378.225999
 30
0.0
 40
1.3
100
AcDbArc
 50
105.88085
 51
175.0
  0
LINE
  5
DAE1
330
D762
100
AcDbEntity
  8
1
  6
Continuous
100
AcDbLine
 10
220.5313649999999
 20
377.219887
 30
0.0
 11
220.5313649999999
 21
376.219887
 31
0.0
  0
LINE
  5
DAE2
330
D762
100
AcDbEntity
  8
1
  6
Continuous
100
AcDbLine
 10
219.3313649999999
 20
376.219887
 30
0.0
 11
219.3313649999999
 21
375.419887
 31
0.0
  0
LINE
  5
DAE3
330
D762
100
AcDbEntity
  8
1
  6
Continuous
100
AcDbLine
 10
221.8313649999998
 20
374.6653789999998
 30
0.0
 11
221.8313649999998
 21
375.419887
 31
0.0
  0
LINE
  5
DAE4
330
D762
100
AcDbEntity
  8
1
  6
Continuous
100
AcDbLine
 10
221.8313649999998
 20
372.2059929999999
 30
0.0
 11
221.8313649999998
 21
372.6553989999999
 31
0.0
  0
LINE
  5
DAE5
330
D762
100
AcDbEntity
  8
1
  6
Continuous
100
AcDbLine
 10
219.3313649999999
 20
377.705993
 30
0.0
 11
219.3313649999999
 21
379.7059929999999
 31
0.0
  0
LINE
  5
DAE6
330
D762
100
AcDbEntity
  8
1
  6
Continuous
100
AcDbLine
 10
218.3313649999998
 20
365.9979259999998
 30
0.0
 11
218.3313649999998
 21
377.705993
 31
0.0
  0
LINE
  5
DAE7
330
D762
100
AcDbEntity
  8
1
  6
Continuous
100
AcDbLine
 10
219.3313649999999
 20
377.705993
 30
0.0
 11
220.8738939999999
 21
377.705993
 31
0.0
  0
LINE
  5
DAE8
330
D762
100
AcDbEntity
  8
1
  6
Continuous
100
AcDbLine
 10
221.8313649999998
 20
374.6653789999998
 30
0.0
 11
221.8313649999998
 21
375.419887
 31
0.0
  0
LINE
  5
DAE9
330
D762
100
AcDbEntity
  8
1
  6
Continuous
100
AcDbLine
 10
221.8313649999998
 20
372.2059929999999
 30
0.0
 11
221.8313649999998
 21
372.6553989999999
 31
0.0
  0
LINE
  5
DAEA
330
D762
100
AcDbEntity
  8
1
  6
Continuous
100
AcDbLine
 10
218.5304229999999
 20
372.325219
 30
0.0
 11
218.3313649999998
 21
374.315288
 31
0.0
  0
LINE
  5
DAEB
330
D762
100
AcDbEntity
  8
4
  6
CENTER
100
AcDbLine
 10
213.3313649999998
 20
374.7059929999999
 30
0.0
 11
213.3313649999998
 21
382.7059929999998
 31
0.0
  0
LINE
  5
DAEC
330
D762
100
AcDbEntity
  8
2
  6
Continuous
100
AcDbLine
 10
222.7942389999999
 20
372.2059929999999
 30
0.0
 11
222.7942389999999
 21
372.7517109999998
 31
0.0
  0
LINE
  5
DAED
330
D762
100
AcDbEntity
  8
2
  6
Continuous
100
AcDbLine
 10
222.710365
 20
374.753302
 30
0.0
 11
222.710365
 21
375.419887
 31
0.0
  0
LINE
  5
DAEE
330
D762
100
AcDbEntity
  8
1
  6
Continuous
100
AcDbLine
 10
224.3313649999998
 20
377.219887
 30
0.0
 11
225.3313649999999
 21
376.219887
 31
0.0
  0
ARC
  5
DAEF
330
D762
100
AcDbEntity
  8
5
  6
PHANTOM
100
AcDbCircle
 10
193.534185
 20
336.2968029999998
 30
0.0
 40
2.232850999999997
100
AcDbArc
 50
241.854019
 51
107.543296
  0
ARC
  5
DAF0
330
D762
100
AcDbEntity
  8
5
  6
PHANTOM
100
AcDbCircle
 10
192.559718
 20
339.379292
 30
0.0
 40
1.0
100
AcDbArc
 50
241.2269
 51
287.5432959999999
  0
LINE
  5
DAF1
330
D762
100
AcDbEntity
  8
1
  6
Continuous
100
AcDbLine
 10
229.475804
 20
373.420041
 30
0.0
 11
231.217566
 21
356.006935
 31
0.0
  0
LINE
  5
DAF2
330
D762
100
AcDbEntity
  8
1
  6
Continuous
100
AcDbLine
 10
231.465874
 20
373.619099
 30
0.0
 11
233.207635
 21
356.2059929999999
 31
0.0
  0
LINE
  5
DAF3
330
D762
100
AcDbEntity
  8
1
  6
Continuous
100
AcDbLine
 10
228.3313649999998
 20
352.705993
 30
0.0
 11
228.3313649999998
 21
370.2059929999998
 31
0.0
  0
LINE
  5
DAF4
330
D762
100
AcDbEntity
  8
1
  6
Continuous
100
AcDbLine
 10
227.8313649999998
 20
377.219887
 30
0.0
 11
227.733429
 21
378.3393019999999
 31
0.0
  0
LINE
  5
DAF5
330
D762
100
AcDbEntity
  8
1
  6
Continuous
100
AcDbLine
 10
228.1313649999999
 20
377.219887
 30
0.0
 11
228.1313649999999
 21
376.219887
 31
0.0
  0
LINE
  5
DAF6
330
D762
100
AcDbEntity
  8
1
  6
Continuous
100
AcDbLine
 10
229.3313649999999
 20
376.219887
 30
0.0
 11
229.3313649999999
 21
375.419887
 31
0.0
  0
ARC
  5
DAF7
330
D762
100
AcDbEntity
  8
1
  6
Continuous
100
AcDbCircle
 10
229.475804
 20
373.420041
 30
0.0
 40
2.0
100
AcDbArc
 50
5.712062999999998
 51
95.712063
  0
LINE
  5
DAF8
330
D762
100
AcDbEntity
  8
1
  6
Continuous
100
AcDbLine
 10
226.3313649999998
 20
375.115496
 30
0.0
 11
226.3313649999998
 21
375.419887
 31
0.0
  0
LINE
  5
DAF9
330
D762
100
AcDbEntity
  8
1
  6
Continuous
100
AcDbLine
 10
226.3313649999998
 20
372.2059929999999
 30
0.0
 11
226.3313649999998
 21
373.1055149999999
 31
0.0
  0
LINE
  5
DAFA
330
D762
100
AcDbEntity
  8
2
  6
Continuous
100
AcDbLine
 10
225.9523649999999
 20
372.2059929999999
 30
0.0
 11
225.9523649999999
 21
373.067606
 31
0.0
  0
LINE
  5
DAFB
330
D762
100
AcDbEntity
  8
2
  6
Continuous
100
AcDbLine
 10
225.9523649999999
 20
375.077586
 30
0.0
 11
225.9523649999999
 21
375.419887
 31
0.0
  0
ARC
  5
DAFC
330
D762
100
AcDbEntity
  8
1
  6
Continuous
100
AcDbCircle
 10
226.4383759999998
 20
378.225999
 30
0.0
 40
1.3
100
AcDbArc
 50
5.0
 51
74.11915
  0
ARC
  5
DAFD
330
D762
100
AcDbEntity
  8
1
  6
Continuous
100
AcDbCircle
 10
226.3313649999998
 20
370.2059929999998
 30
0.0
 40
2.0
100
AcDbArc
 50
0.0
 51
90.0
  0
LINE
  5
DAFE
330
D762
100
AcDbEntity
  8
1
  6
Continuous
100
AcDbLine
 10
240.869453
 20
354.962393
 30
0.0
 11
240.670395
 21
356.9524620000001
 31
0.0
  0
LINE
  5
DAFF
330
D762
100
AcDbEntity
  8
1
  6
Continuous
100
AcDbLine
 10
234.8313649999998
 20
348.636982
 30
0.0
 11
234.8313649999998
 21
352.705993
 31
0.0
  0
ARC
  5
DB00
330
D762
100
AcDbEntity
  8
1
  6
Continuous
100
AcDbCircle
 10
233.8313649999999
 20
348.636982
 30
0.0
 40
1.0
100
AcDbArc
 50
274.047185
 51
0.0
  0
ARC
  5
DB01
330
D762
100
AcDbEntity
  8
1
  6
Continuous
100
AcDbCircle
 10
233.207635
 20
356.2059929999999
 30
0.0
 40
2.0
100
AcDbArc
 50
185.712063
 51
275.712063
  0
LINE
  5
DB02
330
D762
100
AcDbEntity
  8
1
  6
Continuous
100
AcDbLine
 10
233.406694
 20
354.2159239999999
 30
0.0
 11
240.869453
 21
354.962393
 31
0.0
  0
LINE
  5
DB03
330
D762
100
AcDbEntity
  8
1
  6
Continuous
100
AcDbLine
 10
233.207635
 20
356.2059929999999
 30
0.0
 11
240.670395
 21
356.9524620000001
 31
0.0
  0
LINE
  5
DB04
330
D762
100
AcDbEntity
  8
4
  6
CENTER
100
AcDbLine
 10
317.8694529999999
 20
182.6759759999999
 30
0.0
 11
328.3694529999999
 21
182.6759759999999
 31
0.0
  0
LINE
  5
DB05
330
D762
100
AcDbEntity
  8
4
  6
CENTER
100
AcDbLine
 10
69.022429
 20
182.6759759999999
 30
0.0
 11
58.522429
 21
182.6759759999999
 31
0.0
  0
LINE
  5
DB06
330
D762
100
AcDbEntity
  8
4
  6
CENTER
100
AcDbLine
 10
185.3313649999998
 20
74.522429
 30
0.0
 11
185.3313649999998
 21
84.96704699999998
 31
0.0
  0
LINE
  5
DB07
330
D762
100
AcDbEntity
  8
4
  6
CENTER
100
AcDbLine
 10
185.3313649999998
 20
353.7059929999998
 30
0.0
 11
185.3313649999998
 21
343.2613749999998
 31
0.0
  0
LINE
  5
DB08
330
D762
100
AcDbEntity
  8
4
  6
CENTER
100
AcDbLine
 10
186.768449
 20
62.489515
 30
0.0
 11
186.768449
 21
49.10765300000001
 31
0.0
  0
LINE
  5
DB09
330
D762
100
AcDbEntity
  8
4
  6
CENTER
100
AcDbLine
 10
186.768449
 20
366.173921
 30
0.0
 11
186.768449
 21
378.671619
 31
0.0
  0
LINE
  5
DB0A
330
D762
100
AcDbEntity
  8
1
  6
Continuous
100
AcDbLine
 10
497.6520389999998
 20
260.114211
 30
0.0
 11
516.5891229999998
 21
260.114211
 31
0.0
  0
ARC
  5
DB0B
330
D762
100
AcDbEntity
  8
1
  6
Continuous
100
AcDbCircle
 10
485.089123
 20
-234.885789
 30
0.0
 40
500.0
100
AcDbArc
 50
89.93549499999996
 51
93.89801199999999
  0
LINE
  5
DB0C
330
D762
100
AcDbEntity
  8
1
  6
Continuous
100
AcDbLine
 10
497.6520389999998
 20
168.114211
 30
0.0
 11
516.5891229999998
 21
168.114211
 31
0.0
  0
ARC
  5
DB0D
330
D762
100
AcDbEntity
  8
1
  6
Continuous
100
AcDbCircle
 10
485.089123
 20
663.1142109999998
 30
0.0
 40
500.0
100
AcDbArc
 50
271.439756
 51
273.8980119999999
  0
LINE
  5
DB0E
330
D762
100
AcDbEntity
  8
4
  6
CENTER
100
AcDbLine
 10
328.8694529999999
 20
163.114211
 30
0.0
 11
328.8694529999999
 21
265.114211
 31
0.0
  0
LINE
  5
DB0F
330
D762
100
AcDbEntity
  8
4
  6
CENTER
100
AcDbLine
 10
58.022429
 20
163.114211
 30
0.0
 11
58.022429
 21
265.114211
 31
0.0
  0
ENDSEC
  0
SECTION
  2
OBJECTS
  0
DICTIONARY
  5
D750
330
0
100
AcDbDictionary
281
     1
  3
ACAD_CIP_PREVIOUS_PRODUCT_INFO
350
DB75
  3
ACAD_COLOR
350
DB57
  3
ACAD_DETAILVIEWSTYLE
350
DB70
  3
ACAD_GROUP
350
D751
  3
ACAD_LAYOUT
350
D75D
  3
ACAD_MATERIAL
350
DB25
  3
ACAD_MLEADERSTYLE
350
DB6C
  3
ACAD_MLINESTYLE
350
D75A
  3
ACAD_PLOTSETTINGS
350
D75C
  3
ACAD_PLOTSTYLENAME
350
DB23
  3
ACAD_SCALELIST
350
DB5A
  3
ACAD_SECTIONVIEWSTYLE
350
DB6E
  3
ACAD_TABLESTYLE
350
DB58
  3
ACAD_VISUALSTYLE
350
DB3E
  3
ACDB_RECOMPOSE_DATA
350
DB93
  3
AcDbVariableDictionary
350
DB86
  3
DWGPROPS
350
DB94
  0
DICTIONARY
  5
DB76
330
D754
100
AcDbDictionary
280
     1
281
     1
  3
ADSK_XREC_LAYER_RECONCILED
360
DB77
  0
DICTIONARY
  5
DB78
330
D76A
100
AcDbDictionary
280
     1
281
     1
  3
ADSK_XREC_LAYER_RECONCILED
360
DB79
  0
DICTIONARY
  5
DB7A
330
D76B
100
AcDbDictionary
280
     1
281
     1
  3
ADSK_XREC_LAYER_RECONCILED
360
DB7B
  0
DICTIONARY
  5
DB7C
330
D76C
100
AcDbDictionary
280
     1
281
     1
  3
ADSK_XREC_LAYER_RECONCILED
360
DB7D
  0
DICTIONARY
  5
DB7E
330
D76D
100
AcDbDictionary
280
     1
281
     1
  3
ADSK_XREC_LAYER_RECONCILED
360
DB7F
  0
DICTIONARY
  5
DB80
330
D76E
100
AcDbDictionary
280
     1
281
     1
  3
ADSK_XREC_LAYER_RECONCILED
360
DB81
  0
DICTIONARY
  5
DB82
330
D76F
100
AcDbDictionary
280
     1
281
     1
  3
ADSK_XREC_LAYER_RECONCILED
360
DB83
  0
DICTIONARY
  5
DB84
330
D770
100
AcDbDictionary
280
     1
281
     1
  3
ADSK_XREC_LAYER_RECONCILED
360
DB85
  0
DICTIONARY
  5
DB1E
330
D762
100
AcDbDictionary
281
     1
  3
ACAD_LAYOUTSELFREF
350
DB1F
  0
DICTIONARY
  5
DB1C
330
D75E
100
AcDbDictionary
281
     1
  3
ACAD_LAYOUTSELFREF
350
DB1D
  0
XRECORD
  5
DB75
102
{ACAD_REACTORS
330
D750
102
}
330
D750
100
AcDbXrecord
280
     1
300
ACDLT
300
2014
300
ACDLT_F_S
  0
DICTIONARY
  5
DB57
102
{ACAD_REACTORS
330
D750
102
}
330
D750
100
AcDbDictionary
281
     1
  0
DICTIONARY
  5
DB70
102
{ACAD_REACTORS
330
D750
102
}
330
D750
100
AcDbDictionary
281
     1
  3
Imperial24
350
DB71
  0
DICTIONARY
  5
D751
102
{ACAD_REACTORS
330
D750
102
}
330
D750
100
AcDbDictionary
281
     1
  0
DICTIONARY
  5
D75D
102
{ACAD_REACTORS
330
D750
102
}
330
D750
100
AcDbDictionary
281
     1
  3
Model
350
DB72
  3
レイアウト1
350
DB73
  0
DICTIONARY
  5
DB25
102
{ACAD_REACTORS
330
D750
102
}
330
D750
100
AcDbDictionary
281
     1
  3
ByBlock
350
DB2E
  3
ByLayer
350
DB26
  3
Global
350
DB36
  0
DICTIONARY
  5
DB6C
102
{ACAD_REACTORS
330
D750
102
}
330
D750
100
AcDbDictionary
281
     1
  3
Standard
350
DB6D
  0
DICTIONARY
  5
D75A
102
{ACAD_REACTORS
330
D750
102
}
330
D750
100
AcDbDictionary
281
     1
  3
STANDARD
350
D75B
  0
DICTIONARY
  5
D75C
102
{ACAD_REACTORS
330
D750
102
}
330
D750
100
AcDbDictionary
281
     1
  0
ACDBDICTIONARYWDFLT
  5
DB23
102
{ACAD_REACTORS
330
D750
102
}
330
D750
100
AcDbDictionary
281
     1
  3
Normal
350
DB24
100
AcDbDictionaryWithDefault
340
DB24
  0
DICTIONARY
  5
DB5A
102
{ACAD_REACTORS
330
D750
102
}
330
D750
100
AcDbDictionary
281
     1
  3
A0
350
DB5B
  3
A1
350
DB5C
  3
A2
350
DB5D
  3
A3
350
DB5E
  3
A4
350
DB5F
  3
A5
350
DB60
  3
A6
350
DB61
  3
A7
350
DB62
  3
A8
350
DB63
  3
A9
350
DB64
  3
B0
350
DB65
  3
B1
350
DB66
  3
B2
350
DB67
  3
B3
350
DB68
  3
B4
350
DB69
  3
B5
350
DB6A
  3
B6
350
DB6B
  0
DICTIONARY
  5
DB6E
102
{ACAD_REACTORS
330
D750
102
}
330
D750
100
AcDbDictionary
281
     1
  3
Imperial24
350
DB6F
  0
DICTIONARY
  5
DB58
102
{ACAD_REACTORS
330
D750
102
}
330
D750
100
AcDbDictionary
281
     1
  3
Standard
350
DB59
  0
DICTIONARY
  5
DB3E
102
{ACAD_REACTORS
330
D750
102
}
330
D750
100
AcDbDictionary
281
     1
  3
2dWireframe
350
DB44
  3
Basic
350
DB43
  3
Brighten
350
DB4A
  3
ColorChange
350
DB4E
  3
Conceptual
350
DB47
  3
Dim
350
DB49
  3
EdgeColorOff
350
DB56
  3
Facepattern
350
DB4D
  3
Flat
350
DB3F
  3
FlatWithEdges
350
DB40
  3
Gouraud
350
DB41
  3
GouraudWithEdges
350
DB42
  3
Hidden
350
DB46
  3
JitterOff
350
DB54
  3
Linepattern
350
DB4C
  3
OverhangOff
350
DB55
  3
Realistic
350
DB48
  3
Shaded
350
DB53
  3
Shaded with edges
350
DB52
  3
Shades of Gray
350
DB4F
  3
Sketchy
350
DB50
  3
Thicken
350
DB4B
  3
Wireframe
350
DB45
  3
X-Ray
350
DB51
  0
XRECORD
  5
DB93
102
{ACAD_REACTORS
330
D750
102
}
330
D750
100
AcDbXrecord
280
     1
 90
        1
330
DB59
  0
DICTIONARY
  5
DB86
102
{ACAD_REACTORS
330
D750
102
}
330
D750
100
AcDbDictionary
281
     1
  3
CANNOSCALE
350
DB8B
  3
CMLEADERSTYLE
350
DB88
  3
CTABLESTYLE
350
DB87
  3
CVIEWDETAILSTYLE
350
DB89
  3
CVIEWSECTIONSTYLE
350
DB8A
  3
DIMASSOC
350
DB8E
  3
INDEXCTL
350
DB8D
  3
SORTENTS
350
DB8C
  3
XCLIPFRAME
350
DB8F
  0
XRECORD
  5
DB94
102
{ACAD_REACTORS
330
D750
102
}
330
D750
100
AcDbXrecord
280
     1
  1
DWGPROPS COOKIE
  2

  3

  4

  6

  7

  8
Yoshitsune
  9

300
=
301
=
302
=
303
=
304
=
305
=
306
=
307
=
308
=
309
=
 40
0.0000168402777778
 41
2451368.502786921
 42
2457192.642917315
  1

 90
        0
  0
XRECORD
  5
DB77
102
{ACAD_REACTORS
330
DB76
102
}
330
DB76
100
AcDbXrecord
280
     1
290
     1
  0
XRECORD
  5
DB79
102
{ACAD_REACTORS
330
DB78
102
}
330
DB78
100
AcDbXrecord
280
     1
290
     1
  0
XRECORD
  5
DB7B
102
{ACAD_REACTORS
330
DB7A
102
}
330
DB7A
100
AcDbXrecord
280
     1
290
     1
  0
XRECORD
  5
DB7D
102
{ACAD_REACTORS
330
DB7C
102
}
330
DB7C
100
AcDbXrecord
280
     1
290
     1
  0
XRECORD
  5
DB7F
102
{ACAD_REACTORS
330
DB7E
102
}
330
DB7E
100
AcDbXrecord
280
     1
290
     1
  0
XRECORD
  5
DB81
102
{ACAD_REACTORS
330
DB80
102
}
330
DB80
100
AcDbXrecord
280
     1
290
     1
  0
XRECORD
  5
DB83
102
{ACAD_REACTORS
330
DB82
102
}
330
DB82
100
AcDbXrecord
280
     1
290
     1
  0
XRECORD
  5
DB85
102
{ACAD_REACTORS
330
DB84
102
}
330
DB84
100
AcDbXrecord
280
     1
290
     1
  0
XRECORD
  5
DB1F
102
{ACAD_REACTORS
330
DB1E
102
}
330
DB1E
100
AcDbXrecord
280
     1
340
D762
  0
XRECORD
  5
DB1D
102
{ACAD_REACTORS
330
DB1C
102
}
330
DB1C
100
AcDbXrecord
280
     1
340
D75E
  0
ACDBDETAILVIEWSTYLE
  5
DB71
102
{ACAD_XDICTIONARY
360
DBCC
102
}
102
{ACAD_REACTORS
330
DB70
102
}
330
DB70
100
AcDbModelDocViewStyle
 70
     0
  3
Imperial24
290
     0
100
AcDbDetailViewStyle
 70
     0
 71
     0
 90
        3
 71
     1
340
D755
 40
0.24
340
0
 40
0.24
300

 40
0.36
280
     3
 71
     2
340
D759
 90
       25
 71
     3
340
D755
 40
0.24
 90
        1
 40
0.75
 90
        1
300
%<\AcVar ViewType \f "%tc1">% %<\AcVar ViewDetailId>%\PSCALE %<\AcVar ViewScale \f "%sn">%
 71
     4
340
D759
 90
       25
340
D759
 90
       25
280
     0
  0
LAYOUT
  5
DB72
102
{ACAD_XDICTIONARY
360
DBCE
102
}
102
{ACAD_REACTORS
330
D75D
102
}
330
D75D
100
AcDbPlotSettings
  1

  2
Canon LBP9100C
  4

  6

 40
0.0
 41
0.0
 42
0.0
 43
0.0
 44
0.0
 45
0.0
 46
0.0
 47
0.0
 48
0.0
 49
0.0
140
0.0
141
0.0
142
1.0
143
1.0
 70
  1712
 72
     0
 73
     0
 74
     0
  7

 75
     0
147
1.0
148
0.0
149
0.0
100
AcDbLayout
  1
Model
 70
     1
 71
     0
 10
0.0
 20
0.0
 11
12.0
 21
9.0
 12
0.0
 22
0.0
 32
0.0
 14
0.0
 24
0.0
 34
0.0
 15
0.0
 25
0.0
 35
0.0
146
0.0
 13
0.0
 23
0.0
 33
0.0
 16
1.0
 26
0.0
 36
0.0
 17
0.0
 27
1.0
 37
0.0
 76
     0
330
D762
331
DB1B
  0
LAYOUT
  5
DB73
102
{ACAD_XDICTIONARY
360
DBD0
102
}
102
{ACAD_REACTORS
330
D75D
102
}
330
D75D
100
AcDbPlotSettings
  1

  2
Canon LBP9100C
  4

  6

 40
0.0
 41
0.0
 42
0.0
 43
0.0
 44
0.0
 45
0.0
 46
0.0
 47
0.0
 48
0.0
 49
0.0
140
0.0
141
0.0
142
1.0
143
1.0
 70
   688
 72
     0
 73
     0
 74
     5
  7

 75
    16
147
1.0
148
0.0
149
0.0
100
AcDbLayout
  1
レイアウト1
 70
     0
 71
     1
 10
0.0
 20
0.0
 11
420.0
 21
297.0
 12
0.0
 22
0.0
 32
0.0
 14
1.000000000000000E+20
 24
1.000000000000000E+20
 34
1.000000000000000E+20
 15
-1.000000000000000E+20
 25
-1.000000000000000E+20
 35
-1.000000000000000E+20
146
0.0
 13
0.0
 23
0.0
 33
0.0
 16
1.0
 26
0.0
 36
0.0
 17
0.0
 27
1.0
 37
0.0
 76
     0
330
D75E
  0
MATERIAL
  5
DB2E
102
{ACAD_XDICTIONARY
360
DB2F
102
}
102
{ACAD_REACTORS
330
DB25
102
}
330
DB25
100
AcDbMaterial
  1
ByBlock
 72
     0
 43
0.0208333333333333
 43
0.0
 43
0.0
 43
0.0
 43
0.0
 43
0.0208333333333333
 43
0.0
 43
0.0
 43
0.0
 43
0.0
 43
1.0
 43
0.0
 43
0.0
 43
0.0
 43
0.0
 43
1.0
 77
     0
 47
0.0208333333333333
 47
0.0
 47
0.0
 47
0.0
 47
0.0
 47
0.0208333333333333
 47
0.0
 47
0.0
 47
0.0
 47
0.0
 47
1.0
 47
0.0
 47
0.0
 47
0.0
 47
0.0
 47
1.0
171
     0
 49
0.0208333333333333
 49
0.0
 49
0.0
 49
0.0
 49
0.0
 49
0.0208333333333333
 49
0.0
 49
0.0
 49
0.0
 49
0.0
 49
1.0
 49
0.0
 49
0.0
 49
0.0
 49
0.0
 49
1.0
175
     0
142
0.0208333333333333
142
0.0
142
0.0
142
0.0
142
0.0
142
0.0208333333333333
142
0.0
142
0.0
142
0.0
142
0.0
142
1.0
142
0.0
142
0.0
142
0.0
142
0.0
142
1.0
179
     0
144
0.0208333333333333
144
0.0
144
0.0
144
0.0
144
0.0
144
0.0208333333333333
144
0.0
144
0.0
144
0.0
144
0.0
144
1.0
144
0.0
144
0.0
144
0.0
144
0.0
144
1.0
147
0.0208333333333333
147
0.0
147
0.0
147
0.0
147
0.0
147
0.0208333333333333
147
0.0
147
0.0
147
0.0
147
0.0
147
1.0
147
0.0
147
0.0
147
0.0
147
0.0
147
1.0
  0
MATERIAL
  5
DB26
102
{ACAD_XDICTIONARY
360
DB27
102
}
102
{ACAD_REACTORS
330
DB25
102
}
330
DB25
100
AcDbMaterial
  1
ByLayer
 72
     0
 43
0.0208333333333333
 43
0.0
 43
0.0
 43
0.0
 43
0.0
 43
0.0208333333333333
 43
0.0
 43
0.0
 43
0.0
 43
0.0
 43
1.0
 43
0.0
 43
0.0
 43
0.0
 43
0.0
 43
1.0
 77
     0
 47
0.0208333333333333
 47
0.0
 47
0.0
 47
0.0
 47
0.0
 47
0.0208333333333333
 47
0.0
 47
0.0
 47
0.0
 47
0.0
 47
1.0
 47
0.0
 47
0.0
 47
0.0
 47
0.0
 47
1.0
171
     0
 49
0.0208333333333333
 49
0.0
 49
0.0
 49
0.0
 49
0.0
 49
0.0208333333333333
 49
0.0
 49
0.0
 49
0.0
 49
0.0
 49
1.0
 49
0.0
 49
0.0
 49
0.0
 49
0.0
 49
1.0
175
     0
142
0.0208333333333333
142
0.0
142
0.0
142
0.0
142
0.0
142
0.0208333333333333
142
0.0
142
0.0
142
0.0
142
0.0
142
1.0
142
0.0
142
0.0
142
0.0
142
0.0
142
1.0
179
     0
144
0.0208333333333333
144
0.0
144
0.0
144
0.0
144
0.0
144
0.0208333333333333
144
0.0
144
0.0
144
0.0
144
0.0
144
1.0
144
0.0
144
0.0
144
0.0
144
0.0
144
1.0
147
0.0208333333333333
147
0.0
147
0.0
147
0.0
147
0.0
147
0.0208333333333333
147
0.0
147
0.0
147
0.0
147
0.0
147
1.0
147
0.0
147
0.0
147
0.0
147
0.0
147
1.0
  0
MATERIAL
  5
DB36
102
{ACAD_XDICTIONARY
360
DB37
102
}
102
{ACAD_REACTORS
330
DB25
102
}
330
DB25
100
AcDbMaterial
  1
Global
 72
     0
 43
0.0208333333333333
 43
0.0
 43
0.0
 43
0.0
 43
0.0
 43
0.0208333333333333
 43
0.0
 43
0.0
 43
0.0
 43
0.0
 43
1.0
 43
0.0
 43
0.0
 43
0.0
 43
0.0
 43
1.0
 77
     0
 47
0.0208333333333333
 47
0.0
 47
0.0
 47
0.0
 47
0.0
 47
0.0208333333333333
 47
0.0
 47
0.0
 47
0.0
 47
0.0
 47
1.0
 47
0.0
 47
0.0
 47
0.0
 47
0.0
 47
1.0
171
     0
 49
0.0208333333333333
 49
0.0
 49
0.0
 49
0.0
 49
0.0
 49
0.0208333333333333
 49
0.0
 49
0.0
 49
0.0
 49
0.0
 49
1.0
 49
0.0
 49
0.0
 49
0.0
 49
0.0
 49
1.0
175
     0
142
0.0208333333333333
142
0.0
142
0.0
142
0.0
142
0.0
142
0.0208333333333333
142
0.0
142
0.0
142
0.0
142
0.0
142
1.0
142
0.0
142
0.0
142
0.0
142
0.0
142
1.0
179
     0
144
0.0208333333333333
144
0.0
144
0.0
144
0.0
144
0.0
144
0.0208333333333333
144
0.0
144
0.0
144
0.0
144
0.0
144
1.0
144
0.0
144
0.0
144
0.0
144
0.0
144
1.0
147
0.0208333333333333
147
0.0
147
0.0
147
0.0
147
0.0
147
0.0208333333333333
147
0.0
147
0.0
147
0.0
147
0.0
147
1.0
147
0.0
147
0.0
147
0.0
147
0.0
147
1.0
  0
MLEADERSTYLE
  5
DB6D
102
{ACAD_REACTORS
330
DB6C
102
}
330
DB6C
100
AcDbMLeaderStyle
170
     2
171
     1
172
     0
 90
        2
 40
0.0
 41
0.0
173
     1
 91
-1056964608
340
D757
 92
       -2
290
     1
 42
0.09
291
     1
 43
0.36
  3
Standard
 44
0.18
300

342
D755
174
     1
178
     6
175
     1
176
     0
 93
-1056964608
 45
0.18
292
     0
297
     0
 46
0.18
 94
-1056964608
 47
1.0
 49
1.0
140
1.0
293
     1
141
0.0
294
     1
177
     0
142
1.0
295
     0
296
     0
143
0.125
1001
ACAD_MLEADERVER
1070
     2
  0
MLINESTYLE
  5
D75B
102
{ACAD_REACTORS
330
D75A
102
}
330
D75A
100
AcDbMlineStyle
  2
STANDARD
 70
     0
  3

 62
   256
 51
90.0
 52
90.0
 71
     2
 49
0.5
 62
   256
  6
BYLAYER
 49
-0.5
 62
   256
  6
BYLAYER
  0
ACDBPLACEHOLDER
  5
DB24
102
{ACAD_REACTORS
330
DB23
102
}
330
DB23
  0
SCALE
  5
DB5B
102
{ACAD_REACTORS
330
DB5A
102
}
330
DB5A
100
AcDbScale
 70
     0
300
1:1
140
1.0
141
1.0
290
     1
  0
SCALE
  5
DB5C
102
{ACAD_REACTORS
330
DB5A
102
}
330
DB5A
100
AcDbScale
 70
     0
300
1/128" = 1'-0"
140
0.0078125
141
12.0
290
     0
  0
SCALE
  5
DB5D
102
{ACAD_REACTORS
330
DB5A
102
}
330
DB5A
100
AcDbScale
 70
     0
300
1/64" = 1'-0"
140
0.015625
141
12.0
290
     0
  0
SCALE
  5
DB5E
102
{ACAD_REACTORS
330
DB5A
102
}
330
DB5A
100
AcDbScale
 70
     0
300
1/32" = 1'-0"
140
0.03125
141
12.0
290
     0
  0
SCALE
  5
DB5F
102
{ACAD_REACTORS
330
DB5A
102
}
330
DB5A
100
AcDbScale
 70
     0
300
1/16" = 1'-0"
140
0.0625
141
12.0
290
     0
  0
SCALE
  5
DB60
102
{ACAD_REACTORS
330
DB5A
102
}
330
DB5A
100
AcDbScale
 70
     0
300
3/32" = 1'-0"
140
0.09375
141
12.0
290
     0
  0
SCALE
  5
DB61
102
{ACAD_REACTORS
330
DB5A
102
}
330
DB5A
100
AcDbScale
 70
     0
300
1/8" = 1'-0"
140
0.125
141
12.0
290
     0
  0
SCALE
  5
DB62
102
{ACAD_REACTORS
330
DB5A
102
}
330
DB5A
100
AcDbScale
 70
     0
300
3/16" = 1'-0"
140
0.1875
141
12.0
290
     0
  0
SCALE
  5
DB63
102
{ACAD_REACTORS
330
DB5A
102
}
330
DB5A
100
AcDbScale
 70
     0
300
1/4" = 1'-0"
140
0.25
141
12.0
290
     0
  0
SCALE
  5
DB64
102
{ACAD_REACTORS
330
DB5A
102
}
330
DB5A
100
AcDbScale
 70
     0
300
3/8" = 1'-0"
140
0.375
141
12.0
290
     0
  0
SCALE
  5
DB65
102
{ACAD_REACTORS
330
DB5A
102
}
330
DB5A
100
AcDbScale
 70
     0
300
1/2" = 1'-0"
140
0.5
141
12.0
290
     0
  0
SCALE
  5
DB66
102
{ACAD_REACTORS
330
DB5A
102
}
330
DB5A
100
AcDbScale
 70
     0
300
3/4" = 1'-0"
140
0.75
141
12.0
290
     0
  0
SCALE
  5
DB67
102
{ACAD_REACTORS
330
DB5A
102
}
330
DB5A
100
AcDbScale
 70
     0
300
1" = 1'-0"
140
1.0
141
12.0
290
     0
  0
SCALE
  5
DB68
102
{ACAD_REACTORS
330
DB5A
102
}
330
DB5A
100
AcDbScale
 70
     0
300
1-1/2" = 1'-0"
140
1.5
141
12.0
290
     0
  0
SCALE
  5
DB69
102
{ACAD_REACTORS
330
DB5A
102
}
330
DB5A
100
AcDbScale
 70
     0
300
3" = 1'-0"
140
3.0
141
12.0
290
     0
  0
SCALE
  5
DB6A
102
{ACAD_REACTORS
330
DB5A
102
}
330
DB5A
100
AcDbScale
 70
     0
300
6" = 1'-0"
140
6.0
141
12.0
290
     0
  0
SCALE
  5
DB6B
102
{ACAD_REACTORS
330
DB5A
102
}
330
DB5A
100
AcDbScale
 70
     0
300
1'-0" = 1'-0"
140
12.0
141
12.0
290
     0
  0
ACDBSECTIONVIEWSTYLE
  5
DB6F
102
{ACAD_XDICTIONARY
360
DBCA
102
}
102
{ACAD_REACTORS
330
DB6E
102
}
330
DB6E
100
AcDbModelDocViewStyle
 70
     0
  3
Imperial24
290
     0
100
AcDbSectionViewStyle
 70
     0
 71
     0
 90
       78
 71
     1
340
D755
 40
0.24
340
0
340
0
 40
0.24
300
I, O, Q, S, X, Z
 40
0.48
 90
        3
 40
0.18
 90
        1
 71
     2
340
D759
 90
       25
340
D759
 90
       50
 40
0.24
 40
0.0
 40
0.24
 71
     3
340
D755
 40
0.24
 90
        1
 40
0.75
 90
        1
300
%<\AcVar ViewType \f "%tc1">% %<\AcVar ViewSectionStartId>%-%<\AcVar ViewSectionEndId>%\PSCALE %<\AcVar ViewScale \f "%sn">%
 71
     4
300
ANSI31
 40
1.0
 90
        0
290
     0
290
     0
 90
        6
 40
0.0
 40
1.570796326794896
 40
0.2617993877991494
 40
1.308996938995747
 40
-0.2617993877991494
 40
1.832595714594046
  0
TABLESTYLE
  5
DB59
102
{ACAD_XDICTIONARY
360
DB91
102
}
102
{ACAD_REACTORS
330
DB58
102
}
330
DB58
100
AcDbTableStyle
  3
Standard
 70
     0
 71
     0
 40
0.06
 41
0.06
280
     0
281
     0
  7
STANDARD
140
0.18
170
     2
 62
     0
 63
     7
283
     0
274
    -2
284
     1
 64
     0
275
    -2
285
     1
 65
     0
276
    -2
286
     1
 66
     0
277
    -2
287
     1
 67
     0
278
    -2
288
     1
 68
     0
279
    -2
289
     1
 69
     0
  7
STANDARD
140
0.25
170
     5
 62
     0
 63
     7
283
     0
274
    -2
284
     1
 64
     0
275
    -2
285
     1
 65
     0
276
    -2
286
     1
 66
     0
277
    -2
287
     1
 67
     0
278
    -2
288
     1
 68
     0
279
    -2
289
     1
 69
     0
  7
STANDARD
140
0.18
170
     5
 62
     0
 63
     7
283
     0
274
    -2
284
     1
 64
     0
275
    -2
285
     1
 65
     0
276
    -2
286
     1
 66
     0
277
    -2
287
     1
 67
     0
278
    -2
288
     1
 68
     0
279
    -2
289
     1
 69
     0
  0
VISUALSTYLE
  5
DB44
102
{ACAD_XDICTIONARY
360
DBA2
102
}
102
{ACAD_REACTORS
330
DB3E
102
}
330
DB3E
100
AcDbVisualStyle
  2
2dWireframe
 70
     4
 71
     0
 72
     2
 73
     0
 90
        0
 40
-0.6
 41
-30.0
 62
     5
 63
     7
 74
     1
 91
        4
 64
     7
 65
   257
 75
     1
175
     1
 42
1.0
 92
        0
 66
   257
 43
1.0
 76
     1
 77
     6
 78
     2
 67
     7
 79
     5
170
     0
171
     0
290
     0
174
     0
 93
        1
 44
0.0
173
     0
291
     0
 45
0.0
1001
ACAD
1000
AcDbSavedByObjectVersion
1070
     0
  0
VISUALSTYLE
  5
DB43
102
{ACAD_XDICTIONARY
360
DBA0
102
}
102
{ACAD_REACTORS
330
DB3E
102
}
330
DB3E
100
AcDbVisualStyle
  2
Basic
 70
     7
 71
     1
 72
     0
 73
     1
 90
        0
 40
-0.6
 41
-30.0
 62
     5
 63
     7
 74
     0
 91
        4
 64
     7
 65
   257
 75
     1
175
     1
 42
1.0
 92
        8
 66
     7
 43
1.0
 76
     1
 77
     6
 78
     2
 67
     7
 79
     5
170
     0
171
     0
290
     0
174
     0
 93
        1
 44
0.0
173
     0
291
     1
 45
0.0
1001
ACAD
1000
AcDbSavedByObjectVersion
1070
     0
  0
VISUALSTYLE
  5
DB4A
102
{ACAD_XDICTIONARY
360
DBAE
102
}
102
{ACAD_REACTORS
330
DB3E
102
}
330
DB3E
100
AcDbVisualStyle
  2
Brighten
 70
    12
 71
     2
 72
     2
 73
     0
 90
        0
 40
-0.6
 41
-30.0
 62
     5
 63
     7
 74
     1
 91
        4
 64
     7
 65
   257
 75
     1
175
     1
 42
1.0
 92
        8
 66
     7
 43
1.0
 76
     1
 77
     6
 78
     2
 67
     7
 79
     5
170
     0
171
     0
290
     0
174
     0
 93
        1
 44
50.0
173
     0
291
     1
 45
0.0
1001
ACAD
1000
AcDbSavedByObjectVersion
1070
     0
  0
VISUALSTYLE
  5
DB4E
102
{ACAD_XDICTIONARY
360
DBB6
102
}
102
{ACAD_REACTORS
330
DB3E
102
}
330
DB3E
100
AcDbVisualStyle
  2
ColorChange
 70
    16
 71
     2
 72
     2
 73
     3
 90
        0
 40
-0.6
 41
-30.0
 62
     5
 63
     8
 74
     1
 91
        4
 64
     7
 65
   257
 75
     1
175
     1
 42
1.0
 92
        8
 66
     8
 43
1.0
 76
     1
 77
     6
 78
     2
 67
     7
 79
     5
170
     0
171
     0
290
     0
174
     0
 93
        1
 44
0.0
173
     0
291
     1
 45
0.0
1001
ACAD
1000
AcDbSavedByObjectVersion
1070
     0
  0
VISUALSTYLE
  5
DB47
102
{ACAD_XDICTIONARY
360
DBA8
102
}
102
{ACAD_REACTORS
330
DB3E
102
}
330
DB3E
100
AcDbVisualStyle
  2
Conceptual
 70
     9
 71
     3
 72
     2
 73
     0
 90
        0
 40
-0.6
 41
-30.0
 62
     5
 63
     7
 74
     2
 91
        2
 64
     7
 65
   257
 75
     1
175
     1
 42
179.0
 92
        8
 66
     7
 43
1.0
 76
     1
 77
     6
 78
     2
 67
     7
 79
     3
170
     0
171
     0
290
     0
174
     0
 93
        1
 44
0.0
173
     0
291
     0
 45
0.0
1001
ACAD
1000
AcDbSavedByObjectVersion
1070
     0
  0
VISUALSTYLE
  5
DB49
102
{ACAD_XDICTIONARY
360
DBAC
102
}
102
{ACAD_REACTORS
330
DB3E
102
}
330
DB3E
100
AcDbVisualStyle
  2
Dim
 70
    11
 71
     2
 72
     2
 73
     0
 90
        0
 40
-0.6
 41
-30.0
 62
     5
 63
     7
 74
     1
 91
        4
 64
     7
 65
   257
 75
     1
175
     1
 42
1.0
 92
        8
 66
     7
 43
1.0
 76
     1
 77
     6
 78
     2
 67
     7
 79
     5
170
     0
171
     0
290
     0
174
     0
 93
        1
 44
-50.0
173
     0
291
     1
 45
0.0
1001
ACAD
1000
AcDbSavedByObjectVersion
1070
     0
  0
VISUALSTYLE
  5
DB56
102
{ACAD_XDICTIONARY
360
DBC6
102
}
102
{ACAD_REACTORS
330
DB3E
102
}
330
DB3E
100
AcDbVisualStyle
  2
EdgeColorOff
 70
    22
 71
     2
 72
     2
 73
     0
 90
        0
 40
-0.6
 41
-30.0
 62
     5
 63
     7
 74
     1
 91
        4
 64
     7
 65
   257
 75
     1
175
     1
 42
1.0
 92
        8
 66
     7
 43
1.0
 76
     1
 77
     6
 78
     2
 67
     7
 79
     5
170
     0
171
     0
290
     0
174
     0
 93
        1
 44
0.0
173
     0
291
     1
 45
0.0
1001
ACAD
1000
AcDbSavedByObjectVersion
1070
     0
  0
VISUALSTYLE
  5
DB4D
102
{ACAD_XDICTIONARY
360
DBB4
102
}
102
{ACAD_REACTORS
330
DB3E
102
}
330
DB3E
100
AcDbVisualStyle
  2
Facepattern
 70
    15
 71
     2
 72
     2
 73
     0
 90
        0
 40
-0.6
 41
-30.0
 62
     5
 63
     7
 74
     1
 91
        4
 64
     7
 65
   257
 75
     1
175
     1
 42
1.0
 92
        8
 66
     7
 43
1.0
 76
     1
 77
     6
 78
     2
 67
     7
 79
     5
170
     0
171
     0
290
     0
174
     0
 93
        1
 44
0.0
173
     0
291
     1
 45
0.0
1001
ACAD
1000
AcDbSavedByObjectVersion
1070
     0
  0
VISUALSTYLE
  5
DB3F
102
{ACAD_XDICTIONARY
360
DB98
102
}
102
{ACAD_REACTORS
330
DB3E
102
}
330
DB3E
100
AcDbVisualStyle
  2
Flat
 70
     0
 71
     2
 72
     1
 73
     1
 90
        2
 40
-0.6
 41
30.0
 62
     5
 63
     7
 74
     0
 91
        0
 64
     7
 65
   257
 75
     1
175
     1
 42
1.0
 92
        8
 66
     7
 43
1.0
 76
     1
 77
     6
 78
     2
 67
     7
 79
     5
170
     0
171
     0
290
     0
174
     0
 93
       13
 44
0.0
173
     0
291
     1
 45
0.0
1001
ACAD
1000
AcDbSavedByObjectVersion
1070
     0
  0
VISUALSTYLE
  5
DB40
102
{ACAD_XDICTIONARY
360
DB9A
102
}
102
{ACAD_REACTORS
330
DB3E
102
}
330
DB3E
100
AcDbVisualStyle
  2
FlatWithEdges
 70
     1
 71
     2
 72
     1
 73
     1
 90
        2
 40
-0.6
 41
30.0
 62
     5
 63
     7
 74
     1
 91
        0
 64
     7
 65
   257
 75
     1
175
     1
 42
1.0
 92
        0
 66
   257
 43
1.0
 76
     1
 77
     6
 78
     2
 67
     7
 79
     5
170
     0
171
     0
290
     0
174
     0
 93
       13
 44
0.0
173
     0
291
     1
 45
0.0
1001
ACAD
1000
AcDbSavedByObjectVersion
1070
     0
  0
VISUALSTYLE
  5
DB41
102
{ACAD_XDICTIONARY
360
DB9C
102
}
102
{ACAD_REACTORS
330
DB3E
102
}
330
DB3E
100
AcDbVisualStyle
  2
Gouraud
 70
     2
 71
     2
 72
     2
 73
     1
 90
        2
 40
-0.6
 41
30.0
 62
     5
 63
     7
 74
     0
 91
        0
 64
     7
 65
   257
 75
     1
175
     1
 42
1.0
 92
        0
 66
     7
 43
1.0
 76
     1
 77
     6
 78
     2
 67
     7
 79
     5
170
     0
171
     0
290
     0
174
     0
 93
       13
 44
0.0
173
     0
291
     1
 45
0.0
1001
ACAD
1000
AcDbSavedByObjectVersion
1070
     0
  0
VISUALSTYLE
  5
DB42
102
{ACAD_XDICTIONARY
360
DB9E
102
}
102
{ACAD_REACTORS
330
DB3E
102
}
330
DB3E
100
AcDbVisualStyle
  2
GouraudWithEdges
 70
     3
 71
     2
 72
     2
 73
     1
 90
        2
 40
-0.6
 41
30.0
 62
     5
 63
     7
 74
     1
 91
        0
 64
     7
 65
   257
 75
     1
175
     1
 42
1.0
 92
        0
 66
   257
 43
1.0
 76
     1
 77
     6
 78
     2
 67
     7
 79
     5
170
     0
171
     0
290
     0
174
     0
 93
       13
 44
0.0
173
     0
291
     1
 45
0.0
1001
ACAD
1000
AcDbSavedByObjectVersion
1070
     0
  0
VISUALSTYLE
  5
DB46
102
{ACAD_XDICTIONARY
360
DBA6
102
}
102
{ACAD_REACTORS
330
DB3E
102
}
330
DB3E
100
AcDbVisualStyle
  2
Hidden
 70
     6
 71
     1
 72
     2
 73
     2
 90
        0
 40
-0.6
 41
-30.0
 62
     5
 63
     7
 74
     2
 91
        2
 64
     7
 65
   257
 75
     2
175
     1
 42
40.0
 92
        0
 66
   257
 43
1.0
 76
     1
 77
     6
 78
     2
 67
     7
 79
     3
170
     0
171
     0
290
     0
174
     0
 93
        1
 44
0.0
173
     0
291
     0
 45
0.0
1001
ACAD
1000
AcDbSavedByObjectVersion
1070
     0
  0
VISUALSTYLE
  5
DB54
102
{ACAD_XDICTIONARY
360
DBC2
102
}
102
{ACAD_REACTORS
330
DB3E
102
}
330
DB3E
100
AcDbVisualStyle
  2
JitterOff
 70
    20
 71
     2
 72
     2
 73
     0
 90
        0
 40
-0.6
 41
-30.0
 62
     5
 63
     7
 74
     1
 91
        4
 64
     7
 65
   257
 75
     1
175
     1
 42
1.0
 92
       10
 66
     7
 43
1.0
 76
     1
 77
     6
 78
     2
 67
     7
 79
     5
170
     0
171
     0
290
     0
174
     0
 93
        1
 44
0.0
173
     0
291
     1
 45
0.0
1001
ACAD
1000
AcDbSavedByObjectVersion
1070
     0
  0
VISUALSTYLE
  5
DB4C
102
{ACAD_XDICTIONARY
360
DBB2
102
}
102
{ACAD_REACTORS
330
DB3E
102
}
330
DB3E
100
AcDbVisualStyle
  2
Linepattern
 70
    14
 71
     2
 72
     2
 73
     0
 90
        0
 40
-0.6
 41
-30.0
 62
     5
 63
     7
 74
     1
 91
        4
 64
     7
 65
   257
 75
     7
175
     7
 42
1.0
 92
        8
 66
     7
 43
1.0
 76
     1
 77
     6
 78
     2
 67
     7
 79
     5
170
     0
171
     0
290
     0
174
     0
 93
        1
 44
0.0
173
     0
291
     1
 45
0.0
1001
ACAD
1000
AcDbSavedByObjectVersion
1070
     0
  0
VISUALSTYLE
  5
DB55
102
{ACAD_XDICTIONARY
360
DBC4
102
}
102
{ACAD_REACTORS
330
DB3E
102
}
330
DB3E
100
AcDbVisualStyle
  2
OverhangOff
 70
    21
 71
     2
 72
     2
 73
     0
 90
        0
 40
-0.6
 41
-30.0
 62
     5
 63
     7
 74
     1
 91
        4
 64
     7
 65
   257
 75
     1
175
     1
 42
1.0
 92
        9
 66
     7
 43
1.0
 76
     1
 77
     6
 78
     2
 67
     7
 79
     5
170
     0
171
     0
290
     0
174
     0
 93
        1
 44
0.0
173
     0
291
     1
 45
0.0
1001
ACAD
1000
AcDbSavedByObjectVersion
1070
     0
  0
VISUALSTYLE
  5
DB48
102
{ACAD_XDICTIONARY
360
DBAA
102
}
102
{ACAD_REACTORS
330
DB3E
102
}
330
DB3E
100
AcDbVisualStyle
  2
Realistic
 70
     8
 71
     2
 72
     3
 73
     0
 90
        2
 40
-0.6
 41
30.0
 62
     5
 63
     7
 74
     0
 91
        0
 64
     7
 65
   257
 75
     1
175
     1
 42
1.0
 92
        8
 66
   257
 43
1.0
 76
     1
 77
     6
 78
     2
 67
     7
 79
     3
170
     0
171
     0
290
     0
174
     0
 93
       13
 44
0.0
173
     0
291
     0
 45
0.0
1001
ACAD
1000
AcDbSavedByObjectVersion
1070
     0
  0
VISUALSTYLE
  5
DB53
102
{ACAD_XDICTIONARY
360
DBC0
102
}
102
{ACAD_REACTORS
330
DB3E
102
}
330
DB3E
100
AcDbVisualStyle
  2
Shaded
 70
    27
 71
     2
 72
     2
 73
     1
 90
        2
 40
-0.6
 41
30.0
 62
     5
 63
     7
 74
     0
 91
        4
 64
     7
 65
   257
 75
     1
175
     1
 42
1.0
 92
        8
 66
   257
 43
1.0
 76
     1
 77
     6
 78
     2
 67
     8
 79
     3
170
     0
171
     0
290
     0
174
     0
 93
        5
 44
0.0
173
     0
291
     0
 45
0.0
1001
ACAD
1000
AcDbSavedByObjectVersion
1070
     0
  0
VISUALSTYLE
  5
DB52
102
{ACAD_XDICTIONARY
360
DBBE
102
}
102
{ACAD_REACTORS
330
DB3E
102
}
330
DB3E
100
AcDbVisualStyle
  2
Shaded with edges
 70
    26
 71
     2
 72
     2
 73
     1
 90
        2
 40
-0.6
 41
30.0
 62
     5
 63
     7
 74
     1
 91
       10
 64
     7
 65
   257
 75
     2
175
     1
 42
1.0
 92
        8
 66
   257
 43
1.0
 76
     1
 77
     6
 78
     2
 67
     7
 79
     3
170
     0
171
     0
290
     0
174
     0
 93
        5
 44
0.0
173
     0
291
     0
 45
0.0
1001
ACAD
1000
AcDbSavedByObjectVersion
1070
     0
  0
VISUALSTYLE
  5
DB4F
102
{ACAD_XDICTIONARY
360
DBB8
102
}
102
{ACAD_REACTORS
330
DB3E
102
}
330
DB3E
100
AcDbVisualStyle
  2
Shades of Gray
 70
    23
 71
     2
 72
     2
 73
     3
 90
        0
 40
-0.6
 41
-30.0
 62
     5
 63
     7
 74
     2
 91
        2
 64
     7
 65
     7
 75
     1
175
     1
 42
40.0
 92
        8
 66
     7
 43
1.0
 76
     1
 77
     6
 78
     2
 67
     7
 79
     3
170
     0
171
     0
290
     0
174
     0
 93
        1
 44
0.0
173
     0
291
     0
 45
0.0
1001
ACAD
1000
AcDbSavedByObjectVersion
1070
     0
  0
VISUALSTYLE
  5
DB50
102
{ACAD_XDICTIONARY
360
DBBA
102
}
102
{ACAD_REACTORS
330
DB3E
102
}
330
DB3E
100
AcDbVisualStyle
  2
Sketchy
 70
    24
 71
     1
 72
     2
 73
     2
 90
        0
 40
-0.6
 41
-30.0
 62
     5
 63
     7
 74
     2
 91
        2
 64
     7
 65
     7
 75
     1
175
     1
 42
40.0
 92
       11
 66
     7
 43
1.0
 76
     1
 77
     6
 78
     2
 67
     7
 79
     6
170
     0
171
     0
290
     0
174
     0
 93
        1
 44
0.0
173
     0
291
     0
 45
0.0
1001
ACAD
1000
AcDbSavedByObjectVersion
1070
     0
  0
VISUALSTYLE
  5
DB4B
102
{ACAD_XDICTIONARY
360
DBB0
102
}
102
{ACAD_REACTORS
330
DB3E
102
}
330
DB3E
100
AcDbVisualStyle
  2
Thicken
 70
    13
 71
     2
 72
     2
 73
     0
 90
        0
 40
-0.6
 41
-30.0
 62
     5
 63
     7
 74
     1
 91
        4
 64
     7
 65
   257
 75
     1
175
     1
 42
1.0
 92
       12
 66
     7
 43
1.0
 76
     1
 77
     6
 78
     2
 67
     7
 79
     5
170
     0
171
     0
290
     0
174
     0
 93
        1
 44
0.0
173
     0
291
     1
 45
0.0
1001
ACAD
1000
AcDbSavedByObjectVersion
1070
     0
  0
VISUALSTYLE
  5
DB45
102
{ACAD_XDICTIONARY
360
DBA4
102
}
102
{ACAD_REACTORS
330
DB3E
102
}
330
DB3E
100
AcDbVisualStyle
  2
Wireframe
 70
     5
 71
     0
 72
     2
 73
     0
 90
        0
 40
-0.6
 41
-30.0
 62
     5
 63
     7
 74
     1
 91
        4
 64
     7
 65
   257
 75
     1
175
     1
 42
1.0
 92
        0
 66
   257
 43
1.0
 76
     1
 77
     6
 78
     2
 67
     7
 79
     3
170
     0
171
     0
290
     0
174
     0
 93
        1
 44
0.0
173
     0
291
     0
 45
0.0
1001
ACAD
1000
AcDbSavedByObjectVersion
1070
     0
  0
VISUALSTYLE
  5
DB51
102
{ACAD_XDICTIONARY
360
DBBC
102
}
102
{ACAD_REACTORS
330
DB3E
102
}
330
DB3E
100
AcDbVisualStyle
  2
X-Ray
 70
    25
 71
     2
 72
     2
 73
     1
 90
        1
 40
0.5
 41
-30.0
 62
     5
 63
     7
 74
     1
 91
        0
 64
     7
 65
   257
 75
     1
175
     1
 42
1.0
 92
        8
 66
     7
 43
1.0
 76
     1
 77
     6
 78
     2
 67
     7
 79
     3
170
     0
171
     0
290
     0
174
     0
 93
       13
 44
0.0
173
     0
291
     0
 45
0.0
1001
ACAD
1000
AcDbSavedByObjectVersion
1070
     0
  0
DICTIONARYVAR
  5
DB8B
102
{ACAD_REACTORS
330
DB86
102
}
330
DB86
100
DictionaryVariables
280
     0
  1
1:1
  0
DICTIONARYVAR
  5
DB88
102
{ACAD_REACTORS
330
DB86
102
}
330
DB86
100
DictionaryVariables
280
     0
  1
STANDARD
  0
DICTIONARYVAR
  5
DB87
102
{ACAD_REACTORS
330
DB86
102
}
330
DB86
100
DictionaryVariables
280
     0
  1
STANDARD
  0
DICTIONARYVAR
  5
DB89
102
{ACAD_REACTORS
330
DB86
102
}
330
DB86
100
DictionaryVariables
280
     0
  1
Imperial24
  0
DICTIONARYVAR
  5
DB8A
102
{ACAD_REACTORS
330
DB86
102
}
330
DB86
100
DictionaryVariables
280
     0
  1
Imperial24
  0
DICTIONARYVAR
  5
DB8E
102
{ACAD_REACTORS
330
DB86
102
}
330
DB86
100
DictionaryVariables
280
     0
  1
1
  0
DICTIONARYVAR
  5
DB8D
102
{ACAD_REACTORS
330
DB86
102
}
330
DB86
100
DictionaryVariables
280
     0
  1
0
  0
DICTIONARYVAR
  5
DB8C
102
{ACAD_REACTORS
330
DB86
102
}
330
DB86
100
DictionaryVariables
280
     0
  1
127
  0
DICTIONARYVAR
  5
DB8F
102
{ACAD_REACTORS
330
DB86
102
}
330
DB86
100
DictionaryVariables
280
     0
  1
2
  0
DICTIONARY
  5
DBCC
330
DB71
100
AcDbDictionary
280
     1
281
     1
  3
ACAD_XREC_ROUNDTRIP
360
DBCD
  0
DICTIONARY
  5
DBCE
330
DB72
100
AcDbDictionary
280
     1
281
     1
  3
ACAD_XREC_ROUNDTRIP
360
DBCF
  0
DICTIONARY
  5
DBD0
330
DB73
100
AcDbDictionary
280
     1
281
     1
  3
ACAD_XREC_ROUNDTRIP
360
DBD1
  0
DICTIONARY
  5
DB2F
330
DB2E
100
AcDbDictionary
280
     1
281
     1
  3
ACAD_XREC_ROUNDTRIP
360
DB96
  3
BUMPTILE
360
DB31
  3
DIFFUSETILE
360
DB30
  3
OPACITYTILE
360
DB34
  3
REFLECTIONTILE
360
DB33
  3
REFRACTIONTILE
360
DB35
  3
SPECULARTILE
360
DB32
  0
DICTIONARY
  5
DB27
330
DB26
100
AcDbDictionary
280
     1
281
     1
  3
ACAD_XREC_ROUNDTRIP
360
DB95
  3
BUMPTILE
360
DB29
  3
DIFFUSETILE
360
DB28
  3
OPACITYTILE
360
DB2C
  3
REFLECTIONTILE
360
DB2B
  3
REFRACTIONTILE
360
DB2D
  3
SPECULARTILE
360
DB2A
  0
DICTIONARY
  5
DB37
330
DB36
100
AcDbDictionary
280
     1
281
     1
  3
ACAD_XREC_ROUNDTRIP
360
DB97
  3
BUMPTILE
360
DB39
  3
DIFFUSETILE
360
DB38
  3
OPACITYTILE
360
DB3C
  3
REFLECTIONTILE
360
DB3B
  3
REFRACTIONTILE
360
DB3D
  3
SPECULARTILE
360
DB3A
  0
DICTIONARY
  5
DBCA
330
DB6F
100
AcDbDictionary
280
     1
281
     1
  3
ACAD_XREC_ROUNDTRIP
360
DBCB
  0
DICTIONARY
  5
DB91
330
DB59
100
AcDbDictionary
280
     1
281
     1
  3
ACAD_ROUNDTRIP_2008_TABLESTYLE_CELLSTYLEMAP
360
DB92
  3
ACAD_XREC_ROUNDTRIP
360
DBC8
  0
DICTIONARY
  5
DBA2
330
DB44
100
AcDbDictionary
280
     1
281
     1
  3
ACAD_XREC_ROUNDTRIP
360
DBA3
  0
DICTIONARY
  5
DBA0
330
DB43
100
AcDbDictionary
280
     1
281
     1
  3
ACAD_XREC_ROUNDTRIP
360
DBA1
  0
DICTIONARY
  5
DBAE
330
DB4A
100
AcDbDictionary
280
     1
281
     1
  3
ACAD_XREC_ROUNDTRIP
360
DBAF
  0
DICTIONARY
  5
DBB6
330
DB4E
100
AcDbDictionary
280
     1
281
     1
  3
ACAD_XREC_ROUNDTRIP
360
DBB7
  0
DICTIONARY
  5
DBA8
330
DB47
100
AcDbDictionary
280
     1
281
     1
  3
ACAD_XREC_ROUNDTRIP
360
DBA9
  0
DICTIONARY
  5
DBAC
330
DB49
100
AcDbDictionary
280
     1
281
     1
  3
ACAD_XREC_ROUNDTRIP
360
DBAD
  0
DICTIONARY
  5
DBC6
330
DB56
100
AcDbDictionary
280
     1
281
     1
  3
ACAD_XREC_ROUNDTRIP
360
DBC7
  0
DICTIONARY
  5
DBB4
330
DB4D
100
AcDbDictionary
280
     1
281
     1
  3
ACAD_XREC_ROUNDTRIP
360
DBB5
  0
DICTIONARY
  5
DB98
330
DB3F
100
AcDbDictionary
280
     1
281
     1
  3
ACAD_XREC_ROUNDTRIP
360
DB99
  0
DICTIONARY
  5
DB9A
330
DB40
100
AcDbDictionary
280
     1
281
     1
  3
ACAD_XREC_ROUNDTRIP
360
DB9B
  0
DICTIONARY
  5
DB9C
330
DB41
100
AcDbDictionary
280
     1
281
     1
  3
ACAD_XREC_ROUNDTRIP
360
DB9D
  0
DICTIONARY
  5
DB9E
330
DB42
100
AcDbDictionary
280
     1
281
     1
  3
ACAD_XREC_ROUNDTRIP
360
DB9F
  0
DICTIONARY
  5
DBA6
330
DB46
100
AcDbDictionary
280
     1
281
     1
  3
ACAD_XREC_ROUNDTRIP
360
DBA7
  0
DICTIONARY
  5
DBC2
330
DB54
100
AcDbDictionary
280
     1
281
     1
  3
ACAD_XREC_ROUNDTRIP
360
DBC3
  0
DICTIONARY
  5
DBB2
330
DB4C
100
AcDbDictionary
280
     1
281
     1
  3
ACAD_XREC_ROUNDTRIP
360
DBB3
  0
DICTIONARY
  5
DBC4
330
DB55
100
AcDbDictionary
280
     1
281
     1
  3
ACAD_XREC_ROUNDTRIP
360
DBC5
  0
DICTIONARY
  5
DBAA
330
DB48
100
AcDbDictionary
280
     1
281
     1
  3
ACAD_XREC_ROUNDTRIP
360
DBAB
  0
DICTIONARY
  5
DBC0
330
DB53
100
AcDbDictionary
280
     1
281
     1
  3
ACAD_XREC_ROUNDTRIP
360
DBC1
  0
DICTIONARY
  5
DBBE
330
DB52
100
AcDbDictionary
280
     1
281
     1
  3
ACAD_XREC_ROUNDTRIP
360
DBBF
  0
DICTIONARY
  5
DBB8
330
DB4F
100
AcDbDictionary
280
     1
281
     1
  3
ACAD_XREC_ROUNDTRIP
360
DBB9
  0
DICTIONARY
  5
DBBA
330
DB50
100
AcDbDictionary
280
     1
281
     1
  3
ACAD_XREC_ROUNDTRIP
360
DBBB
  0
DICTIONARY
  5
DBB0
330
DB4B
100
AcDbDictionary
280
     1
281
     1
  3
ACAD_XREC_ROUNDTRIP
360
DBB1
  0
DICTIONARY
  5
DBA4
330
DB45
100
AcDbDictionary
280
     1
281
     1
  3
ACAD_XREC_ROUNDTRIP
360
DBA5
  0
DICTIONARY
  5
DBBC
330
DB51
100
AcDbDictionary
280
     1
281
     1
  3
ACAD_XREC_ROUNDTRIP
360
DBBD
  0
XRECORD
  5
DBCD
102
{ACAD_REACTORS
330
DBCC
102
}
330
DBCC
100
AcDbXrecord
280
     1
102
DISPLAYNAME
  1
Imperial24
102
FLAGS
 90
        0
  0
XRECORD
  5
DBCF
102
{ACAD_REACTORS
330
DBCE
102
}
330
DBCE
100
AcDbXrecord
280
     1
102
SHADEPLOT
 70
     0
102
SHADEPLOTRESLEVEL
 70
     2
102
SHADEPLOTCUSTOMDPI
 70
   300
  0
XRECORD
  5
DBD1
102
{ACAD_REACTORS
330
DBD0
102
}
330
DBD0
100
AcDbXrecord
280
     1
102
SHADEPLOT
 70
     0
102
SHADEPLOTRESLEVEL
 70
     2
102
SHADEPLOTCUSTOMDPI
 70
   300
  0
XRECORD
  5
DB96
102
{ACAD_REACTORS
330
DB2F
102
}
330
DB2F
100
AcDbXrecord
280
     1
102
MATERIAL
148
0.0
149
0.0
149
0.0
 93
        0
 94
      127
282
     0
 72
     0
 77
     0
171
     0
175
     0
179
     0
273
     0
  0
XRECORD
  5
DB31
102
{ACAD_REACTORS
330
DB2F
102
}
330
DB2F
100
AcDbXrecord
280
     1
270
     1
271
     1
  0
XRECORD
  5
DB30
102
{ACAD_REACTORS
330
DB2F
102
}
330
DB2F
100
AcDbXrecord
280
     1
270
     1
271
     1
  0
XRECORD
  5
DB34
102
{ACAD_REACTORS
330
DB2F
102
}
330
DB2F
100
AcDbXrecord
280
     1
270
     1
271
     1
  0
XRECORD
  5
DB33
102
{ACAD_REACTORS
330
DB2F
102
}
330
DB2F
100
AcDbXrecord
280
     1
270
     1
271
     1
  0
XRECORD
  5
DB35
102
{ACAD_REACTORS
330
DB2F
102
}
330
DB2F
100
AcDbXrecord
280
     1
270
     1
271
     1
  0
XRECORD
  5
DB32
102
{ACAD_REACTORS
330
DB2F
102
}
330
DB2F
100
AcDbXrecord
280
     1
270
     1
271
     1
  0
XRECORD
  5
DB95
102
{ACAD_REACTORS
330
DB27
102
}
330
DB27
100
AcDbXrecord
280
     1
102
MATERIAL
148
0.0
149
0.0
149
0.0
 93
        0
 94
      127
282
     0
 72
     0
 77
     0
171
     0
175
     0
179
     0
273
     0
  0
XRECORD
  5
DB29
102
{ACAD_REACTORS
330
DB27
102
}
330
DB27
100
AcDbXrecord
280
     1
270
     1
271
     1
  0
XRECORD
  5
DB28
102
{ACAD_REACTORS
330
DB27
102
}
330
DB27
100
AcDbXrecord
280
     1
270
     1
271
     1
  0
XRECORD
  5
DB2C
102
{ACAD_REACTORS
330
DB27
102
}
330
DB27
100
AcDbXrecord
280
     1
270
     1
271
     1
  0
XRECORD
  5
DB2B
102
{ACAD_REACTORS
330
DB27
102
}
330
DB27
100
AcDbXrecord
280
     1
270
     1
271
     1
  0
XRECORD
  5
DB2D
102
{ACAD_REACTORS
330
DB27
102
}
330
DB27
100
AcDbXrecord
280
     1
270
     1
271
     1
  0
XRECORD
  5
DB2A
102
{ACAD_REACTORS
330
DB27
102
}
330
DB27
100
AcDbXrecord
280
     1
270
     1
271
     1
  0
XRECORD
  5
DB97
102
{ACAD_REACTORS
330
DB37
102
}
330
DB37
100
AcDbXrecord
280
     1
102
MATERIAL
148
0.0
149
0.0
149
0.0
 93
        0
 94
      127
282
     0
 72
     0
 77
     0
171
     0
175
     0
179
     0
273
     0
  0
XRECORD
  5
DB39
102
{ACAD_REACTORS
330
DB37
102
}
330
DB37
100
AcDbXrecord
280
     1
270
     1
271
     1
  0
XRECORD
  5
DB38
102
{ACAD_REACTORS
330
DB37
102
}
330
DB37
100
AcDbXrecord
280
     1
270
     1
271
     1
  0
XRECORD
  5
DB3C
102
{ACAD_REACTORS
330
DB37
102
}
330
DB37
100
AcDbXrecord
280
     1
270
     1
271
     1
  0
XRECORD
  5
DB3B
102
{ACAD_REACTORS
330
DB37
102
}
330
DB37
100
AcDbXrecord
280
     1
270
     1
271
     1
  0
XRECORD
  5
DB3D
102
{ACAD_REACTORS
330
DB37
102
}
330
DB37
100
AcDbXrecord
280
     1
270
     1
271
     1
  0
XRECORD
  5
DB3A
102
{ACAD_REACTORS
330
DB37
102
}
330
DB37
100
AcDbXrecord
280
     1
270
     1
271
     1
  0
XRECORD
  5
DBCB
102
{ACAD_REACTORS
330
DBCA
102
}
330
DBCA
100
AcDbXrecord
280
     1
102
DISPLAYNAME
  1
Imperial24
102
FLAGS
 90
        0
  0
CELLSTYLEMAP
  5
DB92
102
{ACAD_REACTORS
330
DB91
102
}
330
DB91
100
AcDbCellStyleMap
 90
        3
300
CELLSTYLE
  1
TABLEFORMAT_BEGIN
 90
        5
170
     1
 91
        0
 92
    32768
 62
   257
 93
        1
300
CONTENTFORMAT
  1
CONTENTFORMAT_BEGIN
 90
        0
 91
        0
 92
      512
 93
        0
300

 40
0.0
140
1.0
 94
        5
 62
     0
340
D755
144
0.25
309
CONTENTFORMAT_END
171
     0
 94
        0
309
TABLEFORMAT_END
  1
CELLSTYLE_BEGIN
 90
        1
 91
        1
300
_TITLE
309
CELLSTYLE_END
300
CELLSTYLE
  1
TABLEFORMAT_BEGIN
 90
        5
170
     1
 91
        0
 92
        0
 62
   257
 93
        1
300
CONTENTFORMAT
  1
CONTENTFORMAT_BEGIN
 90
        0
 91
        0
 92
      512
 93
        0
300

 40
0.0
140
1.0
 94
        5
 62
     0
340
D755
144
0.18
309
CONTENTFORMAT_END
171
     0
 94
        0
309
TABLEFORMAT_END
  1
CELLSTYLE_BEGIN
 90
        2
 91
        1
300
_HEADER
309
CELLSTYLE_END
300
CELLSTYLE
  1
TABLEFORMAT_BEGIN
 90
        5
170
     1
 91
        0
 92
        0
 62
   257
 93
        1
300
CONTENTFORMAT
  1
CONTENTFORMAT_BEGIN
 90
        0
 91
        0
 92
      512
 93
        0
300

 40
0.0
140
1.0
 94
        2
 62
     0
340
D755
144
0.18
309
CONTENTFORMAT_END
171
     0
 94
        0
309
TABLEFORMAT_END
  1
CELLSTYLE_BEGIN
 90
        3
 91
        2
300
_DATA
309
CELLSTYLE_END
  0
XRECORD
  5
DBC8
102
{ACAD_REACTORS
330
DB91
102
}
330
DB91
100
AcDbXrecord
280
     1
102
ACAD_ROUNDTRIP_PRE2007_TABLESTYLE
 90
      512
 91
        0
  1

 92
      512
 93
        0
  2

 94
      512
 95
        0
  3

  0
XRECORD
  5
DBA3
102
{ACAD_REACTORS
330
DBA2
102
}
330
DBA2
100
AcDbXrecord
280
     1
102
RTVSPost2010Prop28
280
     1
102
RTVSPost2010PropOp28
 70
     1
102
RTVSPost2010Prop29
280
     1
102
RTVSPost2010PropOp29
 70
     1
102
RTVSPost2010Prop30
280
     0
102
RTVSPost2010PropOp30
 70
     1
102
RTVSPost2010Prop31
280
     0
102
RTVSPost2010PropOp31
 70
     1
102
RTVSPost2010Prop32
280
     0
102
RTVSPost2010PropOp32
 70
     1
102
RTVSPost2010Prop33
280
     0
102
RTVSPost2010PropOp33
 70
     1
102
RTVSPost2010Prop34
280
     0
102
RTVSPost2010PropOp34
 70
     1
102
RTVSPost2010Prop35
280
     0
102
RTVSPost2010PropOp35
 70
     1
102
RTVSPost2010Prop36
280
     0
102
RTVSPost2010PropOp36
 70
     1
102
RTVSPost2010Prop37
 90
       50
102
RTVSPost2010PropOp37
 70
     1
102
RTVSPost2010Prop38
140
0.0
102
RTVSPost2010PropOp38
 70
     1
102
RTVSPost2010Prop39
140
1.0
102
RTVSPost2010PropOp39
 70
     1
102
RTVSPost2010Prop40
 90
        0
102
RTVSPost2010PropOp40
 70
     1
102
RTVSPost2010Prop41ColorIndex
 90
       18
102
RTVSPost2010Prop41ColorRGB
 90
        0
102
RTVSPost2010PropOp41
 70
     1
102
RTVSPost2010Prop42
 90
       50
102
RTVSPost2010PropOp42
 70
     1
102
RTVSPost2010Prop43
 90
        3
102
RTVSPost2010PropOp43
 70
     1
102
RTVSPost2010Prop44ColorIndex
 90
        5
102
RTVSPost2010Prop44ColorRGB
 90
      255
102
RTVSPost2010PropOp44
 70
     1
102
RTVSPost2010Prop45
280
     0
102
RTVSPost2010PropOp45
 70
     1
102
RTVSPost2010Prop46
 90
       50
102
RTVSPost2010PropOp46
 70
     1
102
RTVSPost2010Prop47
 90
       50
102
RTVSPost2010PropOp47
 70
     1
102
RTVSPost2010Prop48
 90
       50
102
RTVSPost2010PropOp48
 70
     1
102
RTVSPost2010Prop49
280
     0
102
RTVSPost2010PropOp49
 70
     1
102
RTVSPost2010Prop50
 90
       50
102
RTVSPost2010PropOp50
 70
     1
102
RTVSPost2010Prop51ColorIndex
 90
      256
102
RTVSPost2010Prop51ColorRGB
 90
-16777216
102
RTVSPost2010PropOp51
 70
     0
102
RTVSPost2010Prop52
140
1.0
102
RTVSPost2010PropOp52
 70
     0
102
RTVSPost2010Prop53
 90
        2
102
RTVSPost2010PropOp53
 70
     1
102
RTVSPost2010Prop54
  1
strokes_ogs.tif
102
RTVSPost2010PropOp54
 70
     1
102
RTVSPost2010Prop55
280
     0
102
RTVSPost2010PropOp55
 70
     1
102
RTVSPost2010Prop56
140
1.0
102
RTVSPost2010PropOp56
 70
     1
102
RTVSPost2010Prop57
140
1.0
102
RTVSPost2010PropOp57
 70
     1
102
RTVSPropertyOp0
 70
     1
102
RTVSPropertyOp1
 70
     1
102
RTVSPropertyOp2
 70
     1
102
RTVSPropertyOp3
 70
     1
102
RTVSPropertyOp4
 70
     1
102
RTVSPropertyOp5
 70
     1
102
RTVSPropertyOp6
 70
     1
102
RTVSPropertyOp7
 70
     1
102
RTVSPropertyOp8
 70
     1
102
RTVSPropertyOp9
 70
     1
102
RTVSPropertyOp10
 70
     1
102
RTVSPropertyOp11
 70
     1
102
RTVSPropertyOp12
 70
     1
102
RTVSPropertyOp13
 70
     1
102
RTVSPropertyOp14
 70
     1
102
RTVSPropertyOp15
 70
     1
102
RTVSPropertyOp16
 70
     1
102
RTVSPropertyOp17
 70
     1
102
RTVSPropertyOp18
 70
     1
102
RTVSPropertyOp19
 70
     1
102
RTVSPropertyOp20
 70
     1
102
RTVSPropertyOp21
 70
     1
102
RTVSPropertyOp22
 70
     1
102
RTVSPropertyOp23
 70
     1
102
RTVSPropertyOp24
 70
     1
102
RTVSPropertyOp25
 70
     1
102
RTVSPropertyOp26
 70
     1
102
RTVSPropertyOp27
 70
     1
102
RTVSPropertyOp28
 70
     1
102
RTVSPropertyOp29
 70
     1
102
RTVSPropertyOp30
 70
     1
102
RTVSPropertyOp31
 70
     1
102
RTVSPropertyOp32
 70
     1
102
RTVSPropertyOp33
 70
     1
102
RTVSPropertyOp34
 70
     1
102
RTVSPropertyOp35
 70
     1
102
RTVSPropertyOp36
 70
     1
102
RTVSPropertyOp37
 70
     1
102
RTVSPropertyOp38
 70
     1
102
RTVSPropertyOp39
 70
     1
102
RTVSPropertyOp40
 70
     1
102
RTVSPropertyOp41
 70
     1
102
RTVSPropertyOp42
 70
     1
102
RTVSPropertyOp43
 70
     1
102
RTVSPropertyOp44
 70
     1
102
RTVSPropertyOp45
 70
     1
102
RTVSPropertyOp46
 70
     1
102
RTVSPropertyOp47
 70
     1
102
RTVSPropertyOp48
 70
     1
102
RTVSPropertyOp49
 70
     1
102
RTVSPropertyOp50
 70
     1
102
RTVSPropertyOp51
 70
     0
102
RTVSPropertyOp52
 70
     0
102
RTVSPropertyOp53
 70
     1
102
RTVSPropertyOp54
 70
     1
102
RTVSPropertyOp55
 70
     1
102
RTVSPropertyOp56
 70
     1
102
RTVSPropertyOp57
 70
     1
102
RTVSPropertyOp58
 70
     1
102
RTVSPropertyOp59
 70
     1
102
RTVSPropertyOp60
 70
     1
102
RTVSPropertyOp61
 70
     1
102
RTVSPropertyOp62
 70
     1
  0
XRECORD
  5
DBA1
102
{ACAD_REACTORS
330
DBA0
102
}
330
DBA0
100
AcDbXrecord
280
     1
102
RTVSPost2010Prop28
280
     0
102
RTVSPost2010PropOp28
 70
     1
102
RTVSPost2010Prop29
280
     1
102
RTVSPost2010PropOp29
 70
     1
102
RTVSPost2010Prop30
280
     1
102
RTVSPost2010PropOp30
 70
     1
102
RTVSPost2010Prop31
280
     0
102
RTVSPost2010PropOp31
 70
     1
102
RTVSPost2010Prop32
280
     0
102
RTVSPost2010PropOp32
 70
     1
102
RTVSPost2010Prop33
280
     0
102
RTVSPost2010PropOp33
 70
     1
102
RTVSPost2010Prop34
280
     0
102
RTVSPost2010PropOp34
 70
     1
102
RTVSPost2010Prop35
280
     0
102
RTVSPost2010PropOp35
 70
     1
102
RTVSPost2010Prop36
280
     0
102
RTVSPost2010PropOp36
 70
     1
102
RTVSPost2010Prop37
 90
       50
102
RTVSPost2010PropOp37
 70
     1
102
RTVSPost2010Prop38
140
0.0
102
RTVSPost2010PropOp38
 70
     1
102
RTVSPost2010Prop39
140
1.0
102
RTVSPost2010PropOp39
 70
     1
102
RTVSPost2010Prop40
 90
        0
102
RTVSPost2010PropOp40
 70
     1
102
RTVSPost2010Prop41ColorIndex
 90
       18
102
RTVSPost2010Prop41ColorRGB
 90
        0
102
RTVSPost2010PropOp41
 70
     1
102
RTVSPost2010Prop42
 90
       50
102
RTVSPost2010PropOp42
 70
     1
102
RTVSPost2010Prop43
 90
        3
102
RTVSPost2010PropOp43
 70
     1
102
RTVSPost2010Prop44ColorIndex
 90
        5
102
RTVSPost2010Prop44ColorRGB
 90
      255
102
RTVSPost2010PropOp44
 70
     1
102
RTVSPost2010Prop45
280
     0
102
RTVSPost2010PropOp45
 70
     1
102
RTVSPost2010Prop46
 90
       50
102
RTVSPost2010PropOp46
 70
     1
102
RTVSPost2010Prop47
 90
       50
102
RTVSPost2010PropOp47
 70
     1
102
RTVSPost2010Prop48
 90
       50
102
RTVSPost2010PropOp48
 70
     1
102
RTVSPost2010Prop49
280
     0
102
RTVSPost2010PropOp49
 70
     1
102
RTVSPost2010Prop50
 90
       50
102
RTVSPost2010PropOp50
 70
     1
102
RTVSPost2010Prop51ColorIndex
 90
      256
102
RTVSPost2010Prop51ColorRGB
 90
-16777216
102
RTVSPost2010PropOp51
 70
     0
102
RTVSPost2010Prop52
140
1.0
102
RTVSPost2010PropOp52
 70
     0
102
RTVSPost2010Prop53
 90
        2
102
RTVSPost2010PropOp53
 70
     1
102
RTVSPost2010Prop54
  1
strokes_ogs.tif
102
RTVSPost2010PropOp54
 70
     1
102
RTVSPost2010Prop55
280
     0
102
RTVSPost2010PropOp55
 70
     1
102
RTVSPost2010Prop56
140
1.0
102
RTVSPost2010PropOp56
 70
     1
102
RTVSPost2010Prop57
140
1.0
102
RTVSPost2010PropOp57
 70
     1
102
RTVSPropertyOp0
 70
     1
102
RTVSPropertyOp1
 70
     1
102
RTVSPropertyOp2
 70
     1
102
RTVSPropertyOp3
 70
     1
102
RTVSPropertyOp4
 70
     1
102
RTVSPropertyOp5
 70
     1
102
RTVSPropertyOp6
 70
     1
102
RTVSPropertyOp7
 70
     1
102
RTVSPropertyOp8
 70
     1
102
RTVSPropertyOp9
 70
     1
102
RTVSPropertyOp10
 70
     1
102
RTVSPropertyOp11
 70
     1
102
RTVSPropertyOp12
 70
     1
102
RTVSPropertyOp13
 70
     1
102
RTVSPropertyOp14
 70
     1
102
RTVSPropertyOp15
 70
     1
102
RTVSPropertyOp16
 70
     1
102
RTVSPropertyOp17
 70
     1
102
RTVSPropertyOp18
 70
     1
102
RTVSPropertyOp19
 70
     1
102
RTVSPropertyOp20
 70
     1
102
RTVSPropertyOp21
 70
     1
102
RTVSPropertyOp22
 70
     1
102
RTVSPropertyOp23
 70
     1
102
RTVSPropertyOp24
 70
     1
102
RTVSPropertyOp25
 70
     1
102
RTVSPropertyOp26
 70
     1
102
RTVSPropertyOp27
 70
     1
102
RTVSPropertyOp28
 70
     1
102
RTVSPropertyOp29
 70
     1
102
RTVSPropertyOp30
 70
     1
102
RTVSPropertyOp31
 70
     1
102
RTVSPropertyOp32
 70
     1
102
RTVSPropertyOp33
 70
     1
102
RTVSPropertyOp34
 70
     1
102
RTVSPropertyOp35
 70
     1
102
RTVSPropertyOp36
 70
     1
102
RTVSPropertyOp37
 70
     1
102
RTVSPropertyOp38
 70
     1
102
RTVSPropertyOp39
 70
     1
102
RTVSPropertyOp40
 70
     1
102
RTVSPropertyOp41
 70
     1
102
RTVSPropertyOp42
 70
     1
102
RTVSPropertyOp43
 70
     1
102
RTVSPropertyOp44
 70
     1
102
RTVSPropertyOp45
 70
     1
102
RTVSPropertyOp46
 70
     1
102
RTVSPropertyOp47
 70
     1
102
RTVSPropertyOp48
 70
     1
102
RTVSPropertyOp49
 70
     1
102
RTVSPropertyOp50
 70
     1
102
RTVSPropertyOp51
 70
     0
102
RTVSPropertyOp52
 70
     0
102
RTVSPropertyOp53
 70
     1
102
RTVSPropertyOp54
 70
     1
102
RTVSPropertyOp55
 70
     1
102
RTVSPropertyOp56
 70
     1
102
RTVSPropertyOp57
 70
     1
102
RTVSPropertyOp58
 70
     1
102
RTVSPropertyOp59
 70
     1
102
RTVSPropertyOp60
 70
     1
102
RTVSPropertyOp61
 70
     1
102
RTVSPropertyOp62
 70
     1
  0
XRECORD
  5
DBAF
102
{ACAD_REACTORS
330
DBAE
102
}
330
DBAE
100
AcDbXrecord
280
     1
102
RTVSPost2010Prop28
280
     0
102
RTVSPost2010PropOp28
 70
     1
102
RTVSPost2010Prop29
280
     1
102
RTVSPost2010PropOp29
 70
     1
102
RTVSPost2010Prop30
280
     1
102
RTVSPost2010PropOp30
 70
     1
102
RTVSPost2010Prop31
280
     0
102
RTVSPost2010PropOp31
 70
     1
102
RTVSPost2010Prop32
280
     0
102
RTVSPost2010PropOp32
 70
     1
102
RTVSPost2010Prop33
280
     0
102
RTVSPost2010PropOp33
 70
     1
102
RTVSPost2010Prop34
280
     0
102
RTVSPost2010PropOp34
 70
     1
102
RTVSPost2010Prop35
280
     0
102
RTVSPost2010PropOp35
 70
     1
102
RTVSPost2010Prop36
280
     0
102
RTVSPost2010PropOp36
 70
     1
102
RTVSPost2010Prop37
 90
       50
102
RTVSPost2010PropOp37
 70
     1
102
RTVSPost2010Prop38
140
0.0
102
RTVSPost2010PropOp38
 70
     1
102
RTVSPost2010Prop39
140
1.0
102
RTVSPost2010PropOp39
 70
     1
102
RTVSPost2010Prop40
 90
        0
102
RTVSPost2010PropOp40
 70
     1
102
RTVSPost2010Prop41ColorIndex
 90
       18
102
RTVSPost2010Prop41ColorRGB
 90
        0
102
RTVSPost2010PropOp41
 70
     1
102
RTVSPost2010Prop42
 90
       50
102
RTVSPost2010PropOp42
 70
     1
102
RTVSPost2010Prop43
 90
        3
102
RTVSPost2010PropOp43
 70
     1
102
RTVSPost2010Prop44ColorIndex
 90
        5
102
RTVSPost2010Prop44ColorRGB
 90
      255
102
RTVSPost2010PropOp44
 70
     1
102
RTVSPost2010Prop45
280
     0
102
RTVSPost2010PropOp45
 70
     1
102
RTVSPost2010Prop46
 90
       50
102
RTVSPost2010PropOp46
 70
     1
102
RTVSPost2010Prop47
 90
       50
102
RTVSPost2010PropOp47
 70
     1
102
RTVSPost2010Prop48
 90
       50
102
RTVSPost2010PropOp48
 70
     1
102
RTVSPost2010Prop49
280
     0
102
RTVSPost2010PropOp49
 70
     1
102
RTVSPost2010Prop50
 90
       50
102
RTVSPost2010PropOp50
 70
     1
102
RTVSPost2010Prop51ColorIndex
 90
      256
102
RTVSPost2010Prop51ColorRGB
 90
-16777216
102
RTVSPost2010PropOp51
 70
     0
102
RTVSPost2010Prop52
140
1.0
102
RTVSPost2010PropOp52
 70
     0
102
RTVSPost2010Prop53
 90
        2
102
RTVSPost2010PropOp53
 70
     1
102
RTVSPost2010Prop54
  1
strokes_ogs.tif
102
RTVSPost2010PropOp54
 70
     1
102
RTVSPost2010Prop55
280
     0
102
RTVSPost2010PropOp55
 70
     1
102
RTVSPost2010Prop56
140
1.0
102
RTVSPost2010PropOp56
 70
     1
102
RTVSPost2010Prop57
140
1.0
102
RTVSPost2010PropOp57
 70
     1
102
RTVSPropertyOp0
 70
     1
102
RTVSPropertyOp1
 70
     1
102
RTVSPropertyOp2
 70
     1
102
RTVSPropertyOp3
 70
     1
102
RTVSPropertyOp4
 70
     1
102
RTVSPropertyOp5
 70
     1
102
RTVSPropertyOp6
 70
     1
102
RTVSPropertyOp7
 70
     1
102
RTVSPropertyOp8
 70
     1
102
RTVSPropertyOp9
 70
     1
102
RTVSPropertyOp10
 70
     1
102
RTVSPropertyOp11
 70
     1
102
RTVSPropertyOp12
 70
     1
102
RTVSPropertyOp13
 70
     1
102
RTVSPropertyOp14
 70
     1
102
RTVSPropertyOp15
 70
     1
102
RTVSPropertyOp16
 70
     1
102
RTVSPropertyOp17
 70
     1
102
RTVSPropertyOp18
 70
     1
102
RTVSPropertyOp19
 70
     1
102
RTVSPropertyOp20
 70
     1
102
RTVSPropertyOp21
 70
     1
102
RTVSPropertyOp22
 70
     1
102
RTVSPropertyOp23
 70
     1
102
RTVSPropertyOp24
 70
     1
102
RTVSPropertyOp25
 70
     1
102
RTVSPropertyOp26
 70
     1
102
RTVSPropertyOp27
 70
     1
102
RTVSPropertyOp28
 70
     1
102
RTVSPropertyOp29
 70
     1
102
RTVSPropertyOp30
 70
     1
102
RTVSPropertyOp31
 70
     1
102
RTVSPropertyOp32
 70
     1
102
RTVSPropertyOp33
 70
     1
102
RTVSPropertyOp34
 70
     1
102
RTVSPropertyOp35
 70
     1
102
RTVSPropertyOp36
 70
     1
102
RTVSPropertyOp37
 70
     1
102
RTVSPropertyOp38
 70
     1
102
RTVSPropertyOp39
 70
     1
102
RTVSPropertyOp40
 70
     1
102
RTVSPropertyOp41
 70
     1
102
RTVSPropertyOp42
 70
     1
102
RTVSPropertyOp43
 70
     1
102
RTVSPropertyOp44
 70
     1
102
RTVSPropertyOp45
 70
     1
102
RTVSPropertyOp46
 70
     1
102
RTVSPropertyOp47
 70
     1
102
RTVSPropertyOp48
 70
     1
102
RTVSPropertyOp49
 70
     1
102
RTVSPropertyOp50
 70
     1
102
RTVSPropertyOp51
 70
     0
102
RTVSPropertyOp52
 70
     0
102
RTVSPropertyOp53
 70
     1
102
RTVSPropertyOp54
 70
     1
102
RTVSPropertyOp55
 70
     1
102
RTVSPropertyOp56
 70
     1
102
RTVSPropertyOp57
 70
     1
102
RTVSPropertyOp58
 70
     1
102
RTVSPropertyOp59
 70
     1
102
RTVSPropertyOp60
 70
     1
102
RTVSPropertyOp61
 70
     1
102
RTVSPropertyOp62
 70
     1
  0
XRECORD
  5
DBB7
102
{ACAD_REACTORS
330
DBB6
102
}
330
DBB6
100
AcDbXrecord
280
     1
102
RTVSPost2010Prop28
280
     0
102
RTVSPost2010PropOp28
 70
     1
102
RTVSPost2010Prop29
280
     1
102
RTVSPost2010PropOp29
 70
     1
102
RTVSPost2010Prop30
280
     1
102
RTVSPost2010PropOp30
 70
     1
102
RTVSPost2010Prop31
280
     0
102
RTVSPost2010PropOp31
 70
     1
102
RTVSPost2010Prop32
280
     0
102
RTVSPost2010PropOp32
 70
     1
102
RTVSPost2010Prop33
280
     0
102
RTVSPost2010PropOp33
 70
     1
102
RTVSPost2010Prop34
280
     0
102
RTVSPost2010PropOp34
 70
     1
102
RTVSPost2010Prop35
280
     0
102
RTVSPost2010PropOp35
 70
     1
102
RTVSPost2010Prop36
280
     0
102
RTVSPost2010PropOp36
 70
     1
102
RTVSPost2010Prop37
 90
       50
102
RTVSPost2010PropOp37
 70
     1
102
RTVSPost2010Prop38
140
0.0
102
RTVSPost2010PropOp38
 70
     1
102
RTVSPost2010Prop39
140
1.0
102
RTVSPost2010PropOp39
 70
     1
102
RTVSPost2010Prop40
 90
        0
102
RTVSPost2010PropOp40
 70
     1
102
RTVSPost2010Prop41ColorIndex
 90
       18
102
RTVSPost2010Prop41ColorRGB
 90
        0
102
RTVSPost2010PropOp41
 70
     1
102
RTVSPost2010Prop42
 90
       50
102
RTVSPost2010PropOp42
 70
     1
102
RTVSPost2010Prop43
 90
        3
102
RTVSPost2010PropOp43
 70
     1
102
RTVSPost2010Prop44ColorIndex
 90
        5
102
RTVSPost2010Prop44ColorRGB
 90
      255
102
RTVSPost2010PropOp44
 70
     1
102
RTVSPost2010Prop45
280
     0
102
RTVSPost2010PropOp45
 70
     1
102
RTVSPost2010Prop46
 90
       50
102
RTVSPost2010PropOp46
 70
     1
102
RTVSPost2010Prop47
 90
       50
102
RTVSPost2010PropOp47
 70
     1
102
RTVSPost2010Prop48
 90
       50
102
RTVSPost2010PropOp48
 70
     1
102
RTVSPost2010Prop49
280
     0
102
RTVSPost2010PropOp49
 70
     1
102
RTVSPost2010Prop50
 90
       50
102
RTVSPost2010PropOp50
 70
     1
102
RTVSPost2010Prop51ColorIndex
 90
      256
102
RTVSPost2010Prop51ColorRGB
 90
-16777216
102
RTVSPost2010PropOp51
 70
     0
102
RTVSPost2010Prop52
140
1.0
102
RTVSPost2010PropOp52
 70
     0
102
RTVSPost2010Prop53
 90
        2
102
RTVSPost2010PropOp53
 70
     1
102
RTVSPost2010Prop54
  1
strokes_ogs.tif
102
RTVSPost2010PropOp54
 70
     1
102
RTVSPost2010Prop55
280
     0
102
RTVSPost2010PropOp55
 70
     1
102
RTVSPost2010Prop56
140
1.0
102
RTVSPost2010PropOp56
 70
     1
102
RTVSPost2010Prop57
140
1.0
102
RTVSPost2010PropOp57
 70
     1
102
RTVSPropertyOp0
 70
     1
102
RTVSPropertyOp1
 70
     1
102
RTVSPropertyOp2
 70
     1
102
RTVSPropertyOp3
 70
     1
102
RTVSPropertyOp4
 70
     1
102
RTVSPropertyOp5
 70
     1
102
RTVSPropertyOp6
 70
     1
102
RTVSPropertyOp7
 70
     1
102
RTVSPropertyOp8
 70
     1
102
RTVSPropertyOp9
 70
     1
102
RTVSPropertyOp10
 70
     1
102
RTVSPropertyOp11
 70
     1
102
RTVSPropertyOp12
 70
     1
102
RTVSPropertyOp13
 70
     1
102
RTVSPropertyOp14
 70
     1
102
RTVSPropertyOp15
 70
     1
102
RTVSPropertyOp16
 70
     1
102
RTVSPropertyOp17
 70
     1
102
RTVSPropertyOp18
 70
     1
102
RTVSPropertyOp19
 70
     1
102
RTVSPropertyOp20
 70
     1
102
RTVSPropertyOp21
 70
     1
102
RTVSPropertyOp22
 70
     1
102
RTVSPropertyOp23
 70
     1
102
RTVSPropertyOp24
 70
     1
102
RTVSPropertyOp25
 70
     1
102
RTVSPropertyOp26
 70
     1
102
RTVSPropertyOp27
 70
     1
102
RTVSPropertyOp28
 70
     1
102
RTVSPropertyOp29
 70
     1
102
RTVSPropertyOp30
 70
     1
102
RTVSPropertyOp31
 70
     1
102
RTVSPropertyOp32
 70
     1
102
RTVSPropertyOp33
 70
     1
102
RTVSPropertyOp34
 70
     1
102
RTVSPropertyOp35
 70
     1
102
RTVSPropertyOp36
 70
     1
102
RTVSPropertyOp37
 70
     1
102
RTVSPropertyOp38
 70
     1
102
RTVSPropertyOp39
 70
     1
102
RTVSPropertyOp40
 70
     1
102
RTVSPropertyOp41
 70
     1
102
RTVSPropertyOp42
 70
     1
102
RTVSPropertyOp43
 70
     1
102
RTVSPropertyOp44
 70
     1
102
RTVSPropertyOp45
 70
     1
102
RTVSPropertyOp46
 70
     1
102
RTVSPropertyOp47
 70
     1
102
RTVSPropertyOp48
 70
     1
102
RTVSPropertyOp49
 70
     1
102
RTVSPropertyOp50
 70
     1
102
RTVSPropertyOp51
 70
     0
102
RTVSPropertyOp52
 70
     0
102
RTVSPropertyOp53
 70
     1
102
RTVSPropertyOp54
 70
     1
102
RTVSPropertyOp55
 70
     1
102
RTVSPropertyOp56
 70
     1
102
RTVSPropertyOp57
 70
     1
102
RTVSPropertyOp58
 70
     1
102
RTVSPropertyOp59
 70
     1
102
RTVSPropertyOp60
 70
     1
102
RTVSPropertyOp61
 70
     1
102
RTVSPropertyOp62
 70
     1
  0
XRECORD
  5
DBA9
102
{ACAD_REACTORS
330
DBA8
102
}
330
DBA8
100
AcDbXrecord
280
     1
102
RTVSPost2010Prop28
280
     0
102
RTVSPost2010PropOp28
 70
     1
102
RTVSPost2010Prop29
280
     1
102
RTVSPost2010PropOp29
 70
     1
102
RTVSPost2010Prop30
280
     1
102
RTVSPost2010PropOp30
 70
     1
102
RTVSPost2010Prop31
280
     0
102
RTVSPost2010PropOp31
 70
     1
102
RTVSPost2010Prop32
280
     0
102
RTVSPost2010PropOp32
 70
     1
102
RTVSPost2010Prop33
280
     0
102
RTVSPost2010PropOp33
 70
     1
102
RTVSPost2010Prop34
280
     0
102
RTVSPost2010PropOp34
 70
     1
102
RTVSPost2010Prop35
280
     0
102
RTVSPost2010PropOp35
 70
     1
102
RTVSPost2010Prop36
280
     0
102
RTVSPost2010PropOp36
 70
     1
102
RTVSPost2010Prop37
 90
       50
102
RTVSPost2010PropOp37
 70
     1
102
RTVSPost2010Prop38
140
0.0
102
RTVSPost2010PropOp38
 70
     1
102
RTVSPost2010Prop39
140
1.0
102
RTVSPost2010PropOp39
 70
     1
102
RTVSPost2010Prop40
 90
        0
102
RTVSPost2010PropOp40
 70
     1
102
RTVSPost2010Prop41ColorIndex
 90
       18
102
RTVSPost2010Prop41ColorRGB
 90
        0
102
RTVSPost2010PropOp41
 70
     1
102
RTVSPost2010Prop42
 90
       50
102
RTVSPost2010PropOp42
 70
     1
102
RTVSPost2010Prop43
 90
        3
102
RTVSPost2010PropOp43
 70
     1
102
RTVSPost2010Prop44ColorIndex
 90
        5
102
RTVSPost2010Prop44ColorRGB
 90
      255
102
RTVSPost2010PropOp44
 70
     1
102
RTVSPost2010Prop45
280
     0
102
RTVSPost2010PropOp45
 70
     1
102
RTVSPost2010Prop46
 90
       50
102
RTVSPost2010PropOp46
 70
     1
102
RTVSPost2010Prop47
 90
       50
102
RTVSPost2010PropOp47
 70
     1
102
RTVSPost2010Prop48
 90
       50
102
RTVSPost2010PropOp48
 70
     1
102
RTVSPost2010Prop49
280
     0
102
RTVSPost2010PropOp49
 70
     1
102
RTVSPost2010Prop50
 90
       50
102
RTVSPost2010PropOp50
 70
     1
102
RTVSPost2010Prop51ColorIndex
 90
      256
102
RTVSPost2010Prop51ColorRGB
 90
-16777216
102
RTVSPost2010PropOp51
 70
     0
102
RTVSPost2010Prop52
140
1.0
102
RTVSPost2010PropOp52
 70
     0
102
RTVSPost2010Prop53
 90
        2
102
RTVSPost2010PropOp53
 70
     1
102
RTVSPost2010Prop54
  1
strokes_ogs.tif
102
RTVSPost2010PropOp54
 70
     1
102
RTVSPost2010Prop55
280
     0
102
RTVSPost2010PropOp55
 70
     1
102
RTVSPost2010Prop56
140
1.0
102
RTVSPost2010PropOp56
 70
     1
102
RTVSPost2010Prop57
140
1.0
102
RTVSPost2010PropOp57
 70
     1
102
RTVSPropertyOp0
 70
     1
102
RTVSPropertyOp1
 70
     1
102
RTVSPropertyOp2
 70
     1
102
RTVSPropertyOp3
 70
     1
102
RTVSPropertyOp4
 70
     1
102
RTVSPropertyOp5
 70
     1
102
RTVSPropertyOp6
 70
     1
102
RTVSPropertyOp7
 70
     1
102
RTVSPropertyOp8
 70
     1
102
RTVSPropertyOp9
 70
     1
102
RTVSPropertyOp10
 70
     1
102
RTVSPropertyOp11
 70
     1
102
RTVSPropertyOp12
 70
     1
102
RTVSPropertyOp13
 70
     1
102
RTVSPropertyOp14
 70
     1
102
RTVSPropertyOp15
 70
     1
102
RTVSPropertyOp16
 70
     1
102
RTVSPropertyOp17
 70
     1
102
RTVSPropertyOp18
 70
     1
102
RTVSPropertyOp19
 70
     1
102
RTVSPropertyOp20
 70
     1
102
RTVSPropertyOp21
 70
     1
102
RTVSPropertyOp22
 70
     1
102
RTVSPropertyOp23
 70
     1
102
RTVSPropertyOp24
 70
     1
102
RTVSPropertyOp25
 70
     1
102
RTVSPropertyOp26
 70
     1
102
RTVSPropertyOp27
 70
     1
102
RTVSPropertyOp28
 70
     1
102
RTVSPropertyOp29
 70
     1
102
RTVSPropertyOp30
 70
     1
102
RTVSPropertyOp31
 70
     1
102
RTVSPropertyOp32
 70
     1
102
RTVSPropertyOp33
 70
     1
102
RTVSPropertyOp34
 70
     1
102
RTVSPropertyOp35
 70
     1
102
RTVSPropertyOp36
 70
     1
102
RTVSPropertyOp37
 70
     1
102
RTVSPropertyOp38
 70
     1
102
RTVSPropertyOp39
 70
     1
102
RTVSPropertyOp40
 70
     1
102
RTVSPropertyOp41
 70
     1
102
RTVSPropertyOp42
 70
     1
102
RTVSPropertyOp43
 70
     1
102
RTVSPropertyOp44
 70
     1
102
RTVSPropertyOp45
 70
     1
102
RTVSPropertyOp46
 70
     1
102
RTVSPropertyOp47
 70
     1
102
RTVSPropertyOp48
 70
     1
102
RTVSPropertyOp49
 70
     1
102
RTVSPropertyOp50
 70
     1
102
RTVSPropertyOp51
 70
     0
102
RTVSPropertyOp52
 70
     0
102
RTVSPropertyOp53
 70
     1
102
RTVSPropertyOp54
 70
     1
102
RTVSPropertyOp55
 70
     1
102
RTVSPropertyOp56
 70
     1
102
RTVSPropertyOp57
 70
     1
102
RTVSPropertyOp58
 70
     1
102
RTVSPropertyOp59
 70
     1
102
RTVSPropertyOp60
 70
     1
102
RTVSPropertyOp61
 70
     1
102
RTVSPropertyOp62
 70
     1
  0
XRECORD
  5
DBAD
102
{ACAD_REACTORS
330
DBAC
102
}
330
DBAC
100
AcDbXrecord
280
     1
102
RTVSPost2010Prop28
280
     0
102
RTVSPost2010PropOp28
 70
     1
102
RTVSPost2010Prop29
280
     1
102
RTVSPost2010PropOp29
 70
     1
102
RTVSPost2010Prop30
280
     1
102
RTVSPost2010PropOp30
 70
     1
102
RTVSPost2010Prop31
280
     0
102
RTVSPost2010PropOp31
 70
     1
102
RTVSPost2010Prop32
280
     0
102
RTVSPost2010PropOp32
 70
     1
102
RTVSPost2010Prop33
280
     0
102
RTVSPost2010PropOp33
 70
     1
102
RTVSPost2010Prop34
280
     0
102
RTVSPost2010PropOp34
 70
     1
102
RTVSPost2010Prop35
280
     0
102
RTVSPost2010PropOp35
 70
     1
102
RTVSPost2010Prop36
280
     0
102
RTVSPost2010PropOp36
 70
     1
102
RTVSPost2010Prop37
 90
       50
102
RTVSPost2010PropOp37
 70
     1
102
RTVSPost2010Prop38
140
0.0
102
RTVSPost2010PropOp38
 70
     1
102
RTVSPost2010Prop39
140
1.0
102
RTVSPost2010PropOp39
 70
     1
102
RTVSPost2010Prop40
 90
        0
102
RTVSPost2010PropOp40
 70
     1
102
RTVSPost2010Prop41ColorIndex
 90
       18
102
RTVSPost2010Prop41ColorRGB
 90
        0
102
RTVSPost2010PropOp41
 70
     1
102
RTVSPost2010Prop42
 90
       50
102
RTVSPost2010PropOp42
 70
     1
102
RTVSPost2010Prop43
 90
        3
102
RTVSPost2010PropOp43
 70
     1
102
RTVSPost2010Prop44ColorIndex
 90
        5
102
RTVSPost2010Prop44ColorRGB
 90
      255
102
RTVSPost2010PropOp44
 70
     1
102
RTVSPost2010Prop45
280
     0
102
RTVSPost2010PropOp45
 70
     1
102
RTVSPost2010Prop46
 90
       50
102
RTVSPost2010PropOp46
 70
     1
102
RTVSPost2010Prop47
 90
       50
102
RTVSPost2010PropOp47
 70
     1
102
RTVSPost2010Prop48
 90
       50
102
RTVSPost2010PropOp48
 70
     1
102
RTVSPost2010Prop49
280
     0
102
RTVSPost2010PropOp49
 70
     1
102
RTVSPost2010Prop50
 90
       50
102
RTVSPost2010PropOp50
 70
     1
102
RTVSPost2010Prop51ColorIndex
 90
      256
102
RTVSPost2010Prop51ColorRGB
 90
-16777216
102
RTVSPost2010PropOp51
 70
     0
102
RTVSPost2010Prop52
140
1.0
102
RTVSPost2010PropOp52
 70
     0
102
RTVSPost2010Prop53
 90
        2
102
RTVSPost2010PropOp53
 70
     1
102
RTVSPost2010Prop54
  1
strokes_ogs.tif
102
RTVSPost2010PropOp54
 70
     1
102
RTVSPost2010Prop55
280
     0
102
RTVSPost2010PropOp55
 70
     1
102
RTVSPost2010Prop56
140
1.0
102
RTVSPost2010PropOp56
 70
     1
102
RTVSPost2010Prop57
140
1.0
102
RTVSPost2010PropOp57
 70
     1
102
RTVSPropertyOp0
 70
     1
102
RTVSPropertyOp1
 70
     1
102
RTVSPropertyOp2
 70
     1
102
RTVSPropertyOp3
 70
     1
102
RTVSPropertyOp4
 70
     1
102
RTVSPropertyOp5
 70
     1
102
RTVSPropertyOp6
 70
     1
102
RTVSPropertyOp7
 70
     1
102
RTVSPropertyOp8
 70
     1
102
RTVSPropertyOp9
 70
     1
102
RTVSPropertyOp10
 70
     1
102
RTVSPropertyOp11
 70
     1
102
RTVSPropertyOp12
 70
     1
102
RTVSPropertyOp13
 70
     1
102
RTVSPropertyOp14
 70
     1
102
RTVSPropertyOp15
 70
     1
102
RTVSPropertyOp16
 70
     1
102
RTVSPropertyOp17
 70
     1
102
RTVSPropertyOp18
 70
     1
102
RTVSPropertyOp19
 70
     1
102
RTVSPropertyOp20
 70
     1
102
RTVSPropertyOp21
 70
     1
102
RTVSPropertyOp22
 70
     1
102
RTVSPropertyOp23
 70
     1
102
RTVSPropertyOp24
 70
     1
102
RTVSPropertyOp25
 70
     1
102
RTVSPropertyOp26
 70
     1
102
RTVSPropertyOp27
 70
     1
102
RTVSPropertyOp28
 70
     1
102
RTVSPropertyOp29
 70
     1
102
RTVSPropertyOp30
 70
     1
102
RTVSPropertyOp31
 70
     1
102
RTVSPropertyOp32
 70
     1
102
RTVSPropertyOp33
 70
     1
102
RTVSPropertyOp34
 70
     1
102
RTVSPropertyOp35
 70
     1
102
RTVSPropertyOp36
 70
     1
102
RTVSPropertyOp37
 70
     1
102
RTVSPropertyOp38
 70
     1
102
RTVSPropertyOp39
 70
     1
102
RTVSPropertyOp40
 70
     1
102
RTVSPropertyOp41
 70
     1
102
RTVSPropertyOp42
 70
     1
102
RTVSPropertyOp43
 70
     1
102
RTVSPropertyOp44
 70
     1
102
RTVSPropertyOp45
 70
     1
102
RTVSPropertyOp46
 70
     1
102
RTVSPropertyOp47
 70
     1
102
RTVSPropertyOp48
 70
     1
102
RTVSPropertyOp49
 70
     1
102
RTVSPropertyOp50
 70
     1
102
RTVSPropertyOp51
 70
     0
102
RTVSPropertyOp52
 70
     0
102
RTVSPropertyOp53
 70
     1
102
RTVSPropertyOp54
 70
     1
102
RTVSPropertyOp55
 70
     1
102
RTVSPropertyOp56
 70
     1
102
RTVSPropertyOp57
 70
     1
102
RTVSPropertyOp58
 70
     1
102
RTVSPropertyOp59
 70
     1
102
RTVSPropertyOp60
 70
     1
102
RTVSPropertyOp61
 70
     1
102
RTVSPropertyOp62
 70
     1
  0
XRECORD
  5
DBC7
102
{ACAD_REACTORS
330
DBC6
102
}
330
DBC6
100
AcDbXrecord
280
     1
102
RTVSPost2010Prop28
280
     0
102
RTVSPost2010PropOp28
 70
     1
102
RTVSPost2010Prop29
280
     1
102
RTVSPost2010PropOp29
 70
     1
102
RTVSPost2010Prop30
280
     1
102
RTVSPost2010PropOp30
 70
     1
102
RTVSPost2010Prop31
280
     0
102
RTVSPost2010PropOp31
 70
     1
102
RTVSPost2010Prop32
280
     0
102
RTVSPost2010PropOp32
 70
     1
102
RTVSPost2010Prop33
280
     0
102
RTVSPost2010PropOp33
 70
     1
102
RTVSPost2010Prop34
280
     0
102
RTVSPost2010PropOp34
 70
     1
102
RTVSPost2010Prop35
280
     0
102
RTVSPost2010PropOp35
 70
     1
102
RTVSPost2010Prop36
280
     0
102
RTVSPost2010PropOp36
 70
     1
102
RTVSPost2010Prop37
 90
       50
102
RTVSPost2010PropOp37
 70
     0
102
RTVSPost2010Prop38
140
0.0
102
RTVSPost2010PropOp38
 70
     0
102
RTVSPost2010Prop39
140
1.0
102
RTVSPost2010PropOp39
 70
     0
102
RTVSPost2010Prop40
 90
        0
102
RTVSPost2010PropOp40
 70
     0
102
RTVSPost2010Prop41ColorIndex
 90
       18
102
RTVSPost2010Prop41ColorRGB
 90
        0
102
RTVSPost2010PropOp41
 70
     0
102
RTVSPost2010Prop42
 90
       50
102
RTVSPost2010PropOp42
 70
     0
102
RTVSPost2010Prop43
 90
        3
102
RTVSPost2010PropOp43
 70
     0
102
RTVSPost2010Prop44ColorIndex
 90
        5
102
RTVSPost2010Prop44ColorRGB
 90
      255
102
RTVSPost2010PropOp44
 70
     0
102
RTVSPost2010Prop45
280
     0
102
RTVSPost2010PropOp45
 70
     1
102
RTVSPost2010Prop46
 90
       50
102
RTVSPost2010PropOp46
 70
     0
102
RTVSPost2010Prop47
 90
       50
102
RTVSPost2010PropOp47
 70
     0
102
RTVSPost2010Prop48
 90
       50
102
RTVSPost2010PropOp48
 70
     0
102
RTVSPost2010Prop49
280
     0
102
RTVSPost2010PropOp49
 70
     1
102
RTVSPost2010Prop50
 90
       50
102
RTVSPost2010PropOp50
 70
     0
102
RTVSPost2010Prop51ColorIndex
 90
      256
102
RTVSPost2010Prop51ColorRGB
 90
-16777216
102
RTVSPost2010PropOp51
 70
     0
102
RTVSPost2010Prop52
140
1.0
102
RTVSPost2010PropOp52
 70
     0
102
RTVSPost2010Prop53
 90
        2
102
RTVSPost2010PropOp53
 70
     0
102
RTVSPost2010Prop54
  1
strokes_ogs.tif
102
RTVSPost2010PropOp54
 70
     0
102
RTVSPost2010Prop55
280
     0
102
RTVSPost2010PropOp55
 70
     1
102
RTVSPost2010Prop56
140
1.0
102
RTVSPost2010PropOp56
 70
     0
102
RTVSPost2010Prop57
140
1.0
102
RTVSPost2010PropOp57
 70
     0
102
RTVSPropertyOp0
 70
     0
102
RTVSPropertyOp1
 70
     0
102
RTVSPropertyOp2
 70
     0
102
RTVSPropertyOp3
 70
     0
102
RTVSPropertyOp4
 70
     0
102
RTVSPropertyOp5
 70
     0
102
RTVSPropertyOp6
 70
     0
102
RTVSPropertyOp7
 70
     0
102
RTVSPropertyOp8
 70
     0
102
RTVSPropertyOp9
 70
     0
102
RTVSPropertyOp10
 70
     0
102
RTVSPropertyOp11
 70
     0
102
RTVSPropertyOp12
 70
     0
102
RTVSPropertyOp13
 70
     0
102
RTVSPropertyOp14
 70
     2
102
RTVSPropertyOp15
 70
     0
102
RTVSPropertyOp16
 70
     0
102
RTVSPropertyOp17
 70
     0
102
RTVSPropertyOp18
 70
     0
102
RTVSPropertyOp19
 70
     0
102
RTVSPropertyOp20
 70
     0
102
RTVSPropertyOp21
 70
     0
102
RTVSPropertyOp22
 70
     0
102
RTVSPropertyOp23
 70
     0
102
RTVSPropertyOp24
 70
     0
102
RTVSPropertyOp25
 70
     0
102
RTVSPropertyOp26
 70
     0
102
RTVSPropertyOp27
 70
     0
102
RTVSPropertyOp28
 70
     1
102
RTVSPropertyOp29
 70
     1
102
RTVSPropertyOp30
 70
     1
102
RTVSPropertyOp31
 70
     1
102
RTVSPropertyOp32
 70
     1
102
RTVSPropertyOp33
 70
     1
102
RTVSPropertyOp34
 70
     1
102
RTVSPropertyOp35
 70
     1
102
RTVSPropertyOp36
 70
     1
102
RTVSPropertyOp37
 70
     0
102
RTVSPropertyOp38
 70
     0
102
RTVSPropertyOp39
 70
     0
102
RTVSPropertyOp40
 70
     0
102
RTVSPropertyOp41
 70
     0
102
RTVSPropertyOp42
 70
     0
102
RTVSPropertyOp43
 70
     0
102
RTVSPropertyOp44
 70
     0
102
RTVSPropertyOp45
 70
     1
102
RTVSPropertyOp46
 70
     0
102
RTVSPropertyOp47
 70
     0
102
RTVSPropertyOp48
 70
     0
102
RTVSPropertyOp49
 70
     1
102
RTVSPropertyOp50
 70
     0
102
RTVSPropertyOp51
 70
     0
102
RTVSPropertyOp52
 70
     0
102
RTVSPropertyOp53
 70
     0
102
RTVSPropertyOp54
 70
     0
102
RTVSPropertyOp55
 70
     1
102
RTVSPropertyOp56
 70
     0
102
RTVSPropertyOp57
 70
     0
102
RTVSPropertyOp58
 70
     0
102
RTVSPropertyOp59
 70
     0
102
RTVSPropertyOp60
 70
     0
102
RTVSPropertyOp61
 70
     0
102
RTVSPropertyOp62
 70
     0
  0
XRECORD
  5
DBB5
102
{ACAD_REACTORS
330
DBB4
102
}
330
DBB4
100
AcDbXrecord
280
     1
102
RTVSPost2010Prop28
280
     0
102
RTVSPost2010PropOp28
 70
     1
102
RTVSPost2010Prop29
280
     1
102
RTVSPost2010PropOp29
 70
     1
102
RTVSPost2010Prop30
280
     1
102
RTVSPost2010PropOp30
 70
     1
102
RTVSPost2010Prop31
280
     0
102
RTVSPost2010PropOp31
 70
     1
102
RTVSPost2010Prop32
280
     0
102
RTVSPost2010PropOp32
 70
     1
102
RTVSPost2010Prop33
280
     0
102
RTVSPost2010PropOp33
 70
     1
102
RTVSPost2010Prop34
280
     0
102
RTVSPost2010PropOp34
 70
     1
102
RTVSPost2010Prop35
280
     0
102
RTVSPost2010PropOp35
 70
     1
102
RTVSPost2010Prop36
280
     0
102
RTVSPost2010PropOp36
 70
     1
102
RTVSPost2010Prop37
 90
       50
102
RTVSPost2010PropOp37
 70
     1
102
RTVSPost2010Prop38
140
0.0
102
RTVSPost2010PropOp38
 70
     1
102
RTVSPost2010Prop39
140
1.0
102
RTVSPost2010PropOp39
 70
     1
102
RTVSPost2010Prop40
 90
        0
102
RTVSPost2010PropOp40
 70
     1
102
RTVSPost2010Prop41ColorIndex
 90
       18
102
RTVSPost2010Prop41ColorRGB
 90
        0
102
RTVSPost2010PropOp41
 70
     1
102
RTVSPost2010Prop42
 90
       50
102
RTVSPost2010PropOp42
 70
     1
102
RTVSPost2010Prop43
 90
        3
102
RTVSPost2010PropOp43
 70
     1
102
RTVSPost2010Prop44ColorIndex
 90
        5
102
RTVSPost2010Prop44ColorRGB
 90
      255
102
RTVSPost2010PropOp44
 70
     1
102
RTVSPost2010Prop45
280
     0
102
RTVSPost2010PropOp45
 70
     1
102
RTVSPost2010Prop46
 90
       50
102
RTVSPost2010PropOp46
 70
     1
102
RTVSPost2010Prop47
 90
       50
102
RTVSPost2010PropOp47
 70
     1
102
RTVSPost2010Prop48
 90
       50
102
RTVSPost2010PropOp48
 70
     1
102
RTVSPost2010Prop49
280
     0
102
RTVSPost2010PropOp49
 70
     1
102
RTVSPost2010Prop50
 90
       50
102
RTVSPost2010PropOp50
 70
     1
102
RTVSPost2010Prop51ColorIndex
 90
      256
102
RTVSPost2010Prop51ColorRGB
 90
-16777216
102
RTVSPost2010PropOp51
 70
     0
102
RTVSPost2010Prop52
140
1.0
102
RTVSPost2010PropOp52
 70
     0
102
RTVSPost2010Prop53
 90
        2
102
RTVSPost2010PropOp53
 70
     1
102
RTVSPost2010Prop54
  1
strokes_ogs.tif
102
RTVSPost2010PropOp54
 70
     1
102
RTVSPost2010Prop55
280
     0
102
RTVSPost2010PropOp55
 70
     1
102
RTVSPost2010Prop56
140
1.0
102
RTVSPost2010PropOp56
 70
     1
102
RTVSPost2010Prop57
140
1.0
102
RTVSPost2010PropOp57
 70
     1
102
RTVSPropertyOp0
 70
     1
102
RTVSPropertyOp1
 70
     1
102
RTVSPropertyOp2
 70
     1
102
RTVSPropertyOp3
 70
     1
102
RTVSPropertyOp4
 70
     1
102
RTVSPropertyOp5
 70
     1
102
RTVSPropertyOp6
 70
     1
102
RTVSPropertyOp7
 70
     1
102
RTVSPropertyOp8
 70
     1
102
RTVSPropertyOp9
 70
     1
102
RTVSPropertyOp10
 70
     1
102
RTVSPropertyOp11
 70
     1
102
RTVSPropertyOp12
 70
     1
102
RTVSPropertyOp13
 70
     1
102
RTVSPropertyOp14
 70
     1
102
RTVSPropertyOp15
 70
     1
102
RTVSPropertyOp16
 70
     1
102
RTVSPropertyOp17
 70
     1
102
RTVSPropertyOp18
 70
     1
102
RTVSPropertyOp19
 70
     1
102
RTVSPropertyOp20
 70
     1
102
RTVSPropertyOp21
 70
     1
102
RTVSPropertyOp22
 70
     1
102
RTVSPropertyOp23
 70
     1
102
RTVSPropertyOp24
 70
     1
102
RTVSPropertyOp25
 70
     1
102
RTVSPropertyOp26
 70
     1
102
RTVSPropertyOp27
 70
     1
102
RTVSPropertyOp28
 70
     1
102
RTVSPropertyOp29
 70
     1
102
RTVSPropertyOp30
 70
     1
102
RTVSPropertyOp31
 70
     1
102
RTVSPropertyOp32
 70
     1
102
RTVSPropertyOp33
 70
     1
102
RTVSPropertyOp34
 70
     1
102
RTVSPropertyOp35
 70
     1
102
RTVSPropertyOp36
 70
     1
102
RTVSPropertyOp37
 70
     1
102
RTVSPropertyOp38
 70
     1
102
RTVSPropertyOp39
 70
     1
102
RTVSPropertyOp40
 70
     1
102
RTVSPropertyOp41
 70
     1
102
RTVSPropertyOp42
 70
     1
102
RTVSPropertyOp43
 70
     1
102
RTVSPropertyOp44
 70
     1
102
RTVSPropertyOp45
 70
     1
102
RTVSPropertyOp46
 70
     1
102
RTVSPropertyOp47
 70
     1
102
RTVSPropertyOp48
 70
     1
102
RTVSPropertyOp49
 70
     1
102
RTVSPropertyOp50
 70
     1
102
RTVSPropertyOp51
 70
     0
102
RTVSPropertyOp52
 70
     0
102
RTVSPropertyOp53
 70
     1
102
RTVSPropertyOp54
 70
     1
102
RTVSPropertyOp55
 70
     1
102
RTVSPropertyOp56
 70
     1
102
RTVSPropertyOp57
 70
     1
102
RTVSPropertyOp58
 70
     1
102
RTVSPropertyOp59
 70
     1
102
RTVSPropertyOp60
 70
     1
102
RTVSPropertyOp61
 70
     1
102
RTVSPropertyOp62
 70
     1
  0
XRECORD
  5
DB99
102
{ACAD_REACTORS
330
DB98
102
}
330
DB98
100
AcDbXrecord
280
     1
102
RTVSPost2010Prop28
280
     0
102
RTVSPost2010PropOp28
 70
     1
102
RTVSPost2010Prop29
280
     1
102
RTVSPost2010PropOp29
 70
     1
102
RTVSPost2010Prop30
280
     1
102
RTVSPost2010PropOp30
 70
     1
102
RTVSPost2010Prop31
280
     0
102
RTVSPost2010PropOp31
 70
     1
102
RTVSPost2010Prop32
280
     0
102
RTVSPost2010PropOp32
 70
     1
102
RTVSPost2010Prop33
280
     0
102
RTVSPost2010PropOp33
 70
     1
102
RTVSPost2010Prop34
280
     0
102
RTVSPost2010PropOp34
 70
     1
102
RTVSPost2010Prop35
280
     0
102
RTVSPost2010PropOp35
 70
     1
102
RTVSPost2010Prop36
280
     0
102
RTVSPost2010PropOp36
 70
     1
102
RTVSPost2010Prop37
 90
       50
102
RTVSPost2010PropOp37
 70
     1
102
RTVSPost2010Prop38
140
0.0
102
RTVSPost2010PropOp38
 70
     1
102
RTVSPost2010Prop39
140
1.0
102
RTVSPost2010PropOp39
 70
     1
102
RTVSPost2010Prop40
 90
        0
102
RTVSPost2010PropOp40
 70
     1
102
RTVSPost2010Prop41ColorIndex
 90
       18
102
RTVSPost2010Prop41ColorRGB
 90
        0
102
RTVSPost2010PropOp41
 70
     1
102
RTVSPost2010Prop42
 90
       50
102
RTVSPost2010PropOp42
 70
     1
102
RTVSPost2010Prop43
 90
        3
102
RTVSPost2010PropOp43
 70
     1
102
RTVSPost2010Prop44ColorIndex
 90
        5
102
RTVSPost2010Prop44ColorRGB
 90
      255
102
RTVSPost2010PropOp44
 70
     1
102
RTVSPost2010Prop45
280
     0
102
RTVSPost2010PropOp45
 70
     1
102
RTVSPost2010Prop46
 90
       50
102
RTVSPost2010PropOp46
 70
     1
102
RTVSPost2010Prop47
 90
       50
102
RTVSPost2010PropOp47
 70
     1
102
RTVSPost2010Prop48
 90
       50
102
RTVSPost2010PropOp48
 70
     1
102
RTVSPost2010Prop49
280
     0
102
RTVSPost2010PropOp49
 70
     1
102
RTVSPost2010Prop50
 90
       50
102
RTVSPost2010PropOp50
 70
     1
102
RTVSPost2010Prop51ColorIndex
 90
      256
102
RTVSPost2010Prop51ColorRGB
 90
-16777216
102
RTVSPost2010PropOp51
 70
     0
102
RTVSPost2010Prop52
140
1.0
102
RTVSPost2010PropOp52
 70
     0
102
RTVSPost2010Prop53
 90
        2
102
RTVSPost2010PropOp53
 70
     1
102
RTVSPost2010Prop54
  1
strokes_ogs.tif
102
RTVSPost2010PropOp54
 70
     1
102
RTVSPost2010Prop55
280
     0
102
RTVSPost2010PropOp55
 70
     1
102
RTVSPost2010Prop56
140
1.0
102
RTVSPost2010PropOp56
 70
     1
102
RTVSPost2010Prop57
140
1.0
102
RTVSPost2010PropOp57
 70
     1
102
RTVSPropertyOp0
 70
     1
102
RTVSPropertyOp1
 70
     1
102
RTVSPropertyOp2
 70
     1
102
RTVSPropertyOp3
 70
     1
102
RTVSPropertyOp4
 70
     1
102
RTVSPropertyOp5
 70
     1
102
RTVSPropertyOp6
 70
     1
102
RTVSPropertyOp7
 70
     1
102
RTVSPropertyOp8
 70
     1
102
RTVSPropertyOp9
 70
     1
102
RTVSPropertyOp10
 70
     1
102
RTVSPropertyOp11
 70
     1
102
RTVSPropertyOp12
 70
     1
102
RTVSPropertyOp13
 70
     1
102
RTVSPropertyOp14
 70
     1
102
RTVSPropertyOp15
 70
     1
102
RTVSPropertyOp16
 70
     1
102
RTVSPropertyOp17
 70
     1
102
RTVSPropertyOp18
 70
     1
102
RTVSPropertyOp19
 70
     1
102
RTVSPropertyOp20
 70
     1
102
RTVSPropertyOp21
 70
     1
102
RTVSPropertyOp22
 70
     1
102
RTVSPropertyOp23
 70
     1
102
RTVSPropertyOp24
 70
     1
102
RTVSPropertyOp25
 70
     1
102
RTVSPropertyOp26
 70
     1
102
RTVSPropertyOp27
 70
     1
102
RTVSPropertyOp28
 70
     1
102
RTVSPropertyOp29
 70
     1
102
RTVSPropertyOp30
 70
     1
102
RTVSPropertyOp31
 70
     1
102
RTVSPropertyOp32
 70
     1
102
RTVSPropertyOp33
 70
     1
102
RTVSPropertyOp34
 70
     1
102
RTVSPropertyOp35
 70
     1
102
RTVSPropertyOp36
 70
     1
102
RTVSPropertyOp37
 70
     1
102
RTVSPropertyOp38
 70
     1
102
RTVSPropertyOp39
 70
     1
102
RTVSPropertyOp40
 70
     1
102
RTVSPropertyOp41
 70
     1
102
RTVSPropertyOp42
 70
     1
102
RTVSPropertyOp43
 70
     1
102
RTVSPropertyOp44
 70
     1
102
RTVSPropertyOp45
 70
     1
102
RTVSPropertyOp46
 70
     1
102
RTVSPropertyOp47
 70
     1
102
RTVSPropertyOp48
 70
     1
102
RTVSPropertyOp49
 70
     1
102
RTVSPropertyOp50
 70
     1
102
RTVSPropertyOp51
 70
     0
102
RTVSPropertyOp52
 70
     0
102
RTVSPropertyOp53
 70
     1
102
RTVSPropertyOp54
 70
     1
102
RTVSPropertyOp55
 70
     1
102
RTVSPropertyOp56
 70
     1
102
RTVSPropertyOp57
 70
     1
102
RTVSPropertyOp58
 70
     1
102
RTVSPropertyOp59
 70
     1
102
RTVSPropertyOp60
 70
     1
102
RTVSPropertyOp61
 70
     1
102
RTVSPropertyOp62
 70
     1
  0
XRECORD
  5
DB9B
102
{ACAD_REACTORS
330
DB9A
102
}
330
DB9A
100
AcDbXrecord
280
     1
102
RTVSPost2010Prop28
280
     0
102
RTVSPost2010PropOp28
 70
     1
102
RTVSPost2010Prop29
280
     1
102
RTVSPost2010PropOp29
 70
     1
102
RTVSPost2010Prop30
280
     1
102
RTVSPost2010PropOp30
 70
     1
102
RTVSPost2010Prop31
280
     0
102
RTVSPost2010PropOp31
 70
     1
102
RTVSPost2010Prop32
280
     0
102
RTVSPost2010PropOp32
 70
     1
102
RTVSPost2010Prop33
280
     0
102
RTVSPost2010PropOp33
 70
     1
102
RTVSPost2010Prop34
280
     0
102
RTVSPost2010PropOp34
 70
     1
102
RTVSPost2010Prop35
280
     0
102
RTVSPost2010PropOp35
 70
     1
102
RTVSPost2010Prop36
280
     0
102
RTVSPost2010PropOp36
 70
     1
102
RTVSPost2010Prop37
 90
       50
102
RTVSPost2010PropOp37
 70
     1
102
RTVSPost2010Prop38
140
0.0
102
RTVSPost2010PropOp38
 70
     1
102
RTVSPost2010Prop39
140
1.0
102
RTVSPost2010PropOp39
 70
     1
102
RTVSPost2010Prop40
 90
        0
102
RTVSPost2010PropOp40
 70
     1
102
RTVSPost2010Prop41ColorIndex
 90
       18
102
RTVSPost2010Prop41ColorRGB
 90
        0
102
RTVSPost2010PropOp41
 70
     1
102
RTVSPost2010Prop42
 90
       50
102
RTVSPost2010PropOp42
 70
     1
102
RTVSPost2010Prop43
 90
        3
102
RTVSPost2010PropOp43
 70
     1
102
RTVSPost2010Prop44ColorIndex
 90
        5
102
RTVSPost2010Prop44ColorRGB
 90
      255
102
RTVSPost2010PropOp44
 70
     1
102
RTVSPost2010Prop45
280
     0
102
RTVSPost2010PropOp45
 70
     1
102
RTVSPost2010Prop46
 90
       50
102
RTVSPost2010PropOp46
 70
     1
102
RTVSPost2010Prop47
 90
       50
102
RTVSPost2010PropOp47
 70
     1
102
RTVSPost2010Prop48
 90
       50
102
RTVSPost2010PropOp48
 70
     1
102
RTVSPost2010Prop49
280
     0
102
RTVSPost2010PropOp49
 70
     1
102
RTVSPost2010Prop50
 90
       50
102
RTVSPost2010PropOp50
 70
     1
102
RTVSPost2010Prop51ColorIndex
 90
      256
102
RTVSPost2010Prop51ColorRGB
 90
-16777216
102
RTVSPost2010PropOp51
 70
     0
102
RTVSPost2010Prop52
140
1.0
102
RTVSPost2010PropOp52
 70
     0
102
RTVSPost2010Prop53
 90
        2
102
RTVSPost2010PropOp53
 70
     1
102
RTVSPost2010Prop54
  1
strokes_ogs.tif
102
RTVSPost2010PropOp54
 70
     1
102
RTVSPost2010Prop55
280
     0
102
RTVSPost2010PropOp55
 70
     1
102
RTVSPost2010Prop56
140
1.0
102
RTVSPost2010PropOp56
 70
     1
102
RTVSPost2010Prop57
140
1.0
102
RTVSPost2010PropOp57
 70
     1
102
RTVSPropertyOp0
 70
     1
102
RTVSPropertyOp1
 70
     1
102
RTVSPropertyOp2
 70
     1
102
RTVSPropertyOp3
 70
     1
102
RTVSPropertyOp4
 70
     1
102
RTVSPropertyOp5
 70
     1
102
RTVSPropertyOp6
 70
     1
102
RTVSPropertyOp7
 70
     1
102
RTVSPropertyOp8
 70
     1
102
RTVSPropertyOp9
 70
     1
102
RTVSPropertyOp10
 70
     1
102
RTVSPropertyOp11
 70
     1
102
RTVSPropertyOp12
 70
     1
102
RTVSPropertyOp13
 70
     1
102
RTVSPropertyOp14
 70
     1
102
RTVSPropertyOp15
 70
     1
102
RTVSPropertyOp16
 70
     1
102
RTVSPropertyOp17
 70
     1
102
RTVSPropertyOp18
 70
     1
102
RTVSPropertyOp19
 70
     1
102
RTVSPropertyOp20
 70
     1
102
RTVSPropertyOp21
 70
     1
102
RTVSPropertyOp22
 70
     1
102
RTVSPropertyOp23
 70
     1
102
RTVSPropertyOp24
 70
     1
102
RTVSPropertyOp25
 70
     1
102
RTVSPropertyOp26
 70
     1
102
RTVSPropertyOp27
 70
     1
102
RTVSPropertyOp28
 70
     1
102
RTVSPropertyOp29
 70
     1
102
RTVSPropertyOp30
 70
     1
102
RTVSPropertyOp31
 70
     1
102
RTVSPropertyOp32
 70
     1
102
RTVSPropertyOp33
 70
     1
102
RTVSPropertyOp34
 70
     1
102
RTVSPropertyOp35
 70
     1
102
RTVSPropertyOp36
 70
     1
102
RTVSPropertyOp37
 70
     1
102
RTVSPropertyOp38
 70
     1
102
RTVSPropertyOp39
 70
     1
102
RTVSPropertyOp40
 70
     1
102
RTVSPropertyOp41
 70
     1
102
RTVSPropertyOp42
 70
     1
102
RTVSPropertyOp43
 70
     1
102
RTVSPropertyOp44
 70
     1
102
RTVSPropertyOp45
 70
     1
102
RTVSPropertyOp46
 70
     1
102
RTVSPropertyOp47
 70
     1
102
RTVSPropertyOp48
 70
     1
102
RTVSPropertyOp49
 70
     1
102
RTVSPropertyOp50
 70
     1
102
RTVSPropertyOp51
 70
     0
102
RTVSPropertyOp52
 70
     0
102
RTVSPropertyOp53
 70
     1
102
RTVSPropertyOp54
 70
     1
102
RTVSPropertyOp55
 70
     1
102
RTVSPropertyOp56
 70
     1
102
RTVSPropertyOp57
 70
     1
102
RTVSPropertyOp58
 70
     1
102
RTVSPropertyOp59
 70
     1
102
RTVSPropertyOp60
 70
     1
102
RTVSPropertyOp61
 70
     1
102
RTVSPropertyOp62
 70
     1
  0
XRECORD
  5
DB9D
102
{ACAD_REACTORS
330
DB9C
102
}
330
DB9C
100
AcDbXrecord
280
     1
102
RTVSPost2010Prop28
280
     0
102
RTVSPost2010PropOp28
 70
     1
102
RTVSPost2010Prop29
280
     1
102
RTVSPost2010PropOp29
 70
     1
102
RTVSPost2010Prop30
280
     1
102
RTVSPost2010PropOp30
 70
     1
102
RTVSPost2010Prop31
280
     0
102
RTVSPost2010PropOp31
 70
     1
102
RTVSPost2010Prop32
280
     0
102
RTVSPost2010PropOp32
 70
     1
102
RTVSPost2010Prop33
280
     0
102
RTVSPost2010PropOp33
 70
     1
102
RTVSPost2010Prop34
280
     0
102
RTVSPost2010PropOp34
 70
     1
102
RTVSPost2010Prop35
280
     0
102
RTVSPost2010PropOp35
 70
     1
102
RTVSPost2010Prop36
280
     0
102
RTVSPost2010PropOp36
 70
     1
102
RTVSPost2010Prop37
 90
       50
102
RTVSPost2010PropOp37
 70
     1
102
RTVSPost2010Prop38
140
0.0
102
RTVSPost2010PropOp38
 70
     1
102
RTVSPost2010Prop39
140
1.0
102
RTVSPost2010PropOp39
 70
     1
102
RTVSPost2010Prop40
 90
        0
102
RTVSPost2010PropOp40
 70
     1
102
RTVSPost2010Prop41ColorIndex
 90
       18
102
RTVSPost2010Prop41ColorRGB
 90
        0
102
RTVSPost2010PropOp41
 70
     1
102
RTVSPost2010Prop42
 90
       50
102
RTVSPost2010PropOp42
 70
     1
102
RTVSPost2010Prop43
 90
        3
102
RTVSPost2010PropOp43
 70
     1
102
RTVSPost2010Prop44ColorIndex
 90
        5
102
RTVSPost2010Prop44ColorRGB
 90
      255
102
RTVSPost2010PropOp44
 70
     1
102
RTVSPost2010Prop45
280
     0
102
RTVSPost2010PropOp45
 70
     1
102
RTVSPost2010Prop46
 90
       50
102
RTVSPost2010PropOp46
 70
     1
102
RTVSPost2010Prop47
 90
       50
102
RTVSPost2010PropOp47
 70
     1
102
RTVSPost2010Prop48
 90
       50
102
RTVSPost2010PropOp48
 70
     1
102
RTVSPost2010Prop49
280
     0
102
RTVSPost2010PropOp49
 70
     1
102
RTVSPost2010Prop50
 90
       50
102
RTVSPost2010PropOp50
 70
     1
102
RTVSPost2010Prop51ColorIndex
 90
      256
102
RTVSPost2010Prop51ColorRGB
 90
-16777216
102
RTVSPost2010PropOp51
 70
     0
102
RTVSPost2010Prop52
140
1.0
102
RTVSPost2010PropOp52
 70
     0
102
RTVSPost2010Prop53
 90
        2
102
RTVSPost2010PropOp53
 70
     1
102
RTVSPost2010Prop54
  1
strokes_ogs.tif
102
RTVSPost2010PropOp54
 70
     1
102
RTVSPost2010Prop55
280
     0
102
RTVSPost2010PropOp55
 70
     1
102
RTVSPost2010Prop56
140
1.0
102
RTVSPost2010PropOp56
 70
     1
102
RTVSPost2010Prop57
140
1.0
102
RTVSPost2010PropOp57
 70
     1
102
RTVSPropertyOp0
 70
     1
102
RTVSPropertyOp1
 70
     1
102
RTVSPropertyOp2
 70
     1
102
RTVSPropertyOp3
 70
     1
102
RTVSPropertyOp4
 70
     1
102
RTVSPropertyOp5
 70
     1
102
RTVSPropertyOp6
 70
     1
102
RTVSPropertyOp7
 70
     1
102
RTVSPropertyOp8
 70
     1
102
RTVSPropertyOp9
 70
     1
102
RTVSPropertyOp10
 70
     1
102
RTVSPropertyOp11
 70
     1
102
RTVSPropertyOp12
 70
     1
102
RTVSPropertyOp13
 70
     1
102
RTVSPropertyOp14
 70
     1
102
RTVSPropertyOp15
 70
     1
102
RTVSPropertyOp16
 70
     1
102
RTVSPropertyOp17
 70
     1
102
RTVSPropertyOp18
 70
     1
102
RTVSPropertyOp19
 70
     1
102
RTVSPropertyOp20
 70
     1
102
RTVSPropertyOp21
 70
     1
102
RTVSPropertyOp22
 70
     1
102
RTVSPropertyOp23
 70
     1
102
RTVSPropertyOp24
 70
     1
102
RTVSPropertyOp25
 70
     1
102
RTVSPropertyOp26
 70
     1
102
RTVSPropertyOp27
 70
     1
102
RTVSPropertyOp28
 70
     1
102
RTVSPropertyOp29
 70
     1
102
RTVSPropertyOp30
 70
     1
102
RTVSPropertyOp31
 70
     1
102
RTVSPropertyOp32
 70
     1
102
RTVSPropertyOp33
 70
     1
102
RTVSPropertyOp34
 70
     1
102
RTVSPropertyOp35
 70
     1
102
RTVSPropertyOp36
 70
     1
102
RTVSPropertyOp37
 70
     1
102
RTVSPropertyOp38
 70
     1
102
RTVSPropertyOp39
 70
     1
102
RTVSPropertyOp40
 70
     1
102
RTVSPropertyOp41
 70
     1
102
RTVSPropertyOp42
 70
     1
102
RTVSPropertyOp43
 70
     1
102
RTVSPropertyOp44
 70
     1
102
RTVSPropertyOp45
 70
     1
102
RTVSPropertyOp46
 70
     1
102
RTVSPropertyOp47
 70
     1
102
RTVSPropertyOp48
 70
     1
102
RTVSPropertyOp49
 70
     1
102
RTVSPropertyOp50
 70
     1
102
RTVSPropertyOp51
 70
     0
102
RTVSPropertyOp52
 70
     0
102
RTVSPropertyOp53
 70
     1
102
RTVSPropertyOp54
 70
     1
102
RTVSPropertyOp55
 70
     1
102
RTVSPropertyOp56
 70
     1
102
RTVSPropertyOp57
 70
     1
102
RTVSPropertyOp58
 70
     1
102
RTVSPropertyOp59
 70
     1
102
RTVSPropertyOp60
 70
     1
102
RTVSPropertyOp61
 70
     1
102
RTVSPropertyOp62
 70
     1
  0
XRECORD
  5
DB9F
102
{ACAD_REACTORS
330
DB9E
102
}
330
DB9E
100
AcDbXrecord
280
     1
102
RTVSPost2010Prop28
280
     0
102
RTVSPost2010PropOp28
 70
     1
102
RTVSPost2010Prop29
280
     1
102
RTVSPost2010PropOp29
 70
     1
102
RTVSPost2010Prop30
280
     1
102
RTVSPost2010PropOp30
 70
     1
102
RTVSPost2010Prop31
280
     0
102
RTVSPost2010PropOp31
 70
     1
102
RTVSPost2010Prop32
280
     0
102
RTVSPost2010PropOp32
 70
     1
102
RTVSPost2010Prop33
280
     0
102
RTVSPost2010PropOp33
 70
     1
102
RTVSPost2010Prop34
280
     0
102
RTVSPost2010PropOp34
 70
     1
102
RTVSPost2010Prop35
280
     0
102
RTVSPost2010PropOp35
 70
     1
102
RTVSPost2010Prop36
280
     0
102
RTVSPost2010PropOp36
 70
     1
102
RTVSPost2010Prop37
 90
       50
102
RTVSPost2010PropOp37
 70
     1
102
RTVSPost2010Prop38
140
0.0
102
RTVSPost2010PropOp38
 70
     1
102
RTVSPost2010Prop39
140
1.0
102
RTVSPost2010PropOp39
 70
     1
102
RTVSPost2010Prop40
 90
        0
102
RTVSPost2010PropOp40
 70
     1
102
RTVSPost2010Prop41ColorIndex
 90
       18
102
RTVSPost2010Prop41ColorRGB
 90
        0
102
RTVSPost2010PropOp41
 70
     1
102
RTVSPost2010Prop42
 90
       50
102
RTVSPost2010PropOp42
 70
     1
102
RTVSPost2010Prop43
 90
        3
102
RTVSPost2010PropOp43
 70
     1
102
RTVSPost2010Prop44ColorIndex
 90
        5
102
RTVSPost2010Prop44ColorRGB
 90
      255
102
RTVSPost2010PropOp44
 70
     1
102
RTVSPost2010Prop45
280
     0
102
RTVSPost2010PropOp45
 70
     1
102
RTVSPost2010Prop46
 90
       50
102
RTVSPost2010PropOp46
 70
     1
102
RTVSPost2010Prop47
 90
       50
102
RTVSPost2010PropOp47
 70
     1
102
RTVSPost2010Prop48
 90
       50
102
RTVSPost2010PropOp48
 70
     1
102
RTVSPost2010Prop49
280
     0
102
RTVSPost2010PropOp49
 70
     1
102
RTVSPost2010Prop50
 90
       50
102
RTVSPost2010PropOp50
 70
     1
102
RTVSPost2010Prop51ColorIndex
 90
      256
102
RTVSPost2010Prop51ColorRGB
 90
-16777216
102
RTVSPost2010PropOp51
 70
     0
102
RTVSPost2010Prop52
140
1.0
102
RTVSPost2010PropOp52
 70
     0
102
RTVSPost2010Prop53
 90
        2
102
RTVSPost2010PropOp53
 70
     1
102
RTVSPost2010Prop54
  1
strokes_ogs.tif
102
RTVSPost2010PropOp54
 70
     1
102
RTVSPost2010Prop55
280
     0
102
RTVSPost2010PropOp55
 70
     1
102
RTVSPost2010Prop56
140
1.0
102
RTVSPost2010PropOp56
 70
     1
102
RTVSPost2010Prop57
140
1.0
102
RTVSPost2010PropOp57
 70
     1
102
RTVSPropertyOp0
 70
     1
102
RTVSPropertyOp1
 70
     1
102
RTVSPropertyOp2
 70
     1
102
RTVSPropertyOp3
 70
     1
102
RTVSPropertyOp4
 70
     1
102
RTVSPropertyOp5
 70
     1
102
RTVSPropertyOp6
 70
     1
102
RTVSPropertyOp7
 70
     1
102
RTVSPropertyOp8
 70
     1
102
RTVSPropertyOp9
 70
     1
102
RTVSPropertyOp10
 70
     1
102
RTVSPropertyOp11
 70
     1
102
RTVSPropertyOp12
 70
     1
102
RTVSPropertyOp13
 70
     1
102
RTVSPropertyOp14
 70
     1
102
RTVSPropertyOp15
 70
     1
102
RTVSPropertyOp16
 70
     1
102
RTVSPropertyOp17
 70
     1
102
RTVSPropertyOp18
 70
     1
102
RTVSPropertyOp19
 70
     1
102
RTVSPropertyOp20
 70
     1
102
RTVSPropertyOp21
 70
     1
102
RTVSPropertyOp22
 70
     1
102
RTVSPropertyOp23
 70
     1
102
RTVSPropertyOp24
 70
     1
102
RTVSPropertyOp25
 70
     1
102
RTVSPropertyOp26
 70
     1
102
RTVSPropertyOp27
 70
     1
102
RTVSPropertyOp28
 70
     1
102
RTVSPropertyOp29
 70
     1
102
RTVSPropertyOp30
 70
     1
102
RTVSPropertyOp31
 70
     1
102
RTVSPropertyOp32
 70
     1
102
RTVSPropertyOp33
 70
     1
102
RTVSPropertyOp34
 70
     1
102
RTVSPropertyOp35
 70
     1
102
RTVSPropertyOp36
 70
     1
102
RTVSPropertyOp37
 70
     1
102
RTVSPropertyOp38
 70
     1
102
RTVSPropertyOp39
 70
     1
102
RTVSPropertyOp40
 70
     1
102
RTVSPropertyOp41
 70
     1
102
RTVSPropertyOp42
 70
     1
102
RTVSPropertyOp43
 70
     1
102
RTVSPropertyOp44
 70
     1
102
RTVSPropertyOp45
 70
     1
102
RTVSPropertyOp46
 70
     1
102
RTVSPropertyOp47
 70
     1
102
RTVSPropertyOp48
 70
     1
102
RTVSPropertyOp49
 70
     1
102
RTVSPropertyOp50
 70
     1
102
RTVSPropertyOp51
 70
     0
102
RTVSPropertyOp52
 70
     0
102
RTVSPropertyOp53
 70
     1
102
RTVSPropertyOp54
 70
     1
102
RTVSPropertyOp55
 70
     1
102
RTVSPropertyOp56
 70
     1
102
RTVSPropertyOp57
 70
     1
102
RTVSPropertyOp58
 70
     1
102
RTVSPropertyOp59
 70
     1
102
RTVSPropertyOp60
 70
     1
102
RTVSPropertyOp61
 70
     1
102
RTVSPropertyOp62
 70
     1
  0
XRECORD
  5
DBA7
102
{ACAD_REACTORS
330
DBA6
102
}
330
DBA6
100
AcDbXrecord
280
     1
102
RTVSPost2010Prop28
280
     0
102
RTVSPost2010PropOp28
 70
     1
102
RTVSPost2010Prop29
280
     1
102
RTVSPost2010PropOp29
 70
     1
102
RTVSPost2010Prop30
280
     1
102
RTVSPost2010PropOp30
 70
     1
102
RTVSPost2010Prop31
280
     0
102
RTVSPost2010PropOp31
 70
     1
102
RTVSPost2010Prop32
280
     0
102
RTVSPost2010PropOp32
 70
     1
102
RTVSPost2010Prop33
280
     0
102
RTVSPost2010PropOp33
 70
     1
102
RTVSPost2010Prop34
280
     0
102
RTVSPost2010PropOp34
 70
     1
102
RTVSPost2010Prop35
280
     0
102
RTVSPost2010PropOp35
 70
     1
102
RTVSPost2010Prop36
280
     0
102
RTVSPost2010PropOp36
 70
     1
102
RTVSPost2010Prop37
 90
       50
102
RTVSPost2010PropOp37
 70
     1
102
RTVSPost2010Prop38
140
0.0
102
RTVSPost2010PropOp38
 70
     1
102
RTVSPost2010Prop39
140
1.0
102
RTVSPost2010PropOp39
 70
     1
102
RTVSPost2010Prop40
 90
        0
102
RTVSPost2010PropOp40
 70
     1
102
RTVSPost2010Prop41ColorIndex
 90
       18
102
RTVSPost2010Prop41ColorRGB
 90
        0
102
RTVSPost2010PropOp41
 70
     1
102
RTVSPost2010Prop42
 90
       50
102
RTVSPost2010PropOp42
 70
     1
102
RTVSPost2010Prop43
 90
        3
102
RTVSPost2010PropOp43
 70
     1
102
RTVSPost2010Prop44ColorIndex
 90
        5
102
RTVSPost2010Prop44ColorRGB
 90
      255
102
RTVSPost2010PropOp44
 70
     1
102
RTVSPost2010Prop45
280
     0
102
RTVSPost2010PropOp45
 70
     1
102
RTVSPost2010Prop46
 90
       50
102
RTVSPost2010PropOp46
 70
     1
102
RTVSPost2010Prop47
 90
       50
102
RTVSPost2010PropOp47
 70
     1
102
RTVSPost2010Prop48
 90
       50
102
RTVSPost2010PropOp48
 70
     1
102
RTVSPost2010Prop49
280
     0
102
RTVSPost2010PropOp49
 70
     1
102
RTVSPost2010Prop50
 90
       50
102
RTVSPost2010PropOp50
 70
     1
102
RTVSPost2010Prop51ColorIndex
 90
      256
102
RTVSPost2010Prop51ColorRGB
 90
-16777216
102
RTVSPost2010PropOp51
 70
     0
102
RTVSPost2010Prop52
140
1.0
102
RTVSPost2010PropOp52
 70
     0
102
RTVSPost2010Prop53
 90
        2
102
RTVSPost2010PropOp53
 70
     1
102
RTVSPost2010Prop54
  1
strokes_ogs.tif
102
RTVSPost2010PropOp54
 70
     1
102
RTVSPost2010Prop55
280
     0
102
RTVSPost2010PropOp55
 70
     1
102
RTVSPost2010Prop56
140
1.0
102
RTVSPost2010PropOp56
 70
     1
102
RTVSPost2010Prop57
140
1.0
102
RTVSPost2010PropOp57
 70
     1
102
RTVSPropertyOp0
 70
     1
102
RTVSPropertyOp1
 70
     1
102
RTVSPropertyOp2
 70
     1
102
RTVSPropertyOp3
 70
     1
102
RTVSPropertyOp4
 70
     1
102
RTVSPropertyOp5
 70
     1
102
RTVSPropertyOp6
 70
     1
102
RTVSPropertyOp7
 70
     1
102
RTVSPropertyOp8
 70
     1
102
RTVSPropertyOp9
 70
     1
102
RTVSPropertyOp10
 70
     1
102
RTVSPropertyOp11
 70
     1
102
RTVSPropertyOp12
 70
     1
102
RTVSPropertyOp13
 70
     1
102
RTVSPropertyOp14
 70
     1
102
RTVSPropertyOp15
 70
     1
102
RTVSPropertyOp16
 70
     1
102
RTVSPropertyOp17
 70
     1
102
RTVSPropertyOp18
 70
     1
102
RTVSPropertyOp19
 70
     1
102
RTVSPropertyOp20
 70
     1
102
RTVSPropertyOp21
 70
     1
102
RTVSPropertyOp22
 70
     1
102
RTVSPropertyOp23
 70
     1
102
RTVSPropertyOp24
 70
     1
102
RTVSPropertyOp25
 70
     1
102
RTVSPropertyOp26
 70
     1
102
RTVSPropertyOp27
 70
     1
102
RTVSPropertyOp28
 70
     1
102
RTVSPropertyOp29
 70
     1
102
RTVSPropertyOp30
 70
     1
102
RTVSPropertyOp31
 70
     1
102
RTVSPropertyOp32
 70
     1
102
RTVSPropertyOp33
 70
     1
102
RTVSPropertyOp34
 70
     1
102
RTVSPropertyOp35
 70
     1
102
RTVSPropertyOp36
 70
     1
102
RTVSPropertyOp37
 70
     1
102
RTVSPropertyOp38
 70
     1
102
RTVSPropertyOp39
 70
     1
102
RTVSPropertyOp40
 70
     1
102
RTVSPropertyOp41
 70
     1
102
RTVSPropertyOp42
 70
     1
102
RTVSPropertyOp43
 70
     1
102
RTVSPropertyOp44
 70
     1
102
RTVSPropertyOp45
 70
     1
102
RTVSPropertyOp46
 70
     1
102
RTVSPropertyOp47
 70
     1
102
RTVSPropertyOp48
 70
     1
102
RTVSPropertyOp49
 70
     1
102
RTVSPropertyOp50
 70
     1
102
RTVSPropertyOp51
 70
     0
102
RTVSPropertyOp52
 70
     0
102
RTVSPropertyOp53
 70
     1
102
RTVSPropertyOp54
 70
     1
102
RTVSPropertyOp55
 70
     1
102
RTVSPropertyOp56
 70
     1
102
RTVSPropertyOp57
 70
     1
102
RTVSPropertyOp58
 70
     1
102
RTVSPropertyOp59
 70
     1
102
RTVSPropertyOp60
 70
     1
102
RTVSPropertyOp61
 70
     1
102
RTVSPropertyOp62
 70
     1
  0
XRECORD
  5
DBC3
102
{ACAD_REACTORS
330
DBC2
102
}
330
DBC2
100
AcDbXrecord
280
     1
102
RTVSPost2010Prop28
280
     0
102
RTVSPost2010PropOp28
 70
     1
102
RTVSPost2010Prop29
280
     1
102
RTVSPost2010PropOp29
 70
     1
102
RTVSPost2010Prop30
280
     1
102
RTVSPost2010PropOp30
 70
     1
102
RTVSPost2010Prop31
280
     0
102
RTVSPost2010PropOp31
 70
     1
102
RTVSPost2010Prop32
280
     0
102
RTVSPost2010PropOp32
 70
     1
102
RTVSPost2010Prop33
280
     0
102
RTVSPost2010PropOp33
 70
     1
102
RTVSPost2010Prop34
280
     0
102
RTVSPost2010PropOp34
 70
     1
102
RTVSPost2010Prop35
280
     0
102
RTVSPost2010PropOp35
 70
     1
102
RTVSPost2010Prop36
280
     0
102
RTVSPost2010PropOp36
 70
     1
102
RTVSPost2010Prop37
 90
       50
102
RTVSPost2010PropOp37
 70
     0
102
RTVSPost2010Prop38
140
0.0
102
RTVSPost2010PropOp38
 70
     0
102
RTVSPost2010Prop39
140
1.0
102
RTVSPost2010PropOp39
 70
     0
102
RTVSPost2010Prop40
 90
        0
102
RTVSPost2010PropOp40
 70
     0
102
RTVSPost2010Prop41ColorIndex
 90
       18
102
RTVSPost2010Prop41ColorRGB
 90
        0
102
RTVSPost2010PropOp41
 70
     0
102
RTVSPost2010Prop42
 90
       50
102
RTVSPost2010PropOp42
 70
     0
102
RTVSPost2010Prop43
 90
        3
102
RTVSPost2010PropOp43
 70
     0
102
RTVSPost2010Prop44ColorIndex
 90
        5
102
RTVSPost2010Prop44ColorRGB
 90
      255
102
RTVSPost2010PropOp44
 70
     0
102
RTVSPost2010Prop45
280
     0
102
RTVSPost2010PropOp45
 70
     1
102
RTVSPost2010Prop46
 90
       50
102
RTVSPost2010PropOp46
 70
     0
102
RTVSPost2010Prop47
 90
       50
102
RTVSPost2010PropOp47
 70
     0
102
RTVSPost2010Prop48
 90
       50
102
RTVSPost2010PropOp48
 70
     0
102
RTVSPost2010Prop49
280
     0
102
RTVSPost2010PropOp49
 70
     1
102
RTVSPost2010Prop50
 90
       50
102
RTVSPost2010PropOp50
 70
     0
102
RTVSPost2010Prop51ColorIndex
 90
      256
102
RTVSPost2010Prop51ColorRGB
 90
-16777216
102
RTVSPost2010PropOp51
 70
     0
102
RTVSPost2010Prop52
140
1.0
102
RTVSPost2010PropOp52
 70
     0
102
RTVSPost2010Prop53
 90
        2
102
RTVSPost2010PropOp53
 70
     0
102
RTVSPost2010Prop54
  1
strokes_ogs.tif
102
RTVSPost2010PropOp54
 70
     0
102
RTVSPost2010Prop55
280
     0
102
RTVSPost2010PropOp55
 70
     1
102
RTVSPost2010Prop56
140
1.0
102
RTVSPost2010PropOp56
 70
     0
102
RTVSPost2010Prop57
140
1.0
102
RTVSPost2010PropOp57
 70
     0
102
RTVSPropertyOp0
 70
     0
102
RTVSPropertyOp1
 70
     0
102
RTVSPropertyOp2
 70
     0
102
RTVSPropertyOp3
 70
     0
102
RTVSPropertyOp4
 70
     0
102
RTVSPropertyOp5
 70
     0
102
RTVSPropertyOp6
 70
     0
102
RTVSPropertyOp7
 70
     0
102
RTVSPropertyOp8
 70
     0
102
RTVSPropertyOp9
 70
     0
102
RTVSPropertyOp10
 70
     0
102
RTVSPropertyOp11
 70
     0
102
RTVSPropertyOp12
 70
     0
102
RTVSPropertyOp13
 70
     0
102
RTVSPropertyOp14
 70
     2
102
RTVSPropertyOp15
 70
     0
102
RTVSPropertyOp16
 70
     0
102
RTVSPropertyOp17
 70
     0
102
RTVSPropertyOp18
 70
     0
102
RTVSPropertyOp19
 70
     0
102
RTVSPropertyOp20
 70
     0
102
RTVSPropertyOp21
 70
     0
102
RTVSPropertyOp22
 70
     0
102
RTVSPropertyOp23
 70
     0
102
RTVSPropertyOp24
 70
     0
102
RTVSPropertyOp25
 70
     0
102
RTVSPropertyOp26
 70
     0
102
RTVSPropertyOp27
 70
     0
102
RTVSPropertyOp28
 70
     1
102
RTVSPropertyOp29
 70
     1
102
RTVSPropertyOp30
 70
     1
102
RTVSPropertyOp31
 70
     1
102
RTVSPropertyOp32
 70
     1
102
RTVSPropertyOp33
 70
     1
102
RTVSPropertyOp34
 70
     1
102
RTVSPropertyOp35
 70
     1
102
RTVSPropertyOp36
 70
     1
102
RTVSPropertyOp37
 70
     0
102
RTVSPropertyOp38
 70
     0
102
RTVSPropertyOp39
 70
     0
102
RTVSPropertyOp40
 70
     0
102
RTVSPropertyOp41
 70
     0
102
RTVSPropertyOp42
 70
     0
102
RTVSPropertyOp43
 70
     0
102
RTVSPropertyOp44
 70
     0
102
RTVSPropertyOp45
 70
     1
102
RTVSPropertyOp46
 70
     0
102
RTVSPropertyOp47
 70
     0
102
RTVSPropertyOp48
 70
     0
102
RTVSPropertyOp49
 70
     1
102
RTVSPropertyOp50
 70
     0
102
RTVSPropertyOp51
 70
     0
102
RTVSPropertyOp52
 70
     0
102
RTVSPropertyOp53
 70
     0
102
RTVSPropertyOp54
 70
     0
102
RTVSPropertyOp55
 70
     1
102
RTVSPropertyOp56
 70
     0
102
RTVSPropertyOp57
 70
     0
102
RTVSPropertyOp58
 70
     0
102
RTVSPropertyOp59
 70
     0
102
RTVSPropertyOp60
 70
     0
102
RTVSPropertyOp61
 70
     0
102
RTVSPropertyOp62
 70
     0
  0
XRECORD
  5
DBB3
102
{ACAD_REACTORS
330
DBB2
102
}
330
DBB2
100
AcDbXrecord
280
     1
102
RTVSPost2010Prop28
280
     0
102
RTVSPost2010PropOp28
 70
     1
102
RTVSPost2010Prop29
280
     1
102
RTVSPost2010PropOp29
 70
     1
102
RTVSPost2010Prop30
280
     1
102
RTVSPost2010PropOp30
 70
     1
102
RTVSPost2010Prop31
280
     0
102
RTVSPost2010PropOp31
 70
     1
102
RTVSPost2010Prop32
280
     0
102
RTVSPost2010PropOp32
 70
     1
102
RTVSPost2010Prop33
280
     0
102
RTVSPost2010PropOp33
 70
     1
102
RTVSPost2010Prop34
280
     0
102
RTVSPost2010PropOp34
 70
     1
102
RTVSPost2010Prop35
280
     0
102
RTVSPost2010PropOp35
 70
     1
102
RTVSPost2010Prop36
280
     0
102
RTVSPost2010PropOp36
 70
     1
102
RTVSPost2010Prop37
 90
       50
102
RTVSPost2010PropOp37
 70
     1
102
RTVSPost2010Prop38
140
0.0
102
RTVSPost2010PropOp38
 70
     1
102
RTVSPost2010Prop39
140
1.0
102
RTVSPost2010PropOp39
 70
     1
102
RTVSPost2010Prop40
 90
        0
102
RTVSPost2010PropOp40
 70
     1
102
RTVSPost2010Prop41ColorIndex
 90
       18
102
RTVSPost2010Prop41ColorRGB
 90
        0
102
RTVSPost2010PropOp41
 70
     1
102
RTVSPost2010Prop42
 90
       50
102
RTVSPost2010PropOp42
 70
     1
102
RTVSPost2010Prop43
 90
        3
102
RTVSPost2010PropOp43
 70
     1
102
RTVSPost2010Prop44ColorIndex
 90
        5
102
RTVSPost2010Prop44ColorRGB
 90
      255
102
RTVSPost2010PropOp44
 70
     1
102
RTVSPost2010Prop45
280
     0
102
RTVSPost2010PropOp45
 70
     1
102
RTVSPost2010Prop46
 90
       50
102
RTVSPost2010PropOp46
 70
     1
102
RTVSPost2010Prop47
 90
       50
102
RTVSPost2010PropOp47
 70
     1
102
RTVSPost2010Prop48
 90
       50
102
RTVSPost2010PropOp48
 70
     1
102
RTVSPost2010Prop49
280
     0
102
RTVSPost2010PropOp49
 70
     1
102
RTVSPost2010Prop50
 90
       50
102
RTVSPost2010PropOp50
 70
     1
102
RTVSPost2010Prop51ColorIndex
 90
      256
102
RTVSPost2010Prop51ColorRGB
 90
-16777216
102
RTVSPost2010PropOp51
 70
     0
102
RTVSPost2010Prop52
140
1.0
102
RTVSPost2010PropOp52
 70
     0
102
RTVSPost2010Prop53
 90
        2
102
RTVSPost2010PropOp53
 70
     1
102
RTVSPost2010Prop54
  1
strokes_ogs.tif
102
RTVSPost2010PropOp54
 70
     1
102
RTVSPost2010Prop55
280
     0
102
RTVSPost2010PropOp55
 70
     1
102
RTVSPost2010Prop56
140
1.0
102
RTVSPost2010PropOp56
 70
     1
102
RTVSPost2010Prop57
140
1.0
102
RTVSPost2010PropOp57
 70
     1
102
RTVSPropertyOp0
 70
     1
102
RTVSPropertyOp1
 70
     1
102
RTVSPropertyOp2
 70
     1
102
RTVSPropertyOp3
 70
     1
102
RTVSPropertyOp4
 70
     1
102
RTVSPropertyOp5
 70
     1
102
RTVSPropertyOp6
 70
     1
102
RTVSPropertyOp7
 70
     1
102
RTVSPropertyOp8
 70
     1
102
RTVSPropertyOp9
 70
     1
102
RTVSPropertyOp10
 70
     1
102
RTVSPropertyOp11
 70
     1
102
RTVSPropertyOp12
 70
     1
102
RTVSPropertyOp13
 70
     1
102
RTVSPropertyOp14
 70
     1
102
RTVSPropertyOp15
 70
     1
102
RTVSPropertyOp16
 70
     1
102
RTVSPropertyOp17
 70
     1
102
RTVSPropertyOp18
 70
     1
102
RTVSPropertyOp19
 70
     1
102
RTVSPropertyOp20
 70
     1
102
RTVSPropertyOp21
 70
     1
102
RTVSPropertyOp22
 70
     1
102
RTVSPropertyOp23
 70
     1
102
RTVSPropertyOp24
 70
     1
102
RTVSPropertyOp25
 70
     1
102
RTVSPropertyOp26
 70
     1
102
RTVSPropertyOp27
 70
     1
102
RTVSPropertyOp28
 70
     1
102
RTVSPropertyOp29
 70
     1
102
RTVSPropertyOp30
 70
     1
102
RTVSPropertyOp31
 70
     1
102
RTVSPropertyOp32
 70
     1
102
RTVSPropertyOp33
 70
     1
102
RTVSPropertyOp34
 70
     1
102
RTVSPropertyOp35
 70
     1
102
RTVSPropertyOp36
 70
     1
102
RTVSPropertyOp37
 70
     1
102
RTVSPropertyOp38
 70
     1
102
RTVSPropertyOp39
 70
     1
102
RTVSPropertyOp40
 70
     1
102
RTVSPropertyOp41
 70
     1
102
RTVSPropertyOp42
 70
     1
102
RTVSPropertyOp43
 70
     1
102
RTVSPropertyOp44
 70
     1
102
RTVSPropertyOp45
 70
     1
102
RTVSPropertyOp46
 70
     1
102
RTVSPropertyOp47
 70
     1
102
RTVSPropertyOp48
 70
     1
102
RTVSPropertyOp49
 70
     1
102
RTVSPropertyOp50
 70
     1
102
RTVSPropertyOp51
 70
     0
102
RTVSPropertyOp52
 70
     0
102
RTVSPropertyOp53
 70
     1
102
RTVSPropertyOp54
 70
     1
102
RTVSPropertyOp55
 70
     1
102
RTVSPropertyOp56
 70
     1
102
RTVSPropertyOp57
 70
     1
102
RTVSPropertyOp58
 70
     1
102
RTVSPropertyOp59
 70
     1
102
RTVSPropertyOp60
 70
     1
102
RTVSPropertyOp61
 70
     1
102
RTVSPropertyOp62
 70
     1
  0
XRECORD
  5
DBC5
102
{ACAD_REACTORS
330
DBC4
102
}
330
DBC4
100
AcDbXrecord
280
     1
102
RTVSPost2010Prop28
280
     0
102
RTVSPost2010PropOp28
 70
     1
102
RTVSPost2010Prop29
280
     1
102
RTVSPost2010PropOp29
 70
     1
102
RTVSPost2010Prop30
280
     1
102
RTVSPost2010PropOp30
 70
     1
102
RTVSPost2010Prop31
280
     0
102
RTVSPost2010PropOp31
 70
     1
102
RTVSPost2010Prop32
280
     0
102
RTVSPost2010PropOp32
 70
     1
102
RTVSPost2010Prop33
280
     0
102
RTVSPost2010PropOp33
 70
     1
102
RTVSPost2010Prop34
280
     0
102
RTVSPost2010PropOp34
 70
     1
102
RTVSPost2010Prop35
280
     0
102
RTVSPost2010PropOp35
 70
     1
102
RTVSPost2010Prop36
280
     0
102
RTVSPost2010PropOp36
 70
     1
102
RTVSPost2010Prop37
 90
       50
102
RTVSPost2010PropOp37
 70
     0
102
RTVSPost2010Prop38
140
0.0
102
RTVSPost2010PropOp38
 70
     0
102
RTVSPost2010Prop39
140
1.0
102
RTVSPost2010PropOp39
 70
     0
102
RTVSPost2010Prop40
 90
        0
102
RTVSPost2010PropOp40
 70
     0
102
RTVSPost2010Prop41ColorIndex
 90
       18
102
RTVSPost2010Prop41ColorRGB
 90
        0
102
RTVSPost2010PropOp41
 70
     0
102
RTVSPost2010Prop42
 90
       50
102
RTVSPost2010PropOp42
 70
     0
102
RTVSPost2010Prop43
 90
        3
102
RTVSPost2010PropOp43
 70
     0
102
RTVSPost2010Prop44ColorIndex
 90
        5
102
RTVSPost2010Prop44ColorRGB
 90
      255
102
RTVSPost2010PropOp44
 70
     0
102
RTVSPost2010Prop45
280
     0
102
RTVSPost2010PropOp45
 70
     1
102
RTVSPost2010Prop46
 90
       50
102
RTVSPost2010PropOp46
 70
     0
102
RTVSPost2010Prop47
 90
       50
102
RTVSPost2010PropOp47
 70
     0
102
RTVSPost2010Prop48
 90
       50
102
RTVSPost2010PropOp48
 70
     0
102
RTVSPost2010Prop49
280
     0
102
RTVSPost2010PropOp49
 70
     1
102
RTVSPost2010Prop50
 90
       50
102
RTVSPost2010PropOp50
 70
     0
102
RTVSPost2010Prop51ColorIndex
 90
      256
102
RTVSPost2010Prop51ColorRGB
 90
-16777216
102
RTVSPost2010PropOp51
 70
     0
102
RTVSPost2010Prop52
140
1.0
102
RTVSPost2010PropOp52
 70
     0
102
RTVSPost2010Prop53
 90
        2
102
RTVSPost2010PropOp53
 70
     0
102
RTVSPost2010Prop54
  1
strokes_ogs.tif
102
RTVSPost2010PropOp54
 70
     0
102
RTVSPost2010Prop55
280
     0
102
RTVSPost2010PropOp55
 70
     1
102
RTVSPost2010Prop56
140
1.0
102
RTVSPost2010PropOp56
 70
     0
102
RTVSPost2010Prop57
140
1.0
102
RTVSPost2010PropOp57
 70
     0
102
RTVSPropertyOp0
 70
     0
102
RTVSPropertyOp1
 70
     0
102
RTVSPropertyOp2
 70
     0
102
RTVSPropertyOp3
 70
     0
102
RTVSPropertyOp4
 70
     0
102
RTVSPropertyOp5
 70
     0
102
RTVSPropertyOp6
 70
     0
102
RTVSPropertyOp7
 70
     0
102
RTVSPropertyOp8
 70
     0
102
RTVSPropertyOp9
 70
     0
102
RTVSPropertyOp10
 70
     0
102
RTVSPropertyOp11
 70
     0
102
RTVSPropertyOp12
 70
     0
102
RTVSPropertyOp13
 70
     0
102
RTVSPropertyOp14
 70
     2
102
RTVSPropertyOp15
 70
     0
102
RTVSPropertyOp16
 70
     0
102
RTVSPropertyOp17
 70
     0
102
RTVSPropertyOp18
 70
     0
102
RTVSPropertyOp19
 70
     0
102
RTVSPropertyOp20
 70
     0
102
RTVSPropertyOp21
 70
     0
102
RTVSPropertyOp22
 70
     0
102
RTVSPropertyOp23
 70
     0
102
RTVSPropertyOp24
 70
     0
102
RTVSPropertyOp25
 70
     0
102
RTVSPropertyOp26
 70
     0
102
RTVSPropertyOp27
 70
     0
102
RTVSPropertyOp28
 70
     1
102
RTVSPropertyOp29
 70
     1
102
RTVSPropertyOp30
 70
     1
102
RTVSPropertyOp31
 70
     1
102
RTVSPropertyOp32
 70
     1
102
RTVSPropertyOp33
 70
     1
102
RTVSPropertyOp34
 70
     1
102
RTVSPropertyOp35
 70
     1
102
RTVSPropertyOp36
 70
     1
102
RTVSPropertyOp37
 70
     0
102
RTVSPropertyOp38
 70
     0
102
RTVSPropertyOp39
 70
     0
102
RTVSPropertyOp40
 70
     0
102
RTVSPropertyOp41
 70
     0
102
RTVSPropertyOp42
 70
     0
102
RTVSPropertyOp43
 70
     0
102
RTVSPropertyOp44
 70
     0
102
RTVSPropertyOp45
 70
     1
102
RTVSPropertyOp46
 70
     0
102
RTVSPropertyOp47
 70
     0
102
RTVSPropertyOp48
 70
     0
102
RTVSPropertyOp49
 70
     1
102
RTVSPropertyOp50
 70
     0
102
RTVSPropertyOp51
 70
     0
102
RTVSPropertyOp52
 70
     0
102
RTVSPropertyOp53
 70
     0
102
RTVSPropertyOp54
 70
     0
102
RTVSPropertyOp55
 70
     1
102
RTVSPropertyOp56
 70
     0
102
RTVSPropertyOp57
 70
     0
102
RTVSPropertyOp58
 70
     0
102
RTVSPropertyOp59
 70
     0
102
RTVSPropertyOp60
 70
     0
102
RTVSPropertyOp61
 70
     0
102
RTVSPropertyOp62
 70
     0
  0
XRECORD
  5
DBAB
102
{ACAD_REACTORS
330
DBAA
102
}
330
DBAA
100
AcDbXrecord
280
     1
102
RTVSPost2010Prop28
280
     0
102
RTVSPost2010PropOp28
 70
     1
102
RTVSPost2010Prop29
280
     1
102
RTVSPost2010PropOp29
 70
     1
102
RTVSPost2010Prop30
280
     1
102
RTVSPost2010PropOp30
 70
     1
102
RTVSPost2010Prop31
280
     0
102
RTVSPost2010PropOp31
 70
     1
102
RTVSPost2010Prop32
280
     0
102
RTVSPost2010PropOp32
 70
     1
102
RTVSPost2010Prop33
280
     0
102
RTVSPost2010PropOp33
 70
     1
102
RTVSPost2010Prop34
280
     0
102
RTVSPost2010PropOp34
 70
     1
102
RTVSPost2010Prop35
280
     0
102
RTVSPost2010PropOp35
 70
     1
102
RTVSPost2010Prop36
280
     0
102
RTVSPost2010PropOp36
 70
     1
102
RTVSPost2010Prop37
 90
       50
102
RTVSPost2010PropOp37
 70
     1
102
RTVSPost2010Prop38
140
0.0
102
RTVSPost2010PropOp38
 70
     1
102
RTVSPost2010Prop39
140
1.0
102
RTVSPost2010PropOp39
 70
     1
102
RTVSPost2010Prop40
 90
        0
102
RTVSPost2010PropOp40
 70
     1
102
RTVSPost2010Prop41ColorIndex
 90
       18
102
RTVSPost2010Prop41ColorRGB
 90
        0
102
RTVSPost2010PropOp41
 70
     1
102
RTVSPost2010Prop42
 90
       50
102
RTVSPost2010PropOp42
 70
     1
102
RTVSPost2010Prop43
 90
        3
102
RTVSPost2010PropOp43
 70
     1
102
RTVSPost2010Prop44ColorIndex
 90
        5
102
RTVSPost2010Prop44ColorRGB
 90
      255
102
RTVSPost2010PropOp44
 70
     1
102
RTVSPost2010Prop45
280
     0
102
RTVSPost2010PropOp45
 70
     1
102
RTVSPost2010Prop46
 90
       50
102
RTVSPost2010PropOp46
 70
     1
102
RTVSPost2010Prop47
 90
       50
102
RTVSPost2010PropOp47
 70
     1
102
RTVSPost2010Prop48
 90
       50
102
RTVSPost2010PropOp48
 70
     1
102
RTVSPost2010Prop49
280
     0
102
RTVSPost2010PropOp49
 70
     1
102
RTVSPost2010Prop50
 90
       50
102
RTVSPost2010PropOp50
 70
     1
102
RTVSPost2010Prop51ColorIndex
 90
      256
102
RTVSPost2010Prop51ColorRGB
 90
-16777216
102
RTVSPost2010PropOp51
 70
     0
102
RTVSPost2010Prop52
140
1.0
102
RTVSPost2010PropOp52
 70
     0
102
RTVSPost2010Prop53
 90
        2
102
RTVSPost2010PropOp53
 70
     1
102
RTVSPost2010Prop54
  1
strokes_ogs.tif
102
RTVSPost2010PropOp54
 70
     1
102
RTVSPost2010Prop55
280
     0
102
RTVSPost2010PropOp55
 70
     1
102
RTVSPost2010Prop56
140
1.0
102
RTVSPost2010PropOp56
 70
     1
102
RTVSPost2010Prop57
140
1.0
102
RTVSPost2010PropOp57
 70
     1
102
RTVSPropertyOp0
 70
     1
102
RTVSPropertyOp1
 70
     1
102
RTVSPropertyOp2
 70
     1
102
RTVSPropertyOp3
 70
     1
102
RTVSPropertyOp4
 70
     1
102
RTVSPropertyOp5
 70
     1
102
RTVSPropertyOp6
 70
     1
102
RTVSPropertyOp7
 70
     1
102
RTVSPropertyOp8
 70
     1
102
RTVSPropertyOp9
 70
     1
102
RTVSPropertyOp10
 70
     1
102
RTVSPropertyOp11
 70
     1
102
RTVSPropertyOp12
 70
     1
102
RTVSPropertyOp13
 70
     1
102
RTVSPropertyOp14
 70
     1
102
RTVSPropertyOp15
 70
     1
102
RTVSPropertyOp16
 70
     1
102
RTVSPropertyOp17
 70
     1
102
RTVSPropertyOp18
 70
     1
102
RTVSPropertyOp19
 70
     1
102
RTVSPropertyOp20
 70
     1
102
RTVSPropertyOp21
 70
     1
102
RTVSPropertyOp22
 70
     1
102
RTVSPropertyOp23
 70
     1
102
RTVSPropertyOp24
 70
     1
102
RTVSPropertyOp25
 70
     1
102
RTVSPropertyOp26
 70
     1
102
RTVSPropertyOp27
 70
     1
102
RTVSPropertyOp28
 70
     1
102
RTVSPropertyOp29
 70
     1
102
RTVSPropertyOp30
 70
     1
102
RTVSPropertyOp31
 70
     1
102
RTVSPropertyOp32
 70
     1
102
RTVSPropertyOp33
 70
     1
102
RTVSPropertyOp34
 70
     1
102
RTVSPropertyOp35
 70
     1
102
RTVSPropertyOp36
 70
     1
102
RTVSPropertyOp37
 70
     1
102
RTVSPropertyOp38
 70
     1
102
RTVSPropertyOp39
 70
     1
102
RTVSPropertyOp40
 70
     1
102
RTVSPropertyOp41
 70
     1
102
RTVSPropertyOp42
 70
     1
102
RTVSPropertyOp43
 70
     1
102
RTVSPropertyOp44
 70
     1
102
RTVSPropertyOp45
 70
     1
102
RTVSPropertyOp46
 70
     1
102
RTVSPropertyOp47
 70
     1
102
RTVSPropertyOp48
 70
     1
102
RTVSPropertyOp49
 70
     1
102
RTVSPropertyOp50
 70
     1
102
RTVSPropertyOp51
 70
     0
102
RTVSPropertyOp52
 70
     0
102
RTVSPropertyOp53
 70
     1
102
RTVSPropertyOp54
 70
     1
102
RTVSPropertyOp55
 70
     1
102
RTVSPropertyOp56
 70
     1
102
RTVSPropertyOp57
 70
     1
102
RTVSPropertyOp58
 70
     1
102
RTVSPropertyOp59
 70
     1
102
RTVSPropertyOp60
 70
     1
102
RTVSPropertyOp61
 70
     1
102
RTVSPropertyOp62
 70
     1
  0
XRECORD
  5
DBC1
102
{ACAD_REACTORS
330
DBC0
102
}
330
DBC0
100
AcDbXrecord
280
     1
102
RTVSPost2010Prop28
280
     0
102
RTVSPost2010PropOp28
 70
     1
102
RTVSPost2010Prop29
280
     1
102
RTVSPost2010PropOp29
 70
     1
102
RTVSPost2010Prop30
280
     1
102
RTVSPost2010PropOp30
 70
     1
102
RTVSPost2010Prop31
280
     0
102
RTVSPost2010PropOp31
 70
     1
102
RTVSPost2010Prop32
280
     0
102
RTVSPost2010PropOp32
 70
     1
102
RTVSPost2010Prop33
280
     0
102
RTVSPost2010PropOp33
 70
     1
102
RTVSPost2010Prop34
280
     0
102
RTVSPost2010PropOp34
 70
     1
102
RTVSPost2010Prop35
280
     0
102
RTVSPost2010PropOp35
 70
     1
102
RTVSPost2010Prop36
280
     0
102
RTVSPost2010PropOp36
 70
     1
102
RTVSPost2010Prop37
 90
       50
102
RTVSPost2010PropOp37
 70
     1
102
RTVSPost2010Prop38
140
0.0
102
RTVSPost2010PropOp38
 70
     1
102
RTVSPost2010Prop39
140
1.0
102
RTVSPost2010PropOp39
 70
     1
102
RTVSPost2010Prop40
 90
        0
102
RTVSPost2010PropOp40
 70
     1
102
RTVSPost2010Prop41ColorIndex
 90
       18
102
RTVSPost2010Prop41ColorRGB
 90
        0
102
RTVSPost2010PropOp41
 70
     1
102
RTVSPost2010Prop42
 90
       50
102
RTVSPost2010PropOp42
 70
     1
102
RTVSPost2010Prop43
 90
        3
102
RTVSPost2010PropOp43
 70
     1
102
RTVSPost2010Prop44ColorIndex
 90
        5
102
RTVSPost2010Prop44ColorRGB
 90
      255
102
RTVSPost2010PropOp44
 70
     1
102
RTVSPost2010Prop45
280
     0
102
RTVSPost2010PropOp45
 70
     1
102
RTVSPost2010Prop46
 90
       50
102
RTVSPost2010PropOp46
 70
     1
102
RTVSPost2010Prop47
 90
       50
102
RTVSPost2010PropOp47
 70
     1
102
RTVSPost2010Prop48
 90
       50
102
RTVSPost2010PropOp48
 70
     1
102
RTVSPost2010Prop49
280
     0
102
RTVSPost2010PropOp49
 70
     1
102
RTVSPost2010Prop50
 90
       50
102
RTVSPost2010PropOp50
 70
     1
102
RTVSPost2010Prop51ColorIndex
 90
      256
102
RTVSPost2010Prop51ColorRGB
 90
-16777216
102
RTVSPost2010PropOp51
 70
     0
102
RTVSPost2010Prop52
140
1.0
102
RTVSPost2010PropOp52
 70
     0
102
RTVSPost2010Prop53
 90
        2
102
RTVSPost2010PropOp53
 70
     1
102
RTVSPost2010Prop54
  1
strokes_ogs.tif
102
RTVSPost2010PropOp54
 70
     1
102
RTVSPost2010Prop55
280
     0
102
RTVSPost2010PropOp55
 70
     1
102
RTVSPost2010Prop56
140
1.0
102
RTVSPost2010PropOp56
 70
     1
102
RTVSPost2010Prop57
140
1.0
102
RTVSPost2010PropOp57
 70
     1
102
RTVSPropertyOp0
 70
     1
102
RTVSPropertyOp1
 70
     1
102
RTVSPropertyOp2
 70
     1
102
RTVSPropertyOp3
 70
     1
102
RTVSPropertyOp4
 70
     1
102
RTVSPropertyOp5
 70
     1
102
RTVSPropertyOp6
 70
     1
102
RTVSPropertyOp7
 70
     1
102
RTVSPropertyOp8
 70
     1
102
RTVSPropertyOp9
 70
     1
102
RTVSPropertyOp10
 70
     1
102
RTVSPropertyOp11
 70
     1
102
RTVSPropertyOp12
 70
     1
102
RTVSPropertyOp13
 70
     1
102
RTVSPropertyOp14
 70
     1
102
RTVSPropertyOp15
 70
     1
102
RTVSPropertyOp16
 70
     1
102
RTVSPropertyOp17
 70
     1
102
RTVSPropertyOp18
 70
     1
102
RTVSPropertyOp19
 70
     1
102
RTVSPropertyOp20
 70
     1
102
RTVSPropertyOp21
 70
     1
102
RTVSPropertyOp22
 70
     1
102
RTVSPropertyOp23
 70
     1
102
RTVSPropertyOp24
 70
     1
102
RTVSPropertyOp25
 70
     1
102
RTVSPropertyOp26
 70
     1
102
RTVSPropertyOp27
 70
     1
102
RTVSPropertyOp28
 70
     1
102
RTVSPropertyOp29
 70
     1
102
RTVSPropertyOp30
 70
     1
102
RTVSPropertyOp31
 70
     1
102
RTVSPropertyOp32
 70
     1
102
RTVSPropertyOp33
 70
     1
102
RTVSPropertyOp34
 70
     1
102
RTVSPropertyOp35
 70
     1
102
RTVSPropertyOp36
 70
     1
102
RTVSPropertyOp37
 70
     1
102
RTVSPropertyOp38
 70
     1
102
RTVSPropertyOp39
 70
     1
102
RTVSPropertyOp40
 70
     1
102
RTVSPropertyOp41
 70
     1
102
RTVSPropertyOp42
 70
     1
102
RTVSPropertyOp43
 70
     1
102
RTVSPropertyOp44
 70
     1
102
RTVSPropertyOp45
 70
     1
102
RTVSPropertyOp46
 70
     1
102
RTVSPropertyOp47
 70
     1
102
RTVSPropertyOp48
 70
     1
102
RTVSPropertyOp49
 70
     1
102
RTVSPropertyOp50
 70
     1
102
RTVSPropertyOp51
 70
     0
102
RTVSPropertyOp52
 70
     0
102
RTVSPropertyOp53
 70
     1
102
RTVSPropertyOp54
 70
     1
102
RTVSPropertyOp55
 70
     1
102
RTVSPropertyOp56
 70
     1
102
RTVSPropertyOp57
 70
     1
102
RTVSPropertyOp58
 70
     1
102
RTVSPropertyOp59
 70
     1
102
RTVSPropertyOp60
 70
     1
102
RTVSPropertyOp61
 70
     1
102
RTVSPropertyOp62
 70
     1
  0
XRECORD
  5
DBBF
102
{ACAD_REACTORS
330
DBBE
102
}
330
DBBE
100
AcDbXrecord
280
     1
102
RTVSPost2010Prop28
280
     0
102
RTVSPost2010PropOp28
 70
     1
102
RTVSPost2010Prop29
280
     1
102
RTVSPost2010PropOp29
 70
     1
102
RTVSPost2010Prop30
280
     1
102
RTVSPost2010PropOp30
 70
     1
102
RTVSPost2010Prop31
280
     0
102
RTVSPost2010PropOp31
 70
     1
102
RTVSPost2010Prop32
280
     0
102
RTVSPost2010PropOp32
 70
     1
102
RTVSPost2010Prop33
280
     0
102
RTVSPost2010PropOp33
 70
     1
102
RTVSPost2010Prop34
280
     0
102
RTVSPost2010PropOp34
 70
     1
102
RTVSPost2010Prop35
280
     0
102
RTVSPost2010PropOp35
 70
     1
102
RTVSPost2010Prop36
280
     0
102
RTVSPost2010PropOp36
 70
     1
102
RTVSPost2010Prop37
 90
       50
102
RTVSPost2010PropOp37
 70
     1
102
RTVSPost2010Prop38
140
0.0
102
RTVSPost2010PropOp38
 70
     1
102
RTVSPost2010Prop39
140
1.0
102
RTVSPost2010PropOp39
 70
     1
102
RTVSPost2010Prop40
 90
        0
102
RTVSPost2010PropOp40
 70
     1
102
RTVSPost2010Prop41ColorIndex
 90
       18
102
RTVSPost2010Prop41ColorRGB
 90
        0
102
RTVSPost2010PropOp41
 70
     1
102
RTVSPost2010Prop42
 90
       50
102
RTVSPost2010PropOp42
 70
     1
102
RTVSPost2010Prop43
 90
        3
102
RTVSPost2010PropOp43
 70
     1
102
RTVSPost2010Prop44ColorIndex
 90
        5
102
RTVSPost2010Prop44ColorRGB
 90
      255
102
RTVSPost2010PropOp44
 70
     1
102
RTVSPost2010Prop45
280
     0
102
RTVSPost2010PropOp45
 70
     1
102
RTVSPost2010Prop46
 90
       50
102
RTVSPost2010PropOp46
 70
     1
102
RTVSPost2010Prop47
 90
       50
102
RTVSPost2010PropOp47
 70
     1
102
RTVSPost2010Prop48
 90
       50
102
RTVSPost2010PropOp48
 70
     1
102
RTVSPost2010Prop49
280
     0
102
RTVSPost2010PropOp49
 70
     1
102
RTVSPost2010Prop50
 90
       50
102
RTVSPost2010PropOp50
 70
     1
102
RTVSPost2010Prop51ColorIndex
 90
      256
102
RTVSPost2010Prop51ColorRGB
 90
-16777216
102
RTVSPost2010PropOp51
 70
     0
102
RTVSPost2010Prop52
140
1.0
102
RTVSPost2010PropOp52
 70
     0
102
RTVSPost2010Prop53
 90
        2
102
RTVSPost2010PropOp53
 70
     1
102
RTVSPost2010Prop54
  1
strokes_ogs.tif
102
RTVSPost2010PropOp54
 70
     1
102
RTVSPost2010Prop55
280
     0
102
RTVSPost2010PropOp55
 70
     1
102
RTVSPost2010Prop56
140
1.0
102
RTVSPost2010PropOp56
 70
     1
102
RTVSPost2010Prop57
140
1.0
102
RTVSPost2010PropOp57
 70
     1
102
RTVSPropertyOp0
 70
     1
102
RTVSPropertyOp1
 70
     1
102
RTVSPropertyOp2
 70
     1
102
RTVSPropertyOp3
 70
     1
102
RTVSPropertyOp4
 70
     1
102
RTVSPropertyOp5
 70
     1
102
RTVSPropertyOp6
 70
     1
102
RTVSPropertyOp7
 70
     1
102
RTVSPropertyOp8
 70
     1
102
RTVSPropertyOp9
 70
     1
102
RTVSPropertyOp10
 70
     1
102
RTVSPropertyOp11
 70
     1
102
RTVSPropertyOp12
 70
     1
102
RTVSPropertyOp13
 70
     1
102
RTVSPropertyOp14
 70
     1
102
RTVSPropertyOp15
 70
     1
102
RTVSPropertyOp16
 70
     1
102
RTVSPropertyOp17
 70
     1
102
RTVSPropertyOp18
 70
     1
102
RTVSPropertyOp19
 70
     1
102
RTVSPropertyOp20
 70
     1
102
RTVSPropertyOp21
 70
     1
102
RTVSPropertyOp22
 70
     1
102
RTVSPropertyOp23
 70
     1
102
RTVSPropertyOp24
 70
     1
102
RTVSPropertyOp25
 70
     1
102
RTVSPropertyOp26
 70
     1
102
RTVSPropertyOp27
 70
     1
102
RTVSPropertyOp28
 70
     1
102
RTVSPropertyOp29
 70
     1
102
RTVSPropertyOp30
 70
     1
102
RTVSPropertyOp31
 70
     1
102
RTVSPropertyOp32
 70
     1
102
RTVSPropertyOp33
 70
     1
102
RTVSPropertyOp34
 70
     1
102
RTVSPropertyOp35
 70
     1
102
RTVSPropertyOp36
 70
     1
102
RTVSPropertyOp37
 70
     1
102
RTVSPropertyOp38
 70
     1
102
RTVSPropertyOp39
 70
     1
102
RTVSPropertyOp40
 70
     1
102
RTVSPropertyOp41
 70
     1
102
RTVSPropertyOp42
 70
     1
102
RTVSPropertyOp43
 70
     1
102
RTVSPropertyOp44
 70
     1
102
RTVSPropertyOp45
 70
     1
102
RTVSPropertyOp46
 70
     1
102
RTVSPropertyOp47
 70
     1
102
RTVSPropertyOp48
 70
     1
102
RTVSPropertyOp49
 70
     1
102
RTVSPropertyOp50
 70
     1
102
RTVSPropertyOp51
 70
     0
102
RTVSPropertyOp52
 70
     0
102
RTVSPropertyOp53
 70
     1
102
RTVSPropertyOp54
 70
     1
102
RTVSPropertyOp55
 70
     1
102
RTVSPropertyOp56
 70
     1
102
RTVSPropertyOp57
 70
     1
102
RTVSPropertyOp58
 70
     1
102
RTVSPropertyOp59
 70
     1
102
RTVSPropertyOp60
 70
     1
102
RTVSPropertyOp61
 70
     1
102
RTVSPropertyOp62
 70
     1
  0
XRECORD
  5
DBB9
102
{ACAD_REACTORS
330
DBB8
102
}
330
DBB8
100
AcDbXrecord
280
     1
102
RTVSPost2010Prop28
280
     0
102
RTVSPost2010PropOp28
 70
     1
102
RTVSPost2010Prop29
280
     1
102
RTVSPost2010PropOp29
 70
     1
102
RTVSPost2010Prop30
280
     1
102
RTVSPost2010PropOp30
 70
     1
102
RTVSPost2010Prop31
280
     0
102
RTVSPost2010PropOp31
 70
     1
102
RTVSPost2010Prop32
280
     0
102
RTVSPost2010PropOp32
 70
     1
102
RTVSPost2010Prop33
280
     0
102
RTVSPost2010PropOp33
 70
     1
102
RTVSPost2010Prop34
280
     0
102
RTVSPost2010PropOp34
 70
     1
102
RTVSPost2010Prop35
280
     0
102
RTVSPost2010PropOp35
 70
     1
102
RTVSPost2010Prop36
280
     0
102
RTVSPost2010PropOp36
 70
     1
102
RTVSPost2010Prop37
 90
       50
102
RTVSPost2010PropOp37
 70
     1
102
RTVSPost2010Prop38
140
0.0
102
RTVSPost2010PropOp38
 70
     1
102
RTVSPost2010Prop39
140
1.0
102
RTVSPost2010PropOp39
 70
     1
102
RTVSPost2010Prop40
 90
        0
102
RTVSPost2010PropOp40
 70
     1
102
RTVSPost2010Prop41ColorIndex
 90
       18
102
RTVSPost2010Prop41ColorRGB
 90
        0
102
RTVSPost2010PropOp41
 70
     1
102
RTVSPost2010Prop42
 90
       50
102
RTVSPost2010PropOp42
 70
     1
102
RTVSPost2010Prop43
 90
        3
102
RTVSPost2010PropOp43
 70
     1
102
RTVSPost2010Prop44ColorIndex
 90
        5
102
RTVSPost2010Prop44ColorRGB
 90
      255
102
RTVSPost2010PropOp44
 70
     1
102
RTVSPost2010Prop45
280
     0
102
RTVSPost2010PropOp45
 70
     1
102
RTVSPost2010Prop46
 90
       50
102
RTVSPost2010PropOp46
 70
     1
102
RTVSPost2010Prop47
 90
       50
102
RTVSPost2010PropOp47
 70
     1
102
RTVSPost2010Prop48
 90
       50
102
RTVSPost2010PropOp48
 70
     1
102
RTVSPost2010Prop49
280
     0
102
RTVSPost2010PropOp49
 70
     1
102
RTVSPost2010Prop50
 90
       50
102
RTVSPost2010PropOp50
 70
     1
102
RTVSPost2010Prop51ColorIndex
 90
      256
102
RTVSPost2010Prop51ColorRGB
 90
-16777216
102
RTVSPost2010PropOp51
 70
     0
102
RTVSPost2010Prop52
140
1.0
102
RTVSPost2010PropOp52
 70
     0
102
RTVSPost2010Prop53
 90
        2
102
RTVSPost2010PropOp53
 70
     1
102
RTVSPost2010Prop54
  1
strokes_ogs.tif
102
RTVSPost2010PropOp54
 70
     1
102
RTVSPost2010Prop55
280
     0
102
RTVSPost2010PropOp55
 70
     1
102
RTVSPost2010Prop56
140
1.0
102
RTVSPost2010PropOp56
 70
     1
102
RTVSPost2010Prop57
140
1.0
102
RTVSPost2010PropOp57
 70
     1
102
RTVSPropertyOp0
 70
     1
102
RTVSPropertyOp1
 70
     1
102
RTVSPropertyOp2
 70
     1
102
RTVSPropertyOp3
 70
     1
102
RTVSPropertyOp4
 70
     1
102
RTVSPropertyOp5
 70
     1
102
RTVSPropertyOp6
 70
     1
102
RTVSPropertyOp7
 70
     1
102
RTVSPropertyOp8
 70
     1
102
RTVSPropertyOp9
 70
     1
102
RTVSPropertyOp10
 70
     1
102
RTVSPropertyOp11
 70
     1
102
RTVSPropertyOp12
 70
     1
102
RTVSPropertyOp13
 70
     1
102
RTVSPropertyOp14
 70
     1
102
RTVSPropertyOp15
 70
     1
102
RTVSPropertyOp16
 70
     1
102
RTVSPropertyOp17
 70
     1
102
RTVSPropertyOp18
 70
     1
102
RTVSPropertyOp19
 70
     1
102
RTVSPropertyOp20
 70
     1
102
RTVSPropertyOp21
 70
     1
102
RTVSPropertyOp22
 70
     1
102
RTVSPropertyOp23
 70
     1
102
RTVSPropertyOp24
 70
     1
102
RTVSPropertyOp25
 70
     1
102
RTVSPropertyOp26
 70
     1
102
RTVSPropertyOp27
 70
     1
102
RTVSPropertyOp28
 70
     1
102
RTVSPropertyOp29
 70
     1
102
RTVSPropertyOp30
 70
     1
102
RTVSPropertyOp31
 70
     1
102
RTVSPropertyOp32
 70
     1
102
RTVSPropertyOp33
 70
     1
102
RTVSPropertyOp34
 70
     1
102
RTVSPropertyOp35
 70
     1
102
RTVSPropertyOp36
 70
     1
102
RTVSPropertyOp37
 70
     1
102
RTVSPropertyOp38
 70
     1
102
RTVSPropertyOp39
 70
     1
102
RTVSPropertyOp40
 70
     1
102
RTVSPropertyOp41
 70
     1
102
RTVSPropertyOp42
 70
     1
102
RTVSPropertyOp43
 70
     1
102
RTVSPropertyOp44
 70
     1
102
RTVSPropertyOp45
 70
     1
102
RTVSPropertyOp46
 70
     1
102
RTVSPropertyOp47
 70
     1
102
RTVSPropertyOp48
 70
     1
102
RTVSPropertyOp49
 70
     1
102
RTVSPropertyOp50
 70
     1
102
RTVSPropertyOp51
 70
     0
102
RTVSPropertyOp52
 70
     0
102
RTVSPropertyOp53
 70
     1
102
RTVSPropertyOp54
 70
     1
102
RTVSPropertyOp55
 70
     1
102
RTVSPropertyOp56
 70
     1
102
RTVSPropertyOp57
 70
     1
102
RTVSPropertyOp58
 70
     1
102
RTVSPropertyOp59
 70
     1
102
RTVSPropertyOp60
 70
     1
102
RTVSPropertyOp61
 70
     1
102
RTVSPropertyOp62
 70
     1
  0
XRECORD
  5
DBBB
102
{ACAD_REACTORS
330
DBBA
102
}
330
DBBA
100
AcDbXrecord
280
     1
102
RTVSPost2010Prop28
280
     0
102
RTVSPost2010PropOp28
 70
     1
102
RTVSPost2010Prop29
280
     1
102
RTVSPost2010PropOp29
 70
     1
102
RTVSPost2010Prop30
280
     1
102
RTVSPost2010PropOp30
 70
     1
102
RTVSPost2010Prop31
280
     0
102
RTVSPost2010PropOp31
 70
     1
102
RTVSPost2010Prop32
280
     0
102
RTVSPost2010PropOp32
 70
     1
102
RTVSPost2010Prop33
280
     0
102
RTVSPost2010PropOp33
 70
     1
102
RTVSPost2010Prop34
280
     0
102
RTVSPost2010PropOp34
 70
     1
102
RTVSPost2010Prop35
280
     0
102
RTVSPost2010PropOp35
 70
     1
102
RTVSPost2010Prop36
280
     0
102
RTVSPost2010PropOp36
 70
     1
102
RTVSPost2010Prop37
 90
       50
102
RTVSPost2010PropOp37
 70
     1
102
RTVSPost2010Prop38
140
0.0
102
RTVSPost2010PropOp38
 70
     1
102
RTVSPost2010Prop39
140
1.0
102
RTVSPost2010PropOp39
 70
     1
102
RTVSPost2010Prop40
 90
        0
102
RTVSPost2010PropOp40
 70
     1
102
RTVSPost2010Prop41ColorIndex
 90
       18
102
RTVSPost2010Prop41ColorRGB
 90
        0
102
RTVSPost2010PropOp41
 70
     1
102
RTVSPost2010Prop42
 90
       50
102
RTVSPost2010PropOp42
 70
     1
102
RTVSPost2010Prop43
 90
        3
102
RTVSPost2010PropOp43
 70
     1
102
RTVSPost2010Prop44ColorIndex
 90
        5
102
RTVSPost2010Prop44ColorRGB
 90
      255
102
RTVSPost2010PropOp44
 70
     1
102
RTVSPost2010Prop45
280
     0
102
RTVSPost2010PropOp45
 70
     1
102
RTVSPost2010Prop46
 90
       50
102
RTVSPost2010PropOp46
 70
     1
102
RTVSPost2010Prop47
 90
       50
102
RTVSPost2010PropOp47
 70
     1
102
RTVSPost2010Prop48
 90
       50
102
RTVSPost2010PropOp48
 70
     1
102
RTVSPost2010Prop49
280
     0
102
RTVSPost2010PropOp49
 70
     1
102
RTVSPost2010Prop50
 90
       50
102
RTVSPost2010PropOp50
 70
     1
102
RTVSPost2010Prop51ColorIndex
 90
      256
102
RTVSPost2010Prop51ColorRGB
 90
-16777216
102
RTVSPost2010PropOp51
 70
     0
102
RTVSPost2010Prop52
140
1.0
102
RTVSPost2010PropOp52
 70
     0
102
RTVSPost2010Prop53
 90
        2
102
RTVSPost2010PropOp53
 70
     1
102
RTVSPost2010Prop54
  1
strokes_ogs.tif
102
RTVSPost2010PropOp54
 70
     1
102
RTVSPost2010Prop55
280
     0
102
RTVSPost2010PropOp55
 70
     1
102
RTVSPost2010Prop56
140
1.0
102
RTVSPost2010PropOp56
 70
     1
102
RTVSPost2010Prop57
140
1.0
102
RTVSPost2010PropOp57
 70
     1
102
RTVSPropertyOp0
 70
     1
102
RTVSPropertyOp1
 70
     1
102
RTVSPropertyOp2
 70
     1
102
RTVSPropertyOp3
 70
     1
102
RTVSPropertyOp4
 70
     1
102
RTVSPropertyOp5
 70
     1
102
RTVSPropertyOp6
 70
     1
102
RTVSPropertyOp7
 70
     1
102
RTVSPropertyOp8
 70
     1
102
RTVSPropertyOp9
 70
     1
102
RTVSPropertyOp10
 70
     1
102
RTVSPropertyOp11
 70
     1
102
RTVSPropertyOp12
 70
     1
102
RTVSPropertyOp13
 70
     1
102
RTVSPropertyOp14
 70
     1
102
RTVSPropertyOp15
 70
     1
102
RTVSPropertyOp16
 70
     1
102
RTVSPropertyOp17
 70
     1
102
RTVSPropertyOp18
 70
     1
102
RTVSPropertyOp19
 70
     1
102
RTVSPropertyOp20
 70
     1
102
RTVSPropertyOp21
 70
     1
102
RTVSPropertyOp22
 70
     1
102
RTVSPropertyOp23
 70
     1
102
RTVSPropertyOp24
 70
     1
102
RTVSPropertyOp25
 70
     1
102
RTVSPropertyOp26
 70
     1
102
RTVSPropertyOp27
 70
     1
102
RTVSPropertyOp28
 70
     1
102
RTVSPropertyOp29
 70
     1
102
RTVSPropertyOp30
 70
     1
102
RTVSPropertyOp31
 70
     1
102
RTVSPropertyOp32
 70
     1
102
RTVSPropertyOp33
 70
     1
102
RTVSPropertyOp34
 70
     1
102
RTVSPropertyOp35
 70
     1
102
RTVSPropertyOp36
 70
     1
102
RTVSPropertyOp37
 70
     1
102
RTVSPropertyOp38
 70
     1
102
RTVSPropertyOp39
 70
     1
102
RTVSPropertyOp40
 70
     1
102
RTVSPropertyOp41
 70
     1
102
RTVSPropertyOp42
 70
     1
102
RTVSPropertyOp43
 70
     1
102
RTVSPropertyOp44
 70
     1
102
RTVSPropertyOp45
 70
     1
102
RTVSPropertyOp46
 70
     1
102
RTVSPropertyOp47
 70
     1
102
RTVSPropertyOp48
 70
     1
102
RTVSPropertyOp49
 70
     1
102
RTVSPropertyOp50
 70
     1
102
RTVSPropertyOp51
 70
     0
102
RTVSPropertyOp52
 70
     0
102
RTVSPropertyOp53
 70
     1
102
RTVSPropertyOp54
 70
     1
102
RTVSPropertyOp55
 70
     1
102
RTVSPropertyOp56
 70
     1
102
RTVSPropertyOp57
 70
     1
102
RTVSPropertyOp58
 70
     1
102
RTVSPropertyOp59
 70
     1
102
RTVSPropertyOp60
 70
     1
102
RTVSPropertyOp61
 70
     1
102
RTVSPropertyOp62
 70
     1
  0
XRECORD
  5
DBB1
102
{ACAD_REACTORS
330
DBB0
102
}
330
DBB0
100
AcDbXrecord
280
     1
102
RTVSPost2010Prop28
280
     0
102
RTVSPost2010PropOp28
 70
     1
102
RTVSPost2010Prop29
280
     1
102
RTVSPost2010PropOp29
 70
     1
102
RTVSPost2010Prop30
280
     1
102
RTVSPost2010PropOp30
 70
     1
102
RTVSPost2010Prop31
280
     0
102
RTVSPost2010PropOp31
 70
     1
102
RTVSPost2010Prop32
280
     0
102
RTVSPost2010PropOp32
 70
     1
102
RTVSPost2010Prop33
280
     0
102
RTVSPost2010PropOp33
 70
     1
102
RTVSPost2010Prop34
280
     0
102
RTVSPost2010PropOp34
 70
     1
102
RTVSPost2010Prop35
280
     0
102
RTVSPost2010PropOp35
 70
     1
102
RTVSPost2010Prop36
280
     0
102
RTVSPost2010PropOp36
 70
     1
102
RTVSPost2010Prop37
 90
       50
102
RTVSPost2010PropOp37
 70
     1
102
RTVSPost2010Prop38
140
0.0
102
RTVSPost2010PropOp38
 70
     1
102
RTVSPost2010Prop39
140
1.0
102
RTVSPost2010PropOp39
 70
     1
102
RTVSPost2010Prop40
 90
        0
102
RTVSPost2010PropOp40
 70
     1
102
RTVSPost2010Prop41ColorIndex
 90
       18
102
RTVSPost2010Prop41ColorRGB
 90
        0
102
RTVSPost2010PropOp41
 70
     1
102
RTVSPost2010Prop42
 90
       50
102
RTVSPost2010PropOp42
 70
     1
102
RTVSPost2010Prop43
 90
        3
102
RTVSPost2010PropOp43
 70
     1
102
RTVSPost2010Prop44ColorIndex
 90
        5
102
RTVSPost2010Prop44ColorRGB
 90
      255
102
RTVSPost2010PropOp44
 70
     1
102
RTVSPost2010Prop45
280
     0
102
RTVSPost2010PropOp45
 70
     1
102
RTVSPost2010Prop46
 90
       50
102
RTVSPost2010PropOp46
 70
     1
102
RTVSPost2010Prop47
 90
       50
102
RTVSPost2010PropOp47
 70
     1
102
RTVSPost2010Prop48
 90
       50
102
RTVSPost2010PropOp48
 70
     1
102
RTVSPost2010Prop49
280
     0
102
RTVSPost2010PropOp49
 70
     1
102
RTVSPost2010Prop50
 90
       50
102
RTVSPost2010PropOp50
 70
     1
102
RTVSPost2010Prop51ColorIndex
 90
      256
102
RTVSPost2010Prop51ColorRGB
 90
-16777216
102
RTVSPost2010PropOp51
 70
     0
102
RTVSPost2010Prop52
140
1.0
102
RTVSPost2010PropOp52
 70
     0
102
RTVSPost2010Prop53
 90
        2
102
RTVSPost2010PropOp53
 70
     1
102
RTVSPost2010Prop54
  1
strokes_ogs.tif
102
RTVSPost2010PropOp54
 70
     1
102
RTVSPost2010Prop55
280
     0
102
RTVSPost2010PropOp55
 70
     1
102
RTVSPost2010Prop56
140
1.0
102
RTVSPost2010PropOp56
 70
     1
102
RTVSPost2010Prop57
140
1.0
102
RTVSPost2010PropOp57
 70
     1
102
RTVSPropertyOp0
 70
     1
102
RTVSPropertyOp1
 70
     1
102
RTVSPropertyOp2
 70
     1
102
RTVSPropertyOp3
 70
     1
102
RTVSPropertyOp4
 70
     1
102
RTVSPropertyOp5
 70
     1
102
RTVSPropertyOp6
 70
     1
102
RTVSPropertyOp7
 70
     1
102
RTVSPropertyOp8
 70
     1
102
RTVSPropertyOp9
 70
     1
102
RTVSPropertyOp10
 70
     1
102
RTVSPropertyOp11
 70
     1
102
RTVSPropertyOp12
 70
     1
102
RTVSPropertyOp13
 70
     1
102
RTVSPropertyOp14
 70
     1
102
RTVSPropertyOp15
 70
     1
102
RTVSPropertyOp16
 70
     1
102
RTVSPropertyOp17
 70
     1
102
RTVSPropertyOp18
 70
     1
102
RTVSPropertyOp19
 70
     1
102
RTVSPropertyOp20
 70
     1
102
RTVSPropertyOp21
 70
     1
102
RTVSPropertyOp22
 70
     1
102
RTVSPropertyOp23
 70
     1
102
RTVSPropertyOp24
 70
     1
102
RTVSPropertyOp25
 70
     1
102
RTVSPropertyOp26
 70
     1
102
RTVSPropertyOp27
 70
     1
102
RTVSPropertyOp28
 70
     1
102
RTVSPropertyOp29
 70
     1
102
RTVSPropertyOp30
 70
     1
102
RTVSPropertyOp31
 70
     1
102
RTVSPropertyOp32
 70
     1
102
RTVSPropertyOp33
 70
     1
102
RTVSPropertyOp34
 70
     1
102
RTVSPropertyOp35
 70
     1
102
RTVSPropertyOp36
 70
     1
102
RTVSPropertyOp37
 70
     1
102
RTVSPropertyOp38
 70
     1
102
RTVSPropertyOp39
 70
     1
102
RTVSPropertyOp40
 70
     1
102
RTVSPropertyOp41
 70
     1
102
RTVSPropertyOp42
 70
     1
102
RTVSPropertyOp43
 70
     1
102
RTVSPropertyOp44
 70
     1
102
RTVSPropertyOp45
 70
     1
102
RTVSPropertyOp46
 70
     1
102
RTVSPropertyOp47
 70
     1
102
RTVSPropertyOp48
 70
     1
102
RTVSPropertyOp49
 70
     1
102
RTVSPropertyOp50
 70
     1
102
RTVSPropertyOp51
 70
     0
102
RTVSPropertyOp52
 70
     0
102
RTVSPropertyOp53
 70
     1
102
RTVSPropertyOp54
 70
     1
102
RTVSPropertyOp55
 70
     1
102
RTVSPropertyOp56
 70
     1
102
RTVSPropertyOp57
 70
     1
102
RTVSPropertyOp58
 70
     1
102
RTVSPropertyOp59
 70
     1
102
RTVSPropertyOp60
 70
     1
102
RTVSPropertyOp61
 70
     1
102
RTVSPropertyOp62
 70
     1
  0
XRECORD
  5
DBA5
102
{ACAD_REACTORS
330
DBA4
102
}
330
DBA4
100
AcDbXrecord
280
     1
102
RTVSPost2010Prop28
280
     0
102
RTVSPost2010PropOp28
 70
     1
102
RTVSPost2010Prop29
280
     1
102
RTVSPost2010PropOp29
 70
     1
102
RTVSPost2010Prop30
280
     1
102
RTVSPost2010PropOp30
 70
     1
102
RTVSPost2010Prop31
280
     0
102
RTVSPost2010PropOp31
 70
     1
102
RTVSPost2010Prop32
280
     0
102
RTVSPost2010PropOp32
 70
     1
102
RTVSPost2010Prop33
280
     0
102
RTVSPost2010PropOp33
 70
     1
102
RTVSPost2010Prop34
280
     0
102
RTVSPost2010PropOp34
 70
     1
102
RTVSPost2010Prop35
280
     0
102
RTVSPost2010PropOp35
 70
     1
102
RTVSPost2010Prop36
280
     0
102
RTVSPost2010PropOp36
 70
     1
102
RTVSPost2010Prop37
 90
       50
102
RTVSPost2010PropOp37
 70
     1
102
RTVSPost2010Prop38
140
0.0
102
RTVSPost2010PropOp38
 70
     1
102
RTVSPost2010Prop39
140
1.0
102
RTVSPost2010PropOp39
 70
     1
102
RTVSPost2010Prop40
 90
        0
102
RTVSPost2010PropOp40
 70
     1
102
RTVSPost2010Prop41ColorIndex
 90
       18
102
RTVSPost2010Prop41ColorRGB
 90
        0
102
RTVSPost2010PropOp41
 70
     1
102
RTVSPost2010Prop42
 90
       50
102
RTVSPost2010PropOp42
 70
     1
102
RTVSPost2010Prop43
 90
        3
102
RTVSPost2010PropOp43
 70
     1
102
RTVSPost2010Prop44ColorIndex
 90
        5
102
RTVSPost2010Prop44ColorRGB
 90
      255
102
RTVSPost2010PropOp44
 70
     1
102
RTVSPost2010Prop45
280
     0
102
RTVSPost2010PropOp45
 70
     1
102
RTVSPost2010Prop46
 90
       50
102
RTVSPost2010PropOp46
 70
     1
102
RTVSPost2010Prop47
 90
       50
102
RTVSPost2010PropOp47
 70
     1
102
RTVSPost2010Prop48
 90
       50
102
RTVSPost2010PropOp48
 70
     1
102
RTVSPost2010Prop49
280
     0
102
RTVSPost2010PropOp49
 70
     1
102
RTVSPost2010Prop50
 90
       50
102
RTVSPost2010PropOp50
 70
     1
102
RTVSPost2010Prop51ColorIndex
 90
      256
102
RTVSPost2010Prop51ColorRGB
 90
-16777216
102
RTVSPost2010PropOp51
 70
     0
102
RTVSPost2010Prop52
140
1.0
102
RTVSPost2010PropOp52
 70
     0
102
RTVSPost2010Prop53
 90
        2
102
RTVSPost2010PropOp53
 70
     1
102
RTVSPost2010Prop54
  1
strokes_ogs.tif
102
RTVSPost2010PropOp54
 70
     1
102
RTVSPost2010Prop55
280
     0
102
RTVSPost2010PropOp55
 70
     1
102
RTVSPost2010Prop56
140
1.0
102
RTVSPost2010PropOp56
 70
     1
102
RTVSPost2010Prop57
140
1.0
102
RTVSPost2010PropOp57
 70
     1
102
RTVSPropertyOp0
 70
     1
102
RTVSPropertyOp1
 70
     1
102
RTVSPropertyOp2
 70
     1
102
RTVSPropertyOp3
 70
     1
102
RTVSPropertyOp4
 70
     1
102
RTVSPropertyOp5
 70
     1
102
RTVSPropertyOp6
 70
     1
102
RTVSPropertyOp7
 70
     1
102
RTVSPropertyOp8
 70
     1
102
RTVSPropertyOp9
 70
     1
102
RTVSPropertyOp10
 70
     1
102
RTVSPropertyOp11
 70
     1
102
RTVSPropertyOp12
 70
     1
102
RTVSPropertyOp13
 70
     1
102
RTVSPropertyOp14
 70
     1
102
RTVSPropertyOp15
 70
     1
102
RTVSPropertyOp16
 70
     1
102
RTVSPropertyOp17
 70
     1
102
RTVSPropertyOp18
 70
     1
102
RTVSPropertyOp19
 70
     1
102
RTVSPropertyOp20
 70
     1
102
RTVSPropertyOp21
 70
     1
102
RTVSPropertyOp22
 70
     1
102
RTVSPropertyOp23
 70
     1
102
RTVSPropertyOp24
 70
     1
102
RTVSPropertyOp25
 70
     1
102
RTVSPropertyOp26
 70
     1
102
RTVSPropertyOp27
 70
     1
102
RTVSPropertyOp28
 70
     1
102
RTVSPropertyOp29
 70
     1
102
RTVSPropertyOp30
 70
     1
102
RTVSPropertyOp31
 70
     1
102
RTVSPropertyOp32
 70
     1
102
RTVSPropertyOp33
 70
     1
102
RTVSPropertyOp34
 70
     1
102
RTVSPropertyOp35
 70
     1
102
RTVSPropertyOp36
 70
     1
102
RTVSPropertyOp37
 70
     1
102
RTVSPropertyOp38
 70
     1
102
RTVSPropertyOp39
 70
     1
102
RTVSPropertyOp40
 70
     1
102
RTVSPropertyOp41
 70
     1
102
RTVSPropertyOp42
 70
     1
102
RTVSPropertyOp43
 70
     1
102
RTVSPropertyOp44
 70
     1
102
RTVSPropertyOp45
 70
     1
102
RTVSPropertyOp46
 70
     1
102
RTVSPropertyOp47
 70
     1
102
RTVSPropertyOp48
 70
     1
102
RTVSPropertyOp49
 70
     1
102
RTVSPropertyOp50
 70
     1
102
RTVSPropertyOp51
 70
     0
102
RTVSPropertyOp52
 70
     0
102
RTVSPropertyOp53
 70
     1
102
RTVSPropertyOp54
 70
     1
102
RTVSPropertyOp55
 70
     1
102
RTVSPropertyOp56
 70
     1
102
RTVSPropertyOp57
 70
     1
102
RTVSPropertyOp58
 70
     1
102
RTVSPropertyOp59
 70
     1
102
RTVSPropertyOp60
 70
     1
102
RTVSPropertyOp61
 70
     1
102
RTVSPropertyOp62
 70
     1
  0
XRECORD
  5
DBBD
102
{ACAD_REACTORS
330
DBBC
102
}
330
DBBC
100
AcDbXrecord
280
     1
102
RTVSPost2010Prop28
280
     0
102
RTVSPost2010PropOp28
 70
     1
102
RTVSPost2010Prop29
280
     1
102
RTVSPost2010PropOp29
 70
     1
102
RTVSPost2010Prop30
280
     1
102
RTVSPost2010PropOp30
 70
     1
102
RTVSPost2010Prop31
280
     0
102
RTVSPost2010PropOp31
 70
     1
102
RTVSPost2010Prop32
280
     0
102
RTVSPost2010PropOp32
 70
     1
102
RTVSPost2010Prop33
280
     0
102
RTVSPost2010PropOp33
 70
     1
102
RTVSPost2010Prop34
280
     0
102
RTVSPost2010PropOp34
 70
     1
102
RTVSPost2010Prop35
280
     0
102
RTVSPost2010PropOp35
 70
     1
102
RTVSPost2010Prop36
280
     0
102
RTVSPost2010PropOp36
 70
     1
102
RTVSPost2010Prop37
 90
       50
102
RTVSPost2010PropOp37
 70
     1
102
RTVSPost2010Prop38
140
0.0
102
RTVSPost2010PropOp38
 70
     1
102
RTVSPost2010Prop39
140
1.0
102
RTVSPost2010PropOp39
 70
     1
102
RTVSPost2010Prop40
 90
        0
102
RTVSPost2010PropOp40
 70
     1
102
RTVSPost2010Prop41ColorIndex
 90
       18
102
RTVSPost2010Prop41ColorRGB
 90
        0
102
RTVSPost2010PropOp41
 70
     1
102
RTVSPost2010Prop42
 90
       50
102
RTVSPost2010PropOp42
 70
     1
102
RTVSPost2010Prop43
 90
        3
102
RTVSPost2010PropOp43
 70
     1
102
RTVSPost2010Prop44ColorIndex
 90
        5
102
RTVSPost2010Prop44ColorRGB
 90
      255
102
RTVSPost2010PropOp44
 70
     1
102
RTVSPost2010Prop45
280
     0
102
RTVSPost2010PropOp45
 70
     1
102
RTVSPost2010Prop46
 90
       50
102
RTVSPost2010PropOp46
 70
     1
102
RTVSPost2010Prop47
 90
       50
102
RTVSPost2010PropOp47
 70
     1
102
RTVSPost2010Prop48
 90
       50
102
RTVSPost2010PropOp48
 70
     1
102
RTVSPost2010Prop49
280
     0
102
RTVSPost2010PropOp49
 70
     1
102
RTVSPost2010Prop50
 90
       50
102
RTVSPost2010PropOp50
 70
     1
102
RTVSPost2010Prop51ColorIndex
 90
      256
102
RTVSPost2010Prop51ColorRGB
 90
-16777216
102
RTVSPost2010PropOp51
 70
     0
102
RTVSPost2010Prop52
140
1.0
102
RTVSPost2010PropOp52
 70
     0
102
RTVSPost2010Prop53
 90
        2
102
RTVSPost2010PropOp53
 70
     1
102
RTVSPost2010Prop54
  1
strokes_ogs.tif
102
RTVSPost2010PropOp54
 70
     1
102
RTVSPost2010Prop55
280
     0
102
RTVSPost2010PropOp55
 70
     1
102
RTVSPost2010Prop56
140
1.0
102
RTVSPost2010PropOp56
 70
     1
102
RTVSPost2010Prop57
140
1.0
102
RTVSPost2010PropOp57
 70
     1
102
RTVSPropertyOp0
 70
     1
102
RTVSPropertyOp1
 70
     1
102
RTVSPropertyOp2
 70
     1
102
RTVSPropertyOp3
 70
     1
102
RTVSPropertyOp4
 70
     1
102
RTVSPropertyOp5
 70
     1
102
RTVSPropertyOp6
 70
     1
102
RTVSPropertyOp7
 70
     1
102
RTVSPropertyOp8
 70
     1
102
RTVSPropertyOp9
 70
     1
102
RTVSPropertyOp10
 70
     1
102
RTVSPropertyOp11
 70
     1
102
RTVSPropertyOp12
 70
     1
102
RTVSPropertyOp13
 70
     1
102
RTVSPropertyOp14
 70
     1
102
RTVSPropertyOp15
 70
     1
102
RTVSPropertyOp16
 70
     1
102
RTVSPropertyOp17
 70
     1
102
RTVSPropertyOp18
 70
     1
102
RTVSPropertyOp19
 70
     1
102
RTVSPropertyOp20
 70
     1
102
RTVSPropertyOp21
 70
     1
102
RTVSPropertyOp22
 70
     1
102
RTVSPropertyOp23
 70
     1
102
RTVSPropertyOp24
 70
     1
102
RTVSPropertyOp25
 70
     1
102
RTVSPropertyOp26
 70
     1
102
RTVSPropertyOp27
 70
     1
102
RTVSPropertyOp28
 70
     1
102
RTVSPropertyOp29
 70
     1
102
RTVSPropertyOp30
 70
     1
102
RTVSPropertyOp31
 70
     1
102
RTVSPropertyOp32
 70
     1
102
RTVSPropertyOp33
 70
     1
102
RTVSPropertyOp34
 70
     1
102
RTVSPropertyOp35
 70
     1
102
RTVSPropertyOp36
 70
     1
102
RTVSPropertyOp37
 70
     1
102
RTVSPropertyOp38
 70
     1
102
RTVSPropertyOp39
 70
     1
102
RTVSPropertyOp40
 70
     1
102
RTVSPropertyOp41
 70
     1
102
RTVSPropertyOp42
 70
     1
102
RTVSPropertyOp43
 70
     1
102
RTVSPropertyOp44
 70
     1
102
RTVSPropertyOp45
 70
     1
102
RTVSPropertyOp46
 70
     1
102
RTVSPropertyOp47
 70
     1
102
RTVSPropertyOp48
 70
     1
102
RTVSPropertyOp49
 70
     1
102
RTVSPropertyOp50
 70
     1
102
RTVSPropertyOp51
 70
     0
102
RTVSPropertyOp52
 70
     0
102
RTVSPropertyOp53
 70
     1
102
RTVSPropertyOp54
 70
     1
102
RTVSPropertyOp55
 70
     1
102
RTVSPropertyOp56
 70
     1
102
RTVSPropertyOp57
 70
     1
102
RTVSPropertyOp58
 70
     1
102
RTVSPropertyOp59
 70
     1
102
RTVSPropertyOp60
 70
     1
102
RTVSPropertyOp61
 70
     1
102
RTVSPropertyOp62
 70
     1
  0
ENDSEC
  0
EOF
