  0
SECTION
  2
HEADER
  9
$ACADVER
  1
AC1015
  9
$ACADMAINTVER
 70
    20
  9
$DWGCODEPAGE
  3
ANSI_932
  9
$INSBASE
 10
0.0
 20
0.0
 30
0.0
  9
$EXTMIN
 10
9.9999975266385
 20
10.0
 30
0.0
  9
$EXTMAX
 10
610.4629365475927
 20
433.1040101025226
 30
0.0
  9
$LIMMIN
 10
0.0000015376081137
 20
-0.0000001931532552
  9
$LIMMAX
 10
672.0000015376081
 20
463.2727270795738
  9
$ORTHOMODE
 70
     1
  9
$REGENMODE
 70
     1
  9
$FILLMODE
 70
     1
  9
$QTEXTMODE
 70
     0
  9
$MIRRTEXT
 70
     1
  9
$LTSCALE
 40
0.5
  9
$ATTMODE
 70
     1
  9
$TEXTSIZE
 40
2.5
  9
$TRACEWID
 40
1.0
  9
$TEXTSTYLE
  7
STANDARD
  9
$CLAYER
  8
0
  9
$CELTYPE
  6
BYLAYER
  9
$CECOLOR
 62
   256
  9
$CELTSCALE
 40
1.0
  9
$DISPSILH
 70
     0
  9
$DIMSCALE
 40
1.0
  9
$DIMASZ
 40
3.0
  9
$DIMEXO
 40
1.0
  9
$DIMDLI
 40
10.0
  9
$DIMRND
 40
0.0
  9
$DIMDLE
 40
0.0
  9
$DIMEXE
 40
1.0
  9
$DIMTP
 40
0.0
  9
$DIMTM
 40
0.0
  9
$DIMTXT
 40
3.2
  9
$DIMCEN
 40
0.0
  9
$DIMTSZ
 40
0.0
  9
$DIMTOL
 70
     0
  9
$DIMLIM
 70
     0
  9
$DIMTIH
 70
     0
  9
$DIMTOH
 70
     0
  9
$DIMSE1
 70
     0
  9
$DIMSE2
 70
     0
  9
$DIMTAD
 70
     3
  9
$DIMZIN
 70
     8
  9
$DIMBLK
  1

  9
$DIMASO
 70
     1
  9
$DIMSHO
 70
     1
  9
$DIMPOST
  1

  9
$DIMAPOST
  1

  9
$DIMALT
 70
     0
  9
$DIMALTD
 70
     2
  9
$DIMALTF
 40
25.4
  9
$DIMLFAC
 40
1.0
  9
$DIMTOFL
 70
     1
  9
$DIMTVP
 40
0.0
  9
$DIMTIX
 70
     0
  9
$DIMSOXD
 70
     0
  9
$DIMSAH
 70
     1
  9
$DIMBLK1
  1
OPEN
  9
$DIMBLK2
  1
OPEN
  9
$DIMSTYLE
  2
STANDARD
  9
$DIMCLRD
 70
     0
  9
$DIMCLRE
 70
     0
  9
$DIMCLRT
 70
     0
  9
$DIMTFAC
 40
1.0
  9
$DIMGAP
 40
1.0
  9
$DIMJUST
 70
     0
  9
$DIMSD1
 70
     0
  9
$DIMSD2
 70
     0
  9
$DIMTOLJ
 70
     1
  9
$DIMTZIN
 70
     0
  9
$DIMALTZ
 70
     0
  9
$DIMALTTZ
 70
     0
  9
$DIMUPT
 70
     0
  9
$DIMDEC
 70
     4
  9
$DIMTDEC
 70
     4
  9
$DIMALTU
 70
     2
  9
$DIMALTTD
 70
     2
  9
$DIMTXSTY
  7
STANDARD
  9
$DIMAUNIT
 70
     0
  9
$DIMADEC
 70
     0
  9
$DIMALTRND
 40
0.0
  9
$DIMAZIN
 70
     0
  9
$DIMDSEP
 70
    46
  9
$DIMATFIT
 70
     3
  9
$DIMFRAC
 70
     0
  9
$DIMLDRBLK
  1
OPEN
  9
$DIMLUNIT
 70
     2
  9
$DIMLWD
 70
    -2
  9
$DIMLWE
 70
    -2
  9
$DIMTMOVE
 70
     0
  9
$LUNITS
 70
     2
  9
$LUPREC
 70
     4
  9
$SKETCHINC
 40
1.0
  9
$FILLETRAD
 40
0.0
  9
$AUNITS
 70
     0
  9
$AUPREC
 70
     0
  9
$MENU
  1
.
  9
$ELEVATION
 40
0.0
  9
$PELEVATION
 40
0.0
  9
$THICKNESS
 40
0.0
  9
$LIMCHECK
 70
     0
  9
$CHAMFERA
 40
10.0
  9
$CHAMFERB
 40
10.0
  9
$CHAMFERC
 40
20.0
  9
$CHAMFERD
 40
0.0
  9
$SKPOLY
 70
     0
  9
$TDCREATE
 40
2452957.568868993
  9
$TDUCREATE
 40
2452957.193868993
  9
$TDUPDATE
 40
2457192.642937917
  9
$TDUUPDATE
 40
2457192.267937917
  9
$TDINDWG
 40
0.2265238542
  9
$TDUSRTIMER
 40
0.2265238310
  9
$USRTIMER
 70
     1
  9
$ANGBASE
 50
0.0
  9
$ANGDIR
 70
     0
  9
$PDMODE
 70
     0
  9
$PDSIZE
 40
0.0
  9
$PLINEWID
 40
0.0
  9
$SPLFRAME
 70
     0
  9
$SPLINETYPE
 70
     6
  9
$SPLINESEGS
 70
     8
  9
$HANDSEED
  5
1F1E
  9
$SURFTAB1
 70
     6
  9
$SURFTAB2
 70
     6
  9
$SURFTYPE
 70
     6
  9
$SURFU
 70
     6
  9
$SURFV
 70
     6
  9
$UCSBASE
  2

  9
$UCSNAME
  2

  9
$UCSORG
 10
0.0
 20
0.0
 30
0.0
  9
$UCSXDIR
 10
1.0
 20
0.0
 30
0.0
  9
$UCSYDIR
 10
0.0
 20
1.0
 30
0.0
  9
$UCSORTHOREF
  2

  9
$UCSORTHOVIEW
 70
     0
  9
$UCSORGTOP
 10
0.0
 20
0.0
 30
0.0
  9
$UCSORGBOTTOM
 10
0.0
 20
0.0
 30
0.0
  9
$UCSORGLEFT
 10
0.0
 20
0.0
 30
0.0
  9
$UCSORGRIGHT
 10
0.0
 20
0.0
 30
0.0
  9
$UCSORGFRONT
 10
0.0
 20
0.0
 30
0.0
  9
$UCSORGBACK
 10
0.0
 20
0.0
 30
0.0
  9
$PUCSBASE
  2

  9
$PUCSNAME
  2

  9
$PUCSORG
 10
0.0
 20
0.0
 30
0.0
  9
$PUCSXDIR
 10
1.0
 20
0.0
 30
0.0
  9
$PUCSYDIR
 10
0.0
 20
1.0
 30
0.0
  9
$PUCSORTHOREF
  2

  9
$PUCSORTHOVIEW
 70
     0
  9
$PUCSORGTOP
 10
0.0
 20
0.0
 30
0.0
  9
$PUCSORGBOTTOM
 10
0.0
 20
0.0
 30
0.0
  9
$PUCSORGLEFT
 10
0.0
 20
0.0
 30
0.0
  9
$PUCSORGRIGHT
 10
0.0
 20
0.0
 30
0.0
  9
$PUCSORGFRONT
 10
0.0
 20
0.0
 30
0.0
  9
$PUCSORGBACK
 10
0.0
 20
0.0
 30
0.0
  9
$USERI1
 70
     0
  9
$USERI2
 70
     0
  9
$USERI3
 70
     0
  9
$USERI4
 70
     0
  9
$USERI5
 70
     0
  9
$USERR1
 40
0.0
  9
$USERR2
 40
0.0
  9
$USERR3
 40
0.0
  9
$USERR4
 40
0.0
  9
$USERR5
 40
0.0
  9
$WORLDVIEW
 70
     1
  9
$SHADEDGE
 70
     3
  9
$SHADEDIF
 70
    70
  9
$TILEMODE
 70
     1
  9
$MAXACTVP
 70
    48
  9
$PINSBASE
 10
0.0
 20
0.0
 30
0.0
  9
$PLIMCHECK
 70
     0
  9
$PEXTMIN
 10
1.000000000000000E+20
 20
1.000000000000000E+20
 30
1.000000000000000E+20
  9
$PEXTMAX
 10
-1.000000000000000E+20
 20
-1.000000000000000E+20
 30
-1.000000000000000E+20
  9
$PLIMMIN
 10
0.0
 20
0.0
  9
$PLIMMAX
 10
420.0
 20
297.0
  9
$UNITMODE
 70
     0
  9
$VISRETAIN
 70
     1
  9
$PLINEGEN
 70
     0
  9
$PSLTSCALE
 70
     1
  9
$TREEDEPTH
 70
  3020
  9
$CMLSTYLE
  2
STANDARD
  9
$CMLJUST
 70
     0
  9
$CMLSCALE
 40
20.0
  9
$PROXYGRAPHICS
 70
     1
  9
$MEASUREMENT
 70
     0
  9
$CELWEIGHT
370
    -1
  9
$ENDCAPS
280
     0
  9
$JOINSTYLE
280
     0
  9
$LWDISPLAY
290
     0
  9
$INSUNITS
 70
     0
  9
$HYPERLINKBASE
  1

  9
$STYLESHEET
  1

  9
$XEDIT
290
     1
  9
$CEPSNTYPE
380
     0
  9
$PSTYLEMODE
290
     1
  9
$FINGERPRINTGUID
  2
{6BF33434-2119-4BB8-BC38-61D1C4B1274A}
  9
$VERSIONGUID
  2
{586EC87D-18EB-4C4A-9CD2-EB26A377BF57}
  9
$EXTNAMES
290
     1
  9
$PSVPSCALE
 40
0.0
  9
$OLESTARTUP
290
     0
  0
ENDSEC
  0
SECTION
  2
CLASSES
  0
CLASS
  1
ACDBDICTIONARYWDFLT
  2
AcDbDictionaryWithDefault
  3
ObjectDBX Classes
 90
        0
280
     0
281
     0
  0
CLASS
  1
ACDBPLACEHOLDER
  2
AcDbPlaceHolder
  3
ObjectDBX Classes
 90
        0
280
     0
281
     0
  0
CLASS
  1
LAYOUT
  2
AcDbLayout
  3
ObjectDBX Classes
 90
        0
280
     0
281
     0
  0
CLASS
  1
DICTIONARYVAR
  2
AcDbDictionaryVar
  3
ObjectDBX Classes
 90
        0
280
     0
281
     0
  0
CLASS
  1
MATERIAL
  2
AcDbMaterial
  3
ObjectDBX Classes
 90
     1153
280
     0
281
     0
  0
CLASS
  1
VISUALSTYLE
  2
AcDbVisualStyle
  3
ObjectDBX Classes
 90
     4095
280
     0
281
     0
  0
CLASS
  1
TABLESTYLE
  2
AcDbTableStyle
  3
ObjectDBX Classes
 90
     4095
280
     0
281
     0
  0
CLASS
  1
SCALE
  2
AcDbScale
  3
ObjectDBX Classes
 90
     1153
280
     0
281
     0
  0
CLASS
  1
MLEADERSTYLE
  2
AcDbMLeaderStyle
  3
ACDB_MLEADERSTYLE_CLASS
 90
     4095
280
     0
281
     0
  0
CLASS
  1
ACDBSECTIONVIEWSTYLE
  2
AcDbSectionViewStyle
  3
ObjectDBX Classes
 90
     1025
280
     0
281
     0
  0
CLASS
  1
ACDBDETAILVIEWSTYLE
  2
AcDbDetailViewStyle
  3
ObjectDBX Classes
 90
     1025
280
     0
281
     0
  0
CLASS
  1
CELLSTYLEMAP
  2
AcDbCellStyleMap
  3
ObjectDBX Classes
 90
     1152
280
     0
281
     0
  0
ENDSEC
  0
SECTION
  2
TABLES
  0
TABLE
  2
VPORT
  5
8
330
0
100
AcDbSymbolTable
 70
     1
  0
VPORT
  5
1E68
330
8
100
AcDbSymbolTableRecord
100
AcDbViewportTableRecord
  2
*ACTIVE
 70
     0
 10
0.0
 20
0.0
 11
1.0
 21
1.0
 12
438.4013185066053
 22
221.5630668361185
 13
0.0
 23
0.0
 14
10.0
 24
10.0
 15
10.0
 25
10.0
 16
0.0
 26
0.0
 36
1.0
 17
0.0
 27
0.0
 37
0.0
 40
427.8818693752422
 41
1.899603698811096
 42
50.0
 43
0.0
 44
0.0
 50
0.0
 51
0.0
 71
     0
 72
   100
 73
     1
 74
     0
 75
     0
 76
     0
 77
     0
 78
     0
281
     0
 65
     1
110
0.0
120
0.0
130
0.0
111
1.0
121
0.0
131
0.0
112
0.0
122
1.0
132
0.0
 79
     0
146
0.0
1001
ACAD_NAV_VCDISPLAY
1070
     3
  0
ENDTAB
  0
TABLE
  2
LTYPE
  5
5
330
0
100
AcDbSymbolTable
 70
     4
  0
LTYPE
  5
12
330
5
100
AcDbSymbolTableRecord
100
AcDbLinetypeTableRecord
  2
BYBLOCK
 70
     0
  3

 72
    65
 73
     0
 40
0.0
  0
LTYPE
  5
13
330
5
100
AcDbSymbolTableRecord
100
AcDbLinetypeTableRecord
  2
BYLAYER
 70
     0
  3

 72
    65
 73
     0
 40
0.0
  0
LTYPE
  5
14
330
5
100
AcDbSymbolTableRecord
100
AcDbLinetypeTableRecord
  2
CONTINUOUS
 70
     0
  3
Solid line
 72
    65
 73
     0
 40
0.0
  0
LTYPE
  5
4B
330
5
100
AcDbSymbolTableRecord
100
AcDbLinetypeTableRecord
  2
DASHED
 70
     0
  3
Dashed __ __ __ __ __ __ __ __ __ __ __ __ __ _
 72
    65
 73
     2
 40
19.04999999999999
 49
12.7
 74
     0
 49
-6.349999999999998
 74
     0
  0
LTYPE
  5
4C
330
5
100
AcDbSymbolTableRecord
100
AcDbLinetypeTableRecord
  2
CENTER
 70
     0
  3
Center ____ _ ____ _ ____ _ ____ _ ____ _ ____
 72
    65
 73
     4
 40
50.8
 49
31.75
 74
     0
 49
-6.349999999999998
 74
     0
 49
6.349999999999998
 74
     0
 49
-6.349999999999998
 74
     0
  0
LTYPE
  5
4D
330
5
100
AcDbSymbolTableRecord
100
AcDbLinetypeTableRecord
  2
PHANTOM
 70
     0
  3
Phantom ______  __  __  ______  __  __  ______
 72
    65
 73
     6
 40
63.5
 49
31.75
 74
     0
 49
-6.349999999999998
 74
     0
 49
6.349999999999998
 74
     0
 49
-6.349999999999998
 74
     0
 49
6.349999999999998
 74
     0
 49
-6.349999999999998
 74
     0
  0
ENDTAB
  0
TABLE
  2
LAYER
  5
2
330
0
100
AcDbSymbolTable
 70
     8
  0
LAYER
  5
E
102
{ACAD_XDICTIONARY
360
1EC2
102
}
330
2
100
AcDbSymbolTableRecord
100
AcDbLayerTableRecord
  2
0
 70
     0
 62
     7
  6
CONTINUOUS
370
    -3
390
1E71
  0
LAYER
  5
4E
102
{ACAD_XDICTIONARY
360
1EC4
102
}
330
2
100
AcDbSymbolTableRecord
100
AcDbLayerTableRecord
  2
4
 70
     0
 62
     1
  6
CENTER
370
    -3
390
1E71
  0
LAYER
  5
4F
102
{ACAD_XDICTIONARY
360
1EC6
102
}
330
2
100
AcDbSymbolTableRecord
100
AcDbLayerTableRecord
  2
5
 70
     0
 62
     6
  6
PHANTOM
370
    -3
390
1E71
  0
LAYER
  5
50
102
{ACAD_XDICTIONARY
360
1EC8
102
}
330
2
100
AcDbSymbolTableRecord
100
AcDbLayerTableRecord
  2
1
 70
     0
 62
     7
  6
CONTINUOUS
370
    -3
390
1E71
  0
LAYER
  5
51
102
{ACAD_XDICTIONARY
360
1ECA
102
}
330
2
100
AcDbSymbolTableRecord
100
AcDbLayerTableRecord
  2
2
 70
     0
 62
     4
  6
CONTINUOUS
370
    -3
390
1E71
  0
LAYER
  5
52
102
{ACAD_XDICTIONARY
360
1ECC
102
}
330
2
100
AcDbSymbolTableRecord
100
AcDbLayerTableRecord
  2
3
 70
     0
 62
     2
  6
DASHED
370
    -3
390
1E71
  0
LAYER
  5
53
102
{ACAD_XDICTIONARY
360
1ECE
102
}
330
2
100
AcDbSymbolTableRecord
100
AcDbLayerTableRecord
  2
6
 70
     0
 62
     5
  6
CONTINUOUS
370
    -3
390
1E71
  0
LAYER
  5
54
102
{ACAD_XDICTIONARY
360
1ED0
102
}
330
2
100
AcDbSymbolTableRecord
100
AcDbLayerTableRecord
  2
7
 70
     0
 62
     3
  6
CONTINUOUS
370
    -3
390
1E71
  0
ENDTAB
  0
TABLE
  2
STYLE
  5
3
330
0
100
AcDbSymbolTable
 70
     1
  0
STYLE
  5
F
330
3
100
AcDbSymbolTableRecord
100
AcDbTextStyleTableRecord
  2
STANDARD
 70
     0
 40
0.0
 41
1.0
 50
0.0
 71
     0
 42
2.5
  3
simplex.shx
  4

  0
ENDTAB
  0
TABLE
  2
VIEW
  5
6
330
0
100
AcDbSymbolTable
 70
     0
  0
ENDTAB
  0
TABLE
  2
UCS
  5
7
330
0
100
AcDbSymbolTable
 70
     0
  0
ENDTAB
  0
TABLE
  2
APPID
  5
9
330
0
100
AcDbSymbolTable
 70
     5
  0
APPID
  5
10
330
9
100
AcDbSymbolTableRecord
100
AcDbRegAppTableRecord
  2
ACAD
 70
     0
  0
APPID
  5
3E
330
9
100
AcDbSymbolTableRecord
100
AcDbRegAppTableRecord
  2
CONTENTTABDATA
 70
     0
  0
APPID
  5
3F
330
9
100
AcDbSymbolTableRecord
100
AcDbRegAppTableRecord
  2
CONTENTCURRENTTAB
 70
     0
  0
APPID
  5
1EDC
330
9
100
AcDbSymbolTableRecord
100
AcDbRegAppTableRecord
  2
ACAD_NAV_VCDISPLAY
 70
     0
  0
APPID
  5
1F15
330
9
100
AcDbSymbolTableRecord
100
AcDbRegAppTableRecord
  2
ACAD_MLEADERVER
 70
     0
  0
ENDTAB
  0
TABLE
  2
DIMSTYLE
  5
A
330
0
100
AcDbSymbolTable
 70
     1
100
AcDbDimStyleTable
 71
     0
  0
DIMSTYLE
105
1D
330
A
100
AcDbSymbolTableRecord
100
AcDbDimStyleTableRecord
  2
STANDARD
 70
     0
 41
3.0
 42
1.0
 43
10.0
 44
1.0
 73
     0
 74
     0
 77
     3
 78
     8
140
3.2
141
0.0
147
1.0
172
     1
173
     1
340
F
341
2E
343
2E
344
2E
  0
ENDTAB
  0
TABLE
  2
BLOCK_RECORD
  5
1
330
0
100
AcDbSymbolTable
 70
     1
  0
BLOCK_RECORD
  5
18
102
{ACAD_XDICTIONARY
360
1E6B
102
}
330
1
100
AcDbSymbolTableRecord
100
AcDbBlockTableRecord
  2
*MODEL_SPACE
340
1EBF
  0
BLOCK_RECORD
  5
15
102
{ACAD_XDICTIONARY
360
1E69
102
}
330
1
100
AcDbSymbolTableRecord
100
AcDbBlockTableRecord
  2
*PAPER_SPACE
340
1EC0
  0
BLOCK_RECORD
  5
2E
330
1
100
AcDbSymbolTableRecord
100
AcDbBlockTableRecord
  2
_OPEN
340
0
  0
ENDTAB
  0
ENDSEC
  0
SECTION
  2
BLOCKS
  0
BLOCK
  5
19
330
18
100
AcDbEntity
  8
0
100
AcDbBlockBegin
  2
*MODEL_SPACE
 70
     0
 10
0.0
 20
0.0
 30
0.0
  3
*MODEL_SPACE
  1

  0
ENDBLK
  5
1A
330
18
100
AcDbEntity
  8
0
100
AcDbBlockEnd
  0
BLOCK
  5
16
330
15
100
AcDbEntity
 67
     1
  8
0
100
AcDbBlockBegin
  2
*PAPER_SPACE
 70
     0
 10
0.0
 20
0.0
 30
0.0
  3
*PAPER_SPACE
  1

  0
ENDBLK
  5
17
330
15
100
AcDbEntity
 67
     1
  8
0
100
AcDbBlockEnd
  0
BLOCK
  5
2F
330
2E
100
AcDbEntity
  8
0
100
AcDbBlockBegin
  2
_OPEN
 70
     0
 10
0.0
 20
0.0
 30
0.0
  3
_OPEN
  1

  0
LINE
  5
30
330
2E
100
AcDbEntity
  8
0
  6
ByBlock
 62
     0
100
AcDbLine
 10
-1.0
 20
0.1666666666666666
 30
0.0
 11
0.0
 21
0.0
 31
0.0
  0
LINE
  5
31
330
2E
100
AcDbEntity
  8
0
  6
ByBlock
 62
     0
100
AcDbLine
 10
0.0
 20
0.0
 30
0.0
 11
-1.0
 21
-0.1666666666666666
 31
0.0
  0
LINE
  5
32
330
2E
100
AcDbEntity
  8
0
  6
ByBlock
 62
     0
100
AcDbLine
 10
0.0
 20
0.0
 30
0.0
 11
-1.0
 21
0.0
 31
0.0
  0
ENDBLK
  5
33
330
2E
100
AcDbEntity
  8
0
100
AcDbBlockEnd
  0
ENDSEC
  0
SECTION
  2
ENTITIES
  0
TEXT
  5
63
330
18
100
AcDbEntity
  8
4
  6
CENTER
 48
0.25
100
AcDbText
 10
23.97950852663849
 20
10.0
 30
0.0
 40
1.399999999999999
  1
4
100
AcDbText
  0
TEXT
  5
64
330
18
100
AcDbEntity
  8
7
  6
Continuous
 48
0.25
100
AcDbText
 10
9.999997526638502
 20
26.0000007607689
 30
0.0
 40
3.0
  1
CODE No.13135
100
AcDbText
  0
TEXT
  5
65
330
18
100
AcDbEntity
  8
7
  6
Continuous
 48
0.25
100
AcDbText
 10
9.999997526638502
 20
18.00000076076889
 30
0.0
 40
3.0
  1
TYPE No.THA-429-1-3PL
100
AcDbText
  0
TEXT
  5
66
330
18
100
AcDbEntity
  8
1
  6
Continuous
 48
0.25
100
AcDbText
 10
9.999997526638502
 20
10.00000076076889
 30
0.0
 40
1.399999999999999
  1
LAYER
100
AcDbText
  0
TEXT
  5
67
330
18
100
AcDbEntity
  8
2
  6
Continuous
 48
0.25
100
AcDbText
 10
19.9795085266385
 20
10.0
 30
0.0
 40
1.399999999999999
  1
2
100
AcDbText
  0
TEXT
  5
68
330
18
100
AcDbEntity
  8
3
  6
DASHED
 48
0.25
100
AcDbText
 10
21.9795085266385
 20
10.0
 30
0.0
 40
1.399999999999999
  1
3
100
AcDbText
  0
TEXT
  5
69
330
18
100
AcDbEntity
  8
1
  6
Continuous
 48
0.25
100
AcDbText
 10
17.9795085266385
 20
10.0
 30
0.0
 40
1.399999999999999
  1
1
100
AcDbText
  0
TEXT
  5
6A
330
18
100
AcDbEntity
  8
5
  6
PHANTOM
 48
0.25
100
AcDbText
 10
25.9795085266385
 20
10.0
 30
0.0
 40
1.399999999999999
  1
5
100
AcDbText
  0
TEXT
  5
6B
330
18
100
AcDbEntity
  8
6
  6
Continuous
 48
0.25
100
AcDbText
 10
27.9795085266385
 20
10.0
 30
0.0
 40
1.399999999999999
  1
6
100
AcDbText
  0
TEXT
  5
6C
330
18
100
AcDbEntity
  8
7
  6
Continuous
 48
0.25
100
AcDbText
 10
29.9795085266385
 20
10.0
 30
0.0
 40
1.399999999999999
  1
7
100
AcDbText
  0
LINE
  5
4B3
330
18
100
AcDbEntity
  8
4
  6
CENTER
100
AcDbLine
 10
155.9590523248705
 20
239.8653766521263
 30
0.0
 11
283.6758249241195
 21
239.8653766521263
 31
0.0
  0
LINE
  5
4B4
330
18
100
AcDbEntity
  8
5
  6
PHANTOM
100
AcDbLine
 10
256.6303704673255
 20
194.3796120163309
 30
0.0
 11
234.1474460276708
 21
200.4882626074786
 31
0.0
  0
LINE
  5
4B5
330
18
100
AcDbEntity
  8
5
  6
PHANTOM
100
AcDbLine
 10
217.3813389392016
 20
214.7061078688996
 30
0.0
 11
259.5571078895929
 21
208.0490957169323
 31
0.0
  0
LINE
  5
4B6
330
18
100
AcDbEntity
  8
5
  6
PHANTOM
100
AcDbLine
 10
256.6303704673255
 20
285.3511412878841
 30
0.0
 11
234.1474460276708
 21
279.2424906967364
 31
0.0
  0
LINE
  5
4B7
330
18
100
AcDbEntity
  8
5
  6
PHANTOM
100
AcDbLine
 10
217.3813389392016
 20
265.0246454353156
 30
0.0
 11
259.5571078895929
 21
271.6816575872829
 31
0.0
  0
LINE
  5
4B8
330
18
100
AcDbEntity
  8
1
  6
Continuous
100
AcDbLine
 10
199.0692797725946
 20
282.8653766521346
 30
0.0
 11
259.4570067098004
 21
282.8653766521346
 31
0.0
  0
LINE
  5
4B9
330
18
100
AcDbEntity
  8
1
  6
Continuous
100
AcDbLine
 10
199.069279772618
 20
196.8653766521347
 30
0.0
 11
259.4570067098698
 21
196.8653766521347
 31
0.0
  0
ARC
  5
4BA
330
18
100
AcDbEntity
  8
1
  6
Continuous
100
AcDbCircle
 10
231.0692797727813
 20
-209.1346233478653
 30
0.0
 40
500.0
100
AcDbArc
 50
86.10198753847228
 51
93.89801246156038
  0
ARC
  5
4BB
330
18
100
AcDbEntity
  8
1
  6
Continuous
100
AcDbCircle
 10
231.0692797727813
 20
688.8653766521347
 30
0.0
 40
500.0
100
AcDbArc
 50
266.101987538433
 51
273.8980124615342
  0
LINE
  5
4BE
330
18
100
AcDbEntity
  8
1
  6
Continuous
100
AcDbLine
 10
58.50107193713665
 20
157.7653766522539
 30
0.0
 11
58.50107193713665
 21
194.8653766521182
 31
0.0
  0
LINE
  5
4BF
330
18
100
AcDbEntity
  8
1
  6
Continuous
100
AcDbLine
 10
56.20107193713671
 20
157.7653766522539
 30
0.0
 11
56.20107193713671
 21
194.8653766521241
 31
0.0
  0
LINE
  5
4C0
330
18
100
AcDbEntity
  8
4
  6
CENTER
100
AcDbLine
 10
211.1431646365631
 20
187.0126980597181
 30
0.0
 11
211.1431646365631
 21
169.3312057414539
 31
0.0
  0
ARC
  5
4C1
330
18
100
AcDbEntity
  8
5
  6
PHANTOM
100
AcDbCircle
 10
211.1431646365908
 20
179.7682927366733
 30
0.0
 40
7.0
100
AcDbArc
 50
176.8845639840305
 51
3.115427998573671
  0
CIRCLE
  5
4C2
330
18
100
AcDbEntity
  8
5
  6
PHANTOM
100
AcDbCircle
 10
211.1431646365908
 20
179.7682927366456
 30
0.0
 40
3.75
  0
LINE
  5
4C3
330
18
100
AcDbEntity
  8
1
  6
Continuous
100
AcDbLine
 10
206.4955341590502
 20
165.1458114348589
 30
0.0
 11
207.7617306269692
 21
188.4093934872551
 31
0.0
  0
LINE
  5
4C4
330
18
100
AcDbEntity
  8
1
  6
Continuous
100
AcDbLine
 10
219.176113723488
 20
189.0068440638393
 30
0.0
 11
220.4748251489361
 21
165.1458094787288
 31
0.0
  0
LINE
  5
4C9
330
18
100
AcDbEntity
  8
4
  6
CENTER
100
AcDbLine
 10
49.73907946509439
 20
164.7653766522199
 30
0.0
 11
64.74977946509432
 21
164.7653766522199
 31
0.0
  0
LINE
  5
4CA
330
18
100
AcDbEntity
  8
4
  6
CENTER
100
AcDbLine
 10
51.40107946509442
 20
143.7323766522199
 30
0.0
 11
51.40107946509442
 21
166.71837665222
 31
0.0
  0
LINE
  5
4CD
330
18
100
AcDbEntity
  8
1
  6
Continuous
100
AcDbLine
 10
54.00107946509445
 20
157.56537665222
 30
0.0
 11
54.00107946509445
 21
163.66537665222
 31
0.0
  0
LINE
  5
4CE
330
18
100
AcDbEntity
  8
1
  6
Continuous
100
AcDbLine
 10
55.50107946509445
 20
145.76537665222
 30
0.0
 11
55.50107946509445
 21
163.66537665222
 31
0.0
  0
LINE
  5
4CF
330
18
100
AcDbEntity
  8
1
  6
Continuous
100
AcDbLine
 10
50.00107946509435
 20
159.3653766522198
 30
0.0
 11
54.00107946509432
 21
163.3653766522198
 31
0.0
  0
LINE
  5
4D0
330
18
100
AcDbEntity
  8
1
  6
Continuous
100
AcDbLine
 10
59.10067946509435
 20
160.56537665222
 30
0.0
 11
62.25677946509438
 21
161.6023766522199
 31
0.0
  0
LINE
  5
4D2
330
18
100
AcDbEntity
  8
1
  6
Continuous
100
AcDbLine
 10
48.50107946509445
 20
145.76537665222
 30
0.0
 11
55.50107946509445
 21
145.76537665222
 31
0.0
  0
LINE
  5
4D3
330
18
100
AcDbEntity
  8
1
  6
Continuous
100
AcDbLine
 10
50.00107946509444
 20
148.56537665222
 30
0.0
 11
50.00107946509444
 21
157.56537665222
 31
0.0
  0
LINE
  5
4D4
330
18
100
AcDbEntity
  8
1
  6
Continuous
100
AcDbLine
 10
49.02907946509436
 20
148.56537665222
 30
0.0
 11
49.02907946509436
 21
157.56537665222
 31
0.0
  0
LINE
  5
4D5
330
18
100
AcDbEntity
  8
1
  6
Continuous
100
AcDbLine
 10
46.40107946509442
 20
148.56537665222
 30
0.0
 11
46.40107946509442
 21
157.56537665222
 31
0.0
  0
LINE
  5
4D6
330
18
100
AcDbEntity
  8
1
  6
Continuous
100
AcDbLine
 10
46.40107946509442
 20
148.56537665222
 30
0.0
 11
50.00107946509444
 21
148.56537665222
 31
0.0
  0
LINE
  5
4D7
330
18
100
AcDbEntity
  8
1
  6
Continuous
100
AcDbLine
 10
48.50107946509445
 20
145.76537665222
 30
0.0
 11
48.50107946509445
 21
148.56537665222
 31
0.0
  0
LINE
  5
4D8
330
18
100
AcDbEntity
  8
1
  6
Continuous
100
AcDbLine
 10
46.40107946509442
 20
157.56537665222
 30
0.0
 11
50.00107946509444
 21
157.56537665222
 31
0.0
  0
LINE
  5
4D9
330
18
100
AcDbEntity
  8
1
  6
Continuous
100
AcDbLine
 10
48.50107946509445
 20
159.3653766522199
 30
0.0
 11
50.00107946509444
 21
159.3653766522199
 31
0.0
  0
LINE
  5
4DA
330
18
100
AcDbEntity
  8
1
  6
Continuous
100
AcDbLine
 10
48.50107946509445
 20
157.56537665222
 30
0.0
 11
48.50107946509445
 21
159.3653766522199
 31
0.0
  0
LINE
  5
4DB
330
18
100
AcDbEntity
  8
1
  6
Continuous
100
AcDbLine
 10
54.00107946509432
 20
145.76537665222
 30
0.0
 11
53.50107946509432
 21
146.2653766522199
 31
0.0
  0
LINE
  5
4DC
330
18
100
AcDbEntity
  8
1
  6
Continuous
100
AcDbLine
 10
53.50107946509445
 20
146.2653766522199
 30
0.0
 11
53.50107946509445
 21
148.56537665222
 31
0.0
  0
LINE
  5
4DD
330
18
100
AcDbEntity
  8
1
  6
Continuous
100
AcDbLine
 10
54.00107946509445
 20
145.76537665222
 30
0.0
 11
54.00107946509445
 21
148.56537665222
 31
0.0
  0
LINE
  5
4DE
330
18
100
AcDbEntity
  8
1
  6
Continuous
100
AcDbLine
 10
53.50107946509445
 20
148.56537665222
 30
0.0
 11
55.50107946509445
 21
148.56537665222
 31
0.0
  0
LINE
  5
4DF
330
18
100
AcDbEntity
  8
1
  6
Continuous
100
AcDbLine
 10
55.50107946509445
 20
161.26537665222
 30
0.0
 11
56.20107193713659
 21
161.26537665222
 31
0.0
  0
LINE
  5
4E0
330
18
100
AcDbEntity
  8
1
  6
Continuous
100
AcDbLine
 10
56.20107193713671
 20
157.7653766522539
 30
0.0
 11
58.50107193713665
 21
157.7653766522539
 31
0.0
  0
LINE
  5
4E1
330
18
100
AcDbEntity
  8
1
  6
Continuous
100
AcDbLine
 10
53.50107946509445
 20
157.56537665222
 30
0.0
 11
53.50107946509445
 21
159.3653766522199
 31
0.0
  0
LINE
  5
4E2
330
18
100
AcDbEntity
  8
1
  6
Continuous
100
AcDbLine
 10
53.50107946509432
 20
159.3653766522198
 30
0.0
 11
54.00107946509432
 21
159.8653766522198
 31
0.0
  0
LINE
  5
4E3
330
18
100
AcDbEntity
  8
1
  6
Continuous
100
AcDbLine
 10
53.50107946509445
 20
157.56537665222
 30
0.0
 11
55.50107946509445
 21
157.56537665222
 31
0.0
  0
LINE
  5
4E4
330
18
100
AcDbEntity
  8
1
  6
Continuous
100
AcDbLine
 10
58.50107946509445
 20
160.56537665222
 30
0.0
 11
59.10067946509435
 21
160.56537665222
 31
0.0
  0
LINE
  5
4E6
330
18
100
AcDbEntity
  8
1
  6
Continuous
100
AcDbLine
 10
54.00107946509445
 20
165.8653766522199
 30
0.0
 11
54.00107946509445
 21
169.76537665222
 31
0.0
  0
LINE
  5
4E7
330
18
100
AcDbEntity
  8
1
  6
Continuous
100
AcDbLine
 10
55.50107946509445
 20
165.8653766522199
 30
0.0
 11
55.50107946509445
 21
169.76537665222
 31
0.0
  0
LINE
  5
4E8
330
18
100
AcDbEntity
  8
1
  6
Continuous
100
AcDbLine
 10
55.50107946509434
 20
165.8653766522198
 30
0.0
 11
56.20107193713671
 21
165.821022035862
 31
0.0
  0
LINE
  5
4E9
330
18
100
AcDbEntity
  8
1
  6
Continuous
100
AcDbLine
 10
55.50107946509434
 20
163.66537665222
 30
0.0
 11
56.20107193713671
 21
163.7098786261072
 31
0.0
  0
LINE
  5
4EA
330
18
100
AcDbEntity
  8
1
  6
Continuous
100
AcDbLine
 10
55.50107946509445
 20
168.26537665222
 30
0.0
 11
56.20107193713659
 21
168.26537665222
 31
0.0
  0
LINE
  5
4EB
330
18
100
AcDbEntity
  8
1
  6
Continuous
100
AcDbLine
 10
54.00107946509445
 20
163.66537665222
 30
0.0
 11
55.50107946509445
 21
163.66537665222
 31
0.0
  0
LINE
  5
4EC
330
18
100
AcDbEntity
  8
1
  6
Continuous
100
AcDbLine
 10
54.00107946509445
 20
165.8653766522199
 30
0.0
 11
55.50107946509445
 21
165.8653766522199
 31
0.0
  0
ARC
  5
4ED
330
18
100
AcDbEntity
  8
1
  6
Continuous
100
AcDbCircle
 10
62.10067946509434
 20
167.4533766522199
 30
0.0
 40
0.5
100
AcDbArc
 50
0.0
 51
71.81099999999748
  0
ARC
  5
4EE
330
18
100
AcDbEntity
  8
1
  6
Continuous
100
AcDbCircle
 10
62.10067946509434
 20
162.07737665222
 30
0.0
 40
0.5
100
AcDbArc
 50
288.1890000000025
 51
0.0
  0
ARC
  5
4EF
330
18
100
AcDbEntity
  8
1
  6
Continuous
100
AcDbCircle
 10
60.20067946509437
 20
164.7653766522199
 30
0.0
 40
0.8
100
AcDbArc
 50
273.7109999999979
 51
86.28900000000205
  0
LINE
  5
4F0
330
18
100
AcDbEntity
  8
1
  6
Continuous
100
AcDbLine
 10
59.10067946509446
 20
168.96537665222
 30
0.0
 11
62.25677946509449
 21
167.92837665222
 31
0.0
  0
LINE
  5
4F2
330
18
100
AcDbEntity
  8
1
  6
Continuous
100
AcDbLine
 10
58.50107946509445
 20
168.96537665222
 30
0.0
 11
59.10067946509435
 21
168.96537665222
 31
0.0
  0
LINE
  5
4F3
330
18
100
AcDbEntity
  8
1
  6
Continuous
100
AcDbLine
 10
62.60067946509434
 20
162.07737665222
 30
0.0
 11
62.60067946509434
 21
167.4533766522199
 31
0.0
  0
LINE
  5
4F4
330
18
100
AcDbEntity
  8
1
  6
Continuous
100
AcDbLine
 10
54.00107946509445
 20
169.76537665222
 30
0.0
 11
55.50107946509445
 21
169.76537665222
 31
0.0
  0
LINE
  5
4FD
330
18
100
AcDbEntity
  8
4
  6
CENTER
100
AcDbLine
 10
213.4851886122973
 20
172.359927035345
 30
0.0
 11
213.4851886122973
 21
142.9691103502593
 31
0.0
  0
ARC
  5
4FE
330
18
100
AcDbEntity
  8
1
  6
Continuous
100
AcDbCircle
 10
213.4851886123251
 20
164.7653766522541
 30
0.0
 40
7.0
100
AcDbArc
 50
176.8845639840305
 51
3.115427998573671
  0
ARC
  5
4FF
330
18
100
AcDbEntity
  8
1
  6
Continuous
100
AcDbCircle
 10
213.4851886123251
 20
164.7653766522264
 30
0.0
 40
3.75
100
AcDbArc
 50
329.1548024963439
 51
30.84519750365318
  0
LINE
  5
503
330
18
100
AcDbEntity
  8
4
  6
CENTER
100
AcDbLine
 10
204.56616543684
 20
164.7653766522264
 30
0.0
 11
222.7700031899844
 21
164.7653766522264
 31
0.0
  0
LINE
  5
504
330
18
100
AcDbEntity
  8
4
  6
CENTER
100
AcDbLine
 10
44.90835613312969
 20
239.8653766521076
 30
0.0
 11
88.4876786695198
 21
239.8653766521076
 31
0.0
  0
ARC
  5
505
330
18
100
AcDbEntity
  8
1
  6
Continuous
100
AcDbCircle
 10
63.90107193726101
 20
281.8653766516926
 30
0.0
 40
3.0
100
AcDbArc
 50
0.0
 51
90.0
  0
ARC
  5
506
330
18
100
AcDbEntity
  8
1
  6
Continuous
100
AcDbCircle
 10
63.90107193726101
 20
197.8653766521047
 30
0.0
 40
3.0
100
AcDbArc
 50
270.0
 51
0.0
  0
LINE
  5
507
330
18
100
AcDbEntity
  8
4
  6
CENTER
100
AcDbLine
 10
49.73907193708874
 20
314.9653766523131
 30
0.0
 11
64.74977193708878
 21
314.9653766523131
 31
0.0
  0
LINE
  5
508
330
18
100
AcDbEntity
  8
4
  6
CENTER
100
AcDbLine
 10
47.26101106490943
 20
222.3653766521076
 30
0.0
 11
65.59232081336199
 21
222.3653766521076
 31
0.0
  0
LINE
  5
509
330
18
100
AcDbEntity
  8
4
  6
CENTER
100
AcDbLine
 10
47.26101106490943
 20
257.3653766521076
 30
0.0
 11
65.59232081336199
 21
257.3653766521076
 31
0.0
  0
LINE
  5
50A
330
18
100
AcDbEntity
  8
4
  6
CENTER
100
AcDbLine
 10
47.26101106490943
 20
209.8653766521076
 30
0.0
 11
65.59232081336199
 21
209.8653766521076
 31
0.0
  0
LINE
  5
50B
330
18
100
AcDbEntity
  8
4
  6
CENTER
100
AcDbLine
 10
47.26101106490943
 20
269.8653766521076
 30
0.0
 11
65.59232081336199
 21
269.8653766521076
 31
0.0
  0
LINE
  5
50F
330
18
100
AcDbEntity
  8
1
  6
Continuous
100
AcDbLine
 10
56.20107193705371
 20
321.9653766523124
 30
0.0
 11
56.20107193721811
 21
284.8653766516824
 31
0.0
  0
LINE
  5
510
330
18
100
AcDbEntity
  8
1
  6
Continuous
100
AcDbLine
 10
58.50107193705365
 20
321.9653766523213
 30
0.0
 11
58.50107193721817
 21
284.8653766516853
 31
0.0
  0
LINE
  5
511
330
18
100
AcDbEntity
  8
1
  6
Continuous
100
AcDbLine
 10
62.10107193729618
 20
232.6653766521076
 30
0.0
 11
62.10107193729618
 21
247.0653766521077
 31
0.0
  0
LINE
  5
512
330
18
100
AcDbEntity
  8
1
  6
Continuous
100
AcDbLine
 10
51.90107193729603
 20
232.6653766521076
 30
0.0
 11
51.90107193729603
 21
247.0653766521077
 31
0.0
  0
LINE
  5
513
330
18
100
AcDbEntity
  8
1
  6
Continuous
100
AcDbLine
 10
49.90107193726101
 20
284.8653766516741
 30
0.0
 11
49.90107193726101
 21
194.8653766521399
 31
0.0
  0
LINE
  5
514
330
18
100
AcDbEntity
  8
1
  6
Continuous
100
AcDbLine
 10
61.90107193729603
 20
233.8653766512313
 30
0.0
 11
61.90107193729603
 21
245.8653766516587
 31
0.0
  0
CIRCLE
  5
516
330
18
100
AcDbEntity
  8
2
  6
Continuous
100
AcDbCircle
 10
59.90107193726101
 20
209.8653766518876
 30
0.0
 40
2.5
  0
CIRCLE
  5
517
330
18
100
AcDbEntity
  8
1
  6
Continuous
100
AcDbCircle
 10
59.90107193726101
 20
209.8653766518876
 30
0.0
 40
2.066999999999999
  0
LINE
  5
518
330
18
100
AcDbEntity
  8
4
  6
CENTER
100
AcDbLine
 10
59.90107193726101
 20
213.8653766518876
 30
0.0
 11
59.90107193726101
 21
205.8653766518876
 31
0.0
  0
LINE
  5
51A
330
18
100
AcDbEntity
  8
1
  6
Continuous
100
AcDbLine
 10
63.9010719372535
 20
194.8653766521046
 30
0.0
 11
49.90107193743506
 21
194.8653766521399
 31
0.0
  0
ARC
  5
51D
330
18
100
AcDbEntity
  8
1
  6
Continuous
100
AcDbCircle
 10
52.90107193729603
 20
233.8653766512111
 30
0.0
 40
1.0
100
AcDbArc
 50
180.0
 51
270.0
  0
LINE
  5
51E
330
18
100
AcDbEntity
  8
1
  6
Continuous
100
AcDbLine
 10
49.90107193726101
 20
232.6653766521076
 30
0.0
 11
62.10107193729618
 21
232.6653766521076
 31
0.0
  0
LINE
  5
51F
330
18
100
AcDbEntity
  8
1
  6
Continuous
100
AcDbLine
 10
60.90107193729863
 20
232.8653766512313
 30
0.0
 11
52.90107193729864
 21
232.8653766512111
 31
0.0
  0
ARC
  5
520
330
18
100
AcDbEntity
  8
1
  6
Continuous
100
AcDbCircle
 10
60.90107193729603
 20
233.8653766512313
 30
0.0
 40
1.0
100
AcDbArc
 50
270.0
 51
0.0
  0
ARC
  5
522
330
18
100
AcDbEntity
  8
1
  6
Continuous
100
AcDbCircle
 10
52.90107193729603
 20
245.8653766516726
 30
0.0
 40
1.0
100
AcDbArc
 50
90.0
 51
180.0
  0
LINE
  5
523
330
18
100
AcDbEntity
  8
1
  6
Continuous
100
AcDbLine
 10
49.90107193726101
 20
247.0653766521077
 30
0.0
 11
62.10107193729618
 21
247.0653766521077
 31
0.0
  0
LINE
  5
524
330
18
100
AcDbEntity
  8
1
  6
Continuous
100
AcDbLine
 10
60.90107193729784
 20
246.8653766516585
 30
0.0
 11
52.90107193729784
 21
246.8653766516726
 31
0.0
  0
ARC
  5
525
330
18
100
AcDbEntity
  8
1
  6
Continuous
100
AcDbCircle
 10
60.90107193729603
 20
245.8653766516586
 30
0.0
 40
1.0
100
AcDbArc
 50
0.0
 51
90.0
  0
CIRCLE
  5
526
330
18
100
AcDbEntity
  8
2
  6
Continuous
100
AcDbCircle
 10
59.90107193726101
 20
269.8653766518876
 30
0.0
 40
2.5
  0
CIRCLE
  5
527
330
18
100
AcDbEntity
  8
1
  6
Continuous
100
AcDbCircle
 10
59.90107193726101
 20
269.8653766518876
 30
0.0
 40
2.066999999999999
  0
LINE
  5
528
330
18
100
AcDbEntity
  8
4
  6
CENTER
100
AcDbLine
 10
59.90107193726101
 20
273.8653766518876
 30
0.0
 11
59.90107193726101
 21
265.8653766518876
 31
0.0
  0
LINE
  5
52B
330
18
100
AcDbEntity
  8
1
  6
Continuous
100
AcDbLine
 10
63.90107193725703
 20
284.8653766516924
 30
0.0
 11
49.90107193743518
 21
284.8653766516741
 31
0.0
  0
LINE
  5
52C
330
18
100
AcDbEntity
  8
1
  6
Continuous
100
AcDbLine
 10
55.50107193708868
 20
333.9653766523131
 30
0.0
 11
55.50107193708868
 21
316.0653766523131
 31
0.0
  0
LINE
  5
52D
330
18
100
AcDbEntity
  8
1
  6
Continuous
100
AcDbLine
 10
46.40107193708877
 20
331.1653766523131
 30
0.0
 11
46.40107193708877
 21
322.1653766523131
 31
0.0
  0
LINE
  5
52E
330
18
100
AcDbEntity
  8
4
  6
CENTER
100
AcDbLine
 10
51.40107193708877
 20
335.9993766523131
 30
0.0
 11
51.40107193708877
 21
313.0123766523131
 31
0.0
  0
LINE
  5
52F
330
18
100
AcDbEntity
  8
1
  6
Continuous
100
AcDbLine
 10
50.00107193708879
 20
320.3653766523131
 30
0.0
 11
54.0010719370888
 21
316.3653766523131
 31
0.0
  0
LINE
  5
531
330
18
100
AcDbEntity
  8
1
  6
Continuous
100
AcDbLine
 10
46.40107193708877
 20
322.1653766523131
 30
0.0
 11
48.50107193708879
 21
322.1653766523131
 31
0.0
  0
LINE
  5
532
330
18
100
AcDbEntity
  8
1
  6
Continuous
100
AcDbLine
 10
48.50107193708879
 20
320.3653766523131
 30
0.0
 11
50.00107193708879
 21
320.3653766523131
 31
0.0
  0
LINE
  5
533
330
18
100
AcDbEntity
  8
1
  6
Continuous
100
AcDbLine
 10
48.50107193708879
 20
322.1653766523131
 30
0.0
 11
48.50107193708879
 21
320.3653766523131
 31
0.0
  0
LINE
  5
535
330
18
100
AcDbEntity
  8
1
  6
Continuous
100
AcDbLine
 10
62.60067193708869
 20
317.6533766523131
 30
0.0
 11
62.60067193708869
 21
312.2773766523132
 31
0.0
  0
LINE
  5
536
330
18
100
AcDbEntity
  8
1
  6
Continuous
100
AcDbLine
 10
55.50107193708868
 20
316.0653766523131
 30
0.0
 11
56.20107193707998
 21
316.0208741998368
 31
0.0
  0
LINE
  5
537
330
18
100
AcDbEntity
  8
1
  6
Continuous
100
AcDbLine
 10
55.50107193708868
 20
313.8653766523133
 30
0.0
 11
56.20107193708918
 21
313.9097317456759
 31
0.0
  0
LINE
  5
538
330
18
100
AcDbEntity
  8
1
  6
Continuous
100
AcDbLine
 10
55.50107193708868
 20
311.4653766523131
 30
0.0
 11
56.20107193710009
 21
311.4653766523131
 31
0.0
  0
LINE
  5
539
330
18
100
AcDbEntity
  8
1
  6
Continuous
100
AcDbLine
 10
54.00107193708868
 20
316.3653766523131
 30
0.0
 11
54.00107193708868
 21
316.0653766523131
 31
0.0
  0
LINE
  5
53A
330
18
100
AcDbEntity
  8
1
  6
Continuous
100
AcDbLine
 10
54.00107193708868
 20
313.8653766523131
 30
0.0
 11
54.00107193708868
 21
309.9653766523131
 31
0.0
  0
LINE
  5
53B
330
18
100
AcDbEntity
  8
1
  6
Continuous
100
AcDbLine
 10
55.50107193708868
 20
313.8653766523131
 30
0.0
 11
55.50107193708868
 21
309.9653766523131
 31
0.0
  0
LINE
  5
53C
330
18
100
AcDbEntity
  8
1
  6
Continuous
100
AcDbLine
 10
54.00107193708868
 20
316.0653766523131
 30
0.0
 11
55.50107193708868
 21
316.0653766523131
 31
0.0
  0
LINE
  5
53D
330
18
100
AcDbEntity
  8
1
  6
Continuous
100
AcDbLine
 10
54.00107193708868
 20
313.8653766523131
 30
0.0
 11
55.50107193708868
 21
313.8653766523131
 31
0.0
  0
LINE
  5
53E
330
18
100
AcDbEntity
  8
1
  6
Continuous
100
AcDbLine
 10
54.00107193708868
 20
309.9653766523131
 30
0.0
 11
55.50107193708868
 21
309.9653766523131
 31
0.0
  0
ARC
  5
53F
330
18
100
AcDbEntity
  8
1
  6
Continuous
100
AcDbCircle
 10
62.10067193708869
 20
312.2773766523132
 30
0.0
 40
0.5
100
AcDbArc
 50
288.1890000000025
 51
0.0
  0
ARC
  5
540
330
18
100
AcDbEntity
  8
1
  6
Continuous
100
AcDbCircle
 10
60.20067193708882
 20
314.9653766523131
 30
0.0
 40
0.8
100
AcDbArc
 50
273.6330000000003
 51
86.3669999999996
  0
LINE
  5
541
330
18
100
AcDbEntity
  8
1
  6
Continuous
100
AcDbLine
 10
59.10067193708869
 20
310.7653766523132
 30
0.0
 11
62.25677193708873
 21
311.8023766523131
 31
0.0
  0
LINE
  5
543
330
18
100
AcDbEntity
  8
1
  6
Continuous
100
AcDbLine
 10
58.50107193708868
 20
310.7653766523132
 30
0.0
 11
59.10067193708869
 21
310.7653766523132
 31
0.0
  0
LINE
  5
544
330
18
100
AcDbEntity
  8
1
  6
Continuous
100
AcDbLine
 10
55.50107193708868
 20
318.4653766523131
 30
0.0
 11
56.20107193706918
 21
318.4653766523131
 31
0.0
  0
LINE
  5
545
330
18
100
AcDbEntity
  8
1
  6
Continuous
100
AcDbLine
 10
56.20107193705371
 20
321.9653766523023
 30
0.0
 11
58.50107193705365
 21
321.9653766523023
 31
0.0
  0
ARC
  5
546
330
18
100
AcDbEntity
  8
1
  6
Continuous
100
AcDbCircle
 10
62.10067193708869
 20
317.6533766523131
 30
0.0
 40
0.5
100
AcDbArc
 50
0.0
 51
71.81099999999748
  0
LINE
  5
547
330
18
100
AcDbEntity
  8
1
  6
Continuous
100
AcDbLine
 10
59.10067193708869
 20
319.1653766523131
 30
0.0
 11
62.25677193708884
 21
318.1283766523131
 31
0.0
  0
LINE
  5
548
330
18
100
AcDbEntity
  8
1
  6
Continuous
100
AcDbLine
 10
58.50107193708868
 20
319.1653766523131
 30
0.0
 11
59.10067193708869
 21
319.1653766523131
 31
0.0
  0
LINE
  5
549
330
18
100
AcDbEntity
  8
1
  6
Continuous
100
AcDbLine
 10
48.50107193708879
 20
333.9653766523131
 30
0.0
 11
55.50107193708868
 21
333.9653766523131
 31
0.0
  0
LINE
  5
54A
330
18
100
AcDbEntity
  8
1
  6
Continuous
100
AcDbLine
 10
48.50107193708879
 20
333.9653766523131
 30
0.0
 11
48.50107193708879
 21
331.1653766523131
 31
0.0
  0
LINE
  5
54B
330
18
100
AcDbEntity
  8
1
  6
Continuous
100
AcDbLine
 10
46.40107193708877
 20
331.1653766523131
 30
0.0
 11
48.50107193708879
 21
331.1653766523131
 31
0.0
  0
LINE
  5
54C
330
18
100
AcDbEntity
  8
4
  6
CENTER
100
AcDbLine
 10
211.1431646365631
 20
293.3750809582864
 30
0.0
 11
211.1431646365631
 21
310.3995475627614
 31
0.0
  0
LINE
  5
54D
330
18
100
AcDbEntity
  8
1
  6
Continuous
100
AcDbLine
 10
206.4955341590502
 20
314.5849418693561
 30
0.0
 11
207.7617306269692
 21
291.3213598169596
 31
0.0
  0
LINE
  5
54E
330
18
100
AcDbEntity
  8
1
  6
Continuous
100
AcDbLine
 10
219.1761137234909
 20
290.72390924043
 30
0.0
 11
220.4748251489361
 21
314.584943825486
 31
0.0
  0
LINE
  5
54F
330
18
100
AcDbEntity
  8
4
  6
CENTER
100
AcDbLine
 10
213.4851886122973
 20
306.7869343840724
 30
0.0
 11
213.4851886122973
 21
337.7217835163946
 31
0.0
  0
ARC
  5
550
330
18
100
AcDbEntity
  8
1
  6
Continuous
100
AcDbCircle
 10
213.4851886123251
 20
314.9653766519609
 30
0.0
 40
7.0
100
AcDbArc
 50
356.8845720014262
 51
183.1154360159693
  0
LINE
  5
55A
330
18
100
AcDbEntity
  8
1
  6
Continuous
100
AcDbLine
 10
66.90107193726101
 20
281.8653766516926
 30
0.0
 11
66.90107193726101
 21
197.8653766521047
 31
0.0
  0
LINE
  5
55B
330
18
100
AcDbEntity
  8
1
  6
Continuous
100
AcDbLine
 10
78.90107193727567
 20
188.8653766523842
 30
0.0
 11
78.90107193727567
 21
290.8653766523875
 31
0.0
  0
LINE
  5
55C
330
18
100
AcDbEntity
  8
1
  6
Continuous
100
AcDbLine
 10
83.40107193721078
 20
189.8653766523868
 30
0.0
 11
83.40107193721078
 21
289.8653766523866
 31
0.0
  0
LINE
  5
55D
330
18
100
AcDbEntity
  8
1
  6
Continuous
100
AcDbLine
 10
76.90107193727567
 20
188.8653766523842
 30
0.0
 11
76.90107193727567
 21
290.8653766523875
 31
0.0
  0
ARC
  5
55E
330
18
100
AcDbEntity
  8
1
  6
Continuous
100
AcDbCircle
 10
70.10107193726458
 20
201.8653766521076
 30
0.0
 40
8.0
100
AcDbArc
 50
234.8510002323175
 51
270.0
  0
LINE
  5
55F
330
18
100
AcDbEntity
  8
1
  6
Continuous
100
AcDbLine
 10
70.10107193726458
 20
193.8653766521077
 30
0.0
 11
76.90107193727567
 21
193.8653766521077
 31
0.0
  0
LINE
  5
560
330
18
100
AcDbEntity
  8
1
  6
Continuous
100
AcDbLine
 10
82.40107193721144
 20
188.8653766523867
 30
0.0
 11
76.90107193727567
 21
188.8653766523828
 31
0.0
  0
ARC
  5
561
330
18
100
AcDbEntity
  8
1
  6
Continuous
100
AcDbCircle
 10
82.40107193721078
 20
189.8653766523868
 30
0.0
 40
1.0
100
AcDbArc
 50
270.0
 51
0.0
  0
LINE
  5
562
330
18
100
AcDbEntity
  8
1
  6
Continuous
100
AcDbLine
 10
70.10107193726458
 20
285.8653766521076
 30
0.0
 11
76.90107193727567
 21
285.8653766521076
 31
0.0
  0
ARC
  5
563
330
18
100
AcDbEntity
  8
1
  6
Continuous
100
AcDbCircle
 10
70.10107193726458
 20
277.8653766521076
 30
0.0
 40
8.0
100
AcDbArc
 50
90.0
 51
125.1489997704318
  0
LINE
  5
564
330
18
100
AcDbEntity
  8
1
  6
Continuous
100
AcDbLine
 10
82.40107193720994
 20
290.8653766523866
 30
0.0
 11
76.9010719372758
 21
290.8653766523826
 31
0.0
  0
ARC
  5
565
330
18
100
AcDbEntity
  8
1
  6
Continuous
100
AcDbCircle
 10
82.40107193721078
 20
289.8653766523866
 30
0.0
 40
1.0
100
AcDbArc
 50
0.0
 51
90.0
  0
LINE
  5
566
330
18
100
AcDbEntity
  8
1
  6
Continuous
100
AcDbLine
 10
174.5692797728561
 20
284.8653766522719
 30
0.0
 11
174.5692797728561
 21
194.8653766522684
 31
0.0
  0
LINE
  5
567
330
18
100
AcDbEntity
  8
1
  6
Continuous
100
AcDbLine
 10
172.5692797728561
 20
284.8653766522719
 30
0.0
 11
172.5692797728561
 21
194.865376652272
 31
0.0
  0
LINE
  5
568
330
18
100
AcDbEntity
  8
1
  6
Continuous
100
AcDbLine
 10
198.569279772618
 20
197.3653766521346
 30
0.0
 11
198.5692797725946
 21
282.3653766521346
 31
0.0
  0
ARC
  5
569
330
18
100
AcDbEntity
  8
1
  6
Continuous
100
AcDbCircle
 10
698.069279772641
 20
239.865376651835
 30
0.0
 40
508.4999999999998
100
AcDbArc
 50
174.9929679240814
 51
185.0070320758499
  0
LINE
  5
56A
330
18
100
AcDbEntity
  8
1
  6
Continuous
100
AcDbLine
 10
201.6393601362181
 20
242.5518721214773
 30
0.0
 11
201.6393601362181
 21
263.2849415376691
 31
0.0
  0
LINE
  5
56B
330
18
100
AcDbEntity
  8
1
  6
Continuous
100
AcDbLine
 10
199.0692797724959
 20
198.3653766521263
 30
0.0
 11
199.0692797724739
 21
281.3653766521264
 31
0.0
  0
LINE
  5
56C
330
18
100
AcDbEntity
  8
1
  6
Continuous
100
AcDbLine
 10
160.5692797705994
 20
233.8653766521263
 30
0.0
 11
160.5692797705994
 21
245.8653766521263
 31
0.0
  0
ARC
  5
56D
330
18
100
AcDbEntity
  8
1
  6
Continuous
100
AcDbCircle
 10
-235.9307202273589
 20
239.8653766517051
 30
0.0
 40
475.4999999998788
100
AcDbArc
 50
355.2045974638872
 51
4.795402536215687
  0
LINE
  5
56E
330
18
100
AcDbEntity
  8
4
  6
CENTER
100
AcDbLine
 10
202.2241414611055
 20
179.7682927366456
 30
0.0
 11
220.4279792142501
 21
179.7682927366456
 31
0.0
  0
LINE
  5
56F
330
18
100
AcDbEntity
  8
1
  6
Continuous
100
AcDbLine
 10
200.0692797724959
 20
197.3653766521268
 30
0.0
 11
234.9153267985438
 21
197.3653766521268
 31
0.0
  0
LINE
  5
570
330
18
100
AcDbEntity
  8
1
  6
Continuous
100
AcDbLine
 10
176.5692797728561
 20
213.4653766522932
 30
0.0
 11
176.5692797728561
 21
206.2653766522934
 31
0.0
  0
LINE
  5
571
330
18
100
AcDbEntity
  8
1
  6
Continuous
100
AcDbLine
 10
201.6393601362181
 20
198.5932321724094
 30
0.0
 11
201.6393601362181
 21
216.8338047937958
 31
0.0
  0
LINE
  5
572
330
18
100
AcDbEntity
  8
1
  6
Continuous
100
AcDbLine
 10
172.5692797728561
 20
194.865376652272
 30
0.0
 11
191.5966611473927
 21
194.865376652239
 31
0.0
  0
LINE
  5
573
330
18
100
AcDbEntity
  8
4
  6
CENTER
100
AcDbLine
 10
181.9451312866865
 20
209.8653766522998
 30
0.0
 11
166.9139454095743
 21
209.8653766522998
 31
0.0
  0
ARC
  5
574
330
18
100
AcDbEntity
  8
1
  6
Continuous
100
AcDbCircle
 10
175.5692797728561
 20
205.2653766522933
 30
0.0
 40
1.0
100
AcDbArc
 50
90.0
 51
180.0
  0
LINE
  5
575
330
18
100
AcDbEntity
  8
1
  6
Continuous
100
AcDbLine
 10
175.5692797728561
 20
206.2653766522934
 30
0.0
 11
176.5692797728561
 21
206.2653766522934
 31
0.0
  0
ARC
  5
576
330
18
100
AcDbEntity
  8
1
  6
Continuous
100
AcDbCircle
 10
197.4868229314996
 20
196.0081776659541
 30
0.0
 40
6.0
100
AcDbArc
 50
185.0070320758499
 51
266.101987538433
  0
ARC
  5
577
330
18
100
AcDbEntity
  8
1
  6
Continuous
100
AcDbCircle
 10
199.069279772618
 20
197.3653766521346
 30
0.0
 40
0.5
100
AcDbArc
 50
180.0
 51
270.0
  0
ARC
  5
578
330
18
100
AcDbEntity
  8
1
  6
Continuous
100
AcDbCircle
 10
200.0692797724959
 20
198.3653766521268
 30
0.0
 40
1.0
100
AcDbArc
 50
180.0
 51
270.0
  0
LINE
  5
579
330
18
100
AcDbEntity
  8
1
  6
Continuous
100
AcDbLine
 10
174.5692797728561
 20
232.8653766521263
 30
0.0
 11
189.6174629797376
 21
232.8653766521263
 31
0.0
  0
ARC
  5
57A
330
18
100
AcDbEntity
  8
1
  6
Continuous
100
AcDbCircle
 10
175.5692797728561
 20
214.4653766522933
 30
0.0
 40
1.0
100
AcDbArc
 50
180.0
 51
270.0
  0
LINE
  5
57B
330
18
100
AcDbEntity
  8
1
  6
Continuous
100
AcDbLine
 10
175.5692797728561
 20
213.4653766522932
 30
0.0
 11
176.5692797728561
 21
213.4653766522932
 31
0.0
  0
LINE
  5
57C
330
18
100
AcDbEntity
  8
1
  6
Continuous
100
AcDbLine
 10
161.5692797705994
 20
232.8653766521263
 30
0.0
 11
172.5692797728561
 21
232.8653766521263
 31
0.0
  0
ARC
  5
57D
330
18
100
AcDbEntity
  8
1
  6
Continuous
100
AcDbCircle
 10
161.5692797705994
 20
233.8653766521263
 30
0.0
 40
1.0
100
AcDbArc
 50
180.0
 51
270.0
  0
LINE
  5
57E
330
18
100
AcDbEntity
  8
1
  6
Continuous
100
AcDbLine
 10
201.6393601362181
 20
220.7991461042869
 30
0.0
 11
201.6393601362181
 21
237.3402824135836
 31
0.0
  0
LINE
  5
583
330
18
100
AcDbEntity
  8
5
  6
PHANTOM
100
AcDbLine
 10
217.8754968967694
 20
207.5755187919073
 30
0.0
 11
228.5722183753209
 21
205.2852732834346
 31
0.0
  0
LINE
  5
585
330
18
100
AcDbEntity
  8
4
  6
CENTER
100
AcDbLine
 10
210.5692797726108
 20
201.5217956173906
 30
0.0
 11
210.5692797726108
 21
192.5113100280805
 31
0.0
  0
LINE
  5
586
330
18
100
AcDbEntity
  8
5
  6
PHANTOM
100
AcDbLine
 10
204.153510183316
 20
180.148727519278
 30
0.0
 11
204.6659127855798
 21
189.5630011202941
 31
0.0
  0
ARC
  5
587
330
18
100
AcDbEntity
  8
1
  6
Continuous
100
AcDbCircle
 10
209.7587747564761
 20
188.3006978350824
 30
0.0
 40
2.0
100
AcDbArc
 50
146.8632092099582
 51
176.88456398403
  0
LINE
  5
588
330
18
100
AcDbEntity
  8
5
  6
PHANTOM
100
AcDbLine
 10
217.6583701789995
 20
188.8653766521349
 30
0.0
 11
218.1328011732019
 21
180.1487255631482
 31
0.0
  0
LINE
  5
589
330
18
100
AcDbEntity
  8
1
  6
Continuous
100
AcDbLine
 10
204.5692797726105
 20
196.8653766521347
 30
0.0
 11
204.5692797726105
 21
197.3653766521268
 31
0.0
  0
LINE
  5
58A
330
18
100
AcDbEntity
  8
1
  6
Continuous
100
AcDbLine
 10
216.5692797726105
 20
196.8653766521347
 30
0.0
 11
216.5692797726105
 21
197.3653766521268
 31
0.0
  0
ARC
  5
591
330
18
100
AcDbEntity
  8
5
  6
PHANTOM
100
AcDbCircle
 10
217.4567724404851
 20
205.6198424818524
 30
0.0
 40
2.0
100
AcDbArc
 50
77.91502018741543
 51
127.6627780745097
  0
ARC
  5
595
330
18
100
AcDbEntity
  8
1
  6
Continuous
100
AcDbCircle
 10
234.9153267985438
 20
200.3653766521268
 30
0.0
 40
3.0
100
AcDbArc
 50
270.0
 51
355.2045974638876
  0
ARC
  5
596
330
18
100
AcDbEntity
  8
5
  6
PHANTOM
100
AcDbCircle
 10
227.3425244698908
 20
199.5419181882727
 30
0.0
 40
5.873523205893762
100
AcDbArc
 50
21.42741890471158
 51
77.91502018741543
  0
LINE
  5
597
330
18
100
AcDbEntity
  8
1
  6
Continuous
100
AcDbLine
 10
230.5692797726105
 20
196.8653766521347
 30
0.0
 11
230.5692797726105
 21
197.3653766521268
 31
0.0
  0
ARC
  5
598
330
18
100
AcDbEntity
  8
5
  6
PHANTOM
100
AcDbCircle
 10
234.6718383923028
 20
202.4182917906558
 30
0.0
 40
2.0
100
AcDbArc
 50
201.4274189047108
 51
254.799584171446
  0
LINE
  5
59E
330
18
100
AcDbEntity
  8
4
  6
CENTER
100
AcDbLine
 10
202.2241414611055
 20
299.9624605675696
 30
0.0
 11
220.4279792142501
 21
299.9624605675696
 31
0.0
  0
LINE
  5
59F
330
18
100
AcDbEntity
  8
1
  6
Continuous
100
AcDbLine
 10
200.0692797724739
 20
282.3653766521267
 30
0.0
 11
234.9153267984732
 21
282.3653766521267
 31
0.0
  0
LINE
  5
5A0
330
18
100
AcDbEntity
  8
1
  6
Continuous
100
AcDbLine
 10
201.6393601362181
 20
267.3635852291806
 30
0.0
 11
201.6393601362181
 21
280.8457387698436
 31
0.0
  0
LINE
  5
5A1
330
18
100
AcDbEntity
  8
1
  6
Continuous
100
AcDbLine
 10
174.5692797728561
 20
246.8653766521263
 30
0.0
 11
189.6174629797458
 21
246.8653766521263
 31
0.0
  0
LINE
  5
5A2
330
18
100
AcDbEntity
  8
4
  6
CENTER
100
AcDbLine
 10
181.9451312866865
 20
269.8653766522999
 30
0.0
 11
166.9139454095743
 21
269.8653766522999
 31
0.0
  0
LINE
  5
5A3
330
18
100
AcDbEntity
  8
1
  6
Continuous
100
AcDbLine
 10
161.5692797705994
 20
246.8653766521263
 30
0.0
 11
172.5692797728561
 21
246.8653766521263
 31
0.0
  0
ARC
  5
5A4
330
18
100
AcDbEntity
  8
1
  6
Continuous
100
AcDbCircle
 10
161.5692797705994
 20
245.8653766521263
 30
0.0
 40
1.0
100
AcDbArc
 50
90.0
 51
180.0
  0
LINE
  5
5A5
330
18
100
AcDbEntity
  8
1
  6
Continuous
100
AcDbLine
 10
176.5692797728561
 20
273.4653766522965
 30
0.0
 11
176.5692797728561
 21
266.2653766522966
 31
0.0
  0
ARC
  5
5A6
330
18
100
AcDbEntity
  8
1
  6
Continuous
100
AcDbCircle
 10
175.5692797728561
 20
265.2653766522966
 30
0.0
 40
1.0
100
AcDbArc
 50
90.0
 51
180.0
  0
LINE
  5
5A7
330
18
100
AcDbEntity
  8
1
  6
Continuous
100
AcDbLine
 10
175.5692797728561
 20
266.2653766522966
 30
0.0
 11
176.5692797728561
 21
266.2653766522966
 31
0.0
  0
ARC
  5
5A8
330
18
100
AcDbEntity
  8
1
  6
Continuous
100
AcDbCircle
 10
175.5692797728561
 20
274.4653766522965
 30
0.0
 40
1.0
100
AcDbArc
 50
180.0
 51
270.0
  0
LINE
  5
5A9
330
18
100
AcDbEntity
  8
1
  6
Continuous
100
AcDbLine
 10
175.5692797728561
 20
273.4653766522965
 30
0.0
 11
176.5692797728561
 21
273.4653766522965
 31
0.0
  0
LINE
  5
5AA
330
18
100
AcDbEntity
  8
1
  6
Continuous
100
AcDbLine
 10
172.5692797728561
 20
284.8653766522719
 30
0.0
 11
191.5966611474759
 21
284.8653766522719
 31
0.0
  0
ARC
  5
5AB
330
18
100
AcDbEntity
  8
1
  6
Continuous
100
AcDbCircle
 10
197.4868229315525
 20
283.7225756383186
 30
0.0
 40
6.0
100
AcDbArc
 50
93.89801246156038
 51
174.9929679240814
  0
ARC
  5
5AC
330
18
100
AcDbEntity
  8
1
  6
Continuous
100
AcDbCircle
 10
199.0692797725946
 20
282.3653766521346
 30
0.0
 40
0.5
100
AcDbArc
 50
90.0
 51
180.0
  0
ARC
  5
5AD
330
18
100
AcDbEntity
  8
1
  6
Continuous
100
AcDbCircle
 10
200.0692797724739
 20
281.3653766521267
 30
0.0
 40
1.0
100
AcDbArc
 50
90.0
 51
180.0
  0
ARC
  5
5AE
330
18
100
AcDbEntity
  8
5
  6
PHANTOM
100
AcDbCircle
 10
227.3425244698908
 20
280.1888351159424
 30
0.0
 40
5.873523205893762
100
AcDbArc
 50
282.0849798125845
 51
338.5725810952882
  0
LINE
  5
5AF
330
18
100
AcDbEntity
  8
5
  6
PHANTOM
100
AcDbLine
 10
217.8754968967694
 20
272.155234512308
 30
0.0
 11
228.5722183753209
 21
274.4454800207806
 31
0.0
  0
ARC
  5
5B0
330
18
100
AcDbEntity
  8
5
  6
PHANTOM
100
AcDbCircle
 10
217.4567724404851
 20
274.1109108223627
 30
0.0
 40
2.0
100
AcDbArc
 50
232.3372219254901
 51
282.0849798125845
  0
LINE
  5
5B1
330
18
100
AcDbEntity
  8
5
  6
PHANTOM
100
AcDbLine
 10
204.153510183316
 20
299.5820257849374
 30
0.0
 11
204.6659127855771
 21
290.1677521839752
 31
0.0
  0
LINE
  5
5B2
330
18
100
AcDbEntity
  8
5
  6
PHANTOM
100
AcDbLine
 10
217.6485650587437
 20
290.6852286153837
 30
0.0
 11
218.1328011732019
 21
299.5820277410672
 31
0.0
  0
LINE
  5
5B3
330
18
100
AcDbEntity
  8
4
  6
CENTER
100
AcDbLine
 10
210.5692797726108
 20
288.4607798637066
 30
0.0
 11
210.5692797726108
 21
278.9632578213728
 31
0.0
  0
LINE
  5
5B4
330
18
100
AcDbEntity
  8
1
  6
Continuous
100
AcDbLine
 10
204.5692797726105
 20
282.3653766521266
 30
0.0
 11
204.5692797726105
 21
282.8653766521346
 31
0.0
  0
ARC
  5
5B5
330
18
100
AcDbEntity
  8
1
  6
Continuous
100
AcDbCircle
 10
209.7587747564761
 20
291.4300554691324
 30
0.0
 40
2.0
100
AcDbArc
 50
183.1154360159698
 51
213.1367907882358
  0
LINE
  5
5B6
330
18
100
AcDbEntity
  8
1
  6
Continuous
100
AcDbLine
 10
216.5692797726105
 20
282.3653766521266
 30
0.0
 11
216.5692797726105
 21
282.8653766521346
 31
0.0
  0
ARC
  5
5B7
330
18
100
AcDbEntity
  8
5
  6
PHANTOM
100
AcDbCircle
 10
211.1431646365908
 20
299.9624605675421
 30
0.0
 40
7.0
100
AcDbArc
 50
356.8845720014262
 51
183.1154360159693
  0
CIRCLE
  5
5B8
330
18
100
AcDbEntity
  8
5
  6
PHANTOM
100
AcDbCircle
 10
211.1431646365908
 20
299.9624605675696
 30
0.0
 40
3.75
  0
ARC
  5
5B9
330
18
100
AcDbEntity
  8
1
  6
Continuous
100
AcDbCircle
 10
234.9153267984732
 20
279.3653766521267
 30
0.0
 40
3.0
100
AcDbArc
 50
4.795402536214873
 51
90.0
  0
LINE
  5
5BA
330
18
100
AcDbEntity
  8
1
  6
Continuous
100
AcDbLine
 10
230.5692797726105
 20
282.8653766523763
 30
0.0
 11
230.5692797726105
 21
282.3653766521267
 31
0.0
  0
ARC
  5
5BB
330
18
100
AcDbEntity
  8
5
  6
PHANTOM
100
AcDbCircle
 10
234.6718383923028
 20
277.3124615135594
 30
0.0
 40
2.0
100
AcDbArc
 50
105.2004158285539
 51
158.5725810952891
  0
LINE
  5
5BD
330
18
100
AcDbEntity
  8
4
  6
CENTER
100
AcDbLine
 10
204.56616543684
 20
314.9653766519885
 30
0.0
 11
222.7700031899844
 21
314.9653766519885
 31
0.0
  0
ARC
  5
5C2
330
18
100
AcDbEntity
  8
1
  6
Continuous
100
AcDbCircle
 10
-235.9307202273589
 20
239.8653766517051
 30
0.0
 40
500.0
100
AcDbArc
 50
355.3836767766925
 51
4.616323223406983
  0
ARC
  5
5C3
330
18
100
AcDbEntity
  8
1
  6
Continuous
100
AcDbCircle
 10
-235.9307202273591
 20
239.8653766517051
 30
0.0
 40
508.4999999999998
100
AcDbArc
 50
354.9929679241631
 51
5.007032075936121
  0
LINE
  5
5C4
330
18
100
AcDbEntity
  8
1
  6
Continuous
100
AcDbLine
 10
280.4244911213531
 20
201.8653766524884
 30
0.0
 11
280.4244911213531
 21
277.8653766524884
 31
0.0
  0
LINE
  5
5C5
330
18
100
AcDbEntity
  8
1
  6
Continuous
100
AcDbLine
 10
270.9935837865937
 20
199.8653766524884
 30
0.0
 11
278.4244911213531
 21
199.8653766524884
 31
0.0
  0
ARC
  5
5C6
330
18
100
AcDbEntity
  8
5
  6
PHANTOM
100
AcDbCircle
 10
258.4657437435369
 20
201.1347141574513
 30
0.0
 40
7.0
100
AcDbArc
 50
254.7995841714461
 51
81.03044818598517
  0
LINE
  5
5C7
330
18
100
AcDbEntity
  8
4
  6
CENTER
100
AcDbLine
 10
256.5984371786937
 20
192.4133529908825
 30
0.0
 11
260.4096332114286
 21
210.2137601138357
 31
0.0
  0
ARC
  5
5C8
330
18
100
AcDbEntity
  8
1
  6
Continuous
100
AcDbCircle
 10
264.6517366137918
 20
196.0081776659357
 30
0.0
 40
6.0
100
AcDbArc
 50
273.8980124615342
 51
354.9929679241631
  0
LINE
  5
5C9
330
18
100
AcDbEntity
  8
4
  6
CENTER
100
AcDbLine
 10
251.5401624895059
 20
202.6175312423039
 30
0.0
 11
268.671525634797
 21
198.9495823687926
 31
0.0
  0
CIRCLE
  5
5CA
330
18
100
AcDbEntity
  8
5
  6
PHANTOM
100
AcDbCircle
 10
258.4657437435639
 20
201.1347141574456
 30
0.0
 40
3.75
  0
ARC
  5
5CB
330
18
100
AcDbEntity
  8
1
  6
Continuous
100
AcDbCircle
 10
259.4570067098698
 20
199.8653766521347
 30
0.0
 40
3.0
100
AcDbArc
 50
270.0
 51
355.3836767766929
  0
ARC
  5
5CC
330
18
100
AcDbEntity
  8
1
  6
Continuous
100
AcDbCircle
 10
278.4244911213531
 20
201.8653766524884
 30
0.0
 40
2.0
100
AcDbArc
 50
270.0
 51
0.0
  0
ARC
  5
5CD
330
18
100
AcDbEntity
  8
5
  6
PHANTOM
100
AcDbCircle
 10
258.4657437435369
 20
278.5960391467638
 30
0.0
 40
7.0
100
AcDbArc
 50
278.9695518140149
 51
105.2004158285539
  0
CIRCLE
  5
5CE
330
18
100
AcDbEntity
  8
5
  6
PHANTOM
100
AcDbCircle
 10
258.4657437435639
 20
278.5960391467696
 30
0.0
 40
3.75
  0
LINE
  5
5CF
330
18
100
AcDbEntity
  8
4
  6
CENTER
100
AcDbLine
 10
256.5984371786937
 20
287.3174003133327
 30
0.0
 11
260.4096332114286
 21
269.5169931903796
 31
0.0
  0
LINE
  5
5D0
330
18
100
AcDbEntity
  8
1
  6
Continuous
100
AcDbLine
 10
270.9935837865334
 20
279.8653766524884
 30
0.0
 11
278.4244911213531
 21
279.8653766524884
 31
0.0
  0
LINE
  5
5D1
330
18
100
AcDbEntity
  8
4
  6
CENTER
100
AcDbLine
 10
251.2001252084762
 20
277.0404176183111
 30
0.0
 11
268.671525634797
 21
280.7811709354226
 31
0.0
  0
ARC
  5
5D2
330
18
100
AcDbEntity
  8
1
  6
Continuous
100
AcDbCircle
 10
259.4570067098004
 20
279.8653766521346
 30
0.0
 40
3.0
100
AcDbArc
 50
4.616323223406578
 51
90.0
  0
ARC
  5
5D3
330
18
100
AcDbEntity
  8
1
  6
Continuous
100
AcDbCircle
 10
264.6517366137159
 20
283.7225756383386
 30
0.0
 40
6.0
100
AcDbArc
 50
5.007032075936121
 51
86.10198753847228
  0
ARC
  5
5D4
330
18
100
AcDbEntity
  8
1
  6
Continuous
100
AcDbCircle
 10
278.4244911213531
 20
277.8653766524884
 30
0.0
 40
2.0
100
AcDbArc
 50
0.0
 51
90.0
  0
LINE
  5
5D5
330
18
100
AcDbEntity
  8
4
  6
CENTER
100
AcDbLine
 10
213.4851886118742
 20
46.62674320172991
 30
0.0
 11
213.4851886118742
 21
70.34894320172984
 31
0.0
  0
LINE
  5
5D8
330
18
100
AcDbEntity
  8
4
  6
CENTER
100
AcDbLine
 10
221.3605886118743
 20
54.93774320172994
 30
0.0
 11
204.7004886118743
 21
54.93774320172994
 31
0.0
  0
ARC
  5
5D9
330
18
100
AcDbEntity
  8
1
  6
Continuous
100
AcDbCircle
 10
214.4851886118742
 20
55.68774320173
 30
0.0
 40
1.5
100
AcDbArc
 50
0.0
 51
90.0
  0
LINE
  5
5DA
330
18
100
AcDbEntity
  8
1
  6
Continuous
100
AcDbLine
 10
215.9851886118742
 20
52.95574320172986
 30
0.0
 11
215.9851886118742
 21
57.53774320172985
 31
0.0
  0
LINE
  5
5DB
330
18
100
AcDbEntity
  8
1
  6
Continuous
100
AcDbLine
 10
218.2351886118742
 20
54.68774320172993
 30
0.0
 11
218.2351886118742
 21
59.03774320172985
 31
0.0
  0
ARC
  5
5DC
330
18
100
AcDbEntity
  8
1
  6
Continuous
100
AcDbCircle
 10
213.4851886118742
 20
54.68774320173
 30
0.0
 40
4.75
100
AcDbArc
 50
206.5253999999998
 51
0.0
  0
ARC
  5
5DD
330
18
100
AcDbEntity
  8
1
  6
Continuous
100
AcDbCircle
 10
213.4851886118742
 20
54.68774320173
 30
0.0
 40
2.5
100
AcDbArc
 50
207.387100000001
 51
0.0
  0
ARC
  5
5DE
330
18
100
AcDbEntity
  8
1
  6
Continuous
100
AcDbCircle
 10
216.9032886118743
 20
52.95574320172992
 30
0.0
 40
0.9181510000000001
100
AcDbArc
 50
180.0
 51
333.1299999999985
  0
LINE
  5
5DF
330
18
100
AcDbEntity
  8
1
  6
Continuous
100
AcDbLine
 10
209.235188611874
 20
52.56574320172997
 30
0.0
 11
210.4653886118742
 21
53.53774320172997
 31
0.0
  0
LINE
  5
5E0
330
18
100
AcDbEntity
  8
1
  6
Continuous
100
AcDbLine
 10
211.2653886118741
 20
53.53774320172985
 30
0.0
 11
210.4653886118744
 21
53.53774320172985
 31
0.0
  0
LINE
  5
5E2
330
18
100
AcDbEntity
  8
1
  6
Continuous
100
AcDbLine
 10
216.0759886118744
 20
66.13734320172986
 30
0.0
 11
210.8942886118743
 21
66.13734320172986
 31
0.0
  0
LINE
  5
5E3
330
18
100
AcDbEntity
  8
1
  6
Continuous
100
AcDbLine
 10
209.2351886118742
 20
57.03774320172986
 30
0.0
 11
212.6321886118744
 21
57.03774320172986
 31
0.0
  0
LINE
  5
5E4
330
18
100
AcDbEntity
  8
1
  6
Continuous
100
AcDbLine
 10
208.7351886118742
 20
57.53774320172985
 30
0.0
 11
215.9851886118742
 21
57.53774320172985
 31
0.0
  0
LINE
  5
5E5
330
18
100
AcDbEntity
  8
1
  6
Continuous
100
AcDbLine
 10
218.2351886118742
 20
59.03774320172985
 30
0.0
 11
208.7351886118742
 21
59.03774320172985
 31
0.0
  0
LINE
  5
5E6
330
18
100
AcDbEntity
  8
1
  6
Continuous
100
AcDbLine
 10
216.8850886118743
 20
59.03774320172985
 30
0.0
 11
216.8850886118743
 21
59.73774320169258
 31
0.0
  0
ARC
  5
5E7
330
18
100
AcDbEntity
  8
1
  6
Continuous
100
AcDbCircle
 10
213.4851886118742
 20
54.68774320173
 30
0.0
 40
2.5
100
AcDbArc
 50
90.0
 51
109.9479999999993
  0
ARC
  5
5E8
330
18
100
AcDbEntity
  8
1
  6
Continuous
100
AcDbCircle
 10
217.7351886118742
 20
58.53774320172991
 30
0.0
 40
0.5
100
AcDbArc
 50
0.0
 51
90.0
  0
LINE
  5
5E9
330
18
100
AcDbEntity
  8
1
  6
Continuous
100
AcDbLine
 10
214.4851886118742
 20
57.18774320172983
 30
0.0
 11
213.4851886118742
 21
57.18774320172983
 31
0.0
  0
ARC
  5
5EA
330
18
100
AcDbEntity
  8
1
  6
Continuous
100
AcDbCircle
 10
216.0759886118742
 20
65.63734320172992
 30
0.0
 40
0.5
100
AcDbArc
 50
4.879000000002625
 51
90.0
  0
LINE
  5
5EB
330
18
100
AcDbEntity
  8
1
  6
Continuous
100
AcDbLine
 10
216.8851886118741
 20
62.03774320172986
 30
0.0
 11
216.5741886118744
 21
65.67994320172985
 31
0.0
  0
LINE
  5
5EC
330
18
100
AcDbEntity
  8
1
  6
Continuous
100
AcDbLine
 10
210.0850886118741
 20
59.03774320172985
 30
0.0
 11
210.0850886118741
 21
59.73774320176721
 31
0.0
  0
LINE
  5
5ED
330
18
100
AcDbEntity
  8
1
  6
Continuous
100
AcDbLine
 10
209.2350886118742
 20
57.03774320172986
 30
0.0
 11
208.7350886118743
 21
57.53774320172985
 31
0.0
  0
LINE
  5
5EE
330
18
100
AcDbEntity
  8
1
  6
Continuous
100
AcDbLine
 10
208.7351886118742
 20
57.53774320172985
 30
0.0
 11
208.7351886118742
 21
59.03774320172985
 31
0.0
  0
ARC
  5
5EF
330
18
100
AcDbEntity
  8
1
  6
Continuous
100
AcDbCircle
 10
210.8942886118743
 20
65.63734320172992
 30
0.0
 40
0.5
100
AcDbArc
 50
90.0
 51
175.1209999999973
  0
LINE
  5
5F0
330
18
100
AcDbEntity
  8
1
  6
Continuous
100
AcDbLine
 10
210.0851886118741
 20
62.03774320172986
 30
0.0
 11
210.3960886118743
 21
65.67994320172985
 31
0.0
  0
LINE
  5
669
330
18
100
AcDbEntity
  8
1
  6
Continuous
100
AcDbLine
 10
196.5692797706997
 20
55.43774320193115
 30
0.0
 11
215.9851886118744
 21
55.43774320174845
 31
0.0
  0
LINE
  5
66A
330
18
100
AcDbEntity
  8
1
  6
Continuous
100
AcDbLine
 10
189.5692797709349
 20
80.43774320200967
 30
0.0
 11
272.5692797709352
 21
80.43774320109859
 31
0.0
  0
ARC
  5
66B
330
18
100
AcDbEntity
  8
1
  6
Continuous
100
AcDbCircle
 10
249.0692797709557
 20
82.63774320135651
 30
0.0
 40
17.0
100
AcDbArc
 50
269.9999999994593
 51
352.5643982178222
  0
ARC
  5
66C
330
18
100
AcDbEntity
  8
1
  6
Continuous
100
AcDbCircle
 10
231.0692797655872
 20
-487.8955901568475
 30
0.0
 40
574.8333333584017
100
AcDbArc
 50
85.95281460914725
 51
94.0471853897753
  0
LINE
  5
66D
330
18
100
AcDbEntity
  8
1
  6
Continuous
100
AcDbLine
 10
189.5692797709539
 20
82.43774320200968
 30
0.0
 11
272.5692797709534
 21
82.43774320109857
 31
0.0
  0
LINE
  5
66E
330
18
100
AcDbEntity
  8
1
  6
Continuous
100
AcDbLine
 10
174.5692797707938
 20
55.43774320153594
 30
0.0
 11
215.9851886118744
 21
55.43774320153594
 31
0.0
  0
LINE
  5
66F
330
18
100
AcDbEntity
  8
1
  6
Continuous
100
AcDbLine
 10
174.5692797707938
 20
53.43774320153594
 30
0.0
 11
210.3388248256203
 21
53.43774320153594
 31
0.0
  0
LINE
  5
671
330
18
100
AcDbEntity
  8
1
  6
Continuous
100
AcDbLine
 10
196.5692797709349
 20
80.43774320193296
 30
0.0
 11
196.5692797706997
 21
55.43774320153594
 31
0.0
  0
LINE
  5
673
330
18
100
AcDbEntity
  8
1
  6
Continuous
100
AcDbLine
 10
174.5692797707938
 20
70.43774320153592
 30
0.0
 11
174.5692797707938
 21
55.43774320153594
 31
0.0
  0
LINE
  5
674
330
18
100
AcDbEntity
  8
1
  6
Continuous
100
AcDbLine
 10
172.5692797707938
 20
70.43774320153599
 30
0.0
 11
172.5692797707938
 21
55.43774320153594
 31
0.0
  0
LINE
  5
677
330
18
100
AcDbEntity
  8
1
  6
Continuous
100
AcDbLine
 10
196.5692797707956
 20
65.63774320193278
 30
0.0
 11
210.3924863989305
 21
65.63774320178104
 31
0.0
  0
LINE
  5
679
330
18
100
AcDbEntity
  8
1
  6
Continuous
100
AcDbLine
 10
176.569279770794
 20
65.43774320149734
 30
0.0
 11
196.5692797706997
 21
65.43774320149953
 31
0.0
  0
ARC
  5
67A
330
18
100
AcDbEntity
  8
1
  6
Continuous
100
AcDbCircle
 10
182.1397609210835
 20
76.80120975572633
 30
0.0
 40
25.0
100
AcDbArc
 50
211.0071100288017
 51
238.7088054832601
  0
LINE
  5
67B
330
18
100
AcDbEntity
  8
1
  6
Continuous
100
AcDbLine
 10
161.5692797706494
 20
65.43774320149562
 30
0.0
 11
172.569279770794
 21
65.43774320149681
 31
0.0
  0
ARC
  5
67C
330
18
100
AcDbEntity
  8
1
  6
Continuous
100
AcDbCircle
 10
161.5692797705994
 20
64.43774320149569
 30
0.0
 40
1.0
100
AcDbArc
 50
90.0
 51
211.0071100288017
  0
ARC
  5
67D
330
18
100
AcDbEntity
  8
5
  6
PHANTOM
100
AcDbCircle
 10
192.1397609210835
 20
76.8012097557274
 30
0.0
 40
25.0
100
AcDbArc
 50
211.0071100288017
 51
238.7088054832601
  0
LINE
  5
67E
330
18
100
AcDbEntity
  8
1
  6
Continuous
100
AcDbLine
 10
176.569279770794
 20
67.03774320153596
 30
0.0
 11
176.569279770794
 21
59.83774320153597
 31
0.0
  0
ARC
  5
67F
330
18
100
AcDbEntity
  8
1
  6
Continuous
100
AcDbCircle
 10
175.5692797707938
 20
58.83774320153597
 30
0.0
 40
1.0
100
AcDbArc
 50
90.0
 51
180.0
  0
ARC
  5
680
330
18
100
AcDbEntity
  8
1
  6
Continuous
100
AcDbCircle
 10
174.5692797707938
 20
55.43774320153594
 30
0.0
 40
2.0
100
AcDbArc
 50
180.0
 51
270.0
  0
LINE
  5
681
330
18
100
AcDbEntity
  8
1
  6
Continuous
100
AcDbLine
 10
169.1550662081572
 20
55.43774320153372
 30
0.0
 11
172.5692797707938
 21
55.43774320153372
 31
0.0
  0
LINE
  5
682
330
18
100
AcDbEntity
  8
1
  6
Continuous
100
AcDbLine
 10
175.5692797707938
 20
59.83774320153597
 30
0.0
 11
176.5692797707938
 21
59.83774320153597
 31
0.0
  0
LINE
  5
683
330
18
100
AcDbEntity
  8
4
  6
CENTER
100
AcDbLine
 10
179.2054038674096
 20
63.43774320142882
 30
0.0
 11
169.5203077021183
 21
63.43774320142882
 31
0.0
  0
ARC
  5
684
330
18
100
AcDbEntity
  8
1
  6
Continuous
100
AcDbCircle
 10
175.5692797707938
 20
68.03774320153596
 30
0.0
 40
1.0
100
AcDbArc
 50
180.0
 51
270.0
  0
ARC
  5
685
330
18
100
AcDbEntity
  8
5
  6
PHANTOM
100
AcDbCircle
 10
171.5692797705994
 20
64.43774320149677
 30
0.0
 40
1.0
100
AcDbArc
 50
90.0
 51
211.0071100288017
  0
LINE
  5
686
330
18
100
AcDbEntity
  8
1
  6
Continuous
100
AcDbLine
 10
175.5692797707938
 20
67.03774320153596
 30
0.0
 11
176.5692797707938
 21
67.03774320153596
 31
0.0
  0
LINE
  5
687
330
18
100
AcDbEntity
  8
1
  6
Continuous
100
AcDbLine
 10
198.0692797707959
 20
65.63774320191628
 30
0.0
 11
198.0692797706999
 21
55.43774320191409
 31
0.0
  0
LINE
  5
688
330
18
100
AcDbEntity
  8
1
  6
Continuous
100
AcDbLine
 10
221.5692797707747
 20
63.43774320165838
 30
0.0
 11
231.2184926655395
 21
63.43774320155246
 31
0.0
  0
LINE
  5
689
330
18
100
AcDbEntity
  8
1
  6
Continuous
100
AcDbLine
 10
218.2351886118742
 20
57.43774320167762
 30
0.0
 11
229.8630841310673
 21
57.43774320154995
 31
0.0
  0
LINE
  5
68A
330
18
100
AcDbEntity
  8
1
  6
Continuous
100
AcDbLine
 10
206.4851886120457
 20
59.73774320180671
 30
0.0
 11
229.8630841310916
 21
59.73774320155012
 31
0.0
  0
LINE
  5
68B
330
18
100
AcDbEntity
  8
1
  6
Continuous
100
AcDbLine
 10
221.5692797707704
 20
62.93774320163951
 30
0.0
 11
232.1614955961734
 21
62.93774320154329
 31
0.0
  0
LINE
  5
68C
330
18
100
AcDbEntity
  8
4
  6
CENTER
100
AcDbLine
 10
213.4851886119572
 20
68.02762023706357
 30
0.0
 11
213.485188611726
 21
51.31861185901374
 31
0.0
  0
ARC
  5
68D
330
18
100
AcDbEntity
  8
1
  6
Continuous
100
AcDbCircle
 10
213.485188611894
 20
61.55202891550429
 30
0.0
 40
4.814285713849382
100
AcDbArc
 50
249.6664231267937
 51
290.1959227287692
  0
LINE
  5
68E
330
18
100
AcDbEntity
  8
1
  6
Continuous
100
AcDbLine
 10
208.9851886118649
 20
62.23774320177218
 30
0.0
 11
210.1022607111576
 21
62.23774320176168
 31
0.0
  0
LINE
  5
68F
330
18
100
AcDbEntity
  8
1
  6
Continuous
100
AcDbLine
 10
206.4851886123051
 20
62.03774320180666
 30
0.0
 11
220.4851886123094
 21
62.03774320165303
 31
0.0
  0
LINE
  5
690
330
18
100
AcDbEntity
  8
1
  6
Continuous
100
AcDbLine
 10
208.9851886118744
 20
63.23774320177206
 30
0.0
 11
210.1876212075608
 21
63.23774320176076
 31
0.0
  0
LINE
  5
691
330
18
100
AcDbEntity
  8
1
  6
Continuous
100
AcDbLine
 10
209.9851886118835
 20
64.23774320176268
 30
0.0
 11
210.2729817039642
 21
64.23774320175997
 31
0.0
  0
LINE
  5
692
330
18
100
AcDbEntity
  8
1
  6
Continuous
100
AcDbLine
 10
206.4851886123051
 20
62.03774320180507
 30
0.0
 11
206.4851886122732
 21
59.73774320180512
 31
0.0
  0
LINE
  5
693
330
18
100
AcDbEntity
  8
1
  6
Continuous
100
AcDbLine
 10
208.0692797707404
 20
59.73774320178932
 30
0.0
 11
208.0692797706999
 21
55.43774320181993
 31
0.0
  0
LINE
  5
694
330
18
100
AcDbEntity
  8
1
  6
Continuous
100
AcDbLine
 10
208.9851886118369
 20
59.73774320177927
 30
0.0
 11
208.9851886118303
 21
59.03774320172986
 31
0.0
  0
LINE
  5
695
330
18
100
AcDbEntity
  8
1
  6
Continuous
100
AcDbLine
 10
209.9851886118835
 20
64.23774320176271
 30
0.0
 11
208.9851886118742
 21
63.23774320177211
 31
0.0
  0
LINE
  5
696
330
18
100
AcDbEntity
  8
1
  6
Continuous
100
AcDbLine
 10
208.0692797707959
 20
65.63774320182215
 30
0.0
 11
208.069279770762
 21
62.03774320178929
 31
0.0
  0
LINE
  5
697
330
18
100
AcDbEntity
  8
1
  6
Continuous
100
AcDbLine
 10
208.9851886118742
 20
63.23774320177218
 30
0.0
 11
208.9851886118649
 21
62.23774320177218
 31
0.0
  0
LINE
  5
699
330
18
100
AcDbEntity
  8
1
  6
Continuous
100
AcDbLine
 10
221.5692797707749
 20
63.43774320165827
 30
0.0
 11
221.5692797707404
 21
59.73774320164117
 31
0.0
  0
LINE
  5
69A
330
18
100
AcDbEntity
  8
1
  6
Continuous
100
AcDbLine
 10
220.4851886123094
 20
62.03774320165303
 30
0.0
 11
220.4851886122776
 21
59.73774320165308
 31
0.0
  0
LINE
  5
69B
330
18
100
AcDbEntity
  8
1
  6
Continuous
100
AcDbLine
 10
221.5692797707183
 20
57.40709483622005
 30
0.0
 11
221.5692797706997
 21
55.43774320169531
 31
0.0
  0
LINE
  5
69D
330
18
100
AcDbEntity
  8
1
  6
Continuous
100
AcDbLine
 10
217.985188611874
 20
63.23774320168748
 30
0.0
 11
217.9851886118647
 21
62.23774320168748
 31
0.0
  0
LINE
  5
69E
330
18
100
AcDbEntity
  8
1
  6
Continuous
100
AcDbLine
 10
216.9851886118836
 20
64.23774320169703
 30
0.0
 11
217.985188611874
 21
63.23774320168757
 31
0.0
  0
LINE
  5
69F
330
18
100
AcDbEntity
  8
4
  6
CENTER
100
AcDbLine
 10
238.5692797708329
 20
59.56780867808665
 30
0.0
 11
238.5692797707504
 21
50.77764211944865
 31
0.0
  0
LINE
  5
6A0
330
18
100
AcDbEntity
  8
1
  6
Continuous
100
AcDbLine
 10
233.5692797707233
 20
57.93774320151097
 30
0.0
 11
243.5692797707233
 21
57.93774320140121
 31
0.0
  0
LINE
  5
6A1
330
18
100
AcDbEntity
  8
1
  6
Continuous
100
AcDbLine
 10
233.8021034723515
 20
57.73774320165758
 30
0.0
 11
244.5692797707213
 21
57.73774320159482
 31
0.0
  0
LINE
  5
6A2
330
18
100
AcDbEntity
  8
1
  6
Continuous
100
AcDbLine
 10
233.5692797707634
 20
62.19130640431661
 30
0.0
 11
233.5692797707233
 21
57.93774320152671
 31
0.0
  0
LINE
  5
6A3
330
18
100
AcDbEntity
  8
1
  6
Continuous
100
AcDbLine
 10
231.0563045853628
 20
59.40401504121235
 30
0.0
 11
233.8021034723515
 21
57.73774320165729
 31
0.0
  0
LINE
  5
6A4
330
18
100
AcDbEntity
  8
1
  6
Continuous
100
AcDbLine
 10
229.8630841310384
 20
57.43774320156743
 30
0.0
 11
232.6088830180551
 21
55.77147136199536
 31
0.0
  0
ARC
  5
6A5
330
18
100
AcDbEntity
  8
1
  6
Continuous
100
AcDbCircle
 10
229.8630841310664
 20
57.43774320155007
 30
0.0
 40
2.299999999999998
100
AcDbArc
 50
58.74877730764326
 51
90.0
  0
LINE
  5
6A6
330
18
100
AcDbEntity
  8
1
  6
Continuous
100
AcDbLine
 10
235.5692797707233
 20
57.93774320150482
 30
0.0
 11
235.5692797707215
 21
57.73774320164735
 31
0.0
  0
ARC
  5
6A7
330
18
100
AcDbEntity
  8
1
  6
Continuous
100
AcDbCircle
 10
233.8021034723517
 20
57.73774320165753
 30
0.0
 40
2.299999999999998
100
AcDbArc
 50
238.7487773076434
 51
269.9999999994593
  0
LINE
  5
6A8
330
18
100
AcDbEntity
  8
1
  6
Continuous
100
AcDbLine
 10
233.5535837465706
 20
57.93774320153025
 30
0.0
 11
233.5692797707304
 21
57.93774320153011
 31
0.0
  0
LINE
  5
6A9
330
18
100
AcDbEntity
  8
1
  6
Continuous
100
AcDbLine
 10
227.0692797707956
 20
65.63774320158803
 30
0.0
 11
233.6703002851727
 21
62.13774320152571
 31
0.0
  0
LINE
  5
6AA
330
18
100
AcDbEntity
  8
1
  6
Continuous
100
AcDbLine
 10
233.6703002851729
 20
62.13774320152556
 30
0.0
 11
233.6703002852029
 21
65.63774320147584
 31
0.0
  0
LINE
  5
6AB
330
18
100
AcDbEntity
  8
1
  6
Continuous
100
AcDbLine
 10
243.4682592563731
 20
59.63774320141811
 30
0.0
 11
243.4682592564367
 21
65.63774320144192
 31
0.0
  0
LINE
  5
6AC
330
18
100
AcDbEntity
  8
1
  6
Continuous
100
AcDbLine
 10
246.1703002848981
 20
59.63774320138831
 30
0.0
 11
246.1703002849699
 21
65.63774320141638
 31
0.0
  0
LINE
  5
6AD
330
18
100
AcDbEntity
  8
1
  6
Continuous
100
AcDbLine
 10
243.4682592563731
 20
59.63774320141801
 30
0.0
 11
246.1703002848978
 21
59.63774320138836
 31
0.0
  0
LINE
  5
6AE
330
18
100
AcDbEntity
  8
1
  6
Continuous
100
AcDbLine
 10
241.5692797707233
 20
57.93774320144836
 30
0.0
 11
241.5692797707215
 21
57.73774320161237
 31
0.0
  0
LINE
  5
6AF
330
18
100
AcDbEntity
  8
1
  6
Continuous
100
AcDbLine
 10
243.5692797707392
 20
59.63774320141698
 30
0.0
 11
243.5692797707233
 21
57.93774320141693
 31
0.0
  0
LINE
  5
6B0
330
18
100
AcDbEntity
  8
1
  6
Continuous
100
AcDbLine
 10
246.0692797707392
 20
59.63774320138946
 30
0.0
 11
246.0692797706999
 21
55.43774320146479
 31
0.0
  0
LINE
  5
6B1
330
18
100
AcDbEntity
  8
1
  6
Continuous
100
AcDbLine
 10
245.5692797707393
 20
59.63774320139497
 30
0.0
 11
245.5692797706999
 21
55.43774320146949
 31
0.0
  0
LINE
  5
6B2
330
18
100
AcDbEntity
  8
1
  6
Continuous
100
AcDbLine
 10
244.5692797707215
 20
57.73774320159478
 30
0.0
 11
244.5692797706999
 21
55.43774320157961
 31
0.0
  0
LINE
  5
6BA
330
18
100
AcDbEntity
  8
1
  6
Continuous
100
AcDbLine
 10
172.5692797707938
 20
70.43774320153592
 30
0.0
 11
174.5692797707938
 21
70.43774320153592
 31
0.0
  0
ARC
  5
6BB
330
18
100
AcDbEntity
  8
1
  6
Continuous
100
AcDbCircle
 10
190.5692797709732
 20
84.50675476641617
 30
0.0
 40
1.0
100
AcDbArc
 50
94.0471853897753
 51
179.9999999994609
  0
LINE
  5
6BC
330
18
100
AcDbEntity
  8
1
  6
Continuous
100
AcDbLine
 10
189.5692797709732
 20
84.50675476642549
 30
0.0
 11
189.5692797709349
 21
80.43774320200972
 31
0.0
  0
ARC
  5
6BE
330
18
100
AcDbEntity
  8
5
  6
PHANTOM
100
AcDbCircle
 10
501.3790024615786
 20
-408.0427317608402
 30
0.0
 40
574.8333333584017
100
AcDbArc
 50
118.1459811315695
 51
120.6493704285071
  0
LINE
  5
6BF
330
18
100
AcDbEntity
  8
5
  6
PHANTOM
100
AcDbLine
 10
224.1808296938102
 20
91.54630016509401
 30
0.0
 11
229.8162911641434
 21
94.64097671099144
 31
0.0
  0
LINE
  5
6C0
330
18
100
AcDbEntity
  8
4
  6
CENTER
100
AcDbLine
 10
216.0692797709209
 20
78.93774320174937
 30
0.0
 11
205.0692797709209
 21
78.93774320185285
 31
0.0
  0
ARC
  5
6C1
330
18
100
AcDbEntity
  8
1
  6
Continuous
100
AcDbCircle
 10
210.5692797709184
 20
78.93774320180115
 30
0.0
 40
2.549999999999998
100
AcDbArc
 50
143.9681209275098
 51
36.03187907123395
  0
ARC
  5
6C2
330
18
100
AcDbEntity
  8
1
  6
Continuous
100
AcDbCircle
 10
210.5692797709209
 20
78.93774320180115
 30
0.0
 40
2.5
100
AcDbArc
 50
143.1301023541542
 51
36.86989764458816
  0
LINE
  5
6C3
330
18
100
AcDbEntity
  8
4
  6
CENTER
100
AcDbLine
 10
210.5692797709725
 20
84.43774320180114
 30
0.0
 11
210.569279770869
 21
73.43774320180114
 31
0.0
  0
ARC
  5
6C4
330
18
100
AcDbEntity
  8
5
  6
PHANTOM
100
AcDbCircle
 10
221.1560408220566
 20
88.74439861769529
 30
0.0
 40
1.0
100
AcDbArc
 50
28.77309964022341
 51
118.7730996402218
  0
LINE
  5
6C5
330
18
100
AcDbEntity
  8
5
  6
PHANTOM
100
AcDbLine
 10
215.399569014897
 20
86.72412870504574
 30
0.0
 11
220.6746986268897
 21
89.62093138442543
 31
0.0
  0
ARC
  5
6C6
330
18
100
AcDbEntity
  8
5
  6
PHANTOM
100
AcDbCircle
 10
224.6621718889773
 20
90.66976739836391
 30
0.0
 40
1.0
100
AcDbArc
 50
118.7730996402219
 51
208.7730996402238
  0
LINE
  5
6C7
330
18
100
AcDbEntity
  8
5
  6
PHANTOM
100
AcDbLine
 10
223.7856391222471
 20
90.18842520319678
 30
0.0
 11
225.5850961229375
 21
86.91158174491766
 31
0.0
  0
LINE
  5
6C8
330
18
100
AcDbEntity
  8
5
  6
PHANTOM
100
AcDbLine
 10
222.0325735887868
 20
89.22574081286239
 30
0.0
 11
223.3177144224978
 21
86.88547631512951
 31
0.0
  0
ARC
  5
6C9
330
18
100
AcDbEntity
  8
5
  6
PHANTOM
100
AcDbCircle
 10
231.2720998814729
 20
96.84693329795344
 30
0.0
 40
2.232850898888139
100
AcDbArc
 50
252.4567040597374
 51
118.1459814870261
  0
ARC
  5
6CA
330
18
100
AcDbEntity
  8
5
  6
PHANTOM
100
AcDbCircle
 10
230.2976332855851
 20
93.7644440785173
 30
0.0
 40
1.0
100
AcDbArc
 50
72.4567040597437
 51
118.7730999994582
  0
LINE
  5
6CB
330
18
100
AcDbEntity
  8
1
  6
Continuous
100
AcDbLine
 10
269.2220803870634
 20
58.27232125784911
 30
0.0
 11
272.6772496822336
 21
75.42783947041581
 31
0.0
  0
LINE
  5
6CC
330
18
100
AcDbEntity
  8
1
  6
Continuous
100
AcDbLine
 10
267.2614497341985
 20
58.6671977487257
 30
0.0
 11
270.7166190293687
 21
75.82271596129242
 31
0.0
  0
LINE
  5
6CD
330
18
100
AcDbEntity
  8
1
  6
Continuous
100
AcDbLine
 10
266.068103422433
 20
80.43774320116993
 30
0.0
 11
266.0681034222684
 21
62.93774320117304
 31
0.0
  0
ARC
  5
6D0
330
18
100
AcDbEntity
  8
1
  6
Continuous
100
AcDbCircle
 10
259.9622690171136
 20
53.77689182969363
 30
0.0
 40
1.3
100
AcDbArc
 50
185.0
 51
254.1191499917221
  0
ARC
  5
6D1
330
18
100
AcDbEntity
  8
1
  6
Continuous
100
AcDbCircle
 10
264.1762905242826
 20
53.77689182970757
 30
0.0
 40
1.3
100
AcDbArc
 50
285.8808500082779
 51
354.9999999999995
  0
ARC
  5
6D2
330
18
100
AcDbEntity
  8
1
  6
Continuous
100
AcDbCircle
 10
262.0692797706997
 20
61.18300455391639
 30
0.0
 40
9.0
100
AcDbArc
 50
254.1191499917221
 51
285.8808500082779
  0
LINE
  5
6D3
330
18
100
AcDbEntity
  8
1
  6
Continuous
100
AcDbLine
 10
267.0692797706988
 20
56.5830045539164
 30
0.0
 11
257.0692797706988
 21
56.5830045539164
 31
0.0
  0
LINE
  5
6D4
330
18
100
AcDbEntity
  8
1
  6
Continuous
100
AcDbLine
 10
265.8692797706996
 20
54.78300455391634
 30
0.0
 11
258.2692797706995
 21
54.78300455391634
 31
0.0
  0
LINE
  5
6D5
330
18
100
AcDbEntity
  8
1
  6
Continuous
100
AcDbLine
 10
267.0692797706988
 20
55.78300455391634
 30
0.0
 11
257.0692797706988
 21
55.78300455391634
 31
0.0
  0
LINE
  5
6D6
330
18
100
AcDbEntity
  8
1
  6
Continuous
100
AcDbLine
 10
256.4779811434423
 20
60.83901844854702
 30
0.0
 11
267.2614497341986
 21
58.66719774872573
 31
0.0
  0
LINE
  5
6D7
330
18
100
AcDbEntity
  8
1
  6
Continuous
100
AcDbLine
 10
256.0831046525659
 20
58.8783877956822
 30
0.0
 11
266.8665732433219
 21
56.70656709586092
 31
0.0
  0
LINE
  5
6D8
330
18
100
AcDbEntity
  8
1
  6
Continuous
100
AcDbLine
 10
251.0692797703113
 20
60.93774320133457
 30
0.0
 11
264.0681034222463
 21
60.93774320119186
 31
0.0
  0
LINE
  5
6D9
330
18
100
AcDbEntity
  8
1
  6
Continuous
100
AcDbLine
 10
256.4779811434423
 20
60.83901844854689
 30
0.0
 11
256.0831046525586
 21
58.8783877956849
 31
0.0
  0
LINE
  5
6DA
330
18
100
AcDbEntity
  8
1
  6
Continuous
100
AcDbLine
 10
256.0692797708099
 20
67.14580981646093
 30
0.0
 11
256.0692797706999
 21
55.43774320137071
 31
0.0
  0
LINE
  5
6DB
330
18
100
AcDbEntity
  8
2
  6
Continuous
100
AcDbLine
 10
260.4482797706002
 20
60.93774320127263
 30
0.0
 11
260.4482797706002
 21
60.03938921326321
 31
0.0
  0
LINE
  5
6DC
330
18
100
AcDbEntity
  8
1
  6
Continuous
100
AcDbLine
 10
260.0692797706003
 20
60.93774320127348
 30
0.0
 11
260.0692797706003
 21
60.11572087207081
 31
0.0
  0
LINE
  5
6DD
330
18
100
AcDbEntity
  8
1
  6
Continuous
100
AcDbLine
 10
257.0692797706988
 20
55.78300455391638
 30
0.0
 11
257.0692797706999
 21
56.58300455391645
 31
0.0
  0
LINE
  5
6DE
330
18
100
AcDbEntity
  8
1
  6
Continuous
100
AcDbLine
 10
258.2692797706995
 20
54.78300455391634
 30
0.0
 11
258.2692797706995
 21
55.78300455391634
 31
0.0
  0
LINE
  5
6DF
330
18
100
AcDbEntity
  8
1
  6
Continuous
100
AcDbLine
 10
258.5692797706997
 20
54.78300455391636
 30
0.0
 11
258.6672159095889
 21
53.66358936408202
 31
0.0
  0
LINE
  5
6E0
330
18
100
AcDbEntity
  8
2
  6
Continuous
100
AcDbLine
 10
260.4482797706
 20
57.99922933197425
 30
0.0
 11
260.4482797706002
 21
56.58300455391643
 31
0.0
  0
LINE
  5
6E1
330
18
100
AcDbEntity
  8
1
  6
Continuous
100
AcDbLine
 10
260.0692797706003
 20
58.07556099078186
 30
0.0
 11
260.0692797706003
 21
56.5830045539164
 31
0.0
  0
LINE
  5
6E2
330
18
100
AcDbEntity
  8
1
  6
Continuous
100
AcDbLine
 10
257.0692797707943
 20
55.43774320136185
 30
0.0
 11
257.0692797707752
 21
53.43774320151251
 31
0.0
  0
ARC
  5
6E3
330
18
100
AcDbEntity
  8
1
  6
Continuous
100
AcDbCircle
 10
264.0681034222684
 20
62.9377432011919
 30
0.0
 40
2.0
100
AcDbArc
 50
269.9999999994593
 51
359.999999999461
  0
LINE
  5
6E4
330
18
100
AcDbEntity
  8
2
  6
Continuous
100
AcDbLine
 10
263.6902797706004
 20
60.93774320126795
 30
0.0
 11
263.6902797706004
 21
59.38644135612786
 31
0.0
  0
LINE
  5
6E5
330
18
100
AcDbEntity
  8
1
  6
Continuous
100
AcDbLine
 10
264.0692797706003
 20
60.93774320126716
 30
0.0
 11
264.0692797706003
 21
59.31010969732026
 31
0.0
  0
ARC
  5
6E6
330
18
100
AcDbEntity
  8
1
  6
Continuous
100
AcDbCircle
 10
267.2614497341986
 20
58.6671977487256
 30
0.0
 40
2.0
100
AcDbArc
 50
258.6128055715592
 51
348.612805571561
  0
LINE
  5
6E7
330
18
100
AcDbEntity
  8
1
  6
Continuous
100
AcDbLine
 10
267.0692797706988
 20
55.78300455391638
 30
0.0
 11
267.0692797706999
 21
56.58300455391645
 31
0.0
  0
LINE
  5
6E8
330
18
100
AcDbEntity
  8
1
  6
Continuous
100
AcDbLine
 10
262.0692797706988
 20
54.78300455391625
 30
0.0
 11
261.2301801395215
 21
55.78300455391641
 31
0.0
  0
LINE
  5
6E9
330
18
100
AcDbEntity
  8
1
  6
Continuous
100
AcDbLine
 10
265.8692797706996
 20
54.78300455391634
 30
0.0
 11
265.8692797706996
 21
55.78300455391634
 31
0.0
  0
LINE
  5
6EA
330
18
100
AcDbEntity
  8
1
  6
Continuous
100
AcDbLine
 10
265.5692797706997
 20
54.78300455391632
 30
0.0
 11
265.4713436318134
 21
53.66358936411541
 31
0.0
  0
LINE
  5
6EB
330
18
100
AcDbEntity
  8
2
  6
Continuous
100
AcDbLine
 10
263.6902797706004
 20
57.34628147483885
 30
0.0
 11
263.6902797706004
 21
56.58300455391643
 31
0.0
  0
LINE
  5
6EC
330
18
100
AcDbEntity
  8
1
  6
Continuous
100
AcDbLine
 10
264.0692797706003
 20
57.26994981603123
 30
0.0
 11
264.0692797706003
 21
56.58300455391639
 31
0.0
  0
LINE
  5
6EE
330
18
100
AcDbEntity
  8
1
  6
Continuous
100
AcDbLine
 10
272.6772496822336
 20
75.42783947041581
 30
0.0
 11
280.0296146304763
 21
73.94705262962856
 31
0.0
  0
ARC
  5
6EF
330
18
100
AcDbEntity
  8
1
  6
Continuous
100
AcDbCircle
 10
272.6772496822334
 20
75.42783947041581
 30
0.0
 40
2.0
100
AcDbArc
 50
78.61280557155922
 51
168.612805571561
  0
ARC
  5
6F3
330
18
100
AcDbEntity
  8
1
  6
Continuous
100
AcDbCircle
 10
271.5692797709734
 20
84.50675476565391
 30
0.0
 40
1.0
100
AcDbArc
 50
359.999999999461
 51
85.95281460914725
  0
LINE
  5
6F4
330
18
100
AcDbEntity
  8
1
  6
Continuous
100
AcDbLine
 10
272.5692797709734
 20
84.5067547656445
 30
0.0
 11
272.5692797709352
 21
80.43774320109857
 31
0.0
  0
LINE
  5
6F6
330
18
100
AcDbEntity
  8
1
  6
Continuous
100
AcDbLine
 10
273.07212617311
 20
77.38847012328061
 30
0.0
 11
280.4244911213531
 21
75.90768328249334
 31
0.0
  0
LINE
  5
6F7
330
18
100
AcDbEntity
  8
1
  6
Continuous
100
AcDbLine
 10
280.4244911213526
 20
75.90768328249339
 30
0.0
 11
280.0296146304761
 21
73.94705262962863
 31
0.0
  0
LINE
  5
9E9
330
18
100
AcDbEntity
  8
1
  6
Continuous
100
AcDbLine
 10
58.50107193713677
 20
165.6752838719566
 30
0.0
 11
60.25137946509437
 21
165.56437665222
 31
0.0
  0
LINE
  5
9EA
330
18
100
AcDbEntity
  8
1
  6
Continuous
100
AcDbLine
 10
58.50107193713677
 20
163.8561009699592
 30
0.0
 11
60.25137946509437
 21
163.9673766522198
 31
0.0
  0
LINE
  5
9EB
330
18
100
AcDbEntity
  8
1
  6
Continuous
100
AcDbLine
 10
58.50107193708049
 20
315.8746518559849
 30
0.0
 11
60.25137193708872
 21
315.763376652313
 31
0.0
  0
LINE
  5
9EC
330
18
100
AcDbEntity
  8
1
  6
Continuous
100
AcDbLine
 10
58.50107193708857
 20
314.0554699095813
 30
0.0
 11
60.25137193708872
 21
314.1663766523133
 31
0.0
  0
LINE
  5
9EE
330
18
100
AcDbEntity
  8
1
  6
Continuous
100
AcDbLine
 10
262.9083794018761
 20
54.78300455391618
 30
0.0
 11
262.0692797706988
 21
55.78300455391634
 31
0.0
  0
LINE
  5
AAA
330
18
100
AcDbEntity
  8
1
  6
Continuous
100
AcDbLine
 10
215.9851886122974
 20
157.5653766522265
 30
0.0
 11
208.7351886122974
 21
157.5653766522265
 31
0.0
  0
LINE
  5
AAB
330
18
100
AcDbEntity
  8
1
  6
Continuous
100
AcDbLine
 10
215.9851886122974
 20
148.5653766522264
 30
0.0
 11
208.7351886122974
 21
148.5653766522264
 31
0.0
  0
LINE
  5
AAC
330
18
100
AcDbEntity
  8
1
  6
Continuous
100
AcDbLine
 10
218.2351886122974
 20
145.7653766522264
 30
0.0
 11
208.7351886122974
 21
145.7653766522264
 31
0.0
  0
ARC
  5
AC7
330
18
100
AcDbEntity
  8
1
  6
Continuous
100
AcDbCircle
 10
554.4277530826975
 20
164.7653766522454
 30
0.0
 40
3.049999999999998
100
AcDbArc
 50
201.1400000000007
 51
338.859999999997
  0
CIRCLE
  5
AC8
330
18
100
AcDbEntity
  8
1
  6
Continuous
100
AcDbCircle
 10
554.4277530826975
 20
164.7653766522454
 30
0.0
 40
2.549999999999998
  0
LINE
  5
AC9
330
18
100
AcDbEntity
  8
1
  6
Continuous
100
AcDbLine
 10
559.1777530826975
 20
157.5653766522455
 30
0.0
 11
559.1777530826975
 21
163.6653766522454
 31
0.0
  0
LINE
  5
ACA
330
18
100
AcDbEntity
  8
1
  6
Continuous
100
AcDbLine
 10
549.6777530826975
 20
145.7653766522454
 30
0.0
 11
549.6777530826975
 21
163.6653766522454
 31
0.0
  0
LINE
  5
ACC
330
18
100
AcDbEntity
  8
1
  6
Continuous
100
AcDbLine
 10
549.6777530826975
 20
159.3653766522454
 30
0.0
 11
551.9277530826975
 21
159.3653766522454
 31
0.0
  0
LINE
  5
ACD
330
18
100
AcDbEntity
  8
1
  6
Continuous
100
AcDbLine
 10
549.6777530826975
 20
145.7653766522454
 30
0.0
 11
559.1777530826975
 21
145.7653766522454
 31
0.0
  0
ARC
  5
ACE
330
18
100
AcDbEntity
  8
1
  6
Continuous
100
AcDbCircle
 10
553.9277530826975
 20
155.6153766522454
 30
0.0
 40
4.25
100
AcDbArc
 50
61.92750000000375
 51
118.0720000000034
  0
LINE
  5
ACF
330
18
100
AcDbEntity
  8
1
  6
Continuous
100
AcDbLine
 10
551.9277530826975
 20
157.5653766522455
 30
0.0
 11
551.9277530826975
 21
163.0183766522454
 31
0.0
  0
LINE
  5
AD0
330
18
100
AcDbEntity
  8
1
  6
Continuous
100
AcDbLine
 10
551.9277530826975
 20
145.7653766522454
 30
0.0
 11
551.9277530826975
 21
148.5653766522455
 31
0.0
  0
LINE
  5
AD1
330
18
100
AcDbEntity
  8
1
  6
Continuous
100
AcDbLine
 10
559.1777530826975
 20
159.8653766522454
 30
0.0
 11
558.6777530826975
 21
159.3653766522454
 31
0.0
  0
LINE
  5
AD2
330
18
100
AcDbEntity
  8
1
  6
Continuous
100
AcDbLine
 10
551.9277530826975
 20
159.8653766522454
 30
0.0
 11
559.1777530826975
 21
159.8653766522454
 31
0.0
  0
LINE
  5
AD3
330
18
100
AcDbEntity
  8
1
  6
Continuous
100
AcDbLine
 10
555.9277530826975
 20
159.3653766522454
 30
0.0
 11
558.6777530826975
 21
159.3653766522454
 31
0.0
  0
LINE
  5
AD4
330
18
100
AcDbEntity
  8
1
  6
Continuous
100
AcDbLine
 10
558.6777530826975
 20
145.7653766522454
 30
0.0
 11
558.6777530826975
 21
159.3653766522454
 31
0.0
  0
LINE
  5
AD5
330
18
100
AcDbEntity
  8
1
  6
Continuous
100
AcDbLine
 10
551.2157530826975
 20
157.5653766522455
 30
0.0
 11
559.1777530826975
 21
157.5653766522455
 31
0.0
  0
LINE
  5
AD6
330
18
100
AcDbEntity
  8
1
  6
Continuous
100
AcDbLine
 10
551.2875530826976
 20
148.5653766522455
 30
0.0
 11
559.1777530826975
 21
148.5653766522455
 31
0.0
  0
LINE
  5
AD7
330
18
100
AcDbEntity
  8
1
  6
Continuous
100
AcDbLine
 10
559.1777530826975
 20
145.7653766522454
 30
0.0
 11
559.1777530826975
 21
148.5653766522455
 31
0.0
  0
ARC
  5
AD8
330
18
100
AcDbEntity
  8
1
  6
Continuous
100
AcDbCircle
 10
554.4277530826975
 20
164.9223766522454
 30
0.0
 40
4.84263
100
AcDbArc
 50
11.2244000000011
 51
168.7760000000002
  0
LINE
  5
AD9
330
18
100
AcDbEntity
  8
1
  6
Continuous
100
AcDbLine
 10
549.6777530826975
 20
163.3653766522454
 30
0.0
 11
551.7180530826975
 21
163.3653766522454
 31
0.0
  0
LINE
  5
ADA
330
18
100
AcDbEntity
  8
1
  6
Continuous
100
AcDbLine
 10
549.6777530826975
 20
163.6653766522454
 30
0.0
 11
552.1272530826975
 21
163.6653766522454
 31
0.0
  0
LINE
  5
ADB
330
18
100
AcDbEntity
  8
1
  6
Continuous
100
AcDbLine
 10
549.6777530826975
 20
165.8653766522454
 30
0.0
 11
552.1272530826975
 21
165.8653766522454
 31
0.0
  0
ARC
  5
ADE
330
18
100
AcDbEntity
  8
1
  6
Continuous
100
AcDbCircle
 10
554.4277530826975
 20
164.7653766522454
 30
0.0
 40
3.049999999999998
100
AcDbArc
 50
21.14049999999734
 51
158.8599999999993
  0
LINE
  5
ADF
330
18
100
AcDbEntity
  8
1
  6
Continuous
100
AcDbLine
 10
556.7283530826975
 20
165.8653766522454
 30
0.0
 11
559.1777530826975
 21
165.8653766522454
 31
0.0
  0
LINE
  5
AE0
330
18
100
AcDbEntity
  8
1
  6
Continuous
100
AcDbLine
 10
556.7283530826975
 20
163.6653766522454
 30
0.0
 11
559.1777530826975
 21
163.6653766522454
 31
0.0
  0
LINE
  5
AE1
330
18
100
AcDbEntity
  8
1
  6
Continuous
100
AcDbLine
 10
557.8277530826976
 20
163.6653766522454
 30
0.0
 11
557.8277530826976
 21
165.8653766522454
 31
0.0
  0
LINE
  5
AE2
330
18
100
AcDbEntity
  8
1
  6
Continuous
100
AcDbLine
 10
551.0277530826977
 20
163.6653766522454
 30
0.0
 11
551.0277530826977
 21
165.8653766522454
 31
0.0
  0
LINE
  5
B0B
330
18
100
AcDbEntity
  8
1
  6
Continuous
100
AcDbLine
 10
208.7351886122974
 20
157.5653766522265
 30
0.0
 11
208.7351886122974
 21
159.6236357019789
 31
0.0
  0
LINE
  5
B0C
330
18
100
AcDbEntity
  8
1
  6
Continuous
100
AcDbLine
 10
208.7351886122974
 20
145.7653766522264
 30
0.0
 11
208.7351886122974
 21
148.5653766522264
 31
0.0
  0
ARC
  5
B2B
330
18
100
AcDbEntity
  8
1
  6
Continuous
100
AcDbCircle
 10
213.4851886122973
 20
163.9798766522265
 30
0.0
 40
3.414519999999998
100
AcDbArc
 50
185.2850899999982
 51
354.7149999999985
  0
CIRCLE
  5
B2C
330
18
100
AcDbEntity
  8
1
  6
Continuous
100
AcDbCircle
 10
213.4851886122973
 20
164.7653766522264
 30
0.0
 40
2.549999999999998
  0
LINE
  5
B2D
330
18
100
AcDbEntity
  8
1
  6
Continuous
100
AcDbLine
 10
218.2351886122974
 20
145.7653766522264
 30
0.0
 11
218.2351886122974
 21
159.6236357019276
 31
0.0
  0
LINE
  5
B2F
330
18
100
AcDbEntity
  8
1
  6
Continuous
100
AcDbLine
 10
215.9851886122974
 20
148.5653766522264
 30
0.0
 11
215.9851886122974
 21
157.5653766522265
 31
0.0
  0
LINE
  5
B30
330
18
100
AcDbEntity
  8
1
  6
Continuous
100
AcDbLine
 10
211.4851886122973
 20
148.5653766522264
 30
0.0
 11
211.4851886122973
 21
157.5653766522265
 31
0.0
  0
LINE
  5
B31
330
18
100
AcDbEntity
  8
1
  6
Continuous
100
AcDbLine
 10
210.4799886122975
 20
148.5653766522264
 30
0.0
 11
210.4799886122975
 21
157.5653766522265
 31
0.0
  0
LINE
  5
B32
330
18
100
AcDbEntity
  8
1
  6
Continuous
100
AcDbLine
 10
209.2351886122973
 20
148.5653766522264
 30
0.0
 11
209.2351886122973
 21
157.5653766522265
 31
0.0
  0
ARC
  5
B33
330
18
100
AcDbEntity
  8
1
  6
Continuous
100
AcDbCircle
 10
213.4851886122973
 20
165.5508766522264
 30
0.0
 40
3.414519999999998
100
AcDbArc
 50
5.285000000001518
 51
174.7149999999984
  0
LINE
  5
B36
330
18
100
AcDbEntity
  8
1
  6
Continuous
100
AcDbLine
 10
210.0851886122975
 20
163.6653766522265
 30
0.0
 11
210.0851886122975
 21
165.8653766522265
 31
0.0
  0
LINE
  5
B37
330
18
100
AcDbEntity
  8
1
  6
Continuous
100
AcDbLine
 10
216.8851886122975
 20
163.6653766522265
 30
0.0
 11
216.8851886122975
 21
165.8653766522265
 31
0.0
  0
ARC
  5
B56
330
18
100
AcDbEntity
  8
1
  6
Continuous
100
AcDbCircle
 10
213.4851886123251
 20
164.7653766522264
 30
0.0
 40
3.75
100
AcDbArc
 50
149.1548025003931
 51
210.8451974996079
  0
ARC
  5
B5A
330
18
100
AcDbEntity
  8
1
  6
Continuous
100
AcDbCircle
 10
213.4851886123529
 20
314.9653766519609
 30
0.0
 40
3.75
100
AcDbArc
 50
329.1548024963468
 51
30.84519750365609
  0
ARC
  5
B5B
330
18
100
AcDbEntity
  8
1
  6
Continuous
100
AcDbCircle
 10
213.4851886123529
 20
314.9653766519609
 30
0.0
 40
3.75
100
AcDbArc
 50
149.1548025003921
 51
210.8451974996067
  0
CIRCLE
  5
B5C
330
18
100
AcDbEntity
  8
1
  6
Continuous
100
AcDbCircle
 10
213.4851886123251
 20
314.9653766519609
 30
0.0
 40
2.549999999999998
  0
ARC
  5
B5D
330
18
100
AcDbEntity
  8
1
  6
Continuous
100
AcDbCircle
 10
213.4851886123251
 20
314.1798766519609
 30
0.0
 40
3.414519999999998
100
AcDbArc
 50
185.2850000000015
 51
354.7149999999985
  0
LINE
  5
B5F
330
18
100
AcDbEntity
  8
1
  6
Continuous
100
AcDbLine
 10
208.7351886122696
 20
333.9653766519609
 30
0.0
 11
208.7351886122696
 21
320.1071176022596
 31
0.0
  0
LINE
  5
B60
330
18
100
AcDbEntity
  8
1
  6
Continuous
100
AcDbLine
 10
216.4903886122695
 20
331.1653766519608
 30
0.0
 11
216.4903886122695
 21
322.1653766519608
 31
0.0
  0
LINE
  5
B61
330
18
100
AcDbEntity
  8
1
  6
Continuous
100
AcDbLine
 10
215.4851886122696
 20
331.1653766519608
 30
0.0
 11
215.4851886122696
 21
322.1653766519608
 31
0.0
  0
LINE
  5
B62
330
18
100
AcDbEntity
  8
1
  6
Continuous
100
AcDbLine
 10
210.9851886122696
 20
331.1653766519608
 30
0.0
 11
210.9851886122696
 21
322.1653766519608
 31
0.0
  0
LINE
  5
B63
330
18
100
AcDbEntity
  8
1
  6
Continuous
100
AcDbLine
 10
217.7351886122696
 20
331.1653766519608
 30
0.0
 11
217.7351886122696
 21
322.1653766519608
 31
0.0
  0
LINE
  5
B64
330
18
100
AcDbEntity
  8
1
  6
Continuous
100
AcDbLine
 10
208.7351886122696
 20
333.9653766519609
 30
0.0
 11
218.2351886122696
 21
333.9653766519609
 31
0.0
  0
LINE
  5
B65
330
18
100
AcDbEntity
  8
1
  6
Continuous
100
AcDbLine
 10
210.9851886122696
 20
331.1653766519608
 30
0.0
 11
218.2351886122696
 21
331.1653766519608
 31
0.0
  0
LINE
  5
B66
330
18
100
AcDbEntity
  8
1
  6
Continuous
100
AcDbLine
 10
218.2351886122696
 20
333.9653766519609
 30
0.0
 11
218.2351886122696
 21
331.1653766519608
 31
0.0
  0
LINE
  5
B67
330
18
100
AcDbEntity
  8
1
  6
Continuous
100
AcDbLine
 10
210.9851886122696
 20
322.1653766519608
 30
0.0
 11
218.2351886122696
 21
322.1653766519608
 31
0.0
  0
ARC
  5
B68
330
18
100
AcDbEntity
  8
1
  6
Continuous
100
AcDbCircle
 10
213.4851886123251
 20
315.7508766519608
 30
0.0
 40
3.414519999999998
100
AcDbArc
 50
5.285000000001542
 51
174.7149100000016
  0
LINE
  5
B6A
330
18
100
AcDbEntity
  8
1
  6
Continuous
100
AcDbLine
 10
218.2351886122696
 20
322.1653766519608
 30
0.0
 11
218.2351886122696
 21
320.1071176022083
 31
0.0
  0
LINE
  5
B6B
330
18
100
AcDbEntity
  8
1
  6
Continuous
100
AcDbLine
 10
210.0851886123253
 20
316.0653766519609
 30
0.0
 11
210.0851886123253
 21
313.8653766519608
 31
0.0
  0
LINE
  5
B6C
330
18
100
AcDbEntity
  8
1
  6
Continuous
100
AcDbLine
 10
216.8851886123252
 20
316.0653766519609
 30
0.0
 11
216.8851886123252
 21
313.8653766519608
 31
0.0
  0
LINE
  5
B6F
330
18
100
AcDbEntity
  8
1
  6
Continuous
100
AcDbLine
 10
216.6973351167366
 20
64.23774320169956
 30
0.0
 11
216.9851886118836
 21
64.23774320169686
 31
0.0
  0
LINE
  5
B70
330
18
100
AcDbEntity
  8
1
  6
Continuous
100
AcDbLine
 10
216.7827230690732
 20
63.23774320169874
 30
0.0
 11
217.9851886118742
 21
63.23774320168745
 31
0.0
  0
LINE
  5
B71
330
18
100
AcDbEntity
  8
1
  6
Continuous
100
AcDbLine
 10
216.8681110214095
 20
62.23774320169801
 30
0.0
 11
217.9851886118647
 21
62.23774320168748
 31
0.0
  0
LINE
  5
B72
330
18
100
AcDbEntity
  8
1
  6
Continuous
100
AcDbLine
 10
216.5777919834645
 20
65.63774320171315
 30
0.0
 11
249.0692797707692
 21
65.63774320135649
 31
0.0
  0
LINE
  5
B73
330
18
100
AcDbEntity
  8
1
  6
Continuous
100
AcDbLine
 10
218.2351886118742
 20
55.43774320172729
 30
0.0
 11
258.2692797706997
 21
55.43774320135057
 31
0.0
  0
LINE
  5
B74
330
18
100
AcDbEntity
  8
1
  6
Continuous
100
AcDbLine
 10
218.2351886118742
 20
55.43774320153594
 30
0.0
 11
257.069279770794
 21
55.43774320153594
 31
0.0
  0
LINE
  5
B75
330
18
100
AcDbEntity
  8
1
  6
Continuous
100
AcDbLine
 10
211.3201251025252
 20
53.43774320153594
 30
0.0
 11
215.6502521212232
 21
53.43774320153594
 31
0.0
  0
LINE
  5
B76
330
18
100
AcDbEntity
  8
1
  6
Continuous
100
AcDbLine
 10
218.0677643067772
 20
53.43774320153594
 30
0.0
 11
257.069279770794
 21
53.43774320153594
 31
0.0
  0
LINE
  5
E37
330
18
100
AcDbEntity
  8
4
  6
CENTER
100
AcDbLine
 10
75.40107193727568
 20
188.8653766523842
 30
0.0
 11
75.40107193727568
 21
290.8653766523875
 31
0.0
  0
LINE
  5
F04
330
18
100
AcDbEntity
  8
1
  6
Continuous
100
AcDbLine
 10
549.0012688012117
 20
285.8653766521263
 30
0.0
 11
507.843661922354
 21
285.8653766521263
 31
0.0
  0
ARC
  5
F05
330
18
100
AcDbEntity
  8
1
  6
Continuous
100
AcDbCircle
 10
536.8436619222138
 20
-209.1346233477527
 30
0.0
 40
500.0
100
AcDbArc
 50
88.63701501292601
 51
93.8980124615343
  0
LINE
  5
F06
330
18
100
AcDbEntity
  8
1
  6
Continuous
100
AcDbLine
 10
549.0012688012117
 20
193.8653766521263
 30
0.0
 11
507.843661922354
 21
193.8653766521263
 31
0.0
  0
ARC
  5
F07
330
18
100
AcDbEntity
  8
1
  6
Continuous
100
AcDbCircle
 10
536.8436619222138
 20
688.8653766522472
 30
0.0
 40
500.0
100
AcDbArc
 50
266.1019875384657
 51
271.362984987074
  0
CIRCLE
  5
F08
330
18
100
AcDbEntity
  8
1
  6
Continuous
100
AcDbCircle
 10
529.3436619223541
 20
257.3653766521263
 30
0.0
 40
2.399999999999999
  0
CIRCLE
  5
F09
330
18
100
AcDbEntity
  8
1
  6
Continuous
100
AcDbCircle
 10
529.3436619223541
 20
222.3653766521263
 30
0.0
 40
2.399999999999999
  0
LINE
  5
F0A
330
18
100
AcDbEntity
  8
4
  6
CENTER
100
AcDbLine
 10
525.0936619223542
 20
222.3653766521263
 30
0.0
 11
533.5936619223542
 21
222.3653766521263
 31
0.0
  0
LINE
  5
F0B
330
18
100
AcDbEntity
  8
4
  6
CENTER
100
AcDbLine
 10
525.0936619223542
 20
257.3653766521263
 30
0.0
 11
533.5936619223542
 21
257.3653766521263
 31
0.0
  0
CIRCLE
  5
F0C
330
18
100
AcDbEntity
  8
1
  6
Continuous
100
AcDbCircle
 10
529.3436619223541
 20
222.3653766521263
 30
0.0
 40
2.75
  0
CIRCLE
  5
F0D
330
18
100
AcDbEntity
  8
1
  6
Continuous
100
AcDbCircle
 10
529.3436619223541
 20
257.3653766521263
 30
0.0
 40
2.75
  0
LINE
  5
F0E
330
18
100
AcDbEntity
  8
4
  6
CENTER
100
AcDbLine
 10
610.4629365475927
 20
239.8653766521263
 30
0.0
 11
491.0282669577756
 21
239.8653766521263
 31
0.0
  0
LINE
  5
F0F
330
18
100
AcDbEntity
  8
1
  6
Continuous
100
AcDbLine
 10
595.3436619221389
 20
284.8653766522718
 30
0.0
 11
513.8436619223541
 21
284.8653766522718
 31
0.0
  0
LINE
  5
F10
330
18
100
AcDbEntity
  8
1
  6
Continuous
100
AcDbLine
 10
595.3436619221393
 20
194.865376652272
 30
0.0
 11
513.8436619223598
 21
194.8653766521315
 31
0.0
  0
LINE
  5
F11
330
18
100
AcDbEntity
  8
4
  6
CENTER
100
AcDbLine
 10
554.4277530826975
 20
203.2653766522453
 30
0.0
 11
554.4277530826975
 21
139.3282896570535
 31
0.0
  0
LINE
  5
F12
330
18
100
AcDbEntity
  8
1
  6
Continuous
100
AcDbLine
 10
595.3436619221389
 20
232.8653766521262
 30
0.0
 11
595.3436619221389
 21
194.865376652272
 31
0.0
  0
LINE
  5
F13
330
18
100
AcDbEntity
  8
4
  6
CENTER
100
AcDbLine
 10
564.8436619223542
 20
215.6653766522369
 30
0.0
 11
564.8436619223542
 21
204.0653766522369
 31
0.0
  0
LINE
  5
F14
330
18
100
AcDbEntity
  8
1
  6
Continuous
100
AcDbLine
 10
561.4174075359446
 20
165.1458114348778
 30
0.0
 11
560.1512110680256
 21
188.4093934872741
 31
0.0
  0
LINE
  5
F15
330
18
100
AcDbEntity
  8
1
  6
Continuous
100
AcDbLine
 10
549.0556969284006
 20
194.8653766519808
 30
0.0
 11
547.4381165460588
 21
165.1458094787478
 31
0.0
  0
ARC
  5
F16
330
18
100
AcDbEntity
  8
1
  6
Continuous
100
AcDbCircle
 10
554.4277530826699
 20
164.7653766522729
 30
0.0
 40
7.0
100
AcDbArc
 50
176.8845720014255
 51
227.2678899577046
  0
ARC
  5
F17
330
18
100
AcDbEntity
  8
1
  6
Continuous
100
AcDbCircle
 10
554.4277530826699
 20
164.7653766522454
 30
0.0
 40
3.75
100
AcDbArc
 50
162.942376379758
 51
197.0576236202419
  0
LINE
  5
F18
330
18
100
AcDbEntity
  8
4
  6
CENTER
100
AcDbLine
 10
563.3467762581552
 20
164.7653766522454
 30
0.0
 11
545.1429385050105
 21
164.7653766522454
 31
0.0
  0
LINE
  5
F1A
330
18
100
AcDbEntity
  8
1
  6
Continuous
100
AcDbLine
 10
568.3436619223541
 20
193.8653766521263
 30
0.0
 11
556.713506869382
 21
193.8653766521263
 31
0.0
  0
ARC
  5
F1B
330
18
100
AcDbEntity
  8
1
  6
Continuous
100
AcDbCircle
 10
536.8436619222138
 20
688.8653766522472
 30
0.0
 40
500.0
100
AcDbArc
 50
272.6348431607416
 51
273.8980124615604
  0
ARC
  5
F1C
330
18
100
AcDbEntity
  8
1
  6
Continuous
100
AcDbCircle
 10
570.4261187634423
 20
196.0081776660631
 30
0.0
 40
6.0
100
AcDbArc
 50
273.8980124615604
 51
349.0199705607338
  0
ARC
  5
F1D
330
18
100
AcDbEntity
  8
1
  6
Continuous
100
AcDbCircle
 10
568.3436619223541
 20
196.8653766521263
 30
0.0
 40
3.0
100
AcDbArc
 50
270.0
 51
318.1896851068612
  0
ARC
  5
F1E
330
18
100
AcDbEntity
  8
1
  6
Continuous
100
AcDbCircle
 10
562.5012762885915
 20
194.8653766522453
 30
0.0
 40
5.873523205893762
100
AcDbArc
 50
180.0
 51
236.4876012827028
  0
ARC
  5
F1F
330
18
100
AcDbEntity
  8
1
  6
Continuous
100
AcDbCircle
 10
558.1541669385186
 20
188.3006978351014
 30
0.0
 40
2.0
100
AcDbArc
 50
3.115436015969473
 51
56.48760128270381
  0
LINE
  5
F20
330
18
100
AcDbEntity
  8
1
  6
Continuous
100
AcDbLine
 10
566.0668899500868
 20
209.865376652237
 30
0.0
 11
566.2474805302061
 21
210.3358311976921
 31
0.0
  0
LINE
  5
F21
330
18
100
AcDbEntity
  8
1
  6
Continuous
100
AcDbLine
 10
564.8436619223542
 20
211.0886046799696
 30
0.0
 11
565.3141164678092
 21
211.2691952600887
 31
0.0
  0
CIRCLE
  5
F22
330
18
100
AcDbEntity
  8
1
  6
Continuous
100
AcDbCircle
 10
564.8436619223542
 20
209.865376652237
 30
0.0
 40
4.0
  0
LINE
  5
F23
330
18
100
AcDbEntity
  8
4
  6
CENTER
100
AcDbLine
 10
559.0436619223542
 20
209.865376652237
 30
0.0
 11
570.643661922354
 21
209.865376652237
 31
0.0
  0
CIRCLE
  5
F24
330
18
100
AcDbEntity
  8
1
  6
Continuous
100
AcDbCircle
 10
564.8436619223542
 20
209.865376652237
 30
0.0
 40
4.299999999999998
  0
ARC
  5
F25
330
18
100
AcDbEntity
  8
1
  6
Continuous
100
AcDbCircle
 10
564.8436619223542
 20
209.8653766522371
 30
0.0
 40
2.25
100
AcDbArc
 50
28.32825096402169
 51
61.67174903598304
  0
LINE
  5
F26
330
18
100
AcDbEntity
  8
1
  6
Continuous
100
AcDbLine
 10
566.2474805302061
 20
210.3358311976919
 30
0.0
 11
566.8242097674417
 21
210.9330518056983
 31
0.0
  0
LINE
  5
F27
330
18
100
AcDbEntity
  8
1
  6
Continuous
100
AcDbLine
 10
565.3141164678092
 20
211.2691952600887
 30
0.0
 11
565.9113370758159
 21
211.8459244973244
 31
0.0
  0
ARC
  5
F28
330
18
100
AcDbEntity
  8
1
  6
Continuous
100
AcDbCircle
 10
564.8436619223542
 20
209.8653766522371
 30
0.0
 40
2.25
100
AcDbArc
 50
118.3282509640101
 51
151.6717490359899
  0
ARC
  5
F29
330
18
100
AcDbEntity
  8
1
  6
Continuous
100
AcDbCircle
 10
564.8436619223542
 20
209.8653766522371
 30
0.0
 40
2.25
100
AcDbArc
 50
298.3282509640234
 51
331.6717490359908
  0
ARC
  5
F2A
330
18
100
AcDbEntity
  8
1
  6
Continuous
100
AcDbCircle
 10
564.8436619223542
 20
209.8653766522371
 30
0.0
 40
2.25
100
AcDbArc
 50
208.3282509640231
 51
241.6717490359955
  0
LINE
  5
F2B
330
18
100
AcDbEntity
  8
1
  6
Continuous
100
AcDbLine
 10
566.0668899500868
 20
209.865376652237
 30
0.0
 11
566.2474805302056
 21
209.3949221067826
 31
0.0
  0
LINE
  5
F2C
330
18
100
AcDbEntity
  8
1
  6
Continuous
100
AcDbLine
 10
566.2474805302056
 20
209.3949221067826
 30
0.0
 11
566.8242097674417
 21
208.7977014987752
 31
0.0
  0
LINE
  5
F2D
330
18
100
AcDbEntity
  8
1
  6
Continuous
100
AcDbLine
 10
565.3141164678092
 20
208.4615580443848
 30
0.0
 11
565.9113370758164
 21
207.8848288071494
 31
0.0
  0
LINE
  5
F2E
330
18
100
AcDbEntity
  8
1
  6
Continuous
100
AcDbLine
 10
564.8436619223542
 20
208.6421486245044
 30
0.0
 11
565.3141164678092
 21
208.4615580443848
 31
0.0
  0
LINE
  5
F2F
330
18
100
AcDbEntity
  8
1
  6
Continuous
100
AcDbLine
 10
564.8436619223542
 20
208.6421486245044
 30
0.0
 11
564.3732073769001
 21
208.4615580443853
 31
0.0
  0
LINE
  5
F30
330
18
100
AcDbEntity
  8
1
  6
Continuous
100
AcDbLine
 10
564.3732073768999
 20
208.4615580443853
 30
0.0
 11
563.7759867688926
 21
207.8848288071492
 31
0.0
  0
LINE
  5
F31
330
18
100
AcDbEntity
  8
1
  6
Continuous
100
AcDbLine
 10
563.4398433145023
 20
209.3949221067818
 30
0.0
 11
562.8631140772666
 21
208.797701498775
 31
0.0
  0
LINE
  5
F32
330
18
100
AcDbEntity
  8
1
  6
Continuous
100
AcDbLine
 10
563.6204338946215
 20
209.865376652237
 30
0.0
 11
563.4398433145023
 21
209.3949221067818
 31
0.0
  0
LINE
  5
F33
330
18
100
AcDbEntity
  8
1
  6
Continuous
100
AcDbLine
 10
563.6204338946215
 20
209.865376652237
 30
0.0
 11
563.4398433145027
 21
210.3358311976912
 31
0.0
  0
LINE
  5
F34
330
18
100
AcDbEntity
  8
1
  6
Continuous
100
AcDbLine
 10
563.4398433145023
 20
210.3358311976915
 30
0.0
 11
562.8631140772665
 21
210.9330518056986
 31
0.0
  0
LINE
  5
F35
330
18
100
AcDbEntity
  8
1
  6
Continuous
100
AcDbLine
 10
564.3732073769001
 20
211.2691952600885
 30
0.0
 11
563.7759867688926
 21
211.8459244973246
 31
0.0
  0
LINE
  5
F36
330
18
100
AcDbEntity
  8
1
  6
Continuous
100
AcDbLine
 10
564.8436619223542
 20
211.0886046799696
 30
0.0
 11
564.3732073769001
 21
211.2691952600885
 31
0.0
  0
LINE
  5
F37
330
18
100
AcDbEntity
  8
4
  6
CENTER
100
AcDbLine
 10
554.4277530826975
 20
276.4653766520073
 30
0.0
 11
554.4277530826975
 21
340.4024636471989
 31
0.0
  0
LINE
  5
F38
330
18
100
AcDbEntity
  8
1
  6
Continuous
100
AcDbLine
 10
595.3436619221389
 20
284.8653766522718
 30
0.0
 11
595.3436619221389
 21
246.8653766521263
 31
0.0
  0
LINE
  5
F3A
330
18
100
AcDbEntity
  8
1
  6
Continuous
100
AcDbLine
 10
606.3436619243958
 20
232.8653766521262
 30
0.0
 11
593.3436619221389
 21
232.8653766521262
 31
0.0
  0
LINE
  5
F3B
330
18
100
AcDbEntity
  8
1
  6
Continuous
100
AcDbLine
 10
606.3436619243958
 20
246.8653766521263
 30
0.0
 11
593.3436619221389
 21
246.8653766521263
 31
0.0
  0
LINE
  5
F3C
330
18
100
AcDbEntity
  8
1
  6
Continuous
100
AcDbLine
 10
607.343661924396
 20
233.8653766521263
 30
0.0
 11
607.343661924396
 21
245.8653766521263
 31
0.0
  0
ARC
  5
F3D
330
18
100
AcDbEntity
  8
1
  6
Continuous
100
AcDbCircle
 10
606.3436619243958
 20
233.8653766521263
 30
0.0
 40
1.0
100
AcDbArc
 50
270.0
 51
0.000000000000007
  0
ARC
  5
F3E
330
18
100
AcDbEntity
  8
1
  6
Continuous
100
AcDbCircle
 10
606.3436619243958
 20
245.8653766521263
 30
0.0
 40
1.0
100
AcDbArc
 50
0.000000000000007
 51
90.0
  0
LINE
  5
F3F
330
18
100
AcDbEntity
  8
1
  6
Continuous
100
AcDbLine
 10
598.7578619221392
 20
246.8653766521263
 30
0.0
 11
598.7578619221392
 21
232.8653766521262
 31
0.0
  0
LINE
  5
F40
330
18
100
AcDbEntity
  8
1
  6
Continuous
100
AcDbLine
 10
593.3436619221389
 20
246.9653766521263
 30
0.0
 11
593.3436619221389
 21
232.7653766521263
 31
0.0
  0
LINE
  5
F41
330
18
100
AcDbEntity
  8
1
  6
Continuous
100
AcDbLine
 10
595.3436619221389
 20
232.7653766521263
 30
0.0
 11
593.3436619221389
 21
232.7653766521263
 31
0.0
  0
LINE
  5
F42
330
18
100
AcDbEntity
  8
1
  6
Continuous
100
AcDbLine
 10
595.3436619221389
 20
246.9653766521263
 30
0.0
 11
593.3436619221389
 21
246.9653766521263
 31
0.0
  0
LINE
  5
F44
330
18
100
AcDbEntity
  8
4
  6
CENTER
100
AcDbLine
 10
564.8436619223542
 20
275.6653766520041
 30
0.0
 11
564.8436619223542
 21
264.0653766520041
 31
0.0
  0
LINE
  5
F45
330
18
100
AcDbEntity
  8
1
  6
Continuous
100
AcDbLine
 10
566.0668899500868
 20
269.8653766520044
 30
0.0
 11
566.2474805302057
 21
270.3358311974593
 31
0.0
  0
LINE
  5
F46
330
18
100
AcDbEntity
  8
1
  6
Continuous
100
AcDbLine
 10
564.8436619223542
 20
271.0886046797368
 30
0.0
 11
565.3141164678092
 21
271.2691952598559
 31
0.0
  0
CIRCLE
  5
F47
330
18
100
AcDbEntity
  8
1
  6
Continuous
100
AcDbCircle
 10
564.8436619223542
 20
269.8653766520041
 30
0.0
 40
4.0
  0
LINE
  5
F48
330
18
100
AcDbEntity
  8
4
  6
CENTER
100
AcDbLine
 10
559.0436619223542
 20
269.8653766520041
 30
0.0
 11
570.643661922354
 21
269.8653766520041
 31
0.0
  0
CIRCLE
  5
F49
330
18
100
AcDbEntity
  8
1
  6
Continuous
100
AcDbCircle
 10
564.8436619223542
 20
269.8653766520041
 30
0.0
 40
4.299999999999998
  0
ARC
  5
F4A
330
18
100
AcDbEntity
  8
1
  6
Continuous
100
AcDbCircle
 10
564.8436619223542
 20
269.8653766520043
 30
0.0
 40
2.25
100
AcDbArc
 50
28.32825096402169
 51
61.67174903598304
  0
LINE
  5
F4B
330
18
100
AcDbEntity
  8
1
  6
Continuous
100
AcDbLine
 10
566.2474805302061
 20
270.3358311974591
 30
0.0
 11
566.8242097674415
 21
270.9330518054657
 31
0.0
  0
LINE
  5
F4C
330
18
100
AcDbEntity
  8
1
  6
Continuous
100
AcDbLine
 10
565.3141164678095
 20
271.2691952598563
 30
0.0
 11
565.9113370758157
 21
271.8459244970915
 31
0.0
  0
ARC
  5
F4D
330
18
100
AcDbEntity
  8
1
  6
Continuous
100
AcDbCircle
 10
564.8436619223542
 20
269.8653766520043
 30
0.0
 40
2.25
100
AcDbArc
 50
118.3282509640101
 51
151.6717490359899
  0
ARC
  5
F4E
330
18
100
AcDbEntity
  8
1
  6
Continuous
100
AcDbCircle
 10
564.8436619223542
 20
269.8653766520043
 30
0.0
 40
2.25
100
AcDbArc
 50
298.3282509640234
 51
331.6717490359908
  0
ARC
  5
F4F
330
18
100
AcDbEntity
  8
1
  6
Continuous
100
AcDbCircle
 10
564.8436619223542
 20
269.8653766520043
 30
0.0
 40
2.25
100
AcDbArc
 50
208.3282509640231
 51
241.6717490359955
  0
LINE
  5
F50
330
18
100
AcDbEntity
  8
1
  6
Continuous
100
AcDbLine
 10
566.0668899500867
 20
269.8653766520042
 30
0.0
 11
566.2474805302056
 21
269.3949221065497
 31
0.0
  0
LINE
  5
F51
330
18
100
AcDbEntity
  8
1
  6
Continuous
100
AcDbLine
 10
566.2474805302056
 20
269.3949221065497
 30
0.0
 11
566.8242097674417
 21
268.7977014985424
 31
0.0
  0
LINE
  5
F52
330
18
100
AcDbEntity
  8
1
  6
Continuous
100
AcDbLine
 10
565.3141164678092
 20
268.461558044152
 30
0.0
 11
565.9113370758159
 21
267.8848288069166
 31
0.0
  0
LINE
  5
F53
330
18
100
AcDbEntity
  8
1
  6
Continuous
100
AcDbLine
 10
564.8436619223542
 20
268.6421486242716
 30
0.0
 11
565.3141164678095
 21
268.4615580441522
 31
0.0
  0
LINE
  5
F54
330
18
100
AcDbEntity
  8
1
  6
Continuous
100
AcDbLine
 10
564.8436619223542
 20
268.6421486242713
 30
0.0
 11
564.3732073769001
 21
268.4615580441525
 31
0.0
  0
LINE
  5
F55
330
18
100
AcDbEntity
  8
1
  6
Continuous
100
AcDbLine
 10
564.3732073768999
 20
268.4615580441525
 30
0.0
 11
563.7759867688926
 21
267.8848288069163
 31
0.0
  0
LINE
  5
F56
330
18
100
AcDbEntity
  8
1
  6
Continuous
100
AcDbLine
 10
563.4398433145023
 20
269.394922106549
 30
0.0
 11
562.8631140772665
 21
268.7977014985424
 31
0.0
  0
LINE
  5
F57
330
18
100
AcDbEntity
  8
1
  6
Continuous
100
AcDbLine
 10
563.6204338946217
 20
269.8653766520042
 30
0.0
 11
563.4398433145027
 21
269.3949221065492
 31
0.0
  0
LINE
  5
F58
330
18
100
AcDbEntity
  8
1
  6
Continuous
100
AcDbLine
 10
563.6204338946215
 20
269.865376652004
 30
0.0
 11
563.4398433145023
 21
270.3358311974586
 31
0.0
  0
LINE
  5
F59
330
18
100
AcDbEntity
  8
1
  6
Continuous
100
AcDbLine
 10
563.4398433145023
 20
270.3358311974586
 30
0.0
 11
562.8631140772663
 21
270.933051805466
 31
0.0
  0
LINE
  5
F5A
330
18
100
AcDbEntity
  8
1
  6
Continuous
100
AcDbLine
 10
564.3732073769001
 20
271.2691952598555
 30
0.0
 11
563.7759867688926
 21
271.8459244970915
 31
0.0
  0
LINE
  5
F5B
330
18
100
AcDbEntity
  8
1
  6
Continuous
100
AcDbLine
 10
564.8436619223542
 20
271.0886046797368
 30
0.0
 11
564.3732073769001
 21
271.2691952598555
 31
0.0
  0
LINE
  5
F5C
330
18
100
AcDbEntity
  8
1
  6
Continuous
100
AcDbLine
 10
561.4174075359446
 20
314.5849418693748
 30
0.0
 11
560.1512110680256
 21
291.3213598169783
 31
0.0
  0
LINE
  5
F5D
330
18
100
AcDbEntity
  8
1
  6
Continuous
100
AcDbLine
 10
549.0556969284006
 20
284.8653766522718
 30
0.0
 11
547.4381165460588
 21
314.5849438255047
 31
0.0
  0
LINE
  5
F60
330
18
100
AcDbEntity
  8
1
  6
Continuous
100
AcDbLine
 10
568.3436619223541
 20
285.8653766521263
 30
0.0
 11
556.713506869382
 21
285.8653766521263
 31
0.0
  0
ARC
  5
F61
330
18
100
AcDbEntity
  8
1
  6
Continuous
100
AcDbCircle
 10
536.8436619222138
 20
-209.1346233477527
 30
0.0
 40
500.0
100
AcDbArc
 50
86.10198753842661
 51
87.36515683923228
  0
ARC
  5
F62
330
18
100
AcDbEntity
  8
1
  6
Continuous
100
AcDbCircle
 10
570.426118763495
 20
283.7225756384275
 30
0.0
 40
6.0
100
AcDbArc
 50
10.98002943946385
 51
86.10198753842661
  0
ARC
  5
F63
330
18
100
AcDbEntity
  8
1
  6
Continuous
100
AcDbCircle
 10
568.3436619223541
 20
282.8653766521263
 30
0.0
 40
3.0
100
AcDbArc
 50
41.810314899507
 51
90.0
  0
ARC
  5
F64
330
18
100
AcDbEntity
  8
1
  6
Continuous
100
AcDbCircle
 10
562.5012762885915
 20
284.8653766520072
 30
0.0
 40
5.873523205893762
100
AcDbArc
 50
123.5123987172971
 51
180.0
  0
ARC
  5
F65
330
18
100
AcDbEntity
  8
1
  6
Continuous
100
AcDbCircle
 10
558.1541669385186
 20
291.4300554691513
 30
0.0
 40
2.0
100
AcDbArc
 50
303.5123987172962
 51
356.8845639840305
  0
LINE
  5
F66
330
18
100
AcDbEntity
  8
4
  6
CENTER
100
AcDbLine
 10
563.3467762581552
 20
314.9653766520073
 30
0.0
 11
545.1429385050105
 21
314.9653766520073
 31
0.0
  0
ARC
  5
F6C
330
18
100
AcDbEntity
  8
1
  6
Continuous
100
AcDbCircle
 10
1003.843661922354
 20
239.8653766526766
 30
0.0
 40
508.4999999999998
100
AcDbArc
 50
174.9929679241629
 51
175.4882962407571
  0
LINE
  5
F6D
330
18
100
AcDbEntity
  8
1
  6
Continuous
100
AcDbLine
 10
510.8436619223541
 20
281.8653766522718
 30
0.0
 11
510.8436619223542
 21
197.8653766521315
 31
0.0
  0
ARC
  5
F70
330
18
100
AcDbEntity
  8
1
  6
Continuous
100
AcDbCircle
 10
513.8436619223541
 20
197.8653766521315
 30
0.0
 40
3.0
100
AcDbArc
 50
180.0
 51
270.0
  0
ARC
  5
F71
330
18
100
AcDbEntity
  8
1
  6
Continuous
100
AcDbCircle
 10
507.843661922354
 20
199.8653766521263
 30
0.0
 40
6.0
100
AcDbArc
 50
180.0
 51
270.0
  0
ARC
  5
F72
330
18
100
AcDbEntity
  8
1
  6
Continuous
100
AcDbCircle
 10
503.2612050812789
 20
196.0081776660432
 30
0.0
 40
6.0
100
AcDbArc
 50
185.007032075936
 51
266.1019875384657
  0
ARC
  5
F74
330
18
100
AcDbEntity
  8
1
  6
Continuous
100
AcDbCircle
 10
507.843661922354
 20
279.8653766521263
 30
0.0
 40
6.0
100
AcDbArc
 50
90.0
 51
180.0
  0
CIRCLE
  5
F77
330
18
100
AcDbEntity
  8
1
  6
Continuous
100
AcDbCircle
 10
516.8436619223541
 20
222.3653766521263
 30
0.0
 40
4.0
  0
LINE
  5
F78
330
18
100
AcDbEntity
  8
4
  6
CENTER
100
AcDbLine
 10
511.0436619223541
 20
222.3653766521263
 30
0.0
 11
522.6436619223541
 21
222.3653766521263
 31
0.0
  0
CIRCLE
  5
F79
330
18
100
AcDbEntity
  8
1
  6
Continuous
100
AcDbCircle
 10
516.8436619223541
 20
222.3653766521263
 30
0.0
 40
4.299999999999998
  0
LINE
  5
F7A
330
18
100
AcDbEntity
  8
4
  6
CENTER
100
AcDbLine
 10
529.3436619223541
 20
226.6153766521262
 30
0.0
 11
529.3436619223541
 21
218.1153766521263
 31
0.0
  0
LINE
  5
F7B
330
18
100
AcDbEntity
  8
1
  6
Continuous
100
AcDbLine
 10
515.6204338946213
 20
222.3653766521265
 30
0.0
 11
515.4398433145018
 21
221.8949221066714
 31
0.0
  0
LINE
  5
F7C
330
18
100
AcDbEntity
  8
1
  6
Continuous
100
AcDbLine
 10
516.8436619223541
 20
223.5886046798591
 30
0.0
 11
517.314116467809
 21
223.769195259978
 31
0.0
  0
LINE
  5
F7D
330
18
100
AcDbEntity
  8
4
  6
CENTER
100
AcDbLine
 10
516.8436619223541
 20
228.1653766521263
 30
0.0
 11
516.8436619223541
 21
216.5653766521263
 31
0.0
  0
ARC
  5
F7E
330
18
100
AcDbEntity
  8
1
  6
Continuous
100
AcDbCircle
 10
516.8436619223541
 20
222.3653766521263
 30
0.0
 40
2.25
100
AcDbArc
 50
28.32825096402169
 51
61.67174903598304
  0
ARC
  5
F7F
330
18
100
AcDbEntity
  8
1
  6
Continuous
100
AcDbCircle
 10
516.8436619223541
 20
222.3653766521263
 30
0.0
 40
2.25
100
AcDbArc
 50
298.3282509640234
 51
331.6717490359908
  0
ARC
  5
F80
330
18
100
AcDbEntity
  8
1
  6
Continuous
100
AcDbCircle
 10
516.8436619223541
 20
222.3653766521263
 30
0.0
 40
2.25
100
AcDbArc
 50
208.3282509640231
 51
241.6717490359955
  0
LINE
  5
F81
330
18
100
AcDbEntity
  8
1
  6
Continuous
100
AcDbLine
 10
518.2474805302056
 20
222.8358311975812
 30
0.0
 11
518.8242097674415
 21
223.433051805588
 31
0.0
  0
LINE
  5
F82
330
18
100
AcDbEntity
  8
1
  6
Continuous
100
AcDbLine
 10
518.0668899500865
 20
222.3653766521265
 30
0.0
 11
518.2474805302058
 21
222.8358311975812
 31
0.0
  0
LINE
  5
F83
330
18
100
AcDbEntity
  8
1
  6
Continuous
100
AcDbLine
 10
518.0668899500866
 20
222.3653766521263
 30
0.0
 11
518.2474805302056
 21
221.894922106672
 31
0.0
  0
LINE
  5
F84
330
18
100
AcDbEntity
  8
1
  6
Continuous
100
AcDbLine
 10
518.2474805302054
 20
221.8949221066722
 30
0.0
 11
518.8242097674415
 21
221.297701498665
 31
0.0
  0
LINE
  5
F85
330
18
100
AcDbEntity
  8
1
  6
Continuous
100
AcDbLine
 10
517.314116467809
 20
220.9615580442746
 30
0.0
 11
517.9113370758159
 21
220.3848288070389
 31
0.0
  0
LINE
  5
F86
330
18
100
AcDbEntity
  8
1
  6
Continuous
100
AcDbLine
 10
516.8436619223541
 20
221.1421486243937
 30
0.0
 11
517.314116467809
 21
220.9615580442746
 31
0.0
  0
LINE
  5
F87
330
18
100
AcDbEntity
  8
1
  6
Continuous
100
AcDbLine
 10
516.8436619223544
 20
221.1421486243937
 30
0.0
 11
516.3732073768996
 21
220.9615580442748
 31
0.0
  0
LINE
  5
F88
330
18
100
AcDbEntity
  8
1
  6
Continuous
100
AcDbLine
 10
516.3732073768996
 20
220.9615580442748
 30
0.0
 11
515.7759867688926
 21
220.3848288070387
 31
0.0
  0
LINE
  5
F89
330
18
100
AcDbEntity
  8
1
  6
Continuous
100
AcDbLine
 10
515.4398433145018
 20
221.8949221066714
 30
0.0
 11
514.8631140772668
 21
221.2977014986645
 31
0.0
  0
LINE
  5
F8A
330
18
100
AcDbEntity
  8
1
  6
Continuous
100
AcDbLine
 10
517.3141164678088
 20
223.769195259978
 30
0.0
 11
517.9113370758154
 21
224.3459244972139
 31
0.0
  0
ARC
  5
F8B
330
18
100
AcDbEntity
  8
1
  6
Continuous
100
AcDbCircle
 10
516.8436619223541
 20
222.3653766521263
 30
0.0
 40
2.25
100
AcDbArc
 50
118.3282509640101
 51
151.6717490359899
  0
LINE
  5
F8C
330
18
100
AcDbEntity
  8
1
  6
Continuous
100
AcDbLine
 10
515.6204338946215
 20
222.3653766521263
 30
0.0
 11
515.4398433145026
 21
222.8358311975805
 31
0.0
  0
LINE
  5
F8D
330
18
100
AcDbEntity
  8
1
  6
Continuous
100
AcDbLine
 10
515.4398433145026
 20
222.8358311975805
 30
0.0
 11
514.8631140772664
 21
223.4330518055878
 31
0.0
  0
LINE
  5
F8E
330
18
100
AcDbEntity
  8
1
  6
Continuous
100
AcDbLine
 10
516.3732073768996
 20
223.7691952599775
 30
0.0
 11
515.7759867688922
 21
224.3459244972136
 31
0.0
  0
LINE
  5
F8F
330
18
100
AcDbEntity
  8
1
  6
Continuous
100
AcDbLine
 10
516.8436619223541
 20
223.5886046798589
 30
0.0
 11
516.3732073768999
 21
223.7691952599778
 31
0.0
  0
LINE
  5
F97
330
18
100
AcDbEntity
  8
4
  6
CENTER
100
AcDbLine
 10
499.843661922354
 20
264.8653766521263
 30
0.0
 11
511.843661922354
 21
264.8653766521263
 31
0.0
  0
CIRCLE
  5
F98
330
18
100
AcDbEntity
  8
1
  6
Continuous
100
AcDbCircle
 10
516.8436619223541
 20
257.3653766521263
 30
0.0
 40
4.0
  0
LINE
  5
F99
330
18
100
AcDbEntity
  8
4
  6
CENTER
100
AcDbLine
 10
511.0436619223541
 20
257.3653766521263
 30
0.0
 11
522.6436619223541
 21
257.3653766521263
 31
0.0
  0
CIRCLE
  5
F9A
330
18
100
AcDbEntity
  8
1
  6
Continuous
100
AcDbCircle
 10
516.8436619223541
 20
257.3653766521263
 30
0.0
 40
4.299999999999998
  0
LINE
  5
F9B
330
18
100
AcDbEntity
  8
4
  6
CENTER
100
AcDbLine
 10
529.3436619223541
 20
261.6153766521263
 30
0.0
 11
529.3436619223541
 21
253.1153766521263
 31
0.0
  0
LINE
  5
F9C
330
18
100
AcDbEntity
  8
1
  6
Continuous
100
AcDbLine
 10
516.3732073768999
 20
255.9615580442747
 30
0.0
 11
515.7759867688926
 21
255.3848288070386
 31
0.0
  0
LINE
  5
F9D
330
18
100
AcDbEntity
  8
1
  6
Continuous
100
AcDbLine
 10
515.4398433145025
 20
256.8949221066708
 30
0.0
 11
514.8631140772668
 21
256.2977014986644
 31
0.0
  0
LINE
  5
F9E
330
18
100
AcDbEntity
  8
4
  6
CENTER
100
AcDbLine
 10
516.8436619223541
 20
263.1653766521263
 30
0.0
 11
516.8436619223541
 21
251.5653766521263
 31
0.0
  0
ARC
  5
F9F
330
18
100
AcDbEntity
  8
1
  6
Continuous
100
AcDbCircle
 10
516.8436619223541
 20
257.365376652126
 30
0.0
 40
2.25
100
AcDbArc
 50
208.3282509640234
 51
241.6717490359908
  0
ARC
  5
FA2
330
18
100
AcDbEntity
  8
1
  6
Continuous
100
AcDbCircle
 10
516.8436619223541
 20
257.365376652126
 30
0.0
 40
2.25
100
AcDbArc
 50
298.3282509640216
 51
331.671749035983
  0
ARC
  5
FA3
330
18
100
AcDbEntity
  8
1
  6
Continuous
100
AcDbCircle
 10
516.8436619223541
 20
257.365376652126
 30
0.0
 40
2.25
100
AcDbArc
 50
28.32825096401009
 51
61.6717490359899
  0
ARC
  5
FA4
330
18
100
AcDbEntity
  8
1
  6
Continuous
100
AcDbCircle
 10
516.8436619223541
 20
257.365376652126
 30
0.0
 40
2.25
100
AcDbArc
 50
118.3282509640231
 51
151.6717490359955
  0
LINE
  5
FA5
330
18
100
AcDbEntity
  8
1
  6
Continuous
100
AcDbLine
 10
517.314116467809
 20
255.9615580442741
 30
0.0
 11
517.9113370758159
 21
255.3848288070385
 31
0.0
  0
LINE
  5
FA6
330
18
100
AcDbEntity
  8
1
  6
Continuous
100
AcDbLine
 10
516.8436619223541
 20
256.1421486243935
 30
0.0
 11
517.314116467809
 21
255.9615580442741
 31
0.0
  0
LINE
  5
FA7
330
18
100
AcDbEntity
  8
1
  6
Continuous
100
AcDbLine
 10
516.8436619223541
 20
256.1421486243935
 30
0.0
 11
516.3732073768999
 21
255.9615580442748
 31
0.0
  0
LINE
  5
FA8
330
18
100
AcDbEntity
  8
1
  6
Continuous
100
AcDbLine
 10
515.6204338946215
 20
257.365376652126
 30
0.0
 11
515.4398433145025
 21
256.8949221066709
 31
0.0
  0
LINE
  5
FA9
330
18
100
AcDbEntity
  8
1
  6
Continuous
100
AcDbLine
 10
515.6204338946215
 20
257.365376652126
 30
0.0
 11
515.4398433145026
 21
257.8358311975804
 31
0.0
  0
LINE
  5
FAA
330
18
100
AcDbEntity
  8
1
  6
Continuous
100
AcDbLine
 10
515.4398433145026
 20
257.8358311975804
 30
0.0
 11
514.8631140772664
 21
258.4330518055877
 31
0.0
  0
LINE
  5
FAB
330
18
100
AcDbEntity
  8
1
  6
Continuous
100
AcDbLine
 10
516.3732073768991
 20
258.7691952599779
 30
0.0
 11
515.7759867688926
 21
259.3459244972134
 31
0.0
  0
LINE
  5
FAC
330
18
100
AcDbEntity
  8
1
  6
Continuous
100
AcDbLine
 10
516.8436619223541
 20
258.5886046798588
 30
0.0
 11
516.3732073768991
 21
258.7691952599779
 31
0.0
  0
LINE
  5
FAD
330
18
100
AcDbEntity
  8
1
  6
Continuous
100
AcDbLine
 10
516.8436619223541
 20
258.5886046798589
 30
0.0
 11
517.3141164678082
 21
258.7691952599777
 31
0.0
  0
LINE
  5
FAE
330
18
100
AcDbEntity
  8
1
  6
Continuous
100
AcDbLine
 10
517.3141164678086
 20
258.7691952599777
 30
0.0
 11
517.9113370758157
 21
259.3459244972139
 31
0.0
  0
LINE
  5
FAF
330
18
100
AcDbEntity
  8
1
  6
Continuous
100
AcDbLine
 10
518.2474805302059
 20
256.8949221066711
 30
0.0
 11
518.8242097674418
 21
256.2977014986643
 31
0.0
  0
LINE
  5
FB0
330
18
100
AcDbEntity
  8
1
  6
Continuous
100
AcDbLine
 10
518.2474805302056
 20
257.8358311975804
 30
0.0
 11
518.8242097674417
 21
258.4330518055878
 31
0.0
  0
LINE
  5
FB1
330
18
100
AcDbEntity
  8
1
  6
Continuous
100
AcDbLine
 10
518.066889950087
 20
257.365376652126
 30
0.0
 11
518.2474805302059
 21
256.8949221066711
 31
0.0
  0
LINE
  5
FB2
330
18
100
AcDbEntity
  8
1
  6
Continuous
100
AcDbLine
 10
518.066889950087
 20
257.365376652126
 30
0.0
 11
518.2474805302056
 21
257.8358311975804
 31
0.0
  0
LINE
  5
FB5
330
18
100
AcDbEntity
  8
4
  6
CENTER
100
AcDbLine
 10
505.8436619223541
 20
258.8653766521263
 30
0.0
 11
505.8436619223541
 21
270.8653766521263
 31
0.0
  0
ARC
  5
FBA
330
18
100
AcDbEntity
  8
1
  6
Continuous
100
AcDbCircle
 10
513.8436619223541
 20
281.8653766522718
 30
0.0
 40
3.0
100
AcDbArc
 50
90.0
 51
180.0
  0
ARC
  5
FBB
330
18
100
AcDbEntity
  8
1
  6
Continuous
100
AcDbCircle
 10
503.2612050812033
 20
283.722575638446
 30
0.0
 40
6.0
100
AcDbArc
 50
93.8980124615343
 51
174.9929679241629
  0
LINE
  5
FBC
330
18
100
AcDbEntity
  8
1
  6
Continuous
100
AcDbLine
 10
489.4884505715796
 20
279.8653766524884
 30
0.0
 11
509.8298370403669
 21
279.8653766524884
 31
0.0
  0
LINE
  5
FBD
330
18
100
AcDbEntity
  8
1
  6
Continuous
100
AcDbLine
 10
509.8298370403669
 20
199.8653766524884
 30
0.0
 11
489.4884505715796
 21
199.8653766524884
 31
0.0
  0
LINE
  5
1232
330
18
100
AcDbEntity
  8
1
  6
Continuous
100
AcDbLine
 10
499.5443365731212
 20
274.8653766524884
 30
0.0
 11
499.5443365731212
 21
204.8653766524884
 31
0.0
  0
LINE
  5
1233
330
18
100
AcDbEntity
  8
1
  6
Continuous
100
AcDbLine
 10
495.2356920106991
 20
279.8653766524884
 30
0.0
 11
495.2356920106991
 21
199.8653766524884
 31
0.0
  0
LINE
  5
1234
330
18
100
AcDbEntity
  8
1
  6
Continuous
100
AcDbLine
 10
487.8833270624566
 20
277.8653766524884
 30
0.0
 11
487.8833270624566
 21
201.8653766524884
 31
0.0
  0
LINE
  5
1235
330
18
100
AcDbEntity
  8
1
  6
Continuous
100
AcDbLine
 10
487.4884505715797
 20
277.8653766524884
 30
0.0
 11
487.4884505715797
 21
201.8653766524884
 31
0.0
  0
ARC
  5
1236
330
18
100
AcDbEntity
  8
1
  6
Continuous
100
AcDbCircle
 10
489.8833270624561
 20
277.8653766524885
 30
0.0
 40
2.0
100
AcDbArc
 50
89.99999999998697
 51
180.0000000000016
  0
ARC
  5
1237
330
18
100
AcDbEntity
  8
1
  6
Continuous
100
AcDbCircle
 10
489.4884505715801
 20
277.8653766524882
 30
0.0
 40
2.0
100
AcDbArc
 50
90.00000000001303
 51
179.9999999999934
  0
ARC
  5
1238
330
18
100
AcDbEntity
  8
1
  6
Continuous
100
AcDbCircle
 10
509.8298370403673
 20
277.8653766524885
 30
0.0
 40
2.0
100
AcDbArc
 50
59.5416130537183
 51
90.00000000001303
  0
ARC
  5
1239
330
18
100
AcDbEntity
  8
1
  6
Continuous
100
AcDbCircle
 10
509.8298370403673
 20
201.8653766524884
 30
0.0
 40
2.0
100
AcDbArc
 50
269.999999999987
 51
300.4583869462885
  0
ARC
  5
123A
330
18
100
AcDbEntity
  8
1
  6
Continuous
100
AcDbCircle
 10
489.8833270624566
 20
201.8653766524885
 30
0.0
 40
2.0
100
AcDbArc
 50
180.0000000000016
 51
270.0
  0
ARC
  5
123B
330
18
100
AcDbEntity
  8
1
  6
Continuous
100
AcDbCircle
 10
489.4884505715796
 20
201.8653766524884
 30
0.0
 40
2.0
100
AcDbArc
 50
180.0
 51
270.0
  0
ARC
  5
12F3
330
18
100
AcDbEntity
  8
1
  6
Continuous
100
AcDbCircle
 10
1003.843661922354
 20
239.8653766526766
 30
0.0
 40
508.4999999999998
100
AcDbArc
 50
184.5117037592852
 51
185.007032075936
  0
CIRCLE
  5
1372
330
18
100
AcDbEntity
  8
1
  6
Continuous
100
AcDbCircle
 10
505.8436619223541
 20
264.8653766521263
 30
0.0
 40
3.799999999999998
  0
CIRCLE
  5
1373
330
18
100
AcDbEntity
  8
1
  6
Continuous
100
AcDbCircle
 10
505.8436619223541
 20
264.8653766521263
 30
0.0
 40
5.0
  0
CIRCLE
  5
1374
330
18
100
AcDbEntity
  8
1
  6
Continuous
 48
0.25
100
AcDbCircle
 10
505.8436619223541
 20
264.8653766521263
 30
0.0
 40
3.5
  0
LINE
  5
1375
330
18
100
AcDbEntity
  8
1
  6
Continuous
 48
0.25
100
AcDbLine
 10
506.3680422607758
 20
263.7248134140725
 30
0.0
 11
507.0016099367187
 21
263.1138731551272
 31
0.0
  0
LINE
  5
1376
330
18
100
AcDbEntity
  8
1
  6
Continuous
 48
0.25
100
AcDbLine
 10
506.3687493675566
 20
266.0066469969615
 30
0.0
 11
507.0009028299375
 21
266.6175872559066
 31
0.0
  0
ARC
  5
1377
330
18
100
AcDbEntity
  8
1
  6
Continuous
 48
0.25
100
AcDbCircle
 10
505.8426619223538
 20
264.8653766521263
 30
0.0
 40
2.1
100
AcDbArc
 50
213.463000000001
 51
236.5370000000062
  0
ARC
  5
1378
330
18
100
AcDbEntity
  8
1
  6
Continuous
 48
0.25
100
AcDbCircle
 10
505.8426619223538
 20
264.8653766521263
 30
0.0
 40
2.1
100
AcDbArc
 50
123.4629999999938
 51
146.5369999999989
  0
LINE
  5
1379
330
18
100
AcDbEntity
  8
1
  6
Continuous
 48
0.25
100
AcDbLine
 10
504.7020986843001
 20
264.3399963137048
 30
0.0
 11
504.0911584253548
 21
263.707842851324
 31
0.0
  0
LINE
  5
137A
330
18
100
AcDbEntity
  8
1
  6
Continuous
 48
0.25
100
AcDbLine
 10
504.7020986843001
 20
265.390756990548
 30
0.0
 11
504.0911584253548
 21
266.0229104529288
 31
0.0
  0
LINE
  5
137B
330
18
100
AcDbEntity
  8
1
  6
Continuous
 48
0.25
100
AcDbLine
 10
505.8433690291352
 20
263.9157322449928
 30
0.0
 11
506.3680422607758
 21
263.7248134140725
 31
0.0
  0
LINE
  5
137C
330
18
100
AcDbEntity
  8
1
  6
Continuous
 48
0.25
100
AcDbLine
 10
504.8930175152203
 20
264.8660837589076
 30
0.0
 11
504.7020986843001
 21
264.3399963137048
 31
0.0
  0
LINE
  5
137D
330
18
100
AcDbEntity
  8
1
  6
Continuous
 48
0.25
100
AcDbLine
 10
505.3172815839324
 20
263.7248134140725
 30
0.0
 11
504.6851281215516
 21
263.1138731551272
 31
0.0
  0
LINE
  5
137E
330
18
100
AcDbEntity
  8
1
  6
Continuous
 48
0.25
100
AcDbLine
 10
505.8433690291352
 20
263.9157322449928
 30
0.0
 11
505.3172815839324
 21
263.7248134140725
 31
0.0
  0
LINE
  5
137F
330
18
100
AcDbEntity
  8
1
  6
Continuous
 48
0.25
100
AcDbLine
 10
505.8426619223541
 20
265.8157281660411
 30
0.0
 11
505.3179886907137
 21
266.0066469969614
 31
0.0
  0
LINE
  5
1380
330
18
100
AcDbEntity
  8
1
  6
Continuous
 48
0.25
100
AcDbLine
 10
505.3179886907137
 20
266.0066469969614
 30
0.0
 11
504.6851281215516
 21
266.6168801491255
 31
0.0
  0
LINE
  5
1381
330
18
100
AcDbEntity
  8
1
  6
Continuous
 48
0.25
100
AcDbLine
 10
504.8930175152203
 20
264.8660837589076
 30
0.0
 11
504.7020986843001
 21
265.390756990548
 31
0.0
  0
LINE
  5
1382
330
18
100
AcDbEntity
  8
1
  6
Continuous
 48
0.25
100
AcDbLine
 10
505.8426619223541
 20
265.8157281660411
 30
0.0
 11
506.3687493675566
 21
266.0066469969615
 31
0.0
  0
ARC
  5
1383
330
18
100
AcDbEntity
  8
1
  6
Continuous
 48
0.25
100
AcDbCircle
 10
505.8426619223538
 20
264.8653766521263
 30
0.0
 40
2.1
100
AcDbArc
 50
303.4629999999938
 51
326.5369999999989
  0
ARC
  5
1384
330
18
100
AcDbEntity
  8
1
  6
Continuous
 48
0.25
100
AcDbCircle
 10
505.8426619223538
 20
264.8653766521263
 30
0.0
 40
2.1
100
AcDbArc
 50
33.46300000000106
 51
56.53700000000617
  0
LINE
  5
1385
330
18
100
AcDbEntity
  8
1
  6
Continuous
 48
0.25
100
AcDbLine
 10
506.983932267189
 20
264.3407034204859
 30
0.0
 11
507.5948725261343
 21
263.7071357445428
 31
0.0
  0
LINE
  5
1386
330
18
100
AcDbEntity
  8
1
  6
Continuous
 48
0.25
100
AcDbLine
 10
506.7930134362685
 20
264.8653766521264
 30
0.0
 11
506.983932267189
 21
264.3407034204859
 31
0.0
  0
LINE
  5
1387
330
18
100
AcDbEntity
  8
1
  6
Continuous
 48
0.25
100
AcDbLine
 10
506.983932267189
 20
265.3914640973292
 30
0.0
 11
507.5948725261343
 21
266.0236175597099
 31
0.0
  0
LINE
  5
1388
330
18
100
AcDbEntity
  8
1
  6
Continuous
 48
0.25
100
AcDbLine
 10
506.7930134362685
 20
264.8653766521264
 30
0.0
 11
506.983932267189
 21
265.3914640973292
 31
0.0
  0
LINE
  5
1389
330
18
100
AcDbEntity
  8
4
  6
CENTER
100
AcDbLine
 10
505.8436619223541
 20
208.8653766521263
 30
0.0
 11
505.8436619223541
 21
220.8653766521263
 31
0.0
  0
CIRCLE
  5
138A
330
18
100
AcDbEntity
  8
1
  6
Continuous
100
AcDbCircle
 10
505.8436619223541
 20
214.8653766521263
 30
0.0
 40
5.0
  0
LINE
  5
138B
330
18
100
AcDbEntity
  8
4
  6
CENTER
100
AcDbLine
 10
499.843661922354
 20
214.8653766521263
 30
0.0
 11
511.843661922354
 21
214.8653766521263
 31
0.0
  0
CIRCLE
  5
138C
330
18
100
AcDbEntity
  8
1
  6
Continuous
100
AcDbCircle
 10
505.8436619223541
 20
214.8653766521263
 30
0.0
 40
3.799999999999998
  0
CIRCLE
  5
138D
330
18
100
AcDbEntity
  8
1
  6
Continuous
 48
0.25
100
AcDbCircle
 10
505.8436619223541
 20
214.8653766521263
 30
0.0
 40
3.5
  0
LINE
  5
138E
330
18
100
AcDbEntity
  8
1
  6
Continuous
 48
0.25
100
AcDbLine
 10
506.7930134362685
 20
214.8653766521264
 30
0.0
 11
506.983932267189
 21
215.3914640973292
 31
0.0
  0
LINE
  5
138F
330
18
100
AcDbEntity
  8
1
  6
Continuous
 48
0.25
100
AcDbLine
 10
506.983932267189
 20
215.3914640973292
 30
0.0
 11
507.5948725261343
 21
216.0236175597099
 31
0.0
  0
LINE
  5
1390
330
18
100
AcDbEntity
  8
1
  6
Continuous
 48
0.25
100
AcDbLine
 10
506.7930134362685
 20
214.8653766521264
 30
0.0
 11
506.983932267189
 21
214.3407034204859
 31
0.0
  0
LINE
  5
1391
330
18
100
AcDbEntity
  8
1
  6
Continuous
 48
0.25
100
AcDbLine
 10
506.983932267189
 20
214.3407034204859
 30
0.0
 11
507.5948725261343
 21
213.7071357445428
 31
0.0
  0
ARC
  5
1392
330
18
100
AcDbEntity
  8
1
  6
Continuous
 48
0.25
100
AcDbCircle
 10
505.8426619223538
 20
214.8653766521262
 30
0.0
 40
2.1
100
AcDbArc
 50
33.46300000000106
 51
56.53700000000617
  0
ARC
  5
1393
330
18
100
AcDbEntity
  8
1
  6
Continuous
 48
0.25
100
AcDbCircle
 10
505.8426619223538
 20
214.8653766521262
 30
0.0
 40
2.1
100
AcDbArc
 50
303.4629999999938
 51
326.5369999999989
  0
LINE
  5
1394
330
18
100
AcDbEntity
  8
1
  6
Continuous
 48
0.25
100
AcDbLine
 10
505.8426619223541
 20
215.8157281660411
 30
0.0
 11
506.3687493675566
 21
216.0066469969615
 31
0.0
  0
LINE
  5
1395
330
18
100
AcDbEntity
  8
1
  6
Continuous
 48
0.25
100
AcDbLine
 10
504.8930175152203
 20
214.8660837589075
 30
0.0
 11
504.7020986843001
 21
215.3907569905479
 31
0.0
  0
LINE
  5
1396
330
18
100
AcDbEntity
  8
1
  6
Continuous
 48
0.25
100
AcDbLine
 10
505.3179886907137
 20
216.0066469969614
 30
0.0
 11
504.6851281215516
 21
216.6168801491255
 31
0.0
  0
LINE
  5
1397
330
18
100
AcDbEntity
  8
1
  6
Continuous
 48
0.25
100
AcDbLine
 10
505.8426619223541
 20
215.8157281660411
 30
0.0
 11
505.3179886907137
 21
216.0066469969614
 31
0.0
  0
LINE
  5
1398
330
18
100
AcDbEntity
  8
1
  6
Continuous
 48
0.25
100
AcDbLine
 10
505.8433690291352
 20
213.9157322449928
 30
0.0
 11
505.3172815839324
 21
213.7248134140725
 31
0.0
  0
LINE
  5
1399
330
18
100
AcDbEntity
  8
1
  6
Continuous
 48
0.25
100
AcDbLine
 10
505.3172815839324
 20
213.7248134140725
 30
0.0
 11
504.6851281215516
 21
213.1138731551272
 31
0.0
  0
LINE
  5
139A
330
18
100
AcDbEntity
  8
1
  6
Continuous
 48
0.25
100
AcDbLine
 10
504.8930175152203
 20
214.8660837589075
 30
0.0
 11
504.7020986843001
 21
214.3399963137048
 31
0.0
  0
LINE
  5
139B
330
18
100
AcDbEntity
  8
1
  6
Continuous
 48
0.25
100
AcDbLine
 10
505.8433690291352
 20
213.9157322449928
 30
0.0
 11
506.3680422607758
 21
213.7248134140724
 31
0.0
  0
LINE
  5
139C
330
18
100
AcDbEntity
  8
1
  6
Continuous
 48
0.25
100
AcDbLine
 10
504.7020986843001
 20
215.3907569905479
 30
0.0
 11
504.0911584253548
 21
216.0229104529287
 31
0.0
  0
LINE
  5
139D
330
18
100
AcDbEntity
  8
1
  6
Continuous
 48
0.25
100
AcDbLine
 10
504.7020986843001
 20
214.3399963137048
 30
0.0
 11
504.0911584253548
 21
213.7078428513239
 31
0.0
  0
ARC
  5
139E
330
18
100
AcDbEntity
  8
1
  6
Continuous
 48
0.25
100
AcDbCircle
 10
505.8426619223538
 20
214.8653766521262
 30
0.0
 40
2.1
100
AcDbArc
 50
123.4629999999938
 51
146.5369999999989
  0
ARC
  5
139F
330
18
100
AcDbEntity
  8
1
  6
Continuous
 48
0.25
100
AcDbCircle
 10
505.8426619223538
 20
214.8653766521262
 30
0.0
 40
2.1
100
AcDbArc
 50
213.463000000001
 51
236.5370000000062
  0
LINE
  5
13A0
330
18
100
AcDbEntity
  8
1
  6
Continuous
 48
0.25
100
AcDbLine
 10
506.3687493675566
 20
216.0066469969615
 30
0.0
 11
507.0009028299375
 21
216.6175872559066
 31
0.0
  0
LINE
  5
13A1
330
18
100
AcDbEntity
  8
1
  6
Continuous
 48
0.25
100
AcDbLine
 10
506.3680422607758
 20
213.7248134140724
 30
0.0
 11
507.0016099367187
 21
213.1138731551272
 31
0.0
  0
ARC
  5
13A2
330
18
100
AcDbEntity
  8
1
  6
Continuous
100
AcDbCircle
 10
554.4277530826699
 20
164.7653766522454
 30
0.0
 40
3.75
100
AcDbArc
 50
342.9423763797576
 51
17.05762362024201
  0
ARC
  5
13A3
330
18
100
AcDbEntity
  8
1
  6
Continuous
100
AcDbCircle
 10
554.4277530826699
 20
164.7653766522729
 30
0.0
 40
7.0
100
AcDbArc
 50
312.7321100429091
 51
3.115436015969473
  0
LINE
  5
13A5
330
18
100
AcDbEntity
  8
1
  6
Continuous
100
AcDbLine
 10
550.1777530826975
 20
333.9653766520072
 30
0.0
 11
550.1777530826975
 21
320.3653766520072
 31
0.0
  0
LINE
  5
13A6
330
18
100
AcDbEntity
  8
1
  6
Continuous
100
AcDbLine
 10
559.1777530826975
 20
333.9653766520072
 30
0.0
 11
559.1777530826975
 21
316.0653766520073
 31
0.0
  0
LINE
  5
13A7
330
18
100
AcDbEntity
  8
1
  6
Continuous
100
AcDbLine
 10
557.5679530826972
 20
331.1653766520072
 30
0.0
 11
549.6777530826975
 21
331.1653766520072
 31
0.0
  0
LINE
  5
13A8
330
18
100
AcDbEntity
  8
1
  6
Continuous
100
AcDbLine
 10
559.1777530826975
 20
333.9653766520072
 30
0.0
 11
549.6777530826975
 21
333.9653766520072
 31
0.0
  0
LINE
  5
13A9
330
18
100
AcDbEntity
  8
1
  6
Continuous
100
AcDbLine
 10
556.9277530826975
 20
333.9653766520072
 30
0.0
 11
556.9277530826975
 21
331.1653766520072
 31
0.0
  0
LINE
  5
13AA
330
18
100
AcDbEntity
  8
1
  6
Continuous
100
AcDbLine
 10
549.6777530826975
 20
333.9653766520072
 30
0.0
 11
549.6777530826975
 21
331.1653766520072
 31
0.0
  0
ARC
  5
13AD
330
18
100
AcDbEntity
  8
1
  6
Continuous
100
AcDbCircle
 10
554.4277530826975
 20
314.9653766520073
 30
0.0
 40
3.049999999999998
100
AcDbArc
 50
201.1404999999974
 51
338.8599999999993
  0
ARC
  5
13AE
330
18
100
AcDbEntity
  8
1
  6
Continuous
100
AcDbCircle
 10
554.4277530826975
 20
314.8083766520072
 30
0.0
 40
4.84263
100
AcDbArc
 50
191.2244000000011
 51
348.7760000000002
  0
CIRCLE
  5
13AF
330
18
100
AcDbEntity
  8
1
  6
Continuous
100
AcDbCircle
 10
554.4277530826975
 20
314.9653766520073
 30
0.0
 40
2.549999999999998
  0
ARC
  5
13B0
330
18
100
AcDbEntity
  8
1
  6
Continuous
100
AcDbCircle
 10
554.4277530826975
 20
314.9653766520073
 30
0.0
 40
3.049999999999998
100
AcDbArc
 50
21.14000000000068
 51
158.8599999999969
  0
LINE
  5
13B1
330
18
100
AcDbEntity
  8
1
  6
Continuous
100
AcDbLine
 10
557.6397530826975
 20
322.1653766520072
 30
0.0
 11
549.6777530826975
 21
322.1653766520072
 31
0.0
  0
LINE
  5
13B2
330
18
100
AcDbEntity
  8
1
  6
Continuous
100
AcDbLine
 10
556.9277530826975
 20
319.8653766520072
 30
0.0
 11
549.6777530826975
 21
319.8653766520072
 31
0.0
  0
ARC
  5
13B3
330
18
100
AcDbEntity
  8
1
  6
Continuous
100
AcDbCircle
 10
554.9277530826976
 20
324.1153766520072
 30
0.0
 40
4.25
100
AcDbArc
 50
241.9275000000037
 51
298.0720000000033
  0
ARC
  5
13B5
330
18
100
AcDbEntity
  8
1
  6
Continuous
100
AcDbCircle
 10
554.4277530827249
 20
314.9653766519797
 30
0.0
 40
7.0
100
AcDbArc
 50
356.8845720014254
 51
47.26788995770463
  0
ARC
  5
13B6
330
18
100
AcDbEntity
  8
1
  6
Continuous
100
AcDbCircle
 10
554.4277530827249
 20
314.9653766520073
 30
0.0
 40
3.75
100
AcDbArc
 50
342.942376379758
 51
17.05762362024199
  0
LINE
  5
13B7
330
18
100
AcDbEntity
  8
1
  6
Continuous
100
AcDbLine
 10
559.1777530826975
 20
313.8653766520072
 30
0.0
 11
556.7282530826973
 21
313.8653766520072
 31
0.0
  0
LINE
  5
13B8
330
18
100
AcDbEntity
  8
1
  6
Continuous
100
AcDbLine
 10
559.1777530826975
 20
316.0653766520073
 30
0.0
 11
556.7282530826973
 21
316.0653766520073
 31
0.0
  0
LINE
  5
13B9
330
18
100
AcDbEntity
  8
1
  6
Continuous
100
AcDbLine
 10
559.1777530826975
 20
316.3653766520072
 30
0.0
 11
557.1374530826973
 21
316.3653766520072
 31
0.0
  0
LINE
  5
13BA
330
18
100
AcDbEntity
  8
1
  6
Continuous
100
AcDbLine
 10
557.8277530826974
 20
316.0653766520073
 30
0.0
 11
557.8277530826974
 21
313.8653766520072
 31
0.0
  0
LINE
  5
13BB
330
18
100
AcDbEntity
  8
1
  6
Continuous
100
AcDbLine
 10
559.1777530826975
 20
320.3653766520072
 30
0.0
 11
556.9277530826975
 21
320.3653766520072
 31
0.0
  0
LINE
  5
13BC
330
18
100
AcDbEntity
  8
1
  6
Continuous
100
AcDbLine
 10
556.9277530826975
 20
322.1653766520072
 30
0.0
 11
556.9277530826975
 21
316.7123766520071
 31
0.0
  0
ARC
  5
13BD
330
18
100
AcDbEntity
  8
1
  6
Continuous
100
AcDbCircle
 10
554.4277530827249
 20
314.9653766519797
 30
0.0
 40
7.0
100
AcDbArc
 50
132.7321100429091
 51
183.1154360159693
  0
ARC
  5
13BE
330
18
100
AcDbEntity
  8
1
  6
Continuous
100
AcDbCircle
 10
554.4277530827249
 20
314.9653766520073
 30
0.0
 40
3.75
100
AcDbArc
 50
162.9423763797576
 51
197.0576236202419
  0
LINE
  5
13BF
330
18
100
AcDbEntity
  8
1
  6
Continuous
100
AcDbLine
 10
552.1271530826975
 20
316.0653766520073
 30
0.0
 11
549.6777530826975
 21
316.0653766520073
 31
0.0
  0
LINE
  5
13C0
330
18
100
AcDbEntity
  8
1
  6
Continuous
100
AcDbLine
 10
552.1271530826975
 20
313.8653766520072
 30
0.0
 11
549.6777530826975
 21
313.8653766520072
 31
0.0
  0
LINE
  5
13C1
330
18
100
AcDbEntity
  8
1
  6
Continuous
100
AcDbLine
 10
551.0277530826973
 20
316.0653766520073
 30
0.0
 11
551.0277530826973
 21
313.8653766520072
 31
0.0
  0
LINE
  5
13C2
330
18
100
AcDbEntity
  8
1
  6
Continuous
100
AcDbLine
 10
552.9277530826975
 20
320.3653766520072
 30
0.0
 11
550.1777530826975
 21
320.3653766520072
 31
0.0
  0
LINE
  5
13C3
330
18
100
AcDbEntity
  8
1
  6
Continuous
100
AcDbLine
 10
549.6777530826975
 20
319.8653766520072
 30
0.0
 11
550.1777530826975
 21
320.3653766520072
 31
0.0
  0
LINE
  5
13C4
330
18
100
AcDbEntity
  8
1
  6
Continuous
100
AcDbLine
 10
549.6777530826975
 20
322.1653766520072
 30
0.0
 11
549.6777530826975
 21
316.0653766520073
 31
0.0
  0
LINE
  5
13C5
330
18
100
AcDbEntity
  8
4
  6
CENTER
100
AcDbLine
 10
600.8436073415305
 20
269.8653766522999
 30
0.0
 11
585.8124214644182
 21
269.8653766522999
 31
0.0
  0
LINE
  5
13C6
330
18
100
AcDbEntity
  8
4
  6
CENTER
100
AcDbLine
 10
600.8436073415305
 20
209.8653766522998
 30
0.0
 11
585.8124214644182
 21
209.8653766522998
 31
0.0
  0
LINE
  5
13CC
330
18
100
AcDbEntity
  8
1
  6
Continuous
100
AcDbLine
 10
381.1338053119363
 20
157.7653766518938
 30
0.0
 11
381.1338053117499
 21
199.8653766524884
 31
0.0
  0
LINE
  5
13CD
330
18
100
AcDbEntity
  8
1
  6
Continuous
100
AcDbLine
 10
383.4338053119363
 20
157.7653766519027
 30
0.0
 11
383.4338053117501
 21
199.8653766524884
 31
0.0
  0
LINE
  5
13CE
330
18
100
AcDbEntity
  8
4
  6
CENTER
100
AcDbLine
 10
364.2338053117143
 20
188.8653766523842
 30
0.0
 11
364.2338053117143
 21
290.8653766523875
 31
0.0
  0
LINE
  5
13D1
330
18
100
AcDbEntity
  8
1
  6
Continuous
100
AcDbLine
 10
362.7338053117143
 20
188.8653766523842
 30
0.0
 11
362.7338053117143
 21
290.8653766523875
 31
0.0
  0
LINE
  5
13D2
330
18
100
AcDbEntity
  8
1
  6
Continuous
100
AcDbLine
 10
356.2338053117791
 20
189.8653766523868
 30
0.0
 11
356.2338053117791
 21
289.8653766523866
 31
0.0
  0
LINE
  5
13D3
330
18
100
AcDbEntity
  8
1
  6
Continuous
100
AcDbLine
 10
360.7338053117143
 20
188.8653766523842
 30
0.0
 11
360.7338053117143
 21
290.8653766523875
 31
0.0
  0
LINE
  5
13D5
330
18
100
AcDbEntity
  8
1
  6
Continuous
100
AcDbLine
 10
389.7338053117291
 20
284.8653766516741
 30
0.0
 11
389.7338053117291
 21
268.2273687634031
 31
0.0
  0
LINE
  5
13D9
330
18
100
AcDbEntity
  8
1
  6
Continuous
100
AcDbLine
 10
393.2337977838956
 20
331.1653766519952
 30
0.0
 11
393.2337977838956
 21
322.1653766519951
 31
0.0
  0
LINE
  5
13DA
330
18
100
AcDbEntity
  8
1
  6
Continuous
100
AcDbLine
 10
390.6057977838957
 20
331.1653766519952
 30
0.0
 11
390.6057977838957
 21
322.1653766519951
 31
0.0
  0
LINE
  5
13DB
330
18
100
AcDbEntity
  8
1
  6
Continuous
100
AcDbLine
 10
389.6337977838957
 20
331.1653766519952
 30
0.0
 11
389.6337977838957
 21
322.1653766519951
 31
0.0
  0
LINE
  5
13DC
330
18
100
AcDbEntity
  8
1
  6
Continuous
100
AcDbLine
 10
384.1337977838957
 20
333.9653766519952
 30
0.0
 11
384.1337977838957
 21
316.0653766519952
 31
0.0
  0
LINE
  5
13DD
330
18
100
AcDbEntity
  8
4
  6
CENTER
100
AcDbLine
 10
388.2337977838956
 20
335.9983766519953
 30
0.0
 11
388.2337977838956
 21
313.0123766519952
 31
0.0
  0
LINE
  5
13DE
330
18
100
AcDbEntity
  8
1
  6
Continuous
100
AcDbLine
 10
393.2337977838956
 20
331.1653766519952
 30
0.0
 11
389.6337977838957
 21
331.1653766519952
 31
0.0
  0
LINE
  5
13DF
330
18
100
AcDbEntity
  8
1
  6
Continuous
100
AcDbLine
 10
386.1337977838957
 20
331.1653766519952
 30
0.0
 11
384.1337977838957
 21
331.1653766519952
 31
0.0
  0
LINE
  5
13E0
330
18
100
AcDbEntity
  8
1
  6
Continuous
100
AcDbLine
 10
385.6337977838957
 20
333.9653766519952
 30
0.0
 11
385.6337977838957
 21
331.1653766519952
 31
0.0
  0
LINE
  5
13E1
330
18
100
AcDbEntity
  8
1
  6
Continuous
100
AcDbLine
 10
386.1337977838957
 20
333.4653766519952
 30
0.0
 11
386.1337977838957
 21
331.1653766519952
 31
0.0
  0
LINE
  5
13E2
330
18
100
AcDbEntity
  8
1
  6
Continuous
100
AcDbLine
 10
385.6337977838957
 20
333.9653766519952
 30
0.0
 11
386.1337977838957
 21
333.4653766519952
 31
0.0
  0
LINE
  5
13E3
330
18
100
AcDbEntity
  8
1
  6
Continuous
100
AcDbLine
 10
391.1337977838957
 20
333.9653766519952
 30
0.0
 11
391.1337977838957
 21
331.1653766519952
 31
0.0
  0
LINE
  5
13E4
330
18
100
AcDbEntity
  8
1
  6
Continuous
100
AcDbLine
 10
391.1337977838957
 20
333.9653766519952
 30
0.0
 11
384.1337977838957
 21
333.9653766519952
 31
0.0
  0
LINE
  5
13E5
330
18
100
AcDbEntity
  8
1
  6
Continuous
100
AcDbLine
 10
357.2338053117787
 20
188.8653766523867
 30
0.0
 11
362.7338053117143
 21
188.8653766523828
 31
0.0
  0
LINE
  5
13E6
330
18
100
AcDbEntity
  8
1
  6
Continuous
100
AcDbLine
 10
383.4338053118533
 20
321.9653766519611
 30
0.0
 11
383.4338053118533
 21
279.8653766524884
 31
0.0
  0
LINE
  5
13E7
330
18
100
AcDbEntity
  8
1
  6
Continuous
100
AcDbLine
 10
381.1338053118534
 20
321.9653766519611
 30
0.0
 11
381.1338053118534
 21
279.8653766524884
 31
0.0
  0
LINE
  5
13E8
330
18
100
AcDbEntity
  8
1
  6
Continuous
100
AcDbLine
 10
393.2337977838956
 20
322.1653766519951
 30
0.0
 11
389.6337977838957
 21
322.1653766519951
 31
0.0
  0
LINE
  5
13E9
330
18
100
AcDbEntity
  8
1
  6
Continuous
100
AcDbLine
 10
380.5341977838957
 20
310.7653766519952
 30
0.0
 11
377.3780977838955
 21
311.8023766519952
 31
0.0
  0
LINE
  5
13EA
330
18
100
AcDbEntity
  8
1
  6
Continuous
100
AcDbLine
 10
384.1337977838957
 20
313.8653766519952
 30
0.0
 11
384.1337977838957
 21
309.9653766519952
 31
0.0
  0
LINE
  5
13EB
330
18
100
AcDbEntity
  8
1
  6
Continuous
100
AcDbLine
 10
385.6337977838957
 20
313.8653766519952
 30
0.0
 11
385.6337977838957
 21
309.9653766519952
 31
0.0
  0
ARC
  5
13EC
330
18
100
AcDbEntity
  8
1
  6
Continuous
100
AcDbCircle
 10
377.5341977838956
 20
317.6533766519952
 30
0.0
 40
0.5
100
AcDbArc
 50
108.1890000000025
 51
180.0
  0
ARC
  5
13ED
330
18
100
AcDbEntity
  8
1
  6
Continuous
100
AcDbCircle
 10
377.5341977838956
 20
312.2773766519952
 30
0.0
 40
0.5
100
AcDbArc
 50
180.0
 51
251.8109999999975
  0
LINE
  5
13EE
330
18
100
AcDbEntity
  8
4
  6
CENTER
100
AcDbLine
 10
389.8957977838957
 20
314.9653766519952
 30
0.0
 11
374.8850977838956
 21
314.9653766519952
 31
0.0
  0
LINE
  5
13EF
330
18
100
AcDbEntity
  8
1
  6
Continuous
100
AcDbLine
 10
381.1338053118534
 20
315.8746523342559
 30
0.0
 11
379.3834977838955
 21
315.7633766519953
 31
0.0
  0
LINE
  5
13F0
330
18
100
AcDbEntity
  8
1
  6
Continuous
100
AcDbLine
 10
381.1338053118534
 20
314.0554694322585
 30
0.0
 11
379.3834977838955
 21
314.1663766519952
 31
0.0
  0
ARC
  5
13F1
330
18
100
AcDbEntity
  8
1
  6
Continuous
100
AcDbCircle
 10
379.4341977838957
 20
314.9653766519952
 30
0.0
 40
0.8
100
AcDbArc
 50
93.71099999999799
 51
266.289000000002
  0
LINE
  5
13F2
330
18
100
AcDbEntity
  8
1
  6
Continuous
100
AcDbLine
 10
385.6337977838957
 20
313.8653766519952
 30
0.0
 11
384.1337977838957
 21
313.8653766519952
 31
0.0
  0
LINE
  5
13F3
330
18
100
AcDbEntity
  8
1
  6
Continuous
100
AcDbLine
 10
385.6337977838957
 20
316.0653766519952
 30
0.0
 11
384.1337977838957
 21
316.0653766519952
 31
0.0
  0
LINE
  5
13F4
330
18
100
AcDbEntity
  8
1
  6
Continuous
100
AcDbLine
 10
384.1337977838957
 20
311.4653766519952
 30
0.0
 11
383.4338053118536
 21
311.4653766519952
 31
0.0
  0
LINE
  5
13F5
330
18
100
AcDbEntity
  8
1
  6
Continuous
100
AcDbLine
 10
384.1337977838957
 20
316.0653766519952
 30
0.0
 11
383.4338053118533
 21
316.0208746781079
 31
0.0
  0
LINE
  5
13F6
330
18
100
AcDbEntity
  8
1
  6
Continuous
100
AcDbLine
 10
384.1337977838957
 20
313.8653766519953
 30
0.0
 11
383.4338053118533
 21
313.9097312683531
 31
0.0
  0
LINE
  5
13F7
330
18
100
AcDbEntity
  8
1
  6
Continuous
100
AcDbLine
 10
381.1337977838957
 20
319.1653766519952
 30
0.0
 11
380.5341977838957
 21
319.1653766519952
 31
0.0
  0
LINE
  5
13F8
330
18
100
AcDbEntity
  8
1
  6
Continuous
100
AcDbLine
 10
386.1337977838957
 20
322.1653766519951
 30
0.0
 11
384.1337977838957
 21
322.1653766519951
 31
0.0
  0
LINE
  5
13F9
330
18
100
AcDbEntity
  8
1
  6
Continuous
100
AcDbLine
 10
386.1337977838957
 20
320.3653766519953
 30
0.0
 11
385.6337977838957
 21
319.8653766519953
 31
0.0
  0
LINE
  5
13FA
330
18
100
AcDbEntity
  8
1
  6
Continuous
100
AcDbLine
 10
386.1337977838957
 20
322.1653766519951
 30
0.0
 11
386.1337977838957
 21
320.3653766519952
 31
0.0
  0
LINE
  5
13FB
330
18
100
AcDbEntity
  8
1
  6
Continuous
100
AcDbLine
 10
383.4338053118533
 20
321.9653766519611
 30
0.0
 11
381.1338053118534
 21
321.9653766519611
 31
0.0
  0
LINE
  5
13FC
330
18
100
AcDbEntity
  8
1
  6
Continuous
100
AcDbLine
 10
384.1337977838957
 20
318.4653766519952
 30
0.0
 11
383.4338053118536
 21
318.4653766519952
 31
0.0
  0
LINE
  5
13FD
330
18
100
AcDbEntity
  8
1
  6
Continuous
100
AcDbLine
 10
391.1337977838957
 20
322.1653766519951
 30
0.0
 11
391.1337977838957
 21
320.3653766519952
 31
0.0
  0
LINE
  5
13FE
330
18
100
AcDbEntity
  8
1
  6
Continuous
100
AcDbLine
 10
391.1337977838957
 20
320.3653766519952
 30
0.0
 11
389.6337977838957
 21
320.3653766519952
 31
0.0
  0
LINE
  5
13FF
330
18
100
AcDbEntity
  8
1
  6
Continuous
100
AcDbLine
 10
380.5341977838957
 20
319.1653766519952
 30
0.0
 11
377.3780977838955
 21
318.1283766519952
 31
0.0
  0
LINE
  5
1400
330
18
100
AcDbEntity
  8
1
  6
Continuous
100
AcDbLine
 10
389.6337977838957
 20
320.3653766519953
 30
0.0
 11
385.6337977838957
 21
316.3653766519953
 31
0.0
  0
LINE
  5
1401
330
18
100
AcDbEntity
  8
1
  6
Continuous
100
AcDbLine
 10
385.6337977838957
 20
322.1653766519951
 30
0.0
 11
385.6337977838957
 21
316.0653766519952
 31
0.0
  0
LINE
  5
1402
330
18
100
AcDbEntity
  8
1
  6
Continuous
100
AcDbLine
 10
377.0341977838957
 20
317.6533766519952
 30
0.0
 11
377.0341977838957
 21
312.2773766519952
 31
0.0
  0
LINE
  5
1403
330
18
100
AcDbEntity
  8
1
  6
Continuous
100
AcDbLine
 10
385.6337977838957
 20
309.9653766519952
 30
0.0
 11
384.1337977838957
 21
309.9653766519952
 31
0.0
  0
LINE
  5
1404
330
18
100
AcDbEntity
  8
1
  6
Continuous
100
AcDbLine
 10
381.1337977838957
 20
310.7653766519952
 30
0.0
 11
380.5341977838957
 21
310.7653766519952
 31
0.0
  0
LINE
  5
1405
330
18
100
AcDbEntity
  8
1
  6
Continuous
100
AcDbLine
 10
375.7338053117364
 20
194.8653766521046
 30
0.0
 11
381.1338053117722
 21
194.8653766521182
 31
0.0
  0
LINE
  5
1406
330
18
100
AcDbEntity
  8
1
  6
Continuous
100
AcDbLine
 10
369.5338053117254
 20
193.8653766521077
 30
0.0
 11
362.7338053117143
 21
193.8653766521077
 31
0.0
  0
ARC
  5
1407
330
18
100
AcDbEntity
  8
1
  6
Continuous
100
AcDbCircle
 10
369.5338053117254
 20
201.8653766521076
 30
0.0
 40
8.0
100
AcDbArc
 50
270.0
 51
345.5224878168862
  0
ARC
  5
1408
330
18
100
AcDbEntity
  8
1
  6
Continuous
100
AcDbCircle
 10
375.7338053117291
 20
197.8653766521047
 30
0.0
 40
3.0
100
AcDbArc
 50
237.8962477760359
 51
270.0
  0
ARC
  5
1409
330
18
100
AcDbEntity
  8
1
  6
Continuous
100
AcDbCircle
 10
357.2338053117791
 20
189.8653766523868
 30
0.0
 40
1.0
100
AcDbArc
 50
180.0
 51
270.0
  0
LINE
  5
140B
330
18
100
AcDbEntity
  8
4
  6
CENTER
100
AcDbLine
 10
394.7265211158603
 20
239.8653766521076
 30
0.0
 11
351.1471985794701
 21
239.8653766521076
 31
0.0
  0
LINE
  5
140F
330
18
100
AcDbEntity
  8
4
  6
CENTER
100
AcDbLine
 10
393.0447997618585
 20
209.8653766521076
 30
0.0
 11
374.181288817919
 21
209.8653766521076
 31
0.0
  0
LINE
  5
1412
330
18
100
AcDbEntity
  8
4
  6
CENTER
100
AcDbLine
 10
393.0447997618585
 20
222.3653766521076
 30
0.0
 11
374.181288817919
 21
222.3653766521076
 31
0.0
  0
LINE
  5
141F
330
18
100
AcDbEntity
  8
1
  6
Continuous
100
AcDbLine
 10
357.2338053117801
 20
290.8653766523866
 30
0.0
 11
362.7338053117141
 21
290.8653766523826
 31
0.0
  0
LINE
  5
1424
330
18
100
AcDbEntity
  8
4
  6
CENTER
100
AcDbLine
 10
393.0447997618585
 20
257.3653766521076
 30
0.0
 11
374.181288817919
 21
257.3653766521076
 31
0.0
  0
LINE
  5
1425
330
18
100
AcDbEntity
  8
4
  6
CENTER
100
AcDbLine
 10
393.0447997618585
 20
269.8653766521076
 30
0.0
 11
374.181288817919
 21
269.8653766521076
 31
0.0
  0
ARC
  5
1427
330
18
100
AcDbEntity
  8
1
  6
Continuous
100
AcDbCircle
 10
375.7338053117291
 20
281.8653766516926
 30
0.0
 40
3.0
100
AcDbArc
 50
90.0
 51
122.1037522168845
  0
LINE
  5
1428
330
18
100
AcDbEntity
  8
1
  6
Continuous
100
AcDbLine
 10
375.733805311733
 20
284.8653766516924
 30
0.0
 11
381.1338053118534
 21
284.8653766516853
 31
0.0
  0
ARC
  5
1429
330
18
100
AcDbEntity
  8
1
  6
Continuous
100
AcDbCircle
 10
369.5338053117254
 20
277.8653766521076
 30
0.0
 40
8.0
100
AcDbArc
 50
14.47751218874677
 51
90.0
  0
LINE
  5
142A
330
18
100
AcDbEntity
  8
1
  6
Continuous
100
AcDbLine
 10
369.5338053117254
 20
285.8653766521076
 30
0.0
 11
362.7338053117143
 21
285.8653766521076
 31
0.0
  0
ARC
  5
142B
330
18
100
AcDbEntity
  8
1
  6
Continuous
100
AcDbCircle
 10
357.2338053117791
 20
289.8653766523866
 30
0.0
 40
1.0
100
AcDbArc
 50
90.0
 51
180.0
  0
LINE
  5
142C
330
18
100
AcDbEntity
  8
1
  6
Continuous
100
AcDbLine
 10
380.5342053119013
 20
160.565376651902
 30
0.0
 11
377.3781053119011
 21
161.602376651902
 31
0.0
  0
ARC
  5
142D
330
18
100
AcDbEntity
  8
1
  6
Continuous
100
AcDbCircle
 10
377.5342053119013
 20
162.077376651902
 30
0.0
 40
0.5
100
AcDbArc
 50
180.0
 51
251.8109999999975
  0
LINE
  5
142E
330
18
100
AcDbEntity
  8
1
  6
Continuous
100
AcDbLine
 10
389.6338053119011
 20
159.3653766519021
 30
0.0
 11
385.6338053119011
 21
163.3653766519021
 31
0.0
  0
LINE
  5
142F
330
18
100
AcDbEntity
  8
4
  6
CENTER
100
AcDbLine
 10
388.2338053119013
 20
143.731376651902
 30
0.0
 11
388.2338053119013
 21
166.718376651902
 31
0.0
  0
LINE
  5
1430
330
18
100
AcDbEntity
  8
1
  6
Continuous
100
AcDbLine
 10
384.1338053119013
 20
145.7653766519021
 30
0.0
 11
384.1338053119013
 21
163.665376651902
 31
0.0
  0
ARC
  5
1431
330
18
100
AcDbEntity
  8
1
  6
Continuous
100
AcDbCircle
 10
377.5342053119013
 20
167.453376651902
 30
0.0
 40
0.5
100
AcDbArc
 50
108.1890000000025
 51
180.0
  0
LINE
  5
1432
330
18
100
AcDbEntity
  8
4
  6
CENTER
100
AcDbLine
 10
389.8958053119013
 20
164.765376651902
 30
0.0
 11
374.8851053119012
 21
164.765376651902
 31
0.0
  0
LINE
  5
1433
330
18
100
AcDbEntity
  8
1
  6
Continuous
100
AcDbLine
 10
381.1338053119015
 20
165.6752833946339
 30
0.0
 11
379.3835053119014
 21
165.5643766519019
 31
0.0
  0
LINE
  5
1434
330
18
100
AcDbEntity
  8
1
  6
Continuous
100
AcDbLine
 10
381.1338053119095
 20
163.8561014482303
 30
0.0
 11
379.3835053119014
 21
163.9673766519021
 31
0.0
  0
LINE
  5
1435
330
18
100
AcDbEntity
  8
1
  6
Continuous
100
AcDbLine
 10
381.1338053119013
 20
168.965376651902
 30
0.0
 11
380.5342053119013
 21
168.965376651902
 31
0.0
  0
LINE
  5
1436
330
18
100
AcDbEntity
  8
1
  6
Continuous
100
AcDbLine
 10
380.5342053119013
 20
168.9653766519019
 30
0.0
 11
377.3781053119014
 21
167.928376651902
 31
0.0
  0
ARC
  5
1437
330
18
100
AcDbEntity
  8
1
  6
Continuous
100
AcDbCircle
 10
379.4342053119012
 20
164.765376651902
 30
0.0
 40
0.8
100
AcDbArc
 50
93.63300000000039
 51
266.3669999999996
  0
LINE
  5
1438
330
18
100
AcDbEntity
  8
1
  6
Continuous
100
AcDbLine
 10
385.6338053119013
 20
169.7653766519021
 30
0.0
 11
384.1338053119013
 21
169.7653766519021
 31
0.0
  0
LINE
  5
1439
330
18
100
AcDbEntity
  8
1
  6
Continuous
100
AcDbLine
 10
385.6338053119013
 20
165.865376651902
 30
0.0
 11
384.1338053119013
 21
165.865376651902
 31
0.0
  0
LINE
  5
143A
330
18
100
AcDbEntity
  8
1
  6
Continuous
100
AcDbLine
 10
385.6338053119013
 20
163.665376651902
 30
0.0
 11
384.1338053119013
 21
163.665376651902
 31
0.0
  0
LINE
  5
143B
330
18
100
AcDbEntity
  8
1
  6
Continuous
100
AcDbLine
 10
384.1338053119013
 20
165.865376651902
 30
0.0
 11
384.1338053119013
 21
169.7653766519021
 31
0.0
  0
LINE
  5
143C
330
18
100
AcDbEntity
  8
1
  6
Continuous
100
AcDbLine
 10
385.6338053119013
 20
165.865376651902
 30
0.0
 11
385.6338053119013
 21
169.7653766519021
 31
0.0
  0
LINE
  5
143D
330
18
100
AcDbEntity
  8
1
  6
Continuous
100
AcDbLine
 10
385.6338053119013
 20
163.365376651902
 30
0.0
 11
385.6338053119013
 21
163.665376651902
 31
0.0
  0
LINE
  5
143E
330
18
100
AcDbEntity
  8
1
  6
Continuous
100
AcDbLine
 10
384.1338053119013
 20
168.2653766519021
 30
0.0
 11
383.4338053118899
 21
168.2653766519021
 31
0.0
  0
LINE
  5
143F
330
18
100
AcDbEntity
  8
1
  6
Continuous
100
AcDbLine
 10
384.1338053119013
 20
165.8653766519019
 30
0.0
 11
383.4338053119008
 21
165.8210215585393
 31
0.0
  0
LINE
  5
1440
330
18
100
AcDbEntity
  8
1
  6
Continuous
100
AcDbLine
 10
384.1338053119013
 20
163.6653766519021
 30
0.0
 11
383.4338053119099
 21
163.7098791043783
 31
0.0
  0
LINE
  5
1441
330
18
100
AcDbEntity
  8
1
  6
Continuous
100
AcDbLine
 10
377.0342053119013
 20
162.077376651902
 30
0.0
 11
377.0342053119013
 21
167.453376651902
 31
0.0
  0
LINE
  5
1442
330
18
100
AcDbEntity
  8
1
  6
Continuous
100
AcDbLine
 10
393.2338053119011
 20
148.565376651902
 30
0.0
 11
391.1338053119011
 21
148.565376651902
 31
0.0
  0
LINE
  5
1443
330
18
100
AcDbEntity
  8
1
  6
Continuous
100
AcDbLine
 10
393.2338053119011
 20
157.565376651902
 30
0.0
 11
391.1338053119011
 21
157.565376651902
 31
0.0
  0
LINE
  5
1444
330
18
100
AcDbEntity
  8
1
  6
Continuous
100
AcDbLine
 10
393.2338053119011
 20
148.565376651902
 30
0.0
 11
393.2338053119011
 21
157.565376651902
 31
0.0
  0
LINE
  5
1445
330
18
100
AcDbEntity
  8
1
  6
Continuous
100
AcDbLine
 10
381.1338053119013
 20
160.565376651902
 30
0.0
 11
380.5342053119013
 21
160.565376651902
 31
0.0
  0
LINE
  5
1446
330
18
100
AcDbEntity
  8
1
  6
Continuous
100
AcDbLine
 10
383.4338053119363
 20
157.7653766519128
 30
0.0
 11
381.1338053119363
 21
157.7653766519128
 31
0.0
  0
LINE
  5
1447
330
18
100
AcDbEntity
  8
1
  6
Continuous
100
AcDbLine
 10
384.1338053119013
 20
161.2653766519021
 30
0.0
 11
383.4338053119207
 21
161.2653766519021
 31
0.0
  0
LINE
  5
1448
330
18
100
AcDbEntity
  8
1
  6
Continuous
100
AcDbLine
 10
391.1338053119011
 20
157.565376651902
 30
0.0
 11
391.1338053119011
 21
159.365376651902
 31
0.0
  0
LINE
  5
1449
330
18
100
AcDbEntity
  8
1
  6
Continuous
100
AcDbLine
 10
391.1338053119011
 20
159.365376651902
 30
0.0
 11
389.6338053119011
 21
159.365376651902
 31
0.0
  0
LINE
  5
144A
330
18
100
AcDbEntity
  8
1
  6
Continuous
100
AcDbLine
 10
391.1338053119011
 20
145.7653766519021
 30
0.0
 11
391.1338053119011
 21
148.565376651902
 31
0.0
  0
LINE
  5
144B
330
18
100
AcDbEntity
  8
1
  6
Continuous
100
AcDbLine
 10
391.1338053119011
 20
145.7653766519021
 30
0.0
 11
384.1338053119013
 21
145.7653766519021
 31
0.0
  0
ARC
  5
15AE
330
18
100
AcDbEntity
  8
1
  6
Continuous
100
AcDbCircle
 10
267.2614497341986
 20
421.0635555555271
 30
0.0
 40
2.0
100
AcDbArc
 50
11.387194428439
 51
101.3871944284407
  0
LINE
  5
15AF
330
18
100
AcDbEntity
  8
1
  6
Continuous
100
AcDbLine
 10
267.2614497341985
 20
421.063555555527
 30
0.0
 11
270.7166190293687
 21
403.9080373429603
 31
0.0
  0
LINE
  5
15B0
330
18
100
AcDbEntity
  8
1
  6
Continuous
100
AcDbLine
 10
189.5692797709539
 20
397.2930101022431
 30
0.0
 11
272.5692797709534
 21
397.2930101031542
 31
0.0
  0
ARC
  5
15B1
330
18
100
AcDbEntity
  8
1
  6
Continuous
100
AcDbCircle
 10
231.0692797655872
 20
967.6263434611003
 30
0.0
 40
574.8333333584017
100
AcDbArc
 50
265.9528146102247
 51
274.0471853908527
  0
ARC
  5
15B2
330
18
100
AcDbEntity
  8
1
  6
Continuous
100
AcDbCircle
 10
249.0692797709557
 20
397.0930101028962
 30
0.0
 40
17.0
100
AcDbArc
 50
7.435601782177776
 51
90.00000000054063
  0
LINE
  5
15B3
330
18
100
AcDbEntity
  8
1
  6
Continuous
100
AcDbLine
 10
189.5692797709349
 20
399.2930101022431
 30
0.0
 11
272.5692797709352
 21
399.2930101031543
 31
0.0
  0
LINE
  5
15B7
330
18
100
AcDbEntity
  8
1
  6
Continuous
100
AcDbLine
 10
256.0692797708099
 20
412.5849434877918
 30
0.0
 11
256.0692797706999
 21
424.293010102882
 31
0.0
  0
LINE
  5
15B8
330
18
100
AcDbEntity
  8
1
  6
Continuous
100
AcDbLine
 10
266.068103422433
 20
399.2930101030827
 30
0.0
 11
266.0681034222684
 21
416.7930101030796
 31
0.0
  0
LINE
  5
15B9
330
18
100
AcDbEntity
  8
1
  6
Continuous
100
AcDbLine
 10
246.1703002848981
 20
420.0930101028643
 30
0.0
 11
246.1703002849699
 21
414.0930101028363
 31
0.0
  0
LINE
  5
15BA
330
18
100
AcDbEntity
  8
1
  6
Continuous
100
AcDbLine
 10
243.4682592563731
 20
420.0930101028346
 30
0.0
 11
243.4682592564367
 21
414.0930101028108
 31
0.0
  0
LINE
  5
15BB
330
18
100
AcDbEntity
  8
1
  6
Continuous
100
AcDbLine
 10
233.6703002851729
 20
417.5930101027272
 30
0.0
 11
233.6703002852029
 21
414.0930101027768
 31
0.0
  0
LINE
  5
15BC
330
18
100
AcDbEntity
  8
1
  6
Continuous
100
AcDbLine
 10
227.0692797707956
 20
414.0930101026647
 30
0.0
 11
233.6703002851727
 21
417.5930101027269
 31
0.0
  0
LINE
  5
15BD
330
18
100
AcDbEntity
  8
1
  6
Continuous
100
AcDbLine
 10
208.0692797707959
 20
414.0930101024306
 30
0.0
 11
208.069279770762
 21
417.6930101024634
 31
0.0
  0
LINE
  5
15BE
330
18
100
AcDbEntity
  8
4
  6
CENTER
100
AcDbLine
 10
213.4851886119572
 20
411.7031330671891
 30
0.0
 11
213.485188611726
 21
428.412141445239
 31
0.0
  0
LINE
  5
15BF
330
18
100
AcDbEntity
  8
1
  6
Continuous
100
AcDbLine
 10
198.0692797707959
 20
414.0930101023363
 30
0.0
 11
198.0692797706999
 21
424.2930101023386
 31
0.0
  0
ARC
  5
15C0
330
18
100
AcDbEntity
  8
5
  6
PHANTOM
100
AcDbCircle
 10
171.5692797705994
 20
415.2930101027559
 30
0.0
 40
1.0
100
AcDbArc
 50
148.9928899711981
 51
270.0
  0
LINE
  5
15C1
330
18
100
AcDbEntity
  8
1
  6
Continuous
100
AcDbLine
 10
176.569279770794
 20
412.6930101027168
 30
0.0
 11
176.569279770794
 21
419.8930101027166
 31
0.0
  0
ARC
  5
15C2
330
18
100
AcDbEntity
  8
1
  6
Continuous
100
AcDbCircle
 10
161.5692797705994
 20
415.2930101027569
 30
0.0
 40
1.0
100
AcDbArc
 50
148.9928899711981
 51
270.0
  0
LINE
  5
15C3
330
18
100
AcDbEntity
  8
1
  6
Continuous
100
AcDbLine
 10
172.5692797707938
 20
409.2930101027167
 30
0.0
 11
172.5692797707938
 21
424.2930101027168
 31
0.0
  0
LINE
  5
15C4
330
18
100
AcDbEntity
  8
1
  6
Continuous
100
AcDbLine
 10
174.5692797707938
 20
409.2930101027168
 30
0.0
 11
174.5692797707938
 21
424.2930101027168
 31
0.0
  0
LINE
  5
15C5
330
18
100
AcDbEntity
  8
1
  6
Continuous
100
AcDbLine
 10
196.5692797709349
 20
399.2930101023198
 30
0.0
 11
196.5692797706997
 21
424.2930101027168
 31
0.0
  0
LINE
  5
15C6
330
18
100
AcDbEntity
  8
1
  6
Continuous
100
AcDbLine
 10
210.0851886118741
 20
417.6930101025227
 30
0.0
 11
210.3960886118743
 21
414.0508101025227
 31
0.0
  0
LINE
  5
15C7
330
18
100
AcDbEntity
  8
1
  6
Continuous
100
AcDbLine
 10
216.8851886118741
 20
417.6930101025227
 30
0.0
 11
216.5741886118744
 21
414.0508101025227
 31
0.0
  0
LINE
  5
15C8
330
18
100
AcDbEntity
  8
4
  6
CENTER
100
AcDbLine
 10
213.4851886118742
 20
433.1040101025226
 30
0.0
 11
213.4851886118742
 21
409.3818101025227
 31
0.0
  0
LINE
  5
15C9
330
18
100
AcDbEntity
  8
1
  6
Continuous
100
AcDbLine
 10
174.5692797707938
 20
426.2930101027168
 30
0.0
 11
208.9026129169712
 21
426.2930101027166
 31
0.0
  0
LINE
  5
15CA
330
18
100
AcDbEntity
  8
1
  6
Continuous
100
AcDbLine
 10
174.5692797707938
 20
424.2930101027168
 30
0.0
 11
208.7351886118742
 21
424.2930101027168
 31
0.0
  0
LINE
  5
15CB
330
18
100
AcDbEntity
  8
1
  6
Continuous
100
AcDbLine
 10
196.5692797706997
 20
424.2930101023214
 30
0.0
 11
208.7351886118742
 21
424.2930101024359
 31
0.0
  0
LINE
  5
15CC
330
18
100
AcDbEntity
  8
4
  6
CENTER
100
AcDbLine
 10
179.2054038674096
 20
416.2930101028238
 30
0.0
 11
169.5203077021183
 21
416.2930101028238
 31
0.0
  0
ARC
  5
15CD
330
18
100
AcDbEntity
  8
1
  6
Continuous
100
AcDbCircle
 10
174.5692797707938
 20
424.2930101027168
 30
0.0
 40
2.0
100
AcDbArc
 50
90.00000000000005
 51
180.0
  0
ARC
  5
15CE
330
18
100
AcDbEntity
  8
5
  6
PHANTOM
100
AcDbCircle
 10
192.1397609210835
 20
402.9295435485253
 30
0.0
 40
25.0
100
AcDbArc
 50
121.2911945167399
 51
148.9928899711981
  0
LINE
  5
15CF
330
18
100
AcDbEntity
  8
1
  6
Continuous
100
AcDbLine
 10
169.1550662081572
 20
424.2930101027188
 30
0.0
 11
172.5692797707938
 21
424.2930101027188
 31
0.0
  0
ARC
  5
15D0
330
18
100
AcDbEntity
  8
1
  6
Continuous
100
AcDbCircle
 10
182.1397609210835
 20
402.9295435485264
 30
0.0
 40
25.0
100
AcDbArc
 50
121.2911945167399
 51
148.9928899711981
  0
LINE
  5
15D1
330
18
100
AcDbEntity
  8
1
  6
Continuous
100
AcDbLine
 10
175.5692797707938
 20
419.8930101027166
 30
0.0
 11
176.5692797707938
 21
419.8930101027166
 31
0.0
  0
ARC
  5
15D2
330
18
100
AcDbEntity
  8
1
  6
Continuous
100
AcDbCircle
 10
175.5692797707938
 20
420.8930101027166
 30
0.0
 40
1.0
100
AcDbArc
 50
180.0
 51
270.0
  0
LINE
  5
15D3
330
18
100
AcDbEntity
  8
1
  6
Continuous
100
AcDbLine
 10
216.6315523981281
 20
426.2930101027166
 30
0.0
 11
257.069279770794
 21
426.2930101027168
 31
0.0
  0
LINE
  5
15D5
330
18
100
AcDbEntity
  8
1
  6
Continuous
100
AcDbLine
 10
210.9851886118742
 20
424.2930101024572
 30
0.0
 11
258.2692797706997
 21
424.2930101029021
 31
0.0
  0
LINE
  5
15D6
330
18
100
AcDbEntity
  8
1
  6
Continuous
100
AcDbLine
 10
233.8021034723515
 20
421.993010102595
 30
0.0
 11
244.5692797707213
 21
421.9930101026578
 31
0.0
  0
LINE
  5
15D7
330
18
100
AcDbEntity
  8
1
  6
Continuous
100
AcDbLine
 10
233.5692797707233
 20
421.7930101027418
 30
0.0
 11
243.5692797707233
 21
421.7930101028515
 31
0.0
  0
LINE
  5
15D8
330
18
100
AcDbEntity
  8
1
  6
Continuous
100
AcDbLine
 10
217.7351886118744
 20
427.1650101025226
 30
0.0
 11
216.5049886118743
 21
426.1930101025226
 31
0.0
  0
ARC
  5
15D9
330
18
100
AcDbEntity
  8
1
  6
Continuous
100
AcDbCircle
 10
213.4851886118742
 20
425.0430101025227
 30
0.0
 40
2.5
100
AcDbArc
 50
27.38710000000108
 51
180.0
  0
ARC
  5
15DA
330
18
100
AcDbEntity
  8
1
  6
Continuous
100
AcDbCircle
 10
213.4851886118742
 20
425.0430101025227
 30
0.0
 40
4.75
100
AcDbArc
 50
26.52539999999981
 51
180.0
  0
LINE
  5
15DB
330
18
100
AcDbEntity
  8
1
  6
Continuous
100
AcDbLine
 10
210.9851886118742
 20
426.7750101025227
 30
0.0
 11
210.9851886118742
 21
422.1930101025227
 31
0.0
  0
ARC
  5
15DC
330
18
100
AcDbEntity
  8
1
  6
Continuous
100
AcDbCircle
 10
210.0670886118741
 20
426.7750101025227
 30
0.0
 40
0.9181510000000001
100
AcDbArc
 50
0.000000000000007
 51
153.1299999999985
  0
LINE
  5
15DD
330
18
100
AcDbEntity
  8
1
  6
Continuous
100
AcDbLine
 10
206.4851886123051
 20
417.693010102446
 30
0.0
 11
220.4851886123094
 21
417.6930101025996
 31
0.0
  0
LINE
  5
15DE
330
18
100
AcDbEntity
  8
1
  6
Continuous
100
AcDbLine
 10
206.4851886120457
 20
419.993010102446
 30
0.0
 11
229.8630841310916
 21
419.9930101027026
 31
0.0
  0
LINE
  5
15DF
330
18
100
AcDbEntity
  8
1
  6
Continuous
100
AcDbLine
 10
218.2351886118742
 20
422.2930101025751
 30
0.0
 11
229.8630841310673
 21
422.2930101027028
 31
0.0
  0
LINE
  5
15E0
330
18
100
AcDbEntity
  8
4
  6
CENTER
100
AcDbLine
 10
221.3605886118743
 20
424.7930101025226
 30
0.0
 11
204.7004886118743
 21
424.7930101025226
 31
0.0
  0
LINE
  5
15E1
330
18
100
AcDbEntity
  8
1
  6
Continuous
100
AcDbLine
 10
215.6502521212232
 20
426.2930101027166
 30
0.0
 11
211.3201251025252
 21
426.2930101027166
 31
0.0
  0
LINE
  5
15E2
330
18
100
AcDbEntity
  8
1
  6
Continuous
100
AcDbLine
 10
216.8681110214095
 20
417.4930101025546
 30
0.0
 11
217.9851886118647
 21
417.4930101025651
 31
0.0
  0
LINE
  5
15E3
330
18
100
AcDbEntity
  8
1
  6
Continuous
100
AcDbLine
 10
216.7827230690732
 20
416.4930101025538
 30
0.0
 11
217.9851886118742
 21
416.4930101025653
 31
0.0
  0
LINE
  5
15E4
330
18
100
AcDbEntity
  8
1
  6
Continuous
100
AcDbLine
 10
216.6973351167366
 20
415.4930101025532
 30
0.0
 11
216.9851886118836
 21
415.4930101025558
 31
0.0
  0
LINE
  5
15E5
330
18
100
AcDbEntity
  8
1
  6
Continuous
100
AcDbLine
 10
216.9851886118836
 20
415.4930101025557
 30
0.0
 11
217.985188611874
 21
416.4930101025651
 31
0.0
  0
LINE
  5
15E6
330
18
100
AcDbEntity
  8
1
  6
Continuous
100
AcDbLine
 10
217.985188611874
 20
416.4930101025651
 30
0.0
 11
217.9851886118647
 21
417.4930101025651
 31
0.0
  0
LINE
  5
15E7
330
18
100
AcDbEntity
  8
1
  6
Continuous
100
AcDbLine
 10
208.9851886118742
 20
416.4930101024804
 30
0.0
 11
208.9851886118649
 21
417.4930101024804
 31
0.0
  0
LINE
  5
15E8
330
18
100
AcDbEntity
  8
1
  6
Continuous
100
AcDbLine
 10
209.9851886118835
 20
415.49301010249
 30
0.0
 11
208.9851886118742
 21
416.4930101024806
 31
0.0
  0
LINE
  5
15E9
330
18
100
AcDbEntity
  8
1
  6
Continuous
100
AcDbLine
 10
208.9851886118369
 20
419.9930101024733
 30
0.0
 11
208.9851886118303
 21
420.6930101025228
 31
0.0
  0
LINE
  5
15EA
330
18
100
AcDbEntity
  8
1
  6
Continuous
100
AcDbLine
 10
208.0692797707404
 20
419.9930101024633
 30
0.0
 11
208.0692797706999
 21
424.2930101024326
 31
0.0
  0
LINE
  5
15EB
330
18
100
AcDbEntity
  8
1
  6
Continuous
100
AcDbLine
 10
206.4851886123051
 20
417.6930101024476
 30
0.0
 11
206.4851886122732
 21
419.9930101024476
 31
0.0
  0
LINE
  5
15EC
330
18
100
AcDbEntity
  8
1
  6
Continuous
100
AcDbLine
 10
209.9851886118835
 20
415.49301010249
 30
0.0
 11
210.2729817039642
 21
415.4930101024928
 31
0.0
  0
LINE
  5
15ED
330
18
100
AcDbEntity
  8
1
  6
Continuous
100
AcDbLine
 10
208.9851886118744
 20
416.4930101024807
 30
0.0
 11
210.1876212075608
 21
416.493010102492
 31
0.0
  0
LINE
  5
15EE
330
18
100
AcDbEntity
  8
1
  6
Continuous
100
AcDbLine
 10
208.9851886118649
 20
417.4930101024804
 30
0.0
 11
210.1022607111576
 21
417.493010102491
 31
0.0
  0
ARC
  5
15EF
330
18
100
AcDbEntity
  8
1
  6
Continuous
100
AcDbCircle
 10
213.4851886118545
 20
418.1787243887483
 30
0.0
 40
4.814285713849382
100
AcDbArc
 50
69.66642312679377
 51
110.1959227287691
  0
LINE
  5
15F0
330
18
100
AcDbEntity
  8
1
  6
Continuous
100
AcDbLine
 10
218.2351886118742
 20
422.1930101025227
 30
0.0
 11
218.2351886118742
 21
420.6930101025228
 31
0.0
  0
LINE
  5
15F1
330
18
100
AcDbEntity
  8
1
  6
Continuous
100
AcDbLine
 10
217.7352886118742
 20
422.6930101025228
 30
0.0
 11
218.2352886118742
 21
422.1930101025227
 31
0.0
  0
LINE
  5
15F2
330
18
100
AcDbEntity
  8
1
  6
Continuous
100
AcDbLine
 10
210.0850886118741
 20
420.6930101025228
 30
0.0
 11
210.0850886118741
 21
419.9930101024855
 31
0.0
  0
LINE
  5
15F3
330
18
100
AcDbEntity
  8
1
  6
Continuous
100
AcDbLine
 10
212.4851886118742
 20
422.5430101025229
 30
0.0
 11
213.4851886118742
 21
422.5430101025229
 31
0.0
  0
ARC
  5
15F4
330
18
100
AcDbEntity
  8
1
  6
Continuous
100
AcDbCircle
 10
209.2351886118742
 20
421.1930101025227
 30
0.0
 40
0.5
100
AcDbArc
 50
180.0
 51
270.0
  0
ARC
  5
15F5
330
18
100
AcDbEntity
  8
1
  6
Continuous
100
AcDbCircle
 10
213.4851886118742
 20
425.0430101025227
 30
0.0
 40
2.5
100
AcDbArc
 50
270.0
 51
289.9479999999993
  0
LINE
  5
15F6
330
18
100
AcDbEntity
  8
1
  6
Continuous
100
AcDbLine
 10
216.8850886118743
 20
420.6930101025228
 30
0.0
 11
216.8850886118743
 21
419.9930101025601
 31
0.0
  0
LINE
  5
15F7
330
18
100
AcDbEntity
  8
1
  6
Continuous
100
AcDbLine
 10
208.7351886118742
 20
420.6930101025228
 30
0.0
 11
218.2351886118742
 21
420.6930101025228
 31
0.0
  0
LINE
  5
15F8
330
18
100
AcDbEntity
  8
1
  6
Continuous
100
AcDbLine
 10
218.2351886118742
 20
422.1930101025227
 30
0.0
 11
210.9851886118742
 21
422.1930101025227
 31
0.0
  0
LINE
  5
15F9
330
18
100
AcDbEntity
  8
1
  6
Continuous
100
AcDbLine
 10
217.7351886118742
 20
422.6930101025228
 30
0.0
 11
214.3381886118741
 21
422.6930101025228
 31
0.0
  0
LINE
  5
15FA
330
18
100
AcDbEntity
  8
1
  6
Continuous
100
AcDbLine
 10
215.7049886118743
 20
426.1930101025227
 30
0.0
 11
216.504988611874
 21
426.1930101025227
 31
0.0
  0
LINE
  5
15FB
330
18
100
AcDbEntity
  8
1
  6
Continuous
100
AcDbLine
 10
208.7351886118742
 20
425.0430101025227
 30
0.0
 11
208.7351886118742
 21
420.6930101025228
 31
0.0
  0
ARC
  5
15FC
330
18
100
AcDbEntity
  8
1
  6
Continuous
100
AcDbCircle
 10
212.4851886118742
 20
424.0430101025228
 30
0.0
 40
1.5
100
AcDbArc
 50
180.0
 51
270.0
  0
LINE
  5
15FD
330
18
100
AcDbEntity
  8
1
  6
Continuous
100
AcDbLine
 10
233.5535837465706
 20
421.7930101027223
 30
0.0
 11
233.5692797707304
 21
421.7930101027226
 31
0.0
  0
ARC
  5
15FE
330
18
100
AcDbEntity
  8
1
  6
Continuous
100
AcDbCircle
 10
233.8021034723517
 20
421.9930101025952
 30
0.0
 40
2.299999999999998
100
AcDbArc
 50
90.00000000054063
 51
121.2512226923566
  0
LINE
  5
15FF
330
18
100
AcDbEntity
  8
1
  6
Continuous
100
AcDbLine
 10
235.5692797707233
 20
421.7930101027478
 30
0.0
 11
235.5692797707215
 21
421.9930101026053
 31
0.0
  0
ARC
  5
1600
330
18
100
AcDbEntity
  8
1
  6
Continuous
100
AcDbCircle
 10
229.8630841310664
 20
422.2930101027026
 30
0.0
 40
2.299999999999998
100
AcDbArc
 50
270.0
 51
301.2512226923567
  0
LINE
  5
1601
330
18
100
AcDbEntity
  8
1
  6
Continuous
100
AcDbLine
 10
229.8630841310384
 20
422.2930101026853
 30
0.0
 11
232.6088830180551
 21
423.9592819422573
 31
0.0
  0
LINE
  5
1602
330
18
100
AcDbEntity
  8
1
  6
Continuous
100
AcDbLine
 10
231.0563045853628
 20
420.3267382630404
 30
0.0
 11
233.8021034723515
 21
421.9930101025953
 31
0.0
  0
LINE
  5
1603
330
18
100
AcDbEntity
  8
1
  6
Continuous
100
AcDbLine
 10
233.5692797707634
 20
417.5394468999361
 30
0.0
 11
233.5692797707233
 21
421.793010102726
 31
0.0
  0
LINE
  5
1604
330
18
100
AcDbEntity
  8
1
  6
Continuous
100
AcDbLine
 10
221.5692797707183
 20
422.3236584680327
 30
0.0
 11
221.5692797706997
 21
424.2930101025573
 31
0.0
  0
LINE
  5
1605
330
18
100
AcDbEntity
  8
1
  6
Continuous
100
AcDbLine
 10
220.4851886123094
 20
417.6930101025996
 30
0.0
 11
220.4851886122776
 21
419.9930101025996
 31
0.0
  0
LINE
  5
1606
330
18
100
AcDbEntity
  8
1
  6
Continuous
100
AcDbLine
 10
221.5692797707749
 20
416.2930101025944
 30
0.0
 11
221.5692797707404
 21
419.9930101026116
 31
0.0
  0
LINE
  5
1607
330
18
100
AcDbEntity
  8
1
  6
Continuous
100
AcDbLine
 10
221.5692797707704
 20
416.7930101026132
 30
0.0
 11
232.1614955961734
 21
416.7930101027093
 31
0.0
  0
LINE
  5
1608
330
18
100
AcDbEntity
  8
1
  6
Continuous
100
AcDbLine
 10
221.5692797707747
 20
416.2930101025944
 30
0.0
 11
231.2184926655395
 21
416.2930101027003
 31
0.0
  0
ARC
  5
1609
330
18
100
AcDbEntity
  8
1
  6
Continuous
100
AcDbCircle
 10
264.1762905242826
 20
425.9538614745451
 30
0.0
 40
1.3
100
AcDbArc
 50
5.000000000000466
 51
74.1191499917221
  0
ARC
  5
160A
330
18
100
AcDbEntity
  8
1
  6
Continuous
100
AcDbCircle
 10
259.9622690171136
 20
425.9538614745591
 30
0.0
 40
1.3
100
AcDbArc
 50
105.8808500082778
 51
174.9999999999999
  0
LINE
  5
160B
330
18
100
AcDbEntity
  8
4
  6
CENTER
100
AcDbLine
 10
238.5692797708329
 20
420.1629446261661
 30
0.0
 11
238.5692797707504
 21
428.9531111848041
 31
0.0
  0
ARC
  5
160C
330
18
100
AcDbEntity
  8
1
  6
Continuous
100
AcDbCircle
 10
262.0692797706997
 20
418.5477487503363
 30
0.0
 40
9.0
100
AcDbArc
 50
74.1191499917221
 51
105.8808500082778
  0
LINE
  5
160D
330
18
100
AcDbEntity
  8
1
  6
Continuous
100
AcDbLine
 10
251.0692797703113
 20
418.7930101029182
 30
0.0
 11
264.0681034222463
 21
418.7930101030608
 31
0.0
  0
LINE
  5
160E
330
18
100
AcDbEntity
  8
1
  6
Continuous
100
AcDbLine
 10
244.5692797707215
 20
421.9930101026578
 30
0.0
 11
244.5692797706999
 21
424.2930101026731
 31
0.0
  0
LINE
  5
160F
330
18
100
AcDbEntity
  8
1
  6
Continuous
100
AcDbLine
 10
245.5692797707393
 20
420.0930101028578
 30
0.0
 11
245.5692797706999
 21
424.2930101027832
 31
0.0
  0
LINE
  5
1610
330
18
100
AcDbEntity
  8
1
  6
Continuous
100
AcDbLine
 10
246.0692797707392
 20
420.0930101028633
 30
0.0
 11
246.0692797706999
 21
424.2930101027878
 31
0.0
  0
LINE
  5
1611
330
18
100
AcDbEntity
  8
1
  6
Continuous
100
AcDbLine
 10
243.5692797707392
 20
420.0930101028356
 30
0.0
 11
243.5692797707233
 21
421.7930101028358
 31
0.0
  0
LINE
  5
1612
330
18
100
AcDbEntity
  8
1
  6
Continuous
100
AcDbLine
 10
241.5692797707233
 20
421.7930101028043
 30
0.0
 11
241.5692797707215
 21
421.9930101026402
 31
0.0
  0
LINE
  5
1613
330
18
100
AcDbEntity
  8
1
  6
Continuous
100
AcDbLine
 10
243.4682592563731
 20
420.0930101028347
 30
0.0
 11
246.1703002848978
 21
420.0930101028642
 31
0.0
  0
LINE
  5
1614
330
18
100
AcDbEntity
  8
1
  6
Continuous
100
AcDbLine
 10
260.0692797706003
 20
418.7930101029793
 30
0.0
 11
260.0692797706003
 21
419.6150324321818
 31
0.0
  0
LINE
  5
1615
330
18
100
AcDbEntity
  8
2
  6
Continuous
100
AcDbLine
 10
260.4482797706002
 20
418.7930101029801
 30
0.0
 11
260.4482797706002
 21
419.6913640909895
 31
0.0
  0
LINE
  5
1616
330
18
100
AcDbEntity
  8
1
  6
Continuous
100
AcDbLine
 10
264.0692797706003
 20
418.7930101029856
 30
0.0
 11
264.0692797706003
 21
420.4206436069323
 31
0.0
  0
LINE
  5
1617
330
18
100
AcDbEntity
  8
2
  6
Continuous
100
AcDbLine
 10
263.6902797706004
 20
418.7930101029848
 30
0.0
 11
263.6902797706004
 21
420.3443119481248
 31
0.0
  0
LINE
  5
1618
330
18
100
AcDbEntity
  8
2
  6
Continuous
100
AcDbLine
 10
263.6902797706004
 20
422.3844718294138
 30
0.0
 11
263.6902797706004
 21
423.1477487503362
 31
0.0
  0
LINE
  5
1619
330
18
100
AcDbEntity
  8
1
  6
Continuous
100
AcDbLine
 10
264.0692797706003
 20
422.4608034882215
 30
0.0
 11
264.0692797706003
 21
423.1477487503362
 31
0.0
  0
LINE
  5
161A
330
18
100
AcDbEntity
  8
2
  6
Continuous
100
AcDbLine
 10
260.4482797706
 20
421.7315239722783
 30
0.0
 11
260.4482797706002
 21
423.1477487503362
 31
0.0
  0
LINE
  5
161B
330
18
100
AcDbEntity
  8
1
  6
Continuous
100
AcDbLine
 10
260.0692797706003
 20
421.6551923134708
 30
0.0
 11
260.0692797706003
 21
423.1477487503362
 31
0.0
  0
LINE
  5
161C
330
18
100
AcDbEntity
  8
1
  6
Continuous
100
AcDbLine
 10
261.2301801395215
 20
424.9477487503366
 30
0.0
 11
262.0692797706988
 21
423.9477487503362
 31
0.0
  0
LINE
  5
161D
330
18
100
AcDbEntity
  8
1
  6
Continuous
100
AcDbLine
 10
265.5692797706997
 20
424.9477487503363
 30
0.0
 11
265.4713436318134
 21
426.0671639401373
 31
0.0
  0
LINE
  5
161E
330
18
100
AcDbEntity
  8
1
  6
Continuous
100
AcDbLine
 10
265.8692797706996
 20
424.9477487503363
 30
0.0
 11
265.8692797706996
 21
423.9477487503362
 31
0.0
  0
LINE
  5
161F
330
18
100
AcDbEntity
  8
1
  6
Continuous
100
AcDbLine
 10
262.0692797706988
 20
424.9477487503363
 30
0.0
 11
262.9083794018761
 21
423.9477487503362
 31
0.0
  0
LINE
  5
1620
330
18
100
AcDbEntity
  8
1
  6
Continuous
100
AcDbLine
 10
267.0692797706988
 20
423.9477487503362
 30
0.0
 11
267.0692797706999
 21
423.1477487503362
 31
0.0
  0
ARC
  5
1621
330
18
100
AcDbEntity
  8
1
  6
Continuous
100
AcDbCircle
 10
264.0681034222684
 20
416.7930101030608
 30
0.0
 40
2.0
100
AcDbArc
 50
0.000000000539029
 51
90.00000000054063
  0
LINE
  5
1622
330
18
100
AcDbEntity
  8
1
  6
Continuous
100
AcDbLine
 10
257.0692797707943
 20
424.2930101028908
 30
0.0
 11
257.0692797707752
 21
426.2930101027402
 31
0.0
  0
LINE
  5
1623
330
18
100
AcDbEntity
  8
1
  6
Continuous
100
AcDbLine
 10
258.5692797706997
 20
424.9477487503362
 30
0.0
 11
258.6672159095889
 21
426.0671639401706
 31
0.0
  0
LINE
  5
1624
330
18
100
AcDbEntity
  8
1
  6
Continuous
100
AcDbLine
 10
258.2692797706995
 20
424.9477487503363
 30
0.0
 11
258.2692797706995
 21
423.9477487503362
 31
0.0
  0
LINE
  5
1625
330
18
100
AcDbEntity
  8
1
  6
Continuous
100
AcDbLine
 10
257.0692797706988
 20
423.9477487503362
 30
0.0
 11
257.0692797706999
 21
423.1477487503362
 31
0.0
  0
LINE
  5
1626
330
18
100
AcDbEntity
  8
1
  6
Continuous
100
AcDbLine
 10
256.4779811434423
 20
418.8917348557057
 30
0.0
 11
256.0831046525586
 21
420.8523655085675
 31
0.0
  0
LINE
  5
1627
330
18
100
AcDbEntity
  8
1
  6
Continuous
100
AcDbLine
 10
256.0831046525659
 20
420.8523655085704
 30
0.0
 11
266.8665732433219
 21
423.0241862083918
 31
0.0
  0
LINE
  5
1628
330
18
100
AcDbEntity
  8
1
  6
Continuous
100
AcDbLine
 10
256.4779811434423
 20
418.8917348557056
 30
0.0
 11
267.2614497341986
 21
421.063555555527
 31
0.0
  0
LINE
  5
1629
330
18
100
AcDbEntity
  8
1
  6
Continuous
100
AcDbLine
 10
267.0692797706988
 20
423.9477487503362
 30
0.0
 11
257.0692797706988
 21
423.9477487503362
 31
0.0
  0
LINE
  5
162A
330
18
100
AcDbEntity
  8
1
  6
Continuous
100
AcDbLine
 10
265.8692797706996
 20
424.9477487503363
 30
0.0
 11
258.2692797706995
 21
424.9477487503363
 31
0.0
  0
LINE
  5
162B
330
18
100
AcDbEntity
  8
1
  6
Continuous
100
AcDbLine
 10
267.0692797706988
 20
423.1477487503362
 30
0.0
 11
257.0692797706988
 21
423.1477487503362
 31
0.0
  0
LINE
  5
162C
330
18
100
AcDbEntity
  8
1
  6
Continuous
100
AcDbLine
 10
196.5692797707956
 20
414.0930101023198
 30
0.0
 11
210.3924863989305
 21
414.0930101024716
 31
0.0
  0
LINE
  5
162F
330
18
100
AcDbEntity
  8
1
  6
Continuous
100
AcDbLine
 10
172.5692797707938
 20
409.2930101027168
 30
0.0
 11
174.5692797707938
 21
409.2930101027168
 31
0.0
  0
LINE
  5
1630
330
18
100
AcDbEntity
  8
1
  6
Continuous
100
AcDbLine
 10
161.5692797706494
 20
414.293010102757
 30
0.0
 11
172.569279770794
 21
414.2930101027558
 31
0.0
  0
LINE
  5
1631
330
18
100
AcDbEntity
  8
1
  6
Continuous
100
AcDbLine
 10
176.569279770794
 20
414.2930101027554
 30
0.0
 11
196.5692797706997
 21
414.2930101027531
 31
0.0
  0
LINE
  5
1632
330
18
100
AcDbEntity
  8
1
  6
Continuous
100
AcDbLine
 10
175.5692797707938
 20
412.6930101027168
 30
0.0
 11
176.5692797707938
 21
412.6930101027168
 31
0.0
  0
ARC
  5
1633
330
18
100
AcDbEntity
  8
1
  6
Continuous
100
AcDbCircle
 10
175.5692797707938
 20
411.6930101027167
 30
0.0
 40
1.0
100
AcDbArc
 50
90.00000000000005
 51
180.0
  0
LINE
  5
1634
330
18
100
AcDbEntity
  8
1
  6
Continuous
100
AcDbLine
 10
189.5692797709732
 20
395.2239985378272
 30
0.0
 11
189.5692797709349
 21
399.293010102243
 31
0.0
  0
ARC
  5
1635
330
18
100
AcDbEntity
  8
1
  6
Continuous
100
AcDbCircle
 10
190.5692797709732
 20
395.2239985378365
 30
0.0
 40
1.0
100
AcDbArc
 50
180.000000000539
 51
265.9528146102247
  0
LINE
  5
1636
330
18
100
AcDbEntity
  8
5
  6
PHANTOM
100
AcDbLine
 10
222.0325735887868
 20
390.5050124913904
 30
0.0
 11
223.3177144224978
 21
392.8452769891231
 31
0.0
  0
LINE
  5
1637
330
18
100
AcDbEntity
  8
5
  6
PHANTOM
100
AcDbLine
 10
223.7856391222471
 20
389.5423281010559
 30
0.0
 11
225.5850961229375
 21
392.819171559335
 31
0.0
  0
LINE
  5
1638
330
18
100
AcDbEntity
  8
5
  6
PHANTOM
100
AcDbLine
 10
215.399569014897
 20
393.0066245992069
 30
0.0
 11
220.6746986268897
 21
390.1098219198274
 31
0.0
  0
ARC
  5
1639
330
18
100
AcDbEntity
  8
5
  6
PHANTOM
100
AcDbCircle
 10
501.3790024615786
 20
887.7734850650931
 30
0.0
 40
574.8333333584017
100
AcDbArc
 50
239.3506295714928
 51
241.8540188684304
  0
LINE
  5
163A
330
18
100
AcDbEntity
  8
1
  6
Continuous
100
AcDbLine
 10
216.5777919834645
 20
414.0930101025395
 30
0.0
 11
249.0692797707692
 21
414.0930101028962
 31
0.0
  0
LINE
  5
163B
330
18
100
AcDbEntity
  8
4
  6
CENTER
100
AcDbLine
 10
210.5692797709725
 20
395.2930101024516
 30
0.0
 11
210.569279770869
 21
406.2930101024516
 31
0.0
  0
ARC
  5
163C
330
18
100
AcDbEntity
  8
1
  6
Continuous
100
AcDbCircle
 10
210.8942886118743
 20
414.0934101025227
 30
0.0
 40
0.5
100
AcDbArc
 50
184.8790000000026
 51
270.0
  0
ARC
  5
163D
330
18
100
AcDbEntity
  8
1
  6
Continuous
100
AcDbCircle
 10
216.0759886118742
 20
414.0934101025227
 30
0.0
 40
0.5
100
AcDbArc
 50
270.0
 51
355.1209999999973
  0
LINE
  5
163E
330
18
100
AcDbEntity
  8
1
  6
Continuous
100
AcDbLine
 10
216.0759886118744
 20
413.5934101025227
 30
0.0
 11
210.8942886118743
 21
413.5934101025227
 31
0.0
  0
ARC
  5
163F
330
18
100
AcDbEntity
  8
1
  6
Continuous
100
AcDbCircle
 10
210.5692797709209
 20
400.7930101024514
 30
0.0
 40
2.5
100
AcDbArc
 50
323.1301023554117
 51
216.8698976458457
  0
ARC
  5
1640
330
18
100
AcDbEntity
  8
1
  6
Continuous
100
AcDbCircle
 10
210.5692797709184
 20
400.7930101024514
 30
0.0
 40
2.549999999999998
100
AcDbArc
 50
323.968120928766
 51
216.03187907249
  0
LINE
  5
1641
330
18
100
AcDbEntity
  8
4
  6
CENTER
100
AcDbLine
 10
216.0692797709209
 20
400.7930101025032
 30
0.0
 11
205.0692797709209
 21
400.7930101023998
 31
0.0
  0
ARC
  5
1642
330
18
100
AcDbEntity
  8
5
  6
PHANTOM
100
AcDbCircle
 10
230.2976332855851
 20
385.9663092257354
 30
0.0
 40
1.0
100
AcDbArc
 50
241.2269000005417
 51
287.5432959402563
  0
ARC
  5
1643
330
18
100
AcDbEntity
  8
5
  6
PHANTOM
100
AcDbCircle
 10
231.2720998814729
 20
382.8838200062993
 30
0.0
 40
2.232850898888139
100
AcDbArc
 50
241.8540185129738
 51
107.5432959402625
  0
ARC
  5
1644
330
18
100
AcDbEntity
  8
5
  6
PHANTOM
100
AcDbCircle
 10
224.6621718889773
 20
389.0609859058887
 30
0.0
 40
1.0
100
AcDbArc
 50
151.2269003597761
 51
241.226900359778
  0
ARC
  5
1645
330
18
100
AcDbEntity
  8
5
  6
PHANTOM
100
AcDbCircle
 10
221.1560408220566
 20
390.9863546865574
 30
0.0
 40
1.0
100
AcDbArc
 50
241.2269003597781
 51
331.2269003597765
  0
LINE
  5
1646
330
18
100
AcDbEntity
  8
5
  6
PHANTOM
100
AcDbLine
 10
224.1808296938102
 20
388.1844531391587
 30
0.0
 11
229.8162911641434
 21
385.0897765932613
 31
0.0
  0
LINE
  5
1647
330
18
100
AcDbEntity
  8
1
  6
Continuous
100
AcDbLine
 10
269.2220803870634
 20
421.4584320464036
 30
0.0
 11
272.6772496822336
 21
404.3029138338368
 31
0.0
  0
LINE
  5
1649
330
18
100
AcDbEntity
  8
1
  6
Continuous
100
AcDbLine
 10
273.07212617311
 20
402.3422831809721
 30
0.0
 11
280.4244911213531
 21
403.8230700217593
 31
0.0
  0
ARC
  5
164A
330
18
100
AcDbEntity
  8
1
  6
Continuous
100
AcDbCircle
 10
272.6772496822334
 20
404.3029138338368
 30
0.0
 40
2.0
100
AcDbArc
 50
191.3871944284389
 51
281.3871944284407
  0
LINE
  5
164B
330
18
100
AcDbEntity
  8
1
  6
Continuous
100
AcDbLine
 10
280.4244911213526
 20
403.8230700217593
 30
0.0
 11
280.0296146304761
 21
405.7837006746241
 31
0.0
  0
LINE
  5
164C
330
18
100
AcDbEntity
  8
1
  6
Continuous
100
AcDbLine
 10
272.6772496822336
 20
404.3029138338368
 30
0.0
 11
280.0296146304763
 21
405.7837006746241
 31
0.0
  0
LINE
  5
164D
330
18
100
AcDbEntity
  8
1
  6
Continuous
100
AcDbLine
 10
272.5692797709734
 20
395.2239985386082
 30
0.0
 11
272.5692797709352
 21
399.2930101031543
 31
0.0
  0
ARC
  5
164E
330
18
100
AcDbEntity
  8
1
  6
Continuous
100
AcDbCircle
 10
271.5692797709734
 20
395.2239985385988
 30
0.0
 40
1.0
100
AcDbArc
 50
274.0471853908527
 51
0.000000000539029
  0
LINE
  5
17C8
330
18
100
AcDbEntity
  8
1
  6
Continuous
100
AcDbLine
 10
386.5885439595473
 20
259.8653766521263
 30
0.0
 11
386.5885439595473
 21
269.8653766521263
 31
0.0
  0
LINE
  5
17C9
330
18
100
AcDbEntity
  8
1
  6
Continuous
100
AcDbLine
 10
388.3885439595474
 20
261.0653766521255
 30
0.0
 11
388.3885439595474
 21
268.6653766521256
 31
0.0
  0
LINE
  5
17CA
330
18
100
AcDbEntity
  8
1
  6
Continuous
100
AcDbLine
 10
387.3885439595473
 20
259.8653766521263
 30
0.0
 11
387.3885439595473
 21
269.8653766521263
 31
0.0
  0
ARC
  5
17CB
330
18
100
AcDbEntity
  8
1
  6
Continuous
100
AcDbCircle
 10
389.3946566837698
 20
266.9723874057115
 30
0.0
 40
1.3
100
AcDbArc
 50
15.88085000827787
 51
84.99999999999998
  0
LINE
  5
1843
330
18
100
AcDbEntity
  8
1
  6
Continuous
100
AcDbLine
 10
387.3885439595473
 20
269.8653766521263
 30
0.0
 11
386.5885439595473
 21
269.8653766521252
 31
0.0
  0
LINE
  5
1844
330
18
100
AcDbEntity
  8
1
  6
Continuous
100
AcDbLine
 10
388.3885439595474
 20
268.6653766521256
 30
0.0
 11
387.3885439595473
 21
268.6653766521256
 31
0.0
  0
LINE
  5
1845
330
18
100
AcDbEntity
  8
1
  6
Continuous
100
AcDbLine
 10
388.3885439595474
 20
268.3653766521254
 30
0.0
 11
389.5079591493818
 21
268.267440513236
 31
0.0
  0
LINE
  5
1851
330
18
100
AcDbEntity
  8
1
  6
Continuous
100
AcDbLine
 10
386.5043507647381
 20
266.8653766522248
 30
0.0
 11
386.5885439595473
 21
266.8653766522248
 31
0.0
  0
LINE
  5
1852
330
18
100
AcDbEntity
  8
2
  6
Continuous
100
AcDbLine
 10
386.5043507647378
 20
266.4863766522249
 30
0.0
 11
386.5885439595473
 21
266.4863766522249
 31
0.0
  0
LINE
  5
1859
330
18
100
AcDbEntity
  8
1
  6
Continuous
100
AcDbLine
 10
387.3885439595473
 20
259.8653766521263
 30
0.0
 11
386.5885439595473
 21
259.8653766521252
 31
0.0
  0
LINE
  5
185A
330
18
100
AcDbEntity
  8
1
  6
Continuous
100
AcDbLine
 10
388.3885439595474
 20
264.8653766521263
 30
0.0
 11
387.3885439595473
 21
264.026277020949
 31
0.0
  0
LINE
  5
185B
330
18
100
AcDbEntity
  8
1
  6
Continuous
100
AcDbLine
 10
388.3885439595474
 20
261.0653766521255
 30
0.0
 11
387.3885439595473
 21
261.0653766521255
 31
0.0
  0
LINE
  5
185C
330
18
100
AcDbEntity
  8
1
  6
Continuous
100
AcDbLine
 10
388.3885439595474
 20
261.3653766521254
 30
0.0
 11
389.5079591493484
 21
261.4633127910118
 31
0.0
  0
LINE
  5
185D
330
18
100
AcDbEntity
  8
1
  6
Continuous
100
AcDbLine
 10
388.3885439595476
 20
265.7044762833036
 30
0.0
 11
387.3885439595473
 21
264.8653766521263
 31
0.0
  0
LINE
  5
185E
330
18
100
AcDbEntity
  8
1
  6
Continuous
100
AcDbLine
 10
386.5043507647381
 20
262.8653766522248
 30
0.0
 11
386.5885439595473
 21
262.8653766522248
 31
0.0
  0
LINE
  5
185F
330
18
100
AcDbEntity
  8
2
  6
Continuous
100
AcDbLine
 10
386.5043507647381
 20
263.2443766522247
 30
0.0
 11
386.5885439595473
 21
263.2443766522247
 31
0.0
  0
ARC
  5
1860
330
18
100
AcDbEntity
  8
1
  6
Continuous
100
AcDbCircle
 10
381.9885439595474
 20
264.8653766521254
 30
0.0
 40
9.0
100
AcDbArc
 50
344.119149991722
 51
15.88085000827787
  0
ARC
  5
1861
330
18
100
AcDbEntity
  8
1
  6
Continuous
100
AcDbCircle
 10
389.3946566837562
 20
262.7583658985425
 30
0.0
 40
1.3
100
AcDbArc
 50
275.0000000000004
 51
344.119149991722
  0
LINE
  5
18D8
330
18
100
AcDbEntity
  8
1
  6
Continuous
100
AcDbLine
 10
387.7338053117922
 20
284.8653766516767
 30
0.0
 11
387.7338053118485
 21
268.6653766521256
 31
0.0
  0
LINE
  5
18DA
330
18
100
AcDbEntity
  8
1
  6
Continuous
100
AcDbLine
 10
369.2244958838352
 20
279.8653766524884
 30
0.0
 11
369.2244958838352
 21
199.8653766524884
 31
0.0
  0
LINE
  5
18DB
330
18
100
AcDbEntity
  8
1
  6
Continuous
100
AcDbLine
 10
367.2638652309704
 20
279.8653766524884
 30
0.0
 11
367.2638652309704
 21
199.8653766524884
 31
0.0
  0
LINE
  5
18DC
330
18
100
AcDbEntity
  8
1
  6
Continuous
100
AcDbLine
 10
365.7437090430478
 20
279.8653766524884
 30
0.0
 11
365.7437090430478
 21
199.8653766524884
 31
0.0
  0
LINE
  5
18DD
330
18
100
AcDbEntity
  8
1
  6
Continuous
100
AcDbLine
 10
386.5043507647381
 20
279.8653766524884
 30
0.0
 11
386.5043507647381
 21
199.8653766524884
 31
0.0
  0
LINE
  5
18DE
330
18
100
AcDbEntity
  8
1
  6
Continuous
100
AcDbLine
 10
386.5043507647381
 20
279.8653766524884
 30
0.0
 11
365.7437090430478
 21
279.8653766524884
 31
0.0
  0
LINE
  5
18DF
330
18
100
AcDbEntity
  8
1
  6
Continuous
100
AcDbLine
 10
365.7437090430478
 20
199.8653766524884
 30
0.0
 11
386.5043507647381
 21
199.8653766524884
 31
0.0
  0
LINE
  5
18E0
330
18
100
AcDbEntity
  8
1
  6
Continuous
100
AcDbLine
 10
383.4338053117724
 20
194.8653766521239
 30
0.0
 11
389.733805311555
 21
194.8653766521399
 31
0.0
  0
LINE
  5
18E2
330
18
100
AcDbEntity
  8
4
  6
CENTER
100
AcDbLine
 10
381.5646420909354
 20
264.8653766521263
 30
0.0
 11
393.5646420909354
 21
264.8653766521263
 31
0.0
  0
LINE
  5
18E4
330
18
100
AcDbEntity
  8
1
  6
Continuous
100
AcDbLine
 10
389.7338053117291
 20
261.5033845408546
 30
0.0
 11
389.7338053117291
 21
218.2273687634031
 31
0.0
  0
LINE
  5
18E5
330
18
100
AcDbEntity
  8
1
  6
Continuous
100
AcDbLine
 10
387.7338053118752
 20
261.0653766521255
 30
0.0
 11
387.7338053120229
 21
218.6653766521256
 31
0.0
  0
LINE
  5
18E6
330
18
100
AcDbEntity
  8
1
  6
Continuous
100
AcDbLine
 10
387.3885439595473
 20
209.8653766521263
 30
0.0
 11
387.3885439595473
 21
219.8653766521263
 31
0.0
  0
LINE
  5
18E7
330
18
100
AcDbEntity
  8
1
  6
Continuous
100
AcDbLine
 10
386.5885439595473
 20
209.8653766521263
 30
0.0
 11
386.5885439595473
 21
219.8653766521263
 31
0.0
  0
LINE
  5
18E8
330
18
100
AcDbEntity
  8
1
  6
Continuous
100
AcDbLine
 10
387.3885439595473
 20
209.8653766521263
 30
0.0
 11
386.5885439595473
 21
209.8653766521251
 31
0.0
  0
LINE
  5
18E9
330
18
100
AcDbEntity
  8
1
  6
Continuous
100
AcDbLine
 10
386.5043507647381
 20
212.8653766522247
 30
0.0
 11
386.5885439595473
 21
212.8653766522247
 31
0.0
  0
LINE
  5
18EA
330
18
100
AcDbEntity
  8
2
  6
Continuous
100
AcDbLine
 10
386.5043507647381
 20
213.2443766522246
 30
0.0
 11
386.5885439595473
 21
213.2443766522246
 31
0.0
  0
LINE
  5
18EB
330
18
100
AcDbEntity
  8
2
  6
Continuous
100
AcDbLine
 10
386.5043507647378
 20
216.4863766522248
 30
0.0
 11
386.5885439595473
 21
216.4863766522248
 31
0.0
  0
LINE
  5
18EC
330
18
100
AcDbEntity
  8
1
  6
Continuous
100
AcDbLine
 10
386.5043507647381
 20
216.8653766522247
 30
0.0
 11
386.5885439595473
 21
216.8653766522247
 31
0.0
  0
LINE
  5
18ED
330
18
100
AcDbEntity
  8
1
  6
Continuous
100
AcDbLine
 10
388.3885439595474
 20
211.0653766521255
 30
0.0
 11
387.3885439595473
 21
211.0653766521255
 31
0.0
  0
LINE
  5
18EE
330
18
100
AcDbEntity
  8
1
  6
Continuous
100
AcDbLine
 10
388.3885439595474
 20
211.3653766521254
 30
0.0
 11
389.5079591493484
 21
211.4633127910117
 31
0.0
  0
ARC
  5
18EF
330
18
100
AcDbEntity
  8
1
  6
Continuous
100
AcDbCircle
 10
389.3946566837562
 20
212.7583658985424
 30
0.0
 40
1.3
100
AcDbArc
 50
275.0000000000004
 51
344.119149991722
  0
LINE
  5
18F0
330
18
100
AcDbEntity
  8
1
  6
Continuous
100
AcDbLine
 10
388.3885439595474
 20
214.8653766521263
 30
0.0
 11
387.3885439595473
 21
214.026277020949
 31
0.0
  0
LINE
  5
18F1
330
18
100
AcDbEntity
  8
1
  6
Continuous
100
AcDbLine
 10
388.3885439595476
 20
215.7044762833036
 30
0.0
 11
387.3885439595473
 21
214.8653766521263
 31
0.0
  0
LINE
  5
18F2
330
18
100
AcDbEntity
  8
1
  6
Continuous
100
AcDbLine
 10
387.3885439595473
 20
219.8653766521263
 30
0.0
 11
386.5885439595473
 21
219.8653766521251
 31
0.0
  0
ARC
  5
18F3
330
18
100
AcDbEntity
  8
1
  6
Continuous
100
AcDbCircle
 10
381.9885439595474
 20
214.8653766521254
 30
0.0
 40
9.0
100
AcDbArc
 50
344.119149991722
 51
15.88085000827787
  0
LINE
  5
18F4
330
18
100
AcDbEntity
  8
1
  6
Continuous
100
AcDbLine
 10
388.3885439595474
 20
218.6653766521256
 30
0.0
 11
387.3885439595473
 21
218.6653766521256
 31
0.0
  0
LINE
  5
18F5
330
18
100
AcDbEntity
  8
1
  6
Continuous
100
AcDbLine
 10
388.3885439595474
 20
218.3653766521254
 30
0.0
 11
389.5079591493818
 21
218.2674405132361
 31
0.0
  0
ARC
  5
18F6
330
18
100
AcDbEntity
  8
1
  6
Continuous
100
AcDbCircle
 10
389.3946566837698
 20
216.9723874057115
 30
0.0
 40
1.3
100
AcDbArc
 50
15.88085000827787
 51
84.99999999999998
  0
LINE
  5
18F7
330
18
100
AcDbEntity
  8
1
  6
Continuous
100
AcDbLine
 10
388.3885439595474
 20
211.0653766521255
 30
0.0
 11
388.3885439595474
 21
218.6653766521256
 31
0.0
  0
LINE
  5
18F8
330
18
100
AcDbEntity
  8
4
  6
CENTER
100
AcDbLine
 10
381.5646420909354
 20
214.8653766521263
 30
0.0
 11
393.5646420909354
 21
214.8653766521263
 31
0.0
  0
LINE
  5
18F9
330
18
100
AcDbEntity
  8
1
  6
Continuous
100
AcDbLine
 10
387.7338053120494
 20
211.0653766521255
 30
0.0
 11
387.7338053121059
 21
194.8653766521348
 31
0.0
  0
LINE
  5
18FA
330
18
100
AcDbEntity
  8
1
  6
Continuous
100
AcDbLine
 10
389.7338053117291
 20
211.5033845408546
 30
0.0
 11
389.7338053117291
 21
194.8653766521399
 31
0.0
  0
LINE
  5
18FB
330
18
100
AcDbEntity
  8
1
  6
Continuous
100
AcDbLine
 10
387.7338053119053
 20
252.3653766521077
 30
0.0
 11
386.5043507647381
 21
252.3653766521077
 31
0.0
  0
LINE
  5
18FC
330
18
100
AcDbEntity
  8
1
  6
Continuous
100
AcDbLine
 10
387.7338053118269
 20
274.8653766521075
 30
0.0
 11
386.5043507647381
 21
274.8653766521075
 31
0.0
  0
LINE
  5
18FD
330
18
100
AcDbEntity
  8
1
  6
Continuous
100
AcDbLine
 10
387.7338053118269
 20
224.8653766521076
 30
0.0
 11
386.5043507647381
 21
224.8653766521076
 31
0.0
  0
LINE
  5
18FE
330
18
100
AcDbEntity
  8
1
  6
Continuous
100
AcDbLine
 10
387.7338053119053
 20
202.3653766521076
 30
0.0
 11
386.5043507647381
 21
202.3653766521076
 31
0.0
  0
LINE
  5
1908
330
18
100
AcDbEntity
  8
1
  6
Continuous
100
AcDbLine
 10
509.3436619223543
 20
230.2653766521263
 30
0.0
 11
510.8436619223551
 21
230.2653766521266
 31
0.0
  0
ARC
  5
1909
330
18
100
AcDbEntity
  8
1
  6
Continuous
100
AcDbCircle
 10
509.3436619223543
 20
231.2653766521263
 30
0.0
 40
1.0
100
AcDbArc
 50
180.0
 51
270.0
  0
LINE
  5
190A
330
18
100
AcDbEntity
  8
1
  6
Continuous
100
AcDbLine
 10
509.3436619223543
 20
249.4653766521263
 30
0.0
 11
510.8436619223551
 21
249.4653766521273
 31
0.0
  0
ARC
  5
190B
330
18
100
AcDbEntity
  8
1
  6
Continuous
100
AcDbCircle
 10
509.3436619223543
 20
248.4653766521263
 30
0.0
 40
1.0
100
AcDbArc
 50
90.0
 51
180.0
  0
LINE
  5
190C
330
18
100
AcDbEntity
  8
1
  6
Continuous
100
AcDbLine
 10
508.3436619223543
 20
231.2653766521263
 30
0.0
 11
508.343661922354
 21
248.4653766521263
 31
0.0
  0
LINE
  5
190E
330
18
100
AcDbEntity
  8
1
  6
Continuous
100
AcDbLine
 10
506.8436619223536
 20
250.9653766521247
 30
0.0
 11
510.8436619223551
 21
250.9653766521273
 31
0.0
  0
LINE
  5
190F
330
18
100
AcDbEntity
  8
1
  6
Continuous
100
AcDbLine
 10
506.8436619223542
 20
228.7653766521259
 30
0.0
 11
506.8436619223536
 21
250.9653766521247
 31
0.0
  0
LINE
  5
1910
330
18
100
AcDbEntity
  8
1
  6
Continuous
100
AcDbLine
 10
506.8436619223542
 20
228.7653766521259
 30
0.0
 11
510.8436619223551
 21
228.7653766521266
 31
0.0
  0
LINE
  5
1911
330
18
100
AcDbEntity
  8
1
  6
Continuous
100
AcDbLine
 10
387.7338053119156
 20
249.4653766521273
 30
0.0
 11
386.5043507647381
 21
249.4653766521273
 31
0.0
  0
LINE
  5
1912
330
18
100
AcDbEntity
  8
1
  6
Continuous
100
AcDbLine
 10
386.5043507647381
 20
230.2653766521266
 30
0.0
 11
387.7338053119824
 21
230.2653766521266
 31
0.0
  0
LINE
  5
1DE5
330
18
100
AcDbEntity
  8
1
  6
Continuous
100
AcDbLine
 10
383.4338053118534
 20
284.8653766516823
 30
0.0
 11
389.733805311555
 21
284.8653766516741
 31
0.0
  0
ENDSEC
  0
SECTION
  2
OBJECTS
  0
DICTIONARY
  5
C
330
0
100
AcDbDictionary
281
     1
  3
ACAD_CIP_PREVIOUS_PRODUCT_INFO
350
1EC1
  3
ACAD_COLOR
350
1EA4
  3
ACAD_DETAILVIEWSTYLE
350
1EBD
  3
ACAD_GROUP
350
D
  3
ACAD_LAYOUT
350
94
  3
ACAD_MATERIAL
350
1E72
  3
ACAD_MLEADERSTYLE
350
1EB9
  3
ACAD_MLINESTYLE
350
1B
  3
ACAD_PLOTSETTINGS
350
95
  3
ACAD_PLOTSTYLENAME
350
1E70
  3
ACAD_SCALELIST
350
1EA7
  3
ACAD_SECTIONVIEWSTYLE
350
1EBB
  3
ACAD_TABLESTYLE
350
1EA5
  3
ACAD_VISUALSTYLE
350
1E8B
  3
ACDB_RECOMPOSE_DATA
350
1EDF
  3
AcDbVariableDictionary
350
1ED2
  3
CONTENTDICTIONARY
350
3D
  3
DWGPROPS
350
1EE0
  0
DICTIONARY
  5
1EC2
330
E
100
AcDbDictionary
280
     1
281
     1
  3
ADSK_XREC_LAYER_RECONCILED
360
1EC3
  0
DICTIONARY
  5
1EC4
330
4E
100
AcDbDictionary
280
     1
281
     1
  3
ADSK_XREC_LAYER_RECONCILED
360
1EC5
  0
DICTIONARY
  5
1EC6
330
4F
100
AcDbDictionary
280
     1
281
     1
  3
ADSK_XREC_LAYER_RECONCILED
360
1EC7
  0
DICTIONARY
  5
1EC8
330
50
100
AcDbDictionary
280
     1
281
     1
  3
ADSK_XREC_LAYER_RECONCILED
360
1EC9
  0
DICTIONARY
  5
1ECA
330
51
100
AcDbDictionary
280
     1
281
     1
  3
ADSK_XREC_LAYER_RECONCILED
360
1ECB
  0
DICTIONARY
  5
1ECC
330
52
100
AcDbDictionary
280
     1
281
     1
  3
ADSK_XREC_LAYER_RECONCILED
360
1ECD
  0
DICTIONARY
  5
1ECE
330
53
100
AcDbDictionary
280
     1
281
     1
  3
ADSK_XREC_LAYER_RECONCILED
360
1ECF
  0
DICTIONARY
  5
1ED0
330
54
100
AcDbDictionary
280
     1
281
     1
  3
ADSK_XREC_LAYER_RECONCILED
360
1ED1
  0
DICTIONARY
  5
1E6B
330
18
100
AcDbDictionary
281
     1
  3
ACAD_LAYOUTSELFREF
350
1E6C
  0
DICTIONARY
  5
1E69
330
15
100
AcDbDictionary
281
     1
  3
ACAD_LAYOUTSELFREF
350
1E6A
  0
XRECORD
  5
1EC1
102
{ACAD_REACTORS
330
C
102
}
330
C
100
AcDbXrecord
280
     1
300
ACDLT
300
2014
300
ACDLT_F_S
  0
DICTIONARY
  5
1EA4
102
{ACAD_REACTORS
330
C
102
}
330
C
100
AcDbDictionary
281
     1
  0
DICTIONARY
  5
1EBD
102
{ACAD_REACTORS
330
C
102
}
330
C
100
AcDbDictionary
281
     1
  3
Imperial24
350
1EBE
  0
DICTIONARY
  5
D
102
{ACAD_REACTORS
330
C
102
}
330
C
100
AcDbDictionary
281
     1
  0
DICTIONARY
  5
94
102
{ACAD_REACTORS
330
C
102
}
330
C
100
AcDbDictionary
281
     1
  3
Model
350
1EBF
  3
レイアウト1
350
1EC0
  0
DICTIONARY
  5
1E72
102
{ACAD_REACTORS
330
C
102
}
330
C
100
AcDbDictionary
281
     1
  3
ByBlock
350
1E7B
  3
ByLayer
350
1E73
  3
Global
350
1E83
  0
DICTIONARY
  5
1EB9
102
{ACAD_REACTORS
330
C
102
}
330
C
100
AcDbDictionary
281
     1
  3
Standard
350
1EBA
  0
DICTIONARY
  5
1B
102
{ACAD_REACTORS
330
C
102
}
330
C
100
AcDbDictionary
281
     1
  3
STANDARD
350
1C
  0
DICTIONARY
  5
95
102
{ACAD_REACTORS
330
C
102
}
330
C
100
AcDbDictionary
281
     1
  0
ACDBDICTIONARYWDFLT
  5
1E70
102
{ACAD_REACTORS
330
C
102
}
330
C
100
AcDbDictionary
281
     1
  3
Normal
350
1E71
100
AcDbDictionaryWithDefault
340
1E71
  0
DICTIONARY
  5
1EA7
102
{ACAD_REACTORS
330
C
102
}
330
C
100
AcDbDictionary
281
     1
  3
A0
350
1EA8
  3
A1
350
1EA9
  3
A2
350
1EAA
  3
A3
350
1EAB
  3
A4
350
1EAC
  3
A5
350
1EAD
  3
A6
350
1EAE
  3
A7
350
1EAF
  3
A8
350
1EB0
  3
A9
350
1EB1
  3
B0
350
1EB2
  3
B1
350
1EB3
  3
B2
350
1EB4
  3
B3
350
1EB5
  3
B4
350
1EB6
  3
B5
350
1EB7
  3
B6
350
1EB8
  0
DICTIONARY
  5
1EBB
102
{ACAD_REACTORS
330
C
102
}
330
C
100
AcDbDictionary
281
     1
  3
Imperial24
350
1EBC
  0
DICTIONARY
  5
1EA5
102
{ACAD_REACTORS
330
C
102
}
330
C
100
AcDbDictionary
281
     1
  3
Standard
350
1EA6
  0
DICTIONARY
  5
1E8B
102
{ACAD_REACTORS
330
C
102
}
330
C
100
AcDbDictionary
281
     1
  3
2dWireframe
350
1E91
  3
Basic
350
1E90
  3
Brighten
350
1E97
  3
ColorChange
350
1E9B
  3
Conceptual
350
1E94
  3
Dim
350
1E96
  3
EdgeColorOff
350
1EA3
  3
Facepattern
350
1E9A
  3
Flat
350
1E8C
  3
FlatWithEdges
350
1E8D
  3
Gouraud
350
1E8E
  3
GouraudWithEdges
350
1E8F
  3
Hidden
350
1E93
  3
JitterOff
350
1EA1
  3
Linepattern
350
1E99
  3
OverhangOff
350
1EA2
  3
Realistic
350
1E95
  3
Shaded
350
1EA0
  3
Shaded with edges
350
1E9F
  3
Shades of Gray
350
1E9C
  3
Sketchy
350
1E9D
  3
Thicken
350
1E98
  3
Wireframe
350
1E92
  3
X-Ray
350
1E9E
  0
XRECORD
  5
1EDF
102
{ACAD_REACTORS
330
C
102
}
330
C
100
AcDbXrecord
280
     1
 90
        1
330
1EA6
  0
DICTIONARY
  5
1ED2
102
{ACAD_REACTORS
330
C
102
}
330
C
100
AcDbDictionary
281
     1
  3
CANNOSCALE
350
1ED7
  3
CMLEADERSTYLE
350
1ED4
  3
CTABLESTYLE
350
1ED3
  3
CVIEWDETAILSTYLE
350
1ED5
  3
CVIEWSECTIONSTYLE
350
1ED6
  3
DIMASSOC
350
1EDA
  3
INDEXCTL
350
1ED9
  3
SORTENTS
350
1ED8
  3
XCLIPFRAME
350
1EDB
  0
DICTIONARY
  5
3D
102
{ACAD_REACTORS
330
C
102
}
330
C
100
AcDbDictionary
281
     1
  0
XRECORD
  5
1EE0
102
{ACAD_REACTORS
330
C
102
}
330
C
100
AcDbXrecord
280
     1
  1
DWGPROPS COOKIE
  2

  3

  4

  6

  7

  8
Yoshitsune
  9

300
=
301
=
302
=
303
=
304
=
305
=
306
=
307
=
308
=
309
=
 40
0.2265231712962963
 41
2452957.568868993
 42
2457192.642937917
  1

 90
        0
  0
XRECORD
  5
1EC3
102
{ACAD_REACTORS
330
1EC2
102
}
330
1EC2
100
AcDbXrecord
280
     1
290
     1
  0
XRECORD
  5
1EC5
102
{ACAD_REACTORS
330
1EC4
102
}
330
1EC4
100
AcDbXrecord
280
     1
290
     1
  0
XRECORD
  5
1EC7
102
{ACAD_REACTORS
330
1EC6
102
}
330
1EC6
100
AcDbXrecord
280
     1
290
     1
  0
XRECORD
  5
1EC9
102
{ACAD_REACTORS
330
1EC8
102
}
330
1EC8
100
AcDbXrecord
280
     1
290
     1
  0
XRECORD
  5
1ECB
102
{ACAD_REACTORS
330
1ECA
102
}
330
1ECA
100
AcDbXrecord
280
     1
290
     1
  0
XRECORD
  5
1ECD
102
{ACAD_REACTORS
330
1ECC
102
}
330
1ECC
100
AcDbXrecord
280
     1
290
     1
  0
XRECORD
  5
1ECF
102
{ACAD_REACTORS
330
1ECE
102
}
330
1ECE
100
AcDbXrecord
280
     1
290
     1
  0
XRECORD
  5
1ED1
102
{ACAD_REACTORS
330
1ED0
102
}
330
1ED0
100
AcDbXrecord
280
     1
290
     1
  0
XRECORD
  5
1E6C
102
{ACAD_REACTORS
330
1E6B
102
}
330
1E6B
100
AcDbXrecord
280
     1
340
18
  0
XRECORD
  5
1E6A
102
{ACAD_REACTORS
330
1E69
102
}
330
1E69
100
AcDbXrecord
280
     1
340
15
  0
ACDBDETAILVIEWSTYLE
  5
1EBE
102
{ACAD_XDICTIONARY
360
1F18
102
}
102
{ACAD_REACTORS
330
1EBD
102
}
330
1EBD
100
AcDbModelDocViewStyle
 70
     0
  3
Imperial24
290
     0
100
AcDbDetailViewStyle
 70
     0
 71
     0
 90
        3
 71
     1
340
F
 40
0.24
340
0
 40
0.24
300

 40
0.36
280
     3
 71
     2
340
14
 90
       25
 71
     3
340
F
 40
0.24
 90
        1
 40
0.75
 90
        1
300
%<\AcVar ViewType \f "%tc1">% %<\AcVar ViewDetailId>%\PSCALE %<\AcVar ViewScale \f "%sn">%
 71
     4
340
14
 90
       25
340
14
 90
       25
280
     0
  0
LAYOUT
  5
1EBF
102
{ACAD_XDICTIONARY
360
1F1A
102
}
102
{ACAD_REACTORS
330
94
102
}
330
94
100
AcDbPlotSettings
  1

  2
Canon LBP9100C
  4

  6

 40
0.0
 41
0.0
 42
0.0
 43
0.0
 44
0.0
 45
0.0
 46
0.0
 47
0.0
 48
0.0
 49
0.0
140
0.0
141
0.0
142
1.0
143
1.0
 70
  1712
 72
     0
 73
     0
 74
     0
  7

 75
     0
147
1.0
148
0.0
149
0.0
100
AcDbLayout
  1
Model
 70
     1
 71
     0
 10
0.0
 20
0.0
 11
12.0
 21
9.0
 12
0.0
 22
0.0
 32
0.0
 14
0.0
 24
0.0
 34
0.0
 15
0.0
 25
0.0
 35
0.0
146
0.0
 13
0.0
 23
0.0
 33
0.0
 16
1.0
 26
0.0
 36
0.0
 17
0.0
 27
1.0
 37
0.0
 76
     0
330
18
331
1E68
  0
LAYOUT
  5
1EC0
102
{ACAD_XDICTIONARY
360
1F1C
102
}
102
{ACAD_REACTORS
330
94
102
}
330
94
100
AcDbPlotSettings
  1

  2
Canon LBP9100C
  4

  6

 40
0.0
 41
0.0
 42
0.0
 43
0.0
 44
0.0
 45
0.0
 46
0.0
 47
0.0
 48
0.0
 49
0.0
140
0.0
141
0.0
142
1.0
143
1.0
 70
   688
 72
     0
 73
     0
 74
     5
  7

 75
    16
147
1.0
148
0.0
149
0.0
100
AcDbLayout
  1
レイアウト1
 70
     1
 71
     1
 10
0.0
 20
0.0
 11
420.0
 21
297.0
 12
0.0
 22
0.0
 32
0.0
 14
1.000000000000000E+20
 24
1.000000000000000E+20
 34
1.000000000000000E+20
 15
-1.000000000000000E+20
 25
-1.000000000000000E+20
 35
-1.000000000000000E+20
146
0.0
 13
0.0
 23
0.0
 33
0.0
 16
1.0
 26
0.0
 36
0.0
 17
0.0
 27
1.0
 37
0.0
 76
     0
330
15
  0
MATERIAL
  5
1E7B
102
{ACAD_XDICTIONARY
360
1E7C
102
}
102
{ACAD_REACTORS
330
1E72
102
}
330
1E72
100
AcDbMaterial
  1
ByBlock
 72
     0
 43
0.0208333333333333
 43
0.0
 43
0.0
 43
0.0
 43
0.0
 43
0.0208333333333333
 43
0.0
 43
0.0
 43
0.0
 43
0.0
 43
1.0
 43
0.0
 43
0.0
 43
0.0
 43
0.0
 43
1.0
 77
     0
 47
0.0208333333333333
 47
0.0
 47
0.0
 47
0.0
 47
0.0
 47
0.0208333333333333
 47
0.0
 47
0.0
 47
0.0
 47
0.0
 47
1.0
 47
0.0
 47
0.0
 47
0.0
 47
0.0
 47
1.0
171
     0
 49
0.0208333333333333
 49
0.0
 49
0.0
 49
0.0
 49
0.0
 49
0.0208333333333333
 49
0.0
 49
0.0
 49
0.0
 49
0.0
 49
1.0
 49
0.0
 49
0.0
 49
0.0
 49
0.0
 49
1.0
175
     0
142
0.0208333333333333
142
0.0
142
0.0
142
0.0
142
0.0
142
0.0208333333333333
142
0.0
142
0.0
142
0.0
142
0.0
142
1.0
142
0.0
142
0.0
142
0.0
142
0.0
142
1.0
179
     0
144
0.0208333333333333
144
0.0
144
0.0
144
0.0
144
0.0
144
0.0208333333333333
144
0.0
144
0.0
144
0.0
144
0.0
144
1.0
144
0.0
144
0.0
144
0.0
144
0.0
144
1.0
147
0.0208333333333333
147
0.0
147
0.0
147
0.0
147
0.0
147
0.0208333333333333
147
0.0
147
0.0
147
0.0
147
0.0
147
1.0
147
0.0
147
0.0
147
0.0
147
0.0
147
1.0
  0
MATERIAL
  5
1E73
102
{ACAD_XDICTIONARY
360
1E74
102
}
102
{ACAD_REACTORS
330
1E72
102
}
330
1E72
100
AcDbMaterial
  1
ByLayer
 72
     0
 43
0.0208333333333333
 43
0.0
 43
0.0
 43
0.0
 43
0.0
 43
0.0208333333333333
 43
0.0
 43
0.0
 43
0.0
 43
0.0
 43
1.0
 43
0.0
 43
0.0
 43
0.0
 43
0.0
 43
1.0
 77
     0
 47
0.0208333333333333
 47
0.0
 47
0.0
 47
0.0
 47
0.0
 47
0.0208333333333333
 47
0.0
 47
0.0
 47
0.0
 47
0.0
 47
1.0
 47
0.0
 47
0.0
 47
0.0
 47
0.0
 47
1.0
171
     0
 49
0.0208333333333333
 49
0.0
 49
0.0
 49
0.0
 49
0.0
 49
0.0208333333333333
 49
0.0
 49
0.0
 49
0.0
 49
0.0
 49
1.0
 49
0.0
 49
0.0
 49
0.0
 49
0.0
 49
1.0
175
     0
142
0.0208333333333333
142
0.0
142
0.0
142
0.0
142
0.0
142
0.0208333333333333
142
0.0
142
0.0
142
0.0
142
0.0
142
1.0
142
0.0
142
0.0
142
0.0
142
0.0
142
1.0
179
     0
144
0.0208333333333333
144
0.0
144
0.0
144
0.0
144
0.0
144
0.0208333333333333
144
0.0
144
0.0
144
0.0
144
0.0
144
1.0
144
0.0
144
0.0
144
0.0
144
0.0
144
1.0
147
0.0208333333333333
147
0.0
147
0.0
147
0.0
147
0.0
147
0.0208333333333333
147
0.0
147
0.0
147
0.0
147
0.0
147
1.0
147
0.0
147
0.0
147
0.0
147
0.0
147
1.0
  0
MATERIAL
  5
1E83
102
{ACAD_XDICTIONARY
360
1E84
102
}
102
{ACAD_REACTORS
330
1E72
102
}
330
1E72
100
AcDbMaterial
  1
Global
 72
     0
 43
0.0208333333333333
 43
0.0
 43
0.0
 43
0.0
 43
0.0
 43
0.0208333333333333
 43
0.0
 43
0.0
 43
0.0
 43
0.0
 43
1.0
 43
0.0
 43
0.0
 43
0.0
 43
0.0
 43
1.0
 77
     0
 47
0.0208333333333333
 47
0.0
 47
0.0
 47
0.0
 47
0.0
 47
0.0208333333333333
 47
0.0
 47
0.0
 47
0.0
 47
0.0
 47
1.0
 47
0.0
 47
0.0
 47
0.0
 47
0.0
 47
1.0
171
     0
 49
0.0208333333333333
 49
0.0
 49
0.0
 49
0.0
 49
0.0
 49
0.0208333333333333
 49
0.0
 49
0.0
 49
0.0
 49
0.0
 49
1.0
 49
0.0
 49
0.0
 49
0.0
 49
0.0
 49
1.0
175
     0
142
0.0208333333333333
142
0.0
142
0.0
142
0.0
142
0.0
142
0.0208333333333333
142
0.0
142
0.0
142
0.0
142
0.0
142
1.0
142
0.0
142
0.0
142
0.0
142
0.0
142
1.0
179
     0
144
0.0208333333333333
144
0.0
144
0.0
144
0.0
144
0.0
144
0.0208333333333333
144
0.0
144
0.0
144
0.0
144
0.0
144
1.0
144
0.0
144
0.0
144
0.0
144
0.0
144
1.0
147
0.0208333333333333
147
0.0
147
0.0
147
0.0
147
0.0
147
0.0208333333333333
147
0.0
147
0.0
147
0.0
147
0.0
147
1.0
147
0.0
147
0.0
147
0.0
147
0.0
147
1.0
  0
MLEADERSTYLE
  5
1EBA
102
{ACAD_REACTORS
330
1EB9
102
}
330
1EB9
100
AcDbMLeaderStyle
170
     2
171
     1
172
     0
 90
        2
 40
0.0
 41
0.0
173
     1
 91
-1056964608
340
12
 92
       -2
290
     1
 42
0.09
291
     1
 43
0.36
  3
Standard
 44
0.18
300

342
F
174
     1
178
     6
175
     1
176
     0
 93
-1056964608
 45
0.18
292
     0
297
     0
 46
0.18
 94
-1056964608
 47
1.0
 49
1.0
140
1.0
293
     1
141
0.0
294
     1
177
     0
142
1.0
295
     0
296
     0
143
0.125
1001
ACAD_MLEADERVER
1070
     2
  0
MLINESTYLE
  5
1C
102
{ACAD_REACTORS
330
1B
102
}
330
1B
100
AcDbMlineStyle
  2
STANDARD
 70
     0
  3

 62
   256
 51
90.0
 52
90.0
 71
     2
 49
0.5
 62
   256
  6
BYLAYER
 49
-0.5
 62
   256
  6
BYLAYER
  0
ACDBPLACEHOLDER
  5
1E71
102
{ACAD_REACTORS
330
1E70
102
}
330
1E70
  0
SCALE
  5
1EA8
102
{ACAD_REACTORS
330
1EA7
102
}
330
1EA7
100
AcDbScale
 70
     0
300
1:1
140
1.0
141
1.0
290
     1
  0
SCALE
  5
1EA9
102
{ACAD_REACTORS
330
1EA7
102
}
330
1EA7
100
AcDbScale
 70
     0
300
1/128" = 1'-0"
140
0.0078125
141
12.0
290
     0
  0
SCALE
  5
1EAA
102
{ACAD_REACTORS
330
1EA7
102
}
330
1EA7
100
AcDbScale
 70
     0
300
1/64" = 1'-0"
140
0.015625
141
12.0
290
     0
  0
SCALE
  5
1EAB
102
{ACAD_REACTORS
330
1EA7
102
}
330
1EA7
100
AcDbScale
 70
     0
300
1/32" = 1'-0"
140
0.03125
141
12.0
290
     0
  0
SCALE
  5
1EAC
102
{ACAD_REACTORS
330
1EA7
102
}
330
1EA7
100
AcDbScale
 70
     0
300
1/16" = 1'-0"
140
0.0625
141
12.0
290
     0
  0
SCALE
  5
1EAD
102
{ACAD_REACTORS
330
1EA7
102
}
330
1EA7
100
AcDbScale
 70
     0
300
3/32" = 1'-0"
140
0.09375
141
12.0
290
     0
  0
SCALE
  5
1EAE
102
{ACAD_REACTORS
330
1EA7
102
}
330
1EA7
100
AcDbScale
 70
     0
300
1/8" = 1'-0"
140
0.125
141
12.0
290
     0
  0
SCALE
  5
1EAF
102
{ACAD_REACTORS
330
1EA7
102
}
330
1EA7
100
AcDbScale
 70
     0
300
3/16" = 1'-0"
140
0.1875
141
12.0
290
     0
  0
SCALE
  5
1EB0
102
{ACAD_REACTORS
330
1EA7
102
}
330
1EA7
100
AcDbScale
 70
     0
300
1/4" = 1'-0"
140
0.25
141
12.0
290
     0
  0
SCALE
  5
1EB1
102
{ACAD_REACTORS
330
1EA7
102
}
330
1EA7
100
AcDbScale
 70
     0
300
3/8" = 1'-0"
140
0.375
141
12.0
290
     0
  0
SCALE
  5
1EB2
102
{ACAD_REACTORS
330
1EA7
102
}
330
1EA7
100
AcDbScale
 70
     0
300
1/2" = 1'-0"
140
0.5
141
12.0
290
     0
  0
SCALE
  5
1EB3
102
{ACAD_REACTORS
330
1EA7
102
}
330
1EA7
100
AcDbScale
 70
     0
300
3/4" = 1'-0"
140
0.75
141
12.0
290
     0
  0
SCALE
  5
1EB4
102
{ACAD_REACTORS
330
1EA7
102
}
330
1EA7
100
AcDbScale
 70
     0
300
1" = 1'-0"
140
1.0
141
12.0
290
     0
  0
SCALE
  5
1EB5
102
{ACAD_REACTORS
330
1EA7
102
}
330
1EA7
100
AcDbScale
 70
     0
300
1-1/2" = 1'-0"
140
1.5
141
12.0
290
     0
  0
SCALE
  5
1EB6
102
{ACAD_REACTORS
330
1EA7
102
}
330
1EA7
100
AcDbScale
 70
     0
300
3" = 1'-0"
140
3.0
141
12.0
290
     0
  0
SCALE
  5
1EB7
102
{ACAD_REACTORS
330
1EA7
102
}
330
1EA7
100
AcDbScale
 70
     0
300
6" = 1'-0"
140
6.0
141
12.0
290
     0
  0
SCALE
  5
1EB8
102
{ACAD_REACTORS
330
1EA7
102
}
330
1EA7
100
AcDbScale
 70
     0
300
1'-0" = 1'-0"
140
12.0
141
12.0
290
     0
  0
ACDBSECTIONVIEWSTYLE
  5
1EBC
102
{ACAD_XDICTIONARY
360
1F16
102
}
102
{ACAD_REACTORS
330
1EBB
102
}
330
1EBB
100
AcDbModelDocViewStyle
 70
     0
  3
Imperial24
290
     0
100
AcDbSectionViewStyle
 70
     0
 71
     0
 90
       78
 71
     1
340
F
 40
0.24
340
0
340
0
 40
0.24
300
I, O, Q, S, X, Z
 40
0.48
 90
        3
 40
0.18
 90
        1
 71
     2
340
14
 90
       25
340
14
 90
       50
 40
0.24
 40
0.0
 40
0.24
 71
     3
340
F
 40
0.24
 90
        1
 40
0.75
 90
        1
300
%<\AcVar ViewType \f "%tc1">% %<\AcVar ViewSectionStartId>%-%<\AcVar ViewSectionEndId>%\PSCALE %<\AcVar ViewScale \f "%sn">%
 71
     4
300
ANSI31
 40
1.0
 90
        0
290
     0
290
     0
 90
        6
 40
0.0
 40
1.570796326794896
 40
0.2617993877991494
 40
1.308996938995747
 40
-0.2617993877991494
 40
1.832595714594046
  0
TABLESTYLE
  5
1EA6
102
{ACAD_XDICTIONARY
360
1EDD
102
}
102
{ACAD_REACTORS
330
1EA5
102
}
330
1EA5
100
AcDbTableStyle
  3
Standard
 70
     0
 71
     0
 40
0.06
 41
0.06
280
     0
281
     0
  7
STANDARD
140
0.18
170
     2
 62
     0
 63
     7
283
     0
274
    -2
284
     1
 64
     0
275
    -2
285
     1
 65
     0
276
    -2
286
     1
 66
     0
277
    -2
287
     1
 67
     0
278
    -2
288
     1
 68
     0
279
    -2
289
     1
 69
     0
  7
STANDARD
140
0.25
170
     5
 62
     0
 63
     7
283
     0
274
    -2
284
     1
 64
     0
275
    -2
285
     1
 65
     0
276
    -2
286
     1
 66
     0
277
    -2
287
     1
 67
     0
278
    -2
288
     1
 68
     0
279
    -2
289
     1
 69
     0
  7
STANDARD
140
0.18
170
     5
 62
     0
 63
     7
283
     0
274
    -2
284
     1
 64
     0
275
    -2
285
     1
 65
     0
276
    -2
286
     1
 66
     0
277
    -2
287
     1
 67
     0
278
    -2
288
     1
 68
     0
279
    -2
289
     1
 69
     0
  0
VISUALSTYLE
  5
1E91
102
{ACAD_XDICTIONARY
360
1EEE
102
}
102
{ACAD_REACTORS
330
1E8B
102
}
330
1E8B
100
AcDbVisualStyle
  2
2dWireframe
 70
     4
 71
     0
 72
     2
 73
     0
 90
        0
 40
-0.6
 41
-30.0
 62
     5
 63
     7
 74
     1
 91
        4
 64
     7
 65
   257
 75
     1
175
     1
 42
1.0
 92
        0
 66
   257
 43
1.0
 76
     1
 77
     6
 78
     2
 67
     7
 79
     5
170
     0
171
     0
290
     0
174
     0
 93
        1
 44
0.0
173
     0
291
     0
 45
0.0
1001
ACAD
1000
AcDbSavedByObjectVersion
1070
     0
  0
VISUALSTYLE
  5
1E90
102
{ACAD_XDICTIONARY
360
1EEC
102
}
102
{ACAD_REACTORS
330
1E8B
102
}
330
1E8B
100
AcDbVisualStyle
  2
Basic
 70
     7
 71
     1
 72
     0
 73
     1
 90
        0
 40
-0.6
 41
-30.0
 62
     5
 63
     7
 74
     0
 91
        4
 64
     7
 65
   257
 75
     1
175
     1
 42
1.0
 92
        8
 66
     7
 43
1.0
 76
     1
 77
     6
 78
     2
 67
     7
 79
     5
170
     0
171
     0
290
     0
174
     0
 93
        1
 44
0.0
173
     0
291
     1
 45
0.0
1001
ACAD
1000
AcDbSavedByObjectVersion
1070
     0
  0
VISUALSTYLE
  5
1E97
102
{ACAD_XDICTIONARY
360
1EFA
102
}
102
{ACAD_REACTORS
330
1E8B
102
}
330
1E8B
100
AcDbVisualStyle
  2
Brighten
 70
    12
 71
     2
 72
     2
 73
     0
 90
        0
 40
-0.6
 41
-30.0
 62
     5
 63
     7
 74
     1
 91
        4
 64
     7
 65
   257
 75
     1
175
     1
 42
1.0
 92
        8
 66
     7
 43
1.0
 76
     1
 77
     6
 78
     2
 67
     7
 79
     5
170
     0
171
     0
290
     0
174
     0
 93
        1
 44
50.0
173
     0
291
     1
 45
0.0
1001
ACAD
1000
AcDbSavedByObjectVersion
1070
     0
  0
VISUALSTYLE
  5
1E9B
102
{ACAD_XDICTIONARY
360
1F02
102
}
102
{ACAD_REACTORS
330
1E8B
102
}
330
1E8B
100
AcDbVisualStyle
  2
ColorChange
 70
    16
 71
     2
 72
     2
 73
     3
 90
        0
 40
-0.6
 41
-30.0
 62
     5
 63
     8
 74
     1
 91
        4
 64
     7
 65
   257
 75
     1
175
     1
 42
1.0
 92
        8
 66
     8
 43
1.0
 76
     1
 77
     6
 78
     2
 67
     7
 79
     5
170
     0
171
     0
290
     0
174
     0
 93
        1
 44
0.0
173
     0
291
     1
 45
0.0
1001
ACAD
1000
AcDbSavedByObjectVersion
1070
     0
  0
VISUALSTYLE
  5
1E94
102
{ACAD_XDICTIONARY
360
1EF4
102
}
102
{ACAD_REACTORS
330
1E8B
102
}
330
1E8B
100
AcDbVisualStyle
  2
Conceptual
 70
     9
 71
     3
 72
     2
 73
     0
 90
        0
 40
-0.6
 41
-30.0
 62
     5
 63
     7
 74
     2
 91
        2
 64
     7
 65
   257
 75
     1
175
     1
 42
179.0
 92
        8
 66
     7
 43
1.0
 76
     1
 77
     6
 78
     2
 67
     7
 79
     3
170
     0
171
     0
290
     0
174
     0
 93
        1
 44
0.0
173
     0
291
     0
 45
0.0
1001
ACAD
1000
AcDbSavedByObjectVersion
1070
     0
  0
VISUALSTYLE
  5
1E96
102
{ACAD_XDICTIONARY
360
1EF8
102
}
102
{ACAD_REACTORS
330
1E8B
102
}
330
1E8B
100
AcDbVisualStyle
  2
Dim
 70
    11
 71
     2
 72
     2
 73
     0
 90
        0
 40
-0.6
 41
-30.0
 62
     5
 63
     7
 74
     1
 91
        4
 64
     7
 65
   257
 75
     1
175
     1
 42
1.0
 92
        8
 66
     7
 43
1.0
 76
     1
 77
     6
 78
     2
 67
     7
 79
     5
170
     0
171
     0
290
     0
174
     0
 93
        1
 44
-50.0
173
     0
291
     1
 45
0.0
1001
ACAD
1000
AcDbSavedByObjectVersion
1070
     0
  0
VISUALSTYLE
  5
1EA3
102
{ACAD_XDICTIONARY
360
1F12
102
}
102
{ACAD_REACTORS
330
1E8B
102
}
330
1E8B
100
AcDbVisualStyle
  2
EdgeColorOff
 70
    22
 71
     2
 72
     2
 73
     0
 90
        0
 40
-0.6
 41
-30.0
 62
     5
 63
     7
 74
     1
 91
        4
 64
     7
 65
   257
 75
     1
175
     1
 42
1.0
 92
        8
 66
     7
 43
1.0
 76
     1
 77
     6
 78
     2
 67
     7
 79
     5
170
     0
171
     0
290
     0
174
     0
 93
        1
 44
0.0
173
     0
291
     1
 45
0.0
1001
ACAD
1000
AcDbSavedByObjectVersion
1070
     0
  0
VISUALSTYLE
  5
1E9A
102
{ACAD_XDICTIONARY
360
1F00
102
}
102
{ACAD_REACTORS
330
1E8B
102
}
330
1E8B
100
AcDbVisualStyle
  2
Facepattern
 70
    15
 71
     2
 72
     2
 73
     0
 90
        0
 40
-0.6
 41
-30.0
 62
     5
 63
     7
 74
     1
 91
        4
 64
     7
 65
   257
 75
     1
175
     1
 42
1.0
 92
        8
 66
     7
 43
1.0
 76
     1
 77
     6
 78
     2
 67
     7
 79
     5
170
     0
171
     0
290
     0
174
     0
 93
        1
 44
0.0
173
     0
291
     1
 45
0.0
1001
ACAD
1000
AcDbSavedByObjectVersion
1070
     0
  0
VISUALSTYLE
  5
1E8C
102
{ACAD_XDICTIONARY
360
1EE4
102
}
102
{ACAD_REACTORS
330
1E8B
102
}
330
1E8B
100
AcDbVisualStyle
  2
Flat
 70
     0
 71
     2
 72
     1
 73
     1
 90
        2
 40
-0.6
 41
30.0
 62
     5
 63
     7
 74
     0
 91
        0
 64
     7
 65
   257
 75
     1
175
     1
 42
1.0
 92
        8
 66
     7
 43
1.0
 76
     1
 77
     6
 78
     2
 67
     7
 79
     5
170
     0
171
     0
290
     0
174
     0
 93
       13
 44
0.0
173
     0
291
     1
 45
0.0
1001
ACAD
1000
AcDbSavedByObjectVersion
1070
     0
  0
VISUALSTYLE
  5
1E8D
102
{ACAD_XDICTIONARY
360
1EE6
102
}
102
{ACAD_REACTORS
330
1E8B
102
}
330
1E8B
100
AcDbVisualStyle
  2
FlatWithEdges
 70
     1
 71
     2
 72
     1
 73
     1
 90
        2
 40
-0.6
 41
30.0
 62
     5
 63
     7
 74
     1
 91
        0
 64
     7
 65
   257
 75
     1
175
     1
 42
1.0
 92
        0
 66
   257
 43
1.0
 76
     1
 77
     6
 78
     2
 67
     7
 79
     5
170
     0
171
     0
290
     0
174
     0
 93
       13
 44
0.0
173
     0
291
     1
 45
0.0
1001
ACAD
1000
AcDbSavedByObjectVersion
1070
     0
  0
VISUALSTYLE
  5
1E8E
102
{ACAD_XDICTIONARY
360
1EE8
102
}
102
{ACAD_REACTORS
330
1E8B
102
}
330
1E8B
100
AcDbVisualStyle
  2
Gouraud
 70
     2
 71
     2
 72
     2
 73
     1
 90
        2
 40
-0.6
 41
30.0
 62
     5
 63
     7
 74
     0
 91
        0
 64
     7
 65
   257
 75
     1
175
     1
 42
1.0
 92
        0
 66
     7
 43
1.0
 76
     1
 77
     6
 78
     2
 67
     7
 79
     5
170
     0
171
     0
290
     0
174
     0
 93
       13
 44
0.0
173
     0
291
     1
 45
0.0
1001
ACAD
1000
AcDbSavedByObjectVersion
1070
     0
  0
VISUALSTYLE
  5
1E8F
102
{ACAD_XDICTIONARY
360
1EEA
102
}
102
{ACAD_REACTORS
330
1E8B
102
}
330
1E8B
100
AcDbVisualStyle
  2
GouraudWithEdges
 70
     3
 71
     2
 72
     2
 73
     1
 90
        2
 40
-0.6
 41
30.0
 62
     5
 63
     7
 74
     1
 91
        0
 64
     7
 65
   257
 75
     1
175
     1
 42
1.0
 92
        0
 66
   257
 43
1.0
 76
     1
 77
     6
 78
     2
 67
     7
 79
     5
170
     0
171
     0
290
     0
174
     0
 93
       13
 44
0.0
173
     0
291
     1
 45
0.0
1001
ACAD
1000
AcDbSavedByObjectVersion
1070
     0
  0
VISUALSTYLE
  5
1E93
102
{ACAD_XDICTIONARY
360
1EF2
102
}
102
{ACAD_REACTORS
330
1E8B
102
}
330
1E8B
100
AcDbVisualStyle
  2
Hidden
 70
     6
 71
     1
 72
     2
 73
     2
 90
        0
 40
-0.6
 41
-30.0
 62
     5
 63
     7
 74
     2
 91
        2
 64
     7
 65
   257
 75
     2
175
     1
 42
40.0
 92
        0
 66
   257
 43
1.0
 76
     1
 77
     6
 78
     2
 67
     7
 79
     3
170
     0
171
     0
290
     0
174
     0
 93
        1
 44
0.0
173
     0
291
     0
 45
0.0
1001
ACAD
1000
AcDbSavedByObjectVersion
1070
     0
  0
VISUALSTYLE
  5
1EA1
102
{ACAD_XDICTIONARY
360
1F0E
102
}
102
{ACAD_REACTORS
330
1E8B
102
}
330
1E8B
100
AcDbVisualStyle
  2
JitterOff
 70
    20
 71
     2
 72
     2
 73
     0
 90
        0
 40
-0.6
 41
-30.0
 62
     5
 63
     7
 74
     1
 91
        4
 64
     7
 65
   257
 75
     1
175
     1
 42
1.0
 92
       10
 66
     7
 43
1.0
 76
     1
 77
     6
 78
     2
 67
     7
 79
     5
170
     0
171
     0
290
     0
174
     0
 93
        1
 44
0.0
173
     0
291
     1
 45
0.0
1001
ACAD
1000
AcDbSavedByObjectVersion
1070
     0
  0
VISUALSTYLE
  5
1E99
102
{ACAD_XDICTIONARY
360
1EFE
102
}
102
{ACAD_REACTORS
330
1E8B
102
}
330
1E8B
100
AcDbVisualStyle
  2
Linepattern
 70
    14
 71
     2
 72
     2
 73
     0
 90
        0
 40
-0.6
 41
-30.0
 62
     5
 63
     7
 74
     1
 91
        4
 64
     7
 65
   257
 75
     7
175
     7
 42
1.0
 92
        8
 66
     7
 43
1.0
 76
     1
 77
     6
 78
     2
 67
     7
 79
     5
170
     0
171
     0
290
     0
174
     0
 93
        1
 44
0.0
173
     0
291
     1
 45
0.0
1001
ACAD
1000
AcDbSavedByObjectVersion
1070
     0
  0
VISUALSTYLE
  5
1EA2
102
{ACAD_XDICTIONARY
360
1F10
102
}
102
{ACAD_REACTORS
330
1E8B
102
}
330
1E8B
100
AcDbVisualStyle
  2
OverhangOff
 70
    21
 71
     2
 72
     2
 73
     0
 90
        0
 40
-0.6
 41
-30.0
 62
     5
 63
     7
 74
     1
 91
        4
 64
     7
 65
   257
 75
     1
175
     1
 42
1.0
 92
        9
 66
     7
 43
1.0
 76
     1
 77
     6
 78
     2
 67
     7
 79
     5
170
     0
171
     0
290
     0
174
     0
 93
        1
 44
0.0
173
     0
291
     1
 45
0.0
1001
ACAD
1000
AcDbSavedByObjectVersion
1070
     0
  0
VISUALSTYLE
  5
1E95
102
{ACAD_XDICTIONARY
360
1EF6
102
}
102
{ACAD_REACTORS
330
1E8B
102
}
330
1E8B
100
AcDbVisualStyle
  2
Realistic
 70
     8
 71
     2
 72
     3
 73
     0
 90
        2
 40
-0.6
 41
30.0
 62
     5
 63
     7
 74
     0
 91
        0
 64
     7
 65
   257
 75
     1
175
     1
 42
1.0
 92
        8
 66
   257
 43
1.0
 76
     1
 77
     6
 78
     2
 67
     7
 79
     3
170
     0
171
     0
290
     0
174
     0
 93
       13
 44
0.0
173
     0
291
     0
 45
0.0
1001
ACAD
1000
AcDbSavedByObjectVersion
1070
     0
  0
VISUALSTYLE
  5
1EA0
102
{ACAD_XDICTIONARY
360
1F0C
102
}
102
{ACAD_REACTORS
330
1E8B
102
}
330
1E8B
100
AcDbVisualStyle
  2
Shaded
 70
    27
 71
     2
 72
     2
 73
     1
 90
        2
 40
-0.6
 41
30.0
 62
     5
 63
     7
 74
     0
 91
        4
 64
     7
 65
   257
 75
     1
175
     1
 42
1.0
 92
        8
 66
   257
 43
1.0
 76
     1
 77
     6
 78
     2
 67
     8
 79
     3
170
     0
171
     0
290
     0
174
     0
 93
        5
 44
0.0
173
     0
291
     0
 45
0.0
1001
ACAD
1000
AcDbSavedByObjectVersion
1070
     0
  0
VISUALSTYLE
  5
1E9F
102
{ACAD_XDICTIONARY
360
1F0A
102
}
102
{ACAD_REACTORS
330
1E8B
102
}
330
1E8B
100
AcDbVisualStyle
  2
Shaded with edges
 70
    26
 71
     2
 72
     2
 73
     1
 90
        2
 40
-0.6
 41
30.0
 62
     5
 63
     7
 74
     1
 91
       10
 64
     7
 65
   257
 75
     2
175
     1
 42
1.0
 92
        8
 66
   257
 43
1.0
 76
     1
 77
     6
 78
     2
 67
     7
 79
     3
170
     0
171
     0
290
     0
174
     0
 93
        5
 44
0.0
173
     0
291
     0
 45
0.0
1001
ACAD
1000
AcDbSavedByObjectVersion
1070
     0
  0
VISUALSTYLE
  5
1E9C
102
{ACAD_XDICTIONARY
360
1F04
102
}
102
{ACAD_REACTORS
330
1E8B
102
}
330
1E8B
100
AcDbVisualStyle
  2
Shades of Gray
 70
    23
 71
     2
 72
     2
 73
     3
 90
        0
 40
-0.6
 41
-30.0
 62
     5
 63
     7
 74
     2
 91
        2
 64
     7
 65
     7
 75
     1
175
     1
 42
40.0
 92
        8
 66
     7
 43
1.0
 76
     1
 77
     6
 78
     2
 67
     7
 79
     3
170
     0
171
     0
290
     0
174
     0
 93
        1
 44
0.0
173
     0
291
     0
 45
0.0
1001
ACAD
1000
AcDbSavedByObjectVersion
1070
     0
  0
VISUALSTYLE
  5
1E9D
102
{ACAD_XDICTIONARY
360
1F06
102
}
102
{ACAD_REACTORS
330
1E8B
102
}
330
1E8B
100
AcDbVisualStyle
  2
Sketchy
 70
    24
 71
     1
 72
     2
 73
     2
 90
        0
 40
-0.6
 41
-30.0
 62
     5
 63
     7
 74
     2
 91
        2
 64
     7
 65
     7
 75
     1
175
     1
 42
40.0
 92
       11
 66
     7
 43
1.0
 76
     1
 77
     6
 78
     2
 67
     7
 79
     6
170
     0
171
     0
290
     0
174
     0
 93
        1
 44
0.0
173
     0
291
     0
 45
0.0
1001
ACAD
1000
AcDbSavedByObjectVersion
1070
     0
  0
VISUALSTYLE
  5
1E98
102
{ACAD_XDICTIONARY
360
1EFC
102
}
102
{ACAD_REACTORS
330
1E8B
102
}
330
1E8B
100
AcDbVisualStyle
  2
Thicken
 70
    13
 71
     2
 72
     2
 73
     0
 90
        0
 40
-0.6
 41
-30.0
 62
     5
 63
     7
 74
     1
 91
        4
 64
     7
 65
   257
 75
     1
175
     1
 42
1.0
 92
       12
 66
     7
 43
1.0
 76
     1
 77
     6
 78
     2
 67
     7
 79
     5
170
     0
171
     0
290
     0
174
     0
 93
        1
 44
0.0
173
     0
291
     1
 45
0.0
1001
ACAD
1000
AcDbSavedByObjectVersion
1070
     0
  0
VISUALSTYLE
  5
1E92
102
{ACAD_XDICTIONARY
360
1EF0
102
}
102
{ACAD_REACTORS
330
1E8B
102
}
330
1E8B
100
AcDbVisualStyle
  2
Wireframe
 70
     5
 71
     0
 72
     2
 73
     0
 90
        0
 40
-0.6
 41
-30.0
 62
     5
 63
     7
 74
     1
 91
        4
 64
     7
 65
   257
 75
     1
175
     1
 42
1.0
 92
        0
 66
   257
 43
1.0
 76
     1
 77
     6
 78
     2
 67
     7
 79
     3
170
     0
171
     0
290
     0
174
     0
 93
        1
 44
0.0
173
     0
291
     0
 45
0.0
1001
ACAD
1000
AcDbSavedByObjectVersion
1070
     0
  0
VISUALSTYLE
  5
1E9E
102
{ACAD_XDICTIONARY
360
1F08
102
}
102
{ACAD_REACTORS
330
1E8B
102
}
330
1E8B
100
AcDbVisualStyle
  2
X-Ray
 70
    25
 71
     2
 72
     2
 73
     1
 90
        1
 40
0.5
 41
-30.0
 62
     5
 63
     7
 74
     1
 91
        0
 64
     7
 65
   257
 75
     1
175
     1
 42
1.0
 92
        8
 66
     7
 43
1.0
 76
     1
 77
     6
 78
     2
 67
     7
 79
     3
170
     0
171
     0
290
     0
174
     0
 93
       13
 44
0.0
173
     0
291
     0
 45
0.0
1001
ACAD
1000
AcDbSavedByObjectVersion
1070
     0
  0
DICTIONARYVAR
  5
1ED7
102
{ACAD_REACTORS
330
1ED2
102
}
330
1ED2
100
DictionaryVariables
280
     0
  1
1:1
  0
DICTIONARYVAR
  5
1ED4
102
{ACAD_REACTORS
330
1ED2
102
}
330
1ED2
100
DictionaryVariables
280
     0
  1
STANDARD
  0
DICTIONARYVAR
  5
1ED3
102
{ACAD_REACTORS
330
1ED2
102
}
330
1ED2
100
DictionaryVariables
280
     0
  1
STANDARD
  0
DICTIONARYVAR
  5
1ED5
102
{ACAD_REACTORS
330
1ED2
102
}
330
1ED2
100
DictionaryVariables
280
     0
  1
Imperial24
  0
DICTIONARYVAR
  5
1ED6
102
{ACAD_REACTORS
330
1ED2
102
}
330
1ED2
100
DictionaryVariables
280
     0
  1
Imperial24
  0
DICTIONARYVAR
  5
1EDA
102
{ACAD_REACTORS
330
1ED2
102
}
330
1ED2
100
DictionaryVariables
280
     0
  1
1
  0
DICTIONARYVAR
  5
1ED9
102
{ACAD_REACTORS
330
1ED2
102
}
330
1ED2
100
DictionaryVariables
280
     0
  1
0
  0
DICTIONARYVAR
  5
1ED8
102
{ACAD_REACTORS
330
1ED2
102
}
330
1ED2
100
DictionaryVariables
280
     0
  1
127
  0
DICTIONARYVAR
  5
1EDB
102
{ACAD_REACTORS
330
1ED2
102
}
330
1ED2
100
DictionaryVariables
280
     0
  1
2
  0
DICTIONARY
  5
1F18
330
1EBE
100
AcDbDictionary
280
     1
281
     1
  3
ACAD_XREC_ROUNDTRIP
360
1F19
  0
DICTIONARY
  5
1F1A
330
1EBF
100
AcDbDictionary
280
     1
281
     1
  3
ACAD_XREC_ROUNDTRIP
360
1F1B
  0
DICTIONARY
  5
1F1C
330
1EC0
100
AcDbDictionary
280
     1
281
     1
  3
ACAD_XREC_ROUNDTRIP
360
1F1D
  0
DICTIONARY
  5
1E7C
330
1E7B
100
AcDbDictionary
280
     1
281
     1
  3
ACAD_XREC_ROUNDTRIP
360
1EE2
  3
BUMPTILE
360
1E7E
  3
DIFFUSETILE
360
1E7D
  3
OPACITYTILE
360
1E81
  3
REFLECTIONTILE
360
1E80
  3
REFRACTIONTILE
360
1E82
  3
SPECULARTILE
360
1E7F
  0
DICTIONARY
  5
1E74
330
1E73
100
AcDbDictionary
280
     1
281
     1
  3
ACAD_XREC_ROUNDTRIP
360
1EE1
  3
BUMPTILE
360
1E76
  3
DIFFUSETILE
360
1E75
  3
OPACITYTILE
360
1E79
  3
REFLECTIONTILE
360
1E78
  3
REFRACTIONTILE
360
1E7A
  3
SPECULARTILE
360
1E77
  0
DICTIONARY
  5
1E84
330
1E83
100
AcDbDictionary
280
     1
281
     1
  3
ACAD_XREC_ROUNDTRIP
360
1EE3
  3
BUMPTILE
360
1E86
  3
DIFFUSETILE
360
1E85
  3
OPACITYTILE
360
1E89
  3
REFLECTIONTILE
360
1E88
  3
REFRACTIONTILE
360
1E8A
  3
SPECULARTILE
360
1E87
  0
DICTIONARY
  5
1F16
330
1EBC
100
AcDbDictionary
280
     1
281
     1
  3
ACAD_XREC_ROUNDTRIP
360
1F17
  0
DICTIONARY
  5
1EDD
330
1EA6
100
AcDbDictionary
280
     1
281
     1
  3
ACAD_ROUNDTRIP_2008_TABLESTYLE_CELLSTYLEMAP
360
1EDE
  3
ACAD_XREC_ROUNDTRIP
360
1F14
  0
DICTIONARY
  5
1EEE
330
1E91
100
AcDbDictionary
280
     1
281
     1
  3
ACAD_XREC_ROUNDTRIP
360
1EEF
  0
DICTIONARY
  5
1EEC
330
1E90
100
AcDbDictionary
280
     1
281
     1
  3
ACAD_XREC_ROUNDTRIP
360
1EED
  0
DICTIONARY
  5
1EFA
330
1E97
100
AcDbDictionary
280
     1
281
     1
  3
ACAD_XREC_ROUNDTRIP
360
1EFB
  0
DICTIONARY
  5
1F02
330
1E9B
100
AcDbDictionary
280
     1
281
     1
  3
ACAD_XREC_ROUNDTRIP
360
1F03
  0
DICTIONARY
  5
1EF4
330
1E94
100
AcDbDictionary
280
     1
281
     1
  3
ACAD_XREC_ROUNDTRIP
360
1EF5
  0
DICTIONARY
  5
1EF8
330
1E96
100
AcDbDictionary
280
     1
281
     1
  3
ACAD_XREC_ROUNDTRIP
360
1EF9
  0
DICTIONARY
  5
1F12
330
1EA3
100
AcDbDictionary
280
     1
281
     1
  3
ACAD_XREC_ROUNDTRIP
360
1F13
  0
DICTIONARY
  5
1F00
330
1E9A
100
AcDbDictionary
280
     1
281
     1
  3
ACAD_XREC_ROUNDTRIP
360
1F01
  0
DICTIONARY
  5
1EE4
330
1E8C
100
AcDbDictionary
280
     1
281
     1
  3
ACAD_XREC_ROUNDTRIP
360
1EE5
  0
DICTIONARY
  5
1EE6
330
1E8D
100
AcDbDictionary
280
     1
281
     1
  3
ACAD_XREC_ROUNDTRIP
360
1EE7
  0
DICTIONARY
  5
1EE8
330
1E8E
100
AcDbDictionary
280
     1
281
     1
  3
ACAD_XREC_ROUNDTRIP
360
1EE9
  0
DICTIONARY
  5
1EEA
330
1E8F
100
AcDbDictionary
280
     1
281
     1
  3
ACAD_XREC_ROUNDTRIP
360
1EEB
  0
DICTIONARY
  5
1EF2
330
1E93
100
AcDbDictionary
280
     1
281
     1
  3
ACAD_XREC_ROUNDTRIP
360
1EF3
  0
DICTIONARY
  5
1F0E
330
1EA1
100
AcDbDictionary
280
     1
281
     1
  3
ACAD_XREC_ROUNDTRIP
360
1F0F
  0
DICTIONARY
  5
1EFE
330
1E99
100
AcDbDictionary
280
     1
281
     1
  3
ACAD_XREC_ROUNDTRIP
360
1EFF
  0
DICTIONARY
  5
1F10
330
1EA2
100
AcDbDictionary
280
     1
281
     1
  3
ACAD_XREC_ROUNDTRIP
360
1F11
  0
DICTIONARY
  5
1EF6
330
1E95
100
AcDbDictionary
280
     1
281
     1
  3
ACAD_XREC_ROUNDTRIP
360
1EF7
  0
DICTIONARY
  5
1F0C
330
1EA0
100
AcDbDictionary
280
     1
281
     1
  3
ACAD_XREC_ROUNDTRIP
360
1F0D
  0
DICTIONARY
  5
1F0A
330
1E9F
100
AcDbDictionary
280
     1
281
     1
  3
ACAD_XREC_ROUNDTRIP
360
1F0B
  0
DICTIONARY
  5
1F04
330
1E9C
100
AcDbDictionary
280
     1
281
     1
  3
ACAD_XREC_ROUNDTRIP
360
1F05
  0
DICTIONARY
  5
1F06
330
1E9D
100
AcDbDictionary
280
     1
281
     1
  3
ACAD_XREC_ROUNDTRIP
360
1F07
  0
DICTIONARY
  5
1EFC
330
1E98
100
AcDbDictionary
280
     1
281
     1
  3
ACAD_XREC_ROUNDTRIP
360
1EFD
  0
DICTIONARY
  5
1EF0
330
1E92
100
AcDbDictionary
280
     1
281
     1
  3
ACAD_XREC_ROUNDTRIP
360
1EF1
  0
DICTIONARY
  5
1F08
330
1E9E
100
AcDbDictionary
280
     1
281
     1
  3
ACAD_XREC_ROUNDTRIP
360
1F09
  0
XRECORD
  5
1F19
102
{ACAD_REACTORS
330
1F18
102
}
330
1F18
100
AcDbXrecord
280
     1
102
DISPLAYNAME
  1
Imperial24
102
FLAGS
 90
        0
  0
XRECORD
  5
1F1B
102
{ACAD_REACTORS
330
1F1A
102
}
330
1F1A
100
AcDbXrecord
280
     1
102
SHADEPLOT
 70
     0
102
SHADEPLOTRESLEVEL
 70
     2
102
SHADEPLOTCUSTOMDPI
 70
   300
  0
XRECORD
  5
1F1D
102
{ACAD_REACTORS
330
1F1C
102
}
330
1F1C
100
AcDbXrecord
280
     1
102
SHADEPLOT
 70
     0
102
SHADEPLOTRESLEVEL
 70
     2
102
SHADEPLOTCUSTOMDPI
 70
   300
  0
XRECORD
  5
1EE2
102
{ACAD_REACTORS
330
1E7C
102
}
330
1E7C
100
AcDbXrecord
280
     1
102
MATERIAL
148
0.0
149
0.0
149
0.0
 93
        0
 94
      127
282
     0
 72
     0
 77
     0
171
     0
175
     0
179
     0
273
     0
  0
XRECORD
  5
1E7E
102
{ACAD_REACTORS
330
1E7C
102
}
330
1E7C
100
AcDbXrecord
280
     1
270
     1
271
     1
  0
XRECORD
  5
1E7D
102
{ACAD_REACTORS
330
1E7C
102
}
330
1E7C
100
AcDbXrecord
280
     1
270
     1
271
     1
  0
XRECORD
  5
1E81
102
{ACAD_REACTORS
330
1E7C
102
}
330
1E7C
100
AcDbXrecord
280
     1
270
     1
271
     1
  0
XRECORD
  5
1E80
102
{ACAD_REACTORS
330
1E7C
102
}
330
1E7C
100
AcDbXrecord
280
     1
270
     1
271
     1
  0
XRECORD
  5
1E82
102
{ACAD_REACTORS
330
1E7C
102
}
330
1E7C
100
AcDbXrecord
280
     1
270
     1
271
     1
  0
XRECORD
  5
1E7F
102
{ACAD_REACTORS
330
1E7C
102
}
330
1E7C
100
AcDbXrecord
280
     1
270
     1
271
     1
  0
XRECORD
  5
1EE1
102
{ACAD_REACTORS
330
1E74
102
}
330
1E74
100
AcDbXrecord
280
     1
102
MATERIAL
148
0.0
149
0.0
149
0.0
 93
        0
 94
      127
282
     0
 72
     0
 77
     0
171
     0
175
     0
179
     0
273
     0
  0
XRECORD
  5
1E76
102
{ACAD_REACTORS
330
1E74
102
}
330
1E74
100
AcDbXrecord
280
     1
270
     1
271
     1
  0
XRECORD
  5
1E75
102
{ACAD_REACTORS
330
1E74
102
}
330
1E74
100
AcDbXrecord
280
     1
270
     1
271
     1
  0
XRECORD
  5
1E79
102
{ACAD_REACTORS
330
1E74
102
}
330
1E74
100
AcDbXrecord
280
     1
270
     1
271
     1
  0
XRECORD
  5
1E78
102
{ACAD_REACTORS
330
1E74
102
}
330
1E74
100
AcDbXrecord
280
     1
270
     1
271
     1
  0
XRECORD
  5
1E7A
102
{ACAD_REACTORS
330
1E74
102
}
330
1E74
100
AcDbXrecord
280
     1
270
     1
271
     1
  0
XRECORD
  5
1E77
102
{ACAD_REACTORS
330
1E74
102
}
330
1E74
100
AcDbXrecord
280
     1
270
     1
271
     1
  0
XRECORD
  5
1EE3
102
{ACAD_REACTORS
330
1E84
102
}
330
1E84
100
AcDbXrecord
280
     1
102
MATERIAL
148
0.0
149
0.0
149
0.0
 93
        0
 94
      127
282
     0
 72
     0
 77
     0
171
     0
175
     0
179
     0
273
     0
  0
XRECORD
  5
1E86
102
{ACAD_REACTORS
330
1E84
102
}
330
1E84
100
AcDbXrecord
280
     1
270
     1
271
     1
  0
XRECORD
  5
1E85
102
{ACAD_REACTORS
330
1E84
102
}
330
1E84
100
AcDbXrecord
280
     1
270
     1
271
     1
  0
XRECORD
  5
1E89
102
{ACAD_REACTORS
330
1E84
102
}
330
1E84
100
AcDbXrecord
280
     1
270
     1
271
     1
  0
XRECORD
  5
1E88
102
{ACAD_REACTORS
330
1E84
102
}
330
1E84
100
AcDbXrecord
280
     1
270
     1
271
     1
  0
XRECORD
  5
1E8A
102
{ACAD_REACTORS
330
1E84
102
}
330
1E84
100
AcDbXrecord
280
     1
270
     1
271
     1
  0
XRECORD
  5
1E87
102
{ACAD_REACTORS
330
1E84
102
}
330
1E84
100
AcDbXrecord
280
     1
270
     1
271
     1
  0
XRECORD
  5
1F17
102
{ACAD_REACTORS
330
1F16
102
}
330
1F16
100
AcDbXrecord
280
     1
102
DISPLAYNAME
  1
Imperial24
102
FLAGS
 90
        0
  0
CELLSTYLEMAP
  5
1EDE
102
{ACAD_REACTORS
330
1EDD
102
}
330
1EDD
100
AcDbCellStyleMap
 90
        3
300
CELLSTYLE
  1
TABLEFORMAT_BEGIN
 90
        5
170
     1
 91
        0
 92
    32768
 62
   257
 93
        1
300
CONTENTFORMAT
  1
CONTENTFORMAT_BEGIN
 90
        0
 91
        0
 92
      512
 93
        0
300

 40
0.0
140
1.0
 94
        5
 62
     0
340
F
144
0.25
309
CONTENTFORMAT_END
171
     0
 94
        0
309
TABLEFORMAT_END
  1
CELLSTYLE_BEGIN
 90
        1
 91
        1
300
_TITLE
309
CELLSTYLE_END
300
CELLSTYLE
  1
TABLEFORMAT_BEGIN
 90
        5
170
     1
 91
        0
 92
        0
 62
   257
 93
        1
300
CONTENTFORMAT
  1
CONTENTFORMAT_BEGIN
 90
        0
 91
        0
 92
      512
 93
        0
300

 40
0.0
140
1.0
 94
        5
 62
     0
340
F
144
0.18
309
CONTENTFORMAT_END
171
     0
 94
        0
309
TABLEFORMAT_END
  1
CELLSTYLE_BEGIN
 90
        2
 91
        1
300
_HEADER
309
CELLSTYLE_END
300
CELLSTYLE
  1
TABLEFORMAT_BEGIN
 90
        5
170
     1
 91
        0
 92
        0
 62
   257
 93
        1
300
CONTENTFORMAT
  1
CONTENTFORMAT_BEGIN
 90
        0
 91
        0
 92
      512
 93
        0
300

 40
0.0
140
1.0
 94
        2
 62
     0
340
F
144
0.18
309
CONTENTFORMAT_END
171
     0
 94
        0
309
TABLEFORMAT_END
  1
CELLSTYLE_BEGIN
 90
        3
 91
        2
300
_DATA
309
CELLSTYLE_END
  0
XRECORD
  5
1F14
102
{ACAD_REACTORS
330
1EDD
102
}
330
1EDD
100
AcDbXrecord
280
     1
102
ACAD_ROUNDTRIP_PRE2007_TABLESTYLE
 90
      512
 91
        0
  1

 92
      512
 93
        0
  2

 94
      512
 95
        0
  3

  0
XRECORD
  5
1EEF
102
{ACAD_REACTORS
330
1EEE
102
}
330
1EEE
100
AcDbXrecord
280
     1
102
RTVSPost2010Prop28
280
     1
102
RTVSPost2010PropOp28
 70
     1
102
RTVSPost2010Prop29
280
     1
102
RTVSPost2010PropOp29
 70
     1
102
RTVSPost2010Prop30
280
     0
102
RTVSPost2010PropOp30
 70
     1
102
RTVSPost2010Prop31
280
     0
102
RTVSPost2010PropOp31
 70
     1
102
RTVSPost2010Prop32
280
     0
102
RTVSPost2010PropOp32
 70
     1
102
RTVSPost2010Prop33
280
     0
102
RTVSPost2010PropOp33
 70
     1
102
RTVSPost2010Prop34
280
     0
102
RTVSPost2010PropOp34
 70
     1
102
RTVSPost2010Prop35
280
     0
102
RTVSPost2010PropOp35
 70
     1
102
RTVSPost2010Prop36
280
     0
102
RTVSPost2010PropOp36
 70
     1
102
RTVSPost2010Prop37
 90
       50
102
RTVSPost2010PropOp37
 70
     1
102
RTVSPost2010Prop38
140
0.0
102
RTVSPost2010PropOp38
 70
     1
102
RTVSPost2010Prop39
140
1.0
102
RTVSPost2010PropOp39
 70
     1
102
RTVSPost2010Prop40
 90
        0
102
RTVSPost2010PropOp40
 70
     1
102
RTVSPost2010Prop41ColorIndex
 90
       18
102
RTVSPost2010Prop41ColorRGB
 90
        0
102
RTVSPost2010PropOp41
 70
     1
102
RTVSPost2010Prop42
 90
       50
102
RTVSPost2010PropOp42
 70
     1
102
RTVSPost2010Prop43
 90
        3
102
RTVSPost2010PropOp43
 70
     1
102
RTVSPost2010Prop44ColorIndex
 90
        5
102
RTVSPost2010Prop44ColorRGB
 90
      255
102
RTVSPost2010PropOp44
 70
     1
102
RTVSPost2010Prop45
280
     0
102
RTVSPost2010PropOp45
 70
     1
102
RTVSPost2010Prop46
 90
       50
102
RTVSPost2010PropOp46
 70
     1
102
RTVSPost2010Prop47
 90
       50
102
RTVSPost2010PropOp47
 70
     1
102
RTVSPost2010Prop48
 90
       50
102
RTVSPost2010PropOp48
 70
     1
102
RTVSPost2010Prop49
280
     0
102
RTVSPost2010PropOp49
 70
     1
102
RTVSPost2010Prop50
 90
       50
102
RTVSPost2010PropOp50
 70
     1
102
RTVSPost2010Prop51ColorIndex
 90
      256
102
RTVSPost2010Prop51ColorRGB
 90
-16777216
102
RTVSPost2010PropOp51
 70
     0
102
RTVSPost2010Prop52
140
1.0
102
RTVSPost2010PropOp52
 70
     0
102
RTVSPost2010Prop53
 90
        2
102
RTVSPost2010PropOp53
 70
     1
102
RTVSPost2010Prop54
  1
strokes_ogs.tif
102
RTVSPost2010PropOp54
 70
     1
102
RTVSPost2010Prop55
280
     0
102
RTVSPost2010PropOp55
 70
     1
102
RTVSPost2010Prop56
140
1.0
102
RTVSPost2010PropOp56
 70
     1
102
RTVSPost2010Prop57
140
1.0
102
RTVSPost2010PropOp57
 70
     1
102
RTVSPropertyOp0
 70
     1
102
RTVSPropertyOp1
 70
     1
102
RTVSPropertyOp2
 70
     1
102
RTVSPropertyOp3
 70
     1
102
RTVSPropertyOp4
 70
     1
102
RTVSPropertyOp5
 70
     1
102
RTVSPropertyOp6
 70
     1
102
RTVSPropertyOp7
 70
     1
102
RTVSPropertyOp8
 70
     1
102
RTVSPropertyOp9
 70
     1
102
RTVSPropertyOp10
 70
     1
102
RTVSPropertyOp11
 70
     1
102
RTVSPropertyOp12
 70
     1
102
RTVSPropertyOp13
 70
     1
102
RTVSPropertyOp14
 70
     1
102
RTVSPropertyOp15
 70
     1
102
RTVSPropertyOp16
 70
     1
102
RTVSPropertyOp17
 70
     1
102
RTVSPropertyOp18
 70
     1
102
RTVSPropertyOp19
 70
     1
102
RTVSPropertyOp20
 70
     1
102
RTVSPropertyOp21
 70
     1
102
RTVSPropertyOp22
 70
     1
102
RTVSPropertyOp23
 70
     1
102
RTVSPropertyOp24
 70
     1
102
RTVSPropertyOp25
 70
     1
102
RTVSPropertyOp26
 70
     1
102
RTVSPropertyOp27
 70
     1
102
RTVSPropertyOp28
 70
     1
102
RTVSPropertyOp29
 70
     1
102
RTVSPropertyOp30
 70
     1
102
RTVSPropertyOp31
 70
     1
102
RTVSPropertyOp32
 70
     1
102
RTVSPropertyOp33
 70
     1
102
RTVSPropertyOp34
 70
     1
102
RTVSPropertyOp35
 70
     1
102
RTVSPropertyOp36
 70
     1
102
RTVSPropertyOp37
 70
     1
102
RTVSPropertyOp38
 70
     1
102
RTVSPropertyOp39
 70
     1
102
RTVSPropertyOp40
 70
     1
102
RTVSPropertyOp41
 70
     1
102
RTVSPropertyOp42
 70
     1
102
RTVSPropertyOp43
 70
     1
102
RTVSPropertyOp44
 70
     1
102
RTVSPropertyOp45
 70
     1
102
RTVSPropertyOp46
 70
     1
102
RTVSPropertyOp47
 70
     1
102
RTVSPropertyOp48
 70
     1
102
RTVSPropertyOp49
 70
     1
102
RTVSPropertyOp50
 70
     1
102
RTVSPropertyOp51
 70
     0
102
RTVSPropertyOp52
 70
     0
102
RTVSPropertyOp53
 70
     1
102
RTVSPropertyOp54
 70
     1
102
RTVSPropertyOp55
 70
     1
102
RTVSPropertyOp56
 70
     1
102
RTVSPropertyOp57
 70
     1
102
RTVSPropertyOp58
 70
     1
102
RTVSPropertyOp59
 70
     1
102
RTVSPropertyOp60
 70
     1
102
RTVSPropertyOp61
 70
     1
102
RTVSPropertyOp62
 70
     1
  0
XRECORD
  5
1EED
102
{ACAD_REACTORS
330
1EEC
102
}
330
1EEC
100
AcDbXrecord
280
     1
102
RTVSPost2010Prop28
280
     0
102
RTVSPost2010PropOp28
 70
     1
102
RTVSPost2010Prop29
280
     1
102
RTVSPost2010PropOp29
 70
     1
102
RTVSPost2010Prop30
280
     1
102
RTVSPost2010PropOp30
 70
     1
102
RTVSPost2010Prop31
280
     0
102
RTVSPost2010PropOp31
 70
     1
102
RTVSPost2010Prop32
280
     0
102
RTVSPost2010PropOp32
 70
     1
102
RTVSPost2010Prop33
280
     0
102
RTVSPost2010PropOp33
 70
     1
102
RTVSPost2010Prop34
280
     0
102
RTVSPost2010PropOp34
 70
     1
102
RTVSPost2010Prop35
280
     0
102
RTVSPost2010PropOp35
 70
     1
102
RTVSPost2010Prop36
280
     0
102
RTVSPost2010PropOp36
 70
     1
102
RTVSPost2010Prop37
 90
       50
102
RTVSPost2010PropOp37
 70
     1
102
RTVSPost2010Prop38
140
0.0
102
RTVSPost2010PropOp38
 70
     1
102
RTVSPost2010Prop39
140
1.0
102
RTVSPost2010PropOp39
 70
     1
102
RTVSPost2010Prop40
 90
        0
102
RTVSPost2010PropOp40
 70
     1
102
RTVSPost2010Prop41ColorIndex
 90
       18
102
RTVSPost2010Prop41ColorRGB
 90
        0
102
RTVSPost2010PropOp41
 70
     1
102
RTVSPost2010Prop42
 90
       50
102
RTVSPost2010PropOp42
 70
     1
102
RTVSPost2010Prop43
 90
        3
102
RTVSPost2010PropOp43
 70
     1
102
RTVSPost2010Prop44ColorIndex
 90
        5
102
RTVSPost2010Prop44ColorRGB
 90
      255
102
RTVSPost2010PropOp44
 70
     1
102
RTVSPost2010Prop45
280
     0
102
RTVSPost2010PropOp45
 70
     1
102
RTVSPost2010Prop46
 90
       50
102
RTVSPost2010PropOp46
 70
     1
102
RTVSPost2010Prop47
 90
       50
102
RTVSPost2010PropOp47
 70
     1
102
RTVSPost2010Prop48
 90
       50
102
RTVSPost2010PropOp48
 70
     1
102
RTVSPost2010Prop49
280
     0
102
RTVSPost2010PropOp49
 70
     1
102
RTVSPost2010Prop50
 90
       50
102
RTVSPost2010PropOp50
 70
     1
102
RTVSPost2010Prop51ColorIndex
 90
      256
102
RTVSPost2010Prop51ColorRGB
 90
-16777216
102
RTVSPost2010PropOp51
 70
     0
102
RTVSPost2010Prop52
140
1.0
102
RTVSPost2010PropOp52
 70
     0
102
RTVSPost2010Prop53
 90
        2
102
RTVSPost2010PropOp53
 70
     1
102
RTVSPost2010Prop54
  1
strokes_ogs.tif
102
RTVSPost2010PropOp54
 70
     1
102
RTVSPost2010Prop55
280
     0
102
RTVSPost2010PropOp55
 70
     1
102
RTVSPost2010Prop56
140
1.0
102
RTVSPost2010PropOp56
 70
     1
102
RTVSPost2010Prop57
140
1.0
102
RTVSPost2010PropOp57
 70
     1
102
RTVSPropertyOp0
 70
     1
102
RTVSPropertyOp1
 70
     1
102
RTVSPropertyOp2
 70
     1
102
RTVSPropertyOp3
 70
     1
102
RTVSPropertyOp4
 70
     1
102
RTVSPropertyOp5
 70
     1
102
RTVSPropertyOp6
 70
     1
102
RTVSPropertyOp7
 70
     1
102
RTVSPropertyOp8
 70
     1
102
RTVSPropertyOp9
 70
     1
102
RTVSPropertyOp10
 70
     1
102
RTVSPropertyOp11
 70
     1
102
RTVSPropertyOp12
 70
     1
102
RTVSPropertyOp13
 70
     1
102
RTVSPropertyOp14
 70
     1
102
RTVSPropertyOp15
 70
     1
102
RTVSPropertyOp16
 70
     1
102
RTVSPropertyOp17
 70
     1
102
RTVSPropertyOp18
 70
     1
102
RTVSPropertyOp19
 70
     1
102
RTVSPropertyOp20
 70
     1
102
RTVSPropertyOp21
 70
     1
102
RTVSPropertyOp22
 70
     1
102
RTVSPropertyOp23
 70
     1
102
RTVSPropertyOp24
 70
     1
102
RTVSPropertyOp25
 70
     1
102
RTVSPropertyOp26
 70
     1
102
RTVSPropertyOp27
 70
     1
102
RTVSPropertyOp28
 70
     1
102
RTVSPropertyOp29
 70
     1
102
RTVSPropertyOp30
 70
     1
102
RTVSPropertyOp31
 70
     1
102
RTVSPropertyOp32
 70
     1
102
RTVSPropertyOp33
 70
     1
102
RTVSPropertyOp34
 70
     1
102
RTVSPropertyOp35
 70
     1
102
RTVSPropertyOp36
 70
     1
102
RTVSPropertyOp37
 70
     1
102
RTVSPropertyOp38
 70
     1
102
RTVSPropertyOp39
 70
     1
102
RTVSPropertyOp40
 70
     1
102
RTVSPropertyOp41
 70
     1
102
RTVSPropertyOp42
 70
     1
102
RTVSPropertyOp43
 70
     1
102
RTVSPropertyOp44
 70
     1
102
RTVSPropertyOp45
 70
     1
102
RTVSPropertyOp46
 70
     1
102
RTVSPropertyOp47
 70
     1
102
RTVSPropertyOp48
 70
     1
102
RTVSPropertyOp49
 70
     1
102
RTVSPropertyOp50
 70
     1
102
RTVSPropertyOp51
 70
     0
102
RTVSPropertyOp52
 70
     0
102
RTVSPropertyOp53
 70
     1
102
RTVSPropertyOp54
 70
     1
102
RTVSPropertyOp55
 70
     1
102
RTVSPropertyOp56
 70
     1
102
RTVSPropertyOp57
 70
     1
102
RTVSPropertyOp58
 70
     1
102
RTVSPropertyOp59
 70
     1
102
RTVSPropertyOp60
 70
     1
102
RTVSPropertyOp61
 70
     1
102
RTVSPropertyOp62
 70
     1
  0
XRECORD
  5
1EFB
102
{ACAD_REACTORS
330
1EFA
102
}
330
1EFA
100
AcDbXrecord
280
     1
102
RTVSPost2010Prop28
280
     0
102
RTVSPost2010PropOp28
 70
     1
102
RTVSPost2010Prop29
280
     1
102
RTVSPost2010PropOp29
 70
     1
102
RTVSPost2010Prop30
280
     1
102
RTVSPost2010PropOp30
 70
     1
102
RTVSPost2010Prop31
280
     0
102
RTVSPost2010PropOp31
 70
     1
102
RTVSPost2010Prop32
280
     0
102
RTVSPost2010PropOp32
 70
     1
102
RTVSPost2010Prop33
280
     0
102
RTVSPost2010PropOp33
 70
     1
102
RTVSPost2010Prop34
280
     0
102
RTVSPost2010PropOp34
 70
     1
102
RTVSPost2010Prop35
280
     0
102
RTVSPost2010PropOp35
 70
     1
102
RTVSPost2010Prop36
280
     0
102
RTVSPost2010PropOp36
 70
     1
102
RTVSPost2010Prop37
 90
       50
102
RTVSPost2010PropOp37
 70
     1
102
RTVSPost2010Prop38
140
0.0
102
RTVSPost2010PropOp38
 70
     1
102
RTVSPost2010Prop39
140
1.0
102
RTVSPost2010PropOp39
 70
     1
102
RTVSPost2010Prop40
 90
        0
102
RTVSPost2010PropOp40
 70
     1
102
RTVSPost2010Prop41ColorIndex
 90
       18
102
RTVSPost2010Prop41ColorRGB
 90
        0
102
RTVSPost2010PropOp41
 70
     1
102
RTVSPost2010Prop42
 90
       50
102
RTVSPost2010PropOp42
 70
     1
102
RTVSPost2010Prop43
 90
        3
102
RTVSPost2010PropOp43
 70
     1
102
RTVSPost2010Prop44ColorIndex
 90
        5
102
RTVSPost2010Prop44ColorRGB
 90
      255
102
RTVSPost2010PropOp44
 70
     1
102
RTVSPost2010Prop45
280
     0
102
RTVSPost2010PropOp45
 70
     1
102
RTVSPost2010Prop46
 90
       50
102
RTVSPost2010PropOp46
 70
     1
102
RTVSPost2010Prop47
 90
       50
102
RTVSPost2010PropOp47
 70
     1
102
RTVSPost2010Prop48
 90
       50
102
RTVSPost2010PropOp48
 70
     1
102
RTVSPost2010Prop49
280
     0
102
RTVSPost2010PropOp49
 70
     1
102
RTVSPost2010Prop50
 90
       50
102
RTVSPost2010PropOp50
 70
     1
102
RTVSPost2010Prop51ColorIndex
 90
      256
102
RTVSPost2010Prop51ColorRGB
 90
-16777216
102
RTVSPost2010PropOp51
 70
     0
102
RTVSPost2010Prop52
140
1.0
102
RTVSPost2010PropOp52
 70
     0
102
RTVSPost2010Prop53
 90
        2
102
RTVSPost2010PropOp53
 70
     1
102
RTVSPost2010Prop54
  1
strokes_ogs.tif
102
RTVSPost2010PropOp54
 70
     1
102
RTVSPost2010Prop55
280
     0
102
RTVSPost2010PropOp55
 70
     1
102
RTVSPost2010Prop56
140
1.0
102
RTVSPost2010PropOp56
 70
     1
102
RTVSPost2010Prop57
140
1.0
102
RTVSPost2010PropOp57
 70
     1
102
RTVSPropertyOp0
 70
     1
102
RTVSPropertyOp1
 70
     1
102
RTVSPropertyOp2
 70
     1
102
RTVSPropertyOp3
 70
     1
102
RTVSPropertyOp4
 70
     1
102
RTVSPropertyOp5
 70
     1
102
RTVSPropertyOp6
 70
     1
102
RTVSPropertyOp7
 70
     1
102
RTVSPropertyOp8
 70
     1
102
RTVSPropertyOp9
 70
     1
102
RTVSPropertyOp10
 70
     1
102
RTVSPropertyOp11
 70
     1
102
RTVSPropertyOp12
 70
     1
102
RTVSPropertyOp13
 70
     1
102
RTVSPropertyOp14
 70
     1
102
RTVSPropertyOp15
 70
     1
102
RTVSPropertyOp16
 70
     1
102
RTVSPropertyOp17
 70
     1
102
RTVSPropertyOp18
 70
     1
102
RTVSPropertyOp19
 70
     1
102
RTVSPropertyOp20
 70
     1
102
RTVSPropertyOp21
 70
     1
102
RTVSPropertyOp22
 70
     1
102
RTVSPropertyOp23
 70
     1
102
RTVSPropertyOp24
 70
     1
102
RTVSPropertyOp25
 70
     1
102
RTVSPropertyOp26
 70
     1
102
RTVSPropertyOp27
 70
     1
102
RTVSPropertyOp28
 70
     1
102
RTVSPropertyOp29
 70
     1
102
RTVSPropertyOp30
 70
     1
102
RTVSPropertyOp31
 70
     1
102
RTVSPropertyOp32
 70
     1
102
RTVSPropertyOp33
 70
     1
102
RTVSPropertyOp34
 70
     1
102
RTVSPropertyOp35
 70
     1
102
RTVSPropertyOp36
 70
     1
102
RTVSPropertyOp37
 70
     1
102
RTVSPropertyOp38
 70
     1
102
RTVSPropertyOp39
 70
     1
102
RTVSPropertyOp40
 70
     1
102
RTVSPropertyOp41
 70
     1
102
RTVSPropertyOp42
 70
     1
102
RTVSPropertyOp43
 70
     1
102
RTVSPropertyOp44
 70
     1
102
RTVSPropertyOp45
 70
     1
102
RTVSPropertyOp46
 70
     1
102
RTVSPropertyOp47
 70
     1
102
RTVSPropertyOp48
 70
     1
102
RTVSPropertyOp49
 70
     1
102
RTVSPropertyOp50
 70
     1
102
RTVSPropertyOp51
 70
     0
102
RTVSPropertyOp52
 70
     0
102
RTVSPropertyOp53
 70
     1
102
RTVSPropertyOp54
 70
     1
102
RTVSPropertyOp55
 70
     1
102
RTVSPropertyOp56
 70
     1
102
RTVSPropertyOp57
 70
     1
102
RTVSPropertyOp58
 70
     1
102
RTVSPropertyOp59
 70
     1
102
RTVSPropertyOp60
 70
     1
102
RTVSPropertyOp61
 70
     1
102
RTVSPropertyOp62
 70
     1
  0
XRECORD
  5
1F03
102
{ACAD_REACTORS
330
1F02
102
}
330
1F02
100
AcDbXrecord
280
     1
102
RTVSPost2010Prop28
280
     0
102
RTVSPost2010PropOp28
 70
     1
102
RTVSPost2010Prop29
280
     1
102
RTVSPost2010PropOp29
 70
     1
102
RTVSPost2010Prop30
280
     1
102
RTVSPost2010PropOp30
 70
     1
102
RTVSPost2010Prop31
280
     0
102
RTVSPost2010PropOp31
 70
     1
102
RTVSPost2010Prop32
280
     0
102
RTVSPost2010PropOp32
 70
     1
102
RTVSPost2010Prop33
280
     0
102
RTVSPost2010PropOp33
 70
     1
102
RTVSPost2010Prop34
280
     0
102
RTVSPost2010PropOp34
 70
     1
102
RTVSPost2010Prop35
280
     0
102
RTVSPost2010PropOp35
 70
     1
102
RTVSPost2010Prop36
280
     0
102
RTVSPost2010PropOp36
 70
     1
102
RTVSPost2010Prop37
 90
       50
102
RTVSPost2010PropOp37
 70
     1
102
RTVSPost2010Prop38
140
0.0
102
RTVSPost2010PropOp38
 70
     1
102
RTVSPost2010Prop39
140
1.0
102
RTVSPost2010PropOp39
 70
     1
102
RTVSPost2010Prop40
 90
        0
102
RTVSPost2010PropOp40
 70
     1
102
RTVSPost2010Prop41ColorIndex
 90
       18
102
RTVSPost2010Prop41ColorRGB
 90
        0
102
RTVSPost2010PropOp41
 70
     1
102
RTVSPost2010Prop42
 90
       50
102
RTVSPost2010PropOp42
 70
     1
102
RTVSPost2010Prop43
 90
        3
102
RTVSPost2010PropOp43
 70
     1
102
RTVSPost2010Prop44ColorIndex
 90
        5
102
RTVSPost2010Prop44ColorRGB
 90
      255
102
RTVSPost2010PropOp44
 70
     1
102
RTVSPost2010Prop45
280
     0
102
RTVSPost2010PropOp45
 70
     1
102
RTVSPost2010Prop46
 90
       50
102
RTVSPost2010PropOp46
 70
     1
102
RTVSPost2010Prop47
 90
       50
102
RTVSPost2010PropOp47
 70
     1
102
RTVSPost2010Prop48
 90
       50
102
RTVSPost2010PropOp48
 70
     1
102
RTVSPost2010Prop49
280
     0
102
RTVSPost2010PropOp49
 70
     1
102
RTVSPost2010Prop50
 90
       50
102
RTVSPost2010PropOp50
 70
     1
102
RTVSPost2010Prop51ColorIndex
 90
      256
102
RTVSPost2010Prop51ColorRGB
 90
-16777216
102
RTVSPost2010PropOp51
 70
     0
102
RTVSPost2010Prop52
140
1.0
102
RTVSPost2010PropOp52
 70
     0
102
RTVSPost2010Prop53
 90
        2
102
RTVSPost2010PropOp53
 70
     1
102
RTVSPost2010Prop54
  1
strokes_ogs.tif
102
RTVSPost2010PropOp54
 70
     1
102
RTVSPost2010Prop55
280
     0
102
RTVSPost2010PropOp55
 70
     1
102
RTVSPost2010Prop56
140
1.0
102
RTVSPost2010PropOp56
 70
     1
102
RTVSPost2010Prop57
140
1.0
102
RTVSPost2010PropOp57
 70
     1
102
RTVSPropertyOp0
 70
     1
102
RTVSPropertyOp1
 70
     1
102
RTVSPropertyOp2
 70
     1
102
RTVSPropertyOp3
 70
     1
102
RTVSPropertyOp4
 70
     1
102
RTVSPropertyOp5
 70
     1
102
RTVSPropertyOp6
 70
     1
102
RTVSPropertyOp7
 70
     1
102
RTVSPropertyOp8
 70
     1
102
RTVSPropertyOp9
 70
     1
102
RTVSPropertyOp10
 70
     1
102
RTVSPropertyOp11
 70
     1
102
RTVSPropertyOp12
 70
     1
102
RTVSPropertyOp13
 70
     1
102
RTVSPropertyOp14
 70
     1
102
RTVSPropertyOp15
 70
     1
102
RTVSPropertyOp16
 70
     1
102
RTVSPropertyOp17
 70
     1
102
RTVSPropertyOp18
 70
     1
102
RTVSPropertyOp19
 70
     1
102
RTVSPropertyOp20
 70
     1
102
RTVSPropertyOp21
 70
     1
102
RTVSPropertyOp22
 70
     1
102
RTVSPropertyOp23
 70
     1
102
RTVSPropertyOp24
 70
     1
102
RTVSPropertyOp25
 70
     1
102
RTVSPropertyOp26
 70
     1
102
RTVSPropertyOp27
 70
     1
102
RTVSPropertyOp28
 70
     1
102
RTVSPropertyOp29
 70
     1
102
RTVSPropertyOp30
 70
     1
102
RTVSPropertyOp31
 70
     1
102
RTVSPropertyOp32
 70
     1
102
RTVSPropertyOp33
 70
     1
102
RTVSPropertyOp34
 70
     1
102
RTVSPropertyOp35
 70
     1
102
RTVSPropertyOp36
 70
     1
102
RTVSPropertyOp37
 70
     1
102
RTVSPropertyOp38
 70
     1
102
RTVSPropertyOp39
 70
     1
102
RTVSPropertyOp40
 70
     1
102
RTVSPropertyOp41
 70
     1
102
RTVSPropertyOp42
 70
     1
102
RTVSPropertyOp43
 70
     1
102
RTVSPropertyOp44
 70
     1
102
RTVSPropertyOp45
 70
     1
102
RTVSPropertyOp46
 70
     1
102
RTVSPropertyOp47
 70
     1
102
RTVSPropertyOp48
 70
     1
102
RTVSPropertyOp49
 70
     1
102
RTVSPropertyOp50
 70
     1
102
RTVSPropertyOp51
 70
     0
102
RTVSPropertyOp52
 70
     0
102
RTVSPropertyOp53
 70
     1
102
RTVSPropertyOp54
 70
     1
102
RTVSPropertyOp55
 70
     1
102
RTVSPropertyOp56
 70
     1
102
RTVSPropertyOp57
 70
     1
102
RTVSPropertyOp58
 70
     1
102
RTVSPropertyOp59
 70
     1
102
RTVSPropertyOp60
 70
     1
102
RTVSPropertyOp61
 70
     1
102
RTVSPropertyOp62
 70
     1
  0
XRECORD
  5
1EF5
102
{ACAD_REACTORS
330
1EF4
102
}
330
1EF4
100
AcDbXrecord
280
     1
102
RTVSPost2010Prop28
280
     0
102
RTVSPost2010PropOp28
 70
     1
102
RTVSPost2010Prop29
280
     1
102
RTVSPost2010PropOp29
 70
     1
102
RTVSPost2010Prop30
280
     1
102
RTVSPost2010PropOp30
 70
     1
102
RTVSPost2010Prop31
280
     0
102
RTVSPost2010PropOp31
 70
     1
102
RTVSPost2010Prop32
280
     0
102
RTVSPost2010PropOp32
 70
     1
102
RTVSPost2010Prop33
280
     0
102
RTVSPost2010PropOp33
 70
     1
102
RTVSPost2010Prop34
280
     0
102
RTVSPost2010PropOp34
 70
     1
102
RTVSPost2010Prop35
280
     0
102
RTVSPost2010PropOp35
 70
     1
102
RTVSPost2010Prop36
280
     0
102
RTVSPost2010PropOp36
 70
     1
102
RTVSPost2010Prop37
 90
       50
102
RTVSPost2010PropOp37
 70
     1
102
RTVSPost2010Prop38
140
0.0
102
RTVSPost2010PropOp38
 70
     1
102
RTVSPost2010Prop39
140
1.0
102
RTVSPost2010PropOp39
 70
     1
102
RTVSPost2010Prop40
 90
        0
102
RTVSPost2010PropOp40
 70
     1
102
RTVSPost2010Prop41ColorIndex
 90
       18
102
RTVSPost2010Prop41ColorRGB
 90
        0
102
RTVSPost2010PropOp41
 70
     1
102
RTVSPost2010Prop42
 90
       50
102
RTVSPost2010PropOp42
 70
     1
102
RTVSPost2010Prop43
 90
        3
102
RTVSPost2010PropOp43
 70
     1
102
RTVSPost2010Prop44ColorIndex
 90
        5
102
RTVSPost2010Prop44ColorRGB
 90
      255
102
RTVSPost2010PropOp44
 70
     1
102
RTVSPost2010Prop45
280
     0
102
RTVSPost2010PropOp45
 70
     1
102
RTVSPost2010Prop46
 90
       50
102
RTVSPost2010PropOp46
 70
     1
102
RTVSPost2010Prop47
 90
       50
102
RTVSPost2010PropOp47
 70
     1
102
RTVSPost2010Prop48
 90
       50
102
RTVSPost2010PropOp48
 70
     1
102
RTVSPost2010Prop49
280
     0
102
RTVSPost2010PropOp49
 70
     1
102
RTVSPost2010Prop50
 90
       50
102
RTVSPost2010PropOp50
 70
     1
102
RTVSPost2010Prop51ColorIndex
 90
      256
102
RTVSPost2010Prop51ColorRGB
 90
-16777216
102
RTVSPost2010PropOp51
 70
     0
102
RTVSPost2010Prop52
140
1.0
102
RTVSPost2010PropOp52
 70
     0
102
RTVSPost2010Prop53
 90
        2
102
RTVSPost2010PropOp53
 70
     1
102
RTVSPost2010Prop54
  1
strokes_ogs.tif
102
RTVSPost2010PropOp54
 70
     1
102
RTVSPost2010Prop55
280
     0
102
RTVSPost2010PropOp55
 70
     1
102
RTVSPost2010Prop56
140
1.0
102
RTVSPost2010PropOp56
 70
     1
102
RTVSPost2010Prop57
140
1.0
102
RTVSPost2010PropOp57
 70
     1
102
RTVSPropertyOp0
 70
     1
102
RTVSPropertyOp1
 70
     1
102
RTVSPropertyOp2
 70
     1
102
RTVSPropertyOp3
 70
     1
102
RTVSPropertyOp4
 70
     1
102
RTVSPropertyOp5
 70
     1
102
RTVSPropertyOp6
 70
     1
102
RTVSPropertyOp7
 70
     1
102
RTVSPropertyOp8
 70
     1
102
RTVSPropertyOp9
 70
     1
102
RTVSPropertyOp10
 70
     1
102
RTVSPropertyOp11
 70
     1
102
RTVSPropertyOp12
 70
     1
102
RTVSPropertyOp13
 70
     1
102
RTVSPropertyOp14
 70
     1
102
RTVSPropertyOp15
 70
     1
102
RTVSPropertyOp16
 70
     1
102
RTVSPropertyOp17
 70
     1
102
RTVSPropertyOp18
 70
     1
102
RTVSPropertyOp19
 70
     1
102
RTVSPropertyOp20
 70
     1
102
RTVSPropertyOp21
 70
     1
102
RTVSPropertyOp22
 70
     1
102
RTVSPropertyOp23
 70
     1
102
RTVSPropertyOp24
 70
     1
102
RTVSPropertyOp25
 70
     1
102
RTVSPropertyOp26
 70
     1
102
RTVSPropertyOp27
 70
     1
102
RTVSPropertyOp28
 70
     1
102
RTVSPropertyOp29
 70
     1
102
RTVSPropertyOp30
 70
     1
102
RTVSPropertyOp31
 70
     1
102
RTVSPropertyOp32
 70
     1
102
RTVSPropertyOp33
 70
     1
102
RTVSPropertyOp34
 70
     1
102
RTVSPropertyOp35
 70
     1
102
RTVSPropertyOp36
 70
     1
102
RTVSPropertyOp37
 70
     1
102
RTVSPropertyOp38
 70
     1
102
RTVSPropertyOp39
 70
     1
102
RTVSPropertyOp40
 70
     1
102
RTVSPropertyOp41
 70
     1
102
RTVSPropertyOp42
 70
     1
102
RTVSPropertyOp43
 70
     1
102
RTVSPropertyOp44
 70
     1
102
RTVSPropertyOp45
 70
     1
102
RTVSPropertyOp46
 70
     1
102
RTVSPropertyOp47
 70
     1
102
RTVSPropertyOp48
 70
     1
102
RTVSPropertyOp49
 70
     1
102
RTVSPropertyOp50
 70
     1
102
RTVSPropertyOp51
 70
     0
102
RTVSPropertyOp52
 70
     0
102
RTVSPropertyOp53
 70
     1
102
RTVSPropertyOp54
 70
     1
102
RTVSPropertyOp55
 70
     1
102
RTVSPropertyOp56
 70
     1
102
RTVSPropertyOp57
 70
     1
102
RTVSPropertyOp58
 70
     1
102
RTVSPropertyOp59
 70
     1
102
RTVSPropertyOp60
 70
     1
102
RTVSPropertyOp61
 70
     1
102
RTVSPropertyOp62
 70
     1
  0
XRECORD
  5
1EF9
102
{ACAD_REACTORS
330
1EF8
102
}
330
1EF8
100
AcDbXrecord
280
     1
102
RTVSPost2010Prop28
280
     0
102
RTVSPost2010PropOp28
 70
     1
102
RTVSPost2010Prop29
280
     1
102
RTVSPost2010PropOp29
 70
     1
102
RTVSPost2010Prop30
280
     1
102
RTVSPost2010PropOp30
 70
     1
102
RTVSPost2010Prop31
280
     0
102
RTVSPost2010PropOp31
 70
     1
102
RTVSPost2010Prop32
280
     0
102
RTVSPost2010PropOp32
 70
     1
102
RTVSPost2010Prop33
280
     0
102
RTVSPost2010PropOp33
 70
     1
102
RTVSPost2010Prop34
280
     0
102
RTVSPost2010PropOp34
 70
     1
102
RTVSPost2010Prop35
280
     0
102
RTVSPost2010PropOp35
 70
     1
102
RTVSPost2010Prop36
280
     0
102
RTVSPost2010PropOp36
 70
     1
102
RTVSPost2010Prop37
 90
       50
102
RTVSPost2010PropOp37
 70
     1
102
RTVSPost2010Prop38
140
0.0
102
RTVSPost2010PropOp38
 70
     1
102
RTVSPost2010Prop39
140
1.0
102
RTVSPost2010PropOp39
 70
     1
102
RTVSPost2010Prop40
 90
        0
102
RTVSPost2010PropOp40
 70
     1
102
RTVSPost2010Prop41ColorIndex
 90
       18
102
RTVSPost2010Prop41ColorRGB
 90
        0
102
RTVSPost2010PropOp41
 70
     1
102
RTVSPost2010Prop42
 90
       50
102
RTVSPost2010PropOp42
 70
     1
102
RTVSPost2010Prop43
 90
        3
102
RTVSPost2010PropOp43
 70
     1
102
RTVSPost2010Prop44ColorIndex
 90
        5
102
RTVSPost2010Prop44ColorRGB
 90
      255
102
RTVSPost2010PropOp44
 70
     1
102
RTVSPost2010Prop45
280
     0
102
RTVSPost2010PropOp45
 70
     1
102
RTVSPost2010Prop46
 90
       50
102
RTVSPost2010PropOp46
 70
     1
102
RTVSPost2010Prop47
 90
       50
102
RTVSPost2010PropOp47
 70
     1
102
RTVSPost2010Prop48
 90
       50
102
RTVSPost2010PropOp48
 70
     1
102
RTVSPost2010Prop49
280
     0
102
RTVSPost2010PropOp49
 70
     1
102
RTVSPost2010Prop50
 90
       50
102
RTVSPost2010PropOp50
 70
     1
102
RTVSPost2010Prop51ColorIndex
 90
      256
102
RTVSPost2010Prop51ColorRGB
 90
-16777216
102
RTVSPost2010PropOp51
 70
     0
102
RTVSPost2010Prop52
140
1.0
102
RTVSPost2010PropOp52
 70
     0
102
RTVSPost2010Prop53
 90
        2
102
RTVSPost2010PropOp53
 70
     1
102
RTVSPost2010Prop54
  1
strokes_ogs.tif
102
RTVSPost2010PropOp54
 70
     1
102
RTVSPost2010Prop55
280
     0
102
RTVSPost2010PropOp55
 70
     1
102
RTVSPost2010Prop56
140
1.0
102
RTVSPost2010PropOp56
 70
     1
102
RTVSPost2010Prop57
140
1.0
102
RTVSPost2010PropOp57
 70
     1
102
RTVSPropertyOp0
 70
     1
102
RTVSPropertyOp1
 70
     1
102
RTVSPropertyOp2
 70
     1
102
RTVSPropertyOp3
 70
     1
102
RTVSPropertyOp4
 70
     1
102
RTVSPropertyOp5
 70
     1
102
RTVSPropertyOp6
 70
     1
102
RTVSPropertyOp7
 70
     1
102
RTVSPropertyOp8
 70
     1
102
RTVSPropertyOp9
 70
     1
102
RTVSPropertyOp10
 70
     1
102
RTVSPropertyOp11
 70
     1
102
RTVSPropertyOp12
 70
     1
102
RTVSPropertyOp13
 70
     1
102
RTVSPropertyOp14
 70
     1
102
RTVSPropertyOp15
 70
     1
102
RTVSPropertyOp16
 70
     1
102
RTVSPropertyOp17
 70
     1
102
RTVSPropertyOp18
 70
     1
102
RTVSPropertyOp19
 70
     1
102
RTVSPropertyOp20
 70
     1
102
RTVSPropertyOp21
 70
     1
102
RTVSPropertyOp22
 70
     1
102
RTVSPropertyOp23
 70
     1
102
RTVSPropertyOp24
 70
     1
102
RTVSPropertyOp25
 70
     1
102
RTVSPropertyOp26
 70
     1
102
RTVSPropertyOp27
 70
     1
102
RTVSPropertyOp28
 70
     1
102
RTVSPropertyOp29
 70
     1
102
RTVSPropertyOp30
 70
     1
102
RTVSPropertyOp31
 70
     1
102
RTVSPropertyOp32
 70
     1
102
RTVSPropertyOp33
 70
     1
102
RTVSPropertyOp34
 70
     1
102
RTVSPropertyOp35
 70
     1
102
RTVSPropertyOp36
 70
     1
102
RTVSPropertyOp37
 70
     1
102
RTVSPropertyOp38
 70
     1
102
RTVSPropertyOp39
 70
     1
102
RTVSPropertyOp40
 70
     1
102
RTVSPropertyOp41
 70
     1
102
RTVSPropertyOp42
 70
     1
102
RTVSPropertyOp43
 70
     1
102
RTVSPropertyOp44
 70
     1
102
RTVSPropertyOp45
 70
     1
102
RTVSPropertyOp46
 70
     1
102
RTVSPropertyOp47
 70
     1
102
RTVSPropertyOp48
 70
     1
102
RTVSPropertyOp49
 70
     1
102
RTVSPropertyOp50
 70
     1
102
RTVSPropertyOp51
 70
     0
102
RTVSPropertyOp52
 70
     0
102
RTVSPropertyOp53
 70
     1
102
RTVSPropertyOp54
 70
     1
102
RTVSPropertyOp55
 70
     1
102
RTVSPropertyOp56
 70
     1
102
RTVSPropertyOp57
 70
     1
102
RTVSPropertyOp58
 70
     1
102
RTVSPropertyOp59
 70
     1
102
RTVSPropertyOp60
 70
     1
102
RTVSPropertyOp61
 70
     1
102
RTVSPropertyOp62
 70
     1
  0
XRECORD
  5
1F13
102
{ACAD_REACTORS
330
1F12
102
}
330
1F12
100
AcDbXrecord
280
     1
102
RTVSPost2010Prop28
280
     0
102
RTVSPost2010PropOp28
 70
     1
102
RTVSPost2010Prop29
280
     1
102
RTVSPost2010PropOp29
 70
     1
102
RTVSPost2010Prop30
280
     1
102
RTVSPost2010PropOp30
 70
     1
102
RTVSPost2010Prop31
280
     0
102
RTVSPost2010PropOp31
 70
     1
102
RTVSPost2010Prop32
280
     0
102
RTVSPost2010PropOp32
 70
     1
102
RTVSPost2010Prop33
280
     0
102
RTVSPost2010PropOp33
 70
     1
102
RTVSPost2010Prop34
280
     0
102
RTVSPost2010PropOp34
 70
     1
102
RTVSPost2010Prop35
280
     0
102
RTVSPost2010PropOp35
 70
     1
102
RTVSPost2010Prop36
280
     0
102
RTVSPost2010PropOp36
 70
     1
102
RTVSPost2010Prop37
 90
       50
102
RTVSPost2010PropOp37
 70
     0
102
RTVSPost2010Prop38
140
0.0
102
RTVSPost2010PropOp38
 70
     0
102
RTVSPost2010Prop39
140
1.0
102
RTVSPost2010PropOp39
 70
     0
102
RTVSPost2010Prop40
 90
        0
102
RTVSPost2010PropOp40
 70
     0
102
RTVSPost2010Prop41ColorIndex
 90
       18
102
RTVSPost2010Prop41ColorRGB
 90
        0
102
RTVSPost2010PropOp41
 70
     0
102
RTVSPost2010Prop42
 90
       50
102
RTVSPost2010PropOp42
 70
     0
102
RTVSPost2010Prop43
 90
        3
102
RTVSPost2010PropOp43
 70
     0
102
RTVSPost2010Prop44ColorIndex
 90
        5
102
RTVSPost2010Prop44ColorRGB
 90
      255
102
RTVSPost2010PropOp44
 70
     0
102
RTVSPost2010Prop45
280
     0
102
RTVSPost2010PropOp45
 70
     1
102
RTVSPost2010Prop46
 90
       50
102
RTVSPost2010PropOp46
 70
     0
102
RTVSPost2010Prop47
 90
       50
102
RTVSPost2010PropOp47
 70
     0
102
RTVSPost2010Prop48
 90
       50
102
RTVSPost2010PropOp48
 70
     0
102
RTVSPost2010Prop49
280
     0
102
RTVSPost2010PropOp49
 70
     1
102
RTVSPost2010Prop50
 90
       50
102
RTVSPost2010PropOp50
 70
     0
102
RTVSPost2010Prop51ColorIndex
 90
      256
102
RTVSPost2010Prop51ColorRGB
 90
-16777216
102
RTVSPost2010PropOp51
 70
     0
102
RTVSPost2010Prop52
140
1.0
102
RTVSPost2010PropOp52
 70
     0
102
RTVSPost2010Prop53
 90
        2
102
RTVSPost2010PropOp53
 70
     0
102
RTVSPost2010Prop54
  1
strokes_ogs.tif
102
RTVSPost2010PropOp54
 70
     0
102
RTVSPost2010Prop55
280
     0
102
RTVSPost2010PropOp55
 70
     1
102
RTVSPost2010Prop56
140
1.0
102
RTVSPost2010PropOp56
 70
     0
102
RTVSPost2010Prop57
140
1.0
102
RTVSPost2010PropOp57
 70
     0
102
RTVSPropertyOp0
 70
     0
102
RTVSPropertyOp1
 70
     0
102
RTVSPropertyOp2
 70
     0
102
RTVSPropertyOp3
 70
     0
102
RTVSPropertyOp4
 70
     0
102
RTVSPropertyOp5
 70
     0
102
RTVSPropertyOp6
 70
     0
102
RTVSPropertyOp7
 70
     0
102
RTVSPropertyOp8
 70
     0
102
RTVSPropertyOp9
 70
     0
102
RTVSPropertyOp10
 70
     0
102
RTVSPropertyOp11
 70
     0
102
RTVSPropertyOp12
 70
     0
102
RTVSPropertyOp13
 70
     0
102
RTVSPropertyOp14
 70
     2
102
RTVSPropertyOp15
 70
     0
102
RTVSPropertyOp16
 70
     0
102
RTVSPropertyOp17
 70
     0
102
RTVSPropertyOp18
 70
     0
102
RTVSPropertyOp19
 70
     0
102
RTVSPropertyOp20
 70
     0
102
RTVSPropertyOp21
 70
     0
102
RTVSPropertyOp22
 70
     0
102
RTVSPropertyOp23
 70
     0
102
RTVSPropertyOp24
 70
     0
102
RTVSPropertyOp25
 70
     0
102
RTVSPropertyOp26
 70
     0
102
RTVSPropertyOp27
 70
     0
102
RTVSPropertyOp28
 70
     1
102
RTVSPropertyOp29
 70
     1
102
RTVSPropertyOp30
 70
     1
102
RTVSPropertyOp31
 70
     1
102
RTVSPropertyOp32
 70
     1
102
RTVSPropertyOp33
 70
     1
102
RTVSPropertyOp34
 70
     1
102
RTVSPropertyOp35
 70
     1
102
RTVSPropertyOp36
 70
     1
102
RTVSPropertyOp37
 70
     0
102
RTVSPropertyOp38
 70
     0
102
RTVSPropertyOp39
 70
     0
102
RTVSPropertyOp40
 70
     0
102
RTVSPropertyOp41
 70
     0
102
RTVSPropertyOp42
 70
     0
102
RTVSPropertyOp43
 70
     0
102
RTVSPropertyOp44
 70
     0
102
RTVSPropertyOp45
 70
     1
102
RTVSPropertyOp46
 70
     0
102
RTVSPropertyOp47
 70
     0
102
RTVSPropertyOp48
 70
     0
102
RTVSPropertyOp49
 70
     1
102
RTVSPropertyOp50
 70
     0
102
RTVSPropertyOp51
 70
     0
102
RTVSPropertyOp52
 70
     0
102
RTVSPropertyOp53
 70
     0
102
RTVSPropertyOp54
 70
     0
102
RTVSPropertyOp55
 70
     1
102
RTVSPropertyOp56
 70
     0
102
RTVSPropertyOp57
 70
     0
102
RTVSPropertyOp58
 70
     0
102
RTVSPropertyOp59
 70
     0
102
RTVSPropertyOp60
 70
     0
102
RTVSPropertyOp61
 70
     0
102
RTVSPropertyOp62
 70
     0
  0
XRECORD
  5
1F01
102
{ACAD_REACTORS
330
1F00
102
}
330
1F00
100
AcDbXrecord
280
     1
102
RTVSPost2010Prop28
280
     0
102
RTVSPost2010PropOp28
 70
     1
102
RTVSPost2010Prop29
280
     1
102
RTVSPost2010PropOp29
 70
     1
102
RTVSPost2010Prop30
280
     1
102
RTVSPost2010PropOp30
 70
     1
102
RTVSPost2010Prop31
280
     0
102
RTVSPost2010PropOp31
 70
     1
102
RTVSPost2010Prop32
280
     0
102
RTVSPost2010PropOp32
 70
     1
102
RTVSPost2010Prop33
280
     0
102
RTVSPost2010PropOp33
 70
     1
102
RTVSPost2010Prop34
280
     0
102
RTVSPost2010PropOp34
 70
     1
102
RTVSPost2010Prop35
280
     0
102
RTVSPost2010PropOp35
 70
     1
102
RTVSPost2010Prop36
280
     0
102
RTVSPost2010PropOp36
 70
     1
102
RTVSPost2010Prop37
 90
       50
102
RTVSPost2010PropOp37
 70
     1
102
RTVSPost2010Prop38
140
0.0
102
RTVSPost2010PropOp38
 70
     1
102
RTVSPost2010Prop39
140
1.0
102
RTVSPost2010PropOp39
 70
     1
102
RTVSPost2010Prop40
 90
        0
102
RTVSPost2010PropOp40
 70
     1
102
RTVSPost2010Prop41ColorIndex
 90
       18
102
RTVSPost2010Prop41ColorRGB
 90
        0
102
RTVSPost2010PropOp41
 70
     1
102
RTVSPost2010Prop42
 90
       50
102
RTVSPost2010PropOp42
 70
     1
102
RTVSPost2010Prop43
 90
        3
102
RTVSPost2010PropOp43
 70
     1
102
RTVSPost2010Prop44ColorIndex
 90
        5
102
RTVSPost2010Prop44ColorRGB
 90
      255
102
RTVSPost2010PropOp44
 70
     1
102
RTVSPost2010Prop45
280
     0
102
RTVSPost2010PropOp45
 70
     1
102
RTVSPost2010Prop46
 90
       50
102
RTVSPost2010PropOp46
 70
     1
102
RTVSPost2010Prop47
 90
       50
102
RTVSPost2010PropOp47
 70
     1
102
RTVSPost2010Prop48
 90
       50
102
RTVSPost2010PropOp48
 70
     1
102
RTVSPost2010Prop49
280
     0
102
RTVSPost2010PropOp49
 70
     1
102
RTVSPost2010Prop50
 90
       50
102
RTVSPost2010PropOp50
 70
     1
102
RTVSPost2010Prop51ColorIndex
 90
      256
102
RTVSPost2010Prop51ColorRGB
 90
-16777216
102
RTVSPost2010PropOp51
 70
     0
102
RTVSPost2010Prop52
140
1.0
102
RTVSPost2010PropOp52
 70
     0
102
RTVSPost2010Prop53
 90
        2
102
RTVSPost2010PropOp53
 70
     1
102
RTVSPost2010Prop54
  1
strokes_ogs.tif
102
RTVSPost2010PropOp54
 70
     1
102
RTVSPost2010Prop55
280
     0
102
RTVSPost2010PropOp55
 70
     1
102
RTVSPost2010Prop56
140
1.0
102
RTVSPost2010PropOp56
 70
     1
102
RTVSPost2010Prop57
140
1.0
102
RTVSPost2010PropOp57
 70
     1
102
RTVSPropertyOp0
 70
     1
102
RTVSPropertyOp1
 70
     1
102
RTVSPropertyOp2
 70
     1
102
RTVSPropertyOp3
 70
     1
102
RTVSPropertyOp4
 70
     1
102
RTVSPropertyOp5
 70
     1
102
RTVSPropertyOp6
 70
     1
102
RTVSPropertyOp7
 70
     1
102
RTVSPropertyOp8
 70
     1
102
RTVSPropertyOp9
 70
     1
102
RTVSPropertyOp10
 70
     1
102
RTVSPropertyOp11
 70
     1
102
RTVSPropertyOp12
 70
     1
102
RTVSPropertyOp13
 70
     1
102
RTVSPropertyOp14
 70
     1
102
RTVSPropertyOp15
 70
     1
102
RTVSPropertyOp16
 70
     1
102
RTVSPropertyOp17
 70
     1
102
RTVSPropertyOp18
 70
     1
102
RTVSPropertyOp19
 70
     1
102
RTVSPropertyOp20
 70
     1
102
RTVSPropertyOp21
 70
     1
102
RTVSPropertyOp22
 70
     1
102
RTVSPropertyOp23
 70
     1
102
RTVSPropertyOp24
 70
     1
102
RTVSPropertyOp25
 70
     1
102
RTVSPropertyOp26
 70
     1
102
RTVSPropertyOp27
 70
     1
102
RTVSPropertyOp28
 70
     1
102
RTVSPropertyOp29
 70
     1
102
RTVSPropertyOp30
 70
     1
102
RTVSPropertyOp31
 70
     1
102
RTVSPropertyOp32
 70
     1
102
RTVSPropertyOp33
 70
     1
102
RTVSPropertyOp34
 70
     1
102
RTVSPropertyOp35
 70
     1
102
RTVSPropertyOp36
 70
     1
102
RTVSPropertyOp37
 70
     1
102
RTVSPropertyOp38
 70
     1
102
RTVSPropertyOp39
 70
     1
102
RTVSPropertyOp40
 70
     1
102
RTVSPropertyOp41
 70
     1
102
RTVSPropertyOp42
 70
     1
102
RTVSPropertyOp43
 70
     1
102
RTVSPropertyOp44
 70
     1
102
RTVSPropertyOp45
 70
     1
102
RTVSPropertyOp46
 70
     1
102
RTVSPropertyOp47
 70
     1
102
RTVSPropertyOp48
 70
     1
102
RTVSPropertyOp49
 70
     1
102
RTVSPropertyOp50
 70
     1
102
RTVSPropertyOp51
 70
     0
102
RTVSPropertyOp52
 70
     0
102
RTVSPropertyOp53
 70
     1
102
RTVSPropertyOp54
 70
     1
102
RTVSPropertyOp55
 70
     1
102
RTVSPropertyOp56
 70
     1
102
RTVSPropertyOp57
 70
     1
102
RTVSPropertyOp58
 70
     1
102
RTVSPropertyOp59
 70
     1
102
RTVSPropertyOp60
 70
     1
102
RTVSPropertyOp61
 70
     1
102
RTVSPropertyOp62
 70
     1
  0
XRECORD
  5
1EE5
102
{ACAD_REACTORS
330
1EE4
102
}
330
1EE4
100
AcDbXrecord
280
     1
102
RTVSPost2010Prop28
280
     0
102
RTVSPost2010PropOp28
 70
     1
102
RTVSPost2010Prop29
280
     1
102
RTVSPost2010PropOp29
 70
     1
102
RTVSPost2010Prop30
280
     1
102
RTVSPost2010PropOp30
 70
     1
102
RTVSPost2010Prop31
280
     0
102
RTVSPost2010PropOp31
 70
     1
102
RTVSPost2010Prop32
280
     0
102
RTVSPost2010PropOp32
 70
     1
102
RTVSPost2010Prop33
280
     0
102
RTVSPost2010PropOp33
 70
     1
102
RTVSPost2010Prop34
280
     0
102
RTVSPost2010PropOp34
 70
     1
102
RTVSPost2010Prop35
280
     0
102
RTVSPost2010PropOp35
 70
     1
102
RTVSPost2010Prop36
280
     0
102
RTVSPost2010PropOp36
 70
     1
102
RTVSPost2010Prop37
 90
       50
102
RTVSPost2010PropOp37
 70
     1
102
RTVSPost2010Prop38
140
0.0
102
RTVSPost2010PropOp38
 70
     1
102
RTVSPost2010Prop39
140
1.0
102
RTVSPost2010PropOp39
 70
     1
102
RTVSPost2010Prop40
 90
        0
102
RTVSPost2010PropOp40
 70
     1
102
RTVSPost2010Prop41ColorIndex
 90
       18
102
RTVSPost2010Prop41ColorRGB
 90
        0
102
RTVSPost2010PropOp41
 70
     1
102
RTVSPost2010Prop42
 90
       50
102
RTVSPost2010PropOp42
 70
     1
102
RTVSPost2010Prop43
 90
        3
102
RTVSPost2010PropOp43
 70
     1
102
RTVSPost2010Prop44ColorIndex
 90
        5
102
RTVSPost2010Prop44ColorRGB
 90
      255
102
RTVSPost2010PropOp44
 70
     1
102
RTVSPost2010Prop45
280
     0
102
RTVSPost2010PropOp45
 70
     1
102
RTVSPost2010Prop46
 90
       50
102
RTVSPost2010PropOp46
 70
     1
102
RTVSPost2010Prop47
 90
       50
102
RTVSPost2010PropOp47
 70
     1
102
RTVSPost2010Prop48
 90
       50
102
RTVSPost2010PropOp48
 70
     1
102
RTVSPost2010Prop49
280
     0
102
RTVSPost2010PropOp49
 70
     1
102
RTVSPost2010Prop50
 90
       50
102
RTVSPost2010PropOp50
 70
     1
102
RTVSPost2010Prop51ColorIndex
 90
      256
102
RTVSPost2010Prop51ColorRGB
 90
-16777216
102
RTVSPost2010PropOp51
 70
     0
102
RTVSPost2010Prop52
140
1.0
102
RTVSPost2010PropOp52
 70
     0
102
RTVSPost2010Prop53
 90
        2
102
RTVSPost2010PropOp53
 70
     1
102
RTVSPost2010Prop54
  1
strokes_ogs.tif
102
RTVSPost2010PropOp54
 70
     1
102
RTVSPost2010Prop55
280
     0
102
RTVSPost2010PropOp55
 70
     1
102
RTVSPost2010Prop56
140
1.0
102
RTVSPost2010PropOp56
 70
     1
102
RTVSPost2010Prop57
140
1.0
102
RTVSPost2010PropOp57
 70
     1
102
RTVSPropertyOp0
 70
     1
102
RTVSPropertyOp1
 70
     1
102
RTVSPropertyOp2
 70
     1
102
RTVSPropertyOp3
 70
     1
102
RTVSPropertyOp4
 70
     1
102
RTVSPropertyOp5
 70
     1
102
RTVSPropertyOp6
 70
     1
102
RTVSPropertyOp7
 70
     1
102
RTVSPropertyOp8
 70
     1
102
RTVSPropertyOp9
 70
     1
102
RTVSPropertyOp10
 70
     1
102
RTVSPropertyOp11
 70
     1
102
RTVSPropertyOp12
 70
     1
102
RTVSPropertyOp13
 70
     1
102
RTVSPropertyOp14
 70
     1
102
RTVSPropertyOp15
 70
     1
102
RTVSPropertyOp16
 70
     1
102
RTVSPropertyOp17
 70
     1
102
RTVSPropertyOp18
 70
     1
102
RTVSPropertyOp19
 70
     1
102
RTVSPropertyOp20
 70
     1
102
RTVSPropertyOp21
 70
     1
102
RTVSPropertyOp22
 70
     1
102
RTVSPropertyOp23
 70
     1
102
RTVSPropertyOp24
 70
     1
102
RTVSPropertyOp25
 70
     1
102
RTVSPropertyOp26
 70
     1
102
RTVSPropertyOp27
 70
     1
102
RTVSPropertyOp28
 70
     1
102
RTVSPropertyOp29
 70
     1
102
RTVSPropertyOp30
 70
     1
102
RTVSPropertyOp31
 70
     1
102
RTVSPropertyOp32
 70
     1
102
RTVSPropertyOp33
 70
     1
102
RTVSPropertyOp34
 70
     1
102
RTVSPropertyOp35
 70
     1
102
RTVSPropertyOp36
 70
     1
102
RTVSPropertyOp37
 70
     1
102
RTVSPropertyOp38
 70
     1
102
RTVSPropertyOp39
 70
     1
102
RTVSPropertyOp40
 70
     1
102
RTVSPropertyOp41
 70
     1
102
RTVSPropertyOp42
 70
     1
102
RTVSPropertyOp43
 70
     1
102
RTVSPropertyOp44
 70
     1
102
RTVSPropertyOp45
 70
     1
102
RTVSPropertyOp46
 70
     1
102
RTVSPropertyOp47
 70
     1
102
RTVSPropertyOp48
 70
     1
102
RTVSPropertyOp49
 70
     1
102
RTVSPropertyOp50
 70
     1
102
RTVSPropertyOp51
 70
     0
102
RTVSPropertyOp52
 70
     0
102
RTVSPropertyOp53
 70
     1
102
RTVSPropertyOp54
 70
     1
102
RTVSPropertyOp55
 70
     1
102
RTVSPropertyOp56
 70
     1
102
RTVSPropertyOp57
 70
     1
102
RTVSPropertyOp58
 70
     1
102
RTVSPropertyOp59
 70
     1
102
RTVSPropertyOp60
 70
     1
102
RTVSPropertyOp61
 70
     1
102
RTVSPropertyOp62
 70
     1
  0
XRECORD
  5
1EE7
102
{ACAD_REACTORS
330
1EE6
102
}
330
1EE6
100
AcDbXrecord
280
     1
102
RTVSPost2010Prop28
280
     0
102
RTVSPost2010PropOp28
 70
     1
102
RTVSPost2010Prop29
280
     1
102
RTVSPost2010PropOp29
 70
     1
102
RTVSPost2010Prop30
280
     1
102
RTVSPost2010PropOp30
 70
     1
102
RTVSPost2010Prop31
280
     0
102
RTVSPost2010PropOp31
 70
     1
102
RTVSPost2010Prop32
280
     0
102
RTVSPost2010PropOp32
 70
     1
102
RTVSPost2010Prop33
280
     0
102
RTVSPost2010PropOp33
 70
     1
102
RTVSPost2010Prop34
280
     0
102
RTVSPost2010PropOp34
 70
     1
102
RTVSPost2010Prop35
280
     0
102
RTVSPost2010PropOp35
 70
     1
102
RTVSPost2010Prop36
280
     0
102
RTVSPost2010PropOp36
 70
     1
102
RTVSPost2010Prop37
 90
       50
102
RTVSPost2010PropOp37
 70
     1
102
RTVSPost2010Prop38
140
0.0
102
RTVSPost2010PropOp38
 70
     1
102
RTVSPost2010Prop39
140
1.0
102
RTVSPost2010PropOp39
 70
     1
102
RTVSPost2010Prop40
 90
        0
102
RTVSPost2010PropOp40
 70
     1
102
RTVSPost2010Prop41ColorIndex
 90
       18
102
RTVSPost2010Prop41ColorRGB
 90
        0
102
RTVSPost2010PropOp41
 70
     1
102
RTVSPost2010Prop42
 90
       50
102
RTVSPost2010PropOp42
 70
     1
102
RTVSPost2010Prop43
 90
        3
102
RTVSPost2010PropOp43
 70
     1
102
RTVSPost2010Prop44ColorIndex
 90
        5
102
RTVSPost2010Prop44ColorRGB
 90
      255
102
RTVSPost2010PropOp44
 70
     1
102
RTVSPost2010Prop45
280
     0
102
RTVSPost2010PropOp45
 70
     1
102
RTVSPost2010Prop46
 90
       50
102
RTVSPost2010PropOp46
 70
     1
102
RTVSPost2010Prop47
 90
       50
102
RTVSPost2010PropOp47
 70
     1
102
RTVSPost2010Prop48
 90
       50
102
RTVSPost2010PropOp48
 70
     1
102
RTVSPost2010Prop49
280
     0
102
RTVSPost2010PropOp49
 70
     1
102
RTVSPost2010Prop50
 90
       50
102
RTVSPost2010PropOp50
 70
     1
102
RTVSPost2010Prop51ColorIndex
 90
      256
102
RTVSPost2010Prop51ColorRGB
 90
-16777216
102
RTVSPost2010PropOp51
 70
     0
102
RTVSPost2010Prop52
140
1.0
102
RTVSPost2010PropOp52
 70
     0
102
RTVSPost2010Prop53
 90
        2
102
RTVSPost2010PropOp53
 70
     1
102
RTVSPost2010Prop54
  1
strokes_ogs.tif
102
RTVSPost2010PropOp54
 70
     1
102
RTVSPost2010Prop55
280
     0
102
RTVSPost2010PropOp55
 70
     1
102
RTVSPost2010Prop56
140
1.0
102
RTVSPost2010PropOp56
 70
     1
102
RTVSPost2010Prop57
140
1.0
102
RTVSPost2010PropOp57
 70
     1
102
RTVSPropertyOp0
 70
     1
102
RTVSPropertyOp1
 70
     1
102
RTVSPropertyOp2
 70
     1
102
RTVSPropertyOp3
 70
     1
102
RTVSPropertyOp4
 70
     1
102
RTVSPropertyOp5
 70
     1
102
RTVSPropertyOp6
 70
     1
102
RTVSPropertyOp7
 70
     1
102
RTVSPropertyOp8
 70
     1
102
RTVSPropertyOp9
 70
     1
102
RTVSPropertyOp10
 70
     1
102
RTVSPropertyOp11
 70
     1
102
RTVSPropertyOp12
 70
     1
102
RTVSPropertyOp13
 70
     1
102
RTVSPropertyOp14
 70
     1
102
RTVSPropertyOp15
 70
     1
102
RTVSPropertyOp16
 70
     1
102
RTVSPropertyOp17
 70
     1
102
RTVSPropertyOp18
 70
     1
102
RTVSPropertyOp19
 70
     1
102
RTVSPropertyOp20
 70
     1
102
RTVSPropertyOp21
 70
     1
102
RTVSPropertyOp22
 70
     1
102
RTVSPropertyOp23
 70
     1
102
RTVSPropertyOp24
 70
     1
102
RTVSPropertyOp25
 70
     1
102
RTVSPropertyOp26
 70
     1
102
RTVSPropertyOp27
 70
     1
102
RTVSPropertyOp28
 70
     1
102
RTVSPropertyOp29
 70
     1
102
RTVSPropertyOp30
 70
     1
102
RTVSPropertyOp31
 70
     1
102
RTVSPropertyOp32
 70
     1
102
RTVSPropertyOp33
 70
     1
102
RTVSPropertyOp34
 70
     1
102
RTVSPropertyOp35
 70
     1
102
RTVSPropertyOp36
 70
     1
102
RTVSPropertyOp37
 70
     1
102
RTVSPropertyOp38
 70
     1
102
RTVSPropertyOp39
 70
     1
102
RTVSPropertyOp40
 70
     1
102
RTVSPropertyOp41
 70
     1
102
RTVSPropertyOp42
 70
     1
102
RTVSPropertyOp43
 70
     1
102
RTVSPropertyOp44
 70
     1
102
RTVSPropertyOp45
 70
     1
102
RTVSPropertyOp46
 70
     1
102
RTVSPropertyOp47
 70
     1
102
RTVSPropertyOp48
 70
     1
102
RTVSPropertyOp49
 70
     1
102
RTVSPropertyOp50
 70
     1
102
RTVSPropertyOp51
 70
     0
102
RTVSPropertyOp52
 70
     0
102
RTVSPropertyOp53
 70
     1
102
RTVSPropertyOp54
 70
     1
102
RTVSPropertyOp55
 70
     1
102
RTVSPropertyOp56
 70
     1
102
RTVSPropertyOp57
 70
     1
102
RTVSPropertyOp58
 70
     1
102
RTVSPropertyOp59
 70
     1
102
RTVSPropertyOp60
 70
     1
102
RTVSPropertyOp61
 70
     1
102
RTVSPropertyOp62
 70
     1
  0
XRECORD
  5
1EE9
102
{ACAD_REACTORS
330
1EE8
102
}
330
1EE8
100
AcDbXrecord
280
     1
102
RTVSPost2010Prop28
280
     0
102
RTVSPost2010PropOp28
 70
     1
102
RTVSPost2010Prop29
280
     1
102
RTVSPost2010PropOp29
 70
     1
102
RTVSPost2010Prop30
280
     1
102
RTVSPost2010PropOp30
 70
     1
102
RTVSPost2010Prop31
280
     0
102
RTVSPost2010PropOp31
 70
     1
102
RTVSPost2010Prop32
280
     0
102
RTVSPost2010PropOp32
 70
     1
102
RTVSPost2010Prop33
280
     0
102
RTVSPost2010PropOp33
 70
     1
102
RTVSPost2010Prop34
280
     0
102
RTVSPost2010PropOp34
 70
     1
102
RTVSPost2010Prop35
280
     0
102
RTVSPost2010PropOp35
 70
     1
102
RTVSPost2010Prop36
280
     0
102
RTVSPost2010PropOp36
 70
     1
102
RTVSPost2010Prop37
 90
       50
102
RTVSPost2010PropOp37
 70
     1
102
RTVSPost2010Prop38
140
0.0
102
RTVSPost2010PropOp38
 70
     1
102
RTVSPost2010Prop39
140
1.0
102
RTVSPost2010PropOp39
 70
     1
102
RTVSPost2010Prop40
 90
        0
102
RTVSPost2010PropOp40
 70
     1
102
RTVSPost2010Prop41ColorIndex
 90
       18
102
RTVSPost2010Prop41ColorRGB
 90
        0
102
RTVSPost2010PropOp41
 70
     1
102
RTVSPost2010Prop42
 90
       50
102
RTVSPost2010PropOp42
 70
     1
102
RTVSPost2010Prop43
 90
        3
102
RTVSPost2010PropOp43
 70
     1
102
RTVSPost2010Prop44ColorIndex
 90
        5
102
RTVSPost2010Prop44ColorRGB
 90
      255
102
RTVSPost2010PropOp44
 70
     1
102
RTVSPost2010Prop45
280
     0
102
RTVSPost2010PropOp45
 70
     1
102
RTVSPost2010Prop46
 90
       50
102
RTVSPost2010PropOp46
 70
     1
102
RTVSPost2010Prop47
 90
       50
102
RTVSPost2010PropOp47
 70
     1
102
RTVSPost2010Prop48
 90
       50
102
RTVSPost2010PropOp48
 70
     1
102
RTVSPost2010Prop49
280
     0
102
RTVSPost2010PropOp49
 70
     1
102
RTVSPost2010Prop50
 90
       50
102
RTVSPost2010PropOp50
 70
     1
102
RTVSPost2010Prop51ColorIndex
 90
      256
102
RTVSPost2010Prop51ColorRGB
 90
-16777216
102
RTVSPost2010PropOp51
 70
     0
102
RTVSPost2010Prop52
140
1.0
102
RTVSPost2010PropOp52
 70
     0
102
RTVSPost2010Prop53
 90
        2
102
RTVSPost2010PropOp53
 70
     1
102
RTVSPost2010Prop54
  1
strokes_ogs.tif
102
RTVSPost2010PropOp54
 70
     1
102
RTVSPost2010Prop55
280
     0
102
RTVSPost2010PropOp55
 70
     1
102
RTVSPost2010Prop56
140
1.0
102
RTVSPost2010PropOp56
 70
     1
102
RTVSPost2010Prop57
140
1.0
102
RTVSPost2010PropOp57
 70
     1
102
RTVSPropertyOp0
 70
     1
102
RTVSPropertyOp1
 70
     1
102
RTVSPropertyOp2
 70
     1
102
RTVSPropertyOp3
 70
     1
102
RTVSPropertyOp4
 70
     1
102
RTVSPropertyOp5
 70
     1
102
RTVSPropertyOp6
 70
     1
102
RTVSPropertyOp7
 70
     1
102
RTVSPropertyOp8
 70
     1
102
RTVSPropertyOp9
 70
     1
102
RTVSPropertyOp10
 70
     1
102
RTVSPropertyOp11
 70
     1
102
RTVSPropertyOp12
 70
     1
102
RTVSPropertyOp13
 70
     1
102
RTVSPropertyOp14
 70
     1
102
RTVSPropertyOp15
 70
     1
102
RTVSPropertyOp16
 70
     1
102
RTVSPropertyOp17
 70
     1
102
RTVSPropertyOp18
 70
     1
102
RTVSPropertyOp19
 70
     1
102
RTVSPropertyOp20
 70
     1
102
RTVSPropertyOp21
 70
     1
102
RTVSPropertyOp22
 70
     1
102
RTVSPropertyOp23
 70
     1
102
RTVSPropertyOp24
 70
     1
102
RTVSPropertyOp25
 70
     1
102
RTVSPropertyOp26
 70
     1
102
RTVSPropertyOp27
 70
     1
102
RTVSPropertyOp28
 70
     1
102
RTVSPropertyOp29
 70
     1
102
RTVSPropertyOp30
 70
     1
102
RTVSPropertyOp31
 70
     1
102
RTVSPropertyOp32
 70
     1
102
RTVSPropertyOp33
 70
     1
102
RTVSPropertyOp34
 70
     1
102
RTVSPropertyOp35
 70
     1
102
RTVSPropertyOp36
 70
     1
102
RTVSPropertyOp37
 70
     1
102
RTVSPropertyOp38
 70
     1
102
RTVSPropertyOp39
 70
     1
102
RTVSPropertyOp40
 70
     1
102
RTVSPropertyOp41
 70
     1
102
RTVSPropertyOp42
 70
     1
102
RTVSPropertyOp43
 70
     1
102
RTVSPropertyOp44
 70
     1
102
RTVSPropertyOp45
 70
     1
102
RTVSPropertyOp46
 70
     1
102
RTVSPropertyOp47
 70
     1
102
RTVSPropertyOp48
 70
     1
102
RTVSPropertyOp49
 70
     1
102
RTVSPropertyOp50
 70
     1
102
RTVSPropertyOp51
 70
     0
102
RTVSPropertyOp52
 70
     0
102
RTVSPropertyOp53
 70
     1
102
RTVSPropertyOp54
 70
     1
102
RTVSPropertyOp55
 70
     1
102
RTVSPropertyOp56
 70
     1
102
RTVSPropertyOp57
 70
     1
102
RTVSPropertyOp58
 70
     1
102
RTVSPropertyOp59
 70
     1
102
RTVSPropertyOp60
 70
     1
102
RTVSPropertyOp61
 70
     1
102
RTVSPropertyOp62
 70
     1
  0
XRECORD
  5
1EEB
102
{ACAD_REACTORS
330
1EEA
102
}
330
1EEA
100
AcDbXrecord
280
     1
102
RTVSPost2010Prop28
280
     0
102
RTVSPost2010PropOp28
 70
     1
102
RTVSPost2010Prop29
280
     1
102
RTVSPost2010PropOp29
 70
     1
102
RTVSPost2010Prop30
280
     1
102
RTVSPost2010PropOp30
 70
     1
102
RTVSPost2010Prop31
280
     0
102
RTVSPost2010PropOp31
 70
     1
102
RTVSPost2010Prop32
280
     0
102
RTVSPost2010PropOp32
 70
     1
102
RTVSPost2010Prop33
280
     0
102
RTVSPost2010PropOp33
 70
     1
102
RTVSPost2010Prop34
280
     0
102
RTVSPost2010PropOp34
 70
     1
102
RTVSPost2010Prop35
280
     0
102
RTVSPost2010PropOp35
 70
     1
102
RTVSPost2010Prop36
280
     0
102
RTVSPost2010PropOp36
 70
     1
102
RTVSPost2010Prop37
 90
       50
102
RTVSPost2010PropOp37
 70
     1
102
RTVSPost2010Prop38
140
0.0
102
RTVSPost2010PropOp38
 70
     1
102
RTVSPost2010Prop39
140
1.0
102
RTVSPost2010PropOp39
 70
     1
102
RTVSPost2010Prop40
 90
        0
102
RTVSPost2010PropOp40
 70
     1
102
RTVSPost2010Prop41ColorIndex
 90
       18
102
RTVSPost2010Prop41ColorRGB
 90
        0
102
RTVSPost2010PropOp41
 70
     1
102
RTVSPost2010Prop42
 90
       50
102
RTVSPost2010PropOp42
 70
     1
102
RTVSPost2010Prop43
 90
        3
102
RTVSPost2010PropOp43
 70
     1
102
RTVSPost2010Prop44ColorIndex
 90
        5
102
RTVSPost2010Prop44ColorRGB
 90
      255
102
RTVSPost2010PropOp44
 70
     1
102
RTVSPost2010Prop45
280
     0
102
RTVSPost2010PropOp45
 70
     1
102
RTVSPost2010Prop46
 90
       50
102
RTVSPost2010PropOp46
 70
     1
102
RTVSPost2010Prop47
 90
       50
102
RTVSPost2010PropOp47
 70
     1
102
RTVSPost2010Prop48
 90
       50
102
RTVSPost2010PropOp48
 70
     1
102
RTVSPost2010Prop49
280
     0
102
RTVSPost2010PropOp49
 70
     1
102
RTVSPost2010Prop50
 90
       50
102
RTVSPost2010PropOp50
 70
     1
102
RTVSPost2010Prop51ColorIndex
 90
      256
102
RTVSPost2010Prop51ColorRGB
 90
-16777216
102
RTVSPost2010PropOp51
 70
     0
102
RTVSPost2010Prop52
140
1.0
102
RTVSPost2010PropOp52
 70
     0
102
RTVSPost2010Prop53
 90
        2
102
RTVSPost2010PropOp53
 70
     1
102
RTVSPost2010Prop54
  1
strokes_ogs.tif
102
RTVSPost2010PropOp54
 70
     1
102
RTVSPost2010Prop55
280
     0
102
RTVSPost2010PropOp55
 70
     1
102
RTVSPost2010Prop56
140
1.0
102
RTVSPost2010PropOp56
 70
     1
102
RTVSPost2010Prop57
140
1.0
102
RTVSPost2010PropOp57
 70
     1
102
RTVSPropertyOp0
 70
     1
102
RTVSPropertyOp1
 70
     1
102
RTVSPropertyOp2
 70
     1
102
RTVSPropertyOp3
 70
     1
102
RTVSPropertyOp4
 70
     1
102
RTVSPropertyOp5
 70
     1
102
RTVSPropertyOp6
 70
     1
102
RTVSPropertyOp7
 70
     1
102
RTVSPropertyOp8
 70
     1
102
RTVSPropertyOp9
 70
     1
102
RTVSPropertyOp10
 70
     1
102
RTVSPropertyOp11
 70
     1
102
RTVSPropertyOp12
 70
     1
102
RTVSPropertyOp13
 70
     1
102
RTVSPropertyOp14
 70
     1
102
RTVSPropertyOp15
 70
     1
102
RTVSPropertyOp16
 70
     1
102
RTVSPropertyOp17
 70
     1
102
RTVSPropertyOp18
 70
     1
102
RTVSPropertyOp19
 70
     1
102
RTVSPropertyOp20
 70
     1
102
RTVSPropertyOp21
 70
     1
102
RTVSPropertyOp22
 70
     1
102
RTVSPropertyOp23
 70
     1
102
RTVSPropertyOp24
 70
     1
102
RTVSPropertyOp25
 70
     1
102
RTVSPropertyOp26
 70
     1
102
RTVSPropertyOp27
 70
     1
102
RTVSPropertyOp28
 70
     1
102
RTVSPropertyOp29
 70
     1
102
RTVSPropertyOp30
 70
     1
102
RTVSPropertyOp31
 70
     1
102
RTVSPropertyOp32
 70
     1
102
RTVSPropertyOp33
 70
     1
102
RTVSPropertyOp34
 70
     1
102
RTVSPropertyOp35
 70
     1
102
RTVSPropertyOp36
 70
     1
102
RTVSPropertyOp37
 70
     1
102
RTVSPropertyOp38
 70
     1
102
RTVSPropertyOp39
 70
     1
102
RTVSPropertyOp40
 70
     1
102
RTVSPropertyOp41
 70
     1
102
RTVSPropertyOp42
 70
     1
102
RTVSPropertyOp43
 70
     1
102
RTVSPropertyOp44
 70
     1
102
RTVSPropertyOp45
 70
     1
102
RTVSPropertyOp46
 70
     1
102
RTVSPropertyOp47
 70
     1
102
RTVSPropertyOp48
 70
     1
102
RTVSPropertyOp49
 70
     1
102
RTVSPropertyOp50
 70
     1
102
RTVSPropertyOp51
 70
     0
102
RTVSPropertyOp52
 70
     0
102
RTVSPropertyOp53
 70
     1
102
RTVSPropertyOp54
 70
     1
102
RTVSPropertyOp55
 70
     1
102
RTVSPropertyOp56
 70
     1
102
RTVSPropertyOp57
 70
     1
102
RTVSPropertyOp58
 70
     1
102
RTVSPropertyOp59
 70
     1
102
RTVSPropertyOp60
 70
     1
102
RTVSPropertyOp61
 70
     1
102
RTVSPropertyOp62
 70
     1
  0
XRECORD
  5
1EF3
102
{ACAD_REACTORS
330
1EF2
102
}
330
1EF2
100
AcDbXrecord
280
     1
102
RTVSPost2010Prop28
280
     0
102
RTVSPost2010PropOp28
 70
     1
102
RTVSPost2010Prop29
280
     1
102
RTVSPost2010PropOp29
 70
     1
102
RTVSPost2010Prop30
280
     1
102
RTVSPost2010PropOp30
 70
     1
102
RTVSPost2010Prop31
280
     0
102
RTVSPost2010PropOp31
 70
     1
102
RTVSPost2010Prop32
280
     0
102
RTVSPost2010PropOp32
 70
     1
102
RTVSPost2010Prop33
280
     0
102
RTVSPost2010PropOp33
 70
     1
102
RTVSPost2010Prop34
280
     0
102
RTVSPost2010PropOp34
 70
     1
102
RTVSPost2010Prop35
280
     0
102
RTVSPost2010PropOp35
 70
     1
102
RTVSPost2010Prop36
280
     0
102
RTVSPost2010PropOp36
 70
     1
102
RTVSPost2010Prop37
 90
       50
102
RTVSPost2010PropOp37
 70
     1
102
RTVSPost2010Prop38
140
0.0
102
RTVSPost2010PropOp38
 70
     1
102
RTVSPost2010Prop39
140
1.0
102
RTVSPost2010PropOp39
 70
     1
102
RTVSPost2010Prop40
 90
        0
102
RTVSPost2010PropOp40
 70
     1
102
RTVSPost2010Prop41ColorIndex
 90
       18
102
RTVSPost2010Prop41ColorRGB
 90
        0
102
RTVSPost2010PropOp41
 70
     1
102
RTVSPost2010Prop42
 90
       50
102
RTVSPost2010PropOp42
 70
     1
102
RTVSPost2010Prop43
 90
        3
102
RTVSPost2010PropOp43
 70
     1
102
RTVSPost2010Prop44ColorIndex
 90
        5
102
RTVSPost2010Prop44ColorRGB
 90
      255
102
RTVSPost2010PropOp44
 70
     1
102
RTVSPost2010Prop45
280
     0
102
RTVSPost2010PropOp45
 70
     1
102
RTVSPost2010Prop46
 90
       50
102
RTVSPost2010PropOp46
 70
     1
102
RTVSPost2010Prop47
 90
       50
102
RTVSPost2010PropOp47
 70
     1
102
RTVSPost2010Prop48
 90
       50
102
RTVSPost2010PropOp48
 70
     1
102
RTVSPost2010Prop49
280
     0
102
RTVSPost2010PropOp49
 70
     1
102
RTVSPost2010Prop50
 90
       50
102
RTVSPost2010PropOp50
 70
     1
102
RTVSPost2010Prop51ColorIndex
 90
      256
102
RTVSPost2010Prop51ColorRGB
 90
-16777216
102
RTVSPost2010PropOp51
 70
     0
102
RTVSPost2010Prop52
140
1.0
102
RTVSPost2010PropOp52
 70
     0
102
RTVSPost2010Prop53
 90
        2
102
RTVSPost2010PropOp53
 70
     1
102
RTVSPost2010Prop54
  1
strokes_ogs.tif
102
RTVSPost2010PropOp54
 70
     1
102
RTVSPost2010Prop55
280
     0
102
RTVSPost2010PropOp55
 70
     1
102
RTVSPost2010Prop56
140
1.0
102
RTVSPost2010PropOp56
 70
     1
102
RTVSPost2010Prop57
140
1.0
102
RTVSPost2010PropOp57
 70
     1
102
RTVSPropertyOp0
 70
     1
102
RTVSPropertyOp1
 70
     1
102
RTVSPropertyOp2
 70
     1
102
RTVSPropertyOp3
 70
     1
102
RTVSPropertyOp4
 70
     1
102
RTVSPropertyOp5
 70
     1
102
RTVSPropertyOp6
 70
     1
102
RTVSPropertyOp7
 70
     1
102
RTVSPropertyOp8
 70
     1
102
RTVSPropertyOp9
 70
     1
102
RTVSPropertyOp10
 70
     1
102
RTVSPropertyOp11
 70
     1
102
RTVSPropertyOp12
 70
     1
102
RTVSPropertyOp13
 70
     1
102
RTVSPropertyOp14
 70
     1
102
RTVSPropertyOp15
 70
     1
102
RTVSPropertyOp16
 70
     1
102
RTVSPropertyOp17
 70
     1
102
RTVSPropertyOp18
 70
     1
102
RTVSPropertyOp19
 70
     1
102
RTVSPropertyOp20
 70
     1
102
RTVSPropertyOp21
 70
     1
102
RTVSPropertyOp22
 70
     1
102
RTVSPropertyOp23
 70
     1
102
RTVSPropertyOp24
 70
     1
102
RTVSPropertyOp25
 70
     1
102
RTVSPropertyOp26
 70
     1
102
RTVSPropertyOp27
 70
     1
102
RTVSPropertyOp28
 70
     1
102
RTVSPropertyOp29
 70
     1
102
RTVSPropertyOp30
 70
     1
102
RTVSPropertyOp31
 70
     1
102
RTVSPropertyOp32
 70
     1
102
RTVSPropertyOp33
 70
     1
102
RTVSPropertyOp34
 70
     1
102
RTVSPropertyOp35
 70
     1
102
RTVSPropertyOp36
 70
     1
102
RTVSPropertyOp37
 70
     1
102
RTVSPropertyOp38
 70
     1
102
RTVSPropertyOp39
 70
     1
102
RTVSPropertyOp40
 70
     1
102
RTVSPropertyOp41
 70
     1
102
RTVSPropertyOp42
 70
     1
102
RTVSPropertyOp43
 70
     1
102
RTVSPropertyOp44
 70
     1
102
RTVSPropertyOp45
 70
     1
102
RTVSPropertyOp46
 70
     1
102
RTVSPropertyOp47
 70
     1
102
RTVSPropertyOp48
 70
     1
102
RTVSPropertyOp49
 70
     1
102
RTVSPropertyOp50
 70
     1
102
RTVSPropertyOp51
 70
     0
102
RTVSPropertyOp52
 70
     0
102
RTVSPropertyOp53
 70
     1
102
RTVSPropertyOp54
 70
     1
102
RTVSPropertyOp55
 70
     1
102
RTVSPropertyOp56
 70
     1
102
RTVSPropertyOp57
 70
     1
102
RTVSPropertyOp58
 70
     1
102
RTVSPropertyOp59
 70
     1
102
RTVSPropertyOp60
 70
     1
102
RTVSPropertyOp61
 70
     1
102
RTVSPropertyOp62
 70
     1
  0
XRECORD
  5
1F0F
102
{ACAD_REACTORS
330
1F0E
102
}
330
1F0E
100
AcDbXrecord
280
     1
102
RTVSPost2010Prop28
280
     0
102
RTVSPost2010PropOp28
 70
     1
102
RTVSPost2010Prop29
280
     1
102
RTVSPost2010PropOp29
 70
     1
102
RTVSPost2010Prop30
280
     1
102
RTVSPost2010PropOp30
 70
     1
102
RTVSPost2010Prop31
280
     0
102
RTVSPost2010PropOp31
 70
     1
102
RTVSPost2010Prop32
280
     0
102
RTVSPost2010PropOp32
 70
     1
102
RTVSPost2010Prop33
280
     0
102
RTVSPost2010PropOp33
 70
     1
102
RTVSPost2010Prop34
280
     0
102
RTVSPost2010PropOp34
 70
     1
102
RTVSPost2010Prop35
280
     0
102
RTVSPost2010PropOp35
 70
     1
102
RTVSPost2010Prop36
280
     0
102
RTVSPost2010PropOp36
 70
     1
102
RTVSPost2010Prop37
 90
       50
102
RTVSPost2010PropOp37
 70
     0
102
RTVSPost2010Prop38
140
0.0
102
RTVSPost2010PropOp38
 70
     0
102
RTVSPost2010Prop39
140
1.0
102
RTVSPost2010PropOp39
 70
     0
102
RTVSPost2010Prop40
 90
        0
102
RTVSPost2010PropOp40
 70
     0
102
RTVSPost2010Prop41ColorIndex
 90
       18
102
RTVSPost2010Prop41ColorRGB
 90
        0
102
RTVSPost2010PropOp41
 70
     0
102
RTVSPost2010Prop42
 90
       50
102
RTVSPost2010PropOp42
 70
     0
102
RTVSPost2010Prop43
 90
        3
102
RTVSPost2010PropOp43
 70
     0
102
RTVSPost2010Prop44ColorIndex
 90
        5
102
RTVSPost2010Prop44ColorRGB
 90
      255
102
RTVSPost2010PropOp44
 70
     0
102
RTVSPost2010Prop45
280
     0
102
RTVSPost2010PropOp45
 70
     1
102
RTVSPost2010Prop46
 90
       50
102
RTVSPost2010PropOp46
 70
     0
102
RTVSPost2010Prop47
 90
       50
102
RTVSPost2010PropOp47
 70
     0
102
RTVSPost2010Prop48
 90
       50
102
RTVSPost2010PropOp48
 70
     0
102
RTVSPost2010Prop49
280
     0
102
RTVSPost2010PropOp49
 70
     1
102
RTVSPost2010Prop50
 90
       50
102
RTVSPost2010PropOp50
 70
     0
102
RTVSPost2010Prop51ColorIndex
 90
      256
102
RTVSPost2010Prop51ColorRGB
 90
-16777216
102
RTVSPost2010PropOp51
 70
     0
102
RTVSPost2010Prop52
140
1.0
102
RTVSPost2010PropOp52
 70
     0
102
RTVSPost2010Prop53
 90
        2
102
RTVSPost2010PropOp53
 70
     0
102
RTVSPost2010Prop54
  1
strokes_ogs.tif
102
RTVSPost2010PropOp54
 70
     0
102
RTVSPost2010Prop55
280
     0
102
RTVSPost2010PropOp55
 70
     1
102
RTVSPost2010Prop56
140
1.0
102
RTVSPost2010PropOp56
 70
     0
102
RTVSPost2010Prop57
140
1.0
102
RTVSPost2010PropOp57
 70
     0
102
RTVSPropertyOp0
 70
     0
102
RTVSPropertyOp1
 70
     0
102
RTVSPropertyOp2
 70
     0
102
RTVSPropertyOp3
 70
     0
102
RTVSPropertyOp4
 70
     0
102
RTVSPropertyOp5
 70
     0
102
RTVSPropertyOp6
 70
     0
102
RTVSPropertyOp7
 70
     0
102
RTVSPropertyOp8
 70
     0
102
RTVSPropertyOp9
 70
     0
102
RTVSPropertyOp10
 70
     0
102
RTVSPropertyOp11
 70
     0
102
RTVSPropertyOp12
 70
     0
102
RTVSPropertyOp13
 70
     0
102
RTVSPropertyOp14
 70
     2
102
RTVSPropertyOp15
 70
     0
102
RTVSPropertyOp16
 70
     0
102
RTVSPropertyOp17
 70
     0
102
RTVSPropertyOp18
 70
     0
102
RTVSPropertyOp19
 70
     0
102
RTVSPropertyOp20
 70
     0
102
RTVSPropertyOp21
 70
     0
102
RTVSPropertyOp22
 70
     0
102
RTVSPropertyOp23
 70
     0
102
RTVSPropertyOp24
 70
     0
102
RTVSPropertyOp25
 70
     0
102
RTVSPropertyOp26
 70
     0
102
RTVSPropertyOp27
 70
     0
102
RTVSPropertyOp28
 70
     1
102
RTVSPropertyOp29
 70
     1
102
RTVSPropertyOp30
 70
     1
102
RTVSPropertyOp31
 70
     1
102
RTVSPropertyOp32
 70
     1
102
RTVSPropertyOp33
 70
     1
102
RTVSPropertyOp34
 70
     1
102
RTVSPropertyOp35
 70
     1
102
RTVSPropertyOp36
 70
     1
102
RTVSPropertyOp37
 70
     0
102
RTVSPropertyOp38
 70
     0
102
RTVSPropertyOp39
 70
     0
102
RTVSPropertyOp40
 70
     0
102
RTVSPropertyOp41
 70
     0
102
RTVSPropertyOp42
 70
     0
102
RTVSPropertyOp43
 70
     0
102
RTVSPropertyOp44
 70
     0
102
RTVSPropertyOp45
 70
     1
102
RTVSPropertyOp46
 70
     0
102
RTVSPropertyOp47
 70
     0
102
RTVSPropertyOp48
 70
     0
102
RTVSPropertyOp49
 70
     1
102
RTVSPropertyOp50
 70
     0
102
RTVSPropertyOp51
 70
     0
102
RTVSPropertyOp52
 70
     0
102
RTVSPropertyOp53
 70
     0
102
RTVSPropertyOp54
 70
     0
102
RTVSPropertyOp55
 70
     1
102
RTVSPropertyOp56
 70
     0
102
RTVSPropertyOp57
 70
     0
102
RTVSPropertyOp58
 70
     0
102
RTVSPropertyOp59
 70
     0
102
RTVSPropertyOp60
 70
     0
102
RTVSPropertyOp61
 70
     0
102
RTVSPropertyOp62
 70
     0
  0
XRECORD
  5
1EFF
102
{ACAD_REACTORS
330
1EFE
102
}
330
1EFE
100
AcDbXrecord
280
     1
102
RTVSPost2010Prop28
280
     0
102
RTVSPost2010PropOp28
 70
     1
102
RTVSPost2010Prop29
280
     1
102
RTVSPost2010PropOp29
 70
     1
102
RTVSPost2010Prop30
280
     1
102
RTVSPost2010PropOp30
 70
     1
102
RTVSPost2010Prop31
280
     0
102
RTVSPost2010PropOp31
 70
     1
102
RTVSPost2010Prop32
280
     0
102
RTVSPost2010PropOp32
 70
     1
102
RTVSPost2010Prop33
280
     0
102
RTVSPost2010PropOp33
 70
     1
102
RTVSPost2010Prop34
280
     0
102
RTVSPost2010PropOp34
 70
     1
102
RTVSPost2010Prop35
280
     0
102
RTVSPost2010PropOp35
 70
     1
102
RTVSPost2010Prop36
280
     0
102
RTVSPost2010PropOp36
 70
     1
102
RTVSPost2010Prop37
 90
       50
102
RTVSPost2010PropOp37
 70
     1
102
RTVSPost2010Prop38
140
0.0
102
RTVSPost2010PropOp38
 70
     1
102
RTVSPost2010Prop39
140
1.0
102
RTVSPost2010PropOp39
 70
     1
102
RTVSPost2010Prop40
 90
        0
102
RTVSPost2010PropOp40
 70
     1
102
RTVSPost2010Prop41ColorIndex
 90
       18
102
RTVSPost2010Prop41ColorRGB
 90
        0
102
RTVSPost2010PropOp41
 70
     1
102
RTVSPost2010Prop42
 90
       50
102
RTVSPost2010PropOp42
 70
     1
102
RTVSPost2010Prop43
 90
        3
102
RTVSPost2010PropOp43
 70
     1
102
RTVSPost2010Prop44ColorIndex
 90
        5
102
RTVSPost2010Prop44ColorRGB
 90
      255
102
RTVSPost2010PropOp44
 70
     1
102
RTVSPost2010Prop45
280
     0
102
RTVSPost2010PropOp45
 70
     1
102
RTVSPost2010Prop46
 90
       50
102
RTVSPost2010PropOp46
 70
     1
102
RTVSPost2010Prop47
 90
       50
102
RTVSPost2010PropOp47
 70
     1
102
RTVSPost2010Prop48
 90
       50
102
RTVSPost2010PropOp48
 70
     1
102
RTVSPost2010Prop49
280
     0
102
RTVSPost2010PropOp49
 70
     1
102
RTVSPost2010Prop50
 90
       50
102
RTVSPost2010PropOp50
 70
     1
102
RTVSPost2010Prop51ColorIndex
 90
      256
102
RTVSPost2010Prop51ColorRGB
 90
-16777216
102
RTVSPost2010PropOp51
 70
     0
102
RTVSPost2010Prop52
140
1.0
102
RTVSPost2010PropOp52
 70
     0
102
RTVSPost2010Prop53
 90
        2
102
RTVSPost2010PropOp53
 70
     1
102
RTVSPost2010Prop54
  1
strokes_ogs.tif
102
RTVSPost2010PropOp54
 70
     1
102
RTVSPost2010Prop55
280
     0
102
RTVSPost2010PropOp55
 70
     1
102
RTVSPost2010Prop56
140
1.0
102
RTVSPost2010PropOp56
 70
     1
102
RTVSPost2010Prop57
140
1.0
102
RTVSPost2010PropOp57
 70
     1
102
RTVSPropertyOp0
 70
     1
102
RTVSPropertyOp1
 70
     1
102
RTVSPropertyOp2
 70
     1
102
RTVSPropertyOp3
 70
     1
102
RTVSPropertyOp4
 70
     1
102
RTVSPropertyOp5
 70
     1
102
RTVSPropertyOp6
 70
     1
102
RTVSPropertyOp7
 70
     1
102
RTVSPropertyOp8
 70
     1
102
RTVSPropertyOp9
 70
     1
102
RTVSPropertyOp10
 70
     1
102
RTVSPropertyOp11
 70
     1
102
RTVSPropertyOp12
 70
     1
102
RTVSPropertyOp13
 70
     1
102
RTVSPropertyOp14
 70
     1
102
RTVSPropertyOp15
 70
     1
102
RTVSPropertyOp16
 70
     1
102
RTVSPropertyOp17
 70
     1
102
RTVSPropertyOp18
 70
     1
102
RTVSPropertyOp19
 70
     1
102
RTVSPropertyOp20
 70
     1
102
RTVSPropertyOp21
 70
     1
102
RTVSPropertyOp22
 70
     1
102
RTVSPropertyOp23
 70
     1
102
RTVSPropertyOp24
 70
     1
102
RTVSPropertyOp25
 70
     1
102
RTVSPropertyOp26
 70
     1
102
RTVSPropertyOp27
 70
     1
102
RTVSPropertyOp28
 70
     1
102
RTVSPropertyOp29
 70
     1
102
RTVSPropertyOp30
 70
     1
102
RTVSPropertyOp31
 70
     1
102
RTVSPropertyOp32
 70
     1
102
RTVSPropertyOp33
 70
     1
102
RTVSPropertyOp34
 70
     1
102
RTVSPropertyOp35
 70
     1
102
RTVSPropertyOp36
 70
     1
102
RTVSPropertyOp37
 70
     1
102
RTVSPropertyOp38
 70
     1
102
RTVSPropertyOp39
 70
     1
102
RTVSPropertyOp40
 70
     1
102
RTVSPropertyOp41
 70
     1
102
RTVSPropertyOp42
 70
     1
102
RTVSPropertyOp43
 70
     1
102
RTVSPropertyOp44
 70
     1
102
RTVSPropertyOp45
 70
     1
102
RTVSPropertyOp46
 70
     1
102
RTVSPropertyOp47
 70
     1
102
RTVSPropertyOp48
 70
     1
102
RTVSPropertyOp49
 70
     1
102
RTVSPropertyOp50
 70
     1
102
RTVSPropertyOp51
 70
     0
102
RTVSPropertyOp52
 70
     0
102
RTVSPropertyOp53
 70
     1
102
RTVSPropertyOp54
 70
     1
102
RTVSPropertyOp55
 70
     1
102
RTVSPropertyOp56
 70
     1
102
RTVSPropertyOp57
 70
     1
102
RTVSPropertyOp58
 70
     1
102
RTVSPropertyOp59
 70
     1
102
RTVSPropertyOp60
 70
     1
102
RTVSPropertyOp61
 70
     1
102
RTVSPropertyOp62
 70
     1
  0
XRECORD
  5
1F11
102
{ACAD_REACTORS
330
1F10
102
}
330
1F10
100
AcDbXrecord
280
     1
102
RTVSPost2010Prop28
280
     0
102
RTVSPost2010PropOp28
 70
     1
102
RTVSPost2010Prop29
280
     1
102
RTVSPost2010PropOp29
 70
     1
102
RTVSPost2010Prop30
280
     1
102
RTVSPost2010PropOp30
 70
     1
102
RTVSPost2010Prop31
280
     0
102
RTVSPost2010PropOp31
 70
     1
102
RTVSPost2010Prop32
280
     0
102
RTVSPost2010PropOp32
 70
     1
102
RTVSPost2010Prop33
280
     0
102
RTVSPost2010PropOp33
 70
     1
102
RTVSPost2010Prop34
280
     0
102
RTVSPost2010PropOp34
 70
     1
102
RTVSPost2010Prop35
280
     0
102
RTVSPost2010PropOp35
 70
     1
102
RTVSPost2010Prop36
280
     0
102
RTVSPost2010PropOp36
 70
     1
102
RTVSPost2010Prop37
 90
       50
102
RTVSPost2010PropOp37
 70
     0
102
RTVSPost2010Prop38
140
0.0
102
RTVSPost2010PropOp38
 70
     0
102
RTVSPost2010Prop39
140
1.0
102
RTVSPost2010PropOp39
 70
     0
102
RTVSPost2010Prop40
 90
        0
102
RTVSPost2010PropOp40
 70
     0
102
RTVSPost2010Prop41ColorIndex
 90
       18
102
RTVSPost2010Prop41ColorRGB
 90
        0
102
RTVSPost2010PropOp41
 70
     0
102
RTVSPost2010Prop42
 90
       50
102
RTVSPost2010PropOp42
 70
     0
102
RTVSPost2010Prop43
 90
        3
102
RTVSPost2010PropOp43
 70
     0
102
RTVSPost2010Prop44ColorIndex
 90
        5
102
RTVSPost2010Prop44ColorRGB
 90
      255
102
RTVSPost2010PropOp44
 70
     0
102
RTVSPost2010Prop45
280
     0
102
RTVSPost2010PropOp45
 70
     1
102
RTVSPost2010Prop46
 90
       50
102
RTVSPost2010PropOp46
 70
     0
102
RTVSPost2010Prop47
 90
       50
102
RTVSPost2010PropOp47
 70
     0
102
RTVSPost2010Prop48
 90
       50
102
RTVSPost2010PropOp48
 70
     0
102
RTVSPost2010Prop49
280
     0
102
RTVSPost2010PropOp49
 70
     1
102
RTVSPost2010Prop50
 90
       50
102
RTVSPost2010PropOp50
 70
     0
102
RTVSPost2010Prop51ColorIndex
 90
      256
102
RTVSPost2010Prop51ColorRGB
 90
-16777216
102
RTVSPost2010PropOp51
 70
     0
102
RTVSPost2010Prop52
140
1.0
102
RTVSPost2010PropOp52
 70
     0
102
RTVSPost2010Prop53
 90
        2
102
RTVSPost2010PropOp53
 70
     0
102
RTVSPost2010Prop54
  1
strokes_ogs.tif
102
RTVSPost2010PropOp54
 70
     0
102
RTVSPost2010Prop55
280
     0
102
RTVSPost2010PropOp55
 70
     1
102
RTVSPost2010Prop56
140
1.0
102
RTVSPost2010PropOp56
 70
     0
102
RTVSPost2010Prop57
140
1.0
102
RTVSPost2010PropOp57
 70
     0
102
RTVSPropertyOp0
 70
     0
102
RTVSPropertyOp1
 70
     0
102
RTVSPropertyOp2
 70
     0
102
RTVSPropertyOp3
 70
     0
102
RTVSPropertyOp4
 70
     0
102
RTVSPropertyOp5
 70
     0
102
RTVSPropertyOp6
 70
     0
102
RTVSPropertyOp7
 70
     0
102
RTVSPropertyOp8
 70
     0
102
RTVSPropertyOp9
 70
     0
102
RTVSPropertyOp10
 70
     0
102
RTVSPropertyOp11
 70
     0
102
RTVSPropertyOp12
 70
     0
102
RTVSPropertyOp13
 70
     0
102
RTVSPropertyOp14
 70
     2
102
RTVSPropertyOp15
 70
     0
102
RTVSPropertyOp16
 70
     0
102
RTVSPropertyOp17
 70
     0
102
RTVSPropertyOp18
 70
     0
102
RTVSPropertyOp19
 70
     0
102
RTVSPropertyOp20
 70
     0
102
RTVSPropertyOp21
 70
     0
102
RTVSPropertyOp22
 70
     0
102
RTVSPropertyOp23
 70
     0
102
RTVSPropertyOp24
 70
     0
102
RTVSPropertyOp25
 70
     0
102
RTVSPropertyOp26
 70
     0
102
RTVSPropertyOp27
 70
     0
102
RTVSPropertyOp28
 70
     1
102
RTVSPropertyOp29
 70
     1
102
RTVSPropertyOp30
 70
     1
102
RTVSPropertyOp31
 70
     1
102
RTVSPropertyOp32
 70
     1
102
RTVSPropertyOp33
 70
     1
102
RTVSPropertyOp34
 70
     1
102
RTVSPropertyOp35
 70
     1
102
RTVSPropertyOp36
 70
     1
102
RTVSPropertyOp37
 70
     0
102
RTVSPropertyOp38
 70
     0
102
RTVSPropertyOp39
 70
     0
102
RTVSPropertyOp40
 70
     0
102
RTVSPropertyOp41
 70
     0
102
RTVSPropertyOp42
 70
     0
102
RTVSPropertyOp43
 70
     0
102
RTVSPropertyOp44
 70
     0
102
RTVSPropertyOp45
 70
     1
102
RTVSPropertyOp46
 70
     0
102
RTVSPropertyOp47
 70
     0
102
RTVSPropertyOp48
 70
     0
102
RTVSPropertyOp49
 70
     1
102
RTVSPropertyOp50
 70
     0
102
RTVSPropertyOp51
 70
     0
102
RTVSPropertyOp52
 70
     0
102
RTVSPropertyOp53
 70
     0
102
RTVSPropertyOp54
 70
     0
102
RTVSPropertyOp55
 70
     1
102
RTVSPropertyOp56
 70
     0
102
RTVSPropertyOp57
 70
     0
102
RTVSPropertyOp58
 70
     0
102
RTVSPropertyOp59
 70
     0
102
RTVSPropertyOp60
 70
     0
102
RTVSPropertyOp61
 70
     0
102
RTVSPropertyOp62
 70
     0
  0
XRECORD
  5
1EF7
102
{ACAD_REACTORS
330
1EF6
102
}
330
1EF6
100
AcDbXrecord
280
     1
102
RTVSPost2010Prop28
280
     0
102
RTVSPost2010PropOp28
 70
     1
102
RTVSPost2010Prop29
280
     1
102
RTVSPost2010PropOp29
 70
     1
102
RTVSPost2010Prop30
280
     1
102
RTVSPost2010PropOp30
 70
     1
102
RTVSPost2010Prop31
280
     0
102
RTVSPost2010PropOp31
 70
     1
102
RTVSPost2010Prop32
280
     0
102
RTVSPost2010PropOp32
 70
     1
102
RTVSPost2010Prop33
280
     0
102
RTVSPost2010PropOp33
 70
     1
102
RTVSPost2010Prop34
280
     0
102
RTVSPost2010PropOp34
 70
     1
102
RTVSPost2010Prop35
280
     0
102
RTVSPost2010PropOp35
 70
     1
102
RTVSPost2010Prop36
280
     0
102
RTVSPost2010PropOp36
 70
     1
102
RTVSPost2010Prop37
 90
       50
102
RTVSPost2010PropOp37
 70
     1
102
RTVSPost2010Prop38
140
0.0
102
RTVSPost2010PropOp38
 70
     1
102
RTVSPost2010Prop39
140
1.0
102
RTVSPost2010PropOp39
 70
     1
102
RTVSPost2010Prop40
 90
        0
102
RTVSPost2010PropOp40
 70
     1
102
RTVSPost2010Prop41ColorIndex
 90
       18
102
RTVSPost2010Prop41ColorRGB
 90
        0
102
RTVSPost2010PropOp41
 70
     1
102
RTVSPost2010Prop42
 90
       50
102
RTVSPost2010PropOp42
 70
     1
102
RTVSPost2010Prop43
 90
        3
102
RTVSPost2010PropOp43
 70
     1
102
RTVSPost2010Prop44ColorIndex
 90
        5
102
RTVSPost2010Prop44ColorRGB
 90
      255
102
RTVSPost2010PropOp44
 70
     1
102
RTVSPost2010Prop45
280
     0
102
RTVSPost2010PropOp45
 70
     1
102
RTVSPost2010Prop46
 90
       50
102
RTVSPost2010PropOp46
 70
     1
102
RTVSPost2010Prop47
 90
       50
102
RTVSPost2010PropOp47
 70
     1
102
RTVSPost2010Prop48
 90
       50
102
RTVSPost2010PropOp48
 70
     1
102
RTVSPost2010Prop49
280
     0
102
RTVSPost2010PropOp49
 70
     1
102
RTVSPost2010Prop50
 90
       50
102
RTVSPost2010PropOp50
 70
     1
102
RTVSPost2010Prop51ColorIndex
 90
      256
102
RTVSPost2010Prop51ColorRGB
 90
-16777216
102
RTVSPost2010PropOp51
 70
     0
102
RTVSPost2010Prop52
140
1.0
102
RTVSPost2010PropOp52
 70
     0
102
RTVSPost2010Prop53
 90
        2
102
RTVSPost2010PropOp53
 70
     1
102
RTVSPost2010Prop54
  1
strokes_ogs.tif
102
RTVSPost2010PropOp54
 70
     1
102
RTVSPost2010Prop55
280
     0
102
RTVSPost2010PropOp55
 70
     1
102
RTVSPost2010Prop56
140
1.0
102
RTVSPost2010PropOp56
 70
     1
102
RTVSPost2010Prop57
140
1.0
102
RTVSPost2010PropOp57
 70
     1
102
RTVSPropertyOp0
 70
     1
102
RTVSPropertyOp1
 70
     1
102
RTVSPropertyOp2
 70
     1
102
RTVSPropertyOp3
 70
     1
102
RTVSPropertyOp4
 70
     1
102
RTVSPropertyOp5
 70
     1
102
RTVSPropertyOp6
 70
     1
102
RTVSPropertyOp7
 70
     1
102
RTVSPropertyOp8
 70
     1
102
RTVSPropertyOp9
 70
     1
102
RTVSPropertyOp10
 70
     1
102
RTVSPropertyOp11
 70
     1
102
RTVSPropertyOp12
 70
     1
102
RTVSPropertyOp13
 70
     1
102
RTVSPropertyOp14
 70
     1
102
RTVSPropertyOp15
 70
     1
102
RTVSPropertyOp16
 70
     1
102
RTVSPropertyOp17
 70
     1
102
RTVSPropertyOp18
 70
     1
102
RTVSPropertyOp19
 70
     1
102
RTVSPropertyOp20
 70
     1
102
RTVSPropertyOp21
 70
     1
102
RTVSPropertyOp22
 70
     1
102
RTVSPropertyOp23
 70
     1
102
RTVSPropertyOp24
 70
     1
102
RTVSPropertyOp25
 70
     1
102
RTVSPropertyOp26
 70
     1
102
RTVSPropertyOp27
 70
     1
102
RTVSPropertyOp28
 70
     1
102
RTVSPropertyOp29
 70
     1
102
RTVSPropertyOp30
 70
     1
102
RTVSPropertyOp31
 70
     1
102
RTVSPropertyOp32
 70
     1
102
RTVSPropertyOp33
 70
     1
102
RTVSPropertyOp34
 70
     1
102
RTVSPropertyOp35
 70
     1
102
RTVSPropertyOp36
 70
     1
102
RTVSPropertyOp37
 70
     1
102
RTVSPropertyOp38
 70
     1
102
RTVSPropertyOp39
 70
     1
102
RTVSPropertyOp40
 70
     1
102
RTVSPropertyOp41
 70
     1
102
RTVSPropertyOp42
 70
     1
102
RTVSPropertyOp43
 70
     1
102
RTVSPropertyOp44
 70
     1
102
RTVSPropertyOp45
 70
     1
102
RTVSPropertyOp46
 70
     1
102
RTVSPropertyOp47
 70
     1
102
RTVSPropertyOp48
 70
     1
102
RTVSPropertyOp49
 70
     1
102
RTVSPropertyOp50
 70
     1
102
RTVSPropertyOp51
 70
     0
102
RTVSPropertyOp52
 70
     0
102
RTVSPropertyOp53
 70
     1
102
RTVSPropertyOp54
 70
     1
102
RTVSPropertyOp55
 70
     1
102
RTVSPropertyOp56
 70
     1
102
RTVSPropertyOp57
 70
     1
102
RTVSPropertyOp58
 70
     1
102
RTVSPropertyOp59
 70
     1
102
RTVSPropertyOp60
 70
     1
102
RTVSPropertyOp61
 70
     1
102
RTVSPropertyOp62
 70
     1
  0
XRECORD
  5
1F0D
102
{ACAD_REACTORS
330
1F0C
102
}
330
1F0C
100
AcDbXrecord
280
     1
102
RTVSPost2010Prop28
280
     0
102
RTVSPost2010PropOp28
 70
     1
102
RTVSPost2010Prop29
280
     1
102
RTVSPost2010PropOp29
 70
     1
102
RTVSPost2010Prop30
280
     1
102
RTVSPost2010PropOp30
 70
     1
102
RTVSPost2010Prop31
280
     0
102
RTVSPost2010PropOp31
 70
     1
102
RTVSPost2010Prop32
280
     0
102
RTVSPost2010PropOp32
 70
     1
102
RTVSPost2010Prop33
280
     0
102
RTVSPost2010PropOp33
 70
     1
102
RTVSPost2010Prop34
280
     0
102
RTVSPost2010PropOp34
 70
     1
102
RTVSPost2010Prop35
280
     0
102
RTVSPost2010PropOp35
 70
     1
102
RTVSPost2010Prop36
280
     0
102
RTVSPost2010PropOp36
 70
     1
102
RTVSPost2010Prop37
 90
       50
102
RTVSPost2010PropOp37
 70
     1
102
RTVSPost2010Prop38
140
0.0
102
RTVSPost2010PropOp38
 70
     1
102
RTVSPost2010Prop39
140
1.0
102
RTVSPost2010PropOp39
 70
     1
102
RTVSPost2010Prop40
 90
        0
102
RTVSPost2010PropOp40
 70
     1
102
RTVSPost2010Prop41ColorIndex
 90
       18
102
RTVSPost2010Prop41ColorRGB
 90
        0
102
RTVSPost2010PropOp41
 70
     1
102
RTVSPost2010Prop42
 90
       50
102
RTVSPost2010PropOp42
 70
     1
102
RTVSPost2010Prop43
 90
        3
102
RTVSPost2010PropOp43
 70
     1
102
RTVSPost2010Prop44ColorIndex
 90
        5
102
RTVSPost2010Prop44ColorRGB
 90
      255
102
RTVSPost2010PropOp44
 70
     1
102
RTVSPost2010Prop45
280
     0
102
RTVSPost2010PropOp45
 70
     1
102
RTVSPost2010Prop46
 90
       50
102
RTVSPost2010PropOp46
 70
     1
102
RTVSPost2010Prop47
 90
       50
102
RTVSPost2010PropOp47
 70
     1
102
RTVSPost2010Prop48
 90
       50
102
RTVSPost2010PropOp48
 70
     1
102
RTVSPost2010Prop49
280
     0
102
RTVSPost2010PropOp49
 70
     1
102
RTVSPost2010Prop50
 90
       50
102
RTVSPost2010PropOp50
 70
     1
102
RTVSPost2010Prop51ColorIndex
 90
      256
102
RTVSPost2010Prop51ColorRGB
 90
-16777216
102
RTVSPost2010PropOp51
 70
     0
102
RTVSPost2010Prop52
140
1.0
102
RTVSPost2010PropOp52
 70
     0
102
RTVSPost2010Prop53
 90
        2
102
RTVSPost2010PropOp53
 70
     1
102
RTVSPost2010Prop54
  1
strokes_ogs.tif
102
RTVSPost2010PropOp54
 70
     1
102
RTVSPost2010Prop55
280
     0
102
RTVSPost2010PropOp55
 70
     1
102
RTVSPost2010Prop56
140
1.0
102
RTVSPost2010PropOp56
 70
     1
102
RTVSPost2010Prop57
140
1.0
102
RTVSPost2010PropOp57
 70
     1
102
RTVSPropertyOp0
 70
     1
102
RTVSPropertyOp1
 70
     1
102
RTVSPropertyOp2
 70
     1
102
RTVSPropertyOp3
 70
     1
102
RTVSPropertyOp4
 70
     1
102
RTVSPropertyOp5
 70
     1
102
RTVSPropertyOp6
 70
     1
102
RTVSPropertyOp7
 70
     1
102
RTVSPropertyOp8
 70
     1
102
RTVSPropertyOp9
 70
     1
102
RTVSPropertyOp10
 70
     1
102
RTVSPropertyOp11
 70
     1
102
RTVSPropertyOp12
 70
     1
102
RTVSPropertyOp13
 70
     1
102
RTVSPropertyOp14
 70
     1
102
RTVSPropertyOp15
 70
     1
102
RTVSPropertyOp16
 70
     1
102
RTVSPropertyOp17
 70
     1
102
RTVSPropertyOp18
 70
     1
102
RTVSPropertyOp19
 70
     1
102
RTVSPropertyOp20
 70
     1
102
RTVSPropertyOp21
 70
     1
102
RTVSPropertyOp22
 70
     1
102
RTVSPropertyOp23
 70
     1
102
RTVSPropertyOp24
 70
     1
102
RTVSPropertyOp25
 70
     1
102
RTVSPropertyOp26
 70
     1
102
RTVSPropertyOp27
 70
     1
102
RTVSPropertyOp28
 70
     1
102
RTVSPropertyOp29
 70
     1
102
RTVSPropertyOp30
 70
     1
102
RTVSPropertyOp31
 70
     1
102
RTVSPropertyOp32
 70
     1
102
RTVSPropertyOp33
 70
     1
102
RTVSPropertyOp34
 70
     1
102
RTVSPropertyOp35
 70
     1
102
RTVSPropertyOp36
 70
     1
102
RTVSPropertyOp37
 70
     1
102
RTVSPropertyOp38
 70
     1
102
RTVSPropertyOp39
 70
     1
102
RTVSPropertyOp40
 70
     1
102
RTVSPropertyOp41
 70
     1
102
RTVSPropertyOp42
 70
     1
102
RTVSPropertyOp43
 70
     1
102
RTVSPropertyOp44
 70
     1
102
RTVSPropertyOp45
 70
     1
102
RTVSPropertyOp46
 70
     1
102
RTVSPropertyOp47
 70
     1
102
RTVSPropertyOp48
 70
     1
102
RTVSPropertyOp49
 70
     1
102
RTVSPropertyOp50
 70
     1
102
RTVSPropertyOp51
 70
     0
102
RTVSPropertyOp52
 70
     0
102
RTVSPropertyOp53
 70
     1
102
RTVSPropertyOp54
 70
     1
102
RTVSPropertyOp55
 70
     1
102
RTVSPropertyOp56
 70
     1
102
RTVSPropertyOp57
 70
     1
102
RTVSPropertyOp58
 70
     1
102
RTVSPropertyOp59
 70
     1
102
RTVSPropertyOp60
 70
     1
102
RTVSPropertyOp61
 70
     1
102
RTVSPropertyOp62
 70
     1
  0
XRECORD
  5
1F0B
102
{ACAD_REACTORS
330
1F0A
102
}
330
1F0A
100
AcDbXrecord
280
     1
102
RTVSPost2010Prop28
280
     0
102
RTVSPost2010PropOp28
 70
     1
102
RTVSPost2010Prop29
280
     1
102
RTVSPost2010PropOp29
 70
     1
102
RTVSPost2010Prop30
280
     1
102
RTVSPost2010PropOp30
 70
     1
102
RTVSPost2010Prop31
280
     0
102
RTVSPost2010PropOp31
 70
     1
102
RTVSPost2010Prop32
280
     0
102
RTVSPost2010PropOp32
 70
     1
102
RTVSPost2010Prop33
280
     0
102
RTVSPost2010PropOp33
 70
     1
102
RTVSPost2010Prop34
280
     0
102
RTVSPost2010PropOp34
 70
     1
102
RTVSPost2010Prop35
280
     0
102
RTVSPost2010PropOp35
 70
     1
102
RTVSPost2010Prop36
280
     0
102
RTVSPost2010PropOp36
 70
     1
102
RTVSPost2010Prop37
 90
       50
102
RTVSPost2010PropOp37
 70
     1
102
RTVSPost2010Prop38
140
0.0
102
RTVSPost2010PropOp38
 70
     1
102
RTVSPost2010Prop39
140
1.0
102
RTVSPost2010PropOp39
 70
     1
102
RTVSPost2010Prop40
 90
        0
102
RTVSPost2010PropOp40
 70
     1
102
RTVSPost2010Prop41ColorIndex
 90
       18
102
RTVSPost2010Prop41ColorRGB
 90
        0
102
RTVSPost2010PropOp41
 70
     1
102
RTVSPost2010Prop42
 90
       50
102
RTVSPost2010PropOp42
 70
     1
102
RTVSPost2010Prop43
 90
        3
102
RTVSPost2010PropOp43
 70
     1
102
RTVSPost2010Prop44ColorIndex
 90
        5
102
RTVSPost2010Prop44ColorRGB
 90
      255
102
RTVSPost2010PropOp44
 70
     1
102
RTVSPost2010Prop45
280
     0
102
RTVSPost2010PropOp45
 70
     1
102
RTVSPost2010Prop46
 90
       50
102
RTVSPost2010PropOp46
 70
     1
102
RTVSPost2010Prop47
 90
       50
102
RTVSPost2010PropOp47
 70
     1
102
RTVSPost2010Prop48
 90
       50
102
RTVSPost2010PropOp48
 70
     1
102
RTVSPost2010Prop49
280
     0
102
RTVSPost2010PropOp49
 70
     1
102
RTVSPost2010Prop50
 90
       50
102
RTVSPost2010PropOp50
 70
     1
102
RTVSPost2010Prop51ColorIndex
 90
      256
102
RTVSPost2010Prop51ColorRGB
 90
-16777216
102
RTVSPost2010PropOp51
 70
     0
102
RTVSPost2010Prop52
140
1.0
102
RTVSPost2010PropOp52
 70
     0
102
RTVSPost2010Prop53
 90
        2
102
RTVSPost2010PropOp53
 70
     1
102
RTVSPost2010Prop54
  1
strokes_ogs.tif
102
RTVSPost2010PropOp54
 70
     1
102
RTVSPost2010Prop55
280
     0
102
RTVSPost2010PropOp55
 70
     1
102
RTVSPost2010Prop56
140
1.0
102
RTVSPost2010PropOp56
 70
     1
102
RTVSPost2010Prop57
140
1.0
102
RTVSPost2010PropOp57
 70
     1
102
RTVSPropertyOp0
 70
     1
102
RTVSPropertyOp1
 70
     1
102
RTVSPropertyOp2
 70
     1
102
RTVSPropertyOp3
 70
     1
102
RTVSPropertyOp4
 70
     1
102
RTVSPropertyOp5
 70
     1
102
RTVSPropertyOp6
 70
     1
102
RTVSPropertyOp7
 70
     1
102
RTVSPropertyOp8
 70
     1
102
RTVSPropertyOp9
 70
     1
102
RTVSPropertyOp10
 70
     1
102
RTVSPropertyOp11
 70
     1
102
RTVSPropertyOp12
 70
     1
102
RTVSPropertyOp13
 70
     1
102
RTVSPropertyOp14
 70
     1
102
RTVSPropertyOp15
 70
     1
102
RTVSPropertyOp16
 70
     1
102
RTVSPropertyOp17
 70
     1
102
RTVSPropertyOp18
 70
     1
102
RTVSPropertyOp19
 70
     1
102
RTVSPropertyOp20
 70
     1
102
RTVSPropertyOp21
 70
     1
102
RTVSPropertyOp22
 70
     1
102
RTVSPropertyOp23
 70
     1
102
RTVSPropertyOp24
 70
     1
102
RTVSPropertyOp25
 70
     1
102
RTVSPropertyOp26
 70
     1
102
RTVSPropertyOp27
 70
     1
102
RTVSPropertyOp28
 70
     1
102
RTVSPropertyOp29
 70
     1
102
RTVSPropertyOp30
 70
     1
102
RTVSPropertyOp31
 70
     1
102
RTVSPropertyOp32
 70
     1
102
RTVSPropertyOp33
 70
     1
102
RTVSPropertyOp34
 70
     1
102
RTVSPropertyOp35
 70
     1
102
RTVSPropertyOp36
 70
     1
102
RTVSPropertyOp37
 70
     1
102
RTVSPropertyOp38
 70
     1
102
RTVSPropertyOp39
 70
     1
102
RTVSPropertyOp40
 70
     1
102
RTVSPropertyOp41
 70
     1
102
RTVSPropertyOp42
 70
     1
102
RTVSPropertyOp43
 70
     1
102
RTVSPropertyOp44
 70
     1
102
RTVSPropertyOp45
 70
     1
102
RTVSPropertyOp46
 70
     1
102
RTVSPropertyOp47
 70
     1
102
RTVSPropertyOp48
 70
     1
102
RTVSPropertyOp49
 70
     1
102
RTVSPropertyOp50
 70
     1
102
RTVSPropertyOp51
 70
     0
102
RTVSPropertyOp52
 70
     0
102
RTVSPropertyOp53
 70
     1
102
RTVSPropertyOp54
 70
     1
102
RTVSPropertyOp55
 70
     1
102
RTVSPropertyOp56
 70
     1
102
RTVSPropertyOp57
 70
     1
102
RTVSPropertyOp58
 70
     1
102
RTVSPropertyOp59
 70
     1
102
RTVSPropertyOp60
 70
     1
102
RTVSPropertyOp61
 70
     1
102
RTVSPropertyOp62
 70
     1
  0
XRECORD
  5
1F05
102
{ACAD_REACTORS
330
1F04
102
}
330
1F04
100
AcDbXrecord
280
     1
102
RTVSPost2010Prop28
280
     0
102
RTVSPost2010PropOp28
 70
     1
102
RTVSPost2010Prop29
280
     1
102
RTVSPost2010PropOp29
 70
     1
102
RTVSPost2010Prop30
280
     1
102
RTVSPost2010PropOp30
 70
     1
102
RTVSPost2010Prop31
280
     0
102
RTVSPost2010PropOp31
 70
     1
102
RTVSPost2010Prop32
280
     0
102
RTVSPost2010PropOp32
 70
     1
102
RTVSPost2010Prop33
280
     0
102
RTVSPost2010PropOp33
 70
     1
102
RTVSPost2010Prop34
280
     0
102
RTVSPost2010PropOp34
 70
     1
102
RTVSPost2010Prop35
280
     0
102
RTVSPost2010PropOp35
 70
     1
102
RTVSPost2010Prop36
280
     0
102
RTVSPost2010PropOp36
 70
     1
102
RTVSPost2010Prop37
 90
       50
102
RTVSPost2010PropOp37
 70
     1
102
RTVSPost2010Prop38
140
0.0
102
RTVSPost2010PropOp38
 70
     1
102
RTVSPost2010Prop39
140
1.0
102
RTVSPost2010PropOp39
 70
     1
102
RTVSPost2010Prop40
 90
        0
102
RTVSPost2010PropOp40
 70
     1
102
RTVSPost2010Prop41ColorIndex
 90
       18
102
RTVSPost2010Prop41ColorRGB
 90
        0
102
RTVSPost2010PropOp41
 70
     1
102
RTVSPost2010Prop42
 90
       50
102
RTVSPost2010PropOp42
 70
     1
102
RTVSPost2010Prop43
 90
        3
102
RTVSPost2010PropOp43
 70
     1
102
RTVSPost2010Prop44ColorIndex
 90
        5
102
RTVSPost2010Prop44ColorRGB
 90
      255
102
RTVSPost2010PropOp44
 70
     1
102
RTVSPost2010Prop45
280
     0
102
RTVSPost2010PropOp45
 70
     1
102
RTVSPost2010Prop46
 90
       50
102
RTVSPost2010PropOp46
 70
     1
102
RTVSPost2010Prop47
 90
       50
102
RTVSPost2010PropOp47
 70
     1
102
RTVSPost2010Prop48
 90
       50
102
RTVSPost2010PropOp48
 70
     1
102
RTVSPost2010Prop49
280
     0
102
RTVSPost2010PropOp49
 70
     1
102
RTVSPost2010Prop50
 90
       50
102
RTVSPost2010PropOp50
 70
     1
102
RTVSPost2010Prop51ColorIndex
 90
      256
102
RTVSPost2010Prop51ColorRGB
 90
-16777216
102
RTVSPost2010PropOp51
 70
     0
102
RTVSPost2010Prop52
140
1.0
102
RTVSPost2010PropOp52
 70
     0
102
RTVSPost2010Prop53
 90
        2
102
RTVSPost2010PropOp53
 70
     1
102
RTVSPost2010Prop54
  1
strokes_ogs.tif
102
RTVSPost2010PropOp54
 70
     1
102
RTVSPost2010Prop55
280
     0
102
RTVSPost2010PropOp55
 70
     1
102
RTVSPost2010Prop56
140
1.0
102
RTVSPost2010PropOp56
 70
     1
102
RTVSPost2010Prop57
140
1.0
102
RTVSPost2010PropOp57
 70
     1
102
RTVSPropertyOp0
 70
     1
102
RTVSPropertyOp1
 70
     1
102
RTVSPropertyOp2
 70
     1
102
RTVSPropertyOp3
 70
     1
102
RTVSPropertyOp4
 70
     1
102
RTVSPropertyOp5
 70
     1
102
RTVSPropertyOp6
 70
     1
102
RTVSPropertyOp7
 70
     1
102
RTVSPropertyOp8
 70
     1
102
RTVSPropertyOp9
 70
     1
102
RTVSPropertyOp10
 70
     1
102
RTVSPropertyOp11
 70
     1
102
RTVSPropertyOp12
 70
     1
102
RTVSPropertyOp13
 70
     1
102
RTVSPropertyOp14
 70
     1
102
RTVSPropertyOp15
 70
     1
102
RTVSPropertyOp16
 70
     1
102
RTVSPropertyOp17
 70
     1
102
RTVSPropertyOp18
 70
     1
102
RTVSPropertyOp19
 70
     1
102
RTVSPropertyOp20
 70
     1
102
RTVSPropertyOp21
 70
     1
102
RTVSPropertyOp22
 70
     1
102
RTVSPropertyOp23
 70
     1
102
RTVSPropertyOp24
 70
     1
102
RTVSPropertyOp25
 70
     1
102
RTVSPropertyOp26
 70
     1
102
RTVSPropertyOp27
 70
     1
102
RTVSPropertyOp28
 70
     1
102
RTVSPropertyOp29
 70
     1
102
RTVSPropertyOp30
 70
     1
102
RTVSPropertyOp31
 70
     1
102
RTVSPropertyOp32
 70
     1
102
RTVSPropertyOp33
 70
     1
102
RTVSPropertyOp34
 70
     1
102
RTVSPropertyOp35
 70
     1
102
RTVSPropertyOp36
 70
     1
102
RTVSPropertyOp37
 70
     1
102
RTVSPropertyOp38
 70
     1
102
RTVSPropertyOp39
 70
     1
102
RTVSPropertyOp40
 70
     1
102
RTVSPropertyOp41
 70
     1
102
RTVSPropertyOp42
 70
     1
102
RTVSPropertyOp43
 70
     1
102
RTVSPropertyOp44
 70
     1
102
RTVSPropertyOp45
 70
     1
102
RTVSPropertyOp46
 70
     1
102
RTVSPropertyOp47
 70
     1
102
RTVSPropertyOp48
 70
     1
102
RTVSPropertyOp49
 70
     1
102
RTVSPropertyOp50
 70
     1
102
RTVSPropertyOp51
 70
     0
102
RTVSPropertyOp52
 70
     0
102
RTVSPropertyOp53
 70
     1
102
RTVSPropertyOp54
 70
     1
102
RTVSPropertyOp55
 70
     1
102
RTVSPropertyOp56
 70
     1
102
RTVSPropertyOp57
 70
     1
102
RTVSPropertyOp58
 70
     1
102
RTVSPropertyOp59
 70
     1
102
RTVSPropertyOp60
 70
     1
102
RTVSPropertyOp61
 70
     1
102
RTVSPropertyOp62
 70
     1
  0
XRECORD
  5
1F07
102
{ACAD_REACTORS
330
1F06
102
}
330
1F06
100
AcDbXrecord
280
     1
102
RTVSPost2010Prop28
280
     0
102
RTVSPost2010PropOp28
 70
     1
102
RTVSPost2010Prop29
280
     1
102
RTVSPost2010PropOp29
 70
     1
102
RTVSPost2010Prop30
280
     1
102
RTVSPost2010PropOp30
 70
     1
102
RTVSPost2010Prop31
280
     0
102
RTVSPost2010PropOp31
 70
     1
102
RTVSPost2010Prop32
280
     0
102
RTVSPost2010PropOp32
 70
     1
102
RTVSPost2010Prop33
280
     0
102
RTVSPost2010PropOp33
 70
     1
102
RTVSPost2010Prop34
280
     0
102
RTVSPost2010PropOp34
 70
     1
102
RTVSPost2010Prop35
280
     0
102
RTVSPost2010PropOp35
 70
     1
102
RTVSPost2010Prop36
280
     0
102
RTVSPost2010PropOp36
 70
     1
102
RTVSPost2010Prop37
 90
       50
102
RTVSPost2010PropOp37
 70
     1
102
RTVSPost2010Prop38
140
0.0
102
RTVSPost2010PropOp38
 70
     1
102
RTVSPost2010Prop39
140
1.0
102
RTVSPost2010PropOp39
 70
     1
102
RTVSPost2010Prop40
 90
        0
102
RTVSPost2010PropOp40
 70
     1
102
RTVSPost2010Prop41ColorIndex
 90
       18
102
RTVSPost2010Prop41ColorRGB
 90
        0
102
RTVSPost2010PropOp41
 70
     1
102
RTVSPost2010Prop42
 90
       50
102
RTVSPost2010PropOp42
 70
     1
102
RTVSPost2010Prop43
 90
        3
102
RTVSPost2010PropOp43
 70
     1
102
RTVSPost2010Prop44ColorIndex
 90
        5
102
RTVSPost2010Prop44ColorRGB
 90
      255
102
RTVSPost2010PropOp44
 70
     1
102
RTVSPost2010Prop45
280
     0
102
RTVSPost2010PropOp45
 70
     1
102
RTVSPost2010Prop46
 90
       50
102
RTVSPost2010PropOp46
 70
     1
102
RTVSPost2010Prop47
 90
       50
102
RTVSPost2010PropOp47
 70
     1
102
RTVSPost2010Prop48
 90
       50
102
RTVSPost2010PropOp48
 70
     1
102
RTVSPost2010Prop49
280
     0
102
RTVSPost2010PropOp49
 70
     1
102
RTVSPost2010Prop50
 90
       50
102
RTVSPost2010PropOp50
 70
     1
102
RTVSPost2010Prop51ColorIndex
 90
      256
102
RTVSPost2010Prop51ColorRGB
 90
-16777216
102
RTVSPost2010PropOp51
 70
     0
102
RTVSPost2010Prop52
140
1.0
102
RTVSPost2010PropOp52
 70
     0
102
RTVSPost2010Prop53
 90
        2
102
RTVSPost2010PropOp53
 70
     1
102
RTVSPost2010Prop54
  1
strokes_ogs.tif
102
RTVSPost2010PropOp54
 70
     1
102
RTVSPost2010Prop55
280
     0
102
RTVSPost2010PropOp55
 70
     1
102
RTVSPost2010Prop56
140
1.0
102
RTVSPost2010PropOp56
 70
     1
102
RTVSPost2010Prop57
140
1.0
102
RTVSPost2010PropOp57
 70
     1
102
RTVSPropertyOp0
 70
     1
102
RTVSPropertyOp1
 70
     1
102
RTVSPropertyOp2
 70
     1
102
RTVSPropertyOp3
 70
     1
102
RTVSPropertyOp4
 70
     1
102
RTVSPropertyOp5
 70
     1
102
RTVSPropertyOp6
 70
     1
102
RTVSPropertyOp7
 70
     1
102
RTVSPropertyOp8
 70
     1
102
RTVSPropertyOp9
 70
     1
102
RTVSPropertyOp10
 70
     1
102
RTVSPropertyOp11
 70
     1
102
RTVSPropertyOp12
 70
     1
102
RTVSPropertyOp13
 70
     1
102
RTVSPropertyOp14
 70
     1
102
RTVSPropertyOp15
 70
     1
102
RTVSPropertyOp16
 70
     1
102
RTVSPropertyOp17
 70
     1
102
RTVSPropertyOp18
 70
     1
102
RTVSPropertyOp19
 70
     1
102
RTVSPropertyOp20
 70
     1
102
RTVSPropertyOp21
 70
     1
102
RTVSPropertyOp22
 70
     1
102
RTVSPropertyOp23
 70
     1
102
RTVSPropertyOp24
 70
     1
102
RTVSPropertyOp25
 70
     1
102
RTVSPropertyOp26
 70
     1
102
RTVSPropertyOp27
 70
     1
102
RTVSPropertyOp28
 70
     1
102
RTVSPropertyOp29
 70
     1
102
RTVSPropertyOp30
 70
     1
102
RTVSPropertyOp31
 70
     1
102
RTVSPropertyOp32
 70
     1
102
RTVSPropertyOp33
 70
     1
102
RTVSPropertyOp34
 70
     1
102
RTVSPropertyOp35
 70
     1
102
RTVSPropertyOp36
 70
     1
102
RTVSPropertyOp37
 70
     1
102
RTVSPropertyOp38
 70
     1
102
RTVSPropertyOp39
 70
     1
102
RTVSPropertyOp40
 70
     1
102
RTVSPropertyOp41
 70
     1
102
RTVSPropertyOp42
 70
     1
102
RTVSPropertyOp43
 70
     1
102
RTVSPropertyOp44
 70
     1
102
RTVSPropertyOp45
 70
     1
102
RTVSPropertyOp46
 70
     1
102
RTVSPropertyOp47
 70
     1
102
RTVSPropertyOp48
 70
     1
102
RTVSPropertyOp49
 70
     1
102
RTVSPropertyOp50
 70
     1
102
RTVSPropertyOp51
 70
     0
102
RTVSPropertyOp52
 70
     0
102
RTVSPropertyOp53
 70
     1
102
RTVSPropertyOp54
 70
     1
102
RTVSPropertyOp55
 70
     1
102
RTVSPropertyOp56
 70
     1
102
RTVSPropertyOp57
 70
     1
102
RTVSPropertyOp58
 70
     1
102
RTVSPropertyOp59
 70
     1
102
RTVSPropertyOp60
 70
     1
102
RTVSPropertyOp61
 70
     1
102
RTVSPropertyOp62
 70
     1
  0
XRECORD
  5
1EFD
102
{ACAD_REACTORS
330
1EFC
102
}
330
1EFC
100
AcDbXrecord
280
     1
102
RTVSPost2010Prop28
280
     0
102
RTVSPost2010PropOp28
 70
     1
102
RTVSPost2010Prop29
280
     1
102
RTVSPost2010PropOp29
 70
     1
102
RTVSPost2010Prop30
280
     1
102
RTVSPost2010PropOp30
 70
     1
102
RTVSPost2010Prop31
280
     0
102
RTVSPost2010PropOp31
 70
     1
102
RTVSPost2010Prop32
280
     0
102
RTVSPost2010PropOp32
 70
     1
102
RTVSPost2010Prop33
280
     0
102
RTVSPost2010PropOp33
 70
     1
102
RTVSPost2010Prop34
280
     0
102
RTVSPost2010PropOp34
 70
     1
102
RTVSPost2010Prop35
280
     0
102
RTVSPost2010PropOp35
 70
     1
102
RTVSPost2010Prop36
280
     0
102
RTVSPost2010PropOp36
 70
     1
102
RTVSPost2010Prop37
 90
       50
102
RTVSPost2010PropOp37
 70
     1
102
RTVSPost2010Prop38
140
0.0
102
RTVSPost2010PropOp38
 70
     1
102
RTVSPost2010Prop39
140
1.0
102
RTVSPost2010PropOp39
 70
     1
102
RTVSPost2010Prop40
 90
        0
102
RTVSPost2010PropOp40
 70
     1
102
RTVSPost2010Prop41ColorIndex
 90
       18
102
RTVSPost2010Prop41ColorRGB
 90
        0
102
RTVSPost2010PropOp41
 70
     1
102
RTVSPost2010Prop42
 90
       50
102
RTVSPost2010PropOp42
 70
     1
102
RTVSPost2010Prop43
 90
        3
102
RTVSPost2010PropOp43
 70
     1
102
RTVSPost2010Prop44ColorIndex
 90
        5
102
RTVSPost2010Prop44ColorRGB
 90
      255
102
RTVSPost2010PropOp44
 70
     1
102
RTVSPost2010Prop45
280
     0
102
RTVSPost2010PropOp45
 70
     1
102
RTVSPost2010Prop46
 90
       50
102
RTVSPost2010PropOp46
 70
     1
102
RTVSPost2010Prop47
 90
       50
102
RTVSPost2010PropOp47
 70
     1
102
RTVSPost2010Prop48
 90
       50
102
RTVSPost2010PropOp48
 70
     1
102
RTVSPost2010Prop49
280
     0
102
RTVSPost2010PropOp49
 70
     1
102
RTVSPost2010Prop50
 90
       50
102
RTVSPost2010PropOp50
 70
     1
102
RTVSPost2010Prop51ColorIndex
 90
      256
102
RTVSPost2010Prop51ColorRGB
 90
-16777216
102
RTVSPost2010PropOp51
 70
     0
102
RTVSPost2010Prop52
140
1.0
102
RTVSPost2010PropOp52
 70
     0
102
RTVSPost2010Prop53
 90
        2
102
RTVSPost2010PropOp53
 70
     1
102
RTVSPost2010Prop54
  1
strokes_ogs.tif
102
RTVSPost2010PropOp54
 70
     1
102
RTVSPost2010Prop55
280
     0
102
RTVSPost2010PropOp55
 70
     1
102
RTVSPost2010Prop56
140
1.0
102
RTVSPost2010PropOp56
 70
     1
102
RTVSPost2010Prop57
140
1.0
102
RTVSPost2010PropOp57
 70
     1
102
RTVSPropertyOp0
 70
     1
102
RTVSPropertyOp1
 70
     1
102
RTVSPropertyOp2
 70
     1
102
RTVSPropertyOp3
 70
     1
102
RTVSPropertyOp4
 70
     1
102
RTVSPropertyOp5
 70
     1
102
RTVSPropertyOp6
 70
     1
102
RTVSPropertyOp7
 70
     1
102
RTVSPropertyOp8
 70
     1
102
RTVSPropertyOp9
 70
     1
102
RTVSPropertyOp10
 70
     1
102
RTVSPropertyOp11
 70
     1
102
RTVSPropertyOp12
 70
     1
102
RTVSPropertyOp13
 70
     1
102
RTVSPropertyOp14
 70
     1
102
RTVSPropertyOp15
 70
     1
102
RTVSPropertyOp16
 70
     1
102
RTVSPropertyOp17
 70
     1
102
RTVSPropertyOp18
 70
     1
102
RTVSPropertyOp19
 70
     1
102
RTVSPropertyOp20
 70
     1
102
RTVSPropertyOp21
 70
     1
102
RTVSPropertyOp22
 70
     1
102
RTVSPropertyOp23
 70
     1
102
RTVSPropertyOp24
 70
     1
102
RTVSPropertyOp25
 70
     1
102
RTVSPropertyOp26
 70
     1
102
RTVSPropertyOp27
 70
     1
102
RTVSPropertyOp28
 70
     1
102
RTVSPropertyOp29
 70
     1
102
RTVSPropertyOp30
 70
     1
102
RTVSPropertyOp31
 70
     1
102
RTVSPropertyOp32
 70
     1
102
RTVSPropertyOp33
 70
     1
102
RTVSPropertyOp34
 70
     1
102
RTVSPropertyOp35
 70
     1
102
RTVSPropertyOp36
 70
     1
102
RTVSPropertyOp37
 70
     1
102
RTVSPropertyOp38
 70
     1
102
RTVSPropertyOp39
 70
     1
102
RTVSPropertyOp40
 70
     1
102
RTVSPropertyOp41
 70
     1
102
RTVSPropertyOp42
 70
     1
102
RTVSPropertyOp43
 70
     1
102
RTVSPropertyOp44
 70
     1
102
RTVSPropertyOp45
 70
     1
102
RTVSPropertyOp46
 70
     1
102
RTVSPropertyOp47
 70
     1
102
RTVSPropertyOp48
 70
     1
102
RTVSPropertyOp49
 70
     1
102
RTVSPropertyOp50
 70
     1
102
RTVSPropertyOp51
 70
     0
102
RTVSPropertyOp52
 70
     0
102
RTVSPropertyOp53
 70
     1
102
RTVSPropertyOp54
 70
     1
102
RTVSPropertyOp55
 70
     1
102
RTVSPropertyOp56
 70
     1
102
RTVSPropertyOp57
 70
     1
102
RTVSPropertyOp58
 70
     1
102
RTVSPropertyOp59
 70
     1
102
RTVSPropertyOp60
 70
     1
102
RTVSPropertyOp61
 70
     1
102
RTVSPropertyOp62
 70
     1
  0
XRECORD
  5
1EF1
102
{ACAD_REACTORS
330
1EF0
102
}
330
1EF0
100
AcDbXrecord
280
     1
102
RTVSPost2010Prop28
280
     0
102
RTVSPost2010PropOp28
 70
     1
102
RTVSPost2010Prop29
280
     1
102
RTVSPost2010PropOp29
 70
     1
102
RTVSPost2010Prop30
280
     1
102
RTVSPost2010PropOp30
 70
     1
102
RTVSPost2010Prop31
280
     0
102
RTVSPost2010PropOp31
 70
     1
102
RTVSPost2010Prop32
280
     0
102
RTVSPost2010PropOp32
 70
     1
102
RTVSPost2010Prop33
280
     0
102
RTVSPost2010PropOp33
 70
     1
102
RTVSPost2010Prop34
280
     0
102
RTVSPost2010PropOp34
 70
     1
102
RTVSPost2010Prop35
280
     0
102
RTVSPost2010PropOp35
 70
     1
102
RTVSPost2010Prop36
280
     0
102
RTVSPost2010PropOp36
 70
     1
102
RTVSPost2010Prop37
 90
       50
102
RTVSPost2010PropOp37
 70
     1
102
RTVSPost2010Prop38
140
0.0
102
RTVSPost2010PropOp38
 70
     1
102
RTVSPost2010Prop39
140
1.0
102
RTVSPost2010PropOp39
 70
     1
102
RTVSPost2010Prop40
 90
        0
102
RTVSPost2010PropOp40
 70
     1
102
RTVSPost2010Prop41ColorIndex
 90
       18
102
RTVSPost2010Prop41ColorRGB
 90
        0
102
RTVSPost2010PropOp41
 70
     1
102
RTVSPost2010Prop42
 90
       50
102
RTVSPost2010PropOp42
 70
     1
102
RTVSPost2010Prop43
 90
        3
102
RTVSPost2010PropOp43
 70
     1
102
RTVSPost2010Prop44ColorIndex
 90
        5
102
RTVSPost2010Prop44ColorRGB
 90
      255
102
RTVSPost2010PropOp44
 70
     1
102
RTVSPost2010Prop45
280
     0
102
RTVSPost2010PropOp45
 70
     1
102
RTVSPost2010Prop46
 90
       50
102
RTVSPost2010PropOp46
 70
     1
102
RTVSPost2010Prop47
 90
       50
102
RTVSPost2010PropOp47
 70
     1
102
RTVSPost2010Prop48
 90
       50
102
RTVSPost2010PropOp48
 70
     1
102
RTVSPost2010Prop49
280
     0
102
RTVSPost2010PropOp49
 70
     1
102
RTVSPost2010Prop50
 90
       50
102
RTVSPost2010PropOp50
 70
     1
102
RTVSPost2010Prop51ColorIndex
 90
      256
102
RTVSPost2010Prop51ColorRGB
 90
-16777216
102
RTVSPost2010PropOp51
 70
     0
102
RTVSPost2010Prop52
140
1.0
102
RTVSPost2010PropOp52
 70
     0
102
RTVSPost2010Prop53
 90
        2
102
RTVSPost2010PropOp53
 70
     1
102
RTVSPost2010Prop54
  1
strokes_ogs.tif
102
RTVSPost2010PropOp54
 70
     1
102
RTVSPost2010Prop55
280
     0
102
RTVSPost2010PropOp55
 70
     1
102
RTVSPost2010Prop56
140
1.0
102
RTVSPost2010PropOp56
 70
     1
102
RTVSPost2010Prop57
140
1.0
102
RTVSPost2010PropOp57
 70
     1
102
RTVSPropertyOp0
 70
     1
102
RTVSPropertyOp1
 70
     1
102
RTVSPropertyOp2
 70
     1
102
RTVSPropertyOp3
 70
     1
102
RTVSPropertyOp4
 70
     1
102
RTVSPropertyOp5
 70
     1
102
RTVSPropertyOp6
 70
     1
102
RTVSPropertyOp7
 70
     1
102
RTVSPropertyOp8
 70
     1
102
RTVSPropertyOp9
 70
     1
102
RTVSPropertyOp10
 70
     1
102
RTVSPropertyOp11
 70
     1
102
RTVSPropertyOp12
 70
     1
102
RTVSPropertyOp13
 70
     1
102
RTVSPropertyOp14
 70
     1
102
RTVSPropertyOp15
 70
     1
102
RTVSPropertyOp16
 70
     1
102
RTVSPropertyOp17
 70
     1
102
RTVSPropertyOp18
 70
     1
102
RTVSPropertyOp19
 70
     1
102
RTVSPropertyOp20
 70
     1
102
RTVSPropertyOp21
 70
     1
102
RTVSPropertyOp22
 70
     1
102
RTVSPropertyOp23
 70
     1
102
RTVSPropertyOp24
 70
     1
102
RTVSPropertyOp25
 70
     1
102
RTVSPropertyOp26
 70
     1
102
RTVSPropertyOp27
 70
     1
102
RTVSPropertyOp28
 70
     1
102
RTVSPropertyOp29
 70
     1
102
RTVSPropertyOp30
 70
     1
102
RTVSPropertyOp31
 70
     1
102
RTVSPropertyOp32
 70
     1
102
RTVSPropertyOp33
 70
     1
102
RTVSPropertyOp34
 70
     1
102
RTVSPropertyOp35
 70
     1
102
RTVSPropertyOp36
 70
     1
102
RTVSPropertyOp37
 70
     1
102
RTVSPropertyOp38
 70
     1
102
RTVSPropertyOp39
 70
     1
102
RTVSPropertyOp40
 70
     1
102
RTVSPropertyOp41
 70
     1
102
RTVSPropertyOp42
 70
     1
102
RTVSPropertyOp43
 70
     1
102
RTVSPropertyOp44
 70
     1
102
RTVSPropertyOp45
 70
     1
102
RTVSPropertyOp46
 70
     1
102
RTVSPropertyOp47
 70
     1
102
RTVSPropertyOp48
 70
     1
102
RTVSPropertyOp49
 70
     1
102
RTVSPropertyOp50
 70
     1
102
RTVSPropertyOp51
 70
     0
102
RTVSPropertyOp52
 70
     0
102
RTVSPropertyOp53
 70
     1
102
RTVSPropertyOp54
 70
     1
102
RTVSPropertyOp55
 70
     1
102
RTVSPropertyOp56
 70
     1
102
RTVSPropertyOp57
 70
     1
102
RTVSPropertyOp58
 70
     1
102
RTVSPropertyOp59
 70
     1
102
RTVSPropertyOp60
 70
     1
102
RTVSPropertyOp61
 70
     1
102
RTVSPropertyOp62
 70
     1
  0
XRECORD
  5
1F09
102
{ACAD_REACTORS
330
1F08
102
}
330
1F08
100
AcDbXrecord
280
     1
102
RTVSPost2010Prop28
280
     0
102
RTVSPost2010PropOp28
 70
     1
102
RTVSPost2010Prop29
280
     1
102
RTVSPost2010PropOp29
 70
     1
102
RTVSPost2010Prop30
280
     1
102
RTVSPost2010PropOp30
 70
     1
102
RTVSPost2010Prop31
280
     0
102
RTVSPost2010PropOp31
 70
     1
102
RTVSPost2010Prop32
280
     0
102
RTVSPost2010PropOp32
 70
     1
102
RTVSPost2010Prop33
280
     0
102
RTVSPost2010PropOp33
 70
     1
102
RTVSPost2010Prop34
280
     0
102
RTVSPost2010PropOp34
 70
     1
102
RTVSPost2010Prop35
280
     0
102
RTVSPost2010PropOp35
 70
     1
102
RTVSPost2010Prop36
280
     0
102
RTVSPost2010PropOp36
 70
     1
102
RTVSPost2010Prop37
 90
       50
102
RTVSPost2010PropOp37
 70
     1
102
RTVSPost2010Prop38
140
0.0
102
RTVSPost2010PropOp38
 70
     1
102
RTVSPost2010Prop39
140
1.0
102
RTVSPost2010PropOp39
 70
     1
102
RTVSPost2010Prop40
 90
        0
102
RTVSPost2010PropOp40
 70
     1
102
RTVSPost2010Prop41ColorIndex
 90
       18
102
RTVSPost2010Prop41ColorRGB
 90
        0
102
RTVSPost2010PropOp41
 70
     1
102
RTVSPost2010Prop42
 90
       50
102
RTVSPost2010PropOp42
 70
     1
102
RTVSPost2010Prop43
 90
        3
102
RTVSPost2010PropOp43
 70
     1
102
RTVSPost2010Prop44ColorIndex
 90
        5
102
RTVSPost2010Prop44ColorRGB
 90
      255
102
RTVSPost2010PropOp44
 70
     1
102
RTVSPost2010Prop45
280
     0
102
RTVSPost2010PropOp45
 70
     1
102
RTVSPost2010Prop46
 90
       50
102
RTVSPost2010PropOp46
 70
     1
102
RTVSPost2010Prop47
 90
       50
102
RTVSPost2010PropOp47
 70
     1
102
RTVSPost2010Prop48
 90
       50
102
RTVSPost2010PropOp48
 70
     1
102
RTVSPost2010Prop49
280
     0
102
RTVSPost2010PropOp49
 70
     1
102
RTVSPost2010Prop50
 90
       50
102
RTVSPost2010PropOp50
 70
     1
102
RTVSPost2010Prop51ColorIndex
 90
      256
102
RTVSPost2010Prop51ColorRGB
 90
-16777216
102
RTVSPost2010PropOp51
 70
     0
102
RTVSPost2010Prop52
140
1.0
102
RTVSPost2010PropOp52
 70
     0
102
RTVSPost2010Prop53
 90
        2
102
RTVSPost2010PropOp53
 70
     1
102
RTVSPost2010Prop54
  1
strokes_ogs.tif
102
RTVSPost2010PropOp54
 70
     1
102
RTVSPost2010Prop55
280
     0
102
RTVSPost2010PropOp55
 70
     1
102
RTVSPost2010Prop56
140
1.0
102
RTVSPost2010PropOp56
 70
     1
102
RTVSPost2010Prop57
140
1.0
102
RTVSPost2010PropOp57
 70
     1
102
RTVSPropertyOp0
 70
     1
102
RTVSPropertyOp1
 70
     1
102
RTVSPropertyOp2
 70
     1
102
RTVSPropertyOp3
 70
     1
102
RTVSPropertyOp4
 70
     1
102
RTVSPropertyOp5
 70
     1
102
RTVSPropertyOp6
 70
     1
102
RTVSPropertyOp7
 70
     1
102
RTVSPropertyOp8
 70
     1
102
RTVSPropertyOp9
 70
     1
102
RTVSPropertyOp10
 70
     1
102
RTVSPropertyOp11
 70
     1
102
RTVSPropertyOp12
 70
     1
102
RTVSPropertyOp13
 70
     1
102
RTVSPropertyOp14
 70
     1
102
RTVSPropertyOp15
 70
     1
102
RTVSPropertyOp16
 70
     1
102
RTVSPropertyOp17
 70
     1
102
RTVSPropertyOp18
 70
     1
102
RTVSPropertyOp19
 70
     1
102
RTVSPropertyOp20
 70
     1
102
RTVSPropertyOp21
 70
     1
102
RTVSPropertyOp22
 70
     1
102
RTVSPropertyOp23
 70
     1
102
RTVSPropertyOp24
 70
     1
102
RTVSPropertyOp25
 70
     1
102
RTVSPropertyOp26
 70
     1
102
RTVSPropertyOp27
 70
     1
102
RTVSPropertyOp28
 70
     1
102
RTVSPropertyOp29
 70
     1
102
RTVSPropertyOp30
 70
     1
102
RTVSPropertyOp31
 70
     1
102
RTVSPropertyOp32
 70
     1
102
RTVSPropertyOp33
 70
     1
102
RTVSPropertyOp34
 70
     1
102
RTVSPropertyOp35
 70
     1
102
RTVSPropertyOp36
 70
     1
102
RTVSPropertyOp37
 70
     1
102
RTVSPropertyOp38
 70
     1
102
RTVSPropertyOp39
 70
     1
102
RTVSPropertyOp40
 70
     1
102
RTVSPropertyOp41
 70
     1
102
RTVSPropertyOp42
 70
     1
102
RTVSPropertyOp43
 70
     1
102
RTVSPropertyOp44
 70
     1
102
RTVSPropertyOp45
 70
     1
102
RTVSPropertyOp46
 70
     1
102
RTVSPropertyOp47
 70
     1
102
RTVSPropertyOp48
 70
     1
102
RTVSPropertyOp49
 70
     1
102
RTVSPropertyOp50
 70
     1
102
RTVSPropertyOp51
 70
     0
102
RTVSPropertyOp52
 70
     0
102
RTVSPropertyOp53
 70
     1
102
RTVSPropertyOp54
 70
     1
102
RTVSPropertyOp55
 70
     1
102
RTVSPropertyOp56
 70
     1
102
RTVSPropertyOp57
 70
     1
102
RTVSPropertyOp58
 70
     1
102
RTVSPropertyOp59
 70
     1
102
RTVSPropertyOp60
 70
     1
102
RTVSPropertyOp61
 70
     1
102
RTVSPropertyOp62
 70
     1
  0
ENDSEC
  0
EOF
