  0
SECTION
  2
HEADER
  9
$ACADVER
  1
AC1015
  9
$ACADMAINTVER
 70
    20
  9
$DWGCODEPAGE
  3
ANSI_932
  9
$INSBASE
 10
0.0
 20
0.0
 30
0.0
  9
$EXTMIN
 10
10.0
 20
9.999999999999998
 30
0.0
  9
$EXTMAX
 10
732.7966899999997
 20
608.497028
 30
0.0
  9
$LIMMIN
 10
0.0
 20
0.0
  9
$LIMMAX
 10
966.5
 20
666.2992420000001
  9
$ORTHOMODE
 70
     1
  9
$REGENMODE
 70
     1
  9
$FILLMODE
 70
     1
  9
$QTEXTMODE
 70
     0
  9
$MIRRTEXT
 70
     1
  9
$LTSCALE
 40
20.0
  9
$ATTMODE
 70
     1
  9
$TEXTSIZE
 40
5.0
  9
$TRACEWID
 40
1.0
  9
$TEXTSTYLE
  7
STANDARD
  9
$CLAYER
  8
0
  9
$CELTYPE
  6
BYLAYER
  9
$CECOLOR
 62
   256
  9
$CELTSCALE
 40
1.0
  9
$DISPSILH
 70
     0
  9
$DIMSCALE
 40
1.0
  9
$DIMASZ
 40
2.5
  9
$DIMEXO
 40
1.0
  9
$DIMDLI
 40
10.0
  9
$DIMRND
 40
0.0
  9
$DIMDLE
 40
0.0
  9
$DIMEXE
 40
1.0
  9
$DIMTP
 40
0.0
  9
$DIMTM
 40
0.0
  9
$DIMTXT
 40
3.2
  9
$DIMCEN
 40
0.0
  9
$DIMTSZ
 40
0.0
  9
$DIMTOL
 70
     0
  9
$DIMLIM
 70
     0
  9
$DIMTIH
 70
     0
  9
$DIMTOH
 70
     0
  9
$DIMSE1
 70
     0
  9
$DIMSE2
 70
     0
  9
$DIMTAD
 70
     3
  9
$DIMZIN
 70
     8
  9
$DIMBLK
  1

  9
$DIMASO
 70
     1
  9
$DIMSHO
 70
     1
  9
$DIMPOST
  1

  9
$DIMAPOST
  1

  9
$DIMALT
 70
     0
  9
$DIMALTD
 70
     2
  9
$DIMALTF
 40
25.4
  9
$DIMLFAC
 40
1.0
  9
$DIMTOFL
 70
     1
  9
$DIMTVP
 40
0.0
  9
$DIMTIX
 70
     0
  9
$DIMSOXD
 70
     0
  9
$DIMSAH
 70
     1
  9
$DIMBLK1
  1
OPEN
  9
$DIMBLK2
  1
OPEN
  9
$DIMSTYLE
  2
STANDARD
  9
$DIMCLRD
 70
     0
  9
$DIMCLRE
 70
     0
  9
$DIMCLRT
 70
     0
  9
$DIMTFAC
 40
1.0
  9
$DIMGAP
 40
1.0
  9
$DIMJUST
 70
     0
  9
$DIMSD1
 70
     0
  9
$DIMSD2
 70
     0
  9
$DIMTOLJ
 70
     1
  9
$DIMTZIN
 70
     0
  9
$DIMALTZ
 70
     0
  9
$DIMALTTZ
 70
     0
  9
$DIMUPT
 70
     0
  9
$DIMDEC
 70
     4
  9
$DIMTDEC
 70
     4
  9
$DIMALTU
 70
     2
  9
$DIMALTTD
 70
     2
  9
$DIMTXSTY
  7
STANDARD
  9
$DIMAUNIT
 70
     0
  9
$DIMADEC
 70
     0
  9
$DIMALTRND
 40
0.0
  9
$DIMAZIN
 70
     0
  9
$DIMDSEP
 70
    46
  9
$DIMATFIT
 70
     3
  9
$DIMFRAC
 70
     0
  9
$DIMLDRBLK
  1
OPEN
  9
$DIMLUNIT
 70
     2
  9
$DIMLWD
 70
    -2
  9
$DIMLWE
 70
    -2
  9
$DIMTMOVE
 70
     0
  9
$LUNITS
 70
     2
  9
$LUPREC
 70
     4
  9
$SKETCHINC
 40
1.0
  9
$FILLETRAD
 40
2.5
  9
$AUNITS
 70
     0
  9
$AUPREC
 70
     2
  9
$MENU
  1
.
  9
$ELEVATION
 40
0.0
  9
$PELEVATION
 40
0.0
  9
$THICKNESS
 40
0.0
  9
$LIMCHECK
 70
     0
  9
$CHAMFERA
 40
10.0
  9
$CHAMFERB
 40
10.0
  9
$CHAMFERC
 40
0.0
  9
$CHAMFERD
 40
0.0
  9
$SKPOLY
 70
     0
  9
$TDCREATE
 40
2451368.510104514
  9
$TDUCREATE
 40
2451368.135104514
  9
$TDUPDATE
 40
2457192.643112512
  9
$TDUUPDATE
 40
2457192.268112512
  9
$TDINDWG
 40
0.0000156597
  9
$TDUSRTIMER
 40
0.0000151620
  9
$USRTIMER
 70
     1
  9
$ANGBASE
 50
0.0
  9
$ANGDIR
 70
     0
  9
$PDMODE
 70
     0
  9
$PDSIZE
 40
0.0
  9
$PLINEWID
 40
0.0
  9
$SPLFRAME
 70
     0
  9
$SPLINETYPE
 70
     6
  9
$SPLINESEGS
 70
     8
  9
$HANDSEED
  5
A9CF
  9
$SURFTAB1
 70
     6
  9
$SURFTAB2
 70
     6
  9
$SURFTYPE
 70
     6
  9
$SURFU
 70
     6
  9
$SURFV
 70
     6
  9
$UCSBASE
  2

  9
$UCSNAME
  2

  9
$UCSORG
 10
0.0
 20
0.0
 30
0.0
  9
$UCSXDIR
 10
1.0
 20
0.0
 30
0.0
  9
$UCSYDIR
 10
0.0
 20
1.0
 30
0.0
  9
$UCSORTHOREF
  2

  9
$UCSORTHOVIEW
 70
     0
  9
$UCSORGTOP
 10
0.0
 20
0.0
 30
0.0
  9
$UCSORGBOTTOM
 10
0.0
 20
0.0
 30
0.0
  9
$UCSORGLEFT
 10
0.0
 20
0.0
 30
0.0
  9
$UCSORGRIGHT
 10
0.0
 20
0.0
 30
0.0
  9
$UCSORGFRONT
 10
0.0
 20
0.0
 30
0.0
  9
$UCSORGBACK
 10
0.0
 20
0.0
 30
0.0
  9
$PUCSBASE
  2

  9
$PUCSNAME
  2

  9
$PUCSORG
 10
0.0
 20
0.0
 30
0.0
  9
$PUCSXDIR
 10
1.0
 20
0.0
 30
0.0
  9
$PUCSYDIR
 10
0.0
 20
1.0
 30
0.0
  9
$PUCSORTHOREF
  2

  9
$PUCSORTHOVIEW
 70
     0
  9
$PUCSORGTOP
 10
0.0
 20
0.0
 30
0.0
  9
$PUCSORGBOTTOM
 10
0.0
 20
0.0
 30
0.0
  9
$PUCSORGLEFT
 10
0.0
 20
0.0
 30
0.0
  9
$PUCSORGRIGHT
 10
0.0
 20
0.0
 30
0.0
  9
$PUCSORGFRONT
 10
0.0
 20
0.0
 30
0.0
  9
$PUCSORGBACK
 10
0.0
 20
0.0
 30
0.0
  9
$USERI1
 70
     0
  9
$USERI2
 70
     0
  9
$USERI3
 70
     0
  9
$USERI4
 70
     0
  9
$USERI5
 70
     0
  9
$USERR1
 40
0.0
  9
$USERR2
 40
0.0
  9
$USERR3
 40
0.0
  9
$USERR4
 40
0.0
  9
$USERR5
 40
0.0
  9
$WORLDVIEW
 70
     1
  9
$SHADEDGE
 70
     3
  9
$SHADEDIF
 70
    70
  9
$TILEMODE
 70
     1
  9
$MAXACTVP
 70
    16
  9
$PINSBASE
 10
0.0
 20
0.0
 30
0.0
  9
$PLIMCHECK
 70
     0
  9
$PEXTMIN
 10
1.000000000000000E+20
 20
1.000000000000000E+20
 30
1.000000000000000E+20
  9
$PEXTMAX
 10
-1.000000000000000E+20
 20
-1.000000000000000E+20
 30
-1.000000000000000E+20
  9
$PLIMMIN
 10
0.0
 20
0.0
  9
$PLIMMAX
 10
420.0
 20
297.0
  9
$UNITMODE
 70
     0
  9
$VISRETAIN
 70
     0
  9
$PLINEGEN
 70
     0
  9
$PSLTSCALE
 70
     0
  9
$TREEDEPTH
 70
  3020
  9
$CMLSTYLE
  2
STANDARD
  9
$CMLJUST
 70
     0
  9
$CMLSCALE
 40
1.0
  9
$PROXYGRAPHICS
 70
     1
  9
$MEASUREMENT
 70
     0
  9
$CELWEIGHT
370
    -1
  9
$ENDCAPS
280
     0
  9
$JOINSTYLE
280
     0
  9
$LWDISPLAY
290
     0
  9
$INSUNITS
 70
     0
  9
$HYPERLINKBASE
  1

  9
$STYLESHEET
  1

  9
$XEDIT
290
     1
  9
$CEPSNTYPE
380
     0
  9
$PSTYLEMODE
290
     1
  9
$FINGERPRINTGUID
  2
{E5AC461E-B6B8-46D7-BB89-CC2F1E49C905}
  9
$VERSIONGUID
  2
{C8B1705E-F657-4BE3-A16F-B4F6A7CB310A}
  9
$EXTNAMES
290
     1
  9
$PSVPSCALE
 40
0.0
  9
$OLESTARTUP
290
     0
  0
ENDSEC
  0
SECTION
  2
CLASSES
  0
CLASS
  1
ACDBDICTIONARYWDFLT
  2
AcDbDictionaryWithDefault
  3
ObjectDBX Classes
 90
        0
280
     0
281
     0
  0
CLASS
  1
ACDBPLACEHOLDER
  2
AcDbPlaceHolder
  3
ObjectDBX Classes
 90
        0
280
     0
281
     0
  0
CLASS
  1
LAYOUT
  2
AcDbLayout
  3
ObjectDBX Classes
 90
        0
280
     0
281
     0
  0
CLASS
  1
DICTIONARYVAR
  2
AcDbDictionaryVar
  3
ObjectDBX Classes
 90
        0
280
     0
281
     0
  0
CLASS
  1
MATERIAL
  2
AcDbMaterial
  3
ObjectDBX Classes
 90
     1153
280
     0
281
     0
  0
CLASS
  1
VISUALSTYLE
  2
AcDbVisualStyle
  3
ObjectDBX Classes
 90
     4095
280
     0
281
     0
  0
CLASS
  1
TABLESTYLE
  2
AcDbTableStyle
  3
ObjectDBX Classes
 90
     4095
280
     0
281
     0
  0
CLASS
  1
SCALE
  2
AcDbScale
  3
ObjectDBX Classes
 90
     1153
280
     0
281
     0
  0
CLASS
  1
MLEADERSTYLE
  2
AcDbMLeaderStyle
  3
ACDB_MLEADERSTYLE_CLASS
 90
     4095
280
     0
281
     0
  0
CLASS
  1
ACDBSECTIONVIEWSTYLE
  2
AcDbSectionViewStyle
  3
ObjectDBX Classes
 90
     1025
280
     0
281
     0
  0
CLASS
  1
ACDBDETAILVIEWSTYLE
  2
AcDbDetailViewStyle
  3
ObjectDBX Classes
 90
     1025
280
     0
281
     0
  0
CLASS
  1
CELLSTYLEMAP
  2
AcDbCellStyleMap
  3
ObjectDBX Classes
 90
     1152
280
     0
281
     0
  0
ENDSEC
  0
SECTION
  2
TABLES
  0
TABLE
  2
VPORT
  5
A658
330
0
100
AcDbSymbolTable
 70
     1
  0
VPORT
  5
A918
330
A658
100
AcDbSymbolTableRecord
100
AcDbViewportTableRecord
  2
*ACTIVE
 70
     0
 10
0.0
 20
0.0
 11
1.0
 21
1.0
 12
552.7090701487026
 22
309.2573614960076
 13
0.0
 23
0.0
 14
10.0
 24
10.0
 15
10.0
 25
10.0
 16
0.0
 26
0.0
 36
1.0
 17
0.0
 27
0.0
 37
0.0
 40
605.2207269546226
 41
1.899603698811096
 42
50.0
 43
0.0
 44
0.0
 50
0.0
 51
0.0
 71
     0
 72
   100
 73
     1
 74
     0
 75
     0
 76
     0
 77
     0
 78
     0
281
     0
 65
     1
110
0.0
120
0.0
130
0.0
111
1.0
121
0.0
131
0.0
112
0.0
122
1.0
132
0.0
 79
     0
146
0.0
1001
ACAD_NAV_VCDISPLAY
1070
     3
  0
ENDTAB
  0
TABLE
  2
LTYPE
  5
A655
330
0
100
AcDbSymbolTable
 70
     4
  0
LTYPE
  5
A663
330
A655
100
AcDbSymbolTableRecord
100
AcDbLinetypeTableRecord
  2
BYBLOCK
 70
     0
  3

 72
    65
 73
     0
 40
0.0
  0
LTYPE
  5
A664
330
A655
100
AcDbSymbolTableRecord
100
AcDbLinetypeTableRecord
  2
BYLAYER
 70
     0
  3

 72
    65
 73
     0
 40
0.0
  0
LTYPE
  5
A665
330
A655
100
AcDbSymbolTableRecord
100
AcDbLinetypeTableRecord
  2
CONTINUOUS
 70
     0
  3
Solid line
 72
    65
 73
     0
 40
0.0
  0
LTYPE
  5
A673
330
A655
100
AcDbSymbolTableRecord
100
AcDbLinetypeTableRecord
  2
DASHED
 70
     0
  3
__ __ __ __ __ __ __ __ __ __ __ __ __ __ __ __
 72
    65
 73
     2
 40
0.75
 49
0.5
 74
     0
 49
-0.25
 74
     0
  0
LTYPE
  5
A674
330
A655
100
AcDbSymbolTableRecord
100
AcDbLinetypeTableRecord
  2
CENTER
 70
     0
  3
____ _ ____ _ ____ _ ____ _ ____ _ ____ _ ____ 
 72
    65
 73
     4
 40
2.0
 49
1.25
 74
     0
 49
-0.25
 74
     0
 49
0.25
 74
     0
 49
-0.25
 74
     0
  0
LTYPE
  5
A675
330
A655
100
AcDbSymbolTableRecord
100
AcDbLinetypeTableRecord
  2
PHANTOM
 70
     0
  3
______  __  __  ______  __  __  ______  __  __ 
 72
    65
 73
     6
 40
2.5
 49
1.25
 74
     0
 49
-0.25
 74
     0
 49
0.25
 74
     0
 49
-0.25
 74
     0
 49
0.25
 74
     0
 49
-0.25
 74
     0
  0
ENDTAB
  0
TABLE
  2
LAYER
  5
A652
330
0
100
AcDbSymbolTable
 70
     8
  0
LAYER
  5
A660
102
{ACAD_XDICTIONARY
360
A973
102
}
330
A652
100
AcDbSymbolTableRecord
100
AcDbLayerTableRecord
  2
0
 70
     0
 62
     7
  6
CONTINUOUS
370
    -3
390
A921
  0
LAYER
  5
A676
102
{ACAD_XDICTIONARY
360
A975
102
}
330
A652
100
AcDbSymbolTableRecord
100
AcDbLayerTableRecord
  2
4
 70
     0
 62
     1
  6
CENTER
370
    -3
390
A921
  0
LAYER
  5
A677
102
{ACAD_XDICTIONARY
360
A977
102
}
330
A652
100
AcDbSymbolTableRecord
100
AcDbLayerTableRecord
  2
5
 70
     0
 62
     6
  6
PHANTOM
370
    -3
390
A921
  0
LAYER
  5
A678
102
{ACAD_XDICTIONARY
360
A979
102
}
330
A652
100
AcDbSymbolTableRecord
100
AcDbLayerTableRecord
  2
1
 70
     0
 62
     7
  6
CONTINUOUS
370
    -3
390
A921
  0
LAYER
  5
A679
102
{ACAD_XDICTIONARY
360
A97B
102
}
330
A652
100
AcDbSymbolTableRecord
100
AcDbLayerTableRecord
  2
2
 70
     0
 62
     4
  6
CONTINUOUS
370
    -3
390
A921
  0
LAYER
  5
A67A
102
{ACAD_XDICTIONARY
360
A97D
102
}
330
A652
100
AcDbSymbolTableRecord
100
AcDbLayerTableRecord
  2
3
 70
     0
 62
     2
  6
DASHED
370
    -3
390
A921
  0
LAYER
  5
A67B
102
{ACAD_XDICTIONARY
360
A97F
102
}
330
A652
100
AcDbSymbolTableRecord
100
AcDbLayerTableRecord
  2
6
 70
     0
 62
     5
  6
CONTINUOUS
370
    -3
390
A921
  0
LAYER
  5
A67C
102
{ACAD_XDICTIONARY
360
A981
102
}
330
A652
100
AcDbSymbolTableRecord
100
AcDbLayerTableRecord
  2
7
 70
     0
 62
     3
  6
CONTINUOUS
370
    -3
390
A921
  0
ENDTAB
  0
TABLE
  2
STYLE
  5
A653
330
0
100
AcDbSymbolTable
 70
     1
  0
STYLE
  5
A661
330
A653
100
AcDbSymbolTableRecord
100
AcDbTextStyleTableRecord
  2
STANDARD
 70
     0
 40
0.0
 41
1.0
 50
0.0
 71
     0
 42
5.0
  3
txt
  4

  0
ENDTAB
  0
TABLE
  2
VIEW
  5
A656
330
0
100
AcDbSymbolTable
 70
     0
  0
ENDTAB
  0
TABLE
  2
UCS
  5
A657
330
0
100
AcDbSymbolTable
 70
     0
  0
ENDTAB
  0
TABLE
  2
APPID
  5
A659
330
0
100
AcDbSymbolTable
 70
     3
  0
APPID
  5
A662
330
A659
100
AcDbSymbolTableRecord
100
AcDbRegAppTableRecord
  2
ACAD
 70
     0
  0
APPID
  5
A98D
330
A659
100
AcDbSymbolTableRecord
100
AcDbRegAppTableRecord
  2
ACAD_NAV_VCDISPLAY
 70
     0
  0
APPID
  5
A9C6
330
A659
100
AcDbSymbolTableRecord
100
AcDbRegAppTableRecord
  2
ACAD_MLEADERVER
 70
     0
  0
ENDTAB
  0
TABLE
  2
DIMSTYLE
  5
A65A
330
0
100
AcDbSymbolTable
 70
     1
100
AcDbDimStyleTable
 71
     0
  0
DIMSTYLE
105
A67E
330
A65A
100
AcDbSymbolTableRecord
100
AcDbDimStyleTableRecord
  2
STANDARD
 70
     0
 41
2.5
 42
1.0
 43
10.0
 44
1.0
 73
     0
 74
     0
 77
     3
 78
     8
140
3.2
141
0.0
147
1.0
172
     1
173
     1
284
     8
285
     8
286
     8
340
A661
  0
ENDTAB
  0
TABLE
  2
BLOCK_RECORD
  5
A651
330
0
100
AcDbSymbolTable
 70
     1
  0
BLOCK_RECORD
  5
A66E
102
{ACAD_XDICTIONARY
360
A91B
102
}
330
A651
100
AcDbSymbolTableRecord
100
AcDbBlockTableRecord
  2
*MODEL_SPACE
340
A96F
  0
BLOCK_RECORD
  5
A66A
102
{ACAD_XDICTIONARY
360
A919
102
}
330
A651
100
AcDbSymbolTableRecord
100
AcDbBlockTableRecord
  2
*PAPER_SPACE
340
A970
  0
BLOCK_RECORD
  5
A686
330
A651
100
AcDbSymbolTableRecord
100
AcDbBlockTableRecord
  2
_OPEN
340
0
  0
ENDTAB
  0
ENDSEC
  0
SECTION
  2
BLOCKS
  0
BLOCK
  5
A66F
330
A66E
100
AcDbEntity
  8
0
100
AcDbBlockBegin
  2
*MODEL_SPACE
 70
     0
 10
0.0
 20
0.0
 30
0.0
  3
*MODEL_SPACE
  1

  0
ENDBLK
  5
A670
330
A66E
100
AcDbEntity
  8
0
100
AcDbBlockEnd
  0
BLOCK
  5
A66B
330
A66A
100
AcDbEntity
 67
     1
  8
0
100
AcDbBlockBegin
  2
*PAPER_SPACE
 70
     0
 10
0.0
 20
0.0
 30
0.0
  3
*PAPER_SPACE
  1

  0
ENDBLK
  5
A66C
330
A66A
100
AcDbEntity
 67
     1
  8
0
100
AcDbBlockEnd
  0
BLOCK
  5
A687
330
A686
100
AcDbEntity
  8
0
100
AcDbBlockBegin
  2
_OPEN
 70
     0
 10
0.0
 20
0.0
 30
0.0
  3
_OPEN
  1

  0
LINE
  5
A688
330
A686
100
AcDbEntity
  8
0
  6
ByBlock
 62
     0
100
AcDbLine
 10
-1.0
 20
0.166667
 30
0.0
 11
0.0
 21
0.0
 31
0.0
  0
LINE
  5
A689
330
A686
100
AcDbEntity
  8
0
  6
ByBlock
 62
     0
100
AcDbLine
 10
0.0
 20
0.0
 30
0.0
 11
-1.0
 21
-0.166667
 31
0.0
  0
LINE
  5
A68A
330
A686
100
AcDbEntity
  8
0
  6
ByBlock
 62
     0
100
AcDbLine
 10
0.0
 20
0.0
 30
0.0
 11
-1.0
 21
0.0
 31
0.0
  0
ENDBLK
  5
A68B
330
A686
100
AcDbEntity
  8
0
100
AcDbBlockEnd
  0
ENDSEC
  0
SECTION
  2
ENTITIES
  0
TEXT
  5
A68C
330
A66E
100
AcDbEntity
  8
7
  6
Continuous
100
AcDbText
 10
10.0
 20
18.0
 30
0.0
 40
3.0
  1
TYPE No.THA-433-2P
100
AcDbText
  0
TEXT
  5
A68D
330
A66E
100
AcDbEntity
  8
7
  6
Continuous
100
AcDbText
 10
10.0
 20
26.0
 30
0.0
 40
3.0
  1
CODE No.13107
100
AcDbText
  0
TEXT
  5
A68E
330
A66E
100
AcDbEntity
  8
1
  6
Continuous
100
AcDbText
 10
10.0
 20
10.0
 30
0.0
 40
1.399999999999999
  1
LAYER
100
AcDbText
  0
TEXT
  5
A68F
330
A66E
100
AcDbEntity
  8
1
  6
Continuous
100
AcDbText
 10
17.97951099999998
 20
10.04873699999998
 30
0.0
 40
1.399999999999999
  1
1
100
AcDbText
  0
TEXT
  5
A690
330
A66E
100
AcDbEntity
  8
7
  6
Continuous
100
AcDbText
 10
29.97951099999999
 20
10.04873699999998
 30
0.0
 40
1.399999999999999
  1
7
100
AcDbText
  0
TEXT
  5
A691
330
A66E
100
AcDbEntity
  8
4
  6
CENTER
100
AcDbText
 10
23.97951099999999
 20
10.04873699999998
 30
0.0
 40
1.399999999999999
  1
4
100
AcDbText
  0
TEXT
  5
A692
330
A66E
100
AcDbEntity
  8
3
  6
DASHED
100
AcDbText
 10
21.979511
 20
10.04873699999998
 30
0.0
 40
1.399999999999999
  1
3
100
AcDbText
  0
TEXT
  5
A693
330
A66E
100
AcDbEntity
  8
2
  6
Continuous
100
AcDbText
 10
19.97951099999999
 20
10.04873699999998
 30
0.0
 40
1.399999999999999
  1
2
100
AcDbText
  0
TEXT
  5
A694
330
A66E
100
AcDbEntity
  8
6
  6
Continuous
100
AcDbText
 10
27.979511
 20
10.04873699999998
 30
0.0
 40
1.399999999999999
  1
6
100
AcDbText
  0
TEXT
  5
A695
330
A66E
100
AcDbEntity
  8
5
  6
PHANTOM
100
AcDbText
 10
25.97951099999999
 20
10.04873699999998
 30
0.0
 40
1.399999999999999
  1
5
100
AcDbText
  0
ARC
  5
A696
330
A66E
100
AcDbEntity
  8
1
  6
Continuous
100
AcDbCircle
 10
719.5828190000002
 20
379.0984509999999
 30
0.0
 40
7.0
100
AcDbArc
 50
3.289701999999998
 51
42.797482
  0
ARC
  5
A697
330
A66E
100
AcDbEntity
  8
1
  6
Continuous
100
AcDbCircle
 10
641.855455
 20
379.0984509999999
 30
0.0
 40
7.0
100
AcDbArc
 50
126.2210839999999
 51
176.7102979999999
  0
LINE
  5
A698
330
A66E
100
AcDbEntity
  8
1
  6
Continuous
100
AcDbLine
 10
637.7191370000002
 20
387.1155569999999
 30
0.0
 11
637.7191370000002
 21
257.1155569999999
 31
0.0
  0
LINE
  5
A699
330
A66E
100
AcDbEntity
  8
1
  6
Continuous
100
AcDbLine
 10
724.719137
 20
387.1155569999999
 30
0.0
 11
724.719137
 21
257.1155569999999
 31
0.0
  0
ARC
  5
A69A
330
A66E
100
AcDbEntity
  8
1
  6
Continuous
100
AcDbCircle
 10
-271.7808629999999
 20
322.1155569999999
 30
0.0
 40
1000.0
100
AcDbArc
 50
356.710298
 51
3.289701999999998
  0
ARC
  5
A69B
330
A66E
100
AcDbEntity
  8
1
  6
Continuous
100
AcDbCircle
 10
1633.219136999998
 20
322.1155569999999
 30
0.0
 40
1000.0
100
AcDbArc
 50
176.7102979999999
 51
183.289702
  0
LINE
  5
A69C
330
A66E
100
AcDbEntity
  8
1
  6
Continuous
100
AcDbLine
 10
637.7191370000002
 20
257.1155569999999
 30
0.0
 11
724.719137
 21
257.1155569999999
 31
0.0
  0
LINE
  5
A69D
330
A66E
100
AcDbEntity
  8
1
  6
Continuous
100
AcDbLine
 10
724.719137
 20
267.3794889999999
 30
0.0
 11
637.7191370000002
 21
267.3794889999999
 31
0.0
  0
LINE
  5
A69E
330
A66E
100
AcDbEntity
  8
1
  6
Continuous
100
AcDbLine
 10
724.719137
 20
271.8516249999999
 30
0.0
 11
637.7191370000002
 21
271.8516249999999
 31
0.0
  0
ARC
  5
A69F
330
A66E
100
AcDbEntity
  8
1
  6
Continuous
100
AcDbCircle
 10
635.7191370000001
 20
269.6155569999999
 30
0.0
 40
3.0
100
AcDbArc
 50
311.810315
 51
48.189685
  0
ARC
  5
A6A0
330
A66E
100
AcDbEntity
  8
1
  6
Continuous
100
AcDbCircle
 10
641.855455
 20
265.1326639999999
 30
0.0
 40
7.0
100
AcDbArc
 50
183.289702
 51
233.778916
  0
LINE
  5
A6A1
330
A66E
100
AcDbEntity
  8
4
  6
CENTER
100
AcDbLine
 10
645.7191370000002
 20
282.1155569999999
 30
0.0
 11
658.7191370000001
 21
282.1155569999999
 31
0.0
  0
LINE
  5
A6A2
330
A66E
100
AcDbEntity
  8
4
  6
CENTER
100
AcDbLine
 10
652.2191370000001
 20
275.6155569999999
 30
0.0
 11
652.2191370000001
 21
288.6155569999999
 31
0.0
  0
LINE
  5
A6A3
330
A66E
100
AcDbEntity
  8
1
  6
Continuous
100
AcDbLine
 10
701.885049
 20
257.1155569999999
 30
0.0
 11
701.885049
 21
230.115557
 31
0.0
  0
LINE
  5
A6A4
330
A66E
100
AcDbEntity
  8
1
  6
Continuous
100
AcDbLine
 10
687.8850489999996
 20
230.115557
 30
0.0
 11
687.8850489999996
 21
257.1155569999999
 31
0.0
  0
LINE
  5
A6A5
330
A66E
100
AcDbEntity
  8
4
  6
CENTER
100
AcDbLine
 10
694.8850489999996
 20
225.3655569999998
 30
0.0
 11
694.8850489999996
 21
234.865557
 31
0.0
  0
ARC
  5
A6A6
330
A66E
100
AcDbEntity
  8
1
  6
Continuous
100
AcDbCircle
 10
694.8850489999996
 20
230.115557
 30
0.0
 40
7.0
100
AcDbArc
 50
180.0
 51
0.0
  0
LINE
  5
A6A7
330
A66E
100
AcDbEntity
  8
4
  6
CENTER
100
AcDbLine
 10
690.1350489999996
 20
230.115557
 30
0.0
 11
699.635049
 21
230.115557
 31
0.0
  0
CIRCLE
  5
A6A8
330
A66E
100
AcDbEntity
  8
1
  6
Continuous
100
AcDbCircle
 10
694.8850489999996
 20
230.115557
 30
0.0
 40
3.0
  0
LINE
  5
A6A9
330
A66E
100
AcDbEntity
  8
4
  6
CENTER
100
AcDbLine
 10
705.7191370000001
 20
282.1155569999999
 30
0.0
 11
718.7191370000001
 21
282.1155569999999
 31
0.0
  0
ARC
  5
A6AA
330
A66E
100
AcDbEntity
  8
1
  6
Continuous
100
AcDbCircle
 10
726.719137
 20
269.6155569999999
 30
0.0
 40
3.0
100
AcDbArc
 50
131.810315
 51
228.1896849999998
  0
ARC
  5
A6AB
330
A66E
100
AcDbEntity
  8
1
  6
Continuous
100
AcDbCircle
 10
719.5828190000002
 20
265.1326639999999
 30
0.0
 40
7.0
100
AcDbArc
 50
317.2025179999999
 51
356.710298
  0
LINE
  5
A6AC
330
A66E
100
AcDbEntity
  8
4
  6
CENTER
100
AcDbLine
 10
712.2191370000003
 20
275.6155569999999
 30
0.0
 11
712.2191370000003
 21
288.6155569999999
 31
0.0
  0
LINE
  5
A6AD
330
A66E
100
AcDbEntity
  8
1
  6
Continuous
100
AcDbLine
 10
724.719137
 20
376.851625
 30
0.0
 11
637.7191370000002
 21
376.851625
 31
0.0
  0
CIRCLE
  5
A6AE
330
A66E
100
AcDbEntity
  8
1
  6
Continuous
100
AcDbCircle
 10
672.2191370000001
 20
344.2712009999998
 30
0.0
 40
2.399999999999999
  0
CIRCLE
  5
A6AF
330
A66E
100
AcDbEntity
  8
1
  6
Continuous
100
AcDbCircle
 10
672.2191370000001
 20
344.2712009999998
 30
0.0
 40
2.5
  0
LINE
  5
A6B0
330
A66E
100
AcDbEntity
  8
4
  6
CENTER
100
AcDbLine
 10
665.7191370000001
 20
344.2712009999998
 30
0.0
 11
678.7191370000003
 21
344.2712009999998
 31
0.0
  0
LINE
  5
A6B1
330
A66E
100
AcDbEntity
  8
4
  6
CENTER
100
AcDbLine
 10
665.7191370000001
 20
299.959913
 30
0.0
 11
678.7191370000003
 21
299.959913
 31
0.0
  0
CIRCLE
  5
A6B2
330
A66E
100
AcDbEntity
  8
1
  6
Continuous
100
AcDbCircle
 10
672.2191370000001
 20
299.959913
 30
0.0
 40
2.399999999999999
  0
CIRCLE
  5
A6B3
330
A66E
100
AcDbEntity
  8
1
  6
Continuous
100
AcDbCircle
 10
672.2191370000001
 20
299.959913
 30
0.0
 40
2.5
  0
LINE
  5
A6B4
330
A66E
100
AcDbEntity
  8
1
  6
Continuous
100
AcDbLine
 10
724.719137
 20
372.3794889999999
 30
0.0
 11
637.7191370000002
 21
372.3794889999999
 31
0.0
  0
LINE
  5
A6B5
330
A66E
100
AcDbEntity
  8
4
  6
CENTER
100
AcDbLine
 10
629.2192479999997
 20
322.1155569999999
 30
0.0
 11
732.7966899999997
 21
322.1155569999999
 31
0.0
  0
LINE
  5
A6B6
330
A66E
100
AcDbEntity
  8
4
  6
CENTER
100
AcDbLine
 10
672.2191370000001
 20
293.4599129999999
 30
0.0
 11
672.2191370000001
 21
306.4599129999999
 31
0.0
  0
ARC
  5
A6B7
330
A66E
100
AcDbEntity
  8
1
  6
Continuous
100
AcDbCircle
 10
635.7191370000001
 20
374.6155569999999
 30
0.0
 40
3.0
100
AcDbArc
 50
311.810315
 51
48.189685
  0
LINE
  5
A6B8
330
A66E
100
AcDbEntity
  8
4
  6
CENTER
100
AcDbLine
 10
652.2191370000001
 20
355.6155569999999
 30
0.0
 11
652.2191370000001
 21
368.6155569999999
 31
0.0
  0
LINE
  5
A6B9
330
A66E
100
AcDbEntity
  8
4
  6
CENTER
100
AcDbLine
 10
672.2191370000001
 20
337.7712009999999
 30
0.0
 11
672.2191370000001
 21
350.7712009999999
 31
0.0
  0
LINE
  5
A6BA
330
A66E
100
AcDbEntity
  8
4
  6
CENTER
100
AcDbLine
 10
645.7191370000002
 20
362.1155569999999
 30
0.0
 11
658.7191370000001
 21
362.1155569999999
 31
0.0
  0
LINE
  5
A6BB
330
A66E
100
AcDbEntity
  8
1
  6
Continuous
100
AcDbLine
 10
699.7191370000003
 20
325.1155569999998
 30
0.0
 11
683.7191370000001
 21
325.1155569999998
 31
0.0
  0
LINE
  5
A6BC
330
A66E
100
AcDbEntity
  8
1
  6
Continuous
100
AcDbLine
 10
699.7191370000003
 20
319.1155569999999
 30
0.0
 11
683.7191370000001
 21
319.1155569999999
 31
0.0
  0
ARC
  5
A6BD
330
A66E
100
AcDbEntity
  8
1
  6
Continuous
100
AcDbCircle
 10
683.7191370000001
 20
322.1155569999999
 30
0.0
 40
3.0
100
AcDbArc
 50
90.0
 51
270.0
  0
CIRCLE
  5
A6BE
330
A66E
100
AcDbEntity
  8
2
  6
Continuous
100
AcDbCircle
 10
697.994137
 20
322.1155569999999
 30
0.0
 40
2.0
  0
CIRCLE
  5
A6BF
330
A66E
100
AcDbEntity
  8
1
  6
Continuous
100
AcDbCircle
 10
697.994137
 20
322.1155569999999
 30
0.0
 40
1.620999999999999
  0
LINE
  5
A6C0
330
A66E
100
AcDbEntity
  8
4
  6
CENTER
100
AcDbLine
 10
697.994137
 20
319.1723259999998
 30
0.0
 11
697.994137
 21
325.687974
 31
0.0
  0
ARC
  5
A6C1
330
A66E
100
AcDbEntity
  8
1
  6
Continuous
100
AcDbCircle
 10
699.7191370000003
 20
322.1155569999999
 30
0.0
 40
3.0
100
AcDbArc
 50
270.0
 51
90.0
  0
LINE
  5
A6C2
330
A66E
100
AcDbEntity
  8
4
  6
CENTER
100
AcDbLine
 10
705.7191370000001
 20
362.1155569999999
 30
0.0
 11
718.7191370000001
 21
362.1155569999999
 31
0.0
  0
LINE
  5
A6C3
330
A66E
100
AcDbEntity
  8
4
  6
CENTER
100
AcDbLine
 10
712.2191370000003
 20
355.6155569999999
 30
0.0
 11
712.2191370000003
 21
368.6155569999999
 31
0.0
  0
CIRCLE
  5
A6C4
330
A66E
100
AcDbEntity
  8
1
  6
Continuous
100
AcDbCircle
 10
712.2191370000003
 20
362.1155569999999
 30
0.0
 40
4.299999999999998
  0
ARC
  5
A6C5
330
A66E
100
AcDbEntity
  8
1
  6
Continuous
100
AcDbCircle
 10
726.719137
 20
374.6155569999999
 30
0.0
 40
3.0
100
AcDbArc
 50
131.810315
 51
228.1896849999998
  0
LINE
  5
A6C6
330
A66E
100
AcDbEntity
  8
1
  6
Continuous
100
AcDbLine
 10
637.7191370000002
 20
387.1155569999999
 30
0.0
 11
724.719137
 21
387.1155569999999
 31
0.0
  0
LINE
  5
A6C7
330
A66E
100
AcDbEntity
  8
1
  6
Continuous
100
AcDbLine
 10
687.8850489999996
 20
414.1155569999998
 30
0.0
 11
687.8850489999996
 21
387.1155569999999
 31
0.0
  0
LINE
  5
A6C8
330
A66E
100
AcDbEntity
  8
1
  6
Continuous
100
AcDbLine
 10
701.885049
 20
387.1155569999999
 30
0.0
 11
701.885049
 21
414.1155569999998
 31
0.0
  0
ARC
  5
A6C9
330
A66E
100
AcDbEntity
  8
1
  6
Continuous
100
AcDbCircle
 10
694.8850489999996
 20
414.1155569999998
 30
0.0
 40
7.0
100
AcDbArc
 50
0.0
 51
180.0
  0
LINE
  5
A6CA
330
A66E
100
AcDbEntity
  8
4
  6
CENTER
100
AcDbLine
 10
694.8850489999996
 20
409.365557
 30
0.0
 11
694.8850489999996
 21
418.8655569999998
 31
0.0
  0
LINE
  5
A6CB
330
A66E
100
AcDbEntity
  8
4
  6
CENTER
100
AcDbLine
 10
690.1350489999996
 20
414.1155569999998
 30
0.0
 11
699.635049
 21
414.1155569999998
 31
0.0
  0
CIRCLE
  5
A6CC
330
A66E
100
AcDbEntity
  8
1
  6
Continuous
100
AcDbCircle
 10
694.8850489999996
 20
414.1155569999998
 30
0.0
 40
3.0
  0
ARC
  5
A6CD
330
A66E
100
AcDbEntity
  8
1
  6
Continuous
100
AcDbCircle
 10
216.279889
 20
379.09845
 30
0.0
 40
7.0
100
AcDbArc
 50
92.99830599999999
 51
176.7102979999999
  0
ARC
  5
A6CE
330
A66E
100
AcDbEntity
  8
1
  6
Continuous
100
AcDbCircle
 10
294.007253
 20
379.09845
 30
0.0
 40
7.0
100
AcDbArc
 50
3.289701999999998
 51
87.001694
  0
LINE
  5
A6CF
330
A66E
100
AcDbEntity
  8
1
  6
Continuous
100
AcDbLine
 10
207.6435969999999
 20
64.734086
 30
0.0
 11
302.643597
 21
64.734086
 31
0.0
  0
ARC
  5
A6D0
330
A66E
100
AcDbEntity
  8
1
  6
Continuous
100
AcDbCircle
 10
255.143597
 20
-115.786747
 30
0.0
 40
191.020833
100
AcDbArc
 50
76.071303
 51
103.928697
  0
LINE
  5
A6D1
330
A66E
100
AcDbEntity
  8
1
  6
Continuous
100
AcDbLine
 10
207.6435969999999
 20
63.734086
 30
0.0
 11
302.643597
 21
63.734086
 31
0.0
  0
LINE
  5
A6D2
330
A66E
100
AcDbEntity
  8
5
  6
PHANTOM
100
AcDbLine
 10
236.0602569999998
 20
94.29774700000001
 30
0.0
 11
236.9861409999999
 21
93.76146199999999
 31
0.0
  0
ARC
  5
A6D3
330
A66E
100
AcDbEntity
  8
5
  6
PHANTOM
100
AcDbCircle
 10
236.516039
 20
98.65628700000002
 30
0.0
 40
1.0
100
AcDbArc
 50
59.91998600000001
 51
146.7523709999998
  0
LINE
  5
A6D4
330
A66E
100
AcDbEntity
  8
1
  6
Continuous
100
AcDbLine
 10
214.643597
 20
41.734086
 30
0.0
 11
250.643597
 21
41.734086
 31
0.0
  0
LINE
  5
A6D5
330
A66E
100
AcDbEntity
  8
1
  6
Continuous
100
AcDbLine
 10
233.877685
 20
48.534086
 30
0.0
 11
237.97768
 21
48.534086
 31
0.0
  0
LINE
  5
A6D6
330
A66E
100
AcDbEntity
  8
1
  6
Continuous
100
AcDbLine
 10
296.143597
 20
39.73408599999999
 30
0.0
 11
213.143597
 21
39.73408599999999
 31
0.0
  0
LINE
  5
A6D7
330
A66E
100
AcDbEntity
  8
1
  6
Continuous
100
AcDbLine
 10
296.143597
 20
41.734086
 30
0.0
 11
213.143597
 21
41.734086
 31
0.0
  0
LINE
  5
A6D8
330
A66E
100
AcDbEntity
  8
1
  6
Continuous
100
AcDbLine
 10
295.1435969999998
 20
42.73408599999998
 30
0.0
 11
214.143597
 21
42.73408599999998
 31
0.0
  0
LINE
  5
A6D9
330
A66E
100
AcDbEntity
  8
1
  6
Continuous
100
AcDbLine
 10
248.077685
 20
46.034068
 30
0.0
 11
234.9128739999999
 21
46.03405699999998
 31
0.0
  0
LINE
  5
A6DA
330
A66E
100
AcDbEntity
  8
1
  6
Continuous
100
AcDbLine
 10
248.077685
 20
43.734068
 30
0.0
 11
234.9128759999999
 21
43.734057
 31
0.0
  0
LINE
  5
A6DB
330
A66E
100
AcDbEntity
  8
1
  6
Continuous
100
AcDbLine
 10
247.977836
 20
48.334068
 30
0.0
 11
233.9778359999999
 21
48.334057
 31
0.0
  0
LINE
  5
A6DC
330
A66E
100
AcDbEntity
  8
1
  6
Continuous
100
AcDbLine
 10
265.643592
 20
41.734086
 30
0.0
 11
216.093592
 21
41.734086
 31
0.0
  0
ARC
  5
A6DD
330
A66E
100
AcDbEntity
  8
5
  6
PHANTOM
100
AcDbCircle
 10
230.7784519999999
 20
78.866904
 30
0.0
 40
4.0
100
AcDbArc
 50
152.8631629999999
 51
239.9199859999999
  0
ARC
  5
A6DE
330
A66E
100
AcDbEntity
  8
5
  6
PHANTOM
100
AcDbCircle
 10
395.432143
 20
-5.524270999999997
 30
0.0
 40
189.020833
100
AcDbArc
 50
148.2437239999998
 51
155.6003269999999
  0
ARC
  5
A6DF
330
A66E
100
AcDbEntity
  8
5
  6
PHANTOM
100
AcDbCircle
 10
395.432143
 20
-5.524270999999997
 30
0.0
 40
191.020833
100
AcDbArc
 50
146.7523709999998
 51
156.009474
  0
LINE
  5
A6E0
330
A66E
100
AcDbEntity
  8
4
  6
CENTER
100
AcDbLine
 10
229.643597
 20
65.084086
 30
0.0
 11
229.643597
 21
56.984086
 31
0.0
  0
LINE
  5
A6E1
330
A66E
100
AcDbEntity
  8
1
  6
Continuous
100
AcDbLine
 10
214.643597
 20
42.73408599999998
 30
0.0
 11
214.643597
 21
63.734086
 31
0.0
  0
LINE
  5
A6E2
330
A66E
100
AcDbEntity
  8
1
  6
Continuous
100
AcDbLine
 10
211.143597
 20
41.734086
 30
0.0
 11
211.143597
 21
63.234086
 31
0.0
  0
LINE
  5
A6E3
330
A66E
100
AcDbEntity
  8
1
  6
Continuous
100
AcDbLine
 10
213.143597
 20
41.734086
 30
0.0
 11
213.143597
 21
63.234086
 31
0.0
  0
LINE
  5
A6E4
330
A66E
100
AcDbEntity
  8
1
  6
Continuous
100
AcDbLine
 10
214.643597
 20
51.934086
 30
0.0
 11
231.877685
 21
51.934086
 31
0.0
  0
ARC
  5
A6E5
330
A66E
100
AcDbEntity
  8
1
  6
Continuous
100
AcDbCircle
 10
213.143597
 20
56.234086
 30
0.0
 40
1.0
100
AcDbArc
 50
0.0
 51
90.0
  0
ARC
  5
A6E6
330
A66E
100
AcDbEntity
  8
1
  6
Continuous
100
AcDbCircle
 10
213.143597
 20
41.734086
 30
0.0
 40
2.0
100
AcDbArc
 50
180.0
 51
270.0
  0
LINE
  5
A6E7
330
A66E
100
AcDbEntity
  8
1
  6
Continuous
100
AcDbLine
 10
218.643597
 20
42.73408599999998
 30
0.0
 11
218.643597
 21
51.934086
 31
0.0
  0
LINE
  5
A6E8
330
A66E
100
AcDbEntity
  8
1
  6
Continuous
100
AcDbLine
 10
214.143597
 20
42.73408599999998
 30
0.0
 11
214.143597
 21
56.234086
 31
0.0
  0
LINE
  5
A6E9
330
A66E
100
AcDbEntity
  8
1
  6
Continuous
100
AcDbLine
 10
231.877685
 20
44.73408599999999
 30
0.0
 11
233.877685
 21
44.73408599999999
 31
0.0
  0
LINE
  5
A6EA
330
A66E
100
AcDbEntity
  8
1
  6
Continuous
100
AcDbLine
 10
233.9778359999999
 20
46.03405699999998
 30
0.0
 11
233.9778359999999
 21
48.334057
 31
0.0
  0
LINE
  5
A6EB
330
A66E
100
AcDbEntity
  8
1
  6
Continuous
100
AcDbLine
 10
233.9778359999999
 20
46.03405699999998
 30
0.0
 11
234.912866
 21
46.03405699999998
 31
0.0
  0
LINE
  5
A6EC
330
A66E
100
AcDbEntity
  8
1
  6
Continuous
100
AcDbLine
 10
228.643597
 20
42.73408599999998
 30
0.0
 11
228.643597
 21
51.934086
 31
0.0
  0
LINE
  5
A6ED
330
A66E
100
AcDbEntity
  8
1
  6
Continuous
100
AcDbLine
 10
231.877685
 20
42.73408599999998
 30
0.0
 11
231.877685
 21
56.934086
 31
0.0
  0
LINE
  5
A6EE
330
A66E
100
AcDbEntity
  8
1
  6
Continuous
100
AcDbLine
 10
233.877685
 20
42.73408599999998
 30
0.0
 11
233.877685
 21
48.534086
 31
0.0
  0
LINE
  5
A6EF
330
A66E
100
AcDbEntity
  8
1
  6
Continuous
100
AcDbLine
 10
234.9128759999999
 20
43.734057
 30
0.0
 11
234.9128719999999
 21
46.03405699999998
 31
0.0
  0
ARC
  5
A6F0
330
A66E
100
AcDbEntity
  8
1
  6
Continuous
100
AcDbCircle
 10
209.6435969999999
 20
67.676125
 30
0.0
 40
2.0
100
AcDbArc
 50
103.928697
 51
180.0
  0
LINE
  5
A6F1
330
A66E
100
AcDbEntity
  8
1
  6
Continuous
100
AcDbLine
 10
207.6435969999999
 20
64.734086
 30
0.0
 11
207.6435969999999
 21
63.734086
 31
0.0
  0
LINE
  5
A6F2
330
A66E
100
AcDbEntity
  8
1
  6
Continuous
100
AcDbLine
 10
213.143597
 20
63.234086
 30
0.0
 11
211.143597
 21
63.234086
 31
0.0
  0
LINE
  5
A6F3
330
A66E
100
AcDbEntity
  8
1
  6
Continuous
100
AcDbLine
 10
207.6435969999999
 20
64.734086
 30
0.0
 11
207.6435969999999
 21
67.676125
 31
0.0
  0
LINE
  5
A6F4
330
A66E
100
AcDbEntity
  8
5
  6
PHANTOM
100
AcDbLine
 10
231.587026
 20
73.776031
 30
0.0
 11
228.7736129999999
 21
75.405601
 31
0.0
  0
CIRCLE
  5
A6F5
330
A66E
100
AcDbEntity
  8
1
  6
Continuous
100
AcDbCircle
 10
229.643597
 20
61.034086
 30
0.0
 40
2.549999999999998
  0
LINE
  5
A6F6
330
A66E
100
AcDbEntity
  8
4
  6
CENTER
100
AcDbLine
 10
233.693597
 20
61.034086
 30
0.0
 11
225.5935969999999
 21
61.034086
 31
0.0
  0
ARC
  5
A6F7
330
A66E
100
AcDbEntity
  8
5
  6
PHANTOM
100
AcDbCircle
 10
235.559048
 20
93.43242100000001
 30
0.0
 40
1.0
100
AcDbArc
 50
59.91998600000001
 51
148.2437239999998
  0
LINE
  5
A6F8
330
A66E
100
AcDbEntity
  8
1
  6
Continuous
100
AcDbLine
 10
258.643597
 20
44.234086
 30
0.0
 11
268.643597
 21
44.234086
 31
0.0
  0
LINE
  5
A6F9
330
A66E
100
AcDbEntity
  8
1
  6
Continuous
100
AcDbLine
 10
250.077685
 20
51.934086
 30
0.0
 11
284.307904
 21
51.934086
 31
0.0
  0
LINE
  5
A6FA
330
A66E
100
AcDbEntity
  8
1
  6
Continuous
100
AcDbLine
 10
269.6436049999999
 20
41.73408499999999
 30
0.0
 11
257.6436269999999
 21
41.73407499999997
 31
0.0
  0
LINE
  5
A6FB
330
A66E
100
AcDbEntity
  8
1
  6
Continuous
100
AcDbLine
 10
269.6436019999998
 20
44.034085
 30
0.0
 11
257.6436249999998
 21
44.034075
 31
0.0
  0
LINE
  5
A6FC
330
A66E
100
AcDbEntity
  8
4
  6
CENTER
100
AcDbLine
 10
240.9776799999999
 20
41.79971199999999
 30
0.0
 11
240.9776799999999
 21
60.334065
 31
0.0
  0
LINE
  5
A6FD
330
A66E
100
AcDbEntity
  8
1
  6
Continuous
100
AcDbLine
 10
250.643597
 20
49.434086
 30
0.0
 11
258.643597
 21
49.434086
 31
0.0
  0
LINE
  5
A6FE
330
A66E
100
AcDbEntity
  8
1
  6
Continuous
100
AcDbLine
 10
258.643597
 20
49.034082
 30
0.0
 11
250.6436129999999
 21
49.034076
 31
0.0
  0
LINE
  5
A6FF
330
A66E
100
AcDbEntity
  8
1
  6
Continuous
100
AcDbLine
 10
258.643597
 20
46.73407599999999
 30
0.0
 11
250.643611
 21
46.73407
 31
0.0
  0
LINE
  5
A700
330
A66E
100
AcDbEntity
  8
1
  6
Continuous
100
AcDbLine
 10
254.3436
 20
46.03407299999999
 30
0.0
 11
250.643597
 21
46.03406999999999
 31
0.0
  0
LINE
  5
A701
330
A66E
100
AcDbEntity
  8
1
  6
Continuous
100
AcDbLine
 10
250.643611
 20
49.234086
 30
0.0
 11
258.643597
 21
49.234086
 31
0.0
  0
LINE
  5
A702
330
A66E
100
AcDbEntity
  8
1
  6
Continuous
100
AcDbLine
 10
254.343602
 20
43.73407299999999
 30
0.0
 11
250.643597
 21
43.73407
 31
0.0
  0
LINE
  5
A703
330
A66E
100
AcDbEntity
  8
1
  6
Continuous
100
AcDbLine
 10
248.077685
 20
44.73408599999999
 30
0.0
 11
250.077685
 21
44.73408599999999
 31
0.0
  0
LINE
  5
A704
330
A66E
100
AcDbEntity
  8
1
  6
Continuous
100
AcDbLine
 10
243.97768
 20
48.534086
 30
0.0
 11
248.077685
 21
48.534086
 31
0.0
  0
LINE
  5
A705
330
A66E
100
AcDbEntity
  8
1
  6
Continuous
100
AcDbLine
 10
250.643611
 20
46.03406999999999
 30
0.0
 11
250.643611
 21
49.034076
 31
0.0
  0
LINE
  5
A706
330
A66E
100
AcDbEntity
  8
1
  6
Continuous
100
AcDbLine
 10
247.977836
 20
46.034068
 30
0.0
 11
247.977836
 21
48.334068
 31
0.0
  0
LINE
  5
A707
330
A66E
100
AcDbEntity
  8
1
  6
Continuous
100
AcDbLine
 10
238.47768
 20
57.334065
 30
0.0
 11
243.4776799999999
 21
57.334065
 31
0.0
  0
LINE
  5
A708
330
A66E
100
AcDbEntity
  8
1
  6
Continuous
100
AcDbLine
 10
243.97768
 20
48.334065
 30
0.0
 11
243.97768
 21
56.834065
 31
0.0
  0
LINE
  5
A709
330
A66E
100
AcDbEntity
  8
1
  6
Continuous
100
AcDbLine
 10
237.97768
 20
48.334065
 30
0.0
 11
237.97768
 21
56.834065
 31
0.0
  0
LINE
  5
A70A
330
A66E
100
AcDbEntity
  8
1
  6
Continuous
100
AcDbLine
 10
243.97768
 20
56.834065
 30
0.0
 11
243.4776799999999
 21
57.334065
 31
0.0
  0
LINE
  5
A70B
330
A66E
100
AcDbEntity
  8
1
  6
Continuous
100
AcDbLine
 10
237.97768
 20
56.834065
 30
0.0
 11
238.47768
 21
57.334065
 31
0.0
  0
LINE
  5
A70C
330
A66E
100
AcDbEntity
  8
1
  6
Continuous
100
AcDbLine
 10
237.97768
 20
56.834065
 30
0.0
 11
243.97768
 21
56.834065
 31
0.0
  0
LINE
  5
A70D
330
A66E
100
AcDbEntity
  8
4
  6
CENTER
100
AcDbLine
 10
234.9776799999999
 20
55.334065
 30
0.0
 11
246.9776799999999
 21
55.334065
 31
0.0
  0
ARC
  5
A70E
330
A66E
100
AcDbEntity
  8
1
  6
Continuous
100
AcDbCircle
 10
240.9776799999999
 20
54.78405799999999
 30
0.0
 40
9.25
100
AcDbArc
 50
251.075356
 51
288.9246439999999
  0
LINE
  5
A70F
330
A66E
100
AcDbEntity
  8
1
  6
Continuous
100
AcDbLine
 10
246.6435919999999
 20
48.334067
 30
0.0
 11
246.6435919999999
 21
48.534086
 31
0.0
  0
ARC
  5
A710
330
A66E
100
AcDbEntity
  8
1
  6
Continuous
100
AcDbCircle
 10
240.9776799999999
 20
52.48406
 30
0.0
 40
9.25
100
AcDbArc
 50
251.075356
 51
288.9246439999999
  0
LINE
  5
A711
330
A66E
100
AcDbEntity
  8
1
  6
Continuous
100
AcDbLine
 10
242.5435919999999
 20
43.734086
 30
0.0
 11
246.6435919999999
 21
43.734086
 31
0.0
  0
LINE
  5
A712
330
A66E
100
AcDbEntity
  8
1
  6
Continuous
100
AcDbLine
 10
250.077685
 20
42.73408599999998
 30
0.0
 11
250.077685
 21
56.934086
 31
0.0
  0
LINE
  5
A713
330
A66E
100
AcDbEntity
  8
1
  6
Continuous
100
AcDbLine
 10
248.077685
 20
42.73408599999998
 30
0.0
 11
248.077685
 21
48.534086
 31
0.0
  0
LINE
  5
A714
330
A66E
100
AcDbEntity
  8
1
  6
Continuous
100
AcDbLine
 10
250.643597
 20
42.73408599999998
 30
0.0
 11
250.643597
 21
49.434086
 31
0.0
  0
LINE
  5
A715
330
A66E
100
AcDbEntity
  8
1
  6
Continuous
100
AcDbLine
 10
258.643597
 20
44.234086
 30
0.0
 11
258.643597
 21
51.934086
 31
0.0
  0
LINE
  5
A716
330
A66E
100
AcDbEntity
  8
1
  6
Continuous
100
AcDbLine
 10
260.643597
 20
44.034078
 30
0.0
 11
260.643597
 21
44.234086
 31
0.0
  0
LINE
  5
A717
330
A66E
100
AcDbEntity
  8
1
  6
Continuous
100
AcDbLine
 10
266.643597
 20
44.034083
 30
0.0
 11
266.643597
 21
44.234086
 31
0.0
  0
LINE
  5
A718
330
A66E
100
AcDbEntity
  8
1
  6
Continuous
100
AcDbLine
 10
255.7835799999998
 20
45.52752299999998
 30
0.0
 11
257.6436249999998
 21
44.034075
 31
0.0
  0
ARC
  5
A719
330
A66E
100
AcDbEntity
  8
1
  6
Continuous
100
AcDbCircle
 10
254.343602
 20
43.73407299999999
 30
0.0
 40
2.299999999999998
100
AcDbArc
 50
51.238691
 51
90.00009399999997
  0
LINE
  5
A71A
330
A66E
100
AcDbEntity
  8
1
  6
Continuous
100
AcDbLine
 10
257.6436249999998
 20
44.034075
 30
0.0
 11
257.643617
 21
46.73406599999998
 31
0.0
  0
LINE
  5
A71B
330
A66E
100
AcDbEntity
  8
1
  6
Continuous
100
AcDbLine
 10
261.743597
 20
38.73408599999999
 30
0.0
 11
265.5435969999999
 21
38.73408599999999
 31
0.0
  0
LINE
  5
A71C
330
A66E
100
AcDbEntity
  8
1
  6
Continuous
100
AcDbLine
 10
261.243597
 20
39.234086
 30
0.0
 11
261.243597
 21
39.73408599999999
 31
0.0
  0
LINE
  5
A71D
330
A66E
100
AcDbEntity
  8
1
  6
Continuous
100
AcDbLine
 10
266.0435969999999
 20
39.234086
 30
0.0
 11
266.0435969999999
 21
39.73408599999999
 31
0.0
  0
LINE
  5
A71E
330
A66E
100
AcDbEntity
  8
1
  6
Continuous
100
AcDbLine
 10
261.243597
 20
39.234086
 30
0.0
 11
261.743597
 21
38.73408599999999
 31
0.0
  0
LINE
  5
A71F
330
A66E
100
AcDbEntity
  8
1
  6
Continuous
100
AcDbLine
 10
266.0435969999999
 20
39.234086
 30
0.0
 11
265.5435969999999
 21
38.73408599999999
 31
0.0
  0
LINE
  5
A720
330
A66E
100
AcDbEntity
  8
1
  6
Continuous
100
AcDbLine
 10
261.243597
 20
39.234086
 30
0.0
 11
266.0435969999999
 21
39.234086
 31
0.0
  0
LINE
  5
A721
330
A66E
100
AcDbEntity
  8
1
  6
Continuous
100
AcDbLine
 10
254.343602
 20
43.73407299999999
 30
0.0
 11
255.5890559999999
 21
42.73408599999998
 31
0.0
  0
ARC
  5
A722
330
A66E
100
AcDbEntity
  8
1
  6
Continuous
100
AcDbCircle
 10
284.307904
 20
60.934086
 30
0.0
 40
9.0
100
AcDbArc
 50
270.0
 51
345.0
  0
LINE
  5
A723
330
A66E
100
AcDbEntity
  8
1
  6
Continuous
100
AcDbLine
 10
294.6435969999999
 20
63.734086
 30
0.0
 11
294.6435969999999
 21
42.73408599999998
 31
0.0
  0
LINE
  5
A724
330
A66E
100
AcDbEntity
  8
1
  6
Continuous
100
AcDbLine
 10
298.143597
 20
41.734086
 30
0.0
 11
298.143597
 21
63.234086
 31
0.0
  0
LINE
  5
A725
330
A66E
100
AcDbEntity
  8
1
  6
Continuous
100
AcDbLine
 10
296.143597
 20
41.734086
 30
0.0
 11
296.143597
 21
63.234086
 31
0.0
  0
LINE
  5
A726
330
A66E
100
AcDbEntity
  8
1
  6
Continuous
100
AcDbLine
 10
276.6435969999998
 20
41.734086
 30
0.0
 11
294.6435969999999
 21
41.734086
 31
0.0
  0
LINE
  5
A727
330
A66E
100
AcDbEntity
  8
1
  6
Continuous
100
AcDbLine
 10
268.643597
 20
44.234086
 30
0.0
 11
268.643597
 21
51.934086
 31
0.0
  0
LINE
  5
A728
330
A66E
100
AcDbEntity
  8
1
  6
Continuous
100
AcDbLine
 10
268.643597
 20
49.434086
 30
0.0
 11
276.6435969999998
 21
49.434086
 31
0.0
  0
LINE
  5
A729
330
A66E
100
AcDbEntity
  8
1
  6
Continuous
100
AcDbLine
 10
269.6435999999998
 20
46.73408499999999
 30
0.0
 11
268.643597
 21
46.734084
 31
0.0
  0
LINE
  5
A72A
330
A66E
100
AcDbEntity
  8
1
  6
Continuous
100
AcDbLine
 10
278.6435969999998
 20
42.73408599999998
 30
0.0
 11
278.6435969999998
 21
51.934086
 31
0.0
  0
LINE
  5
A72B
330
A66E
100
AcDbEntity
  8
1
  6
Continuous
100
AcDbLine
 10
276.6435969999998
 20
42.73408599999998
 30
0.0
 11
276.6435969999998
 21
49.434086
 31
0.0
  0
LINE
  5
A72C
330
A66E
100
AcDbEntity
  8
1
  6
Continuous
100
AcDbLine
 10
269.643603
 20
42.73408599999998
 30
0.0
 11
269.643594
 21
46.73408499999999
 31
0.0
  0
ARC
  5
A72D
330
A66E
100
AcDbEntity
  8
1
  6
Continuous
100
AcDbCircle
 10
296.143597
 20
56.234086
 30
0.0
 40
1.0
100
AcDbArc
 50
90.0
 51
180.0
  0
ARC
  5
A72E
330
A66E
100
AcDbEntity
  8
1
  6
Continuous
100
AcDbCircle
 10
296.143597
 20
41.734086
 30
0.0
 40
2.0
100
AcDbArc
 50
270.0
 51
0.0
  0
LINE
  5
A72F
330
A66E
100
AcDbEntity
  8
1
  6
Continuous
100
AcDbLine
 10
288.6435969999999
 20
42.73408599999998
 30
0.0
 11
288.6435969999999
 21
53.04727599999999
 31
0.0
  0
LINE
  5
A730
330
A66E
100
AcDbEntity
  8
1
  6
Continuous
100
AcDbLine
 10
295.1435969999998
 20
42.73408599999998
 30
0.0
 11
295.1435969999998
 21
56.234086
 31
0.0
  0
LINE
  5
A731
330
A66E
100
AcDbEntity
  8
1
  6
Continuous
100
AcDbLine
 10
294.375648
 20
63.734086
 30
0.0
 11
293.001237
 21
58.604715
 31
0.0
  0
LINE
  5
A732
330
A66E
100
AcDbEntity
  8
1
  6
Continuous
100
AcDbLine
 10
298.143597
 20
63.234086
 30
0.0
 11
296.143597
 21
63.234086
 31
0.0
  0
LINE
  5
A733
330
A66E
100
AcDbEntity
  8
5
  6
PHANTOM
100
AcDbLine
 10
237.0172489999999
 20
99.521613
 30
0.0
 11
239.617262
 21
98.015647
 31
0.0
  0
ARC
  5
A734
330
A66E
100
AcDbEntity
  8
5
  6
PHANTOM
100
AcDbCircle
 10
395.432143
 20
-5.524270999999997
 30
0.0
 40
186.020833
100
AcDbArc
 50
146.7015069999999
 51
147.6216649999998
  0
ARC
  5
A735
330
A66E
100
AcDbEntity
  8
5
  6
PHANTOM
100
AcDbCircle
 10
237.487351
 20
94.62678699999999
 30
0.0
 40
1.0
100
AcDbArc
 50
239.9199859999999
 51
327.621665
  0
ARC
  5
A736
330
A66E
100
AcDbEntity
  8
5
  6
PHANTOM
100
AcDbCircle
 10
239.116053
 20
97.15032100000001
 30
0.0
 40
1.0
100
AcDbArc
 50
326.7015069999998
 51
59.91998600000001
  0
ARC
  5
A737
330
A66E
100
AcDbEntity
  8
1
  6
Continuous
100
AcDbCircle
 10
300.643597
 20
67.676125
 30
0.0
 40
2.0
100
AcDbArc
 50
0.0
 51
76.071303
  0
LINE
  5
A738
330
A66E
100
AcDbEntity
  8
1
  6
Continuous
100
AcDbLine
 10
302.643597
 20
64.734086
 30
0.0
 11
302.643597
 21
63.734086
 31
0.0
  0
LINE
  5
A739
330
A66E
100
AcDbEntity
  8
1
  6
Continuous
100
AcDbLine
 10
302.643597
 20
64.734086
 30
0.0
 11
302.643597
 21
67.676125
 31
0.0
  0
LINE
  5
A73A
330
A66E
100
AcDbEntity
  8
4
  6
CENTER
100
AcDbLine
 10
307.6592919999999
 20
322.1155569999999
 30
0.0
 11
203.6229399999998
 21
322.1155569999999
 31
0.0
  0
ARC
  5
A73B
330
A66E
100
AcDbEntity
  8
1
  6
Continuous
100
AcDbCircle
 10
294.007253
 20
265.1326629999999
 30
0.0
 40
7.0
100
AcDbArc
 50
272.998306
 51
356.710298
  0
LINE
  5
A73C
330
A66E
100
AcDbEntity
  8
1
  6
Continuous
100
AcDbLine
 10
224.092042
 20
270.935937
 30
0.0
 11
224.092042
 21
373.1155569999998
 31
0.0
  0
ARC
  5
A73D
330
A66E
100
AcDbEntity
  8
1
  6
Continuous
100
AcDbCircle
 10
-697.3564290000001
 20
322.1155569999999
 30
0.0
 40
964.0
100
AcDbArc
 50
357.244909
 51
2.755091
  0
LINE
  5
A73E
330
A66E
100
AcDbEntity
  8
1
  6
Continuous
100
AcDbLine
 10
218.9303489999999
 20
271.1155569999998
 30
0.0
 11
218.9303489999999
 21
373.1155569999998
 31
0.0
  0
ARC
  5
A73F
330
A66E
100
AcDbEntity
  8
1
  6
Continuous
100
AcDbCircle
 10
-697.3564290000001
 20
322.1155569999999
 30
0.0
 40
991.1780890000001
100
AcDbArc
 50
357.262765
 51
2.737234999999998
  0
LINE
  5
A740
330
A66E
100
AcDbEntity
  8
1
  6
Continuous
100
AcDbLine
 10
216.643571
 20
269.1155569999998
 30
0.0
 11
216.643571
 21
375.1155569999998
 31
0.0
  0
ARC
  5
A741
330
A66E
100
AcDbEntity
  8
1
  6
Continuous
100
AcDbCircle
 10
1207.643571
 20
322.1155569999999
 30
0.0
 40
1000.0
100
AcDbArc
 50
176.7102979999999
 51
183.289702
  0
LINE
  5
A742
330
A66E
100
AcDbEntity
  8
4
  6
CENTER
100
AcDbLine
 10
245.727654
 20
230.115557
 30
0.0
 11
236.2276539999998
 21
230.115557
 31
0.0
  0
ARC
  5
A743
330
A66E
100
AcDbEntity
  8
1
  6
Continuous
100
AcDbCircle
 10
240.977654
 20
230.115557
 30
0.0
 40
7.0
100
AcDbArc
 50
180.0
 51
0.0
  0
LINE
  5
A744
330
A66E
100
AcDbEntity
  8
1
  6
Continuous
100
AcDbLine
 10
220.9303489999999
 20
269.1155569999998
 30
0.0
 11
258.537394
 21
269.1155569999998
 31
0.0
  0
LINE
  5
A745
330
A66E
100
AcDbEntity
  8
1
  6
Continuous
100
AcDbLine
 10
217.643571
 20
268.1155569999999
 30
0.0
 11
285.6987629999998
 21
268.1155569999999
 31
0.0
  0
ARC
  5
A746
330
A66E
100
AcDbEntity
  8
1
  6
Continuous
100
AcDbCircle
 10
255.143571
 20
1007.115557
 30
0.0
 40
750.0
100
AcDbArc
 50
267.001694
 51
272.998306
  0
LINE
  5
A747
330
A66E
100
AcDbEntity
  8
4
  6
CENTER
100
AcDbLine
 10
245.727654
 20
244.1155569999998
 30
0.0
 11
236.2276539999998
 21
244.1155569999998
 31
0.0
  0
ARC
  5
A748
330
A66E
100
AcDbEntity
  8
5
  6
PHANTOM
100
AcDbCircle
 10
240.977654
 20
244.1155569999998
 30
0.0
 40
7.0
100
AcDbArc
 50
180.0
 51
0.0
  0
LINE
  5
A749
330
A66E
100
AcDbEntity
  8
1
  6
Continuous
100
AcDbLine
 10
233.9776539999999
 20
257.4142799999999
 30
0.0
 11
233.9776539999999
 21
230.115557
 31
0.0
  0
ARC
  5
A74A
330
A66E
100
AcDbEntity
  8
1
  6
Continuous
100
AcDbCircle
 10
220.9303489999999
 20
271.1155569999998
 30
0.0
 40
2.0
100
AcDbArc
 50
180.0
 51
270.0
  0
LINE
  5
A74B
330
A66E
100
AcDbEntity
  8
4
  6
CENTER
100
AcDbLine
 10
229.643571
 20
254.5474539999999
 30
0.0
 11
229.643571
 21
389.6836599999998
 31
0.0
  0
ARC
  5
A74C
330
A66E
100
AcDbEntity
  8
1
  6
Continuous
100
AcDbCircle
 10
217.643571
 20
269.1155569999998
 30
0.0
 40
1.0
100
AcDbArc
 50
180.0
 51
270.0
  0
ARC
  5
A74D
330
A66E
100
AcDbEntity
  8
1
  6
Continuous
100
AcDbCircle
 10
216.279889
 20
265.1326629999999
 30
0.0
 40
7.0
100
AcDbArc
 50
183.289702
 51
267.001694
  0
LINE
  5
A74E
330
A66E
100
AcDbEntity
  8
1
  6
Continuous
100
AcDbLine
 10
233.1076729999999
 20
268.1155569999999
 30
0.0
 11
233.1076729999999
 21
269.1155569999998
 31
0.0
  0
LINE
  5
A74F
330
A66E
100
AcDbEntity
  8
1
  6
Continuous
100
AcDbLine
 10
225.643571
 20
268.1155569999999
 30
0.0
 11
225.643571
 21
269.1155569999998
 31
0.0
  0
LINE
  5
A750
330
A66E
100
AcDbEntity
  8
1
  6
Continuous
100
AcDbLine
 10
247.977654
 20
230.115557
 30
0.0
 11
247.977654
 21
257.149791
 31
0.0
  0
LINE
  5
A751
330
A66E
100
AcDbEntity
  8
4
  6
CENTER
100
AcDbLine
 10
240.977654
 20
234.865557
 30
0.0
 11
240.977654
 21
225.3655569999998
 31
0.0
  0
CIRCLE
  5
A752
330
A66E
100
AcDbEntity
  8
1
  6
Continuous
100
AcDbCircle
 10
240.977654
 20
230.115557
 30
0.0
 40
3.0
  0
CIRCLE
  5
A753
330
A66E
100
AcDbEntity
  8
5
  6
PHANTOM
100
AcDbCircle
 10
240.977654
 20
244.1155569999998
 30
0.0
 40
2.5
  0
LINE
  5
A754
330
A66E
100
AcDbEntity
  8
4
  6
CENTER
100
AcDbLine
 10
240.977654
 20
248.865557
 30
0.0
 11
240.977654
 21
239.3655569999999
 31
0.0
  0
CIRCLE
  5
A755
330
A66E
100
AcDbEntity
  8
5
  6
PHANTOM
100
AcDbCircle
 10
240.977654
 20
244.1155569999998
 30
0.0
 40
3.0
  0
CIRCLE
  5
A756
330
A66E
100
AcDbEntity
  8
1
  6
Continuous
100
AcDbCircle
 10
240.977654
 20
230.115557
 30
0.0
 40
2.5
  0
ARC
  5
A757
330
A66E
100
AcDbEntity
  8
1
  6
Continuous
100
AcDbCircle
 10
258.537394
 20
276.1155569999999
 30
0.0
 40
7.0
100
AcDbArc
 50
270.0
 51
357.244909
  0
LINE
  5
A758
330
A66E
100
AcDbEntity
  8
1
  6
Continuous
100
AcDbLine
 10
256.6435709999999
 20
268.1155569999999
 30
0.0
 11
256.6435709999999
 21
269.1155569999998
 31
0.0
  0
ARC
  5
A759
330
A66E
100
AcDbEntity
  8
1
  6
Continuous
100
AcDbCircle
 10
285.6987629999998
 20
275.1155569999998
 30
0.0
 40
7.0
100
AcDbArc
 50
270.0
 51
357.262765
  0
LINE
  5
A75A
330
A66E
100
AcDbEntity
  8
1
  6
Continuous
100
AcDbLine
 10
220.9303489999999
 20
375.1155569999998
 30
0.0
 11
258.537394
 21
375.1155569999998
 31
0.0
  0
LINE
  5
A75B
330
A66E
100
AcDbEntity
  8
1
  6
Continuous
100
AcDbLine
 10
217.643571
 20
376.1155569999999
 30
0.0
 11
285.6987629999998
 21
376.1155569999999
 31
0.0
  0
ARC
  5
A75C
330
A66E
100
AcDbEntity
  8
1
  6
Continuous
100
AcDbCircle
 10
220.9303489999999
 20
373.1155569999998
 30
0.0
 40
2.0
100
AcDbArc
 50
90.0
 51
180.0
  0
ARC
  5
A75D
330
A66E
100
AcDbEntity
  8
1
  6
Continuous
100
AcDbCircle
 10
217.643571
 20
375.1155569999998
 30
0.0
 40
1.0
100
AcDbArc
 50
90.0
 51
180.0
  0
LINE
  5
A75E
330
A66E
100
AcDbEntity
  8
1
  6
Continuous
100
AcDbLine
 10
233.1076729999999
 20
375.1155569999998
 30
0.0
 11
233.1076729999999
 21
376.1155569999999
 31
0.0
  0
LINE
  5
A75F
330
A66E
100
AcDbEntity
  8
1
  6
Continuous
100
AcDbLine
 10
225.643571
 20
376.1155569999999
 30
0.0
 11
225.643571
 21
375.1155569999998
 31
0.0
  0
ARC
  5
A760
330
A66E
100
AcDbEntity
  8
1
  6
Continuous
100
AcDbCircle
 10
258.537394
 20
368.1155569999999
 30
0.0
 40
7.0
100
AcDbArc
 50
2.755091
 51
90.0
  0
LINE
  5
A761
330
A66E
100
AcDbEntity
  8
1
  6
Continuous
100
AcDbLine
 10
256.6435709999999
 20
376.1155569999999
 30
0.0
 11
256.6435709999999
 21
375.1155569999998
 31
0.0
  0
ARC
  5
A762
330
A66E
100
AcDbEntity
  8
1
  6
Continuous
100
AcDbCircle
 10
285.6987629999998
 20
369.1155569999998
 30
0.0
 40
7.0
100
AcDbArc
 50
2.737234999999998
 51
90.0
  0
ARC
  5
A763
330
A66E
100
AcDbEntity
  8
1
  6
Continuous
100
AcDbCircle
 10
-697.3564290000001
 20
322.1155569999999
 30
0.0
 40
1000.0
100
AcDbArc
 50
356.710298
 51
3.289701999999998
  0
LINE
  5
A764
330
A66E
100
AcDbEntity
  8
4
  6
CENTER
100
AcDbLine
 10
245.727654
 20
414.1155569999998
 30
0.0
 11
236.2276539999998
 21
414.1155569999998
 31
0.0
  0
ARC
  5
A765
330
A66E
100
AcDbEntity
  8
1
  6
Continuous
100
AcDbCircle
 10
240.977654
 20
414.1155569999998
 30
0.0
 40
7.0
100
AcDbArc
 50
0.0
 51
180.0
  0
ARC
  5
A766
330
A66E
100
AcDbEntity
  8
1
  6
Continuous
100
AcDbCircle
 10
255.143571
 20
-362.884443
 30
0.0
 40
750.0
100
AcDbArc
 50
87.001694
 51
92.99830599999999
  0
LINE
  5
A767
330
A66E
100
AcDbEntity
  8
4
  6
CENTER
100
AcDbLine
 10
245.727654
 20
400.1155569999998
 30
0.0
 11
236.2276539999998
 21
400.1155569999998
 31
0.0
  0
ARC
  5
A768
330
A66E
100
AcDbEntity
  8
5
  6
PHANTOM
100
AcDbCircle
 10
240.977654
 20
400.1155569999998
 30
0.0
 40
7.0
100
AcDbArc
 50
0.0
 51
180.0
  0
LINE
  5
A769
330
A66E
100
AcDbEntity
  8
1
  6
Continuous
100
AcDbLine
 10
233.9776539999999
 20
386.8168329999999
 30
0.0
 11
233.9776539999999
 21
414.1155569999998
 31
0.0
  0
LINE
  5
A76A
330
A66E
100
AcDbEntity
  8
1
  6
Continuous
100
AcDbLine
 10
247.977654
 20
414.1155569999998
 30
0.0
 11
247.977654
 21
387.081322
 31
0.0
  0
LINE
  5
A76B
330
A66E
100
AcDbEntity
  8
4
  6
CENTER
100
AcDbLine
 10
240.977654
 20
404.8655569999998
 30
0.0
 11
240.977654
 21
395.3655569999999
 31
0.0
  0
CIRCLE
  5
A76C
330
A66E
100
AcDbEntity
  8
5
  6
PHANTOM
100
AcDbCircle
 10
240.977654
 20
400.1155569999998
 30
0.0
 40
3.0
  0
CIRCLE
  5
A76D
330
A66E
100
AcDbEntity
  8
5
  6
PHANTOM
100
AcDbCircle
 10
240.977654
 20
400.1155569999998
 30
0.0
 40
2.5
  0
LINE
  5
A76E
330
A66E
100
AcDbEntity
  8
4
  6
CENTER
100
AcDbLine
 10
240.977654
 20
418.8655569999998
 30
0.0
 11
240.977654
 21
409.365557
 31
0.0
  0
CIRCLE
  5
A76F
330
A66E
100
AcDbEntity
  8
1
  6
Continuous
100
AcDbCircle
 10
240.977654
 20
414.1155569999998
 30
0.0
 40
3.0
  0
CIRCLE
  5
A770
330
A66E
100
AcDbEntity
  8
1
  6
Continuous
100
AcDbCircle
 10
240.977654
 20
414.1155569999998
 30
0.0
 40
2.5
  0
LINE
  5
A771
330
A66E
100
AcDbEntity
  8
1
  6
Continuous
100
AcDbLine
 10
481.520462
 20
223.1155719999999
 30
0.0
 11
481.520462
 21
257.1155569999999
 31
0.0
  0
LINE
  5
A772
330
A66E
100
AcDbEntity
  8
1
  6
Continuous
100
AcDbLine
 10
479.220454
 20
223.1155719999999
 30
0.0
 11
479.220454
 21
257.1155569999999
 31
0.0
  0
LINE
  5
A773
330
A66E
100
AcDbEntity
  8
4
  6
CENTER
100
AcDbLine
 10
464.720454
 20
390.1155569999998
 30
0.0
 11
464.720454
 21
254.1155569999999
 31
0.0
  0
LINE
  5
A774
330
A66E
100
AcDbEntity
  8
1
  6
Continuous
100
AcDbLine
 10
470.720454
 20
233.1155529999998
 30
0.0
 11
470.220454
 21
232.6155529999998
 31
0.0
  0
LINE
  5
A775
330
A66E
100
AcDbEntity
  8
1
  6
Continuous
100
AcDbLine
 10
470.720454
 20
227.1155529999998
 30
0.0
 11
470.720454
 21
233.1155529999998
 31
0.0
  0
ARC
  5
A776
330
A66E
100
AcDbEntity
  8
1
  6
Continuous
100
AcDbCircle
 10
472.7704619999998
 20
230.1155529999999
 30
0.0
 40
9.25
100
AcDbArc
 50
341.0753559999998
 51
18.924644
  0
LINE
  5
A777
330
A66E
100
AcDbEntity
  8
4
  6
CENTER
100
AcDbLine
 10
485.020462
 20
230.1155529999999
 30
0.0
 11
467.220454
 21
230.1155529999999
 31
0.0
  0
LINE
  5
A778
330
A66E
100
AcDbEntity
  8
1
  6
Continuous
100
AcDbLine
 10
470.220454
 20
227.615553
 30
0.0
 11
470.220454
 21
232.6155529999998
 31
0.0
  0
LINE
  5
A779
330
A66E
100
AcDbEntity
  8
1
  6
Continuous
100
AcDbLine
 10
470.720454
 20
227.1155529999998
 30
0.0
 11
470.220454
 21
227.615553
 31
0.0
  0
CIRCLE
  5
A77A
330
A66E
100
AcDbEntity
  8
1
  6
Continuous
100
AcDbCircle
 10
472.2204539999999
 20
230.1155529999999
 30
0.0
 40
1.0
  0
LINE
  5
A77B
330
A66E
100
AcDbEntity
  8
4
  6
CENTER
100
AcDbLine
 10
472.2204539999999
 20
227.615553
 30
0.0
 11
472.2204539999999
 21
232.6155529999998
 31
0.0
  0
LINE
  5
A77C
330
A66E
100
AcDbEntity
  8
1
  6
Continuous
100
AcDbLine
 10
481.520462
 20
223.1155719999999
 30
0.0
 11
479.220454
 21
223.1155719999999
 31
0.0
  0
LINE
  5
A77D
330
A66E
100
AcDbEntity
  8
1
  6
Continuous
100
AcDbLine
 10
479.220454
 20
227.1155529999998
 30
0.0
 11
470.720454
 21
227.1155529999998
 31
0.0
  0
LINE
  5
A77E
330
A66E
100
AcDbEntity
  8
1
  6
Continuous
100
AcDbLine
 10
479.220454
 20
233.1155529999998
 30
0.0
 11
470.720454
 21
233.1155529999998
 31
0.0
  0
LINE
  5
A77F
330
A66E
100
AcDbEntity
  8
1
  6
Continuous
100
AcDbLine
 10
486.0204539999998
 20
257.1155569999999
 30
0.0
 11
486.0204539999998
 21
387.1155569999999
 31
0.0
  0
LINE
  5
A780
330
A66E
100
AcDbEntity
  8
1
  6
Continuous
100
AcDbLine
 10
462.5204539999998
 20
257.1155569999999
 30
0.0
 11
462.5204539999998
 21
387.1155569999999
 31
0.0
  0
LINE
  5
A781
330
A66E
100
AcDbEntity
  8
1
  6
Continuous
100
AcDbLine
 10
487.0204539999998
 20
346.1712009999998
 30
0.0
 11
487.0204539999998
 21
342.371201
 31
0.0
  0
LINE
  5
A782
330
A66E
100
AcDbEntity
  8
1
  6
Continuous
100
AcDbLine
 10
486.5204539999998
 20
346.671201
 30
0.0
 11
486.5204539999998
 21
341.871201
 31
0.0
  0
LINE
  5
A783
330
A66E
100
AcDbEntity
  8
1
  6
Continuous
100
AcDbLine
 10
454.554859
 20
268.1155569999999
 30
0.0
 11
454.554859
 21
376.1155569999999
 31
0.0
  0
LINE
  5
A784
330
A66E
100
AcDbEntity
  8
1
  6
Continuous
100
AcDbLine
 10
450.520454
 20
270.1155569999999
 30
0.0
 11
450.520454
 21
374.1155569999999
 31
0.0
  0
LINE
  5
A785
330
A66E
100
AcDbEntity
  8
1
  6
Continuous
100
AcDbLine
 10
461.0204539999998
 20
257.1155569999999
 30
0.0
 11
461.0204539999998
 21
387.1155569999999
 31
0.0
  0
LINE
  5
A786
330
A66E
100
AcDbEntity
  8
1
  6
Continuous
100
AcDbLine
 10
462.0204539999998
 20
257.1155569999999
 30
0.0
 11
462.0204539999998
 21
387.1155569999999
 31
0.0
  0
LINE
  5
A787
330
A66E
100
AcDbEntity
  8
4
  6
CENTER
100
AcDbLine
 10
489.020454
 20
322.1155569999999
 30
0.0
 11
447.520454
 21
322.1155569999999
 31
0.0
  0
LINE
  5
A788
330
A66E
100
AcDbEntity
  8
1
  6
Continuous
100
AcDbLine
 10
487.0204539999998
 20
301.859912
 30
0.0
 11
487.0204539999998
 21
298.0599119999999
 31
0.0
  0
LINE
  5
A789
330
A66E
100
AcDbEntity
  8
1
  6
Continuous
100
AcDbLine
 10
486.5204539999998
 20
302.359912
 30
0.0
 11
486.5204539999998
 21
297.559912
 31
0.0
  0
LINE
  5
A78A
330
A66E
100
AcDbEntity
  8
1
  6
Continuous
100
AcDbLine
 10
462.5204539999998
 20
257.1155569999999
 30
0.0
 11
486.0204539999998
 21
257.1155569999999
 31
0.0
  0
LINE
  5
A78B
330
A66E
100
AcDbEntity
  8
4
  6
CENTER
100
AcDbLine
 10
490.0204539999998
 20
282.1155569999999
 30
0.0
 11
473.6238379999998
 21
282.1155569999999
 31
0.0
  0
LINE
  5
A78C
330
A66E
100
AcDbEntity
  8
1
  6
Continuous
100
AcDbLine
 10
486.5204539999998
 20
297.559912
 30
0.0
 11
487.0204539999998
 21
298.0599119999999
 31
0.0
  0
LINE
  5
A78D
330
A66E
100
AcDbEntity
  8
1
  6
Continuous
100
AcDbLine
 10
486.5204539999998
 20
297.559912
 30
0.0
 11
486.0204539999998
 21
297.559912
 31
0.0
  0
ARC
  5
A78E
330
A66E
100
AcDbEntity
  8
1
  6
Continuous
100
AcDbCircle
 10
454.3204539999998
 20
260.9155569999999
 30
0.0
 40
3.799999999999998
100
AcDbArc
 50
180.0
 51
270.0
  0
LINE
  5
A78F
330
A66E
100
AcDbEntity
  8
1
  6
Continuous
100
AcDbLine
 10
451.020454
 20
268.1155569999999
 30
0.0
 11
454.554859
 21
268.1155569999999
 31
0.0
  0
LINE
  5
A790
330
A66E
100
AcDbEntity
  8
1
  6
Continuous
100
AcDbLine
 10
451.520454
 20
269.1155569999998
 30
0.0
 11
454.554859
 21
269.1155569999998
 31
0.0
  0
LINE
  5
A791
330
A66E
100
AcDbEntity
  8
1
  6
Continuous
100
AcDbLine
 10
461.0204539999998
 20
257.1155569999999
 30
0.0
 11
454.3204539999998
 21
257.1155569999999
 31
0.0
  0
LINE
  5
A792
330
A66E
100
AcDbEntity
  8
1
  6
Continuous
100
AcDbLine
 10
462.0204539999998
 20
257.1155569999999
 30
0.0
 11
461.0204539999998
 21
257.1155569999999
 31
0.0
  0
LINE
  5
A793
330
A66E
100
AcDbEntity
  8
1
  6
Continuous
100
AcDbLine
 10
462.0204539999998
 20
265.1155569999999
 30
0.0
 11
462.5204539999998
 21
265.1155569999999
 31
0.0
  0
LINE
  5
A794
330
A66E
100
AcDbEntity
  8
1
  6
Continuous
100
AcDbLine
 10
450.520454
 20
260.9155569999999
 30
0.0
 11
450.520454
 21
267.6155569999999
 31
0.0
  0
ARC
  5
A795
330
A66E
100
AcDbEntity
  8
1
  6
Continuous
100
AcDbCircle
 10
451.020454
 20
267.6155569999999
 30
0.0
 40
0.5
100
AcDbArc
 50
90.0
 51
180.0
  0
ARC
  5
A796
330
A66E
100
AcDbEntity
  8
1
  6
Continuous
100
AcDbCircle
 10
451.520454
 20
270.1155569999999
 30
0.0
 40
1.0
100
AcDbArc
 50
180.0
 51
270.0
  0
LINE
  5
A797
330
A66E
100
AcDbEntity
  8
4
  6
CENTER
100
AcDbLine
 10
490.0204539999998
 20
299.9599119999999
 30
0.0
 11
473.6238379999998
 21
299.9599119999999
 31
0.0
  0
LINE
  5
A798
330
A66E
100
AcDbEntity
  8
1
  6
Continuous
100
AcDbLine
 10
486.5204539999998
 20
302.359912
 30
0.0
 11
487.0204539999998
 21
301.859912
 31
0.0
  0
LINE
  5
A799
330
A66E
100
AcDbEntity
  8
1
  6
Continuous
100
AcDbLine
 10
486.5204539999998
 20
302.359912
 30
0.0
 11
486.0204539999998
 21
302.359912
 31
0.0
  0
LINE
  5
A79A
330
A66E
100
AcDbEntity
  8
1
  6
Continuous
100
AcDbLine
 10
486.5204539999998
 20
341.871201
 30
0.0
 11
487.0204539999998
 21
342.371201
 31
0.0
  0
LINE
  5
A79B
330
A66E
100
AcDbEntity
  8
1
  6
Continuous
100
AcDbLine
 10
486.5204539999998
 20
341.871201
 30
0.0
 11
486.0204539999998
 21
341.871201
 31
0.0
  0
ARC
  5
A79C
330
A66E
100
AcDbEntity
  8
1
  6
Continuous
100
AcDbCircle
 10
454.3204539999998
 20
383.3155569999998
 30
0.0
 40
3.799999999999998
100
AcDbArc
 50
90.0
 51
180.0
  0
LINE
  5
A79D
330
A66E
100
AcDbEntity
  8
4
  6
CENTER
100
AcDbLine
 10
489.020454
 20
362.1155569999999
 30
0.0
 11
473.6238379999998
 21
362.1155569999999
 31
0.0
  0
LINE
  5
A79E
330
A66E
100
AcDbEntity
  8
4
  6
CENTER
100
AcDbLine
 10
489.020454
 20
344.2712009999998
 30
0.0
 11
473.6238379999998
 21
344.2712009999998
 31
0.0
  0
LINE
  5
A79F
330
A66E
100
AcDbEntity
  8
1
  6
Continuous
100
AcDbLine
 10
486.5204539999998
 20
346.671201
 30
0.0
 11
487.0204539999998
 21
346.1712009999998
 31
0.0
  0
LINE
  5
A7A0
330
A66E
100
AcDbEntity
  8
1
  6
Continuous
100
AcDbLine
 10
486.5204539999998
 20
346.671201
 30
0.0
 11
486.0204539999998
 21
346.671201
 31
0.0
  0
LINE
  5
A7A1
330
A66E
100
AcDbEntity
  8
1
  6
Continuous
100
AcDbLine
 10
451.020454
 20
376.1155569999999
 30
0.0
 11
454.554859
 21
376.1155569999999
 31
0.0
  0
LINE
  5
A7A2
330
A66E
100
AcDbEntity
  8
1
  6
Continuous
100
AcDbLine
 10
451.520454
 20
375.1155569999998
 30
0.0
 11
454.554859
 21
375.1155569999998
 31
0.0
  0
LINE
  5
A7A3
330
A66E
100
AcDbEntity
  8
1
  6
Continuous
100
AcDbLine
 10
462.0204539999998
 20
379.1155569999999
 30
0.0
 11
462.5204539999998
 21
379.1155569999999
 31
0.0
  0
ARC
  5
A7A4
330
A66E
100
AcDbEntity
  8
1
  6
Continuous
100
AcDbCircle
 10
451.020454
 20
376.6155569999999
 30
0.0
 40
0.5
100
AcDbArc
 50
180.0
 51
270.0
  0
ARC
  5
A7A5
330
A66E
100
AcDbEntity
  8
1
  6
Continuous
100
AcDbCircle
 10
451.520454
 20
374.1155569999999
 30
0.0
 40
1.0
100
AcDbArc
 50
90.0
 51
180.0
  0
LINE
  5
A7A6
330
A66E
100
AcDbEntity
  8
1
  6
Continuous
100
AcDbLine
 10
450.520454
 20
376.6155569999999
 30
0.0
 11
450.520454
 21
383.3155569999998
 31
0.0
  0
LINE
  5
A7A7
330
A66E
100
AcDbEntity
  8
1
  6
Continuous
100
AcDbLine
 10
462.5204539999998
 20
387.1155569999999
 30
0.0
 11
486.0204539999998
 21
387.1155569999999
 31
0.0
  0
LINE
  5
A7A8
330
A66E
100
AcDbEntity
  8
1
  6
Continuous
100
AcDbLine
 10
481.5204539999998
 20
421.1155299999998
 30
0.0
 11
481.5204539999998
 21
387.1155569999999
 31
0.0
  0
LINE
  5
A7A9
330
A66E
100
AcDbEntity
  8
1
  6
Continuous
100
AcDbLine
 10
479.220454
 20
421.1155299999998
 30
0.0
 11
479.220454
 21
387.1155569999999
 31
0.0
  0
LINE
  5
A7AA
330
A66E
100
AcDbEntity
  8
4
  6
CENTER
100
AcDbLine
 10
485.020462
 20
414.1155499999999
 30
0.0
 11
467.220454
 21
414.1155499999999
 31
0.0
  0
LINE
  5
A7AB
330
A66E
100
AcDbEntity
  8
1
  6
Continuous
100
AcDbLine
 10
470.220454
 20
416.61555
 30
0.0
 11
470.220454
 21
411.6155499999998
 31
0.0
  0
LINE
  5
A7AC
330
A66E
100
AcDbEntity
  8
1
  6
Continuous
100
AcDbLine
 10
470.720454
 20
411.1155499999998
 30
0.0
 11
470.220454
 21
411.6155499999998
 31
0.0
  0
LINE
  5
A7AD
330
A66E
100
AcDbEntity
  8
1
  6
Continuous
100
AcDbLine
 10
470.720454
 20
417.11555
 30
0.0
 11
470.220454
 21
416.61555
 31
0.0
  0
LINE
  5
A7AE
330
A66E
100
AcDbEntity
  8
1
  6
Continuous
100
AcDbLine
 10
470.720454
 20
417.11555
 30
0.0
 11
470.720454
 21
411.1155499999998
 31
0.0
  0
CIRCLE
  5
A7AF
330
A66E
100
AcDbEntity
  8
1
  6
Continuous
100
AcDbCircle
 10
472.2204539999999
 20
414.1155499999999
 30
0.0
 40
1.0
  0
LINE
  5
A7B0
330
A66E
100
AcDbEntity
  8
4
  6
CENTER
100
AcDbLine
 10
472.2204539999999
 20
416.61555
 30
0.0
 11
472.2204539999999
 21
411.6155499999998
 31
0.0
  0
LINE
  5
A7B1
330
A66E
100
AcDbEntity
  8
1
  6
Continuous
100
AcDbLine
 10
481.5204539999998
 20
421.1155299999998
 30
0.0
 11
479.220454
 21
421.1155299999998
 31
0.0
  0
ARC
  5
A7B2
330
A66E
100
AcDbEntity
  8
1
  6
Continuous
100
AcDbCircle
 10
472.7704619999998
 20
414.1155499999999
 30
0.0
 40
9.25
100
AcDbArc
 50
341.0753559999998
 51
18.924644
  0
LINE
  5
A7B3
330
A66E
100
AcDbEntity
  8
1
  6
Continuous
100
AcDbLine
 10
479.220454
 20
411.1155499999998
 30
0.0
 11
470.720454
 21
411.1155499999998
 31
0.0
  0
LINE
  5
A7B4
330
A66E
100
AcDbEntity
  8
1
  6
Continuous
100
AcDbLine
 10
479.220454
 20
417.11555
 30
0.0
 11
470.720454
 21
417.11555
 31
0.0
  0
LINE
  5
A7B5
330
A66E
100
AcDbEntity
  8
1
  6
Continuous
100
AcDbLine
 10
461.0204539999998
 20
387.1155569999999
 30
0.0
 11
454.3204539999998
 21
387.1155569999999
 31
0.0
  0
LINE
  5
A7B6
330
A66E
100
AcDbEntity
  8
1
  6
Continuous
100
AcDbLine
 10
462.0204539999998
 20
387.1155569999999
 30
0.0
 11
461.0204539999998
 21
387.1155569999999
 31
0.0
  0
CIRCLE
  5
A7B7
330
A66E
100
AcDbEntity
  8
1
  6
Continuous
100
AcDbCircle
 10
712.2191370000003
 20
362.1155569999999
 30
0.0
 40
4.0
  0
ARC
  5
A7B8
330
A66E
100
AcDbEntity
  8
1
  6
Continuous
100
AcDbCircle
 10
712.2191370000003
 20
362.1155569999999
 30
0.0
 40
2.25
100
AcDbArc
 50
304.242
 51
325.7579999999999
  0
LINE
  5
A7B9
330
A66E
100
AcDbEntity
  8
1
  6
Continuous
100
AcDbLine
 10
713.1991870000002
 20
362.1155569999999
 30
0.0
 11
713.407077
 21
362.685485
 31
0.0
  0
LINE
  5
A7BA
330
A66E
100
AcDbEntity
  8
1
  6
Continuous
100
AcDbLine
 10
713.1991870000002
 20
362.1155569999999
 30
0.0
 11
713.40637
 21
361.546336
 31
0.0
  0
ARC
  5
A7BB
330
A66E
100
AcDbEntity
  8
1
  6
Continuous
100
AcDbCircle
 10
712.2191370000003
 20
362.1155569999999
 30
0.0
 40
2.25
100
AcDbArc
 50
34.24199999999999
 51
55.75829999999999
  0
LINE
  5
A7BC
330
A66E
100
AcDbEntity
  8
1
  6
Continuous
100
AcDbLine
 10
713.407077
 20
362.685485
 30
0.0
 11
714.0795349999997
 21
363.381985
 31
0.0
  0
LINE
  5
A7BD
330
A66E
100
AcDbEntity
  8
1
  6
Continuous
100
AcDbLine
 10
713.40637
 20
361.546336
 30
0.0
 11
714.0795349999997
 21
360.8491289999999
 31
0.0
  0
LINE
  5
A7BE
330
A66E
100
AcDbEntity
  8
1
  6
Continuous
100
AcDbLine
 10
711.649916
 20
360.9283249999998
 30
0.0
 11
710.9534159999998
 21
360.2558660000001
 31
0.0
  0
LINE
  5
A7BF
330
A66E
100
AcDbEntity
  8
1
  6
Continuous
100
AcDbLine
 10
712.2191370000003
 20
363.0956069999998
 30
0.0
 11
711.649916
 21
363.302789
 31
0.0
  0
LINE
  5
A7C0
330
A66E
100
AcDbEntity
  8
1
  6
Continuous
100
AcDbLine
 10
712.2191370000003
 20
361.1355069999998
 30
0.0
 11
711.649916
 21
360.9283249999998
 31
0.0
  0
LINE
  5
A7C1
330
A66E
100
AcDbEntity
  8
1
  6
Continuous
100
AcDbLine
 10
711.649916
 20
363.302789
 30
0.0
 11
710.9534159999998
 21
363.975248
 31
0.0
  0
LINE
  5
A7C2
330
A66E
100
AcDbEntity
  8
1
  6
Continuous
100
AcDbLine
 10
711.239087
 20
362.1155569999999
 30
0.0
 11
711.0319050000001
 21
362.6847779999998
 31
0.0
  0
LINE
  5
A7C3
330
A66E
100
AcDbEntity
  8
1
  6
Continuous
100
AcDbLine
 10
711.239087
 20
362.1155569999999
 30
0.0
 11
711.0319050000001
 21
361.546336
 31
0.0
  0
LINE
  5
A7C4
330
A66E
100
AcDbEntity
  8
1
  6
Continuous
100
AcDbLine
 10
712.2191370000003
 20
363.0956069999998
 30
0.0
 11
712.7890650000002
 21
363.3034959999998
 31
0.0
  0
LINE
  5
A7C5
330
A66E
100
AcDbEntity
  8
1
  6
Continuous
100
AcDbLine
 10
712.2191370000003
 20
361.1355069999998
 30
0.0
 11
712.788358
 21
360.9283249999998
 31
0.0
  0
ARC
  5
A7C6
330
A66E
100
AcDbEntity
  8
1
  6
Continuous
100
AcDbCircle
 10
712.2191370000003
 20
362.1155569999999
 30
0.0
 40
2.25
100
AcDbArc
 50
214.2419999999999
 51
235.758
  0
LINE
  5
A7C7
330
A66E
100
AcDbEntity
  8
1
  6
Continuous
100
AcDbLine
 10
711.0319050000001
 20
362.6847779999998
 30
0.0
 11
710.3594460000001
 21
363.3812779999999
 31
0.0
  0
LINE
  5
A7C8
330
A66E
100
AcDbEntity
  8
1
  6
Continuous
100
AcDbLine
 10
711.0319050000001
 20
361.546336
 30
0.0
 11
710.3594460000001
 21
360.849836
 31
0.0
  0
ARC
  5
A7C9
330
A66E
100
AcDbEntity
  8
1
  6
Continuous
100
AcDbCircle
 10
712.2191370000003
 20
362.1155569999999
 30
0.0
 40
2.25
100
AcDbArc
 50
124.2416999999998
 51
145.7579999999999
  0
LINE
  5
A7CA
330
A66E
100
AcDbEntity
  8
1
  6
Continuous
100
AcDbLine
 10
712.788358
 20
360.9283249999998
 30
0.0
 11
713.4855659999998
 21
360.255159
 31
0.0
  0
LINE
  5
A7CB
330
A66E
100
AcDbEntity
  8
1
  6
Continuous
100
AcDbLine
 10
712.7890650000002
 20
363.3034959999998
 30
0.0
 11
713.4855659999998
 21
363.9759549999998
 31
0.0
  0
CIRCLE
  5
A7CC
330
A66E
100
AcDbEntity
  8
1
  6
Continuous
100
AcDbCircle
 10
652.2191370000001
 20
362.1155569999999
 30
0.0
 40
4.0
  0
CIRCLE
  5
A7CD
330
A66E
100
AcDbEntity
  8
1
  6
Continuous
100
AcDbCircle
 10
652.2191370000001
 20
362.1155569999999
 30
0.0
 40
4.299999999999998
  0
LINE
  5
A7CE
330
A66E
100
AcDbEntity
  8
1
  6
Continuous
100
AcDbLine
 10
652.7890650000001
 20
363.3034959999998
 30
0.0
 11
653.4855659999998
 21
363.9759549999998
 31
0.0
  0
LINE
  5
A7CF
330
A66E
100
AcDbEntity
  8
1
  6
Continuous
100
AcDbLine
 10
652.788358
 20
360.9283249999998
 30
0.0
 11
653.4855659999998
 21
360.255159
 31
0.0
  0
ARC
  5
A7D0
330
A66E
100
AcDbEntity
  8
1
  6
Continuous
100
AcDbCircle
 10
652.2191370000001
 20
362.1155569999999
 30
0.0
 40
2.25
100
AcDbArc
 50
124.2416999999998
 51
145.7579999999999
  0
LINE
  5
A7D1
330
A66E
100
AcDbEntity
  8
1
  6
Continuous
100
AcDbLine
 10
651.0319049999999
 20
361.546336
 30
0.0
 11
650.3594460000003
 21
360.849836
 31
0.0
  0
LINE
  5
A7D2
330
A66E
100
AcDbEntity
  8
1
  6
Continuous
100
AcDbLine
 10
651.0319049999999
 20
362.6847779999998
 30
0.0
 11
650.3594460000003
 21
363.3812779999999
 31
0.0
  0
ARC
  5
A7D3
330
A66E
100
AcDbEntity
  8
1
  6
Continuous
100
AcDbCircle
 10
652.2191370000001
 20
362.1155569999999
 30
0.0
 40
2.25
100
AcDbArc
 50
214.2419999999999
 51
235.758
  0
LINE
  5
A7D4
330
A66E
100
AcDbEntity
  8
1
  6
Continuous
100
AcDbLine
 10
652.2191370000001
 20
361.1355069999998
 30
0.0
 11
652.788358
 21
360.9283249999998
 31
0.0
  0
LINE
  5
A7D5
330
A66E
100
AcDbEntity
  8
1
  6
Continuous
100
AcDbLine
 10
652.2191370000001
 20
363.0956069999998
 30
0.0
 11
652.7890650000001
 21
363.3034959999998
 31
0.0
  0
LINE
  5
A7D6
330
A66E
100
AcDbEntity
  8
1
  6
Continuous
100
AcDbLine
 10
651.239087
 20
362.1155569999999
 30
0.0
 11
651.0319049999999
 21
361.546336
 31
0.0
  0
LINE
  5
A7D7
330
A66E
100
AcDbEntity
  8
1
  6
Continuous
100
AcDbLine
 10
651.239087
 20
362.1155569999999
 30
0.0
 11
651.0319049999999
 21
362.6847779999998
 31
0.0
  0
LINE
  5
A7D8
330
A66E
100
AcDbEntity
  8
1
  6
Continuous
100
AcDbLine
 10
651.6499159999997
 20
363.302789
 30
0.0
 11
650.9534160000002
 21
363.975248
 31
0.0
  0
LINE
  5
A7D9
330
A66E
100
AcDbEntity
  8
1
  6
Continuous
100
AcDbLine
 10
652.2191370000001
 20
361.1355069999998
 30
0.0
 11
651.6499159999997
 21
360.9283249999998
 31
0.0
  0
LINE
  5
A7DA
330
A66E
100
AcDbEntity
  8
1
  6
Continuous
100
AcDbLine
 10
652.2191370000001
 20
363.0956069999998
 30
0.0
 11
651.6499159999997
 21
363.302789
 31
0.0
  0
LINE
  5
A7DB
330
A66E
100
AcDbEntity
  8
1
  6
Continuous
100
AcDbLine
 10
651.6499159999997
 20
360.9283249999998
 30
0.0
 11
650.9534160000002
 21
360.2558660000001
 31
0.0
  0
LINE
  5
A7DC
330
A66E
100
AcDbEntity
  8
1
  6
Continuous
100
AcDbLine
 10
653.40637
 20
361.546336
 30
0.0
 11
654.0795349999997
 21
360.8491289999999
 31
0.0
  0
LINE
  5
A7DD
330
A66E
100
AcDbEntity
  8
1
  6
Continuous
100
AcDbLine
 10
653.4070769999997
 20
362.685485
 30
0.0
 11
654.0795349999997
 21
363.381985
 31
0.0
  0
ARC
  5
A7DE
330
A66E
100
AcDbEntity
  8
1
  6
Continuous
100
AcDbCircle
 10
652.2191370000001
 20
362.1155569999999
 30
0.0
 40
2.25
100
AcDbArc
 50
34.24199999999999
 51
55.75829999999999
  0
LINE
  5
A7DF
330
A66E
100
AcDbEntity
  8
1
  6
Continuous
100
AcDbLine
 10
653.1991870000001
 20
362.1155569999999
 30
0.0
 11
653.40637
 21
361.546336
 31
0.0
  0
LINE
  5
A7E0
330
A66E
100
AcDbEntity
  8
1
  6
Continuous
100
AcDbLine
 10
653.1991870000001
 20
362.1155569999999
 30
0.0
 11
653.4070769999997
 21
362.685485
 31
0.0
  0
ARC
  5
A7E1
330
A66E
100
AcDbEntity
  8
1
  6
Continuous
100
AcDbCircle
 10
652.2191370000001
 20
362.1155569999999
 30
0.0
 40
2.25
100
AcDbArc
 50
304.242
 51
325.7579999999999
  0
ARC
  5
A7E2
330
A66E
100
AcDbEntity
  8
1
  6
Continuous
100
AcDbCircle
 10
652.2191370000001
 20
282.1155569999999
 30
0.0
 40
2.25
100
AcDbArc
 50
304.242
 51
325.7579999999999
  0
LINE
  5
A7E3
330
A66E
100
AcDbEntity
  8
1
  6
Continuous
100
AcDbLine
 10
653.1991870000001
 20
282.1155569999999
 30
0.0
 11
653.4070769999997
 21
282.6854850000001
 31
0.0
  0
LINE
  5
A7E4
330
A66E
100
AcDbEntity
  8
1
  6
Continuous
100
AcDbLine
 10
653.1991870000001
 20
282.1155569999999
 30
0.0
 11
653.40637
 21
281.5463359999998
 31
0.0
  0
ARC
  5
A7E5
330
A66E
100
AcDbEntity
  8
1
  6
Continuous
100
AcDbCircle
 10
652.2191370000001
 20
282.1155569999999
 30
0.0
 40
2.25
100
AcDbArc
 50
34.24199999999999
 51
55.75829999999999
  0
LINE
  5
A7E6
330
A66E
100
AcDbEntity
  8
1
  6
Continuous
100
AcDbLine
 10
653.4070769999997
 20
282.6854850000001
 30
0.0
 11
654.0795349999997
 21
283.3819849999999
 31
0.0
  0
LINE
  5
A7E7
330
A66E
100
AcDbEntity
  8
1
  6
Continuous
100
AcDbLine
 10
653.40637
 20
281.5463359999998
 30
0.0
 11
654.0795349999997
 21
280.849129
 31
0.0
  0
LINE
  5
A7E8
330
A66E
100
AcDbEntity
  8
1
  6
Continuous
100
AcDbLine
 10
651.6499159999997
 20
280.9283249999999
 30
0.0
 11
650.9534160000002
 21
280.255866
 31
0.0
  0
LINE
  5
A7E9
330
A66E
100
AcDbEntity
  8
1
  6
Continuous
100
AcDbLine
 10
652.2191370000001
 20
283.0956069999999
 30
0.0
 11
651.6499159999997
 21
283.302789
 31
0.0
  0
LINE
  5
A7EA
330
A66E
100
AcDbEntity
  8
1
  6
Continuous
100
AcDbLine
 10
652.2191370000001
 20
281.1355069999999
 30
0.0
 11
651.6499159999997
 21
280.9283249999999
 31
0.0
  0
LINE
  5
A7EB
330
A66E
100
AcDbEntity
  8
1
  6
Continuous
100
AcDbLine
 10
651.6499159999997
 20
283.302789
 30
0.0
 11
650.9534160000002
 21
283.9752480000001
 31
0.0
  0
LINE
  5
A7EC
330
A66E
100
AcDbEntity
  8
1
  6
Continuous
100
AcDbLine
 10
651.239087
 20
282.1155569999999
 30
0.0
 11
651.0319049999999
 21
282.6847779999998
 31
0.0
  0
LINE
  5
A7ED
330
A66E
100
AcDbEntity
  8
1
  6
Continuous
100
AcDbLine
 10
651.239087
 20
282.1155569999999
 30
0.0
 11
651.0319049999999
 21
281.5463359999998
 31
0.0
  0
LINE
  5
A7EE
330
A66E
100
AcDbEntity
  8
1
  6
Continuous
100
AcDbLine
 10
652.2191370000001
 20
283.0956069999999
 30
0.0
 11
652.7890650000001
 21
283.3034959999998
 31
0.0
  0
LINE
  5
A7EF
330
A66E
100
AcDbEntity
  8
1
  6
Continuous
100
AcDbLine
 10
652.2191370000001
 20
281.1355069999999
 30
0.0
 11
652.788358
 21
280.9283249999999
 31
0.0
  0
ARC
  5
A7F0
330
A66E
100
AcDbEntity
  8
1
  6
Continuous
100
AcDbCircle
 10
652.2191370000001
 20
282.1155569999999
 30
0.0
 40
2.25
100
AcDbArc
 50
214.2419999999999
 51
235.758
  0
LINE
  5
A7F1
330
A66E
100
AcDbEntity
  8
1
  6
Continuous
100
AcDbLine
 10
651.0319049999999
 20
282.6847779999998
 30
0.0
 11
650.3594460000003
 21
283.3812779999998
 31
0.0
  0
LINE
  5
A7F2
330
A66E
100
AcDbEntity
  8
1
  6
Continuous
100
AcDbLine
 10
651.0319049999999
 20
281.5463359999998
 30
0.0
 11
650.3594460000003
 21
280.8498359999999
 31
0.0
  0
ARC
  5
A7F3
330
A66E
100
AcDbEntity
  8
1
  6
Continuous
100
AcDbCircle
 10
652.2191370000001
 20
282.1155569999999
 30
0.0
 40
2.25
100
AcDbArc
 50
124.2416999999998
 51
145.7579999999999
  0
LINE
  5
A7F4
330
A66E
100
AcDbEntity
  8
1
  6
Continuous
100
AcDbLine
 10
652.788358
 20
280.9283249999999
 30
0.0
 11
653.4855659999998
 21
280.2551589999998
 31
0.0
  0
LINE
  5
A7F5
330
A66E
100
AcDbEntity
  8
1
  6
Continuous
100
AcDbLine
 10
652.7890650000001
 20
283.3034959999998
 30
0.0
 11
653.4855659999998
 21
283.975955
 31
0.0
  0
CIRCLE
  5
A7F6
330
A66E
100
AcDbEntity
  8
1
  6
Continuous
100
AcDbCircle
 10
652.2191370000001
 20
282.1155569999999
 30
0.0
 40
4.299999999999998
  0
CIRCLE
  5
A7F7
330
A66E
100
AcDbEntity
  8
1
  6
Continuous
100
AcDbCircle
 10
652.2191370000001
 20
282.1155569999999
 30
0.0
 40
4.0
  0
CIRCLE
  5
A7F8
330
A66E
100
AcDbEntity
  8
1
  6
Continuous
100
AcDbCircle
 10
712.2191370000003
 20
282.1155569999999
 30
0.0
 40
4.0
  0
CIRCLE
  5
A7F9
330
A66E
100
AcDbEntity
  8
1
  6
Continuous
100
AcDbCircle
 10
712.2191370000003
 20
282.1155569999999
 30
0.0
 40
4.299999999999998
  0
LINE
  5
A7FA
330
A66E
100
AcDbEntity
  8
1
  6
Continuous
100
AcDbLine
 10
712.7890650000002
 20
283.3034959999998
 30
0.0
 11
713.4855659999998
 21
283.975955
 31
0.0
  0
LINE
  5
A7FB
330
A66E
100
AcDbEntity
  8
1
  6
Continuous
100
AcDbLine
 10
712.788358
 20
280.9283249999999
 30
0.0
 11
713.4855659999998
 21
280.2551589999998
 31
0.0
  0
ARC
  5
A7FC
330
A66E
100
AcDbEntity
  8
1
  6
Continuous
100
AcDbCircle
 10
712.2191370000003
 20
282.1155569999999
 30
0.0
 40
2.25
100
AcDbArc
 50
124.2416999999998
 51
145.7579999999999
  0
LINE
  5
A7FD
330
A66E
100
AcDbEntity
  8
1
  6
Continuous
100
AcDbLine
 10
711.0319050000001
 20
281.5463359999998
 30
0.0
 11
710.3594460000001
 21
280.8498359999999
 31
0.0
  0
LINE
  5
A7FE
330
A66E
100
AcDbEntity
  8
1
  6
Continuous
100
AcDbLine
 10
711.0319050000001
 20
282.6847779999998
 30
0.0
 11
710.3594460000001
 21
283.3812779999998
 31
0.0
  0
ARC
  5
A7FF
330
A66E
100
AcDbEntity
  8
1
  6
Continuous
100
AcDbCircle
 10
712.2191370000003
 20
282.1155569999999
 30
0.0
 40
2.25
100
AcDbArc
 50
214.2419999999999
 51
235.758
  0
LINE
  5
A800
330
A66E
100
AcDbEntity
  8
1
  6
Continuous
100
AcDbLine
 10
712.2191370000003
 20
281.1355069999999
 30
0.0
 11
712.788358
 21
280.9283249999999
 31
0.0
  0
LINE
  5
A801
330
A66E
100
AcDbEntity
  8
1
  6
Continuous
100
AcDbLine
 10
712.2191370000003
 20
283.0956069999999
 30
0.0
 11
712.7890650000002
 21
283.3034959999998
 31
0.0
  0
LINE
  5
A802
330
A66E
100
AcDbEntity
  8
1
  6
Continuous
100
AcDbLine
 10
711.239087
 20
282.1155569999999
 30
0.0
 11
711.0319050000001
 21
281.5463359999998
 31
0.0
  0
LINE
  5
A803
330
A66E
100
AcDbEntity
  8
1
  6
Continuous
100
AcDbLine
 10
711.239087
 20
282.1155569999999
 30
0.0
 11
711.0319050000001
 21
282.6847779999998
 31
0.0
  0
LINE
  5
A804
330
A66E
100
AcDbEntity
  8
1
  6
Continuous
100
AcDbLine
 10
711.649916
 20
283.302789
 30
0.0
 11
710.9534159999998
 21
283.9752480000001
 31
0.0
  0
LINE
  5
A805
330
A66E
100
AcDbEntity
  8
1
  6
Continuous
100
AcDbLine
 10
712.2191370000003
 20
281.1355069999999
 30
0.0
 11
711.649916
 21
280.9283249999999
 31
0.0
  0
LINE
  5
A806
330
A66E
100
AcDbEntity
  8
1
  6
Continuous
100
AcDbLine
 10
712.2191370000003
 20
283.0956069999999
 30
0.0
 11
711.649916
 21
283.302789
 31
0.0
  0
LINE
  5
A807
330
A66E
100
AcDbEntity
  8
1
  6
Continuous
100
AcDbLine
 10
711.649916
 20
280.9283249999999
 30
0.0
 11
710.9534159999998
 21
280.255866
 31
0.0
  0
LINE
  5
A808
330
A66E
100
AcDbEntity
  8
1
  6
Continuous
100
AcDbLine
 10
713.40637
 20
281.5463359999998
 30
0.0
 11
714.0795349999997
 21
280.849129
 31
0.0
  0
LINE
  5
A809
330
A66E
100
AcDbEntity
  8
1
  6
Continuous
100
AcDbLine
 10
713.407077
 20
282.6854850000001
 30
0.0
 11
714.0795349999997
 21
283.3819849999999
 31
0.0
  0
ARC
  5
A80A
330
A66E
100
AcDbEntity
  8
1
  6
Continuous
100
AcDbCircle
 10
712.2191370000003
 20
282.1155569999999
 30
0.0
 40
2.25
100
AcDbArc
 50
34.24199999999999
 51
55.75829999999999
  0
LINE
  5
A80B
330
A66E
100
AcDbEntity
  8
1
  6
Continuous
100
AcDbLine
 10
713.1991870000002
 20
282.1155569999999
 30
0.0
 11
713.40637
 21
281.5463359999998
 31
0.0
  0
LINE
  5
A80C
330
A66E
100
AcDbEntity
  8
1
  6
Continuous
100
AcDbLine
 10
713.1991870000002
 20
282.1155569999999
 30
0.0
 11
713.407077
 21
282.6854850000001
 31
0.0
  0
ARC
  5
A80D
330
A66E
100
AcDbEntity
  8
1
  6
Continuous
100
AcDbCircle
 10
712.2191370000003
 20
282.1155569999999
 30
0.0
 40
2.25
100
AcDbArc
 50
304.242
 51
325.7579999999999
  0
ARC
  5
A80E
330
A66E
100
AcDbEntity
  8
5
  6
PHANTOM
100
AcDbCircle
 10
694.8850489999996
 20
400.1155569999998
 30
0.0
 40
7.0
100
AcDbArc
 50
0.0
 51
180.0
  0
LINE
  5
A80F
330
A66E
100
AcDbEntity
  8
4
  6
CENTER
100
AcDbLine
 10
699.635049
 20
400.1155569999998
 30
0.0
 11
690.1350489999996
 21
400.1155569999998
 31
0.0
  0
LINE
  5
A810
330
A66E
100
AcDbEntity
  8
4
  6
CENTER
100
AcDbLine
 10
694.8850489999996
 20
404.8655569999998
 30
0.0
 11
694.8850489999996
 21
395.3655569999999
 31
0.0
  0
CIRCLE
  5
A811
330
A66E
100
AcDbEntity
  8
5
  6
PHANTOM
100
AcDbCircle
 10
694.8850489999996
 20
400.1155569999998
 30
0.0
 40
3.0
  0
CIRCLE
  5
A812
330
A66E
100
AcDbEntity
  8
5
  6
PHANTOM
100
AcDbCircle
 10
694.8850489999996
 20
400.1155569999998
 30
0.0
 40
2.5
  0
LINE
  5
A813
330
A66E
100
AcDbEntity
  8
4
  6
CENTER
100
AcDbLine
 10
699.635049
 20
244.1155569999998
 30
0.0
 11
690.1350489999996
 21
244.1155569999998
 31
0.0
  0
ARC
  5
A814
330
A66E
100
AcDbEntity
  8
5
  6
PHANTOM
100
AcDbCircle
 10
694.8850489999996
 20
244.1155569999998
 30
0.0
 40
7.0
100
AcDbArc
 50
180.0
 51
0.0
  0
CIRCLE
  5
A815
330
A66E
100
AcDbEntity
  8
5
  6
PHANTOM
100
AcDbCircle
 10
694.8850489999996
 20
244.1155569999998
 30
0.0
 40
2.5
  0
LINE
  5
A816
330
A66E
100
AcDbEntity
  8
4
  6
CENTER
100
AcDbLine
 10
694.8850489999996
 20
248.865557
 30
0.0
 11
694.8850489999996
 21
239.3655569999999
 31
0.0
  0
CIRCLE
  5
A817
330
A66E
100
AcDbEntity
  8
5
  6
PHANTOM
100
AcDbCircle
 10
694.8850489999996
 20
244.1155569999998
 30
0.0
 40
3.0
  0
LINE
  5
A818
330
A66E
100
AcDbEntity
  8
1
  6
Continuous
100
AcDbLine
 10
486.0204539999998
 20
376.851625
 30
0.0
 11
469.7565219999998
 21
376.851625
 31
0.0
  0
LINE
  5
A819
330
A66E
100
AcDbEntity
  8
1
  6
Continuous
100
AcDbLine
 10
486.0204539999998
 20
372.3794889999999
 30
0.0
 11
469.7565219999998
 21
372.3794889999999
 31
0.0
  0
ARC
  5
A81A
330
A66E
100
AcDbEntity
  8
1
  6
Continuous
100
AcDbCircle
 10
469.7565219999998
 20
374.6155569999999
 30
0.0
 40
2.236067999999999
100
AcDbArc
 50
90.0
 51
270.0
  0
ARC
  5
A81B
330
A66E
100
AcDbEntity
  8
1
  6
Continuous
100
AcDbCircle
 10
488.020454
 20
374.6155569999999
 30
0.0
 40
3.0
100
AcDbArc
 50
131.810315
 51
228.1896849999998
  0
ARC
  5
A81C
330
A66E
100
AcDbEntity
  8
1
  6
Continuous
100
AcDbCircle
 10
469.7565219999998
 20
269.6155569999999
 30
0.0
 40
2.236067999999999
100
AcDbArc
 50
90.0
 51
270.0
  0
LINE
  5
A81D
330
A66E
100
AcDbEntity
  8
1
  6
Continuous
100
AcDbLine
 10
486.0204539999998
 20
271.8516249999999
 30
0.0
 11
469.7565219999998
 21
271.8516249999999
 31
0.0
  0
LINE
  5
A81E
330
A66E
100
AcDbEntity
  8
1
  6
Continuous
100
AcDbLine
 10
486.0204539999998
 20
267.3794889999999
 30
0.0
 11
469.7565219999998
 21
267.3794889999999
 31
0.0
  0
ARC
  5
A81F
330
A66E
100
AcDbEntity
  8
1
  6
Continuous
100
AcDbCircle
 10
488.020454
 20
269.6155569999999
 30
0.0
 40
3.0
100
AcDbArc
 50
131.810315
 51
228.1896849999998
  0
LINE
  5
A820
330
A66E
100
AcDbEntity
  8
5
  6
PHANTOM
100
AcDbLine
 10
479.220454
 20
403.1155499999998
 30
0.0
 11
470.720454
 21
403.1155499999998
 31
0.0
  0
LINE
  5
A821
330
A66E
100
AcDbEntity
  8
5
  6
PHANTOM
100
AcDbLine
 10
479.220454
 20
397.11555
 30
0.0
 11
470.720454
 21
397.11555
 31
0.0
  0
LINE
  5
A822
330
A66E
100
AcDbEntity
  8
4
  6
CENTER
100
AcDbLine
 10
485.020462
 20
400.11555
 30
0.0
 11
467.220454
 21
400.11555
 31
0.0
  0
LINE
  5
A823
330
A66E
100
AcDbEntity
  8
5
  6
PHANTOM
100
AcDbLine
 10
470.720454
 20
403.1155499999998
 30
0.0
 11
470.720454
 21
397.11555
 31
0.0
  0
LINE
  5
A824
330
A66E
100
AcDbEntity
  8
5
  6
PHANTOM
100
AcDbLine
 10
470.220454
 20
402.6155499999998
 30
0.0
 11
470.220454
 21
397.6155499999999
 31
0.0
  0
LINE
  5
A825
330
A66E
100
AcDbEntity
  8
4
  6
CENTER
100
AcDbLine
 10
472.2204539999999
 20
402.6155499999998
 30
0.0
 11
472.2204539999999
 21
397.6155499999999
 31
0.0
  0
LINE
  5
A826
330
A66E
100
AcDbEntity
  8
5
  6
PHANTOM
100
AcDbLine
 10
470.720454
 20
397.11555
 30
0.0
 11
470.220454
 21
397.6155499999999
 31
0.0
  0
CIRCLE
  5
A827
330
A66E
100
AcDbEntity
  8
5
  6
PHANTOM
100
AcDbCircle
 10
472.2204539999999
 20
400.11555
 30
0.0
 40
1.0
  0
LINE
  5
A828
330
A66E
100
AcDbEntity
  8
5
  6
PHANTOM
100
AcDbLine
 10
470.720454
 20
403.1155499999998
 30
0.0
 11
470.220454
 21
402.6155499999998
 31
0.0
  0
ARC
  5
A829
330
A66E
100
AcDbEntity
  8
5
  6
PHANTOM
100
AcDbCircle
 10
472.7704619999998
 20
400.11555
 30
0.0
 40
9.25
100
AcDbArc
 50
341.0753559999998
 51
18.924644
  0
LINE
  5
A82A
330
A66E
100
AcDbEntity
  8
5
  6
PHANTOM
100
AcDbLine
 10
479.220454
 20
241.115564
 30
0.0
 11
470.720454
 21
241.115564
 31
0.0
  0
LINE
  5
A82B
330
A66E
100
AcDbEntity
  8
5
  6
PHANTOM
100
AcDbLine
 10
479.220454
 20
247.115564
 30
0.0
 11
470.720454
 21
247.115564
 31
0.0
  0
LINE
  5
A82C
330
A66E
100
AcDbEntity
  8
4
  6
CENTER
100
AcDbLine
 10
485.020462
 20
244.115564
 30
0.0
 11
467.220454
 21
244.115564
 31
0.0
  0
LINE
  5
A82D
330
A66E
100
AcDbEntity
  8
5
  6
PHANTOM
100
AcDbLine
 10
470.720454
 20
241.115564
 30
0.0
 11
470.720454
 21
247.115564
 31
0.0
  0
LINE
  5
A82E
330
A66E
100
AcDbEntity
  8
5
  6
PHANTOM
100
AcDbLine
 10
470.220454
 20
241.6155639999999
 30
0.0
 11
470.220454
 21
246.615564
 31
0.0
  0
LINE
  5
A82F
330
A66E
100
AcDbEntity
  8
5
  6
PHANTOM
100
AcDbLine
 10
470.720454
 20
247.115564
 30
0.0
 11
470.220454
 21
246.615564
 31
0.0
  0
CIRCLE
  5
A830
330
A66E
100
AcDbEntity
  8
5
  6
PHANTOM
100
AcDbCircle
 10
472.2204539999999
 20
244.115564
 30
0.0
 40
1.0
  0
LINE
  5
A831
330
A66E
100
AcDbEntity
  8
5
  6
PHANTOM
100
AcDbLine
 10
470.720454
 20
241.115564
 30
0.0
 11
470.220454
 21
241.6155639999999
 31
0.0
  0
LINE
  5
A832
330
A66E
100
AcDbEntity
  8
4
  6
CENTER
100
AcDbLine
 10
472.2204539999999
 20
241.6155639999999
 30
0.0
 11
472.2204539999999
 21
246.615564
 31
0.0
  0
ARC
  5
A833
330
A66E
100
AcDbEntity
  8
5
  6
PHANTOM
100
AcDbCircle
 10
472.7704619999998
 20
244.115564
 30
0.0
 40
9.25
100
AcDbArc
 50
341.0753559999998
 51
18.924644
  0
LINE
  5
A834
330
A66E
100
AcDbEntity
  8
4
  6
CENTER
100
AcDbLine
 10
631.5940829999998
 20
374.6155569999999
 30
0.0
 11
729.844192
 21
374.6155569999999
 31
0.0
  0
LINE
  5
A835
330
A66E
100
AcDbEntity
  8
4
  6
CENTER
100
AcDbLine
 10
631.5940829999998
 20
269.6155569999999
 30
0.0
 11
729.844192
 21
269.6155569999999
 31
0.0
  0
CIRCLE
  5
A836
330
A66E
100
AcDbEntity
  8
1
  6
Continuous
100
AcDbCircle
 10
694.8850489999996
 20
414.1155569999998
 30
0.0
 40
2.5
  0
CIRCLE
  5
A837
330
A66E
100
AcDbEntity
  8
1
  6
Continuous
100
AcDbCircle
 10
694.8850489999996
 20
230.115557
 30
0.0
 40
2.5
  0
LINE
  5
A838
330
A66E
100
AcDbEntity
  8
4
  6
CENTER
100
AcDbLine
 10
283.643597
 20
36.734086
 30
0.0
 11
283.643597
 21
51.934086
 31
0.0
  0
LINE
  5
A839
330
A66E
100
AcDbEntity
  8
4
  6
CENTER
100
AcDbLine
 10
263.6435969999999
 20
35.734086
 30
0.0
 11
263.6435969999999
 21
51.934086
 31
0.0
  0
LINE
  5
A83A
330
A66E
100
AcDbEntity
  8
4
  6
CENTER
100
AcDbLine
 10
223.643597
 20
36.734086
 30
0.0
 11
223.643597
 21
51.934086
 31
0.0
  0
LINE
  5
A83B
330
A66E
100
AcDbEntity
  8
4
  6
CENTER
100
AcDbLine
 10
263.6435969999999
 20
608.497028
 30
0.0
 11
263.6435969999999
 21
592.2970279999998
 31
0.0
  0
LINE
  5
A83C
330
A66E
100
AcDbEntity
  8
4
  6
CENTER
100
AcDbLine
 10
223.643597
 20
607.497028
 30
0.0
 11
223.643597
 21
592.2970279999998
 31
0.0
  0
LINE
  5
A83D
330
A66E
100
AcDbEntity
  8
4
  6
CENTER
100
AcDbLine
 10
283.643597
 20
607.497028
 30
0.0
 11
283.643597
 21
592.2970279999998
 31
0.0
  0
LINE
  5
A83E
330
A66E
100
AcDbEntity
  8
1
  6
Continuous
100
AcDbLine
 10
288.6435969999999
 20
601.497028
 30
0.0
 11
288.6435969999999
 21
591.183838
 31
0.0
  0
LINE
  5
A83F
330
A66E
100
AcDbEntity
  8
1
  6
Continuous
100
AcDbLine
 10
295.1435969999998
 20
601.497028
 30
0.0
 11
295.1435969999998
 21
587.997028
 31
0.0
  0
LINE
  5
A840
330
A66E
100
AcDbEntity
  8
1
  6
Continuous
100
AcDbLine
 10
278.6435969999998
 20
601.497028
 30
0.0
 11
278.6435969999998
 21
592.2970279999998
 31
0.0
  0
LINE
  5
A841
330
A66E
100
AcDbEntity
  8
1
  6
Continuous
100
AcDbLine
 10
276.6435969999998
 20
601.497028
 30
0.0
 11
276.6435969999998
 21
594.7970279999998
 31
0.0
  0
LINE
  5
A842
330
A66E
100
AcDbEntity
  8
1
  6
Continuous
100
AcDbLine
 10
258.643597
 20
599.997028
 30
0.0
 11
258.643597
 21
592.2970279999998
 31
0.0
  0
LINE
  5
A843
330
A66E
100
AcDbEntity
  8
1
  6
Continuous
100
AcDbLine
 10
268.643597
 20
599.997028
 30
0.0
 11
268.643597
 21
592.2970279999998
 31
0.0
  0
LINE
  5
A844
330
A66E
100
AcDbEntity
  8
1
  6
Continuous
100
AcDbLine
 10
250.643611
 20
598.197044
 30
0.0
 11
250.643611
 21
595.197038
 31
0.0
  0
LINE
  5
A845
330
A66E
100
AcDbEntity
  8
1
  6
Continuous
100
AcDbLine
 10
247.977836
 20
598.197046
 30
0.0
 11
247.977836
 21
595.8970460000001
 31
0.0
  0
LINE
  5
A846
330
A66E
100
AcDbEntity
  8
1
  6
Continuous
100
AcDbLine
 10
233.9778359999999
 20
598.1970570000002
 30
0.0
 11
233.9778359999999
 21
595.8970569999998
 31
0.0
  0
LINE
  5
A847
330
A66E
100
AcDbEntity
  8
1
  6
Continuous
100
AcDbLine
 10
248.077685
 20
601.497028
 30
0.0
 11
248.077685
 21
595.6970280000001
 31
0.0
  0
LINE
  5
A848
330
A66E
100
AcDbEntity
  8
1
  6
Continuous
100
AcDbLine
 10
250.643597
 20
601.497028
 30
0.0
 11
250.643597
 21
594.7970279999998
 31
0.0
  0
LINE
  5
A849
330
A66E
100
AcDbEntity
  8
1
  6
Continuous
100
AcDbLine
 10
250.077685
 20
601.497028
 30
0.0
 11
250.077685
 21
587.2970279999998
 31
0.0
  0
LINE
  5
A84A
330
A66E
100
AcDbEntity
  8
1
  6
Continuous
100
AcDbLine
 10
233.877685
 20
601.497028
 30
0.0
 11
233.877685
 21
595.6970280000001
 31
0.0
  0
LINE
  5
A84B
330
A66E
100
AcDbEntity
  8
1
  6
Continuous
100
AcDbLine
 10
228.643597
 20
601.497028
 30
0.0
 11
228.643597
 21
592.2970279999998
 31
0.0
  0
LINE
  5
A84C
330
A66E
100
AcDbEntity
  8
1
  6
Continuous
100
AcDbLine
 10
231.877685
 20
601.497028
 30
0.0
 11
231.877685
 21
587.2970279999998
 31
0.0
  0
LINE
  5
A84D
330
A66E
100
AcDbEntity
  8
1
  6
Continuous
100
AcDbLine
 10
218.643597
 20
601.497028
 30
0.0
 11
218.643597
 21
592.2970279999998
 31
0.0
  0
LINE
  5
A84E
330
A66E
100
AcDbEntity
  8
1
  6
Continuous
100
AcDbLine
 10
214.143597
 20
601.497028
 30
0.0
 11
214.143597
 21
587.997028
 31
0.0
  0
LINE
  5
A84F
330
A66E
100
AcDbEntity
  8
1
  6
Continuous
100
AcDbLine
 10
294.6435969999999
 20
580.497028
 30
0.0
 11
294.6435969999999
 21
601.497028
 31
0.0
  0
LINE
  5
A850
330
A66E
100
AcDbEntity
  8
1
  6
Continuous
100
AcDbLine
 10
298.143597
 20
602.4970279999998
 30
0.0
 11
298.143597
 21
580.9970279999999
 31
0.0
  0
LINE
  5
A851
330
A66E
100
AcDbEntity
  8
1
  6
Continuous
100
AcDbLine
 10
296.143597
 20
602.4970279999998
 30
0.0
 11
296.143597
 21
580.9970279999999
 31
0.0
  0
LINE
  5
A852
330
A66E
100
AcDbEntity
  8
1
  6
Continuous
100
AcDbLine
 10
211.143597
 20
602.4970279999998
 30
0.0
 11
211.143597
 21
580.9970279999999
 31
0.0
  0
LINE
  5
A853
330
A66E
100
AcDbEntity
  8
1
  6
Continuous
100
AcDbLine
 10
214.643597
 20
601.497028
 30
0.0
 11
214.643597
 21
580.497028
 31
0.0
  0
LINE
  5
A854
330
A66E
100
AcDbEntity
  8
1
  6
Continuous
100
AcDbLine
 10
213.143597
 20
602.4970279999998
 30
0.0
 11
213.143597
 21
580.9970279999999
 31
0.0
  0
LINE
  5
A855
330
A66E
100
AcDbEntity
  8
4
  6
CENTER
100
AcDbLine
 10
240.9776799999999
 20
602.4314019999998
 30
0.0
 11
240.9776799999999
 21
583.897049
 31
0.0
  0
LINE
  5
A856
330
A66E
100
AcDbEntity
  8
1
  6
Continuous
100
AcDbLine
 10
250.643597
 20
594.7970279999998
 30
0.0
 11
258.643597
 21
594.7970279999998
 31
0.0
  0
LINE
  5
A857
330
A66E
100
AcDbEntity
  8
1
  6
Continuous
100
AcDbLine
 10
258.643597
 20
595.197032
 30
0.0
 11
250.6436129999999
 21
595.197038
 31
0.0
  0
LINE
  5
A858
330
A66E
100
AcDbEntity
  8
1
  6
Continuous
100
AcDbLine
 10
250.643611
 20
594.997028
 30
0.0
 11
258.643597
 21
594.997028
 31
0.0
  0
LINE
  5
A859
330
A66E
100
AcDbEntity
  8
1
  6
Continuous
100
AcDbLine
 10
250.077685
 20
592.2970279999998
 30
0.0
 11
284.307904
 21
592.2970279999998
 31
0.0
  0
LINE
  5
A85A
330
A66E
100
AcDbEntity
  8
1
  6
Continuous
100
AcDbLine
 10
207.6435969999999
 20
579.497028
 30
0.0
 11
302.643597
 21
579.497028
 31
0.0
  0
ARC
  5
A85B
330
A66E
100
AcDbEntity
  8
1
  6
Continuous
100
AcDbCircle
 10
255.143597
 20
760.017861
 30
0.0
 40
191.020833
100
AcDbArc
 50
256.071303
 51
283.9286969999998
  0
LINE
  5
A85C
330
A66E
100
AcDbEntity
  8
1
  6
Continuous
100
AcDbLine
 10
207.6435969999999
 20
580.497028
 30
0.0
 11
302.643597
 21
580.497028
 31
0.0
  0
LINE
  5
A85D
330
A66E
100
AcDbEntity
  8
1
  6
Continuous
100
AcDbLine
 10
207.6435969999999
 20
579.497028
 30
0.0
 11
207.6435969999999
 21
580.497028
 31
0.0
  0
ARC
  5
A85E
330
A66E
100
AcDbEntity
  8
1
  6
Continuous
100
AcDbCircle
 10
209.6435969999999
 20
576.5549889999999
 30
0.0
 40
2.0
100
AcDbArc
 50
180.0
 51
256.071303
  0
LINE
  5
A85F
330
A66E
100
AcDbEntity
  8
1
  6
Continuous
100
AcDbLine
 10
207.6435969999999
 20
579.497028
 30
0.0
 11
207.6435969999999
 21
576.5549889999999
 31
0.0
  0
ARC
  5
A860
330
A66E
100
AcDbEntity
  8
5
  6
PHANTOM
100
AcDbCircle
 10
230.7784519999999
 20
565.3642099999997
 30
0.0
 40
4.0
100
AcDbArc
 50
120.0800139999999
 51
207.136837
  0
ARC
  5
A861
330
A66E
100
AcDbEntity
  8
5
  6
PHANTOM
100
AcDbCircle
 10
395.432143
 20
649.7553849999998
 30
0.0
 40
191.020833
100
AcDbArc
 50
203.9905259999999
 51
213.247629
  0
ARC
  5
A862
330
A66E
100
AcDbEntity
  8
5
  6
PHANTOM
100
AcDbCircle
 10
395.432143
 20
649.7553849999998
 30
0.0
 40
189.020833
100
AcDbArc
 50
204.3996729999999
 51
211.7562759999999
  0
ARC
  5
A863
330
A66E
100
AcDbEntity
  8
5
  6
PHANTOM
100
AcDbCircle
 10
395.432143
 20
649.7553849999998
 30
0.0
 40
186.020833
100
AcDbArc
 50
212.3783349999999
 51
213.298493
  0
ARC
  5
A864
330
A66E
100
AcDbEntity
  8
5
  6
PHANTOM
100
AcDbCircle
 10
239.116053
 20
547.0807929999998
 30
0.0
 40
1.0
100
AcDbArc
 50
300.0800139999999
 51
33.298493
  0
ARC
  5
A865
330
A66E
100
AcDbEntity
  8
5
  6
PHANTOM
100
AcDbCircle
 10
236.516039
 20
545.5748269999998
 30
0.0
 40
1.0
100
AcDbArc
 50
213.247629
 51
300.0800139999999
  0
LINE
  5
A866
330
A66E
100
AcDbEntity
  8
5
  6
PHANTOM
100
AcDbLine
 10
237.0172489999999
 20
544.7095009999998
 30
0.0
 11
239.617262
 21
546.215467
 31
0.0
  0
ARC
  5
A867
330
A66E
100
AcDbEntity
  8
5
  6
PHANTOM
100
AcDbCircle
 10
235.559048
 20
550.7986929999998
 30
0.0
 40
1.0
100
AcDbArc
 50
211.7562759999999
 51
300.0800139999999
  0
ARC
  5
A868
330
A66E
100
AcDbEntity
  8
5
  6
PHANTOM
100
AcDbCircle
 10
237.487351
 20
549.604327
 30
0.0
 40
1.0
100
AcDbArc
 50
32.378335
 51
120.0800139999999
  0
LINE
  5
A869
330
A66E
100
AcDbEntity
  8
5
  6
PHANTOM
100
AcDbLine
 10
236.0602569999998
 20
549.9333669999998
 30
0.0
 11
236.9861409999999
 21
550.469652
 31
0.0
  0
LINE
  5
A86A
330
A66E
100
AcDbEntity
  8
4
  6
CENTER
100
AcDbLine
 10
233.693597
 20
583.1970280000001
 30
0.0
 11
225.5935969999999
 21
583.1970280000001
 31
0.0
  0
CIRCLE
  5
A86B
330
A66E
100
AcDbEntity
  8
1
  6
Continuous
100
AcDbCircle
 10
229.643597
 20
583.1970280000001
 30
0.0
 40
2.549999999999998
  0
LINE
  5
A86C
330
A66E
100
AcDbEntity
  8
4
  6
CENTER
100
AcDbLine
 10
229.643597
 20
579.1470279999997
 30
0.0
 11
229.643597
 21
587.2470279999999
 31
0.0
  0
LINE
  5
A86D
330
A66E
100
AcDbEntity
  8
5
  6
PHANTOM
100
AcDbLine
 10
231.587026
 20
570.4550829999998
 30
0.0
 11
228.7736129999999
 21
568.8255129999999
 31
0.0
  0
LINE
  5
A86E
330
A66E
100
AcDbEntity
  8
1
  6
Continuous
100
AcDbLine
 10
214.643597
 20
592.2970279999998
 30
0.0
 11
231.877685
 21
592.2970279999998
 31
0.0
  0
LINE
  5
A86F
330
A66E
100
AcDbEntity
  8
1
  6
Continuous
100
AcDbLine
 10
213.143597
 20
580.9970279999999
 30
0.0
 11
211.143597
 21
580.9970279999999
 31
0.0
  0
ARC
  5
A870
330
A66E
100
AcDbEntity
  8
1
  6
Continuous
100
AcDbCircle
 10
213.143597
 20
587.997028
 30
0.0
 40
1.0
100
AcDbArc
 50
270.0
 51
0.0
  0
LINE
  5
A871
330
A66E
100
AcDbEntity
  8
4
  6
CENTER
100
AcDbLine
 10
234.9776799999999
 20
588.897049
 30
0.0
 11
246.9776799999999
 21
588.897049
 31
0.0
  0
LINE
  5
A872
330
A66E
100
AcDbEntity
  8
1
  6
Continuous
100
AcDbLine
 10
246.6435919999999
 20
595.8970469999997
 30
0.0
 11
246.6435919999999
 21
595.6970280000001
 31
0.0
  0
LINE
  5
A873
330
A66E
100
AcDbEntity
  8
1
  6
Continuous
100
AcDbLine
 10
243.97768
 20
595.6970280000001
 30
0.0
 11
248.077685
 21
595.6970280000001
 31
0.0
  0
LINE
  5
A874
330
A66E
100
AcDbEntity
  8
1
  6
Continuous
100
AcDbLine
 10
238.47768
 20
586.897049
 30
0.0
 11
243.4776799999999
 21
586.897049
 31
0.0
  0
LINE
  5
A875
330
A66E
100
AcDbEntity
  8
1
  6
Continuous
100
AcDbLine
 10
243.97768
 20
587.397049
 30
0.0
 11
243.4776799999999
 21
586.897049
 31
0.0
  0
LINE
  5
A876
330
A66E
100
AcDbEntity
  8
1
  6
Continuous
100
AcDbLine
 10
237.97768
 20
587.397049
 30
0.0
 11
238.47768
 21
586.897049
 31
0.0
  0
LINE
  5
A877
330
A66E
100
AcDbEntity
  8
1
  6
Continuous
100
AcDbLine
 10
237.97768
 20
587.397049
 30
0.0
 11
243.97768
 21
587.397049
 31
0.0
  0
LINE
  5
A878
330
A66E
100
AcDbEntity
  8
1
  6
Continuous
100
AcDbLine
 10
243.97768
 20
595.897049
 30
0.0
 11
243.97768
 21
587.397049
 31
0.0
  0
LINE
  5
A879
330
A66E
100
AcDbEntity
  8
1
  6
Continuous
100
AcDbLine
 10
237.97768
 20
595.897049
 30
0.0
 11
237.97768
 21
587.397049
 31
0.0
  0
LINE
  5
A87A
330
A66E
100
AcDbEntity
  8
1
  6
Continuous
100
AcDbLine
 10
247.977836
 20
595.8970460000001
 30
0.0
 11
233.9778359999999
 21
595.8970569999998
 31
0.0
  0
LINE
  5
A87B
330
A66E
100
AcDbEntity
  8
1
  6
Continuous
100
AcDbLine
 10
233.877685
 20
595.6970280000001
 30
0.0
 11
237.97768
 21
595.6970280000001
 31
0.0
  0
LINE
  5
A87C
330
A66E
100
AcDbEntity
  8
1
  6
Continuous
100
AcDbLine
 10
268.643597
 20
594.7970279999998
 30
0.0
 11
276.6435969999998
 21
594.7970279999998
 31
0.0
  0
LINE
  5
A87D
330
A66E
100
AcDbEntity
  8
1
  6
Continuous
100
AcDbLine
 10
294.375648
 20
580.497028
 30
0.0
 11
293.001237
 21
585.626399
 31
0.0
  0
LINE
  5
A87E
330
A66E
100
AcDbEntity
  8
1
  6
Continuous
100
AcDbLine
 10
298.143597
 20
580.9970279999999
 30
0.0
 11
296.143597
 21
580.9970279999999
 31
0.0
  0
ARC
  5
A87F
330
A66E
100
AcDbEntity
  8
1
  6
Continuous
100
AcDbCircle
 10
284.307904
 20
583.2970279999998
 30
0.0
 40
9.0
100
AcDbArc
 50
15.0
 51
90.0
  0
ARC
  5
A880
330
A66E
100
AcDbEntity
  8
1
  6
Continuous
100
AcDbCircle
 10
296.143597
 20
587.997028
 30
0.0
 40
1.0
100
AcDbArc
 50
180.0
 51
270.0
  0
LINE
  5
A881
330
A66E
100
AcDbEntity
  8
1
  6
Continuous
100
AcDbLine
 10
302.643597
 20
579.497028
 30
0.0
 11
302.643597
 21
580.497028
 31
0.0
  0
LINE
  5
A882
330
A66E
100
AcDbEntity
  8
1
  6
Continuous
100
AcDbLine
 10
302.643597
 20
579.497028
 30
0.0
 11
302.643597
 21
576.5549889999999
 31
0.0
  0
ARC
  5
A883
330
A66E
100
AcDbEntity
  8
1
  6
Continuous
100
AcDbCircle
 10
300.643597
 20
576.5549889999999
 30
0.0
 40
2.0
100
AcDbArc
 50
283.9286969999998
 51
0.0
  0
LINE
  5
A884
330
A66E
100
AcDbEntity
  8
1
  6
Continuous
100
AcDbLine
 10
254.343602
 20
600.4970409999997
 30
0.0
 11
255.5890559999999
 21
601.497028
 31
0.0
  0
ARC
  5
A885
330
A66E
100
AcDbEntity
  8
1
  6
Continuous
100
AcDbCircle
 10
254.343602
 20
600.4970409999997
 30
0.0
 40
2.299999999999998
100
AcDbArc
 50
269.999906
 51
308.761309
  0
LINE
  5
A886
330
A66E
100
AcDbEntity
  8
1
  6
Continuous
100
AcDbLine
 10
258.643597
 20
597.497038
 30
0.0
 11
250.643611
 21
597.4970439999998
 31
0.0
  0
LINE
  5
A887
330
A66E
100
AcDbEntity
  8
1
  6
Continuous
100
AcDbLine
 10
265.643592
 20
602.4970279999998
 30
0.0
 11
216.093592
 21
602.4970279999998
 31
0.0
  0
LINE
  5
A888
330
A66E
100
AcDbEntity
  8
1
  6
Continuous
100
AcDbLine
 10
296.143597
 20
604.497028
 30
0.0
 11
213.143597
 21
604.497028
 31
0.0
  0
LINE
  5
A889
330
A66E
100
AcDbEntity
  8
1
  6
Continuous
100
AcDbLine
 10
296.143597
 20
602.4970279999998
 30
0.0
 11
213.143597
 21
602.4970279999998
 31
0.0
  0
LINE
  5
A88A
330
A66E
100
AcDbEntity
  8
1
  6
Continuous
100
AcDbLine
 10
295.1435969999998
 20
601.497028
 30
0.0
 11
214.143597
 21
601.497028
 31
0.0
  0
LINE
  5
A88B
330
A66E
100
AcDbEntity
  8
1
  6
Continuous
100
AcDbLine
 10
231.877685
 20
599.497028
 30
0.0
 11
233.877685
 21
599.497028
 31
0.0
  0
LINE
  5
A88C
330
A66E
100
AcDbEntity
  8
1
  6
Continuous
100
AcDbLine
 10
214.643597
 20
602.4970279999998
 30
0.0
 11
250.643597
 21
602.4970279999998
 31
0.0
  0
ARC
  5
A88D
330
A66E
100
AcDbEntity
  8
1
  6
Continuous
100
AcDbCircle
 10
213.143597
 20
602.4970279999998
 30
0.0
 40
2.0
100
AcDbArc
 50
90.0
 51
180.0
  0
LINE
  5
A88E
330
A66E
100
AcDbEntity
  8
1
  6
Continuous
100
AcDbLine
 10
254.343602
 20
600.4970409999997
 30
0.0
 11
250.643597
 21
600.4970440000001
 31
0.0
  0
LINE
  5
A88F
330
A66E
100
AcDbEntity
  8
1
  6
Continuous
100
AcDbLine
 10
248.077685
 20
599.497028
 30
0.0
 11
250.077685
 21
599.497028
 31
0.0
  0
ARC
  5
A890
330
A66E
100
AcDbEntity
  8
1
  6
Continuous
100
AcDbCircle
 10
240.9776799999999
 20
591.7470540000001
 30
0.0
 40
9.25
100
AcDbArc
 50
71.075356
 51
108.9246439999999
  0
LINE
  5
A891
330
A66E
100
AcDbEntity
  8
1
  6
Continuous
100
AcDbLine
 10
242.5435919999999
 20
600.497028
 30
0.0
 11
246.6435919999999
 21
600.497028
 31
0.0
  0
LINE
  5
A892
330
A66E
100
AcDbEntity
  8
1
  6
Continuous
100
AcDbLine
 10
248.077685
 20
600.497046
 30
0.0
 11
234.9128759999999
 21
600.497057
 31
0.0
  0
LINE
  5
A893
330
A66E
100
AcDbEntity
  8
1
  6
Continuous
100
AcDbLine
 10
254.3436
 20
598.197041
 30
0.0
 11
250.643597
 21
598.197044
 31
0.0
  0
ARC
  5
A894
330
A66E
100
AcDbEntity
  8
1
  6
Continuous
100
AcDbCircle
 10
240.9776799999999
 20
589.447056
 30
0.0
 40
9.25
100
AcDbArc
 50
71.075356
 51
108.9246439999999
  0
LINE
  5
A895
330
A66E
100
AcDbEntity
  8
1
  6
Continuous
100
AcDbLine
 10
233.9778359999999
 20
598.1970570000002
 30
0.0
 11
234.912866
 21
598.1970570000002
 31
0.0
  0
LINE
  5
A896
330
A66E
100
AcDbEntity
  8
1
  6
Continuous
100
AcDbLine
 10
248.077685
 20
598.197046
 30
0.0
 11
234.9128739999999
 21
598.1970570000002
 31
0.0
  0
LINE
  5
A897
330
A66E
100
AcDbEntity
  8
1
  6
Continuous
100
AcDbLine
 10
234.9128759999999
 20
600.497057
 30
0.0
 11
234.9128719999999
 21
598.1970570000002
 31
0.0
  0
LINE
  5
A898
330
A66E
100
AcDbEntity
  8
1
  6
Continuous
100
AcDbLine
 10
276.6435969999998
 20
602.4970279999998
 30
0.0
 11
294.6435969999999
 21
602.4970279999998
 31
0.0
  0
LINE
  5
A899
330
A66E
100
AcDbEntity
  8
1
  6
Continuous
100
AcDbLine
 10
261.743597
 20
605.497028
 30
0.0
 11
265.5435969999999
 21
605.497028
 31
0.0
  0
LINE
  5
A89A
330
A66E
100
AcDbEntity
  8
1
  6
Continuous
100
AcDbLine
 10
261.243597
 20
604.997028
 30
0.0
 11
261.243597
 21
604.497028
 31
0.0
  0
LINE
  5
A89B
330
A66E
100
AcDbEntity
  8
1
  6
Continuous
100
AcDbLine
 10
266.0435969999999
 20
604.997028
 30
0.0
 11
266.0435969999999
 21
604.497028
 31
0.0
  0
LINE
  5
A89C
330
A66E
100
AcDbEntity
  8
1
  6
Continuous
100
AcDbLine
 10
261.243597
 20
604.997028
 30
0.0
 11
261.743597
 21
605.497028
 31
0.0
  0
LINE
  5
A89D
330
A66E
100
AcDbEntity
  8
1
  6
Continuous
100
AcDbLine
 10
266.0435969999999
 20
604.997028
 30
0.0
 11
265.5435969999999
 21
605.497028
 31
0.0
  0
LINE
  5
A89E
330
A66E
100
AcDbEntity
  8
1
  6
Continuous
100
AcDbLine
 10
261.243597
 20
604.997028
 30
0.0
 11
266.0435969999999
 21
604.997028
 31
0.0
  0
LINE
  5
A89F
330
A66E
100
AcDbEntity
  8
1
  6
Continuous
100
AcDbLine
 10
257.6436249999998
 20
600.197039
 30
0.0
 11
257.643617
 21
597.4970479999998
 31
0.0
  0
LINE
  5
A8A0
330
A66E
100
AcDbEntity
  8
1
  6
Continuous
100
AcDbLine
 10
269.643603
 20
601.497028
 30
0.0
 11
269.643594
 21
597.4970289999999
 31
0.0
  0
LINE
  5
A8A1
330
A66E
100
AcDbEntity
  8
1
  6
Continuous
100
AcDbLine
 10
269.6435999999998
 20
597.4970289999999
 30
0.0
 11
268.643597
 21
597.4970299999998
 31
0.0
  0
LINE
  5
A8A2
330
A66E
100
AcDbEntity
  8
1
  6
Continuous
100
AcDbLine
 10
258.643597
 20
599.997028
 30
0.0
 11
268.643597
 21
599.997028
 31
0.0
  0
LINE
  5
A8A3
330
A66E
100
AcDbEntity
  8
1
  6
Continuous
100
AcDbLine
 10
269.6436019999998
 20
600.197029
 30
0.0
 11
257.6436249999998
 21
600.197039
 31
0.0
  0
LINE
  5
A8A4
330
A66E
100
AcDbEntity
  8
1
  6
Continuous
100
AcDbLine
 10
260.643597
 20
600.197036
 30
0.0
 11
260.643597
 21
599.997028
 31
0.0
  0
LINE
  5
A8A5
330
A66E
100
AcDbEntity
  8
1
  6
Continuous
100
AcDbLine
 10
266.643597
 20
600.1970309999998
 30
0.0
 11
266.643597
 21
599.997028
 31
0.0
  0
LINE
  5
A8A6
330
A66E
100
AcDbEntity
  8
1
  6
Continuous
100
AcDbLine
 10
269.6436049999999
 20
602.4970289999997
 30
0.0
 11
257.6436269999999
 21
602.497039
 31
0.0
  0
LINE
  5
A8A7
330
A66E
100
AcDbEntity
  8
1
  6
Continuous
100
AcDbLine
 10
255.7835799999998
 20
598.7035909999997
 30
0.0
 11
257.6436249999998
 21
600.197039
 31
0.0
  0
ARC
  5
A8A8
330
A66E
100
AcDbEntity
  8
1
  6
Continuous
100
AcDbCircle
 10
296.143597
 20
602.4970279999998
 30
0.0
 40
2.0
100
AcDbArc
 50
0.0
 51
90.0
  0
LINE
  5
A8A9
330
A66E
100
AcDbEntity
  8
1
  6
Continuous
100
AcDbLine
 10
48.57422800000001
 20
257.1155569999999
 30
0.0
 11
48.57422800000001
 21
387.1155569999999
 31
0.0
  0
LINE
  5
A8AA
330
A66E
100
AcDbEntity
  8
1
  6
Continuous
100
AcDbLine
 10
56.539823
 20
268.1155569999999
 30
0.0
 11
56.539823
 21
376.1155569999999
 31
0.0
  0
LINE
  5
A8AB
330
A66E
100
AcDbEntity
  8
1
  6
Continuous
100
AcDbLine
 10
60.57422800000001
 20
270.1155569999999
 30
0.0
 11
60.57422800000001
 21
374.1155569999999
 31
0.0
  0
LINE
  5
A8AC
330
A66E
100
AcDbEntity
  8
1
  6
Continuous
100
AcDbLine
 10
50.074228
 20
257.1155569999999
 30
0.0
 11
50.074228
 21
387.1155569999999
 31
0.0
  0
LINE
  5
A8AD
330
A66E
100
AcDbEntity
  8
1
  6
Continuous
100
AcDbLine
 10
49.07422799999999
 20
257.1155569999999
 30
0.0
 11
49.07422799999999
 21
387.1155569999999
 31
0.0
  0
LINE
  5
A8AE
330
A66E
100
AcDbEntity
  8
1
  6
Continuous
100
AcDbLine
 10
25.074228
 20
257.1155569999999
 30
0.0
 11
25.074228
 21
387.1155569999999
 31
0.0
  0
LINE
  5
A8AF
330
A66E
100
AcDbEntity
  8
4
  6
CENTER
100
AcDbLine
 10
46.374228
 20
390.1155569999998
 30
0.0
 11
46.374228
 21
254.1155569999999
 31
0.0
  0
LINE
  5
A8B0
330
A66E
100
AcDbEntity
  8
4
  6
CENTER
100
AcDbLine
 10
26.07422
 20
230.1155529999999
 30
0.0
 11
43.874228
 21
230.1155529999999
 31
0.0
  0
LINE
  5
A8B1
330
A66E
100
AcDbEntity
  8
4
  6
CENTER
100
AcDbLine
 10
22.074228
 20
322.1155569999999
 30
0.0
 11
63.57422800000001
 21
322.1155569999999
 31
0.0
  0
LINE
  5
A8B2
330
A66E
100
AcDbEntity
  8
1
  6
Continuous
100
AcDbLine
 10
48.57422800000001
 20
257.1155569999999
 30
0.0
 11
25.074228
 21
257.1155569999999
 31
0.0
  0
LINE
  5
A8B3
330
A66E
100
AcDbEntity
  8
1
  6
Continuous
100
AcDbLine
 10
31.874228
 20
227.1155529999998
 30
0.0
 11
40.374228
 21
227.1155529999998
 31
0.0
  0
LINE
  5
A8B4
330
A66E
100
AcDbEntity
  8
1
  6
Continuous
100
AcDbLine
 10
31.874228
 20
233.1155529999998
 30
0.0
 11
40.374228
 21
233.1155529999998
 31
0.0
  0
LINE
  5
A8B5
330
A66E
100
AcDbEntity
  8
4
  6
CENTER
100
AcDbLine
 10
21.074228
 20
282.1155569999999
 30
0.0
 11
37.470844
 21
282.1155569999999
 31
0.0
  0
LINE
  5
A8B6
330
A66E
100
AcDbEntity
  8
4
  6
CENTER
100
AcDbLine
 10
21.074228
 20
299.9599119999999
 30
0.0
 11
37.470844
 21
299.9599119999999
 31
0.0
  0
LINE
  5
A8B7
330
A66E
100
AcDbEntity
  8
1
  6
Continuous
100
AcDbLine
 10
25.074228
 20
271.8516249999999
 30
0.0
 11
41.33815999999997
 21
271.8516249999999
 31
0.0
  0
LINE
  5
A8B8
330
A66E
100
AcDbEntity
  8
1
  6
Continuous
100
AcDbLine
 10
25.074228
 20
267.3794889999999
 30
0.0
 11
41.33815999999997
 21
267.3794889999999
 31
0.0
  0
LINE
  5
A8B9
330
A66E
100
AcDbEntity
  8
5
  6
PHANTOM
100
AcDbLine
 10
31.874228
 20
241.115564
 30
0.0
 11
40.374228
 21
241.115564
 31
0.0
  0
LINE
  5
A8BA
330
A66E
100
AcDbEntity
  8
5
  6
PHANTOM
100
AcDbLine
 10
31.874228
 20
247.115564
 30
0.0
 11
40.374228
 21
247.115564
 31
0.0
  0
LINE
  5
A8BB
330
A66E
100
AcDbEntity
  8
4
  6
CENTER
100
AcDbLine
 10
26.07422
 20
244.115564
 30
0.0
 11
43.874228
 21
244.115564
 31
0.0
  0
LINE
  5
A8BC
330
A66E
100
AcDbEntity
  8
5
  6
PHANTOM
100
AcDbLine
 10
40.374228
 20
241.115564
 30
0.0
 11
40.374228
 21
247.115564
 31
0.0
  0
LINE
  5
A8BD
330
A66E
100
AcDbEntity
  8
5
  6
PHANTOM
100
AcDbLine
 10
40.874228
 20
241.6155639999999
 30
0.0
 11
40.874228
 21
246.615564
 31
0.0
  0
CIRCLE
  5
A8BE
330
A66E
100
AcDbEntity
  8
5
  6
PHANTOM
100
AcDbCircle
 10
38.874228
 20
244.115564
 30
0.0
 40
1.0
  0
LINE
  5
A8BF
330
A66E
100
AcDbEntity
  8
4
  6
CENTER
100
AcDbLine
 10
38.874228
 20
241.6155639999999
 30
0.0
 11
38.874228
 21
246.615564
 31
0.0
  0
LINE
  5
A8C0
330
A66E
100
AcDbEntity
  8
5
  6
PHANTOM
100
AcDbLine
 10
40.374228
 20
241.115564
 30
0.0
 11
40.874228
 21
241.6155639999999
 31
0.0
  0
LINE
  5
A8C1
330
A66E
100
AcDbEntity
  8
4
  6
CENTER
100
AcDbLine
 10
38.874228
 20
227.615553
 30
0.0
 11
38.874228
 21
232.6155529999998
 31
0.0
  0
LINE
  5
A8C2
330
A66E
100
AcDbEntity
  8
1
  6
Continuous
100
AcDbLine
 10
40.874228
 20
227.615553
 30
0.0
 11
40.874228
 21
232.6155529999998
 31
0.0
  0
CIRCLE
  5
A8C3
330
A66E
100
AcDbEntity
  8
1
  6
Continuous
100
AcDbCircle
 10
38.874228
 20
230.1155529999999
 30
0.0
 40
1.0
  0
LINE
  5
A8C4
330
A66E
100
AcDbEntity
  8
1
  6
Continuous
100
AcDbLine
 10
40.374228
 20
227.1155529999998
 30
0.0
 11
40.374228
 21
233.1155529999998
 31
0.0
  0
LINE
  5
A8C5
330
A66E
100
AcDbEntity
  8
1
  6
Continuous
100
AcDbLine
 10
40.374228
 20
227.1155529999998
 30
0.0
 11
40.874228
 21
227.615553
 31
0.0
  0
LINE
  5
A8C6
330
A66E
100
AcDbEntity
  8
1
  6
Continuous
100
AcDbLine
 10
40.374228
 20
233.1155529999998
 30
0.0
 11
40.874228
 21
232.6155529999998
 31
0.0
  0
LINE
  5
A8C7
330
A66E
100
AcDbEntity
  8
1
  6
Continuous
100
AcDbLine
 10
60.57422800000001
 20
260.9155569999999
 30
0.0
 11
60.57422800000001
 21
267.6155569999999
 31
0.0
  0
LINE
  5
A8C8
330
A66E
100
AcDbEntity
  8
1
  6
Continuous
100
AcDbLine
 10
49.07422799999999
 20
265.1155569999999
 30
0.0
 11
48.57422800000001
 21
265.1155569999999
 31
0.0
  0
LINE
  5
A8C9
330
A66E
100
AcDbEntity
  8
1
  6
Continuous
100
AcDbLine
 10
49.07422799999999
 20
257.1155569999999
 30
0.0
 11
50.074228
 21
257.1155569999999
 31
0.0
  0
LINE
  5
A8CA
330
A66E
100
AcDbEntity
  8
1
  6
Continuous
100
AcDbLine
 10
50.074228
 20
257.1155569999999
 30
0.0
 11
56.774228
 21
257.1155569999999
 31
0.0
  0
ARC
  5
A8CB
330
A66E
100
AcDbEntity
  8
1
  6
Continuous
100
AcDbCircle
 10
56.774228
 20
260.9155569999999
 30
0.0
 40
3.799999999999998
100
AcDbArc
 50
270.0
 51
0.0
  0
LINE
  5
A8CC
330
A66E
100
AcDbEntity
  8
5
  6
PHANTOM
100
AcDbLine
 10
40.374228
 20
247.115564
 30
0.0
 11
40.874228
 21
246.615564
 31
0.0
  0
LINE
  5
A8CD
330
A66E
100
AcDbEntity
  8
1
  6
Continuous
100
AcDbLine
 10
60.074228
 20
268.1155569999999
 30
0.0
 11
56.539823
 21
268.1155569999999
 31
0.0
  0
LINE
  5
A8CE
330
A66E
100
AcDbEntity
  8
1
  6
Continuous
100
AcDbLine
 10
59.57422799999999
 20
269.1155569999998
 30
0.0
 11
56.539823
 21
269.1155569999998
 31
0.0
  0
ARC
  5
A8CF
330
A66E
100
AcDbEntity
  8
1
  6
Continuous
100
AcDbCircle
 10
60.074228
 20
267.6155569999999
 30
0.0
 40
0.5
100
AcDbArc
 50
0.0
 51
90.0
  0
ARC
  5
A8D0
330
A66E
100
AcDbEntity
  8
1
  6
Continuous
100
AcDbCircle
 10
59.57422799999999
 20
270.1155569999999
 30
0.0
 40
1.0
100
AcDbArc
 50
270.0
 51
0.0
  0
ARC
  5
A8D1
330
A66E
100
AcDbEntity
  8
1
  6
Continuous
100
AcDbCircle
 10
41.33815999999997
 20
269.6155569999999
 30
0.0
 40
2.236067999999999
100
AcDbArc
 50
270.0
 51
90.0
  0
ARC
  5
A8D2
330
A66E
100
AcDbEntity
  8
5
  6
PHANTOM
100
AcDbCircle
 10
38.32421999999999
 20
244.115564
 30
0.0
 40
9.25
100
AcDbArc
 50
161.075356
 51
198.924644
  0
LINE
  5
A8D3
330
A66E
100
AcDbEntity
  8
1
  6
Continuous
100
AcDbLine
 10
29.57422
 20
223.1155719999999
 30
0.0
 11
29.57422
 21
257.1155569999999
 31
0.0
  0
LINE
  5
A8D4
330
A66E
100
AcDbEntity
  8
1
  6
Continuous
100
AcDbLine
 10
31.874228
 20
223.1155719999999
 30
0.0
 11
31.874228
 21
257.1155569999999
 31
0.0
  0
ARC
  5
A8D5
330
A66E
100
AcDbEntity
  8
1
  6
Continuous
100
AcDbCircle
 10
38.32421999999999
 20
230.1155529999999
 30
0.0
 40
9.25
100
AcDbArc
 50
161.075356
 51
198.924644
  0
LINE
  5
A8D6
330
A66E
100
AcDbEntity
  8
1
  6
Continuous
100
AcDbLine
 10
29.57422
 20
223.1155719999999
 30
0.0
 11
31.874228
 21
223.1155719999999
 31
0.0
  0
ARC
  5
A8D7
330
A66E
100
AcDbEntity
  8
1
  6
Continuous
100
AcDbCircle
 10
23.074228
 20
269.6155569999999
 30
0.0
 40
3.0
100
AcDbArc
 50
311.810315
 51
48.189685
  0
LINE
  5
A8D8
330
A66E
100
AcDbEntity
  8
1
  6
Continuous
100
AcDbLine
 10
24.574228
 20
302.359912
 30
0.0
 11
25.074228
 21
302.359912
 31
0.0
  0
LINE
  5
A8D9
330
A66E
100
AcDbEntity
  8
1
  6
Continuous
100
AcDbLine
 10
24.574228
 20
297.559912
 30
0.0
 11
24.074228
 21
298.0599119999999
 31
0.0
  0
LINE
  5
A8DA
330
A66E
100
AcDbEntity
  8
1
  6
Continuous
100
AcDbLine
 10
24.574228
 20
297.559912
 30
0.0
 11
25.074228
 21
297.559912
 31
0.0
  0
LINE
  5
A8DB
330
A66E
100
AcDbEntity
  8
1
  6
Continuous
100
AcDbLine
 10
24.074228
 20
301.859912
 30
0.0
 11
24.074228
 21
298.0599119999999
 31
0.0
  0
LINE
  5
A8DC
330
A66E
100
AcDbEntity
  8
1
  6
Continuous
100
AcDbLine
 10
24.574228
 20
302.359912
 30
0.0
 11
24.074228
 21
301.859912
 31
0.0
  0
LINE
  5
A8DD
330
A66E
100
AcDbEntity
  8
1
  6
Continuous
100
AcDbLine
 10
24.574228
 20
302.359912
 30
0.0
 11
24.574228
 21
297.559912
 31
0.0
  0
LINE
  5
A8DE
330
A66E
100
AcDbEntity
  8
4
  6
CENTER
100
AcDbLine
 10
26.07422
 20
414.1155499999999
 30
0.0
 11
43.874228
 21
414.1155499999999
 31
0.0
  0
LINE
  5
A8DF
330
A66E
100
AcDbEntity
  8
1
  6
Continuous
100
AcDbLine
 10
48.57422800000001
 20
387.1155569999999
 30
0.0
 11
25.074228
 21
387.1155569999999
 31
0.0
  0
LINE
  5
A8E0
330
A66E
100
AcDbEntity
  8
1
  6
Continuous
100
AcDbLine
 10
31.874228
 20
411.1155499999998
 30
0.0
 11
40.374228
 21
411.1155499999998
 31
0.0
  0
LINE
  5
A8E1
330
A66E
100
AcDbEntity
  8
1
  6
Continuous
100
AcDbLine
 10
31.874228
 20
417.11555
 30
0.0
 11
40.374228
 21
417.11555
 31
0.0
  0
LINE
  5
A8E2
330
A66E
100
AcDbEntity
  8
1
  6
Continuous
100
AcDbLine
 10
25.074228
 20
372.3794889999999
 30
0.0
 11
41.33815999999997
 21
372.3794889999999
 31
0.0
  0
LINE
  5
A8E3
330
A66E
100
AcDbEntity
  8
1
  6
Continuous
100
AcDbLine
 10
25.074228
 20
376.851625
 30
0.0
 11
41.33815999999997
 21
376.851625
 31
0.0
  0
LINE
  5
A8E4
330
A66E
100
AcDbEntity
  8
4
  6
CENTER
100
AcDbLine
 10
26.07422
 20
400.11555
 30
0.0
 11
43.874228
 21
400.11555
 31
0.0
  0
LINE
  5
A8E5
330
A66E
100
AcDbEntity
  8
5
  6
PHANTOM
100
AcDbLine
 10
31.874228
 20
397.11555
 30
0.0
 11
40.374228
 21
397.11555
 31
0.0
  0
LINE
  5
A8E6
330
A66E
100
AcDbEntity
  8
5
  6
PHANTOM
100
AcDbLine
 10
31.874228
 20
403.1155499999998
 30
0.0
 11
40.374228
 21
403.1155499999998
 31
0.0
  0
LINE
  5
A8E7
330
A66E
100
AcDbEntity
  8
4
  6
CENTER
100
AcDbLine
 10
22.074228
 20
344.2712009999998
 30
0.0
 11
37.470844
 21
344.2712009999998
 31
0.0
  0
LINE
  5
A8E8
330
A66E
100
AcDbEntity
  8
4
  6
CENTER
100
AcDbLine
 10
22.074228
 20
362.1155569999999
 30
0.0
 11
37.470844
 21
362.1155569999999
 31
0.0
  0
LINE
  5
A8E9
330
A66E
100
AcDbEntity
  8
1
  6
Continuous
100
AcDbLine
 10
60.57422800000001
 20
376.6155569999999
 30
0.0
 11
60.57422800000001
 21
383.3155569999998
 31
0.0
  0
LINE
  5
A8EA
330
A66E
100
AcDbEntity
  8
1
  6
Continuous
100
AcDbLine
 10
60.074228
 20
376.1155569999999
 30
0.0
 11
56.539823
 21
376.1155569999999
 31
0.0
  0
LINE
  5
A8EB
330
A66E
100
AcDbEntity
  8
1
  6
Continuous
100
AcDbLine
 10
59.57422799999999
 20
375.1155569999998
 30
0.0
 11
56.539823
 21
375.1155569999998
 31
0.0
  0
ARC
  5
A8EC
330
A66E
100
AcDbEntity
  8
1
  6
Continuous
100
AcDbCircle
 10
60.074228
 20
376.6155569999999
 30
0.0
 40
0.5
100
AcDbArc
 50
270.0
 51
0.0
  0
ARC
  5
A8ED
330
A66E
100
AcDbEntity
  8
1
  6
Continuous
100
AcDbCircle
 10
59.57422799999999
 20
374.1155569999999
 30
0.0
 40
1.0
100
AcDbArc
 50
0.0
 51
90.0
  0
ARC
  5
A8EE
330
A66E
100
AcDbEntity
  8
1
  6
Continuous
100
AcDbCircle
 10
41.33815999999997
 20
374.6155569999999
 30
0.0
 40
2.236067999999999
100
AcDbArc
 50
270.0
 51
90.0
  0
LINE
  5
A8EF
330
A66E
100
AcDbEntity
  8
4
  6
CENTER
100
AcDbLine
 10
38.874228
 20
402.6155499999998
 30
0.0
 11
38.874228
 21
397.6155499999999
 31
0.0
  0
LINE
  5
A8F0
330
A66E
100
AcDbEntity
  8
5
  6
PHANTOM
100
AcDbLine
 10
40.874228
 20
402.6155499999998
 30
0.0
 11
40.874228
 21
397.6155499999999
 31
0.0
  0
LINE
  5
A8F1
330
A66E
100
AcDbEntity
  8
5
  6
PHANTOM
100
AcDbLine
 10
40.374228
 20
403.1155499999998
 30
0.0
 11
40.374228
 21
397.11555
 31
0.0
  0
LINE
  5
A8F2
330
A66E
100
AcDbEntity
  8
1
  6
Continuous
100
AcDbLine
 10
49.07422799999999
 20
379.1155569999999
 30
0.0
 11
48.57422800000001
 21
379.1155569999999
 31
0.0
  0
ARC
  5
A8F3
330
A66E
100
AcDbEntity
  8
1
  6
Continuous
100
AcDbCircle
 10
56.774228
 20
383.3155569999998
 30
0.0
 40
3.799999999999998
100
AcDbArc
 50
0.0
 51
90.0
  0
LINE
  5
A8F4
330
A66E
100
AcDbEntity
  8
1
  6
Continuous
100
AcDbLine
 10
49.07422799999999
 20
387.1155569999999
 30
0.0
 11
50.074228
 21
387.1155569999999
 31
0.0
  0
LINE
  5
A8F5
330
A66E
100
AcDbEntity
  8
1
  6
Continuous
100
AcDbLine
 10
50.074228
 20
387.1155569999999
 30
0.0
 11
56.774228
 21
387.1155569999999
 31
0.0
  0
LINE
  5
A8F6
330
A66E
100
AcDbEntity
  8
5
  6
PHANTOM
100
AcDbLine
 10
40.374228
 20
397.11555
 30
0.0
 11
40.874228
 21
397.6155499999999
 31
0.0
  0
LINE
  5
A8F7
330
A66E
100
AcDbEntity
  8
1
  6
Continuous
100
AcDbLine
 10
40.374228
 20
417.11555
 30
0.0
 11
40.874228
 21
416.61555
 31
0.0
  0
CIRCLE
  5
A8F8
330
A66E
100
AcDbEntity
  8
1
  6
Continuous
100
AcDbCircle
 10
38.874228
 20
414.1155499999999
 30
0.0
 40
1.0
  0
LINE
  5
A8F9
330
A66E
100
AcDbEntity
  8
1
  6
Continuous
100
AcDbLine
 10
40.374228
 20
411.1155499999998
 30
0.0
 11
40.874228
 21
411.6155499999998
 31
0.0
  0
LINE
  5
A8FA
330
A66E
100
AcDbEntity
  8
5
  6
PHANTOM
100
AcDbLine
 10
40.374228
 20
403.1155499999998
 30
0.0
 11
40.874228
 21
402.6155499999998
 31
0.0
  0
CIRCLE
  5
A8FB
330
A66E
100
AcDbEntity
  8
5
  6
PHANTOM
100
AcDbCircle
 10
38.874228
 20
400.11555
 30
0.0
 40
1.0
  0
LINE
  5
A8FC
330
A66E
100
AcDbEntity
  8
4
  6
CENTER
100
AcDbLine
 10
38.874228
 20
416.61555
 30
0.0
 11
38.874228
 21
411.6155499999998
 31
0.0
  0
LINE
  5
A8FD
330
A66E
100
AcDbEntity
  8
1
  6
Continuous
100
AcDbLine
 10
40.874228
 20
416.61555
 30
0.0
 11
40.874228
 21
411.6155499999998
 31
0.0
  0
LINE
  5
A8FE
330
A66E
100
AcDbEntity
  8
1
  6
Continuous
100
AcDbLine
 10
40.374228
 20
417.11555
 30
0.0
 11
40.374228
 21
411.1155499999998
 31
0.0
  0
LINE
  5
A8FF
330
A66E
100
AcDbEntity
  8
1
  6
Continuous
100
AcDbLine
 10
29.574228
 20
421.1155299999998
 30
0.0
 11
29.574228
 21
387.1155569999999
 31
0.0
  0
LINE
  5
A900
330
A66E
100
AcDbEntity
  8
1
  6
Continuous
100
AcDbLine
 10
31.874228
 20
421.1155299999998
 30
0.0
 11
31.874228
 21
387.1155569999999
 31
0.0
  0
LINE
  5
A901
330
A66E
100
AcDbEntity
  8
1
  6
Continuous
100
AcDbLine
 10
24.574228
 20
346.671201
 30
0.0
 11
24.074228
 21
346.1712009999998
 31
0.0
  0
LINE
  5
A902
330
A66E
100
AcDbEntity
  8
1
  6
Continuous
100
AcDbLine
 10
24.574228
 20
346.671201
 30
0.0
 11
25.074228
 21
346.671201
 31
0.0
  0
LINE
  5
A903
330
A66E
100
AcDbEntity
  8
1
  6
Continuous
100
AcDbLine
 10
24.574228
 20
341.871201
 30
0.0
 11
24.074228
 21
342.371201
 31
0.0
  0
LINE
  5
A904
330
A66E
100
AcDbEntity
  8
1
  6
Continuous
100
AcDbLine
 10
24.574228
 20
341.871201
 30
0.0
 11
25.074228
 21
341.871201
 31
0.0
  0
LINE
  5
A905
330
A66E
100
AcDbEntity
  8
1
  6
Continuous
100
AcDbLine
 10
24.074228
 20
346.1712009999998
 30
0.0
 11
24.074228
 21
342.371201
 31
0.0
  0
LINE
  5
A906
330
A66E
100
AcDbEntity
  8
1
  6
Continuous
100
AcDbLine
 10
24.574228
 20
346.671201
 30
0.0
 11
24.574228
 21
341.871201
 31
0.0
  0
ARC
  5
A907
330
A66E
100
AcDbEntity
  8
1
  6
Continuous
100
AcDbCircle
 10
23.074228
 20
374.6155569999999
 30
0.0
 40
3.0
100
AcDbArc
 50
311.810315
 51
48.189685
  0
ARC
  5
A908
330
A66E
100
AcDbEntity
  8
5
  6
PHANTOM
100
AcDbCircle
 10
38.32421999999999
 20
400.11555
 30
0.0
 40
9.25
100
AcDbArc
 50
161.075356
 51
198.924644
  0
ARC
  5
A909
330
A66E
100
AcDbEntity
  8
1
  6
Continuous
100
AcDbCircle
 10
38.32421999999999
 20
414.1155499999999
 30
0.0
 40
9.25
100
AcDbArc
 50
161.075356
 51
198.924644
  0
LINE
  5
A90A
330
A66E
100
AcDbEntity
  8
1
  6
Continuous
100
AcDbLine
 10
29.574228
 20
421.1155299999998
 30
0.0
 11
31.874228
 21
421.1155299999998
 31
0.0
  0
LINE
  5
A90B
330
A66E
100
AcDbEntity
  8
1
  6
Continuous
100
AcDbLine
 10
57.955985
 20
270.1155569999999
 30
0.0
 11
57.955985
 21
374.1155569999999
 31
0.0
  0
LINE
  5
A90C
330
A66E
100
AcDbEntity
  8
4
  6
CENTER
100
AcDbLine
 10
706.219149
 20
390.1155569999998
 30
0.0
 11
706.219149
 21
254.1155569999999
 31
0.0
  0
ENDSEC
  0
SECTION
  2
OBJECTS
  0
DICTIONARY
  5
A65C
330
0
100
AcDbDictionary
281
     1
  3
ACAD_CIP_PREVIOUS_PRODUCT_INFO
350
A972
  3
ACAD_COLOR
350
A954
  3
ACAD_DETAILVIEWSTYLE
350
A96D
  3
ACAD_GROUP
350
A65D
  3
ACAD_LAYOUT
350
A669
  3
ACAD_MATERIAL
350
A922
  3
ACAD_MLEADERSTYLE
350
A969
  3
ACAD_MLINESTYLE
350
A666
  3
ACAD_PLOTSETTINGS
350
A668
  3
ACAD_PLOTSTYLENAME
350
A920
  3
ACAD_SCALELIST
350
A957
  3
ACAD_SECTIONVIEWSTYLE
350
A96B
  3
ACAD_TABLESTYLE
350
A955
  3
ACAD_VISUALSTYLE
350
A93B
  3
ACDB_RECOMPOSE_DATA
350
A990
  3
AcDbVariableDictionary
350
A983
  3
DWGPROPS
350
A991
  0
DICTIONARY
  5
A973
330
A660
100
AcDbDictionary
280
     1
281
     1
  3
ADSK_XREC_LAYER_RECONCILED
360
A974
  0
DICTIONARY
  5
A975
330
A676
100
AcDbDictionary
280
     1
281
     1
  3
ADSK_XREC_LAYER_RECONCILED
360
A976
  0
DICTIONARY
  5
A977
330
A677
100
AcDbDictionary
280
     1
281
     1
  3
ADSK_XREC_LAYER_RECONCILED
360
A978
  0
DICTIONARY
  5
A979
330
A678
100
AcDbDictionary
280
     1
281
     1
  3
ADSK_XREC_LAYER_RECONCILED
360
A97A
  0
DICTIONARY
  5
A97B
330
A679
100
AcDbDictionary
280
     1
281
     1
  3
ADSK_XREC_LAYER_RECONCILED
360
A97C
  0
DICTIONARY
  5
A97D
330
A67A
100
AcDbDictionary
280
     1
281
     1
  3
ADSK_XREC_LAYER_RECONCILED
360
A97E
  0
DICTIONARY
  5
A97F
330
A67B
100
AcDbDictionary
280
     1
281
     1
  3
ADSK_XREC_LAYER_RECONCILED
360
A980
  0
DICTIONARY
  5
A981
330
A67C
100
AcDbDictionary
280
     1
281
     1
  3
ADSK_XREC_LAYER_RECONCILED
360
A982
  0
DICTIONARY
  5
A91B
330
A66E
100
AcDbDictionary
281
     1
  3
ACAD_LAYOUTSELFREF
350
A91C
  0
DICTIONARY
  5
A919
330
A66A
100
AcDbDictionary
281
     1
  3
ACAD_LAYOUTSELFREF
350
A91A
  0
XRECORD
  5
A972
102
{ACAD_REACTORS
330
A65C
102
}
330
A65C
100
AcDbXrecord
280
     1
300
ACDLT
300
2014
300
ACDLT_F_S
  0
DICTIONARY
  5
A954
102
{ACAD_REACTORS
330
A65C
102
}
330
A65C
100
AcDbDictionary
281
     1
  0
DICTIONARY
  5
A96D
102
{ACAD_REACTORS
330
A65C
102
}
330
A65C
100
AcDbDictionary
281
     1
  3
Imperial24
350
A96E
  0
DICTIONARY
  5
A65D
102
{ACAD_REACTORS
330
A65C
102
}
330
A65C
100
AcDbDictionary
281
     1
  0
DICTIONARY
  5
A669
102
{ACAD_REACTORS
330
A65C
102
}
330
A65C
100
AcDbDictionary
281
     1
  3
Model
350
A96F
  3
レイアウト1
350
A970
  0
DICTIONARY
  5
A922
102
{ACAD_REACTORS
330
A65C
102
}
330
A65C
100
AcDbDictionary
281
     1
  3
ByBlock
350
A92B
  3
ByLayer
350
A923
  3
Global
350
A933
  0
DICTIONARY
  5
A969
102
{ACAD_REACTORS
330
A65C
102
}
330
A65C
100
AcDbDictionary
281
     1
  3
Standard
350
A96A
  0
DICTIONARY
  5
A666
102
{ACAD_REACTORS
330
A65C
102
}
330
A65C
100
AcDbDictionary
281
     1
  3
STANDARD
350
A667
  0
DICTIONARY
  5
A668
102
{ACAD_REACTORS
330
A65C
102
}
330
A65C
100
AcDbDictionary
281
     1
  0
ACDBDICTIONARYWDFLT
  5
A920
102
{ACAD_REACTORS
330
A65C
102
}
330
A65C
100
AcDbDictionary
281
     1
  3
Normal
350
A921
100
AcDbDictionaryWithDefault
340
A921
  0
DICTIONARY
  5
A957
102
{ACAD_REACTORS
330
A65C
102
}
330
A65C
100
AcDbDictionary
281
     1
  3
A0
350
A958
  3
A1
350
A959
  3
A2
350
A95A
  3
A3
350
A95B
  3
A4
350
A95C
  3
A5
350
A95D
  3
A6
350
A95E
  3
A7
350
A95F
  3
A8
350
A960
  3
A9
350
A961
  3
B0
350
A962
  3
B1
350
A963
  3
B2
350
A964
  3
B3
350
A965
  3
B4
350
A966
  3
B5
350
A967
  3
B6
350
A968
  0
DICTIONARY
  5
A96B
102
{ACAD_REACTORS
330
A65C
102
}
330
A65C
100
AcDbDictionary
281
     1
  3
Imperial24
350
A96C
  0
DICTIONARY
  5
A955
102
{ACAD_REACTORS
330
A65C
102
}
330
A65C
100
AcDbDictionary
281
     1
  3
Standard
350
A956
  0
DICTIONARY
  5
A93B
102
{ACAD_REACTORS
330
A65C
102
}
330
A65C
100
AcDbDictionary
281
     1
  3
2dWireframe
350
A941
  3
Basic
350
A940
  3
Brighten
350
A947
  3
ColorChange
350
A94B
  3
Conceptual
350
A944
  3
Dim
350
A946
  3
EdgeColorOff
350
A953
  3
Facepattern
350
A94A
  3
Flat
350
A93C
  3
FlatWithEdges
350
A93D
  3
Gouraud
350
A93E
  3
GouraudWithEdges
350
A93F
  3
Hidden
350
A943
  3
JitterOff
350
A951
  3
Linepattern
350
A949
  3
OverhangOff
350
A952
  3
Realistic
350
A945
  3
Shaded
350
A950
  3
Shaded with edges
350
A94F
  3
Shades of Gray
350
A94C
  3
Sketchy
350
A94D
  3
Thicken
350
A948
  3
Wireframe
350
A942
  3
X-Ray
350
A94E
  0
XRECORD
  5
A990
102
{ACAD_REACTORS
330
A65C
102
}
330
A65C
100
AcDbXrecord
280
     1
 90
        1
330
A956
  0
DICTIONARY
  5
A983
102
{ACAD_REACTORS
330
A65C
102
}
330
A65C
100
AcDbDictionary
281
     1
  3
CANNOSCALE
350
A988
  3
CMLEADERSTYLE
350
A985
  3
CTABLESTYLE
350
A984
  3
CVIEWDETAILSTYLE
350
A986
  3
CVIEWSECTIONSTYLE
350
A987
  3
DIMASSOC
350
A98B
  3
INDEXCTL
350
A98A
  3
SORTENTS
350
A989
  3
XCLIPFRAME
350
A98C
  0
XRECORD
  5
A991
102
{ACAD_REACTORS
330
A65C
102
}
330
A65C
100
AcDbXrecord
280
     1
  1
DWGPROPS COOKIE
  2

  3

  4

  6

  7

  8
Yoshitsune
  9

300
=
301
=
302
=
303
=
304
=
305
=
306
=
307
=
308
=
309
=
 40
0.0000149884259259
 41
2451368.510104514
 42
2457192.643112512
  1

 90
        0
  0
XRECORD
  5
A974
102
{ACAD_REACTORS
330
A973
102
}
330
A973
100
AcDbXrecord
280
     1
290
     1
  0
XRECORD
  5
A976
102
{ACAD_REACTORS
330
A975
102
}
330
A975
100
AcDbXrecord
280
     1
290
     1
  0
XRECORD
  5
A978
102
{ACAD_REACTORS
330
A977
102
}
330
A977
100
AcDbXrecord
280
     1
290
     1
  0
XRECORD
  5
A97A
102
{ACAD_REACTORS
330
A979
102
}
330
A979
100
AcDbXrecord
280
     1
290
     1
  0
XRECORD
  5
A97C
102
{ACAD_REACTORS
330
A97B
102
}
330
A97B
100
AcDbXrecord
280
     1
290
     1
  0
XRECORD
  5
A97E
102
{ACAD_REACTORS
330
A97D
102
}
330
A97D
100
AcDbXrecord
280
     1
290
     1
  0
XRECORD
  5
A980
102
{ACAD_REACTORS
330
A97F
102
}
330
A97F
100
AcDbXrecord
280
     1
290
     1
  0
XRECORD
  5
A982
102
{ACAD_REACTORS
330
A981
102
}
330
A981
100
AcDbXrecord
280
     1
290
     1
  0
XRECORD
  5
A91C
102
{ACAD_REACTORS
330
A91B
102
}
330
A91B
100
AcDbXrecord
280
     1
340
A66E
  0
XRECORD
  5
A91A
102
{ACAD_REACTORS
330
A919
102
}
330
A919
100
AcDbXrecord
280
     1
340
A66A
  0
ACDBDETAILVIEWSTYLE
  5
A96E
102
{ACAD_XDICTIONARY
360
A9C9
102
}
102
{ACAD_REACTORS
330
A96D
102
}
330
A96D
100
AcDbModelDocViewStyle
 70
     0
  3
Imperial24
290
     0
100
AcDbDetailViewStyle
 70
     0
 71
     0
 90
        3
 71
     1
340
A661
 40
0.24
340
0
 40
0.24
300

 40
0.36
280
     3
 71
     2
340
A665
 90
       25
 71
     3
340
A661
 40
0.24
 90
        1
 40
0.75
 90
        1
300
%<\AcVar ViewType \f "%tc1">% %<\AcVar ViewDetailId>%\PSCALE %<\AcVar ViewScale \f "%sn">%
 71
     4
340
A665
 90
       25
340
A665
 90
       25
280
     0
  0
LAYOUT
  5
A96F
102
{ACAD_XDICTIONARY
360
A9CB
102
}
102
{ACAD_REACTORS
330
A669
102
}
330
A669
100
AcDbPlotSettings
  1

  2
Canon LBP9100C
  4

  6

 40
0.0
 41
0.0
 42
0.0
 43
0.0
 44
0.0
 45
0.0
 46
0.0
 47
0.0
 48
0.0
 49
0.0
140
0.0
141
0.0
142
1.0
143
1.0
 70
  1712
 72
     0
 73
     0
 74
     0
  7

 75
     0
147
1.0
148
0.0
149
0.0
100
AcDbLayout
  1
Model
 70
     1
 71
     0
 10
0.0
 20
0.0
 11
12.0
 21
9.0
 12
0.0
 22
0.0
 32
0.0
 14
0.0
 24
0.0
 34
0.0
 15
0.0
 25
0.0
 35
0.0
146
0.0
 13
0.0
 23
0.0
 33
0.0
 16
1.0
 26
0.0
 36
0.0
 17
0.0
 27
1.0
 37
0.0
 76
     0
330
A66E
331
A918
  0
LAYOUT
  5
A970
102
{ACAD_XDICTIONARY
360
A9CD
102
}
102
{ACAD_REACTORS
330
A669
102
}
330
A669
100
AcDbPlotSettings
  1

  2
Canon LBP9100C
  4

  6

 40
0.0
 41
0.0
 42
0.0
 43
0.0
 44
0.0
 45
0.0
 46
0.0
 47
0.0
 48
0.0
 49
0.0
140
0.0
141
0.0
142
1.0
143
1.0
 70
   688
 72
     0
 73
     0
 74
     5
  7

 75
    16
147
1.0
148
0.0
149
0.0
100
AcDbLayout
  1
レイアウト1
 70
     0
 71
     1
 10
0.0
 20
0.0
 11
420.0
 21
297.0
 12
0.0
 22
0.0
 32
0.0
 14
1.000000000000000E+20
 24
1.000000000000000E+20
 34
1.000000000000000E+20
 15
-1.000000000000000E+20
 25
-1.000000000000000E+20
 35
-1.000000000000000E+20
146
0.0
 13
0.0
 23
0.0
 33
0.0
 16
1.0
 26
0.0
 36
0.0
 17
0.0
 27
1.0
 37
0.0
 76
     0
330
A66A
  0
MATERIAL
  5
A92B
102
{ACAD_XDICTIONARY
360
A92C
102
}
102
{ACAD_REACTORS
330
A922
102
}
330
A922
100
AcDbMaterial
  1
ByBlock
 72
     0
 43
0.0208333333333333
 43
0.0
 43
0.0
 43
0.0
 43
0.0
 43
0.0208333333333333
 43
0.0
 43
0.0
 43
0.0
 43
0.0
 43
1.0
 43
0.0
 43
0.0
 43
0.0
 43
0.0
 43
1.0
 77
     0
 47
0.0208333333333333
 47
0.0
 47
0.0
 47
0.0
 47
0.0
 47
0.0208333333333333
 47
0.0
 47
0.0
 47
0.0
 47
0.0
 47
1.0
 47
0.0
 47
0.0
 47
0.0
 47
0.0
 47
1.0
171
     0
 49
0.0208333333333333
 49
0.0
 49
0.0
 49
0.0
 49
0.0
 49
0.0208333333333333
 49
0.0
 49
0.0
 49
0.0
 49
0.0
 49
1.0
 49
0.0
 49
0.0
 49
0.0
 49
0.0
 49
1.0
175
     0
142
0.0208333333333333
142
0.0
142
0.0
142
0.0
142
0.0
142
0.0208333333333333
142
0.0
142
0.0
142
0.0
142
0.0
142
1.0
142
0.0
142
0.0
142
0.0
142
0.0
142
1.0
179
     0
144
0.0208333333333333
144
0.0
144
0.0
144
0.0
144
0.0
144
0.0208333333333333
144
0.0
144
0.0
144
0.0
144
0.0
144
1.0
144
0.0
144
0.0
144
0.0
144
0.0
144
1.0
147
0.0208333333333333
147
0.0
147
0.0
147
0.0
147
0.0
147
0.0208333333333333
147
0.0
147
0.0
147
0.0
147
0.0
147
1.0
147
0.0
147
0.0
147
0.0
147
0.0
147
1.0
  0
MATERIAL
  5
A923
102
{ACAD_XDICTIONARY
360
A924
102
}
102
{ACAD_REACTORS
330
A922
102
}
330
A922
100
AcDbMaterial
  1
ByLayer
 72
     0
 43
0.0208333333333333
 43
0.0
 43
0.0
 43
0.0
 43
0.0
 43
0.0208333333333333
 43
0.0
 43
0.0
 43
0.0
 43
0.0
 43
1.0
 43
0.0
 43
0.0
 43
0.0
 43
0.0
 43
1.0
 77
     0
 47
0.0208333333333333
 47
0.0
 47
0.0
 47
0.0
 47
0.0
 47
0.0208333333333333
 47
0.0
 47
0.0
 47
0.0
 47
0.0
 47
1.0
 47
0.0
 47
0.0
 47
0.0
 47
0.0
 47
1.0
171
     0
 49
0.0208333333333333
 49
0.0
 49
0.0
 49
0.0
 49
0.0
 49
0.0208333333333333
 49
0.0
 49
0.0
 49
0.0
 49
0.0
 49
1.0
 49
0.0
 49
0.0
 49
0.0
 49
0.0
 49
1.0
175
     0
142
0.0208333333333333
142
0.0
142
0.0
142
0.0
142
0.0
142
0.0208333333333333
142
0.0
142
0.0
142
0.0
142
0.0
142
1.0
142
0.0
142
0.0
142
0.0
142
0.0
142
1.0
179
     0
144
0.0208333333333333
144
0.0
144
0.0
144
0.0
144
0.0
144
0.0208333333333333
144
0.0
144
0.0
144
0.0
144
0.0
144
1.0
144
0.0
144
0.0
144
0.0
144
0.0
144
1.0
147
0.0208333333333333
147
0.0
147
0.0
147
0.0
147
0.0
147
0.0208333333333333
147
0.0
147
0.0
147
0.0
147
0.0
147
1.0
147
0.0
147
0.0
147
0.0
147
0.0
147
1.0
  0
MATERIAL
  5
A933
102
{ACAD_XDICTIONARY
360
A934
102
}
102
{ACAD_REACTORS
330
A922
102
}
330
A922
100
AcDbMaterial
  1
Global
 72
     0
 43
0.0208333333333333
 43
0.0
 43
0.0
 43
0.0
 43
0.0
 43
0.0208333333333333
 43
0.0
 43
0.0
 43
0.0
 43
0.0
 43
1.0
 43
0.0
 43
0.0
 43
0.0
 43
0.0
 43
1.0
 77
     0
 47
0.0208333333333333
 47
0.0
 47
0.0
 47
0.0
 47
0.0
 47
0.0208333333333333
 47
0.0
 47
0.0
 47
0.0
 47
0.0
 47
1.0
 47
0.0
 47
0.0
 47
0.0
 47
0.0
 47
1.0
171
     0
 49
0.0208333333333333
 49
0.0
 49
0.0
 49
0.0
 49
0.0
 49
0.0208333333333333
 49
0.0
 49
0.0
 49
0.0
 49
0.0
 49
1.0
 49
0.0
 49
0.0
 49
0.0
 49
0.0
 49
1.0
175
     0
142
0.0208333333333333
142
0.0
142
0.0
142
0.0
142
0.0
142
0.0208333333333333
142
0.0
142
0.0
142
0.0
142
0.0
142
1.0
142
0.0
142
0.0
142
0.0
142
0.0
142
1.0
179
     0
144
0.0208333333333333
144
0.0
144
0.0
144
0.0
144
0.0
144
0.0208333333333333
144
0.0
144
0.0
144
0.0
144
0.0
144
1.0
144
0.0
144
0.0
144
0.0
144
0.0
144
1.0
147
0.0208333333333333
147
0.0
147
0.0
147
0.0
147
0.0
147
0.0208333333333333
147
0.0
147
0.0
147
0.0
147
0.0
147
1.0
147
0.0
147
0.0
147
0.0
147
0.0
147
1.0
  0
MLEADERSTYLE
  5
A96A
102
{ACAD_REACTORS
330
A969
102
}
330
A969
100
AcDbMLeaderStyle
170
     2
171
     1
172
     0
 90
        2
 40
0.0
 41
0.0
173
     1
 91
-1056964608
340
A663
 92
       -2
290
     1
 42
0.09
291
     1
 43
0.36
  3
Standard
 44
0.18
300

342
A661
174
     1
178
     6
175
     1
176
     0
 93
-1056964608
 45
0.18
292
     0
297
     0
 46
0.18
 94
-1056964608
 47
1.0
 49
1.0
140
1.0
293
     1
141
0.0
294
     1
177
     0
142
1.0
295
     0
296
     0
143
0.125
1001
ACAD_MLEADERVER
1070
     2
  0
MLINESTYLE
  5
A667
102
{ACAD_REACTORS
330
A666
102
}
330
A666
100
AcDbMlineStyle
  2
STANDARD
 70
     0
  3

 62
   256
 51
90.0
 52
90.0
 71
     2
 49
0.5
 62
   256
  6
BYLAYER
 49
-0.5
 62
   256
  6
BYLAYER
  0
ACDBPLACEHOLDER
  5
A921
102
{ACAD_REACTORS
330
A920
102
}
330
A920
  0
SCALE
  5
A958
102
{ACAD_REACTORS
330
A957
102
}
330
A957
100
AcDbScale
 70
     0
300
1:1
140
1.0
141
1.0
290
     1
  0
SCALE
  5
A959
102
{ACAD_REACTORS
330
A957
102
}
330
A957
100
AcDbScale
 70
     0
300
1/128" = 1'-0"
140
0.0078125
141
12.0
290
     0
  0
SCALE
  5
A95A
102
{ACAD_REACTORS
330
A957
102
}
330
A957
100
AcDbScale
 70
     0
300
1/64" = 1'-0"
140
0.015625
141
12.0
290
     0
  0
SCALE
  5
A95B
102
{ACAD_REACTORS
330
A957
102
}
330
A957
100
AcDbScale
 70
     0
300
1/32" = 1'-0"
140
0.03125
141
12.0
290
     0
  0
SCALE
  5
A95C
102
{ACAD_REACTORS
330
A957
102
}
330
A957
100
AcDbScale
 70
     0
300
1/16" = 1'-0"
140
0.0625
141
12.0
290
     0
  0
SCALE
  5
A95D
102
{ACAD_REACTORS
330
A957
102
}
330
A957
100
AcDbScale
 70
     0
300
3/32" = 1'-0"
140
0.09375
141
12.0
290
     0
  0
SCALE
  5
A95E
102
{ACAD_REACTORS
330
A957
102
}
330
A957
100
AcDbScale
 70
     0
300
1/8" = 1'-0"
140
0.125
141
12.0
290
     0
  0
SCALE
  5
A95F
102
{ACAD_REACTORS
330
A957
102
}
330
A957
100
AcDbScale
 70
     0
300
3/16" = 1'-0"
140
0.1875
141
12.0
290
     0
  0
SCALE
  5
A960
102
{ACAD_REACTORS
330
A957
102
}
330
A957
100
AcDbScale
 70
     0
300
1/4" = 1'-0"
140
0.25
141
12.0
290
     0
  0
SCALE
  5
A961
102
{ACAD_REACTORS
330
A957
102
}
330
A957
100
AcDbScale
 70
     0
300
3/8" = 1'-0"
140
0.375
141
12.0
290
     0
  0
SCALE
  5
A962
102
{ACAD_REACTORS
330
A957
102
}
330
A957
100
AcDbScale
 70
     0
300
1/2" = 1'-0"
140
0.5
141
12.0
290
     0
  0
SCALE
  5
A963
102
{ACAD_REACTORS
330
A957
102
}
330
A957
100
AcDbScale
 70
     0
300
3/4" = 1'-0"
140
0.75
141
12.0
290
     0
  0
SCALE
  5
A964
102
{ACAD_REACTORS
330
A957
102
}
330
A957
100
AcDbScale
 70
     0
300
1" = 1'-0"
140
1.0
141
12.0
290
     0
  0
SCALE
  5
A965
102
{ACAD_REACTORS
330
A957
102
}
330
A957
100
AcDbScale
 70
     0
300
1-1/2" = 1'-0"
140
1.5
141
12.0
290
     0
  0
SCALE
  5
A966
102
{ACAD_REACTORS
330
A957
102
}
330
A957
100
AcDbScale
 70
     0
300
3" = 1'-0"
140
3.0
141
12.0
290
     0
  0
SCALE
  5
A967
102
{ACAD_REACTORS
330
A957
102
}
330
A957
100
AcDbScale
 70
     0
300
6" = 1'-0"
140
6.0
141
12.0
290
     0
  0
SCALE
  5
A968
102
{ACAD_REACTORS
330
A957
102
}
330
A957
100
AcDbScale
 70
     0
300
1'-0" = 1'-0"
140
12.0
141
12.0
290
     0
  0
ACDBSECTIONVIEWSTYLE
  5
A96C
102
{ACAD_XDICTIONARY
360
A9C7
102
}
102
{ACAD_REACTORS
330
A96B
102
}
330
A96B
100
AcDbModelDocViewStyle
 70
     0
  3
Imperial24
290
     0
100
AcDbSectionViewStyle
 70
     0
 71
     0
 90
       78
 71
     1
340
A661
 40
0.24
340
0
340
0
 40
0.24
300
I, O, Q, S, X, Z
 40
0.48
 90
        3
 40
0.18
 90
        1
 71
     2
340
A665
 90
       25
340
A665
 90
       50
 40
0.24
 40
0.0
 40
0.24
 71
     3
340
A661
 40
0.24
 90
        1
 40
0.75
 90
        1
300
%<\AcVar ViewType \f "%tc1">% %<\AcVar ViewSectionStartId>%-%<\AcVar ViewSectionEndId>%\PSCALE %<\AcVar ViewScale \f "%sn">%
 71
     4
300
ANSI31
 40
1.0
 90
        0
290
     0
290
     0
 90
        6
 40
0.0
 40
1.570796326794896
 40
0.2617993877991494
 40
1.308996938995747
 40
-0.2617993877991494
 40
1.832595714594046
  0
TABLESTYLE
  5
A956
102
{ACAD_XDICTIONARY
360
A98E
102
}
102
{ACAD_REACTORS
330
A955
102
}
330
A955
100
AcDbTableStyle
  3
Standard
 70
     0
 71
     0
 40
0.06
 41
0.06
280
     0
281
     0
  7
STANDARD
140
0.18
170
     2
 62
     0
 63
     7
283
     0
274
    -2
284
     1
 64
     0
275
    -2
285
     1
 65
     0
276
    -2
286
     1
 66
     0
277
    -2
287
     1
 67
     0
278
    -2
288
     1
 68
     0
279
    -2
289
     1
 69
     0
  7
STANDARD
140
0.25
170
     5
 62
     0
 63
     7
283
     0
274
    -2
284
     1
 64
     0
275
    -2
285
     1
 65
     0
276
    -2
286
     1
 66
     0
277
    -2
287
     1
 67
     0
278
    -2
288
     1
 68
     0
279
    -2
289
     1
 69
     0
  7
STANDARD
140
0.18
170
     5
 62
     0
 63
     7
283
     0
274
    -2
284
     1
 64
     0
275
    -2
285
     1
 65
     0
276
    -2
286
     1
 66
     0
277
    -2
287
     1
 67
     0
278
    -2
288
     1
 68
     0
279
    -2
289
     1
 69
     0
  0
VISUALSTYLE
  5
A941
102
{ACAD_XDICTIONARY
360
A99F
102
}
102
{ACAD_REACTORS
330
A93B
102
}
330
A93B
100
AcDbVisualStyle
  2
2dWireframe
 70
     4
 71
     0
 72
     2
 73
     0
 90
        0
 40
-0.6
 41
-30.0
 62
     5
 63
     7
 74
     1
 91
        4
 64
     7
 65
   257
 75
     1
175
     1
 42
1.0
 92
        0
 66
   257
 43
1.0
 76
     1
 77
     6
 78
     2
 67
     7
 79
     5
170
     0
171
     0
290
     0
174
     0
 93
        1
 44
0.0
173
     0
291
     0
 45
0.0
1001
ACAD
1000
AcDbSavedByObjectVersion
1070
     0
  0
VISUALSTYLE
  5
A940
102
{ACAD_XDICTIONARY
360
A99D
102
}
102
{ACAD_REACTORS
330
A93B
102
}
330
A93B
100
AcDbVisualStyle
  2
Basic
 70
     7
 71
     1
 72
     0
 73
     1
 90
        0
 40
-0.6
 41
-30.0
 62
     5
 63
     7
 74
     0
 91
        4
 64
     7
 65
   257
 75
     1
175
     1
 42
1.0
 92
        8
 66
     7
 43
1.0
 76
     1
 77
     6
 78
     2
 67
     7
 79
     5
170
     0
171
     0
290
     0
174
     0
 93
        1
 44
0.0
173
     0
291
     1
 45
0.0
1001
ACAD
1000
AcDbSavedByObjectVersion
1070
     0
  0
VISUALSTYLE
  5
A947
102
{ACAD_XDICTIONARY
360
A9AB
102
}
102
{ACAD_REACTORS
330
A93B
102
}
330
A93B
100
AcDbVisualStyle
  2
Brighten
 70
    12
 71
     2
 72
     2
 73
     0
 90
        0
 40
-0.6
 41
-30.0
 62
     5
 63
     7
 74
     1
 91
        4
 64
     7
 65
   257
 75
     1
175
     1
 42
1.0
 92
        8
 66
     7
 43
1.0
 76
     1
 77
     6
 78
     2
 67
     7
 79
     5
170
     0
171
     0
290
     0
174
     0
 93
        1
 44
50.0
173
     0
291
     1
 45
0.0
1001
ACAD
1000
AcDbSavedByObjectVersion
1070
     0
  0
VISUALSTYLE
  5
A94B
102
{ACAD_XDICTIONARY
360
A9B3
102
}
102
{ACAD_REACTORS
330
A93B
102
}
330
A93B
100
AcDbVisualStyle
  2
ColorChange
 70
    16
 71
     2
 72
     2
 73
     3
 90
        0
 40
-0.6
 41
-30.0
 62
     5
 63
     8
 74
     1
 91
        4
 64
     7
 65
   257
 75
     1
175
     1
 42
1.0
 92
        8
 66
     8
 43
1.0
 76
     1
 77
     6
 78
     2
 67
     7
 79
     5
170
     0
171
     0
290
     0
174
     0
 93
        1
 44
0.0
173
     0
291
     1
 45
0.0
1001
ACAD
1000
AcDbSavedByObjectVersion
1070
     0
  0
VISUALSTYLE
  5
A944
102
{ACAD_XDICTIONARY
360
A9A5
102
}
102
{ACAD_REACTORS
330
A93B
102
}
330
A93B
100
AcDbVisualStyle
  2
Conceptual
 70
     9
 71
     3
 72
     2
 73
     0
 90
        0
 40
-0.6
 41
-30.0
 62
     5
 63
     7
 74
     2
 91
        2
 64
     7
 65
   257
 75
     1
175
     1
 42
179.0
 92
        8
 66
     7
 43
1.0
 76
     1
 77
     6
 78
     2
 67
     7
 79
     3
170
     0
171
     0
290
     0
174
     0
 93
        1
 44
0.0
173
     0
291
     0
 45
0.0
1001
ACAD
1000
AcDbSavedByObjectVersion
1070
     0
  0
VISUALSTYLE
  5
A946
102
{ACAD_XDICTIONARY
360
A9A9
102
}
102
{ACAD_REACTORS
330
A93B
102
}
330
A93B
100
AcDbVisualStyle
  2
Dim
 70
    11
 71
     2
 72
     2
 73
     0
 90
        0
 40
-0.6
 41
-30.0
 62
     5
 63
     7
 74
     1
 91
        4
 64
     7
 65
   257
 75
     1
175
     1
 42
1.0
 92
        8
 66
     7
 43
1.0
 76
     1
 77
     6
 78
     2
 67
     7
 79
     5
170
     0
171
     0
290
     0
174
     0
 93
        1
 44
-50.0
173
     0
291
     1
 45
0.0
1001
ACAD
1000
AcDbSavedByObjectVersion
1070
     0
  0
VISUALSTYLE
  5
A953
102
{ACAD_XDICTIONARY
360
A9C3
102
}
102
{ACAD_REACTORS
330
A93B
102
}
330
A93B
100
AcDbVisualStyle
  2
EdgeColorOff
 70
    22
 71
     2
 72
     2
 73
     0
 90
        0
 40
-0.6
 41
-30.0
 62
     5
 63
     7
 74
     1
 91
        4
 64
     7
 65
   257
 75
     1
175
     1
 42
1.0
 92
        8
 66
     7
 43
1.0
 76
     1
 77
     6
 78
     2
 67
     7
 79
     5
170
     0
171
     0
290
     0
174
     0
 93
        1
 44
0.0
173
     0
291
     1
 45
0.0
1001
ACAD
1000
AcDbSavedByObjectVersion
1070
     0
  0
VISUALSTYLE
  5
A94A
102
{ACAD_XDICTIONARY
360
A9B1
102
}
102
{ACAD_REACTORS
330
A93B
102
}
330
A93B
100
AcDbVisualStyle
  2
Facepattern
 70
    15
 71
     2
 72
     2
 73
     0
 90
        0
 40
-0.6
 41
-30.0
 62
     5
 63
     7
 74
     1
 91
        4
 64
     7
 65
   257
 75
     1
175
     1
 42
1.0
 92
        8
 66
     7
 43
1.0
 76
     1
 77
     6
 78
     2
 67
     7
 79
     5
170
     0
171
     0
290
     0
174
     0
 93
        1
 44
0.0
173
     0
291
     1
 45
0.0
1001
ACAD
1000
AcDbSavedByObjectVersion
1070
     0
  0
VISUALSTYLE
  5
A93C
102
{ACAD_XDICTIONARY
360
A995
102
}
102
{ACAD_REACTORS
330
A93B
102
}
330
A93B
100
AcDbVisualStyle
  2
Flat
 70
     0
 71
     2
 72
     1
 73
     1
 90
        2
 40
-0.6
 41
30.0
 62
     5
 63
     7
 74
     0
 91
        0
 64
     7
 65
   257
 75
     1
175
     1
 42
1.0
 92
        8
 66
     7
 43
1.0
 76
     1
 77
     6
 78
     2
 67
     7
 79
     5
170
     0
171
     0
290
     0
174
     0
 93
       13
 44
0.0
173
     0
291
     1
 45
0.0
1001
ACAD
1000
AcDbSavedByObjectVersion
1070
     0
  0
VISUALSTYLE
  5
A93D
102
{ACAD_XDICTIONARY
360
A997
102
}
102
{ACAD_REACTORS
330
A93B
102
}
330
A93B
100
AcDbVisualStyle
  2
FlatWithEdges
 70
     1
 71
     2
 72
     1
 73
     1
 90
        2
 40
-0.6
 41
30.0
 62
     5
 63
     7
 74
     1
 91
        0
 64
     7
 65
   257
 75
     1
175
     1
 42
1.0
 92
        0
 66
   257
 43
1.0
 76
     1
 77
     6
 78
     2
 67
     7
 79
     5
170
     0
171
     0
290
     0
174
     0
 93
       13
 44
0.0
173
     0
291
     1
 45
0.0
1001
ACAD
1000
AcDbSavedByObjectVersion
1070
     0
  0
VISUALSTYLE
  5
A93E
102
{ACAD_XDICTIONARY
360
A999
102
}
102
{ACAD_REACTORS
330
A93B
102
}
330
A93B
100
AcDbVisualStyle
  2
Gouraud
 70
     2
 71
     2
 72
     2
 73
     1
 90
        2
 40
-0.6
 41
30.0
 62
     5
 63
     7
 74
     0
 91
        0
 64
     7
 65
   257
 75
     1
175
     1
 42
1.0
 92
        0
 66
     7
 43
1.0
 76
     1
 77
     6
 78
     2
 67
     7
 79
     5
170
     0
171
     0
290
     0
174
     0
 93
       13
 44
0.0
173
     0
291
     1
 45
0.0
1001
ACAD
1000
AcDbSavedByObjectVersion
1070
     0
  0
VISUALSTYLE
  5
A93F
102
{ACAD_XDICTIONARY
360
A99B
102
}
102
{ACAD_REACTORS
330
A93B
102
}
330
A93B
100
AcDbVisualStyle
  2
GouraudWithEdges
 70
     3
 71
     2
 72
     2
 73
     1
 90
        2
 40
-0.6
 41
30.0
 62
     5
 63
     7
 74
     1
 91
        0
 64
     7
 65
   257
 75
     1
175
     1
 42
1.0
 92
        0
 66
   257
 43
1.0
 76
     1
 77
     6
 78
     2
 67
     7
 79
     5
170
     0
171
     0
290
     0
174
     0
 93
       13
 44
0.0
173
     0
291
     1
 45
0.0
1001
ACAD
1000
AcDbSavedByObjectVersion
1070
     0
  0
VISUALSTYLE
  5
A943
102
{ACAD_XDICTIONARY
360
A9A3
102
}
102
{ACAD_REACTORS
330
A93B
102
}
330
A93B
100
AcDbVisualStyle
  2
Hidden
 70
     6
 71
     1
 72
     2
 73
     2
 90
        0
 40
-0.6
 41
-30.0
 62
     5
 63
     7
 74
     2
 91
        2
 64
     7
 65
   257
 75
     2
175
     1
 42
40.0
 92
        0
 66
   257
 43
1.0
 76
     1
 77
     6
 78
     2
 67
     7
 79
     3
170
     0
171
     0
290
     0
174
     0
 93
        1
 44
0.0
173
     0
291
     0
 45
0.0
1001
ACAD
1000
AcDbSavedByObjectVersion
1070
     0
  0
VISUALSTYLE
  5
A951
102
{ACAD_XDICTIONARY
360
A9BF
102
}
102
{ACAD_REACTORS
330
A93B
102
}
330
A93B
100
AcDbVisualStyle
  2
JitterOff
 70
    20
 71
     2
 72
     2
 73
     0
 90
        0
 40
-0.6
 41
-30.0
 62
     5
 63
     7
 74
     1
 91
        4
 64
     7
 65
   257
 75
     1
175
     1
 42
1.0
 92
       10
 66
     7
 43
1.0
 76
     1
 77
     6
 78
     2
 67
     7
 79
     5
170
     0
171
     0
290
     0
174
     0
 93
        1
 44
0.0
173
     0
291
     1
 45
0.0
1001
ACAD
1000
AcDbSavedByObjectVersion
1070
     0
  0
VISUALSTYLE
  5
A949
102
{ACAD_XDICTIONARY
360
A9AF
102
}
102
{ACAD_REACTORS
330
A93B
102
}
330
A93B
100
AcDbVisualStyle
  2
Linepattern
 70
    14
 71
     2
 72
     2
 73
     0
 90
        0
 40
-0.6
 41
-30.0
 62
     5
 63
     7
 74
     1
 91
        4
 64
     7
 65
   257
 75
     7
175
     7
 42
1.0
 92
        8
 66
     7
 43
1.0
 76
     1
 77
     6
 78
     2
 67
     7
 79
     5
170
     0
171
     0
290
     0
174
     0
 93
        1
 44
0.0
173
     0
291
     1
 45
0.0
1001
ACAD
1000
AcDbSavedByObjectVersion
1070
     0
  0
VISUALSTYLE
  5
A952
102
{ACAD_XDICTIONARY
360
A9C1
102
}
102
{ACAD_REACTORS
330
A93B
102
}
330
A93B
100
AcDbVisualStyle
  2
OverhangOff
 70
    21
 71
     2
 72
     2
 73
     0
 90
        0
 40
-0.6
 41
-30.0
 62
     5
 63
     7
 74
     1
 91
        4
 64
     7
 65
   257
 75
     1
175
     1
 42
1.0
 92
        9
 66
     7
 43
1.0
 76
     1
 77
     6
 78
     2
 67
     7
 79
     5
170
     0
171
     0
290
     0
174
     0
 93
        1
 44
0.0
173
     0
291
     1
 45
0.0
1001
ACAD
1000
AcDbSavedByObjectVersion
1070
     0
  0
VISUALSTYLE
  5
A945
102
{ACAD_XDICTIONARY
360
A9A7
102
}
102
{ACAD_REACTORS
330
A93B
102
}
330
A93B
100
AcDbVisualStyle
  2
Realistic
 70
     8
 71
     2
 72
     3
 73
     0
 90
        2
 40
-0.6
 41
30.0
 62
     5
 63
     7
 74
     0
 91
        0
 64
     7
 65
   257
 75
     1
175
     1
 42
1.0
 92
        8
 66
   257
 43
1.0
 76
     1
 77
     6
 78
     2
 67
     7
 79
     3
170
     0
171
     0
290
     0
174
     0
 93
       13
 44
0.0
173
     0
291
     0
 45
0.0
1001
ACAD
1000
AcDbSavedByObjectVersion
1070
     0
  0
VISUALSTYLE
  5
A950
102
{ACAD_XDICTIONARY
360
A9BD
102
}
102
{ACAD_REACTORS
330
A93B
102
}
330
A93B
100
AcDbVisualStyle
  2
Shaded
 70
    27
 71
     2
 72
     2
 73
     1
 90
        2
 40
-0.6
 41
30.0
 62
     5
 63
     7
 74
     0
 91
        4
 64
     7
 65
   257
 75
     1
175
     1
 42
1.0
 92
        8
 66
   257
 43
1.0
 76
     1
 77
     6
 78
     2
 67
     8
 79
     3
170
     0
171
     0
290
     0
174
     0
 93
        5
 44
0.0
173
     0
291
     0
 45
0.0
1001
ACAD
1000
AcDbSavedByObjectVersion
1070
     0
  0
VISUALSTYLE
  5
A94F
102
{ACAD_XDICTIONARY
360
A9BB
102
}
102
{ACAD_REACTORS
330
A93B
102
}
330
A93B
100
AcDbVisualStyle
  2
Shaded with edges
 70
    26
 71
     2
 72
     2
 73
     1
 90
        2
 40
-0.6
 41
30.0
 62
     5
 63
     7
 74
     1
 91
       10
 64
     7
 65
   257
 75
     2
175
     1
 42
1.0
 92
        8
 66
   257
 43
1.0
 76
     1
 77
     6
 78
     2
 67
     7
 79
     3
170
     0
171
     0
290
     0
174
     0
 93
        5
 44
0.0
173
     0
291
     0
 45
0.0
1001
ACAD
1000
AcDbSavedByObjectVersion
1070
     0
  0
VISUALSTYLE
  5
A94C
102
{ACAD_XDICTIONARY
360
A9B5
102
}
102
{ACAD_REACTORS
330
A93B
102
}
330
A93B
100
AcDbVisualStyle
  2
Shades of Gray
 70
    23
 71
     2
 72
     2
 73
     3
 90
        0
 40
-0.6
 41
-30.0
 62
     5
 63
     7
 74
     2
 91
        2
 64
     7
 65
     7
 75
     1
175
     1
 42
40.0
 92
        8
 66
     7
 43
1.0
 76
     1
 77
     6
 78
     2
 67
     7
 79
     3
170
     0
171
     0
290
     0
174
     0
 93
        1
 44
0.0
173
     0
291
     0
 45
0.0
1001
ACAD
1000
AcDbSavedByObjectVersion
1070
     0
  0
VISUALSTYLE
  5
A94D
102
{ACAD_XDICTIONARY
360
A9B7
102
}
102
{ACAD_REACTORS
330
A93B
102
}
330
A93B
100
AcDbVisualStyle
  2
Sketchy
 70
    24
 71
     1
 72
     2
 73
     2
 90
        0
 40
-0.6
 41
-30.0
 62
     5
 63
     7
 74
     2
 91
        2
 64
     7
 65
     7
 75
     1
175
     1
 42
40.0
 92
       11
 66
     7
 43
1.0
 76
     1
 77
     6
 78
     2
 67
     7
 79
     6
170
     0
171
     0
290
     0
174
     0
 93
        1
 44
0.0
173
     0
291
     0
 45
0.0
1001
ACAD
1000
AcDbSavedByObjectVersion
1070
     0
  0
VISUALSTYLE
  5
A948
102
{ACAD_XDICTIONARY
360
A9AD
102
}
102
{ACAD_REACTORS
330
A93B
102
}
330
A93B
100
AcDbVisualStyle
  2
Thicken
 70
    13
 71
     2
 72
     2
 73
     0
 90
        0
 40
-0.6
 41
-30.0
 62
     5
 63
     7
 74
     1
 91
        4
 64
     7
 65
   257
 75
     1
175
     1
 42
1.0
 92
       12
 66
     7
 43
1.0
 76
     1
 77
     6
 78
     2
 67
     7
 79
     5
170
     0
171
     0
290
     0
174
     0
 93
        1
 44
0.0
173
     0
291
     1
 45
0.0
1001
ACAD
1000
AcDbSavedByObjectVersion
1070
     0
  0
VISUALSTYLE
  5
A942
102
{ACAD_XDICTIONARY
360
A9A1
102
}
102
{ACAD_REACTORS
330
A93B
102
}
330
A93B
100
AcDbVisualStyle
  2
Wireframe
 70
     5
 71
     0
 72
     2
 73
     0
 90
        0
 40
-0.6
 41
-30.0
 62
     5
 63
     7
 74
     1
 91
        4
 64
     7
 65
   257
 75
     1
175
     1
 42
1.0
 92
        0
 66
   257
 43
1.0
 76
     1
 77
     6
 78
     2
 67
     7
 79
     3
170
     0
171
     0
290
     0
174
     0
 93
        1
 44
0.0
173
     0
291
     0
 45
0.0
1001
ACAD
1000
AcDbSavedByObjectVersion
1070
     0
  0
VISUALSTYLE
  5
A94E
102
{ACAD_XDICTIONARY
360
A9B9
102
}
102
{ACAD_REACTORS
330
A93B
102
}
330
A93B
100
AcDbVisualStyle
  2
X-Ray
 70
    25
 71
     2
 72
     2
 73
     1
 90
        1
 40
0.5
 41
-30.0
 62
     5
 63
     7
 74
     1
 91
        0
 64
     7
 65
   257
 75
     1
175
     1
 42
1.0
 92
        8
 66
     7
 43
1.0
 76
     1
 77
     6
 78
     2
 67
     7
 79
     3
170
     0
171
     0
290
     0
174
     0
 93
       13
 44
0.0
173
     0
291
     0
 45
0.0
1001
ACAD
1000
AcDbSavedByObjectVersion
1070
     0
  0
DICTIONARYVAR
  5
A988
102
{ACAD_REACTORS
330
A983
102
}
330
A983
100
DictionaryVariables
280
     0
  1
1:1
  0
DICTIONARYVAR
  5
A985
102
{ACAD_REACTORS
330
A983
102
}
330
A983
100
DictionaryVariables
280
     0
  1
STANDARD
  0
DICTIONARYVAR
  5
A984
102
{ACAD_REACTORS
330
A983
102
}
330
A983
100
DictionaryVariables
280
     0
  1
STANDARD
  0
DICTIONARYVAR
  5
A986
102
{ACAD_REACTORS
330
A983
102
}
330
A983
100
DictionaryVariables
280
     0
  1
Imperial24
  0
DICTIONARYVAR
  5
A987
102
{ACAD_REACTORS
330
A983
102
}
330
A983
100
DictionaryVariables
280
     0
  1
Imperial24
  0
DICTIONARYVAR
  5
A98B
102
{ACAD_REACTORS
330
A983
102
}
330
A983
100
DictionaryVariables
280
     0
  1
1
  0
DICTIONARYVAR
  5
A98A
102
{ACAD_REACTORS
330
A983
102
}
330
A983
100
DictionaryVariables
280
     0
  1
0
  0
DICTIONARYVAR
  5
A989
102
{ACAD_REACTORS
330
A983
102
}
330
A983
100
DictionaryVariables
280
     0
  1
127
  0
DICTIONARYVAR
  5
A98C
102
{ACAD_REACTORS
330
A983
102
}
330
A983
100
DictionaryVariables
280
     0
  1
2
  0
DICTIONARY
  5
A9C9
330
A96E
100
AcDbDictionary
280
     1
281
     1
  3
ACAD_XREC_ROUNDTRIP
360
A9CA
  0
DICTIONARY
  5
A9CB
330
A96F
100
AcDbDictionary
280
     1
281
     1
  3
ACAD_XREC_ROUNDTRIP
360
A9CC
  0
DICTIONARY
  5
A9CD
330
A970
100
AcDbDictionary
280
     1
281
     1
  3
ACAD_XREC_ROUNDTRIP
360
A9CE
  0
DICTIONARY
  5
A92C
330
A92B
100
AcDbDictionary
280
     1
281
     1
  3
ACAD_XREC_ROUNDTRIP
360
A993
  3
BUMPTILE
360
A92E
  3
DIFFUSETILE
360
A92D
  3
OPACITYTILE
360
A931
  3
REFLECTIONTILE
360
A930
  3
REFRACTIONTILE
360
A932
  3
SPECULARTILE
360
A92F
  0
DICTIONARY
  5
A924
330
A923
100
AcDbDictionary
280
     1
281
     1
  3
ACAD_XREC_ROUNDTRIP
360
A992
  3
BUMPTILE
360
A926
  3
DIFFUSETILE
360
A925
  3
OPACITYTILE
360
A929
  3
REFLECTIONTILE
360
A928
  3
REFRACTIONTILE
360
A92A
  3
SPECULARTILE
360
A927
  0
DICTIONARY
  5
A934
330
A933
100
AcDbDictionary
280
     1
281
     1
  3
ACAD_XREC_ROUNDTRIP
360
A994
  3
BUMPTILE
360
A936
  3
DIFFUSETILE
360
A935
  3
OPACITYTILE
360
A939
  3
REFLECTIONTILE
360
A938
  3
REFRACTIONTILE
360
A93A
  3
SPECULARTILE
360
A937
  0
DICTIONARY
  5
A9C7
330
A96C
100
AcDbDictionary
280
     1
281
     1
  3
ACAD_XREC_ROUNDTRIP
360
A9C8
  0
DICTIONARY
  5
A98E
330
A956
100
AcDbDictionary
280
     1
281
     1
  3
ACAD_ROUNDTRIP_2008_TABLESTYLE_CELLSTYLEMAP
360
A98F
  3
ACAD_XREC_ROUNDTRIP
360
A9C5
  0
DICTIONARY
  5
A99F
330
A941
100
AcDbDictionary
280
     1
281
     1
  3
ACAD_XREC_ROUNDTRIP
360
A9A0
  0
DICTIONARY
  5
A99D
330
A940
100
AcDbDictionary
280
     1
281
     1
  3
ACAD_XREC_ROUNDTRIP
360
A99E
  0
DICTIONARY
  5
A9AB
330
A947
100
AcDbDictionary
280
     1
281
     1
  3
ACAD_XREC_ROUNDTRIP
360
A9AC
  0
DICTIONARY
  5
A9B3
330
A94B
100
AcDbDictionary
280
     1
281
     1
  3
ACAD_XREC_ROUNDTRIP
360
A9B4
  0
DICTIONARY
  5
A9A5
330
A944
100
AcDbDictionary
280
     1
281
     1
  3
ACAD_XREC_ROUNDTRIP
360
A9A6
  0
DICTIONARY
  5
A9A9
330
A946
100
AcDbDictionary
280
     1
281
     1
  3
ACAD_XREC_ROUNDTRIP
360
A9AA
  0
DICTIONARY
  5
A9C3
330
A953
100
AcDbDictionary
280
     1
281
     1
  3
ACAD_XREC_ROUNDTRIP
360
A9C4
  0
DICTIONARY
  5
A9B1
330
A94A
100
AcDbDictionary
280
     1
281
     1
  3
ACAD_XREC_ROUNDTRIP
360
A9B2
  0
DICTIONARY
  5
A995
330
A93C
100
AcDbDictionary
280
     1
281
     1
  3
ACAD_XREC_ROUNDTRIP
360
A996
  0
DICTIONARY
  5
A997
330
A93D
100
AcDbDictionary
280
     1
281
     1
  3
ACAD_XREC_ROUNDTRIP
360
A998
  0
DICTIONARY
  5
A999
330
A93E
100
AcDbDictionary
280
     1
281
     1
  3
ACAD_XREC_ROUNDTRIP
360
A99A
  0
DICTIONARY
  5
A99B
330
A93F
100
AcDbDictionary
280
     1
281
     1
  3
ACAD_XREC_ROUNDTRIP
360
A99C
  0
DICTIONARY
  5
A9A3
330
A943
100
AcDbDictionary
280
     1
281
     1
  3
ACAD_XREC_ROUNDTRIP
360
A9A4
  0
DICTIONARY
  5
A9BF
330
A951
100
AcDbDictionary
280
     1
281
     1
  3
ACAD_XREC_ROUNDTRIP
360
A9C0
  0
DICTIONARY
  5
A9AF
330
A949
100
AcDbDictionary
280
     1
281
     1
  3
ACAD_XREC_ROUNDTRIP
360
A9B0
  0
DICTIONARY
  5
A9C1
330
A952
100
AcDbDictionary
280
     1
281
     1
  3
ACAD_XREC_ROUNDTRIP
360
A9C2
  0
DICTIONARY
  5
A9A7
330
A945
100
AcDbDictionary
280
     1
281
     1
  3
ACAD_XREC_ROUNDTRIP
360
A9A8
  0
DICTIONARY
  5
A9BD
330
A950
100
AcDbDictionary
280
     1
281
     1
  3
ACAD_XREC_ROUNDTRIP
360
A9BE
  0
DICTIONARY
  5
A9BB
330
A94F
100
AcDbDictionary
280
     1
281
     1
  3
ACAD_XREC_ROUNDTRIP
360
A9BC
  0
DICTIONARY
  5
A9B5
330
A94C
100
AcDbDictionary
280
     1
281
     1
  3
ACAD_XREC_ROUNDTRIP
360
A9B6
  0
DICTIONARY
  5
A9B7
330
A94D
100
AcDbDictionary
280
     1
281
     1
  3
ACAD_XREC_ROUNDTRIP
360
A9B8
  0
DICTIONARY
  5
A9AD
330
A948
100
AcDbDictionary
280
     1
281
     1
  3
ACAD_XREC_ROUNDTRIP
360
A9AE
  0
DICTIONARY
  5
A9A1
330
A942
100
AcDbDictionary
280
     1
281
     1
  3
ACAD_XREC_ROUNDTRIP
360
A9A2
  0
DICTIONARY
  5
A9B9
330
A94E
100
AcDbDictionary
280
     1
281
     1
  3
ACAD_XREC_ROUNDTRIP
360
A9BA
  0
XRECORD
  5
A9CA
102
{ACAD_REACTORS
330
A9C9
102
}
330
A9C9
100
AcDbXrecord
280
     1
102
DISPLAYNAME
  1
Imperial24
102
FLAGS
 90
        0
  0
XRECORD
  5
A9CC
102
{ACAD_REACTORS
330
A9CB
102
}
330
A9CB
100
AcDbXrecord
280
     1
102
SHADEPLOT
 70
     0
102
SHADEPLOTRESLEVEL
 70
     2
102
SHADEPLOTCUSTOMDPI
 70
   300
  0
XRECORD
  5
A9CE
102
{ACAD_REACTORS
330
A9CD
102
}
330
A9CD
100
AcDbXrecord
280
     1
102
SHADEPLOT
 70
     0
102
SHADEPLOTRESLEVEL
 70
     2
102
SHADEPLOTCUSTOMDPI
 70
   300
  0
XRECORD
  5
A993
102
{ACAD_REACTORS
330
A92C
102
}
330
A92C
100
AcDbXrecord
280
     1
102
MATERIAL
148
0.0
149
0.0
149
0.0
 93
        0
 94
      127
282
     0
 72
     0
 77
     0
171
     0
175
     0
179
     0
273
     0
  0
XRECORD
  5
A92E
102
{ACAD_REACTORS
330
A92C
102
}
330
A92C
100
AcDbXrecord
280
     1
270
     1
271
     1
  0
XRECORD
  5
A92D
102
{ACAD_REACTORS
330
A92C
102
}
330
A92C
100
AcDbXrecord
280
     1
270
     1
271
     1
  0
XRECORD
  5
A931
102
{ACAD_REACTORS
330
A92C
102
}
330
A92C
100
AcDbXrecord
280
     1
270
     1
271
     1
  0
XRECORD
  5
A930
102
{ACAD_REACTORS
330
A92C
102
}
330
A92C
100
AcDbXrecord
280
     1
270
     1
271
     1
  0
XRECORD
  5
A932
102
{ACAD_REACTORS
330
A92C
102
}
330
A92C
100
AcDbXrecord
280
     1
270
     1
271
     1
  0
XRECORD
  5
A92F
102
{ACAD_REACTORS
330
A92C
102
}
330
A92C
100
AcDbXrecord
280
     1
270
     1
271
     1
  0
XRECORD
  5
A992
102
{ACAD_REACTORS
330
A924
102
}
330
A924
100
AcDbXrecord
280
     1
102
MATERIAL
148
0.0
149
0.0
149
0.0
 93
        0
 94
      127
282
     0
 72
     0
 77
     0
171
     0
175
     0
179
     0
273
     0
  0
XRECORD
  5
A926
102
{ACAD_REACTORS
330
A924
102
}
330
A924
100
AcDbXrecord
280
     1
270
     1
271
     1
  0
XRECORD
  5
A925
102
{ACAD_REACTORS
330
A924
102
}
330
A924
100
AcDbXrecord
280
     1
270
     1
271
     1
  0
XRECORD
  5
A929
102
{ACAD_REACTORS
330
A924
102
}
330
A924
100
AcDbXrecord
280
     1
270
     1
271
     1
  0
XRECORD
  5
A928
102
{ACAD_REACTORS
330
A924
102
}
330
A924
100
AcDbXrecord
280
     1
270
     1
271
     1
  0
XRECORD
  5
A92A
102
{ACAD_REACTORS
330
A924
102
}
330
A924
100
AcDbXrecord
280
     1
270
     1
271
     1
  0
XRECORD
  5
A927
102
{ACAD_REACTORS
330
A924
102
}
330
A924
100
AcDbXrecord
280
     1
270
     1
271
     1
  0
XRECORD
  5
A994
102
{ACAD_REACTORS
330
A934
102
}
330
A934
100
AcDbXrecord
280
     1
102
MATERIAL
148
0.0
149
0.0
149
0.0
 93
        0
 94
      127
282
     0
 72
     0
 77
     0
171
     0
175
     0
179
     0
273
     0
  0
XRECORD
  5
A936
102
{ACAD_REACTORS
330
A934
102
}
330
A934
100
AcDbXrecord
280
     1
270
     1
271
     1
  0
XRECORD
  5
A935
102
{ACAD_REACTORS
330
A934
102
}
330
A934
100
AcDbXrecord
280
     1
270
     1
271
     1
  0
XRECORD
  5
A939
102
{ACAD_REACTORS
330
A934
102
}
330
A934
100
AcDbXrecord
280
     1
270
     1
271
     1
  0
XRECORD
  5
A938
102
{ACAD_REACTORS
330
A934
102
}
330
A934
100
AcDbXrecord
280
     1
270
     1
271
     1
  0
XRECORD
  5
A93A
102
{ACAD_REACTORS
330
A934
102
}
330
A934
100
AcDbXrecord
280
     1
270
     1
271
     1
  0
XRECORD
  5
A937
102
{ACAD_REACTORS
330
A934
102
}
330
A934
100
AcDbXrecord
280
     1
270
     1
271
     1
  0
XRECORD
  5
A9C8
102
{ACAD_REACTORS
330
A9C7
102
}
330
A9C7
100
AcDbXrecord
280
     1
102
DISPLAYNAME
  1
Imperial24
102
FLAGS
 90
        0
  0
CELLSTYLEMAP
  5
A98F
102
{ACAD_REACTORS
330
A98E
102
}
330
A98E
100
AcDbCellStyleMap
 90
        3
300
CELLSTYLE
  1
TABLEFORMAT_BEGIN
 90
        5
170
     1
 91
        0
 92
    32768
 62
   257
 93
        1
300
CONTENTFORMAT
  1
CONTENTFORMAT_BEGIN
 90
        0
 91
        0
 92
      512
 93
        0
300

 40
0.0
140
1.0
 94
        5
 62
     0
340
A661
144
0.25
309
CONTENTFORMAT_END
171
     0
 94
        0
309
TABLEFORMAT_END
  1
CELLSTYLE_BEGIN
 90
        1
 91
        1
300
_TITLE
309
CELLSTYLE_END
300
CELLSTYLE
  1
TABLEFORMAT_BEGIN
 90
        5
170
     1
 91
        0
 92
        0
 62
   257
 93
        1
300
CONTENTFORMAT
  1
CONTENTFORMAT_BEGIN
 90
        0
 91
        0
 92
      512
 93
        0
300

 40
0.0
140
1.0
 94
        5
 62
     0
340
A661
144
0.18
309
CONTENTFORMAT_END
171
     0
 94
        0
309
TABLEFORMAT_END
  1
CELLSTYLE_BEGIN
 90
        2
 91
        1
300
_HEADER
309
CELLSTYLE_END
300
CELLSTYLE
  1
TABLEFORMAT_BEGIN
 90
        5
170
     1
 91
        0
 92
        0
 62
   257
 93
        1
300
CONTENTFORMAT
  1
CONTENTFORMAT_BEGIN
 90
        0
 91
        0
 92
      512
 93
        0
300

 40
0.0
140
1.0
 94
        2
 62
     0
340
A661
144
0.18
309
CONTENTFORMAT_END
171
     0
 94
        0
309
TABLEFORMAT_END
  1
CELLSTYLE_BEGIN
 90
        3
 91
        2
300
_DATA
309
CELLSTYLE_END
  0
XRECORD
  5
A9C5
102
{ACAD_REACTORS
330
A98E
102
}
330
A98E
100
AcDbXrecord
280
     1
102
ACAD_ROUNDTRIP_PRE2007_TABLESTYLE
 90
      512
 91
        0
  1

 92
      512
 93
        0
  2

 94
      512
 95
        0
  3

  0
XRECORD
  5
A9A0
102
{ACAD_REACTORS
330
A99F
102
}
330
A99F
100
AcDbXrecord
280
     1
102
RTVSPost2010Prop28
280
     1
102
RTVSPost2010PropOp28
 70
     1
102
RTVSPost2010Prop29
280
     1
102
RTVSPost2010PropOp29
 70
     1
102
RTVSPost2010Prop30
280
     0
102
RTVSPost2010PropOp30
 70
     1
102
RTVSPost2010Prop31
280
     0
102
RTVSPost2010PropOp31
 70
     1
102
RTVSPost2010Prop32
280
     0
102
RTVSPost2010PropOp32
 70
     1
102
RTVSPost2010Prop33
280
     0
102
RTVSPost2010PropOp33
 70
     1
102
RTVSPost2010Prop34
280
     0
102
RTVSPost2010PropOp34
 70
     1
102
RTVSPost2010Prop35
280
     0
102
RTVSPost2010PropOp35
 70
     1
102
RTVSPost2010Prop36
280
     0
102
RTVSPost2010PropOp36
 70
     1
102
RTVSPost2010Prop37
 90
       50
102
RTVSPost2010PropOp37
 70
     1
102
RTVSPost2010Prop38
140
0.0
102
RTVSPost2010PropOp38
 70
     1
102
RTVSPost2010Prop39
140
1.0
102
RTVSPost2010PropOp39
 70
     1
102
RTVSPost2010Prop40
 90
        0
102
RTVSPost2010PropOp40
 70
     1
102
RTVSPost2010Prop41ColorIndex
 90
       18
102
RTVSPost2010Prop41ColorRGB
 90
        0
102
RTVSPost2010PropOp41
 70
     1
102
RTVSPost2010Prop42
 90
       50
102
RTVSPost2010PropOp42
 70
     1
102
RTVSPost2010Prop43
 90
        3
102
RTVSPost2010PropOp43
 70
     1
102
RTVSPost2010Prop44ColorIndex
 90
        5
102
RTVSPost2010Prop44ColorRGB
 90
      255
102
RTVSPost2010PropOp44
 70
     1
102
RTVSPost2010Prop45
280
     0
102
RTVSPost2010PropOp45
 70
     1
102
RTVSPost2010Prop46
 90
       50
102
RTVSPost2010PropOp46
 70
     1
102
RTVSPost2010Prop47
 90
       50
102
RTVSPost2010PropOp47
 70
     1
102
RTVSPost2010Prop48
 90
       50
102
RTVSPost2010PropOp48
 70
     1
102
RTVSPost2010Prop49
280
     0
102
RTVSPost2010PropOp49
 70
     1
102
RTVSPost2010Prop50
 90
       50
102
RTVSPost2010PropOp50
 70
     1
102
RTVSPost2010Prop51ColorIndex
 90
      256
102
RTVSPost2010Prop51ColorRGB
 90
-16777216
102
RTVSPost2010PropOp51
 70
     0
102
RTVSPost2010Prop52
140
1.0
102
RTVSPost2010PropOp52
 70
     0
102
RTVSPost2010Prop53
 90
        2
102
RTVSPost2010PropOp53
 70
     1
102
RTVSPost2010Prop54
  1
strokes_ogs.tif
102
RTVSPost2010PropOp54
 70
     1
102
RTVSPost2010Prop55
280
     0
102
RTVSPost2010PropOp55
 70
     1
102
RTVSPost2010Prop56
140
1.0
102
RTVSPost2010PropOp56
 70
     1
102
RTVSPost2010Prop57
140
1.0
102
RTVSPost2010PropOp57
 70
     1
102
RTVSPropertyOp0
 70
     1
102
RTVSPropertyOp1
 70
     1
102
RTVSPropertyOp2
 70
     1
102
RTVSPropertyOp3
 70
     1
102
RTVSPropertyOp4
 70
     1
102
RTVSPropertyOp5
 70
     1
102
RTVSPropertyOp6
 70
     1
102
RTVSPropertyOp7
 70
     1
102
RTVSPropertyOp8
 70
     1
102
RTVSPropertyOp9
 70
     1
102
RTVSPropertyOp10
 70
     1
102
RTVSPropertyOp11
 70
     1
102
RTVSPropertyOp12
 70
     1
102
RTVSPropertyOp13
 70
     1
102
RTVSPropertyOp14
 70
     1
102
RTVSPropertyOp15
 70
     1
102
RTVSPropertyOp16
 70
     1
102
RTVSPropertyOp17
 70
     1
102
RTVSPropertyOp18
 70
     1
102
RTVSPropertyOp19
 70
     1
102
RTVSPropertyOp20
 70
     1
102
RTVSPropertyOp21
 70
     1
102
RTVSPropertyOp22
 70
     1
102
RTVSPropertyOp23
 70
     1
102
RTVSPropertyOp24
 70
     1
102
RTVSPropertyOp25
 70
     1
102
RTVSPropertyOp26
 70
     1
102
RTVSPropertyOp27
 70
     1
102
RTVSPropertyOp28
 70
     1
102
RTVSPropertyOp29
 70
     1
102
RTVSPropertyOp30
 70
     1
102
RTVSPropertyOp31
 70
     1
102
RTVSPropertyOp32
 70
     1
102
RTVSPropertyOp33
 70
     1
102
RTVSPropertyOp34
 70
     1
102
RTVSPropertyOp35
 70
     1
102
RTVSPropertyOp36
 70
     1
102
RTVSPropertyOp37
 70
     1
102
RTVSPropertyOp38
 70
     1
102
RTVSPropertyOp39
 70
     1
102
RTVSPropertyOp40
 70
     1
102
RTVSPropertyOp41
 70
     1
102
RTVSPropertyOp42
 70
     1
102
RTVSPropertyOp43
 70
     1
102
RTVSPropertyOp44
 70
     1
102
RTVSPropertyOp45
 70
     1
102
RTVSPropertyOp46
 70
     1
102
RTVSPropertyOp47
 70
     1
102
RTVSPropertyOp48
 70
     1
102
RTVSPropertyOp49
 70
     1
102
RTVSPropertyOp50
 70
     1
102
RTVSPropertyOp51
 70
     0
102
RTVSPropertyOp52
 70
     0
102
RTVSPropertyOp53
 70
     1
102
RTVSPropertyOp54
 70
     1
102
RTVSPropertyOp55
 70
     1
102
RTVSPropertyOp56
 70
     1
102
RTVSPropertyOp57
 70
     1
102
RTVSPropertyOp58
 70
     1
102
RTVSPropertyOp59
 70
     1
102
RTVSPropertyOp60
 70
     1
102
RTVSPropertyOp61
 70
     1
102
RTVSPropertyOp62
 70
     1
  0
XRECORD
  5
A99E
102
{ACAD_REACTORS
330
A99D
102
}
330
A99D
100
AcDbXrecord
280
     1
102
RTVSPost2010Prop28
280
     0
102
RTVSPost2010PropOp28
 70
     1
102
RTVSPost2010Prop29
280
     1
102
RTVSPost2010PropOp29
 70
     1
102
RTVSPost2010Prop30
280
     1
102
RTVSPost2010PropOp30
 70
     1
102
RTVSPost2010Prop31
280
     0
102
RTVSPost2010PropOp31
 70
     1
102
RTVSPost2010Prop32
280
     0
102
RTVSPost2010PropOp32
 70
     1
102
RTVSPost2010Prop33
280
     0
102
RTVSPost2010PropOp33
 70
     1
102
RTVSPost2010Prop34
280
     0
102
RTVSPost2010PropOp34
 70
     1
102
RTVSPost2010Prop35
280
     0
102
RTVSPost2010PropOp35
 70
     1
102
RTVSPost2010Prop36
280
     0
102
RTVSPost2010PropOp36
 70
     1
102
RTVSPost2010Prop37
 90
       50
102
RTVSPost2010PropOp37
 70
     1
102
RTVSPost2010Prop38
140
0.0
102
RTVSPost2010PropOp38
 70
     1
102
RTVSPost2010Prop39
140
1.0
102
RTVSPost2010PropOp39
 70
     1
102
RTVSPost2010Prop40
 90
        0
102
RTVSPost2010PropOp40
 70
     1
102
RTVSPost2010Prop41ColorIndex
 90
       18
102
RTVSPost2010Prop41ColorRGB
 90
        0
102
RTVSPost2010PropOp41
 70
     1
102
RTVSPost2010Prop42
 90
       50
102
RTVSPost2010PropOp42
 70
     1
102
RTVSPost2010Prop43
 90
        3
102
RTVSPost2010PropOp43
 70
     1
102
RTVSPost2010Prop44ColorIndex
 90
        5
102
RTVSPost2010Prop44ColorRGB
 90
      255
102
RTVSPost2010PropOp44
 70
     1
102
RTVSPost2010Prop45
280
     0
102
RTVSPost2010PropOp45
 70
     1
102
RTVSPost2010Prop46
 90
       50
102
RTVSPost2010PropOp46
 70
     1
102
RTVSPost2010Prop47
 90
       50
102
RTVSPost2010PropOp47
 70
     1
102
RTVSPost2010Prop48
 90
       50
102
RTVSPost2010PropOp48
 70
     1
102
RTVSPost2010Prop49
280
     0
102
RTVSPost2010PropOp49
 70
     1
102
RTVSPost2010Prop50
 90
       50
102
RTVSPost2010PropOp50
 70
     1
102
RTVSPost2010Prop51ColorIndex
 90
      256
102
RTVSPost2010Prop51ColorRGB
 90
-16777216
102
RTVSPost2010PropOp51
 70
     0
102
RTVSPost2010Prop52
140
1.0
102
RTVSPost2010PropOp52
 70
     0
102
RTVSPost2010Prop53
 90
        2
102
RTVSPost2010PropOp53
 70
     1
102
RTVSPost2010Prop54
  1
strokes_ogs.tif
102
RTVSPost2010PropOp54
 70
     1
102
RTVSPost2010Prop55
280
     0
102
RTVSPost2010PropOp55
 70
     1
102
RTVSPost2010Prop56
140
1.0
102
RTVSPost2010PropOp56
 70
     1
102
RTVSPost2010Prop57
140
1.0
102
RTVSPost2010PropOp57
 70
     1
102
RTVSPropertyOp0
 70
     1
102
RTVSPropertyOp1
 70
     1
102
RTVSPropertyOp2
 70
     1
102
RTVSPropertyOp3
 70
     1
102
RTVSPropertyOp4
 70
     1
102
RTVSPropertyOp5
 70
     1
102
RTVSPropertyOp6
 70
     1
102
RTVSPropertyOp7
 70
     1
102
RTVSPropertyOp8
 70
     1
102
RTVSPropertyOp9
 70
     1
102
RTVSPropertyOp10
 70
     1
102
RTVSPropertyOp11
 70
     1
102
RTVSPropertyOp12
 70
     1
102
RTVSPropertyOp13
 70
     1
102
RTVSPropertyOp14
 70
     1
102
RTVSPropertyOp15
 70
     1
102
RTVSPropertyOp16
 70
     1
102
RTVSPropertyOp17
 70
     1
102
RTVSPropertyOp18
 70
     1
102
RTVSPropertyOp19
 70
     1
102
RTVSPropertyOp20
 70
     1
102
RTVSPropertyOp21
 70
     1
102
RTVSPropertyOp22
 70
     1
102
RTVSPropertyOp23
 70
     1
102
RTVSPropertyOp24
 70
     1
102
RTVSPropertyOp25
 70
     1
102
RTVSPropertyOp26
 70
     1
102
RTVSPropertyOp27
 70
     1
102
RTVSPropertyOp28
 70
     1
102
RTVSPropertyOp29
 70
     1
102
RTVSPropertyOp30
 70
     1
102
RTVSPropertyOp31
 70
     1
102
RTVSPropertyOp32
 70
     1
102
RTVSPropertyOp33
 70
     1
102
RTVSPropertyOp34
 70
     1
102
RTVSPropertyOp35
 70
     1
102
RTVSPropertyOp36
 70
     1
102
RTVSPropertyOp37
 70
     1
102
RTVSPropertyOp38
 70
     1
102
RTVSPropertyOp39
 70
     1
102
RTVSPropertyOp40
 70
     1
102
RTVSPropertyOp41
 70
     1
102
RTVSPropertyOp42
 70
     1
102
RTVSPropertyOp43
 70
     1
102
RTVSPropertyOp44
 70
     1
102
RTVSPropertyOp45
 70
     1
102
RTVSPropertyOp46
 70
     1
102
RTVSPropertyOp47
 70
     1
102
RTVSPropertyOp48
 70
     1
102
RTVSPropertyOp49
 70
     1
102
RTVSPropertyOp50
 70
     1
102
RTVSPropertyOp51
 70
     0
102
RTVSPropertyOp52
 70
     0
102
RTVSPropertyOp53
 70
     1
102
RTVSPropertyOp54
 70
     1
102
RTVSPropertyOp55
 70
     1
102
RTVSPropertyOp56
 70
     1
102
RTVSPropertyOp57
 70
     1
102
RTVSPropertyOp58
 70
     1
102
RTVSPropertyOp59
 70
     1
102
RTVSPropertyOp60
 70
     1
102
RTVSPropertyOp61
 70
     1
102
RTVSPropertyOp62
 70
     1
  0
XRECORD
  5
A9AC
102
{ACAD_REACTORS
330
A9AB
102
}
330
A9AB
100
AcDbXrecord
280
     1
102
RTVSPost2010Prop28
280
     0
102
RTVSPost2010PropOp28
 70
     1
102
RTVSPost2010Prop29
280
     1
102
RTVSPost2010PropOp29
 70
     1
102
RTVSPost2010Prop30
280
     1
102
RTVSPost2010PropOp30
 70
     1
102
RTVSPost2010Prop31
280
     0
102
RTVSPost2010PropOp31
 70
     1
102
RTVSPost2010Prop32
280
     0
102
RTVSPost2010PropOp32
 70
     1
102
RTVSPost2010Prop33
280
     0
102
RTVSPost2010PropOp33
 70
     1
102
RTVSPost2010Prop34
280
     0
102
RTVSPost2010PropOp34
 70
     1
102
RTVSPost2010Prop35
280
     0
102
RTVSPost2010PropOp35
 70
     1
102
RTVSPost2010Prop36
280
     0
102
RTVSPost2010PropOp36
 70
     1
102
RTVSPost2010Prop37
 90
       50
102
RTVSPost2010PropOp37
 70
     1
102
RTVSPost2010Prop38
140
0.0
102
RTVSPost2010PropOp38
 70
     1
102
RTVSPost2010Prop39
140
1.0
102
RTVSPost2010PropOp39
 70
     1
102
RTVSPost2010Prop40
 90
        0
102
RTVSPost2010PropOp40
 70
     1
102
RTVSPost2010Prop41ColorIndex
 90
       18
102
RTVSPost2010Prop41ColorRGB
 90
        0
102
RTVSPost2010PropOp41
 70
     1
102
RTVSPost2010Prop42
 90
       50
102
RTVSPost2010PropOp42
 70
     1
102
RTVSPost2010Prop43
 90
        3
102
RTVSPost2010PropOp43
 70
     1
102
RTVSPost2010Prop44ColorIndex
 90
        5
102
RTVSPost2010Prop44ColorRGB
 90
      255
102
RTVSPost2010PropOp44
 70
     1
102
RTVSPost2010Prop45
280
     0
102
RTVSPost2010PropOp45
 70
     1
102
RTVSPost2010Prop46
 90
       50
102
RTVSPost2010PropOp46
 70
     1
102
RTVSPost2010Prop47
 90
       50
102
RTVSPost2010PropOp47
 70
     1
102
RTVSPost2010Prop48
 90
       50
102
RTVSPost2010PropOp48
 70
     1
102
RTVSPost2010Prop49
280
     0
102
RTVSPost2010PropOp49
 70
     1
102
RTVSPost2010Prop50
 90
       50
102
RTVSPost2010PropOp50
 70
     1
102
RTVSPost2010Prop51ColorIndex
 90
      256
102
RTVSPost2010Prop51ColorRGB
 90
-16777216
102
RTVSPost2010PropOp51
 70
     0
102
RTVSPost2010Prop52
140
1.0
102
RTVSPost2010PropOp52
 70
     0
102
RTVSPost2010Prop53
 90
        2
102
RTVSPost2010PropOp53
 70
     1
102
RTVSPost2010Prop54
  1
strokes_ogs.tif
102
RTVSPost2010PropOp54
 70
     1
102
RTVSPost2010Prop55
280
     0
102
RTVSPost2010PropOp55
 70
     1
102
RTVSPost2010Prop56
140
1.0
102
RTVSPost2010PropOp56
 70
     1
102
RTVSPost2010Prop57
140
1.0
102
RTVSPost2010PropOp57
 70
     1
102
RTVSPropertyOp0
 70
     1
102
RTVSPropertyOp1
 70
     1
102
RTVSPropertyOp2
 70
     1
102
RTVSPropertyOp3
 70
     1
102
RTVSPropertyOp4
 70
     1
102
RTVSPropertyOp5
 70
     1
102
RTVSPropertyOp6
 70
     1
102
RTVSPropertyOp7
 70
     1
102
RTVSPropertyOp8
 70
     1
102
RTVSPropertyOp9
 70
     1
102
RTVSPropertyOp10
 70
     1
102
RTVSPropertyOp11
 70
     1
102
RTVSPropertyOp12
 70
     1
102
RTVSPropertyOp13
 70
     1
102
RTVSPropertyOp14
 70
     1
102
RTVSPropertyOp15
 70
     1
102
RTVSPropertyOp16
 70
     1
102
RTVSPropertyOp17
 70
     1
102
RTVSPropertyOp18
 70
     1
102
RTVSPropertyOp19
 70
     1
102
RTVSPropertyOp20
 70
     1
102
RTVSPropertyOp21
 70
     1
102
RTVSPropertyOp22
 70
     1
102
RTVSPropertyOp23
 70
     1
102
RTVSPropertyOp24
 70
     1
102
RTVSPropertyOp25
 70
     1
102
RTVSPropertyOp26
 70
     1
102
RTVSPropertyOp27
 70
     1
102
RTVSPropertyOp28
 70
     1
102
RTVSPropertyOp29
 70
     1
102
RTVSPropertyOp30
 70
     1
102
RTVSPropertyOp31
 70
     1
102
RTVSPropertyOp32
 70
     1
102
RTVSPropertyOp33
 70
     1
102
RTVSPropertyOp34
 70
     1
102
RTVSPropertyOp35
 70
     1
102
RTVSPropertyOp36
 70
     1
102
RTVSPropertyOp37
 70
     1
102
RTVSPropertyOp38
 70
     1
102
RTVSPropertyOp39
 70
     1
102
RTVSPropertyOp40
 70
     1
102
RTVSPropertyOp41
 70
     1
102
RTVSPropertyOp42
 70
     1
102
RTVSPropertyOp43
 70
     1
102
RTVSPropertyOp44
 70
     1
102
RTVSPropertyOp45
 70
     1
102
RTVSPropertyOp46
 70
     1
102
RTVSPropertyOp47
 70
     1
102
RTVSPropertyOp48
 70
     1
102
RTVSPropertyOp49
 70
     1
102
RTVSPropertyOp50
 70
     1
102
RTVSPropertyOp51
 70
     0
102
RTVSPropertyOp52
 70
     0
102
RTVSPropertyOp53
 70
     1
102
RTVSPropertyOp54
 70
     1
102
RTVSPropertyOp55
 70
     1
102
RTVSPropertyOp56
 70
     1
102
RTVSPropertyOp57
 70
     1
102
RTVSPropertyOp58
 70
     1
102
RTVSPropertyOp59
 70
     1
102
RTVSPropertyOp60
 70
     1
102
RTVSPropertyOp61
 70
     1
102
RTVSPropertyOp62
 70
     1
  0
XRECORD
  5
A9B4
102
{ACAD_REACTORS
330
A9B3
102
}
330
A9B3
100
AcDbXrecord
280
     1
102
RTVSPost2010Prop28
280
     0
102
RTVSPost2010PropOp28
 70
     1
102
RTVSPost2010Prop29
280
     1
102
RTVSPost2010PropOp29
 70
     1
102
RTVSPost2010Prop30
280
     1
102
RTVSPost2010PropOp30
 70
     1
102
RTVSPost2010Prop31
280
     0
102
RTVSPost2010PropOp31
 70
     1
102
RTVSPost2010Prop32
280
     0
102
RTVSPost2010PropOp32
 70
     1
102
RTVSPost2010Prop33
280
     0
102
RTVSPost2010PropOp33
 70
     1
102
RTVSPost2010Prop34
280
     0
102
RTVSPost2010PropOp34
 70
     1
102
RTVSPost2010Prop35
280
     0
102
RTVSPost2010PropOp35
 70
     1
102
RTVSPost2010Prop36
280
     0
102
RTVSPost2010PropOp36
 70
     1
102
RTVSPost2010Prop37
 90
       50
102
RTVSPost2010PropOp37
 70
     1
102
RTVSPost2010Prop38
140
0.0
102
RTVSPost2010PropOp38
 70
     1
102
RTVSPost2010Prop39
140
1.0
102
RTVSPost2010PropOp39
 70
     1
102
RTVSPost2010Prop40
 90
        0
102
RTVSPost2010PropOp40
 70
     1
102
RTVSPost2010Prop41ColorIndex
 90
       18
102
RTVSPost2010Prop41ColorRGB
 90
        0
102
RTVSPost2010PropOp41
 70
     1
102
RTVSPost2010Prop42
 90
       50
102
RTVSPost2010PropOp42
 70
     1
102
RTVSPost2010Prop43
 90
        3
102
RTVSPost2010PropOp43
 70
     1
102
RTVSPost2010Prop44ColorIndex
 90
        5
102
RTVSPost2010Prop44ColorRGB
 90
      255
102
RTVSPost2010PropOp44
 70
     1
102
RTVSPost2010Prop45
280
     0
102
RTVSPost2010PropOp45
 70
     1
102
RTVSPost2010Prop46
 90
       50
102
RTVSPost2010PropOp46
 70
     1
102
RTVSPost2010Prop47
 90
       50
102
RTVSPost2010PropOp47
 70
     1
102
RTVSPost2010Prop48
 90
       50
102
RTVSPost2010PropOp48
 70
     1
102
RTVSPost2010Prop49
280
     0
102
RTVSPost2010PropOp49
 70
     1
102
RTVSPost2010Prop50
 90
       50
102
RTVSPost2010PropOp50
 70
     1
102
RTVSPost2010Prop51ColorIndex
 90
      256
102
RTVSPost2010Prop51ColorRGB
 90
-16777216
102
RTVSPost2010PropOp51
 70
     0
102
RTVSPost2010Prop52
140
1.0
102
RTVSPost2010PropOp52
 70
     0
102
RTVSPost2010Prop53
 90
        2
102
RTVSPost2010PropOp53
 70
     1
102
RTVSPost2010Prop54
  1
strokes_ogs.tif
102
RTVSPost2010PropOp54
 70
     1
102
RTVSPost2010Prop55
280
     0
102
RTVSPost2010PropOp55
 70
     1
102
RTVSPost2010Prop56
140
1.0
102
RTVSPost2010PropOp56
 70
     1
102
RTVSPost2010Prop57
140
1.0
102
RTVSPost2010PropOp57
 70
     1
102
RTVSPropertyOp0
 70
     1
102
RTVSPropertyOp1
 70
     1
102
RTVSPropertyOp2
 70
     1
102
RTVSPropertyOp3
 70
     1
102
RTVSPropertyOp4
 70
     1
102
RTVSPropertyOp5
 70
     1
102
RTVSPropertyOp6
 70
     1
102
RTVSPropertyOp7
 70
     1
102
RTVSPropertyOp8
 70
     1
102
RTVSPropertyOp9
 70
     1
102
RTVSPropertyOp10
 70
     1
102
RTVSPropertyOp11
 70
     1
102
RTVSPropertyOp12
 70
     1
102
RTVSPropertyOp13
 70
     1
102
RTVSPropertyOp14
 70
     1
102
RTVSPropertyOp15
 70
     1
102
RTVSPropertyOp16
 70
     1
102
RTVSPropertyOp17
 70
     1
102
RTVSPropertyOp18
 70
     1
102
RTVSPropertyOp19
 70
     1
102
RTVSPropertyOp20
 70
     1
102
RTVSPropertyOp21
 70
     1
102
RTVSPropertyOp22
 70
     1
102
RTVSPropertyOp23
 70
     1
102
RTVSPropertyOp24
 70
     1
102
RTVSPropertyOp25
 70
     1
102
RTVSPropertyOp26
 70
     1
102
RTVSPropertyOp27
 70
     1
102
RTVSPropertyOp28
 70
     1
102
RTVSPropertyOp29
 70
     1
102
RTVSPropertyOp30
 70
     1
102
RTVSPropertyOp31
 70
     1
102
RTVSPropertyOp32
 70
     1
102
RTVSPropertyOp33
 70
     1
102
RTVSPropertyOp34
 70
     1
102
RTVSPropertyOp35
 70
     1
102
RTVSPropertyOp36
 70
     1
102
RTVSPropertyOp37
 70
     1
102
RTVSPropertyOp38
 70
     1
102
RTVSPropertyOp39
 70
     1
102
RTVSPropertyOp40
 70
     1
102
RTVSPropertyOp41
 70
     1
102
RTVSPropertyOp42
 70
     1
102
RTVSPropertyOp43
 70
     1
102
RTVSPropertyOp44
 70
     1
102
RTVSPropertyOp45
 70
     1
102
RTVSPropertyOp46
 70
     1
102
RTVSPropertyOp47
 70
     1
102
RTVSPropertyOp48
 70
     1
102
RTVSPropertyOp49
 70
     1
102
RTVSPropertyOp50
 70
     1
102
RTVSPropertyOp51
 70
     0
102
RTVSPropertyOp52
 70
     0
102
RTVSPropertyOp53
 70
     1
102
RTVSPropertyOp54
 70
     1
102
RTVSPropertyOp55
 70
     1
102
RTVSPropertyOp56
 70
     1
102
RTVSPropertyOp57
 70
     1
102
RTVSPropertyOp58
 70
     1
102
RTVSPropertyOp59
 70
     1
102
RTVSPropertyOp60
 70
     1
102
RTVSPropertyOp61
 70
     1
102
RTVSPropertyOp62
 70
     1
  0
XRECORD
  5
A9A6
102
{ACAD_REACTORS
330
A9A5
102
}
330
A9A5
100
AcDbXrecord
280
     1
102
RTVSPost2010Prop28
280
     0
102
RTVSPost2010PropOp28
 70
     1
102
RTVSPost2010Prop29
280
     1
102
RTVSPost2010PropOp29
 70
     1
102
RTVSPost2010Prop30
280
     1
102
RTVSPost2010PropOp30
 70
     1
102
RTVSPost2010Prop31
280
     0
102
RTVSPost2010PropOp31
 70
     1
102
RTVSPost2010Prop32
280
     0
102
RTVSPost2010PropOp32
 70
     1
102
RTVSPost2010Prop33
280
     0
102
RTVSPost2010PropOp33
 70
     1
102
RTVSPost2010Prop34
280
     0
102
RTVSPost2010PropOp34
 70
     1
102
RTVSPost2010Prop35
280
     0
102
RTVSPost2010PropOp35
 70
     1
102
RTVSPost2010Prop36
280
     0
102
RTVSPost2010PropOp36
 70
     1
102
RTVSPost2010Prop37
 90
       50
102
RTVSPost2010PropOp37
 70
     1
102
RTVSPost2010Prop38
140
0.0
102
RTVSPost2010PropOp38
 70
     1
102
RTVSPost2010Prop39
140
1.0
102
RTVSPost2010PropOp39
 70
     1
102
RTVSPost2010Prop40
 90
        0
102
RTVSPost2010PropOp40
 70
     1
102
RTVSPost2010Prop41ColorIndex
 90
       18
102
RTVSPost2010Prop41ColorRGB
 90
        0
102
RTVSPost2010PropOp41
 70
     1
102
RTVSPost2010Prop42
 90
       50
102
RTVSPost2010PropOp42
 70
     1
102
RTVSPost2010Prop43
 90
        3
102
RTVSPost2010PropOp43
 70
     1
102
RTVSPost2010Prop44ColorIndex
 90
        5
102
RTVSPost2010Prop44ColorRGB
 90
      255
102
RTVSPost2010PropOp44
 70
     1
102
RTVSPost2010Prop45
280
     0
102
RTVSPost2010PropOp45
 70
     1
102
RTVSPost2010Prop46
 90
       50
102
RTVSPost2010PropOp46
 70
     1
102
RTVSPost2010Prop47
 90
       50
102
RTVSPost2010PropOp47
 70
     1
102
RTVSPost2010Prop48
 90
       50
102
RTVSPost2010PropOp48
 70
     1
102
RTVSPost2010Prop49
280
     0
102
RTVSPost2010PropOp49
 70
     1
102
RTVSPost2010Prop50
 90
       50
102
RTVSPost2010PropOp50
 70
     1
102
RTVSPost2010Prop51ColorIndex
 90
      256
102
RTVSPost2010Prop51ColorRGB
 90
-16777216
102
RTVSPost2010PropOp51
 70
     0
102
RTVSPost2010Prop52
140
1.0
102
RTVSPost2010PropOp52
 70
     0
102
RTVSPost2010Prop53
 90
        2
102
RTVSPost2010PropOp53
 70
     1
102
RTVSPost2010Prop54
  1
strokes_ogs.tif
102
RTVSPost2010PropOp54
 70
     1
102
RTVSPost2010Prop55
280
     0
102
RTVSPost2010PropOp55
 70
     1
102
RTVSPost2010Prop56
140
1.0
102
RTVSPost2010PropOp56
 70
     1
102
RTVSPost2010Prop57
140
1.0
102
RTVSPost2010PropOp57
 70
     1
102
RTVSPropertyOp0
 70
     1
102
RTVSPropertyOp1
 70
     1
102
RTVSPropertyOp2
 70
     1
102
RTVSPropertyOp3
 70
     1
102
RTVSPropertyOp4
 70
     1
102
RTVSPropertyOp5
 70
     1
102
RTVSPropertyOp6
 70
     1
102
RTVSPropertyOp7
 70
     1
102
RTVSPropertyOp8
 70
     1
102
RTVSPropertyOp9
 70
     1
102
RTVSPropertyOp10
 70
     1
102
RTVSPropertyOp11
 70
     1
102
RTVSPropertyOp12
 70
     1
102
RTVSPropertyOp13
 70
     1
102
RTVSPropertyOp14
 70
     1
102
RTVSPropertyOp15
 70
     1
102
RTVSPropertyOp16
 70
     1
102
RTVSPropertyOp17
 70
     1
102
RTVSPropertyOp18
 70
     1
102
RTVSPropertyOp19
 70
     1
102
RTVSPropertyOp20
 70
     1
102
RTVSPropertyOp21
 70
     1
102
RTVSPropertyOp22
 70
     1
102
RTVSPropertyOp23
 70
     1
102
RTVSPropertyOp24
 70
     1
102
RTVSPropertyOp25
 70
     1
102
RTVSPropertyOp26
 70
     1
102
RTVSPropertyOp27
 70
     1
102
RTVSPropertyOp28
 70
     1
102
RTVSPropertyOp29
 70
     1
102
RTVSPropertyOp30
 70
     1
102
RTVSPropertyOp31
 70
     1
102
RTVSPropertyOp32
 70
     1
102
RTVSPropertyOp33
 70
     1
102
RTVSPropertyOp34
 70
     1
102
RTVSPropertyOp35
 70
     1
102
RTVSPropertyOp36
 70
     1
102
RTVSPropertyOp37
 70
     1
102
RTVSPropertyOp38
 70
     1
102
RTVSPropertyOp39
 70
     1
102
RTVSPropertyOp40
 70
     1
102
RTVSPropertyOp41
 70
     1
102
RTVSPropertyOp42
 70
     1
102
RTVSPropertyOp43
 70
     1
102
RTVSPropertyOp44
 70
     1
102
RTVSPropertyOp45
 70
     1
102
RTVSPropertyOp46
 70
     1
102
RTVSPropertyOp47
 70
     1
102
RTVSPropertyOp48
 70
     1
102
RTVSPropertyOp49
 70
     1
102
RTVSPropertyOp50
 70
     1
102
RTVSPropertyOp51
 70
     0
102
RTVSPropertyOp52
 70
     0
102
RTVSPropertyOp53
 70
     1
102
RTVSPropertyOp54
 70
     1
102
RTVSPropertyOp55
 70
     1
102
RTVSPropertyOp56
 70
     1
102
RTVSPropertyOp57
 70
     1
102
RTVSPropertyOp58
 70
     1
102
RTVSPropertyOp59
 70
     1
102
RTVSPropertyOp60
 70
     1
102
RTVSPropertyOp61
 70
     1
102
RTVSPropertyOp62
 70
     1
  0
XRECORD
  5
A9AA
102
{ACAD_REACTORS
330
A9A9
102
}
330
A9A9
100
AcDbXrecord
280
     1
102
RTVSPost2010Prop28
280
     0
102
RTVSPost2010PropOp28
 70
     1
102
RTVSPost2010Prop29
280
     1
102
RTVSPost2010PropOp29
 70
     1
102
RTVSPost2010Prop30
280
     1
102
RTVSPost2010PropOp30
 70
     1
102
RTVSPost2010Prop31
280
     0
102
RTVSPost2010PropOp31
 70
     1
102
RTVSPost2010Prop32
280
     0
102
RTVSPost2010PropOp32
 70
     1
102
RTVSPost2010Prop33
280
     0
102
RTVSPost2010PropOp33
 70
     1
102
RTVSPost2010Prop34
280
     0
102
RTVSPost2010PropOp34
 70
     1
102
RTVSPost2010Prop35
280
     0
102
RTVSPost2010PropOp35
 70
     1
102
RTVSPost2010Prop36
280
     0
102
RTVSPost2010PropOp36
 70
     1
102
RTVSPost2010Prop37
 90
       50
102
RTVSPost2010PropOp37
 70
     1
102
RTVSPost2010Prop38
140
0.0
102
RTVSPost2010PropOp38
 70
     1
102
RTVSPost2010Prop39
140
1.0
102
RTVSPost2010PropOp39
 70
     1
102
RTVSPost2010Prop40
 90
        0
102
RTVSPost2010PropOp40
 70
     1
102
RTVSPost2010Prop41ColorIndex
 90
       18
102
RTVSPost2010Prop41ColorRGB
 90
        0
102
RTVSPost2010PropOp41
 70
     1
102
RTVSPost2010Prop42
 90
       50
102
RTVSPost2010PropOp42
 70
     1
102
RTVSPost2010Prop43
 90
        3
102
RTVSPost2010PropOp43
 70
     1
102
RTVSPost2010Prop44ColorIndex
 90
        5
102
RTVSPost2010Prop44ColorRGB
 90
      255
102
RTVSPost2010PropOp44
 70
     1
102
RTVSPost2010Prop45
280
     0
102
RTVSPost2010PropOp45
 70
     1
102
RTVSPost2010Prop46
 90
       50
102
RTVSPost2010PropOp46
 70
     1
102
RTVSPost2010Prop47
 90
       50
102
RTVSPost2010PropOp47
 70
     1
102
RTVSPost2010Prop48
 90
       50
102
RTVSPost2010PropOp48
 70
     1
102
RTVSPost2010Prop49
280
     0
102
RTVSPost2010PropOp49
 70
     1
102
RTVSPost2010Prop50
 90
       50
102
RTVSPost2010PropOp50
 70
     1
102
RTVSPost2010Prop51ColorIndex
 90
      256
102
RTVSPost2010Prop51ColorRGB
 90
-16777216
102
RTVSPost2010PropOp51
 70
     0
102
RTVSPost2010Prop52
140
1.0
102
RTVSPost2010PropOp52
 70
     0
102
RTVSPost2010Prop53
 90
        2
102
RTVSPost2010PropOp53
 70
     1
102
RTVSPost2010Prop54
  1
strokes_ogs.tif
102
RTVSPost2010PropOp54
 70
     1
102
RTVSPost2010Prop55
280
     0
102
RTVSPost2010PropOp55
 70
     1
102
RTVSPost2010Prop56
140
1.0
102
RTVSPost2010PropOp56
 70
     1
102
RTVSPost2010Prop57
140
1.0
102
RTVSPost2010PropOp57
 70
     1
102
RTVSPropertyOp0
 70
     1
102
RTVSPropertyOp1
 70
     1
102
RTVSPropertyOp2
 70
     1
102
RTVSPropertyOp3
 70
     1
102
RTVSPropertyOp4
 70
     1
102
RTVSPropertyOp5
 70
     1
102
RTVSPropertyOp6
 70
     1
102
RTVSPropertyOp7
 70
     1
102
RTVSPropertyOp8
 70
     1
102
RTVSPropertyOp9
 70
     1
102
RTVSPropertyOp10
 70
     1
102
RTVSPropertyOp11
 70
     1
102
RTVSPropertyOp12
 70
     1
102
RTVSPropertyOp13
 70
     1
102
RTVSPropertyOp14
 70
     1
102
RTVSPropertyOp15
 70
     1
102
RTVSPropertyOp16
 70
     1
102
RTVSPropertyOp17
 70
     1
102
RTVSPropertyOp18
 70
     1
102
RTVSPropertyOp19
 70
     1
102
RTVSPropertyOp20
 70
     1
102
RTVSPropertyOp21
 70
     1
102
RTVSPropertyOp22
 70
     1
102
RTVSPropertyOp23
 70
     1
102
RTVSPropertyOp24
 70
     1
102
RTVSPropertyOp25
 70
     1
102
RTVSPropertyOp26
 70
     1
102
RTVSPropertyOp27
 70
     1
102
RTVSPropertyOp28
 70
     1
102
RTVSPropertyOp29
 70
     1
102
RTVSPropertyOp30
 70
     1
102
RTVSPropertyOp31
 70
     1
102
RTVSPropertyOp32
 70
     1
102
RTVSPropertyOp33
 70
     1
102
RTVSPropertyOp34
 70
     1
102
RTVSPropertyOp35
 70
     1
102
RTVSPropertyOp36
 70
     1
102
RTVSPropertyOp37
 70
     1
102
RTVSPropertyOp38
 70
     1
102
RTVSPropertyOp39
 70
     1
102
RTVSPropertyOp40
 70
     1
102
RTVSPropertyOp41
 70
     1
102
RTVSPropertyOp42
 70
     1
102
RTVSPropertyOp43
 70
     1
102
RTVSPropertyOp44
 70
     1
102
RTVSPropertyOp45
 70
     1
102
RTVSPropertyOp46
 70
     1
102
RTVSPropertyOp47
 70
     1
102
RTVSPropertyOp48
 70
     1
102
RTVSPropertyOp49
 70
     1
102
RTVSPropertyOp50
 70
     1
102
RTVSPropertyOp51
 70
     0
102
RTVSPropertyOp52
 70
     0
102
RTVSPropertyOp53
 70
     1
102
RTVSPropertyOp54
 70
     1
102
RTVSPropertyOp55
 70
     1
102
RTVSPropertyOp56
 70
     1
102
RTVSPropertyOp57
 70
     1
102
RTVSPropertyOp58
 70
     1
102
RTVSPropertyOp59
 70
     1
102
RTVSPropertyOp60
 70
     1
102
RTVSPropertyOp61
 70
     1
102
RTVSPropertyOp62
 70
     1
  0
XRECORD
  5
A9C4
102
{ACAD_REACTORS
330
A9C3
102
}
330
A9C3
100
AcDbXrecord
280
     1
102
RTVSPost2010Prop28
280
     0
102
RTVSPost2010PropOp28
 70
     1
102
RTVSPost2010Prop29
280
     1
102
RTVSPost2010PropOp29
 70
     1
102
RTVSPost2010Prop30
280
     1
102
RTVSPost2010PropOp30
 70
     1
102
RTVSPost2010Prop31
280
     0
102
RTVSPost2010PropOp31
 70
     1
102
RTVSPost2010Prop32
280
     0
102
RTVSPost2010PropOp32
 70
     1
102
RTVSPost2010Prop33
280
     0
102
RTVSPost2010PropOp33
 70
     1
102
RTVSPost2010Prop34
280
     0
102
RTVSPost2010PropOp34
 70
     1
102
RTVSPost2010Prop35
280
     0
102
RTVSPost2010PropOp35
 70
     1
102
RTVSPost2010Prop36
280
     0
102
RTVSPost2010PropOp36
 70
     1
102
RTVSPost2010Prop37
 90
       50
102
RTVSPost2010PropOp37
 70
     0
102
RTVSPost2010Prop38
140
0.0
102
RTVSPost2010PropOp38
 70
     0
102
RTVSPost2010Prop39
140
1.0
102
RTVSPost2010PropOp39
 70
     0
102
RTVSPost2010Prop40
 90
        0
102
RTVSPost2010PropOp40
 70
     0
102
RTVSPost2010Prop41ColorIndex
 90
       18
102
RTVSPost2010Prop41ColorRGB
 90
        0
102
RTVSPost2010PropOp41
 70
     0
102
RTVSPost2010Prop42
 90
       50
102
RTVSPost2010PropOp42
 70
     0
102
RTVSPost2010Prop43
 90
        3
102
RTVSPost2010PropOp43
 70
     0
102
RTVSPost2010Prop44ColorIndex
 90
        5
102
RTVSPost2010Prop44ColorRGB
 90
      255
102
RTVSPost2010PropOp44
 70
     0
102
RTVSPost2010Prop45
280
     0
102
RTVSPost2010PropOp45
 70
     1
102
RTVSPost2010Prop46
 90
       50
102
RTVSPost2010PropOp46
 70
     0
102
RTVSPost2010Prop47
 90
       50
102
RTVSPost2010PropOp47
 70
     0
102
RTVSPost2010Prop48
 90
       50
102
RTVSPost2010PropOp48
 70
     0
102
RTVSPost2010Prop49
280
     0
102
RTVSPost2010PropOp49
 70
     1
102
RTVSPost2010Prop50
 90
       50
102
RTVSPost2010PropOp50
 70
     0
102
RTVSPost2010Prop51ColorIndex
 90
      256
102
RTVSPost2010Prop51ColorRGB
 90
-16777216
102
RTVSPost2010PropOp51
 70
     0
102
RTVSPost2010Prop52
140
1.0
102
RTVSPost2010PropOp52
 70
     0
102
RTVSPost2010Prop53
 90
        2
102
RTVSPost2010PropOp53
 70
     0
102
RTVSPost2010Prop54
  1
strokes_ogs.tif
102
RTVSPost2010PropOp54
 70
     0
102
RTVSPost2010Prop55
280
     0
102
RTVSPost2010PropOp55
 70
     1
102
RTVSPost2010Prop56
140
1.0
102
RTVSPost2010PropOp56
 70
     0
102
RTVSPost2010Prop57
140
1.0
102
RTVSPost2010PropOp57
 70
     0
102
RTVSPropertyOp0
 70
     0
102
RTVSPropertyOp1
 70
     0
102
RTVSPropertyOp2
 70
     0
102
RTVSPropertyOp3
 70
     0
102
RTVSPropertyOp4
 70
     0
102
RTVSPropertyOp5
 70
     0
102
RTVSPropertyOp6
 70
     0
102
RTVSPropertyOp7
 70
     0
102
RTVSPropertyOp8
 70
     0
102
RTVSPropertyOp9
 70
     0
102
RTVSPropertyOp10
 70
     0
102
RTVSPropertyOp11
 70
     0
102
RTVSPropertyOp12
 70
     0
102
RTVSPropertyOp13
 70
     0
102
RTVSPropertyOp14
 70
     2
102
RTVSPropertyOp15
 70
     0
102
RTVSPropertyOp16
 70
     0
102
RTVSPropertyOp17
 70
     0
102
RTVSPropertyOp18
 70
     0
102
RTVSPropertyOp19
 70
     0
102
RTVSPropertyOp20
 70
     0
102
RTVSPropertyOp21
 70
     0
102
RTVSPropertyOp22
 70
     0
102
RTVSPropertyOp23
 70
     0
102
RTVSPropertyOp24
 70
     0
102
RTVSPropertyOp25
 70
     0
102
RTVSPropertyOp26
 70
     0
102
RTVSPropertyOp27
 70
     0
102
RTVSPropertyOp28
 70
     1
102
RTVSPropertyOp29
 70
     1
102
RTVSPropertyOp30
 70
     1
102
RTVSPropertyOp31
 70
     1
102
RTVSPropertyOp32
 70
     1
102
RTVSPropertyOp33
 70
     1
102
RTVSPropertyOp34
 70
     1
102
RTVSPropertyOp35
 70
     1
102
RTVSPropertyOp36
 70
     1
102
RTVSPropertyOp37
 70
     0
102
RTVSPropertyOp38
 70
     0
102
RTVSPropertyOp39
 70
     0
102
RTVSPropertyOp40
 70
     0
102
RTVSPropertyOp41
 70
     0
102
RTVSPropertyOp42
 70
     0
102
RTVSPropertyOp43
 70
     0
102
RTVSPropertyOp44
 70
     0
102
RTVSPropertyOp45
 70
     1
102
RTVSPropertyOp46
 70
     0
102
RTVSPropertyOp47
 70
     0
102
RTVSPropertyOp48
 70
     0
102
RTVSPropertyOp49
 70
     1
102
RTVSPropertyOp50
 70
     0
102
RTVSPropertyOp51
 70
     0
102
RTVSPropertyOp52
 70
     0
102
RTVSPropertyOp53
 70
     0
102
RTVSPropertyOp54
 70
     0
102
RTVSPropertyOp55
 70
     1
102
RTVSPropertyOp56
 70
     0
102
RTVSPropertyOp57
 70
     0
102
RTVSPropertyOp58
 70
     0
102
RTVSPropertyOp59
 70
     0
102
RTVSPropertyOp60
 70
     0
102
RTVSPropertyOp61
 70
     0
102
RTVSPropertyOp62
 70
     0
  0
XRECORD
  5
A9B2
102
{ACAD_REACTORS
330
A9B1
102
}
330
A9B1
100
AcDbXrecord
280
     1
102
RTVSPost2010Prop28
280
     0
102
RTVSPost2010PropOp28
 70
     1
102
RTVSPost2010Prop29
280
     1
102
RTVSPost2010PropOp29
 70
     1
102
RTVSPost2010Prop30
280
     1
102
RTVSPost2010PropOp30
 70
     1
102
RTVSPost2010Prop31
280
     0
102
RTVSPost2010PropOp31
 70
     1
102
RTVSPost2010Prop32
280
     0
102
RTVSPost2010PropOp32
 70
     1
102
RTVSPost2010Prop33
280
     0
102
RTVSPost2010PropOp33
 70
     1
102
RTVSPost2010Prop34
280
     0
102
RTVSPost2010PropOp34
 70
     1
102
RTVSPost2010Prop35
280
     0
102
RTVSPost2010PropOp35
 70
     1
102
RTVSPost2010Prop36
280
     0
102
RTVSPost2010PropOp36
 70
     1
102
RTVSPost2010Prop37
 90
       50
102
RTVSPost2010PropOp37
 70
     1
102
RTVSPost2010Prop38
140
0.0
102
RTVSPost2010PropOp38
 70
     1
102
RTVSPost2010Prop39
140
1.0
102
RTVSPost2010PropOp39
 70
     1
102
RTVSPost2010Prop40
 90
        0
102
RTVSPost2010PropOp40
 70
     1
102
RTVSPost2010Prop41ColorIndex
 90
       18
102
RTVSPost2010Prop41ColorRGB
 90
        0
102
RTVSPost2010PropOp41
 70
     1
102
RTVSPost2010Prop42
 90
       50
102
RTVSPost2010PropOp42
 70
     1
102
RTVSPost2010Prop43
 90
        3
102
RTVSPost2010PropOp43
 70
     1
102
RTVSPost2010Prop44ColorIndex
 90
        5
102
RTVSPost2010Prop44ColorRGB
 90
      255
102
RTVSPost2010PropOp44
 70
     1
102
RTVSPost2010Prop45
280
     0
102
RTVSPost2010PropOp45
 70
     1
102
RTVSPost2010Prop46
 90
       50
102
RTVSPost2010PropOp46
 70
     1
102
RTVSPost2010Prop47
 90
       50
102
RTVSPost2010PropOp47
 70
     1
102
RTVSPost2010Prop48
 90
       50
102
RTVSPost2010PropOp48
 70
     1
102
RTVSPost2010Prop49
280
     0
102
RTVSPost2010PropOp49
 70
     1
102
RTVSPost2010Prop50
 90
       50
102
RTVSPost2010PropOp50
 70
     1
102
RTVSPost2010Prop51ColorIndex
 90
      256
102
RTVSPost2010Prop51ColorRGB
 90
-16777216
102
RTVSPost2010PropOp51
 70
     0
102
RTVSPost2010Prop52
140
1.0
102
RTVSPost2010PropOp52
 70
     0
102
RTVSPost2010Prop53
 90
        2
102
RTVSPost2010PropOp53
 70
     1
102
RTVSPost2010Prop54
  1
strokes_ogs.tif
102
RTVSPost2010PropOp54
 70
     1
102
RTVSPost2010Prop55
280
     0
102
RTVSPost2010PropOp55
 70
     1
102
RTVSPost2010Prop56
140
1.0
102
RTVSPost2010PropOp56
 70
     1
102
RTVSPost2010Prop57
140
1.0
102
RTVSPost2010PropOp57
 70
     1
102
RTVSPropertyOp0
 70
     1
102
RTVSPropertyOp1
 70
     1
102
RTVSPropertyOp2
 70
     1
102
RTVSPropertyOp3
 70
     1
102
RTVSPropertyOp4
 70
     1
102
RTVSPropertyOp5
 70
     1
102
RTVSPropertyOp6
 70
     1
102
RTVSPropertyOp7
 70
     1
102
RTVSPropertyOp8
 70
     1
102
RTVSPropertyOp9
 70
     1
102
RTVSPropertyOp10
 70
     1
102
RTVSPropertyOp11
 70
     1
102
RTVSPropertyOp12
 70
     1
102
RTVSPropertyOp13
 70
     1
102
RTVSPropertyOp14
 70
     1
102
RTVSPropertyOp15
 70
     1
102
RTVSPropertyOp16
 70
     1
102
RTVSPropertyOp17
 70
     1
102
RTVSPropertyOp18
 70
     1
102
RTVSPropertyOp19
 70
     1
102
RTVSPropertyOp20
 70
     1
102
RTVSPropertyOp21
 70
     1
102
RTVSPropertyOp22
 70
     1
102
RTVSPropertyOp23
 70
     1
102
RTVSPropertyOp24
 70
     1
102
RTVSPropertyOp25
 70
     1
102
RTVSPropertyOp26
 70
     1
102
RTVSPropertyOp27
 70
     1
102
RTVSPropertyOp28
 70
     1
102
RTVSPropertyOp29
 70
     1
102
RTVSPropertyOp30
 70
     1
102
RTVSPropertyOp31
 70
     1
102
RTVSPropertyOp32
 70
     1
102
RTVSPropertyOp33
 70
     1
102
RTVSPropertyOp34
 70
     1
102
RTVSPropertyOp35
 70
     1
102
RTVSPropertyOp36
 70
     1
102
RTVSPropertyOp37
 70
     1
102
RTVSPropertyOp38
 70
     1
102
RTVSPropertyOp39
 70
     1
102
RTVSPropertyOp40
 70
     1
102
RTVSPropertyOp41
 70
     1
102
RTVSPropertyOp42
 70
     1
102
RTVSPropertyOp43
 70
     1
102
RTVSPropertyOp44
 70
     1
102
RTVSPropertyOp45
 70
     1
102
RTVSPropertyOp46
 70
     1
102
RTVSPropertyOp47
 70
     1
102
RTVSPropertyOp48
 70
     1
102
RTVSPropertyOp49
 70
     1
102
RTVSPropertyOp50
 70
     1
102
RTVSPropertyOp51
 70
     0
102
RTVSPropertyOp52
 70
     0
102
RTVSPropertyOp53
 70
     1
102
RTVSPropertyOp54
 70
     1
102
RTVSPropertyOp55
 70
     1
102
RTVSPropertyOp56
 70
     1
102
RTVSPropertyOp57
 70
     1
102
RTVSPropertyOp58
 70
     1
102
RTVSPropertyOp59
 70
     1
102
RTVSPropertyOp60
 70
     1
102
RTVSPropertyOp61
 70
     1
102
RTVSPropertyOp62
 70
     1
  0
XRECORD
  5
A996
102
{ACAD_REACTORS
330
A995
102
}
330
A995
100
AcDbXrecord
280
     1
102
RTVSPost2010Prop28
280
     0
102
RTVSPost2010PropOp28
 70
     1
102
RTVSPost2010Prop29
280
     1
102
RTVSPost2010PropOp29
 70
     1
102
RTVSPost2010Prop30
280
     1
102
RTVSPost2010PropOp30
 70
     1
102
RTVSPost2010Prop31
280
     0
102
RTVSPost2010PropOp31
 70
     1
102
RTVSPost2010Prop32
280
     0
102
RTVSPost2010PropOp32
 70
     1
102
RTVSPost2010Prop33
280
     0
102
RTVSPost2010PropOp33
 70
     1
102
RTVSPost2010Prop34
280
     0
102
RTVSPost2010PropOp34
 70
     1
102
RTVSPost2010Prop35
280
     0
102
RTVSPost2010PropOp35
 70
     1
102
RTVSPost2010Prop36
280
     0
102
RTVSPost2010PropOp36
 70
     1
102
RTVSPost2010Prop37
 90
       50
102
RTVSPost2010PropOp37
 70
     1
102
RTVSPost2010Prop38
140
0.0
102
RTVSPost2010PropOp38
 70
     1
102
RTVSPost2010Prop39
140
1.0
102
RTVSPost2010PropOp39
 70
     1
102
RTVSPost2010Prop40
 90
        0
102
RTVSPost2010PropOp40
 70
     1
102
RTVSPost2010Prop41ColorIndex
 90
       18
102
RTVSPost2010Prop41ColorRGB
 90
        0
102
RTVSPost2010PropOp41
 70
     1
102
RTVSPost2010Prop42
 90
       50
102
RTVSPost2010PropOp42
 70
     1
102
RTVSPost2010Prop43
 90
        3
102
RTVSPost2010PropOp43
 70
     1
102
RTVSPost2010Prop44ColorIndex
 90
        5
102
RTVSPost2010Prop44ColorRGB
 90
      255
102
RTVSPost2010PropOp44
 70
     1
102
RTVSPost2010Prop45
280
     0
102
RTVSPost2010PropOp45
 70
     1
102
RTVSPost2010Prop46
 90
       50
102
RTVSPost2010PropOp46
 70
     1
102
RTVSPost2010Prop47
 90
       50
102
RTVSPost2010PropOp47
 70
     1
102
RTVSPost2010Prop48
 90
       50
102
RTVSPost2010PropOp48
 70
     1
102
RTVSPost2010Prop49
280
     0
102
RTVSPost2010PropOp49
 70
     1
102
RTVSPost2010Prop50
 90
       50
102
RTVSPost2010PropOp50
 70
     1
102
RTVSPost2010Prop51ColorIndex
 90
      256
102
RTVSPost2010Prop51ColorRGB
 90
-16777216
102
RTVSPost2010PropOp51
 70
     0
102
RTVSPost2010Prop52
140
1.0
102
RTVSPost2010PropOp52
 70
     0
102
RTVSPost2010Prop53
 90
        2
102
RTVSPost2010PropOp53
 70
     1
102
RTVSPost2010Prop54
  1
strokes_ogs.tif
102
RTVSPost2010PropOp54
 70
     1
102
RTVSPost2010Prop55
280
     0
102
RTVSPost2010PropOp55
 70
     1
102
RTVSPost2010Prop56
140
1.0
102
RTVSPost2010PropOp56
 70
     1
102
RTVSPost2010Prop57
140
1.0
102
RTVSPost2010PropOp57
 70
     1
102
RTVSPropertyOp0
 70
     1
102
RTVSPropertyOp1
 70
     1
102
RTVSPropertyOp2
 70
     1
102
RTVSPropertyOp3
 70
     1
102
RTVSPropertyOp4
 70
     1
102
RTVSPropertyOp5
 70
     1
102
RTVSPropertyOp6
 70
     1
102
RTVSPropertyOp7
 70
     1
102
RTVSPropertyOp8
 70
     1
102
RTVSPropertyOp9
 70
     1
102
RTVSPropertyOp10
 70
     1
102
RTVSPropertyOp11
 70
     1
102
RTVSPropertyOp12
 70
     1
102
RTVSPropertyOp13
 70
     1
102
RTVSPropertyOp14
 70
     1
102
RTVSPropertyOp15
 70
     1
102
RTVSPropertyOp16
 70
     1
102
RTVSPropertyOp17
 70
     1
102
RTVSPropertyOp18
 70
     1
102
RTVSPropertyOp19
 70
     1
102
RTVSPropertyOp20
 70
     1
102
RTVSPropertyOp21
 70
     1
102
RTVSPropertyOp22
 70
     1
102
RTVSPropertyOp23
 70
     1
102
RTVSPropertyOp24
 70
     1
102
RTVSPropertyOp25
 70
     1
102
RTVSPropertyOp26
 70
     1
102
RTVSPropertyOp27
 70
     1
102
RTVSPropertyOp28
 70
     1
102
RTVSPropertyOp29
 70
     1
102
RTVSPropertyOp30
 70
     1
102
RTVSPropertyOp31
 70
     1
102
RTVSPropertyOp32
 70
     1
102
RTVSPropertyOp33
 70
     1
102
RTVSPropertyOp34
 70
     1
102
RTVSPropertyOp35
 70
     1
102
RTVSPropertyOp36
 70
     1
102
RTVSPropertyOp37
 70
     1
102
RTVSPropertyOp38
 70
     1
102
RTVSPropertyOp39
 70
     1
102
RTVSPropertyOp40
 70
     1
102
RTVSPropertyOp41
 70
     1
102
RTVSPropertyOp42
 70
     1
102
RTVSPropertyOp43
 70
     1
102
RTVSPropertyOp44
 70
     1
102
RTVSPropertyOp45
 70
     1
102
RTVSPropertyOp46
 70
     1
102
RTVSPropertyOp47
 70
     1
102
RTVSPropertyOp48
 70
     1
102
RTVSPropertyOp49
 70
     1
102
RTVSPropertyOp50
 70
     1
102
RTVSPropertyOp51
 70
     0
102
RTVSPropertyOp52
 70
     0
102
RTVSPropertyOp53
 70
     1
102
RTVSPropertyOp54
 70
     1
102
RTVSPropertyOp55
 70
     1
102
RTVSPropertyOp56
 70
     1
102
RTVSPropertyOp57
 70
     1
102
RTVSPropertyOp58
 70
     1
102
RTVSPropertyOp59
 70
     1
102
RTVSPropertyOp60
 70
     1
102
RTVSPropertyOp61
 70
     1
102
RTVSPropertyOp62
 70
     1
  0
XRECORD
  5
A998
102
{ACAD_REACTORS
330
A997
102
}
330
A997
100
AcDbXrecord
280
     1
102
RTVSPost2010Prop28
280
     0
102
RTVSPost2010PropOp28
 70
     1
102
RTVSPost2010Prop29
280
     1
102
RTVSPost2010PropOp29
 70
     1
102
RTVSPost2010Prop30
280
     1
102
RTVSPost2010PropOp30
 70
     1
102
RTVSPost2010Prop31
280
     0
102
RTVSPost2010PropOp31
 70
     1
102
RTVSPost2010Prop32
280
     0
102
RTVSPost2010PropOp32
 70
     1
102
RTVSPost2010Prop33
280
     0
102
RTVSPost2010PropOp33
 70
     1
102
RTVSPost2010Prop34
280
     0
102
RTVSPost2010PropOp34
 70
     1
102
RTVSPost2010Prop35
280
     0
102
RTVSPost2010PropOp35
 70
     1
102
RTVSPost2010Prop36
280
     0
102
RTVSPost2010PropOp36
 70
     1
102
RTVSPost2010Prop37
 90
       50
102
RTVSPost2010PropOp37
 70
     1
102
RTVSPost2010Prop38
140
0.0
102
RTVSPost2010PropOp38
 70
     1
102
RTVSPost2010Prop39
140
1.0
102
RTVSPost2010PropOp39
 70
     1
102
RTVSPost2010Prop40
 90
        0
102
RTVSPost2010PropOp40
 70
     1
102
RTVSPost2010Prop41ColorIndex
 90
       18
102
RTVSPost2010Prop41ColorRGB
 90
        0
102
RTVSPost2010PropOp41
 70
     1
102
RTVSPost2010Prop42
 90
       50
102
RTVSPost2010PropOp42
 70
     1
102
RTVSPost2010Prop43
 90
        3
102
RTVSPost2010PropOp43
 70
     1
102
RTVSPost2010Prop44ColorIndex
 90
        5
102
RTVSPost2010Prop44ColorRGB
 90
      255
102
RTVSPost2010PropOp44
 70
     1
102
RTVSPost2010Prop45
280
     0
102
RTVSPost2010PropOp45
 70
     1
102
RTVSPost2010Prop46
 90
       50
102
RTVSPost2010PropOp46
 70
     1
102
RTVSPost2010Prop47
 90
       50
102
RTVSPost2010PropOp47
 70
     1
102
RTVSPost2010Prop48
 90
       50
102
RTVSPost2010PropOp48
 70
     1
102
RTVSPost2010Prop49
280
     0
102
RTVSPost2010PropOp49
 70
     1
102
RTVSPost2010Prop50
 90
       50
102
RTVSPost2010PropOp50
 70
     1
102
RTVSPost2010Prop51ColorIndex
 90
      256
102
RTVSPost2010Prop51ColorRGB
 90
-16777216
102
RTVSPost2010PropOp51
 70
     0
102
RTVSPost2010Prop52
140
1.0
102
RTVSPost2010PropOp52
 70
     0
102
RTVSPost2010Prop53
 90
        2
102
RTVSPost2010PropOp53
 70
     1
102
RTVSPost2010Prop54
  1
strokes_ogs.tif
102
RTVSPost2010PropOp54
 70
     1
102
RTVSPost2010Prop55
280
     0
102
RTVSPost2010PropOp55
 70
     1
102
RTVSPost2010Prop56
140
1.0
102
RTVSPost2010PropOp56
 70
     1
102
RTVSPost2010Prop57
140
1.0
102
RTVSPost2010PropOp57
 70
     1
102
RTVSPropertyOp0
 70
     1
102
RTVSPropertyOp1
 70
     1
102
RTVSPropertyOp2
 70
     1
102
RTVSPropertyOp3
 70
     1
102
RTVSPropertyOp4
 70
     1
102
RTVSPropertyOp5
 70
     1
102
RTVSPropertyOp6
 70
     1
102
RTVSPropertyOp7
 70
     1
102
RTVSPropertyOp8
 70
     1
102
RTVSPropertyOp9
 70
     1
102
RTVSPropertyOp10
 70
     1
102
RTVSPropertyOp11
 70
     1
102
RTVSPropertyOp12
 70
     1
102
RTVSPropertyOp13
 70
     1
102
RTVSPropertyOp14
 70
     1
102
RTVSPropertyOp15
 70
     1
102
RTVSPropertyOp16
 70
     1
102
RTVSPropertyOp17
 70
     1
102
RTVSPropertyOp18
 70
     1
102
RTVSPropertyOp19
 70
     1
102
RTVSPropertyOp20
 70
     1
102
RTVSPropertyOp21
 70
     1
102
RTVSPropertyOp22
 70
     1
102
RTVSPropertyOp23
 70
     1
102
RTVSPropertyOp24
 70
     1
102
RTVSPropertyOp25
 70
     1
102
RTVSPropertyOp26
 70
     1
102
RTVSPropertyOp27
 70
     1
102
RTVSPropertyOp28
 70
     1
102
RTVSPropertyOp29
 70
     1
102
RTVSPropertyOp30
 70
     1
102
RTVSPropertyOp31
 70
     1
102
RTVSPropertyOp32
 70
     1
102
RTVSPropertyOp33
 70
     1
102
RTVSPropertyOp34
 70
     1
102
RTVSPropertyOp35
 70
     1
102
RTVSPropertyOp36
 70
     1
102
RTVSPropertyOp37
 70
     1
102
RTVSPropertyOp38
 70
     1
102
RTVSPropertyOp39
 70
     1
102
RTVSPropertyOp40
 70
     1
102
RTVSPropertyOp41
 70
     1
102
RTVSPropertyOp42
 70
     1
102
RTVSPropertyOp43
 70
     1
102
RTVSPropertyOp44
 70
     1
102
RTVSPropertyOp45
 70
     1
102
RTVSPropertyOp46
 70
     1
102
RTVSPropertyOp47
 70
     1
102
RTVSPropertyOp48
 70
     1
102
RTVSPropertyOp49
 70
     1
102
RTVSPropertyOp50
 70
     1
102
RTVSPropertyOp51
 70
     0
102
RTVSPropertyOp52
 70
     0
102
RTVSPropertyOp53
 70
     1
102
RTVSPropertyOp54
 70
     1
102
RTVSPropertyOp55
 70
     1
102
RTVSPropertyOp56
 70
     1
102
RTVSPropertyOp57
 70
     1
102
RTVSPropertyOp58
 70
     1
102
RTVSPropertyOp59
 70
     1
102
RTVSPropertyOp60
 70
     1
102
RTVSPropertyOp61
 70
     1
102
RTVSPropertyOp62
 70
     1
  0
XRECORD
  5
A99A
102
{ACAD_REACTORS
330
A999
102
}
330
A999
100
AcDbXrecord
280
     1
102
RTVSPost2010Prop28
280
     0
102
RTVSPost2010PropOp28
 70
     1
102
RTVSPost2010Prop29
280
     1
102
RTVSPost2010PropOp29
 70
     1
102
RTVSPost2010Prop30
280
     1
102
RTVSPost2010PropOp30
 70
     1
102
RTVSPost2010Prop31
280
     0
102
RTVSPost2010PropOp31
 70
     1
102
RTVSPost2010Prop32
280
     0
102
RTVSPost2010PropOp32
 70
     1
102
RTVSPost2010Prop33
280
     0
102
RTVSPost2010PropOp33
 70
     1
102
RTVSPost2010Prop34
280
     0
102
RTVSPost2010PropOp34
 70
     1
102
RTVSPost2010Prop35
280
     0
102
RTVSPost2010PropOp35
 70
     1
102
RTVSPost2010Prop36
280
     0
102
RTVSPost2010PropOp36
 70
     1
102
RTVSPost2010Prop37
 90
       50
102
RTVSPost2010PropOp37
 70
     1
102
RTVSPost2010Prop38
140
0.0
102
RTVSPost2010PropOp38
 70
     1
102
RTVSPost2010Prop39
140
1.0
102
RTVSPost2010PropOp39
 70
     1
102
RTVSPost2010Prop40
 90
        0
102
RTVSPost2010PropOp40
 70
     1
102
RTVSPost2010Prop41ColorIndex
 90
       18
102
RTVSPost2010Prop41ColorRGB
 90
        0
102
RTVSPost2010PropOp41
 70
     1
102
RTVSPost2010Prop42
 90
       50
102
RTVSPost2010PropOp42
 70
     1
102
RTVSPost2010Prop43
 90
        3
102
RTVSPost2010PropOp43
 70
     1
102
RTVSPost2010Prop44ColorIndex
 90
        5
102
RTVSPost2010Prop44ColorRGB
 90
      255
102
RTVSPost2010PropOp44
 70
     1
102
RTVSPost2010Prop45
280
     0
102
RTVSPost2010PropOp45
 70
     1
102
RTVSPost2010Prop46
 90
       50
102
RTVSPost2010PropOp46
 70
     1
102
RTVSPost2010Prop47
 90
       50
102
RTVSPost2010PropOp47
 70
     1
102
RTVSPost2010Prop48
 90
       50
102
RTVSPost2010PropOp48
 70
     1
102
RTVSPost2010Prop49
280
     0
102
RTVSPost2010PropOp49
 70
     1
102
RTVSPost2010Prop50
 90
       50
102
RTVSPost2010PropOp50
 70
     1
102
RTVSPost2010Prop51ColorIndex
 90
      256
102
RTVSPost2010Prop51ColorRGB
 90
-16777216
102
RTVSPost2010PropOp51
 70
     0
102
RTVSPost2010Prop52
140
1.0
102
RTVSPost2010PropOp52
 70
     0
102
RTVSPost2010Prop53
 90
        2
102
RTVSPost2010PropOp53
 70
     1
102
RTVSPost2010Prop54
  1
strokes_ogs.tif
102
RTVSPost2010PropOp54
 70
     1
102
RTVSPost2010Prop55
280
     0
102
RTVSPost2010PropOp55
 70
     1
102
RTVSPost2010Prop56
140
1.0
102
RTVSPost2010PropOp56
 70
     1
102
RTVSPost2010Prop57
140
1.0
102
RTVSPost2010PropOp57
 70
     1
102
RTVSPropertyOp0
 70
     1
102
RTVSPropertyOp1
 70
     1
102
RTVSPropertyOp2
 70
     1
102
RTVSPropertyOp3
 70
     1
102
RTVSPropertyOp4
 70
     1
102
RTVSPropertyOp5
 70
     1
102
RTVSPropertyOp6
 70
     1
102
RTVSPropertyOp7
 70
     1
102
RTVSPropertyOp8
 70
     1
102
RTVSPropertyOp9
 70
     1
102
RTVSPropertyOp10
 70
     1
102
RTVSPropertyOp11
 70
     1
102
RTVSPropertyOp12
 70
     1
102
RTVSPropertyOp13
 70
     1
102
RTVSPropertyOp14
 70
     1
102
RTVSPropertyOp15
 70
     1
102
RTVSPropertyOp16
 70
     1
102
RTVSPropertyOp17
 70
     1
102
RTVSPropertyOp18
 70
     1
102
RTVSPropertyOp19
 70
     1
102
RTVSPropertyOp20
 70
     1
102
RTVSPropertyOp21
 70
     1
102
RTVSPropertyOp22
 70
     1
102
RTVSPropertyOp23
 70
     1
102
RTVSPropertyOp24
 70
     1
102
RTVSPropertyOp25
 70
     1
102
RTVSPropertyOp26
 70
     1
102
RTVSPropertyOp27
 70
     1
102
RTVSPropertyOp28
 70
     1
102
RTVSPropertyOp29
 70
     1
102
RTVSPropertyOp30
 70
     1
102
RTVSPropertyOp31
 70
     1
102
RTVSPropertyOp32
 70
     1
102
RTVSPropertyOp33
 70
     1
102
RTVSPropertyOp34
 70
     1
102
RTVSPropertyOp35
 70
     1
102
RTVSPropertyOp36
 70
     1
102
RTVSPropertyOp37
 70
     1
102
RTVSPropertyOp38
 70
     1
102
RTVSPropertyOp39
 70
     1
102
RTVSPropertyOp40
 70
     1
102
RTVSPropertyOp41
 70
     1
102
RTVSPropertyOp42
 70
     1
102
RTVSPropertyOp43
 70
     1
102
RTVSPropertyOp44
 70
     1
102
RTVSPropertyOp45
 70
     1
102
RTVSPropertyOp46
 70
     1
102
RTVSPropertyOp47
 70
     1
102
RTVSPropertyOp48
 70
     1
102
RTVSPropertyOp49
 70
     1
102
RTVSPropertyOp50
 70
     1
102
RTVSPropertyOp51
 70
     0
102
RTVSPropertyOp52
 70
     0
102
RTVSPropertyOp53
 70
     1
102
RTVSPropertyOp54
 70
     1
102
RTVSPropertyOp55
 70
     1
102
RTVSPropertyOp56
 70
     1
102
RTVSPropertyOp57
 70
     1
102
RTVSPropertyOp58
 70
     1
102
RTVSPropertyOp59
 70
     1
102
RTVSPropertyOp60
 70
     1
102
RTVSPropertyOp61
 70
     1
102
RTVSPropertyOp62
 70
     1
  0
XRECORD
  5
A99C
102
{ACAD_REACTORS
330
A99B
102
}
330
A99B
100
AcDbXrecord
280
     1
102
RTVSPost2010Prop28
280
     0
102
RTVSPost2010PropOp28
 70
     1
102
RTVSPost2010Prop29
280
     1
102
RTVSPost2010PropOp29
 70
     1
102
RTVSPost2010Prop30
280
     1
102
RTVSPost2010PropOp30
 70
     1
102
RTVSPost2010Prop31
280
     0
102
RTVSPost2010PropOp31
 70
     1
102
RTVSPost2010Prop32
280
     0
102
RTVSPost2010PropOp32
 70
     1
102
RTVSPost2010Prop33
280
     0
102
RTVSPost2010PropOp33
 70
     1
102
RTVSPost2010Prop34
280
     0
102
RTVSPost2010PropOp34
 70
     1
102
RTVSPost2010Prop35
280
     0
102
RTVSPost2010PropOp35
 70
     1
102
RTVSPost2010Prop36
280
     0
102
RTVSPost2010PropOp36
 70
     1
102
RTVSPost2010Prop37
 90
       50
102
RTVSPost2010PropOp37
 70
     1
102
RTVSPost2010Prop38
140
0.0
102
RTVSPost2010PropOp38
 70
     1
102
RTVSPost2010Prop39
140
1.0
102
RTVSPost2010PropOp39
 70
     1
102
RTVSPost2010Prop40
 90
        0
102
RTVSPost2010PropOp40
 70
     1
102
RTVSPost2010Prop41ColorIndex
 90
       18
102
RTVSPost2010Prop41ColorRGB
 90
        0
102
RTVSPost2010PropOp41
 70
     1
102
RTVSPost2010Prop42
 90
       50
102
RTVSPost2010PropOp42
 70
     1
102
RTVSPost2010Prop43
 90
        3
102
RTVSPost2010PropOp43
 70
     1
102
RTVSPost2010Prop44ColorIndex
 90
        5
102
RTVSPost2010Prop44ColorRGB
 90
      255
102
RTVSPost2010PropOp44
 70
     1
102
RTVSPost2010Prop45
280
     0
102
RTVSPost2010PropOp45
 70
     1
102
RTVSPost2010Prop46
 90
       50
102
RTVSPost2010PropOp46
 70
     1
102
RTVSPost2010Prop47
 90
       50
102
RTVSPost2010PropOp47
 70
     1
102
RTVSPost2010Prop48
 90
       50
102
RTVSPost2010PropOp48
 70
     1
102
RTVSPost2010Prop49
280
     0
102
RTVSPost2010PropOp49
 70
     1
102
RTVSPost2010Prop50
 90
       50
102
RTVSPost2010PropOp50
 70
     1
102
RTVSPost2010Prop51ColorIndex
 90
      256
102
RTVSPost2010Prop51ColorRGB
 90
-16777216
102
RTVSPost2010PropOp51
 70
     0
102
RTVSPost2010Prop52
140
1.0
102
RTVSPost2010PropOp52
 70
     0
102
RTVSPost2010Prop53
 90
        2
102
RTVSPost2010PropOp53
 70
     1
102
RTVSPost2010Prop54
  1
strokes_ogs.tif
102
RTVSPost2010PropOp54
 70
     1
102
RTVSPost2010Prop55
280
     0
102
RTVSPost2010PropOp55
 70
     1
102
RTVSPost2010Prop56
140
1.0
102
RTVSPost2010PropOp56
 70
     1
102
RTVSPost2010Prop57
140
1.0
102
RTVSPost2010PropOp57
 70
     1
102
RTVSPropertyOp0
 70
     1
102
RTVSPropertyOp1
 70
     1
102
RTVSPropertyOp2
 70
     1
102
RTVSPropertyOp3
 70
     1
102
RTVSPropertyOp4
 70
     1
102
RTVSPropertyOp5
 70
     1
102
RTVSPropertyOp6
 70
     1
102
RTVSPropertyOp7
 70
     1
102
RTVSPropertyOp8
 70
     1
102
RTVSPropertyOp9
 70
     1
102
RTVSPropertyOp10
 70
     1
102
RTVSPropertyOp11
 70
     1
102
RTVSPropertyOp12
 70
     1
102
RTVSPropertyOp13
 70
     1
102
RTVSPropertyOp14
 70
     1
102
RTVSPropertyOp15
 70
     1
102
RTVSPropertyOp16
 70
     1
102
RTVSPropertyOp17
 70
     1
102
RTVSPropertyOp18
 70
     1
102
RTVSPropertyOp19
 70
     1
102
RTVSPropertyOp20
 70
     1
102
RTVSPropertyOp21
 70
     1
102
RTVSPropertyOp22
 70
     1
102
RTVSPropertyOp23
 70
     1
102
RTVSPropertyOp24
 70
     1
102
RTVSPropertyOp25
 70
     1
102
RTVSPropertyOp26
 70
     1
102
RTVSPropertyOp27
 70
     1
102
RTVSPropertyOp28
 70
     1
102
RTVSPropertyOp29
 70
     1
102
RTVSPropertyOp30
 70
     1
102
RTVSPropertyOp31
 70
     1
102
RTVSPropertyOp32
 70
     1
102
RTVSPropertyOp33
 70
     1
102
RTVSPropertyOp34
 70
     1
102
RTVSPropertyOp35
 70
     1
102
RTVSPropertyOp36
 70
     1
102
RTVSPropertyOp37
 70
     1
102
RTVSPropertyOp38
 70
     1
102
RTVSPropertyOp39
 70
     1
102
RTVSPropertyOp40
 70
     1
102
RTVSPropertyOp41
 70
     1
102
RTVSPropertyOp42
 70
     1
102
RTVSPropertyOp43
 70
     1
102
RTVSPropertyOp44
 70
     1
102
RTVSPropertyOp45
 70
     1
102
RTVSPropertyOp46
 70
     1
102
RTVSPropertyOp47
 70
     1
102
RTVSPropertyOp48
 70
     1
102
RTVSPropertyOp49
 70
     1
102
RTVSPropertyOp50
 70
     1
102
RTVSPropertyOp51
 70
     0
102
RTVSPropertyOp52
 70
     0
102
RTVSPropertyOp53
 70
     1
102
RTVSPropertyOp54
 70
     1
102
RTVSPropertyOp55
 70
     1
102
RTVSPropertyOp56
 70
     1
102
RTVSPropertyOp57
 70
     1
102
RTVSPropertyOp58
 70
     1
102
RTVSPropertyOp59
 70
     1
102
RTVSPropertyOp60
 70
     1
102
RTVSPropertyOp61
 70
     1
102
RTVSPropertyOp62
 70
     1
  0
XRECORD
  5
A9A4
102
{ACAD_REACTORS
330
A9A3
102
}
330
A9A3
100
AcDbXrecord
280
     1
102
RTVSPost2010Prop28
280
     0
102
RTVSPost2010PropOp28
 70
     1
102
RTVSPost2010Prop29
280
     1
102
RTVSPost2010PropOp29
 70
     1
102
RTVSPost2010Prop30
280
     1
102
RTVSPost2010PropOp30
 70
     1
102
RTVSPost2010Prop31
280
     0
102
RTVSPost2010PropOp31
 70
     1
102
RTVSPost2010Prop32
280
     0
102
RTVSPost2010PropOp32
 70
     1
102
RTVSPost2010Prop33
280
     0
102
RTVSPost2010PropOp33
 70
     1
102
RTVSPost2010Prop34
280
     0
102
RTVSPost2010PropOp34
 70
     1
102
RTVSPost2010Prop35
280
     0
102
RTVSPost2010PropOp35
 70
     1
102
RTVSPost2010Prop36
280
     0
102
RTVSPost2010PropOp36
 70
     1
102
RTVSPost2010Prop37
 90
       50
102
RTVSPost2010PropOp37
 70
     1
102
RTVSPost2010Prop38
140
0.0
102
RTVSPost2010PropOp38
 70
     1
102
RTVSPost2010Prop39
140
1.0
102
RTVSPost2010PropOp39
 70
     1
102
RTVSPost2010Prop40
 90
        0
102
RTVSPost2010PropOp40
 70
     1
102
RTVSPost2010Prop41ColorIndex
 90
       18
102
RTVSPost2010Prop41ColorRGB
 90
        0
102
RTVSPost2010PropOp41
 70
     1
102
RTVSPost2010Prop42
 90
       50
102
RTVSPost2010PropOp42
 70
     1
102
RTVSPost2010Prop43
 90
        3
102
RTVSPost2010PropOp43
 70
     1
102
RTVSPost2010Prop44ColorIndex
 90
        5
102
RTVSPost2010Prop44ColorRGB
 90
      255
102
RTVSPost2010PropOp44
 70
     1
102
RTVSPost2010Prop45
280
     0
102
RTVSPost2010PropOp45
 70
     1
102
RTVSPost2010Prop46
 90
       50
102
RTVSPost2010PropOp46
 70
     1
102
RTVSPost2010Prop47
 90
       50
102
RTVSPost2010PropOp47
 70
     1
102
RTVSPost2010Prop48
 90
       50
102
RTVSPost2010PropOp48
 70
     1
102
RTVSPost2010Prop49
280
     0
102
RTVSPost2010PropOp49
 70
     1
102
RTVSPost2010Prop50
 90
       50
102
RTVSPost2010PropOp50
 70
     1
102
RTVSPost2010Prop51ColorIndex
 90
      256
102
RTVSPost2010Prop51ColorRGB
 90
-16777216
102
RTVSPost2010PropOp51
 70
     0
102
RTVSPost2010Prop52
140
1.0
102
RTVSPost2010PropOp52
 70
     0
102
RTVSPost2010Prop53
 90
        2
102
RTVSPost2010PropOp53
 70
     1
102
RTVSPost2010Prop54
  1
strokes_ogs.tif
102
RTVSPost2010PropOp54
 70
     1
102
RTVSPost2010Prop55
280
     0
102
RTVSPost2010PropOp55
 70
     1
102
RTVSPost2010Prop56
140
1.0
102
RTVSPost2010PropOp56
 70
     1
102
RTVSPost2010Prop57
140
1.0
102
RTVSPost2010PropOp57
 70
     1
102
RTVSPropertyOp0
 70
     1
102
RTVSPropertyOp1
 70
     1
102
RTVSPropertyOp2
 70
     1
102
RTVSPropertyOp3
 70
     1
102
RTVSPropertyOp4
 70
     1
102
RTVSPropertyOp5
 70
     1
102
RTVSPropertyOp6
 70
     1
102
RTVSPropertyOp7
 70
     1
102
RTVSPropertyOp8
 70
     1
102
RTVSPropertyOp9
 70
     1
102
RTVSPropertyOp10
 70
     1
102
RTVSPropertyOp11
 70
     1
102
RTVSPropertyOp12
 70
     1
102
RTVSPropertyOp13
 70
     1
102
RTVSPropertyOp14
 70
     1
102
RTVSPropertyOp15
 70
     1
102
RTVSPropertyOp16
 70
     1
102
RTVSPropertyOp17
 70
     1
102
RTVSPropertyOp18
 70
     1
102
RTVSPropertyOp19
 70
     1
102
RTVSPropertyOp20
 70
     1
102
RTVSPropertyOp21
 70
     1
102
RTVSPropertyOp22
 70
     1
102
RTVSPropertyOp23
 70
     1
102
RTVSPropertyOp24
 70
     1
102
RTVSPropertyOp25
 70
     1
102
RTVSPropertyOp26
 70
     1
102
RTVSPropertyOp27
 70
     1
102
RTVSPropertyOp28
 70
     1
102
RTVSPropertyOp29
 70
     1
102
RTVSPropertyOp30
 70
     1
102
RTVSPropertyOp31
 70
     1
102
RTVSPropertyOp32
 70
     1
102
RTVSPropertyOp33
 70
     1
102
RTVSPropertyOp34
 70
     1
102
RTVSPropertyOp35
 70
     1
102
RTVSPropertyOp36
 70
     1
102
RTVSPropertyOp37
 70
     1
102
RTVSPropertyOp38
 70
     1
102
RTVSPropertyOp39
 70
     1
102
RTVSPropertyOp40
 70
     1
102
RTVSPropertyOp41
 70
     1
102
RTVSPropertyOp42
 70
     1
102
RTVSPropertyOp43
 70
     1
102
RTVSPropertyOp44
 70
     1
102
RTVSPropertyOp45
 70
     1
102
RTVSPropertyOp46
 70
     1
102
RTVSPropertyOp47
 70
     1
102
RTVSPropertyOp48
 70
     1
102
RTVSPropertyOp49
 70
     1
102
RTVSPropertyOp50
 70
     1
102
RTVSPropertyOp51
 70
     0
102
RTVSPropertyOp52
 70
     0
102
RTVSPropertyOp53
 70
     1
102
RTVSPropertyOp54
 70
     1
102
RTVSPropertyOp55
 70
     1
102
RTVSPropertyOp56
 70
     1
102
RTVSPropertyOp57
 70
     1
102
RTVSPropertyOp58
 70
     1
102
RTVSPropertyOp59
 70
     1
102
RTVSPropertyOp60
 70
     1
102
RTVSPropertyOp61
 70
     1
102
RTVSPropertyOp62
 70
     1
  0
XRECORD
  5
A9C0
102
{ACAD_REACTORS
330
A9BF
102
}
330
A9BF
100
AcDbXrecord
280
     1
102
RTVSPost2010Prop28
280
     0
102
RTVSPost2010PropOp28
 70
     1
102
RTVSPost2010Prop29
280
     1
102
RTVSPost2010PropOp29
 70
     1
102
RTVSPost2010Prop30
280
     1
102
RTVSPost2010PropOp30
 70
     1
102
RTVSPost2010Prop31
280
     0
102
RTVSPost2010PropOp31
 70
     1
102
RTVSPost2010Prop32
280
     0
102
RTVSPost2010PropOp32
 70
     1
102
RTVSPost2010Prop33
280
     0
102
RTVSPost2010PropOp33
 70
     1
102
RTVSPost2010Prop34
280
     0
102
RTVSPost2010PropOp34
 70
     1
102
RTVSPost2010Prop35
280
     0
102
RTVSPost2010PropOp35
 70
     1
102
RTVSPost2010Prop36
280
     0
102
RTVSPost2010PropOp36
 70
     1
102
RTVSPost2010Prop37
 90
       50
102
RTVSPost2010PropOp37
 70
     0
102
RTVSPost2010Prop38
140
0.0
102
RTVSPost2010PropOp38
 70
     0
102
RTVSPost2010Prop39
140
1.0
102
RTVSPost2010PropOp39
 70
     0
102
RTVSPost2010Prop40
 90
        0
102
RTVSPost2010PropOp40
 70
     0
102
RTVSPost2010Prop41ColorIndex
 90
       18
102
RTVSPost2010Prop41ColorRGB
 90
        0
102
RTVSPost2010PropOp41
 70
     0
102
RTVSPost2010Prop42
 90
       50
102
RTVSPost2010PropOp42
 70
     0
102
RTVSPost2010Prop43
 90
        3
102
RTVSPost2010PropOp43
 70
     0
102
RTVSPost2010Prop44ColorIndex
 90
        5
102
RTVSPost2010Prop44ColorRGB
 90
      255
102
RTVSPost2010PropOp44
 70
     0
102
RTVSPost2010Prop45
280
     0
102
RTVSPost2010PropOp45
 70
     1
102
RTVSPost2010Prop46
 90
       50
102
RTVSPost2010PropOp46
 70
     0
102
RTVSPost2010Prop47
 90
       50
102
RTVSPost2010PropOp47
 70
     0
102
RTVSPost2010Prop48
 90
       50
102
RTVSPost2010PropOp48
 70
     0
102
RTVSPost2010Prop49
280
     0
102
RTVSPost2010PropOp49
 70
     1
102
RTVSPost2010Prop50
 90
       50
102
RTVSPost2010PropOp50
 70
     0
102
RTVSPost2010Prop51ColorIndex
 90
      256
102
RTVSPost2010Prop51ColorRGB
 90
-16777216
102
RTVSPost2010PropOp51
 70
     0
102
RTVSPost2010Prop52
140
1.0
102
RTVSPost2010PropOp52
 70
     0
102
RTVSPost2010Prop53
 90
        2
102
RTVSPost2010PropOp53
 70
     0
102
RTVSPost2010Prop54
  1
strokes_ogs.tif
102
RTVSPost2010PropOp54
 70
     0
102
RTVSPost2010Prop55
280
     0
102
RTVSPost2010PropOp55
 70
     1
102
RTVSPost2010Prop56
140
1.0
102
RTVSPost2010PropOp56
 70
     0
102
RTVSPost2010Prop57
140
1.0
102
RTVSPost2010PropOp57
 70
     0
102
RTVSPropertyOp0
 70
     0
102
RTVSPropertyOp1
 70
     0
102
RTVSPropertyOp2
 70
     0
102
RTVSPropertyOp3
 70
     0
102
RTVSPropertyOp4
 70
     0
102
RTVSPropertyOp5
 70
     0
102
RTVSPropertyOp6
 70
     0
102
RTVSPropertyOp7
 70
     0
102
RTVSPropertyOp8
 70
     0
102
RTVSPropertyOp9
 70
     0
102
RTVSPropertyOp10
 70
     0
102
RTVSPropertyOp11
 70
     0
102
RTVSPropertyOp12
 70
     0
102
RTVSPropertyOp13
 70
     0
102
RTVSPropertyOp14
 70
     2
102
RTVSPropertyOp15
 70
     0
102
RTVSPropertyOp16
 70
     0
102
RTVSPropertyOp17
 70
     0
102
RTVSPropertyOp18
 70
     0
102
RTVSPropertyOp19
 70
     0
102
RTVSPropertyOp20
 70
     0
102
RTVSPropertyOp21
 70
     0
102
RTVSPropertyOp22
 70
     0
102
RTVSPropertyOp23
 70
     0
102
RTVSPropertyOp24
 70
     0
102
RTVSPropertyOp25
 70
     0
102
RTVSPropertyOp26
 70
     0
102
RTVSPropertyOp27
 70
     0
102
RTVSPropertyOp28
 70
     1
102
RTVSPropertyOp29
 70
     1
102
RTVSPropertyOp30
 70
     1
102
RTVSPropertyOp31
 70
     1
102
RTVSPropertyOp32
 70
     1
102
RTVSPropertyOp33
 70
     1
102
RTVSPropertyOp34
 70
     1
102
RTVSPropertyOp35
 70
     1
102
RTVSPropertyOp36
 70
     1
102
RTVSPropertyOp37
 70
     0
102
RTVSPropertyOp38
 70
     0
102
RTVSPropertyOp39
 70
     0
102
RTVSPropertyOp40
 70
     0
102
RTVSPropertyOp41
 70
     0
102
RTVSPropertyOp42
 70
     0
102
RTVSPropertyOp43
 70
     0
102
RTVSPropertyOp44
 70
     0
102
RTVSPropertyOp45
 70
     1
102
RTVSPropertyOp46
 70
     0
102
RTVSPropertyOp47
 70
     0
102
RTVSPropertyOp48
 70
     0
102
RTVSPropertyOp49
 70
     1
102
RTVSPropertyOp50
 70
     0
102
RTVSPropertyOp51
 70
     0
102
RTVSPropertyOp52
 70
     0
102
RTVSPropertyOp53
 70
     0
102
RTVSPropertyOp54
 70
     0
102
RTVSPropertyOp55
 70
     1
102
RTVSPropertyOp56
 70
     0
102
RTVSPropertyOp57
 70
     0
102
RTVSPropertyOp58
 70
     0
102
RTVSPropertyOp59
 70
     0
102
RTVSPropertyOp60
 70
     0
102
RTVSPropertyOp61
 70
     0
102
RTVSPropertyOp62
 70
     0
  0
XRECORD
  5
A9B0
102
{ACAD_REACTORS
330
A9AF
102
}
330
A9AF
100
AcDbXrecord
280
     1
102
RTVSPost2010Prop28
280
     0
102
RTVSPost2010PropOp28
 70
     1
102
RTVSPost2010Prop29
280
     1
102
RTVSPost2010PropOp29
 70
     1
102
RTVSPost2010Prop30
280
     1
102
RTVSPost2010PropOp30
 70
     1
102
RTVSPost2010Prop31
280
     0
102
RTVSPost2010PropOp31
 70
     1
102
RTVSPost2010Prop32
280
     0
102
RTVSPost2010PropOp32
 70
     1
102
RTVSPost2010Prop33
280
     0
102
RTVSPost2010PropOp33
 70
     1
102
RTVSPost2010Prop34
280
     0
102
RTVSPost2010PropOp34
 70
     1
102
RTVSPost2010Prop35
280
     0
102
RTVSPost2010PropOp35
 70
     1
102
RTVSPost2010Prop36
280
     0
102
RTVSPost2010PropOp36
 70
     1
102
RTVSPost2010Prop37
 90
       50
102
RTVSPost2010PropOp37
 70
     1
102
RTVSPost2010Prop38
140
0.0
102
RTVSPost2010PropOp38
 70
     1
102
RTVSPost2010Prop39
140
1.0
102
RTVSPost2010PropOp39
 70
     1
102
RTVSPost2010Prop40
 90
        0
102
RTVSPost2010PropOp40
 70
     1
102
RTVSPost2010Prop41ColorIndex
 90
       18
102
RTVSPost2010Prop41ColorRGB
 90
        0
102
RTVSPost2010PropOp41
 70
     1
102
RTVSPost2010Prop42
 90
       50
102
RTVSPost2010PropOp42
 70
     1
102
RTVSPost2010Prop43
 90
        3
102
RTVSPost2010PropOp43
 70
     1
102
RTVSPost2010Prop44ColorIndex
 90
        5
102
RTVSPost2010Prop44ColorRGB
 90
      255
102
RTVSPost2010PropOp44
 70
     1
102
RTVSPost2010Prop45
280
     0
102
RTVSPost2010PropOp45
 70
     1
102
RTVSPost2010Prop46
 90
       50
102
RTVSPost2010PropOp46
 70
     1
102
RTVSPost2010Prop47
 90
       50
102
RTVSPost2010PropOp47
 70
     1
102
RTVSPost2010Prop48
 90
       50
102
RTVSPost2010PropOp48
 70
     1
102
RTVSPost2010Prop49
280
     0
102
RTVSPost2010PropOp49
 70
     1
102
RTVSPost2010Prop50
 90
       50
102
RTVSPost2010PropOp50
 70
     1
102
RTVSPost2010Prop51ColorIndex
 90
      256
102
RTVSPost2010Prop51ColorRGB
 90
-16777216
102
RTVSPost2010PropOp51
 70
     0
102
RTVSPost2010Prop52
140
1.0
102
RTVSPost2010PropOp52
 70
     0
102
RTVSPost2010Prop53
 90
        2
102
RTVSPost2010PropOp53
 70
     1
102
RTVSPost2010Prop54
  1
strokes_ogs.tif
102
RTVSPost2010PropOp54
 70
     1
102
RTVSPost2010Prop55
280
     0
102
RTVSPost2010PropOp55
 70
     1
102
RTVSPost2010Prop56
140
1.0
102
RTVSPost2010PropOp56
 70
     1
102
RTVSPost2010Prop57
140
1.0
102
RTVSPost2010PropOp57
 70
     1
102
RTVSPropertyOp0
 70
     1
102
RTVSPropertyOp1
 70
     1
102
RTVSPropertyOp2
 70
     1
102
RTVSPropertyOp3
 70
     1
102
RTVSPropertyOp4
 70
     1
102
RTVSPropertyOp5
 70
     1
102
RTVSPropertyOp6
 70
     1
102
RTVSPropertyOp7
 70
     1
102
RTVSPropertyOp8
 70
     1
102
RTVSPropertyOp9
 70
     1
102
RTVSPropertyOp10
 70
     1
102
RTVSPropertyOp11
 70
     1
102
RTVSPropertyOp12
 70
     1
102
RTVSPropertyOp13
 70
     1
102
RTVSPropertyOp14
 70
     1
102
RTVSPropertyOp15
 70
     1
102
RTVSPropertyOp16
 70
     1
102
RTVSPropertyOp17
 70
     1
102
RTVSPropertyOp18
 70
     1
102
RTVSPropertyOp19
 70
     1
102
RTVSPropertyOp20
 70
     1
102
RTVSPropertyOp21
 70
     1
102
RTVSPropertyOp22
 70
     1
102
RTVSPropertyOp23
 70
     1
102
RTVSPropertyOp24
 70
     1
102
RTVSPropertyOp25
 70
     1
102
RTVSPropertyOp26
 70
     1
102
RTVSPropertyOp27
 70
     1
102
RTVSPropertyOp28
 70
     1
102
RTVSPropertyOp29
 70
     1
102
RTVSPropertyOp30
 70
     1
102
RTVSPropertyOp31
 70
     1
102
RTVSPropertyOp32
 70
     1
102
RTVSPropertyOp33
 70
     1
102
RTVSPropertyOp34
 70
     1
102
RTVSPropertyOp35
 70
     1
102
RTVSPropertyOp36
 70
     1
102
RTVSPropertyOp37
 70
     1
102
RTVSPropertyOp38
 70
     1
102
RTVSPropertyOp39
 70
     1
102
RTVSPropertyOp40
 70
     1
102
RTVSPropertyOp41
 70
     1
102
RTVSPropertyOp42
 70
     1
102
RTVSPropertyOp43
 70
     1
102
RTVSPropertyOp44
 70
     1
102
RTVSPropertyOp45
 70
     1
102
RTVSPropertyOp46
 70
     1
102
RTVSPropertyOp47
 70
     1
102
RTVSPropertyOp48
 70
     1
102
RTVSPropertyOp49
 70
     1
102
RTVSPropertyOp50
 70
     1
102
RTVSPropertyOp51
 70
     0
102
RTVSPropertyOp52
 70
     0
102
RTVSPropertyOp53
 70
     1
102
RTVSPropertyOp54
 70
     1
102
RTVSPropertyOp55
 70
     1
102
RTVSPropertyOp56
 70
     1
102
RTVSPropertyOp57
 70
     1
102
RTVSPropertyOp58
 70
     1
102
RTVSPropertyOp59
 70
     1
102
RTVSPropertyOp60
 70
     1
102
RTVSPropertyOp61
 70
     1
102
RTVSPropertyOp62
 70
     1
  0
XRECORD
  5
A9C2
102
{ACAD_REACTORS
330
A9C1
102
}
330
A9C1
100
AcDbXrecord
280
     1
102
RTVSPost2010Prop28
280
     0
102
RTVSPost2010PropOp28
 70
     1
102
RTVSPost2010Prop29
280
     1
102
RTVSPost2010PropOp29
 70
     1
102
RTVSPost2010Prop30
280
     1
102
RTVSPost2010PropOp30
 70
     1
102
RTVSPost2010Prop31
280
     0
102
RTVSPost2010PropOp31
 70
     1
102
RTVSPost2010Prop32
280
     0
102
RTVSPost2010PropOp32
 70
     1
102
RTVSPost2010Prop33
280
     0
102
RTVSPost2010PropOp33
 70
     1
102
RTVSPost2010Prop34
280
     0
102
RTVSPost2010PropOp34
 70
     1
102
RTVSPost2010Prop35
280
     0
102
RTVSPost2010PropOp35
 70
     1
102
RTVSPost2010Prop36
280
     0
102
RTVSPost2010PropOp36
 70
     1
102
RTVSPost2010Prop37
 90
       50
102
RTVSPost2010PropOp37
 70
     0
102
RTVSPost2010Prop38
140
0.0
102
RTVSPost2010PropOp38
 70
     0
102
RTVSPost2010Prop39
140
1.0
102
RTVSPost2010PropOp39
 70
     0
102
RTVSPost2010Prop40
 90
        0
102
RTVSPost2010PropOp40
 70
     0
102
RTVSPost2010Prop41ColorIndex
 90
       18
102
RTVSPost2010Prop41ColorRGB
 90
        0
102
RTVSPost2010PropOp41
 70
     0
102
RTVSPost2010Prop42
 90
       50
102
RTVSPost2010PropOp42
 70
     0
102
RTVSPost2010Prop43
 90
        3
102
RTVSPost2010PropOp43
 70
     0
102
RTVSPost2010Prop44ColorIndex
 90
        5
102
RTVSPost2010Prop44ColorRGB
 90
      255
102
RTVSPost2010PropOp44
 70
     0
102
RTVSPost2010Prop45
280
     0
102
RTVSPost2010PropOp45
 70
     1
102
RTVSPost2010Prop46
 90
       50
102
RTVSPost2010PropOp46
 70
     0
102
RTVSPost2010Prop47
 90
       50
102
RTVSPost2010PropOp47
 70
     0
102
RTVSPost2010Prop48
 90
       50
102
RTVSPost2010PropOp48
 70
     0
102
RTVSPost2010Prop49
280
     0
102
RTVSPost2010PropOp49
 70
     1
102
RTVSPost2010Prop50
 90
       50
102
RTVSPost2010PropOp50
 70
     0
102
RTVSPost2010Prop51ColorIndex
 90
      256
102
RTVSPost2010Prop51ColorRGB
 90
-16777216
102
RTVSPost2010PropOp51
 70
     0
102
RTVSPost2010Prop52
140
1.0
102
RTVSPost2010PropOp52
 70
     0
102
RTVSPost2010Prop53
 90
        2
102
RTVSPost2010PropOp53
 70
     0
102
RTVSPost2010Prop54
  1
strokes_ogs.tif
102
RTVSPost2010PropOp54
 70
     0
102
RTVSPost2010Prop55
280
     0
102
RTVSPost2010PropOp55
 70
     1
102
RTVSPost2010Prop56
140
1.0
102
RTVSPost2010PropOp56
 70
     0
102
RTVSPost2010Prop57
140
1.0
102
RTVSPost2010PropOp57
 70
     0
102
RTVSPropertyOp0
 70
     0
102
RTVSPropertyOp1
 70
     0
102
RTVSPropertyOp2
 70
     0
102
RTVSPropertyOp3
 70
     0
102
RTVSPropertyOp4
 70
     0
102
RTVSPropertyOp5
 70
     0
102
RTVSPropertyOp6
 70
     0
102
RTVSPropertyOp7
 70
     0
102
RTVSPropertyOp8
 70
     0
102
RTVSPropertyOp9
 70
     0
102
RTVSPropertyOp10
 70
     0
102
RTVSPropertyOp11
 70
     0
102
RTVSPropertyOp12
 70
     0
102
RTVSPropertyOp13
 70
     0
102
RTVSPropertyOp14
 70
     2
102
RTVSPropertyOp15
 70
     0
102
RTVSPropertyOp16
 70
     0
102
RTVSPropertyOp17
 70
     0
102
RTVSPropertyOp18
 70
     0
102
RTVSPropertyOp19
 70
     0
102
RTVSPropertyOp20
 70
     0
102
RTVSPropertyOp21
 70
     0
102
RTVSPropertyOp22
 70
     0
102
RTVSPropertyOp23
 70
     0
102
RTVSPropertyOp24
 70
     0
102
RTVSPropertyOp25
 70
     0
102
RTVSPropertyOp26
 70
     0
102
RTVSPropertyOp27
 70
     0
102
RTVSPropertyOp28
 70
     1
102
RTVSPropertyOp29
 70
     1
102
RTVSPropertyOp30
 70
     1
102
RTVSPropertyOp31
 70
     1
102
RTVSPropertyOp32
 70
     1
102
RTVSPropertyOp33
 70
     1
102
RTVSPropertyOp34
 70
     1
102
RTVSPropertyOp35
 70
     1
102
RTVSPropertyOp36
 70
     1
102
RTVSPropertyOp37
 70
     0
102
RTVSPropertyOp38
 70
     0
102
RTVSPropertyOp39
 70
     0
102
RTVSPropertyOp40
 70
     0
102
RTVSPropertyOp41
 70
     0
102
RTVSPropertyOp42
 70
     0
102
RTVSPropertyOp43
 70
     0
102
RTVSPropertyOp44
 70
     0
102
RTVSPropertyOp45
 70
     1
102
RTVSPropertyOp46
 70
     0
102
RTVSPropertyOp47
 70
     0
102
RTVSPropertyOp48
 70
     0
102
RTVSPropertyOp49
 70
     1
102
RTVSPropertyOp50
 70
     0
102
RTVSPropertyOp51
 70
     0
102
RTVSPropertyOp52
 70
     0
102
RTVSPropertyOp53
 70
     0
102
RTVSPropertyOp54
 70
     0
102
RTVSPropertyOp55
 70
     1
102
RTVSPropertyOp56
 70
     0
102
RTVSPropertyOp57
 70
     0
102
RTVSPropertyOp58
 70
     0
102
RTVSPropertyOp59
 70
     0
102
RTVSPropertyOp60
 70
     0
102
RTVSPropertyOp61
 70
     0
102
RTVSPropertyOp62
 70
     0
  0
XRECORD
  5
A9A8
102
{ACAD_REACTORS
330
A9A7
102
}
330
A9A7
100
AcDbXrecord
280
     1
102
RTVSPost2010Prop28
280
     0
102
RTVSPost2010PropOp28
 70
     1
102
RTVSPost2010Prop29
280
     1
102
RTVSPost2010PropOp29
 70
     1
102
RTVSPost2010Prop30
280
     1
102
RTVSPost2010PropOp30
 70
     1
102
RTVSPost2010Prop31
280
     0
102
RTVSPost2010PropOp31
 70
     1
102
RTVSPost2010Prop32
280
     0
102
RTVSPost2010PropOp32
 70
     1
102
RTVSPost2010Prop33
280
     0
102
RTVSPost2010PropOp33
 70
     1
102
RTVSPost2010Prop34
280
     0
102
RTVSPost2010PropOp34
 70
     1
102
RTVSPost2010Prop35
280
     0
102
RTVSPost2010PropOp35
 70
     1
102
RTVSPost2010Prop36
280
     0
102
RTVSPost2010PropOp36
 70
     1
102
RTVSPost2010Prop37
 90
       50
102
RTVSPost2010PropOp37
 70
     1
102
RTVSPost2010Prop38
140
0.0
102
RTVSPost2010PropOp38
 70
     1
102
RTVSPost2010Prop39
140
1.0
102
RTVSPost2010PropOp39
 70
     1
102
RTVSPost2010Prop40
 90
        0
102
RTVSPost2010PropOp40
 70
     1
102
RTVSPost2010Prop41ColorIndex
 90
       18
102
RTVSPost2010Prop41ColorRGB
 90
        0
102
RTVSPost2010PropOp41
 70
     1
102
RTVSPost2010Prop42
 90
       50
102
RTVSPost2010PropOp42
 70
     1
102
RTVSPost2010Prop43
 90
        3
102
RTVSPost2010PropOp43
 70
     1
102
RTVSPost2010Prop44ColorIndex
 90
        5
102
RTVSPost2010Prop44ColorRGB
 90
      255
102
RTVSPost2010PropOp44
 70
     1
102
RTVSPost2010Prop45
280
     0
102
RTVSPost2010PropOp45
 70
     1
102
RTVSPost2010Prop46
 90
       50
102
RTVSPost2010PropOp46
 70
     1
102
RTVSPost2010Prop47
 90
       50
102
RTVSPost2010PropOp47
 70
     1
102
RTVSPost2010Prop48
 90
       50
102
RTVSPost2010PropOp48
 70
     1
102
RTVSPost2010Prop49
280
     0
102
RTVSPost2010PropOp49
 70
     1
102
RTVSPost2010Prop50
 90
       50
102
RTVSPost2010PropOp50
 70
     1
102
RTVSPost2010Prop51ColorIndex
 90
      256
102
RTVSPost2010Prop51ColorRGB
 90
-16777216
102
RTVSPost2010PropOp51
 70
     0
102
RTVSPost2010Prop52
140
1.0
102
RTVSPost2010PropOp52
 70
     0
102
RTVSPost2010Prop53
 90
        2
102
RTVSPost2010PropOp53
 70
     1
102
RTVSPost2010Prop54
  1
strokes_ogs.tif
102
RTVSPost2010PropOp54
 70
     1
102
RTVSPost2010Prop55
280
     0
102
RTVSPost2010PropOp55
 70
     1
102
RTVSPost2010Prop56
140
1.0
102
RTVSPost2010PropOp56
 70
     1
102
RTVSPost2010Prop57
140
1.0
102
RTVSPost2010PropOp57
 70
     1
102
RTVSPropertyOp0
 70
     1
102
RTVSPropertyOp1
 70
     1
102
RTVSPropertyOp2
 70
     1
102
RTVSPropertyOp3
 70
     1
102
RTVSPropertyOp4
 70
     1
102
RTVSPropertyOp5
 70
     1
102
RTVSPropertyOp6
 70
     1
102
RTVSPropertyOp7
 70
     1
102
RTVSPropertyOp8
 70
     1
102
RTVSPropertyOp9
 70
     1
102
RTVSPropertyOp10
 70
     1
102
RTVSPropertyOp11
 70
     1
102
RTVSPropertyOp12
 70
     1
102
RTVSPropertyOp13
 70
     1
102
RTVSPropertyOp14
 70
     1
102
RTVSPropertyOp15
 70
     1
102
RTVSPropertyOp16
 70
     1
102
RTVSPropertyOp17
 70
     1
102
RTVSPropertyOp18
 70
     1
102
RTVSPropertyOp19
 70
     1
102
RTVSPropertyOp20
 70
     1
102
RTVSPropertyOp21
 70
     1
102
RTVSPropertyOp22
 70
     1
102
RTVSPropertyOp23
 70
     1
102
RTVSPropertyOp24
 70
     1
102
RTVSPropertyOp25
 70
     1
102
RTVSPropertyOp26
 70
     1
102
RTVSPropertyOp27
 70
     1
102
RTVSPropertyOp28
 70
     1
102
RTVSPropertyOp29
 70
     1
102
RTVSPropertyOp30
 70
     1
102
RTVSPropertyOp31
 70
     1
102
RTVSPropertyOp32
 70
     1
102
RTVSPropertyOp33
 70
     1
102
RTVSPropertyOp34
 70
     1
102
RTVSPropertyOp35
 70
     1
102
RTVSPropertyOp36
 70
     1
102
RTVSPropertyOp37
 70
     1
102
RTVSPropertyOp38
 70
     1
102
RTVSPropertyOp39
 70
     1
102
RTVSPropertyOp40
 70
     1
102
RTVSPropertyOp41
 70
     1
102
RTVSPropertyOp42
 70
     1
102
RTVSPropertyOp43
 70
     1
102
RTVSPropertyOp44
 70
     1
102
RTVSPropertyOp45
 70
     1
102
RTVSPropertyOp46
 70
     1
102
RTVSPropertyOp47
 70
     1
102
RTVSPropertyOp48
 70
     1
102
RTVSPropertyOp49
 70
     1
102
RTVSPropertyOp50
 70
     1
102
RTVSPropertyOp51
 70
     0
102
RTVSPropertyOp52
 70
     0
102
RTVSPropertyOp53
 70
     1
102
RTVSPropertyOp54
 70
     1
102
RTVSPropertyOp55
 70
     1
102
RTVSPropertyOp56
 70
     1
102
RTVSPropertyOp57
 70
     1
102
RTVSPropertyOp58
 70
     1
102
RTVSPropertyOp59
 70
     1
102
RTVSPropertyOp60
 70
     1
102
RTVSPropertyOp61
 70
     1
102
RTVSPropertyOp62
 70
     1
  0
XRECORD
  5
A9BE
102
{ACAD_REACTORS
330
A9BD
102
}
330
A9BD
100
AcDbXrecord
280
     1
102
RTVSPost2010Prop28
280
     0
102
RTVSPost2010PropOp28
 70
     1
102
RTVSPost2010Prop29
280
     1
102
RTVSPost2010PropOp29
 70
     1
102
RTVSPost2010Prop30
280
     1
102
RTVSPost2010PropOp30
 70
     1
102
RTVSPost2010Prop31
280
     0
102
RTVSPost2010PropOp31
 70
     1
102
RTVSPost2010Prop32
280
     0
102
RTVSPost2010PropOp32
 70
     1
102
RTVSPost2010Prop33
280
     0
102
RTVSPost2010PropOp33
 70
     1
102
RTVSPost2010Prop34
280
     0
102
RTVSPost2010PropOp34
 70
     1
102
RTVSPost2010Prop35
280
     0
102
RTVSPost2010PropOp35
 70
     1
102
RTVSPost2010Prop36
280
     0
102
RTVSPost2010PropOp36
 70
     1
102
RTVSPost2010Prop37
 90
       50
102
RTVSPost2010PropOp37
 70
     1
102
RTVSPost2010Prop38
140
0.0
102
RTVSPost2010PropOp38
 70
     1
102
RTVSPost2010Prop39
140
1.0
102
RTVSPost2010PropOp39
 70
     1
102
RTVSPost2010Prop40
 90
        0
102
RTVSPost2010PropOp40
 70
     1
102
RTVSPost2010Prop41ColorIndex
 90
       18
102
RTVSPost2010Prop41ColorRGB
 90
        0
102
RTVSPost2010PropOp41
 70
     1
102
RTVSPost2010Prop42
 90
       50
102
RTVSPost2010PropOp42
 70
     1
102
RTVSPost2010Prop43
 90
        3
102
RTVSPost2010PropOp43
 70
     1
102
RTVSPost2010Prop44ColorIndex
 90
        5
102
RTVSPost2010Prop44ColorRGB
 90
      255
102
RTVSPost2010PropOp44
 70
     1
102
RTVSPost2010Prop45
280
     0
102
RTVSPost2010PropOp45
 70
     1
102
RTVSPost2010Prop46
 90
       50
102
RTVSPost2010PropOp46
 70
     1
102
RTVSPost2010Prop47
 90
       50
102
RTVSPost2010PropOp47
 70
     1
102
RTVSPost2010Prop48
 90
       50
102
RTVSPost2010PropOp48
 70
     1
102
RTVSPost2010Prop49
280
     0
102
RTVSPost2010PropOp49
 70
     1
102
RTVSPost2010Prop50
 90
       50
102
RTVSPost2010PropOp50
 70
     1
102
RTVSPost2010Prop51ColorIndex
 90
      256
102
RTVSPost2010Prop51ColorRGB
 90
-16777216
102
RTVSPost2010PropOp51
 70
     0
102
RTVSPost2010Prop52
140
1.0
102
RTVSPost2010PropOp52
 70
     0
102
RTVSPost2010Prop53
 90
        2
102
RTVSPost2010PropOp53
 70
     1
102
RTVSPost2010Prop54
  1
strokes_ogs.tif
102
RTVSPost2010PropOp54
 70
     1
102
RTVSPost2010Prop55
280
     0
102
RTVSPost2010PropOp55
 70
     1
102
RTVSPost2010Prop56
140
1.0
102
RTVSPost2010PropOp56
 70
     1
102
RTVSPost2010Prop57
140
1.0
102
RTVSPost2010PropOp57
 70
     1
102
RTVSPropertyOp0
 70
     1
102
RTVSPropertyOp1
 70
     1
102
RTVSPropertyOp2
 70
     1
102
RTVSPropertyOp3
 70
     1
102
RTVSPropertyOp4
 70
     1
102
RTVSPropertyOp5
 70
     1
102
RTVSPropertyOp6
 70
     1
102
RTVSPropertyOp7
 70
     1
102
RTVSPropertyOp8
 70
     1
102
RTVSPropertyOp9
 70
     1
102
RTVSPropertyOp10
 70
     1
102
RTVSPropertyOp11
 70
     1
102
RTVSPropertyOp12
 70
     1
102
RTVSPropertyOp13
 70
     1
102
RTVSPropertyOp14
 70
     1
102
RTVSPropertyOp15
 70
     1
102
RTVSPropertyOp16
 70
     1
102
RTVSPropertyOp17
 70
     1
102
RTVSPropertyOp18
 70
     1
102
RTVSPropertyOp19
 70
     1
102
RTVSPropertyOp20
 70
     1
102
RTVSPropertyOp21
 70
     1
102
RTVSPropertyOp22
 70
     1
102
RTVSPropertyOp23
 70
     1
102
RTVSPropertyOp24
 70
     1
102
RTVSPropertyOp25
 70
     1
102
RTVSPropertyOp26
 70
     1
102
RTVSPropertyOp27
 70
     1
102
RTVSPropertyOp28
 70
     1
102
RTVSPropertyOp29
 70
     1
102
RTVSPropertyOp30
 70
     1
102
RTVSPropertyOp31
 70
     1
102
RTVSPropertyOp32
 70
     1
102
RTVSPropertyOp33
 70
     1
102
RTVSPropertyOp34
 70
     1
102
RTVSPropertyOp35
 70
     1
102
RTVSPropertyOp36
 70
     1
102
RTVSPropertyOp37
 70
     1
102
RTVSPropertyOp38
 70
     1
102
RTVSPropertyOp39
 70
     1
102
RTVSPropertyOp40
 70
     1
102
RTVSPropertyOp41
 70
     1
102
RTVSPropertyOp42
 70
     1
102
RTVSPropertyOp43
 70
     1
102
RTVSPropertyOp44
 70
     1
102
RTVSPropertyOp45
 70
     1
102
RTVSPropertyOp46
 70
     1
102
RTVSPropertyOp47
 70
     1
102
RTVSPropertyOp48
 70
     1
102
RTVSPropertyOp49
 70
     1
102
RTVSPropertyOp50
 70
     1
102
RTVSPropertyOp51
 70
     0
102
RTVSPropertyOp52
 70
     0
102
RTVSPropertyOp53
 70
     1
102
RTVSPropertyOp54
 70
     1
102
RTVSPropertyOp55
 70
     1
102
RTVSPropertyOp56
 70
     1
102
RTVSPropertyOp57
 70
     1
102
RTVSPropertyOp58
 70
     1
102
RTVSPropertyOp59
 70
     1
102
RTVSPropertyOp60
 70
     1
102
RTVSPropertyOp61
 70
     1
102
RTVSPropertyOp62
 70
     1
  0
XRECORD
  5
A9BC
102
{ACAD_REACTORS
330
A9BB
102
}
330
A9BB
100
AcDbXrecord
280
     1
102
RTVSPost2010Prop28
280
     0
102
RTVSPost2010PropOp28
 70
     1
102
RTVSPost2010Prop29
280
     1
102
RTVSPost2010PropOp29
 70
     1
102
RTVSPost2010Prop30
280
     1
102
RTVSPost2010PropOp30
 70
     1
102
RTVSPost2010Prop31
280
     0
102
RTVSPost2010PropOp31
 70
     1
102
RTVSPost2010Prop32
280
     0
102
RTVSPost2010PropOp32
 70
     1
102
RTVSPost2010Prop33
280
     0
102
RTVSPost2010PropOp33
 70
     1
102
RTVSPost2010Prop34
280
     0
102
RTVSPost2010PropOp34
 70
     1
102
RTVSPost2010Prop35
280
     0
102
RTVSPost2010PropOp35
 70
     1
102
RTVSPost2010Prop36
280
     0
102
RTVSPost2010PropOp36
 70
     1
102
RTVSPost2010Prop37
 90
       50
102
RTVSPost2010PropOp37
 70
     1
102
RTVSPost2010Prop38
140
0.0
102
RTVSPost2010PropOp38
 70
     1
102
RTVSPost2010Prop39
140
1.0
102
RTVSPost2010PropOp39
 70
     1
102
RTVSPost2010Prop40
 90
        0
102
RTVSPost2010PropOp40
 70
     1
102
RTVSPost2010Prop41ColorIndex
 90
       18
102
RTVSPost2010Prop41ColorRGB
 90
        0
102
RTVSPost2010PropOp41
 70
     1
102
RTVSPost2010Prop42
 90
       50
102
RTVSPost2010PropOp42
 70
     1
102
RTVSPost2010Prop43
 90
        3
102
RTVSPost2010PropOp43
 70
     1
102
RTVSPost2010Prop44ColorIndex
 90
        5
102
RTVSPost2010Prop44ColorRGB
 90
      255
102
RTVSPost2010PropOp44
 70
     1
102
RTVSPost2010Prop45
280
     0
102
RTVSPost2010PropOp45
 70
     1
102
RTVSPost2010Prop46
 90
       50
102
RTVSPost2010PropOp46
 70
     1
102
RTVSPost2010Prop47
 90
       50
102
RTVSPost2010PropOp47
 70
     1
102
RTVSPost2010Prop48
 90
       50
102
RTVSPost2010PropOp48
 70
     1
102
RTVSPost2010Prop49
280
     0
102
RTVSPost2010PropOp49
 70
     1
102
RTVSPost2010Prop50
 90
       50
102
RTVSPost2010PropOp50
 70
     1
102
RTVSPost2010Prop51ColorIndex
 90
      256
102
RTVSPost2010Prop51ColorRGB
 90
-16777216
102
RTVSPost2010PropOp51
 70
     0
102
RTVSPost2010Prop52
140
1.0
102
RTVSPost2010PropOp52
 70
     0
102
RTVSPost2010Prop53
 90
        2
102
RTVSPost2010PropOp53
 70
     1
102
RTVSPost2010Prop54
  1
strokes_ogs.tif
102
RTVSPost2010PropOp54
 70
     1
102
RTVSPost2010Prop55
280
     0
102
RTVSPost2010PropOp55
 70
     1
102
RTVSPost2010Prop56
140
1.0
102
RTVSPost2010PropOp56
 70
     1
102
RTVSPost2010Prop57
140
1.0
102
RTVSPost2010PropOp57
 70
     1
102
RTVSPropertyOp0
 70
     1
102
RTVSPropertyOp1
 70
     1
102
RTVSPropertyOp2
 70
     1
102
RTVSPropertyOp3
 70
     1
102
RTVSPropertyOp4
 70
     1
102
RTVSPropertyOp5
 70
     1
102
RTVSPropertyOp6
 70
     1
102
RTVSPropertyOp7
 70
     1
102
RTVSPropertyOp8
 70
     1
102
RTVSPropertyOp9
 70
     1
102
RTVSPropertyOp10
 70
     1
102
RTVSPropertyOp11
 70
     1
102
RTVSPropertyOp12
 70
     1
102
RTVSPropertyOp13
 70
     1
102
RTVSPropertyOp14
 70
     1
102
RTVSPropertyOp15
 70
     1
102
RTVSPropertyOp16
 70
     1
102
RTVSPropertyOp17
 70
     1
102
RTVSPropertyOp18
 70
     1
102
RTVSPropertyOp19
 70
     1
102
RTVSPropertyOp20
 70
     1
102
RTVSPropertyOp21
 70
     1
102
RTVSPropertyOp22
 70
     1
102
RTVSPropertyOp23
 70
     1
102
RTVSPropertyOp24
 70
     1
102
RTVSPropertyOp25
 70
     1
102
RTVSPropertyOp26
 70
     1
102
RTVSPropertyOp27
 70
     1
102
RTVSPropertyOp28
 70
     1
102
RTVSPropertyOp29
 70
     1
102
RTVSPropertyOp30
 70
     1
102
RTVSPropertyOp31
 70
     1
102
RTVSPropertyOp32
 70
     1
102
RTVSPropertyOp33
 70
     1
102
RTVSPropertyOp34
 70
     1
102
RTVSPropertyOp35
 70
     1
102
RTVSPropertyOp36
 70
     1
102
RTVSPropertyOp37
 70
     1
102
RTVSPropertyOp38
 70
     1
102
RTVSPropertyOp39
 70
     1
102
RTVSPropertyOp40
 70
     1
102
RTVSPropertyOp41
 70
     1
102
RTVSPropertyOp42
 70
     1
102
RTVSPropertyOp43
 70
     1
102
RTVSPropertyOp44
 70
     1
102
RTVSPropertyOp45
 70
     1
102
RTVSPropertyOp46
 70
     1
102
RTVSPropertyOp47
 70
     1
102
RTVSPropertyOp48
 70
     1
102
RTVSPropertyOp49
 70
     1
102
RTVSPropertyOp50
 70
     1
102
RTVSPropertyOp51
 70
     0
102
RTVSPropertyOp52
 70
     0
102
RTVSPropertyOp53
 70
     1
102
RTVSPropertyOp54
 70
     1
102
RTVSPropertyOp55
 70
     1
102
RTVSPropertyOp56
 70
     1
102
RTVSPropertyOp57
 70
     1
102
RTVSPropertyOp58
 70
     1
102
RTVSPropertyOp59
 70
     1
102
RTVSPropertyOp60
 70
     1
102
RTVSPropertyOp61
 70
     1
102
RTVSPropertyOp62
 70
     1
  0
XRECORD
  5
A9B6
102
{ACAD_REACTORS
330
A9B5
102
}
330
A9B5
100
AcDbXrecord
280
     1
102
RTVSPost2010Prop28
280
     0
102
RTVSPost2010PropOp28
 70
     1
102
RTVSPost2010Prop29
280
     1
102
RTVSPost2010PropOp29
 70
     1
102
RTVSPost2010Prop30
280
     1
102
RTVSPost2010PropOp30
 70
     1
102
RTVSPost2010Prop31
280
     0
102
RTVSPost2010PropOp31
 70
     1
102
RTVSPost2010Prop32
280
     0
102
RTVSPost2010PropOp32
 70
     1
102
RTVSPost2010Prop33
280
     0
102
RTVSPost2010PropOp33
 70
     1
102
RTVSPost2010Prop34
280
     0
102
RTVSPost2010PropOp34
 70
     1
102
RTVSPost2010Prop35
280
     0
102
RTVSPost2010PropOp35
 70
     1
102
RTVSPost2010Prop36
280
     0
102
RTVSPost2010PropOp36
 70
     1
102
RTVSPost2010Prop37
 90
       50
102
RTVSPost2010PropOp37
 70
     1
102
RTVSPost2010Prop38
140
0.0
102
RTVSPost2010PropOp38
 70
     1
102
RTVSPost2010Prop39
140
1.0
102
RTVSPost2010PropOp39
 70
     1
102
RTVSPost2010Prop40
 90
        0
102
RTVSPost2010PropOp40
 70
     1
102
RTVSPost2010Prop41ColorIndex
 90
       18
102
RTVSPost2010Prop41ColorRGB
 90
        0
102
RTVSPost2010PropOp41
 70
     1
102
RTVSPost2010Prop42
 90
       50
102
RTVSPost2010PropOp42
 70
     1
102
RTVSPost2010Prop43
 90
        3
102
RTVSPost2010PropOp43
 70
     1
102
RTVSPost2010Prop44ColorIndex
 90
        5
102
RTVSPost2010Prop44ColorRGB
 90
      255
102
RTVSPost2010PropOp44
 70
     1
102
RTVSPost2010Prop45
280
     0
102
RTVSPost2010PropOp45
 70
     1
102
RTVSPost2010Prop46
 90
       50
102
RTVSPost2010PropOp46
 70
     1
102
RTVSPost2010Prop47
 90
       50
102
RTVSPost2010PropOp47
 70
     1
102
RTVSPost2010Prop48
 90
       50
102
RTVSPost2010PropOp48
 70
     1
102
RTVSPost2010Prop49
280
     0
102
RTVSPost2010PropOp49
 70
     1
102
RTVSPost2010Prop50
 90
       50
102
RTVSPost2010PropOp50
 70
     1
102
RTVSPost2010Prop51ColorIndex
 90
      256
102
RTVSPost2010Prop51ColorRGB
 90
-16777216
102
RTVSPost2010PropOp51
 70
     0
102
RTVSPost2010Prop52
140
1.0
102
RTVSPost2010PropOp52
 70
     0
102
RTVSPost2010Prop53
 90
        2
102
RTVSPost2010PropOp53
 70
     1
102
RTVSPost2010Prop54
  1
strokes_ogs.tif
102
RTVSPost2010PropOp54
 70
     1
102
RTVSPost2010Prop55
280
     0
102
RTVSPost2010PropOp55
 70
     1
102
RTVSPost2010Prop56
140
1.0
102
RTVSPost2010PropOp56
 70
     1
102
RTVSPost2010Prop57
140
1.0
102
RTVSPost2010PropOp57
 70
     1
102
RTVSPropertyOp0
 70
     1
102
RTVSPropertyOp1
 70
     1
102
RTVSPropertyOp2
 70
     1
102
RTVSPropertyOp3
 70
     1
102
RTVSPropertyOp4
 70
     1
102
RTVSPropertyOp5
 70
     1
102
RTVSPropertyOp6
 70
     1
102
RTVSPropertyOp7
 70
     1
102
RTVSPropertyOp8
 70
     1
102
RTVSPropertyOp9
 70
     1
102
RTVSPropertyOp10
 70
     1
102
RTVSPropertyOp11
 70
     1
102
RTVSPropertyOp12
 70
     1
102
RTVSPropertyOp13
 70
     1
102
RTVSPropertyOp14
 70
     1
102
RTVSPropertyOp15
 70
     1
102
RTVSPropertyOp16
 70
     1
102
RTVSPropertyOp17
 70
     1
102
RTVSPropertyOp18
 70
     1
102
RTVSPropertyOp19
 70
     1
102
RTVSPropertyOp20
 70
     1
102
RTVSPropertyOp21
 70
     1
102
RTVSPropertyOp22
 70
     1
102
RTVSPropertyOp23
 70
     1
102
RTVSPropertyOp24
 70
     1
102
RTVSPropertyOp25
 70
     1
102
RTVSPropertyOp26
 70
     1
102
RTVSPropertyOp27
 70
     1
102
RTVSPropertyOp28
 70
     1
102
RTVSPropertyOp29
 70
     1
102
RTVSPropertyOp30
 70
     1
102
RTVSPropertyOp31
 70
     1
102
RTVSPropertyOp32
 70
     1
102
RTVSPropertyOp33
 70
     1
102
RTVSPropertyOp34
 70
     1
102
RTVSPropertyOp35
 70
     1
102
RTVSPropertyOp36
 70
     1
102
RTVSPropertyOp37
 70
     1
102
RTVSPropertyOp38
 70
     1
102
RTVSPropertyOp39
 70
     1
102
RTVSPropertyOp40
 70
     1
102
RTVSPropertyOp41
 70
     1
102
RTVSPropertyOp42
 70
     1
102
RTVSPropertyOp43
 70
     1
102
RTVSPropertyOp44
 70
     1
102
RTVSPropertyOp45
 70
     1
102
RTVSPropertyOp46
 70
     1
102
RTVSPropertyOp47
 70
     1
102
RTVSPropertyOp48
 70
     1
102
RTVSPropertyOp49
 70
     1
102
RTVSPropertyOp50
 70
     1
102
RTVSPropertyOp51
 70
     0
102
RTVSPropertyOp52
 70
     0
102
RTVSPropertyOp53
 70
     1
102
RTVSPropertyOp54
 70
     1
102
RTVSPropertyOp55
 70
     1
102
RTVSPropertyOp56
 70
     1
102
RTVSPropertyOp57
 70
     1
102
RTVSPropertyOp58
 70
     1
102
RTVSPropertyOp59
 70
     1
102
RTVSPropertyOp60
 70
     1
102
RTVSPropertyOp61
 70
     1
102
RTVSPropertyOp62
 70
     1
  0
XRECORD
  5
A9B8
102
{ACAD_REACTORS
330
A9B7
102
}
330
A9B7
100
AcDbXrecord
280
     1
102
RTVSPost2010Prop28
280
     0
102
RTVSPost2010PropOp28
 70
     1
102
RTVSPost2010Prop29
280
     1
102
RTVSPost2010PropOp29
 70
     1
102
RTVSPost2010Prop30
280
     1
102
RTVSPost2010PropOp30
 70
     1
102
RTVSPost2010Prop31
280
     0
102
RTVSPost2010PropOp31
 70
     1
102
RTVSPost2010Prop32
280
     0
102
RTVSPost2010PropOp32
 70
     1
102
RTVSPost2010Prop33
280
     0
102
RTVSPost2010PropOp33
 70
     1
102
RTVSPost2010Prop34
280
     0
102
RTVSPost2010PropOp34
 70
     1
102
RTVSPost2010Prop35
280
     0
102
RTVSPost2010PropOp35
 70
     1
102
RTVSPost2010Prop36
280
     0
102
RTVSPost2010PropOp36
 70
     1
102
RTVSPost2010Prop37
 90
       50
102
RTVSPost2010PropOp37
 70
     1
102
RTVSPost2010Prop38
140
0.0
102
RTVSPost2010PropOp38
 70
     1
102
RTVSPost2010Prop39
140
1.0
102
RTVSPost2010PropOp39
 70
     1
102
RTVSPost2010Prop40
 90
        0
102
RTVSPost2010PropOp40
 70
     1
102
RTVSPost2010Prop41ColorIndex
 90
       18
102
RTVSPost2010Prop41ColorRGB
 90
        0
102
RTVSPost2010PropOp41
 70
     1
102
RTVSPost2010Prop42
 90
       50
102
RTVSPost2010PropOp42
 70
     1
102
RTVSPost2010Prop43
 90
        3
102
RTVSPost2010PropOp43
 70
     1
102
RTVSPost2010Prop44ColorIndex
 90
        5
102
RTVSPost2010Prop44ColorRGB
 90
      255
102
RTVSPost2010PropOp44
 70
     1
102
RTVSPost2010Prop45
280
     0
102
RTVSPost2010PropOp45
 70
     1
102
RTVSPost2010Prop46
 90
       50
102
RTVSPost2010PropOp46
 70
     1
102
RTVSPost2010Prop47
 90
       50
102
RTVSPost2010PropOp47
 70
     1
102
RTVSPost2010Prop48
 90
       50
102
RTVSPost2010PropOp48
 70
     1
102
RTVSPost2010Prop49
280
     0
102
RTVSPost2010PropOp49
 70
     1
102
RTVSPost2010Prop50
 90
       50
102
RTVSPost2010PropOp50
 70
     1
102
RTVSPost2010Prop51ColorIndex
 90
      256
102
RTVSPost2010Prop51ColorRGB
 90
-16777216
102
RTVSPost2010PropOp51
 70
     0
102
RTVSPost2010Prop52
140
1.0
102
RTVSPost2010PropOp52
 70
     0
102
RTVSPost2010Prop53
 90
        2
102
RTVSPost2010PropOp53
 70
     1
102
RTVSPost2010Prop54
  1
strokes_ogs.tif
102
RTVSPost2010PropOp54
 70
     1
102
RTVSPost2010Prop55
280
     0
102
RTVSPost2010PropOp55
 70
     1
102
RTVSPost2010Prop56
140
1.0
102
RTVSPost2010PropOp56
 70
     1
102
RTVSPost2010Prop57
140
1.0
102
RTVSPost2010PropOp57
 70
     1
102
RTVSPropertyOp0
 70
     1
102
RTVSPropertyOp1
 70
     1
102
RTVSPropertyOp2
 70
     1
102
RTVSPropertyOp3
 70
     1
102
RTVSPropertyOp4
 70
     1
102
RTVSPropertyOp5
 70
     1
102
RTVSPropertyOp6
 70
     1
102
RTVSPropertyOp7
 70
     1
102
RTVSPropertyOp8
 70
     1
102
RTVSPropertyOp9
 70
     1
102
RTVSPropertyOp10
 70
     1
102
RTVSPropertyOp11
 70
     1
102
RTVSPropertyOp12
 70
     1
102
RTVSPropertyOp13
 70
     1
102
RTVSPropertyOp14
 70
     1
102
RTVSPropertyOp15
 70
     1
102
RTVSPropertyOp16
 70
     1
102
RTVSPropertyOp17
 70
     1
102
RTVSPropertyOp18
 70
     1
102
RTVSPropertyOp19
 70
     1
102
RTVSPropertyOp20
 70
     1
102
RTVSPropertyOp21
 70
     1
102
RTVSPropertyOp22
 70
     1
102
RTVSPropertyOp23
 70
     1
102
RTVSPropertyOp24
 70
     1
102
RTVSPropertyOp25
 70
     1
102
RTVSPropertyOp26
 70
     1
102
RTVSPropertyOp27
 70
     1
102
RTVSPropertyOp28
 70
     1
102
RTVSPropertyOp29
 70
     1
102
RTVSPropertyOp30
 70
     1
102
RTVSPropertyOp31
 70
     1
102
RTVSPropertyOp32
 70
     1
102
RTVSPropertyOp33
 70
     1
102
RTVSPropertyOp34
 70
     1
102
RTVSPropertyOp35
 70
     1
102
RTVSPropertyOp36
 70
     1
102
RTVSPropertyOp37
 70
     1
102
RTVSPropertyOp38
 70
     1
102
RTVSPropertyOp39
 70
     1
102
RTVSPropertyOp40
 70
     1
102
RTVSPropertyOp41
 70
     1
102
RTVSPropertyOp42
 70
     1
102
RTVSPropertyOp43
 70
     1
102
RTVSPropertyOp44
 70
     1
102
RTVSPropertyOp45
 70
     1
102
RTVSPropertyOp46
 70
     1
102
RTVSPropertyOp47
 70
     1
102
RTVSPropertyOp48
 70
     1
102
RTVSPropertyOp49
 70
     1
102
RTVSPropertyOp50
 70
     1
102
RTVSPropertyOp51
 70
     0
102
RTVSPropertyOp52
 70
     0
102
RTVSPropertyOp53
 70
     1
102
RTVSPropertyOp54
 70
     1
102
RTVSPropertyOp55
 70
     1
102
RTVSPropertyOp56
 70
     1
102
RTVSPropertyOp57
 70
     1
102
RTVSPropertyOp58
 70
     1
102
RTVSPropertyOp59
 70
     1
102
RTVSPropertyOp60
 70
     1
102
RTVSPropertyOp61
 70
     1
102
RTVSPropertyOp62
 70
     1
  0
XRECORD
  5
A9AE
102
{ACAD_REACTORS
330
A9AD
102
}
330
A9AD
100
AcDbXrecord
280
     1
102
RTVSPost2010Prop28
280
     0
102
RTVSPost2010PropOp28
 70
     1
102
RTVSPost2010Prop29
280
     1
102
RTVSPost2010PropOp29
 70
     1
102
RTVSPost2010Prop30
280
     1
102
RTVSPost2010PropOp30
 70
     1
102
RTVSPost2010Prop31
280
     0
102
RTVSPost2010PropOp31
 70
     1
102
RTVSPost2010Prop32
280
     0
102
RTVSPost2010PropOp32
 70
     1
102
RTVSPost2010Prop33
280
     0
102
RTVSPost2010PropOp33
 70
     1
102
RTVSPost2010Prop34
280
     0
102
RTVSPost2010PropOp34
 70
     1
102
RTVSPost2010Prop35
280
     0
102
RTVSPost2010PropOp35
 70
     1
102
RTVSPost2010Prop36
280
     0
102
RTVSPost2010PropOp36
 70
     1
102
RTVSPost2010Prop37
 90
       50
102
RTVSPost2010PropOp37
 70
     1
102
RTVSPost2010Prop38
140
0.0
102
RTVSPost2010PropOp38
 70
     1
102
RTVSPost2010Prop39
140
1.0
102
RTVSPost2010PropOp39
 70
     1
102
RTVSPost2010Prop40
 90
        0
102
RTVSPost2010PropOp40
 70
     1
102
RTVSPost2010Prop41ColorIndex
 90
       18
102
RTVSPost2010Prop41ColorRGB
 90
        0
102
RTVSPost2010PropOp41
 70
     1
102
RTVSPost2010Prop42
 90
       50
102
RTVSPost2010PropOp42
 70
     1
102
RTVSPost2010Prop43
 90
        3
102
RTVSPost2010PropOp43
 70
     1
102
RTVSPost2010Prop44ColorIndex
 90
        5
102
RTVSPost2010Prop44ColorRGB
 90
      255
102
RTVSPost2010PropOp44
 70
     1
102
RTVSPost2010Prop45
280
     0
102
RTVSPost2010PropOp45
 70
     1
102
RTVSPost2010Prop46
 90
       50
102
RTVSPost2010PropOp46
 70
     1
102
RTVSPost2010Prop47
 90
       50
102
RTVSPost2010PropOp47
 70
     1
102
RTVSPost2010Prop48
 90
       50
102
RTVSPost2010PropOp48
 70
     1
102
RTVSPost2010Prop49
280
     0
102
RTVSPost2010PropOp49
 70
     1
102
RTVSPost2010Prop50
 90
       50
102
RTVSPost2010PropOp50
 70
     1
102
RTVSPost2010Prop51ColorIndex
 90
      256
102
RTVSPost2010Prop51ColorRGB
 90
-16777216
102
RTVSPost2010PropOp51
 70
     0
102
RTVSPost2010Prop52
140
1.0
102
RTVSPost2010PropOp52
 70
     0
102
RTVSPost2010Prop53
 90
        2
102
RTVSPost2010PropOp53
 70
     1
102
RTVSPost2010Prop54
  1
strokes_ogs.tif
102
RTVSPost2010PropOp54
 70
     1
102
RTVSPost2010Prop55
280
     0
102
RTVSPost2010PropOp55
 70
     1
102
RTVSPost2010Prop56
140
1.0
102
RTVSPost2010PropOp56
 70
     1
102
RTVSPost2010Prop57
140
1.0
102
RTVSPost2010PropOp57
 70
     1
102
RTVSPropertyOp0
 70
     1
102
RTVSPropertyOp1
 70
     1
102
RTVSPropertyOp2
 70
     1
102
RTVSPropertyOp3
 70
     1
102
RTVSPropertyOp4
 70
     1
102
RTVSPropertyOp5
 70
     1
102
RTVSPropertyOp6
 70
     1
102
RTVSPropertyOp7
 70
     1
102
RTVSPropertyOp8
 70
     1
102
RTVSPropertyOp9
 70
     1
102
RTVSPropertyOp10
 70
     1
102
RTVSPropertyOp11
 70
     1
102
RTVSPropertyOp12
 70
     1
102
RTVSPropertyOp13
 70
     1
102
RTVSPropertyOp14
 70
     1
102
RTVSPropertyOp15
 70
     1
102
RTVSPropertyOp16
 70
     1
102
RTVSPropertyOp17
 70
     1
102
RTVSPropertyOp18
 70
     1
102
RTVSPropertyOp19
 70
     1
102
RTVSPropertyOp20
 70
     1
102
RTVSPropertyOp21
 70
     1
102
RTVSPropertyOp22
 70
     1
102
RTVSPropertyOp23
 70
     1
102
RTVSPropertyOp24
 70
     1
102
RTVSPropertyOp25
 70
     1
102
RTVSPropertyOp26
 70
     1
102
RTVSPropertyOp27
 70
     1
102
RTVSPropertyOp28
 70
     1
102
RTVSPropertyOp29
 70
     1
102
RTVSPropertyOp30
 70
     1
102
RTVSPropertyOp31
 70
     1
102
RTVSPropertyOp32
 70
     1
102
RTVSPropertyOp33
 70
     1
102
RTVSPropertyOp34
 70
     1
102
RTVSPropertyOp35
 70
     1
102
RTVSPropertyOp36
 70
     1
102
RTVSPropertyOp37
 70
     1
102
RTVSPropertyOp38
 70
     1
102
RTVSPropertyOp39
 70
     1
102
RTVSPropertyOp40
 70
     1
102
RTVSPropertyOp41
 70
     1
102
RTVSPropertyOp42
 70
     1
102
RTVSPropertyOp43
 70
     1
102
RTVSPropertyOp44
 70
     1
102
RTVSPropertyOp45
 70
     1
102
RTVSPropertyOp46
 70
     1
102
RTVSPropertyOp47
 70
     1
102
RTVSPropertyOp48
 70
     1
102
RTVSPropertyOp49
 70
     1
102
RTVSPropertyOp50
 70
     1
102
RTVSPropertyOp51
 70
     0
102
RTVSPropertyOp52
 70
     0
102
RTVSPropertyOp53
 70
     1
102
RTVSPropertyOp54
 70
     1
102
RTVSPropertyOp55
 70
     1
102
RTVSPropertyOp56
 70
     1
102
RTVSPropertyOp57
 70
     1
102
RTVSPropertyOp58
 70
     1
102
RTVSPropertyOp59
 70
     1
102
RTVSPropertyOp60
 70
     1
102
RTVSPropertyOp61
 70
     1
102
RTVSPropertyOp62
 70
     1
  0
XRECORD
  5
A9A2
102
{ACAD_REACTORS
330
A9A1
102
}
330
A9A1
100
AcDbXrecord
280
     1
102
RTVSPost2010Prop28
280
     0
102
RTVSPost2010PropOp28
 70
     1
102
RTVSPost2010Prop29
280
     1
102
RTVSPost2010PropOp29
 70
     1
102
RTVSPost2010Prop30
280
     1
102
RTVSPost2010PropOp30
 70
     1
102
RTVSPost2010Prop31
280
     0
102
RTVSPost2010PropOp31
 70
     1
102
RTVSPost2010Prop32
280
     0
102
RTVSPost2010PropOp32
 70
     1
102
RTVSPost2010Prop33
280
     0
102
RTVSPost2010PropOp33
 70
     1
102
RTVSPost2010Prop34
280
     0
102
RTVSPost2010PropOp34
 70
     1
102
RTVSPost2010Prop35
280
     0
102
RTVSPost2010PropOp35
 70
     1
102
RTVSPost2010Prop36
280
     0
102
RTVSPost2010PropOp36
 70
     1
102
RTVSPost2010Prop37
 90
       50
102
RTVSPost2010PropOp37
 70
     1
102
RTVSPost2010Prop38
140
0.0
102
RTVSPost2010PropOp38
 70
     1
102
RTVSPost2010Prop39
140
1.0
102
RTVSPost2010PropOp39
 70
     1
102
RTVSPost2010Prop40
 90
        0
102
RTVSPost2010PropOp40
 70
     1
102
RTVSPost2010Prop41ColorIndex
 90
       18
102
RTVSPost2010Prop41ColorRGB
 90
        0
102
RTVSPost2010PropOp41
 70
     1
102
RTVSPost2010Prop42
 90
       50
102
RTVSPost2010PropOp42
 70
     1
102
RTVSPost2010Prop43
 90
        3
102
RTVSPost2010PropOp43
 70
     1
102
RTVSPost2010Prop44ColorIndex
 90
        5
102
RTVSPost2010Prop44ColorRGB
 90
      255
102
RTVSPost2010PropOp44
 70
     1
102
RTVSPost2010Prop45
280
     0
102
RTVSPost2010PropOp45
 70
     1
102
RTVSPost2010Prop46
 90
       50
102
RTVSPost2010PropOp46
 70
     1
102
RTVSPost2010Prop47
 90
       50
102
RTVSPost2010PropOp47
 70
     1
102
RTVSPost2010Prop48
 90
       50
102
RTVSPost2010PropOp48
 70
     1
102
RTVSPost2010Prop49
280
     0
102
RTVSPost2010PropOp49
 70
     1
102
RTVSPost2010Prop50
 90
       50
102
RTVSPost2010PropOp50
 70
     1
102
RTVSPost2010Prop51ColorIndex
 90
      256
102
RTVSPost2010Prop51ColorRGB
 90
-16777216
102
RTVSPost2010PropOp51
 70
     0
102
RTVSPost2010Prop52
140
1.0
102
RTVSPost2010PropOp52
 70
     0
102
RTVSPost2010Prop53
 90
        2
102
RTVSPost2010PropOp53
 70
     1
102
RTVSPost2010Prop54
  1
strokes_ogs.tif
102
RTVSPost2010PropOp54
 70
     1
102
RTVSPost2010Prop55
280
     0
102
RTVSPost2010PropOp55
 70
     1
102
RTVSPost2010Prop56
140
1.0
102
RTVSPost2010PropOp56
 70
     1
102
RTVSPost2010Prop57
140
1.0
102
RTVSPost2010PropOp57
 70
     1
102
RTVSPropertyOp0
 70
     1
102
RTVSPropertyOp1
 70
     1
102
RTVSPropertyOp2
 70
     1
102
RTVSPropertyOp3
 70
     1
102
RTVSPropertyOp4
 70
     1
102
RTVSPropertyOp5
 70
     1
102
RTVSPropertyOp6
 70
     1
102
RTVSPropertyOp7
 70
     1
102
RTVSPropertyOp8
 70
     1
102
RTVSPropertyOp9
 70
     1
102
RTVSPropertyOp10
 70
     1
102
RTVSPropertyOp11
 70
     1
102
RTVSPropertyOp12
 70
     1
102
RTVSPropertyOp13
 70
     1
102
RTVSPropertyOp14
 70
     1
102
RTVSPropertyOp15
 70
     1
102
RTVSPropertyOp16
 70
     1
102
RTVSPropertyOp17
 70
     1
102
RTVSPropertyOp18
 70
     1
102
RTVSPropertyOp19
 70
     1
102
RTVSPropertyOp20
 70
     1
102
RTVSPropertyOp21
 70
     1
102
RTVSPropertyOp22
 70
     1
102
RTVSPropertyOp23
 70
     1
102
RTVSPropertyOp24
 70
     1
102
RTVSPropertyOp25
 70
     1
102
RTVSPropertyOp26
 70
     1
102
RTVSPropertyOp27
 70
     1
102
RTVSPropertyOp28
 70
     1
102
RTVSPropertyOp29
 70
     1
102
RTVSPropertyOp30
 70
     1
102
RTVSPropertyOp31
 70
     1
102
RTVSPropertyOp32
 70
     1
102
RTVSPropertyOp33
 70
     1
102
RTVSPropertyOp34
 70
     1
102
RTVSPropertyOp35
 70
     1
102
RTVSPropertyOp36
 70
     1
102
RTVSPropertyOp37
 70
     1
102
RTVSPropertyOp38
 70
     1
102
RTVSPropertyOp39
 70
     1
102
RTVSPropertyOp40
 70
     1
102
RTVSPropertyOp41
 70
     1
102
RTVSPropertyOp42
 70
     1
102
RTVSPropertyOp43
 70
     1
102
RTVSPropertyOp44
 70
     1
102
RTVSPropertyOp45
 70
     1
102
RTVSPropertyOp46
 70
     1
102
RTVSPropertyOp47
 70
     1
102
RTVSPropertyOp48
 70
     1
102
RTVSPropertyOp49
 70
     1
102
RTVSPropertyOp50
 70
     1
102
RTVSPropertyOp51
 70
     0
102
RTVSPropertyOp52
 70
     0
102
RTVSPropertyOp53
 70
     1
102
RTVSPropertyOp54
 70
     1
102
RTVSPropertyOp55
 70
     1
102
RTVSPropertyOp56
 70
     1
102
RTVSPropertyOp57
 70
     1
102
RTVSPropertyOp58
 70
     1
102
RTVSPropertyOp59
 70
     1
102
RTVSPropertyOp60
 70
     1
102
RTVSPropertyOp61
 70
     1
102
RTVSPropertyOp62
 70
     1
  0
XRECORD
  5
A9BA
102
{ACAD_REACTORS
330
A9B9
102
}
330
A9B9
100
AcDbXrecord
280
     1
102
RTVSPost2010Prop28
280
     0
102
RTVSPost2010PropOp28
 70
     1
102
RTVSPost2010Prop29
280
     1
102
RTVSPost2010PropOp29
 70
     1
102
RTVSPost2010Prop30
280
     1
102
RTVSPost2010PropOp30
 70
     1
102
RTVSPost2010Prop31
280
     0
102
RTVSPost2010PropOp31
 70
     1
102
RTVSPost2010Prop32
280
     0
102
RTVSPost2010PropOp32
 70
     1
102
RTVSPost2010Prop33
280
     0
102
RTVSPost2010PropOp33
 70
     1
102
RTVSPost2010Prop34
280
     0
102
RTVSPost2010PropOp34
 70
     1
102
RTVSPost2010Prop35
280
     0
102
RTVSPost2010PropOp35
 70
     1
102
RTVSPost2010Prop36
280
     0
102
RTVSPost2010PropOp36
 70
     1
102
RTVSPost2010Prop37
 90
       50
102
RTVSPost2010PropOp37
 70
     1
102
RTVSPost2010Prop38
140
0.0
102
RTVSPost2010PropOp38
 70
     1
102
RTVSPost2010Prop39
140
1.0
102
RTVSPost2010PropOp39
 70
     1
102
RTVSPost2010Prop40
 90
        0
102
RTVSPost2010PropOp40
 70
     1
102
RTVSPost2010Prop41ColorIndex
 90
       18
102
RTVSPost2010Prop41ColorRGB
 90
        0
102
RTVSPost2010PropOp41
 70
     1
102
RTVSPost2010Prop42
 90
       50
102
RTVSPost2010PropOp42
 70
     1
102
RTVSPost2010Prop43
 90
        3
102
RTVSPost2010PropOp43
 70
     1
102
RTVSPost2010Prop44ColorIndex
 90
        5
102
RTVSPost2010Prop44ColorRGB
 90
      255
102
RTVSPost2010PropOp44
 70
     1
102
RTVSPost2010Prop45
280
     0
102
RTVSPost2010PropOp45
 70
     1
102
RTVSPost2010Prop46
 90
       50
102
RTVSPost2010PropOp46
 70
     1
102
RTVSPost2010Prop47
 90
       50
102
RTVSPost2010PropOp47
 70
     1
102
RTVSPost2010Prop48
 90
       50
102
RTVSPost2010PropOp48
 70
     1
102
RTVSPost2010Prop49
280
     0
102
RTVSPost2010PropOp49
 70
     1
102
RTVSPost2010Prop50
 90
       50
102
RTVSPost2010PropOp50
 70
     1
102
RTVSPost2010Prop51ColorIndex
 90
      256
102
RTVSPost2010Prop51ColorRGB
 90
-16777216
102
RTVSPost2010PropOp51
 70
     0
102
RTVSPost2010Prop52
140
1.0
102
RTVSPost2010PropOp52
 70
     0
102
RTVSPost2010Prop53
 90
        2
102
RTVSPost2010PropOp53
 70
     1
102
RTVSPost2010Prop54
  1
strokes_ogs.tif
102
RTVSPost2010PropOp54
 70
     1
102
RTVSPost2010Prop55
280
     0
102
RTVSPost2010PropOp55
 70
     1
102
RTVSPost2010Prop56
140
1.0
102
RTVSPost2010PropOp56
 70
     1
102
RTVSPost2010Prop57
140
1.0
102
RTVSPost2010PropOp57
 70
     1
102
RTVSPropertyOp0
 70
     1
102
RTVSPropertyOp1
 70
     1
102
RTVSPropertyOp2
 70
     1
102
RTVSPropertyOp3
 70
     1
102
RTVSPropertyOp4
 70
     1
102
RTVSPropertyOp5
 70
     1
102
RTVSPropertyOp6
 70
     1
102
RTVSPropertyOp7
 70
     1
102
RTVSPropertyOp8
 70
     1
102
RTVSPropertyOp9
 70
     1
102
RTVSPropertyOp10
 70
     1
102
RTVSPropertyOp11
 70
     1
102
RTVSPropertyOp12
 70
     1
102
RTVSPropertyOp13
 70
     1
102
RTVSPropertyOp14
 70
     1
102
RTVSPropertyOp15
 70
     1
102
RTVSPropertyOp16
 70
     1
102
RTVSPropertyOp17
 70
     1
102
RTVSPropertyOp18
 70
     1
102
RTVSPropertyOp19
 70
     1
102
RTVSPropertyOp20
 70
     1
102
RTVSPropertyOp21
 70
     1
102
RTVSPropertyOp22
 70
     1
102
RTVSPropertyOp23
 70
     1
102
RTVSPropertyOp24
 70
     1
102
RTVSPropertyOp25
 70
     1
102
RTVSPropertyOp26
 70
     1
102
RTVSPropertyOp27
 70
     1
102
RTVSPropertyOp28
 70
     1
102
RTVSPropertyOp29
 70
     1
102
RTVSPropertyOp30
 70
     1
102
RTVSPropertyOp31
 70
     1
102
RTVSPropertyOp32
 70
     1
102
RTVSPropertyOp33
 70
     1
102
RTVSPropertyOp34
 70
     1
102
RTVSPropertyOp35
 70
     1
102
RTVSPropertyOp36
 70
     1
102
RTVSPropertyOp37
 70
     1
102
RTVSPropertyOp38
 70
     1
102
RTVSPropertyOp39
 70
     1
102
RTVSPropertyOp40
 70
     1
102
RTVSPropertyOp41
 70
     1
102
RTVSPropertyOp42
 70
     1
102
RTVSPropertyOp43
 70
     1
102
RTVSPropertyOp44
 70
     1
102
RTVSPropertyOp45
 70
     1
102
RTVSPropertyOp46
 70
     1
102
RTVSPropertyOp47
 70
     1
102
RTVSPropertyOp48
 70
     1
102
RTVSPropertyOp49
 70
     1
102
RTVSPropertyOp50
 70
     1
102
RTVSPropertyOp51
 70
     0
102
RTVSPropertyOp52
 70
     0
102
RTVSPropertyOp53
 70
     1
102
RTVSPropertyOp54
 70
     1
102
RTVSPropertyOp55
 70
     1
102
RTVSPropertyOp56
 70
     1
102
RTVSPropertyOp57
 70
     1
102
RTVSPropertyOp58
 70
     1
102
RTVSPropertyOp59
 70
     1
102
RTVSPropertyOp60
 70
     1
102
RTVSPropertyOp61
 70
     1
102
RTVSPropertyOp62
 70
     1
  0
ENDSEC
  0
EOF
