  0
SECTION
  2
HEADER
  9
$ACADVER
  1
AC1015
  9
$ACADMAINTVER
 70
    20
  9
$DWGCODEPAGE
  3
ANSI_932
  9
$INSBASE
 10
0.0
 20
0.0
 30
0.0
  9
$EXTMIN
 10
10.0
 20
9.999999999999998
 30
0.0
  9
$EXTMAX
 10
616.822569
 20
503.4311319999998
 30
0.0
  9
$LIMMIN
 10
0.0
 20
0.0
  9
$LIMMAX
 10
792.0
 20
546.0
  9
$ORTHOMODE
 70
     1
  9
$REGENMODE
 70
     1
  9
$FILLMODE
 70
     1
  9
$QTEXTMODE
 70
     0
  9
$MIRRTEXT
 70
     1
  9
$LTSCALE
 40
20.0
  9
$ATTMODE
 70
     1
  9
$TEXTSIZE
 40
5.0
  9
$TRACEWID
 40
1.0
  9
$TEXTSTYLE
  7
STANDARD
  9
$CLAYER
  8
0
  9
$CELTYPE
  6
BYLAYER
  9
$CECOLOR
 62
   256
  9
$CELTSCALE
 40
1.0
  9
$DISPSILH
 70
     0
  9
$DIMSCALE
 40
1.0
  9
$DIMASZ
 40
2.5
  9
$DIMEXO
 40
1.0
  9
$DIMDLI
 40
10.0
  9
$DIMRND
 40
0.0
  9
$DIMDLE
 40
0.0
  9
$DIMEXE
 40
1.0
  9
$DIMTP
 40
0.0
  9
$DIMTM
 40
0.0
  9
$DIMTXT
 40
3.2
  9
$DIMCEN
 40
0.0
  9
$DIMTSZ
 40
0.0
  9
$DIMTOL
 70
     0
  9
$DIMLIM
 70
     0
  9
$DIMTIH
 70
     0
  9
$DIMTOH
 70
     0
  9
$DIMSE1
 70
     0
  9
$DIMSE2
 70
     0
  9
$DIMTAD
 70
     3
  9
$DIMZIN
 70
     8
  9
$DIMBLK
  1

  9
$DIMASO
 70
     1
  9
$DIMSHO
 70
     1
  9
$DIMPOST
  1

  9
$DIMAPOST
  1

  9
$DIMALT
 70
     0
  9
$DIMALTD
 70
     2
  9
$DIMALTF
 40
25.4
  9
$DIMLFAC
 40
1.0
  9
$DIMTOFL
 70
     1
  9
$DIMTVP
 40
0.0
  9
$DIMTIX
 70
     0
  9
$DIMSOXD
 70
     0
  9
$DIMSAH
 70
     1
  9
$DIMBLK1
  1
OPEN
  9
$DIMBLK2
  1
OPEN
  9
$DIMSTYLE
  2
STANDARD
  9
$DIMCLRD
 70
     0
  9
$DIMCLRE
 70
     0
  9
$DIMCLRT
 70
     0
  9
$DIMTFAC
 40
1.0
  9
$DIMGAP
 40
1.0
  9
$DIMJUST
 70
     0
  9
$DIMSD1
 70
     0
  9
$DIMSD2
 70
     0
  9
$DIMTOLJ
 70
     1
  9
$DIMTZIN
 70
     0
  9
$DIMALTZ
 70
     0
  9
$DIMALTTZ
 70
     0
  9
$DIMUPT
 70
     0
  9
$DIMDEC
 70
     4
  9
$DIMTDEC
 70
     4
  9
$DIMALTU
 70
     2
  9
$DIMALTTD
 70
     2
  9
$DIMTXSTY
  7
STANDARD
  9
$DIMAUNIT
 70
     0
  9
$DIMADEC
 70
     0
  9
$DIMALTRND
 40
0.0
  9
$DIMAZIN
 70
     0
  9
$DIMDSEP
 70
    46
  9
$DIMATFIT
 70
     3
  9
$DIMFRAC
 70
     0
  9
$DIMLDRBLK
  1
OPEN
  9
$DIMLUNIT
 70
     2
  9
$DIMLWD
 70
    -2
  9
$DIMLWE
 70
    -2
  9
$DIMTMOVE
 70
     0
  9
$LUNITS
 70
     2
  9
$LUPREC
 70
     4
  9
$SKETCHINC
 40
1.0
  9
$FILLETRAD
 40
2.5
  9
$AUNITS
 70
     0
  9
$AUPREC
 70
     2
  9
$MENU
  1
.
  9
$ELEVATION
 40
0.0
  9
$PELEVATION
 40
0.0
  9
$THICKNESS
 40
0.0
  9
$LIMCHECK
 70
     0
  9
$CHAMFERA
 40
10.0
  9
$CHAMFERB
 40
10.0
  9
$CHAMFERC
 40
0.0
  9
$CHAMFERD
 40
0.0
  9
$SKPOLY
 70
     0
  9
$TDCREATE
 40
2451368.510517130
  9
$TDUCREATE
 40
2451368.135517130
  9
$TDUPDATE
 40
2457192.643123832
  9
$TDUUPDATE
 40
2457192.268123831
  9
$TDINDWG
 40
0.0000147801
  9
$TDUSRTIMER
 40
0.0000142708
  9
$USRTIMER
 70
     1
  9
$ANGBASE
 50
0.0
  9
$ANGDIR
 70
     0
  9
$PDMODE
 70
     0
  9
$PDSIZE
 40
0.0
  9
$PLINEWID
 40
0.0
  9
$SPLFRAME
 70
     0
  9
$SPLINETYPE
 70
     6
  9
$SPLINESEGS
 70
     8
  9
$HANDSEED
  5
A993
  9
$SURFTAB1
 70
     6
  9
$SURFTAB2
 70
     6
  9
$SURFTYPE
 70
     6
  9
$SURFU
 70
     6
  9
$SURFV
 70
     6
  9
$UCSBASE
  2

  9
$UCSNAME
  2

  9
$UCSORG
 10
0.0
 20
0.0
 30
0.0
  9
$UCSXDIR
 10
1.0
 20
0.0
 30
0.0
  9
$UCSYDIR
 10
0.0
 20
1.0
 30
0.0
  9
$UCSORTHOREF
  2

  9
$UCSORTHOVIEW
 70
     0
  9
$UCSORGTOP
 10
0.0
 20
0.0
 30
0.0
  9
$UCSORGBOTTOM
 10
0.0
 20
0.0
 30
0.0
  9
$UCSORGLEFT
 10
0.0
 20
0.0
 30
0.0
  9
$UCSORGRIGHT
 10
0.0
 20
0.0
 30
0.0
  9
$UCSORGFRONT
 10
0.0
 20
0.0
 30
0.0
  9
$UCSORGBACK
 10
0.0
 20
0.0
 30
0.0
  9
$PUCSBASE
  2

  9
$PUCSNAME
  2

  9
$PUCSORG
 10
0.0
 20
0.0
 30
0.0
  9
$PUCSXDIR
 10
1.0
 20
0.0
 30
0.0
  9
$PUCSYDIR
 10
0.0
 20
1.0
 30
0.0
  9
$PUCSORTHOREF
  2

  9
$PUCSORTHOVIEW
 70
     0
  9
$PUCSORGTOP
 10
0.0
 20
0.0
 30
0.0
  9
$PUCSORGBOTTOM
 10
0.0
 20
0.0
 30
0.0
  9
$PUCSORGLEFT
 10
0.0
 20
0.0
 30
0.0
  9
$PUCSORGRIGHT
 10
0.0
 20
0.0
 30
0.0
  9
$PUCSORGFRONT
 10
0.0
 20
0.0
 30
0.0
  9
$PUCSORGBACK
 10
0.0
 20
0.0
 30
0.0
  9
$USERI1
 70
     0
  9
$USERI2
 70
     0
  9
$USERI3
 70
     0
  9
$USERI4
 70
     0
  9
$USERI5
 70
     0
  9
$USERR1
 40
0.0
  9
$USERR2
 40
0.0
  9
$USERR3
 40
0.0
  9
$USERR4
 40
0.0
  9
$USERR5
 40
0.0
  9
$WORLDVIEW
 70
     1
  9
$SHADEDGE
 70
     3
  9
$SHADEDIF
 70
    70
  9
$TILEMODE
 70
     1
  9
$MAXACTVP
 70
    16
  9
$PINSBASE
 10
0.0
 20
0.0
 30
0.0
  9
$PLIMCHECK
 70
     0
  9
$PEXTMIN
 10
1.000000000000000E+20
 20
1.000000000000000E+20
 30
1.000000000000000E+20
  9
$PEXTMAX
 10
-1.000000000000000E+20
 20
-1.000000000000000E+20
 30
-1.000000000000000E+20
  9
$PLIMMIN
 10
0.0
 20
0.0
  9
$PLIMMAX
 10
420.0
 20
297.0
  9
$UNITMODE
 70
     0
  9
$VISRETAIN
 70
     0
  9
$PLINEGEN
 70
     0
  9
$PSLTSCALE
 70
     0
  9
$TREEDEPTH
 70
  3020
  9
$CMLSTYLE
  2
STANDARD
  9
$CMLJUST
 70
     0
  9
$CMLSCALE
 40
1.0
  9
$PROXYGRAPHICS
 70
     1
  9
$MEASUREMENT
 70
     0
  9
$CELWEIGHT
370
    -1
  9
$ENDCAPS
280
     0
  9
$JOINSTYLE
280
     0
  9
$LWDISPLAY
290
     0
  9
$INSUNITS
 70
     0
  9
$HYPERLINKBASE
  1

  9
$STYLESHEET
  1

  9
$XEDIT
290
     1
  9
$CEPSNTYPE
380
     0
  9
$PSTYLEMODE
290
     1
  9
$FINGERPRINTGUID
  2
{AA1269E1-26C1-4197-BBC9-DCE03CABF556}
  9
$VERSIONGUID
  2
{C8B05295-98FF-4826-98F6-CECDDF9C5D08}
  9
$EXTNAMES
290
     1
  9
$PSVPSCALE
 40
0.0
  9
$OLESTARTUP
290
     0
  0
ENDSEC
  0
SECTION
  2
CLASSES
  0
CLASS
  1
ACDBDICTIONARYWDFLT
  2
AcDbDictionaryWithDefault
  3
ObjectDBX Classes
 90
        0
280
     0
281
     0
  0
CLASS
  1
ACDBPLACEHOLDER
  2
AcDbPlaceHolder
  3
ObjectDBX Classes
 90
        0
280
     0
281
     0
  0
CLASS
  1
LAYOUT
  2
AcDbLayout
  3
ObjectDBX Classes
 90
        0
280
     0
281
     0
  0
CLASS
  1
DICTIONARYVAR
  2
AcDbDictionaryVar
  3
ObjectDBX Classes
 90
        0
280
     0
281
     0
  0
CLASS
  1
MATERIAL
  2
AcDbMaterial
  3
ObjectDBX Classes
 90
     1153
280
     0
281
     0
  0
CLASS
  1
VISUALSTYLE
  2
AcDbVisualStyle
  3
ObjectDBX Classes
 90
     4095
280
     0
281
     0
  0
CLASS
  1
TABLESTYLE
  2
AcDbTableStyle
  3
ObjectDBX Classes
 90
     4095
280
     0
281
     0
  0
CLASS
  1
SCALE
  2
AcDbScale
  3
ObjectDBX Classes
 90
     1153
280
     0
281
     0
  0
CLASS
  1
MLEADERSTYLE
  2
AcDbMLeaderStyle
  3
ACDB_MLEADERSTYLE_CLASS
 90
     4095
280
     0
281
     0
  0
CLASS
  1
ACDBSECTIONVIEWSTYLE
  2
AcDbSectionViewStyle
  3
ObjectDBX Classes
 90
     1025
280
     0
281
     0
  0
CLASS
  1
ACDBDETAILVIEWSTYLE
  2
AcDbDetailViewStyle
  3
ObjectDBX Classes
 90
     1025
280
     0
281
     0
  0
CLASS
  1
CELLSTYLEMAP
  2
AcDbCellStyleMap
  3
ObjectDBX Classes
 90
     1152
280
     0
281
     0
  0
ENDSEC
  0
SECTION
  2
TABLES
  0
TABLE
  2
VPORT
  5
A6FC
330
0
100
AcDbSymbolTable
 70
     1
  0
VPORT
  5
A8DC
330
A6FC
100
AcDbSymbolTableRecord
100
AcDbViewportTableRecord
  2
*ACTIVE
 70
     0
 10
0.0
 20
0.0
 11
1.0
 21
1.0
 12
462.8602806602096
 22
256.7123120433094
 13
0.0
 23
0.0
 14
10.0
 24
10.0
 15
10.0
 25
10.0
 16
0.0
 26
0.0
 36
1.0
 17
0.0
 27
0.0
 37
0.0
 40
498.9819239241661
 41
1.899603698811096
 42
50.0
 43
0.0
 44
0.0
 50
0.0
 51
0.0
 71
     0
 72
   100
 73
     1
 74
     0
 75
     0
 76
     0
 77
     0
 78
     0
281
     0
 65
     1
110
0.0
120
0.0
130
0.0
111
1.0
121
0.0
131
0.0
112
0.0
122
1.0
132
0.0
 79
     0
146
0.0
1001
ACAD_NAV_VCDISPLAY
1070
     3
  0
ENDTAB
  0
TABLE
  2
LTYPE
  5
A6F9
330
0
100
AcDbSymbolTable
 70
     4
  0
LTYPE
  5
A707
330
A6F9
100
AcDbSymbolTableRecord
100
AcDbLinetypeTableRecord
  2
BYBLOCK
 70
     0
  3

 72
    65
 73
     0
 40
0.0
  0
LTYPE
  5
A708
330
A6F9
100
AcDbSymbolTableRecord
100
AcDbLinetypeTableRecord
  2
BYLAYER
 70
     0
  3

 72
    65
 73
     0
 40
0.0
  0
LTYPE
  5
A709
330
A6F9
100
AcDbSymbolTableRecord
100
AcDbLinetypeTableRecord
  2
CONTINUOUS
 70
     0
  3
Solid line
 72
    65
 73
     0
 40
0.0
  0
LTYPE
  5
A717
330
A6F9
100
AcDbSymbolTableRecord
100
AcDbLinetypeTableRecord
  2
DASHED
 70
     0
  3
__ __ __ __ __ __ __ __ __ __ __ __ __ __ __ __
 72
    65
 73
     2
 40
0.75
 49
0.5
 74
     0
 49
-0.25
 74
     0
  0
LTYPE
  5
A718
330
A6F9
100
AcDbSymbolTableRecord
100
AcDbLinetypeTableRecord
  2
CENTER
 70
     0
  3
____ _ ____ _ ____ _ ____ _ ____ _ ____ _ ____ 
 72
    65
 73
     4
 40
2.0
 49
1.25
 74
     0
 49
-0.25
 74
     0
 49
0.25
 74
     0
 49
-0.25
 74
     0
  0
LTYPE
  5
A719
330
A6F9
100
AcDbSymbolTableRecord
100
AcDbLinetypeTableRecord
  2
PHANTOM
 70
     0
  3
______  __  __  ______  __  __  ______  __  __ 
 72
    65
 73
     6
 40
2.5
 49
1.25
 74
     0
 49
-0.25
 74
     0
 49
0.25
 74
     0
 49
-0.25
 74
     0
 49
0.25
 74
     0
 49
-0.25
 74
     0
  0
ENDTAB
  0
TABLE
  2
LAYER
  5
A6F6
330
0
100
AcDbSymbolTable
 70
     8
  0
LAYER
  5
A704
102
{ACAD_XDICTIONARY
360
A937
102
}
330
A6F6
100
AcDbSymbolTableRecord
100
AcDbLayerTableRecord
  2
0
 70
     0
 62
     7
  6
CONTINUOUS
370
    -3
390
A8E5
  0
LAYER
  5
A71A
102
{ACAD_XDICTIONARY
360
A939
102
}
330
A6F6
100
AcDbSymbolTableRecord
100
AcDbLayerTableRecord
  2
4
 70
     0
 62
     1
  6
CENTER
370
    -3
390
A8E5
  0
LAYER
  5
A71B
102
{ACAD_XDICTIONARY
360
A93B
102
}
330
A6F6
100
AcDbSymbolTableRecord
100
AcDbLayerTableRecord
  2
5
 70
     0
 62
     6
  6
PHANTOM
370
    -3
390
A8E5
  0
LAYER
  5
A71C
102
{ACAD_XDICTIONARY
360
A93D
102
}
330
A6F6
100
AcDbSymbolTableRecord
100
AcDbLayerTableRecord
  2
1
 70
     0
 62
     7
  6
CONTINUOUS
370
    -3
390
A8E5
  0
LAYER
  5
A71D
102
{ACAD_XDICTIONARY
360
A93F
102
}
330
A6F6
100
AcDbSymbolTableRecord
100
AcDbLayerTableRecord
  2
2
 70
     0
 62
     4
  6
CONTINUOUS
370
    -3
390
A8E5
  0
LAYER
  5
A71E
102
{ACAD_XDICTIONARY
360
A941
102
}
330
A6F6
100
AcDbSymbolTableRecord
100
AcDbLayerTableRecord
  2
3
 70
     0
 62
     2
  6
DASHED
370
    -3
390
A8E5
  0
LAYER
  5
A71F
102
{ACAD_XDICTIONARY
360
A943
102
}
330
A6F6
100
AcDbSymbolTableRecord
100
AcDbLayerTableRecord
  2
6
 70
     0
 62
     5
  6
CONTINUOUS
370
    -3
390
A8E5
  0
LAYER
  5
A720
102
{ACAD_XDICTIONARY
360
A945
102
}
330
A6F6
100
AcDbSymbolTableRecord
100
AcDbLayerTableRecord
  2
7
 70
     0
 62
     3
  6
CONTINUOUS
370
    -3
390
A8E5
  0
ENDTAB
  0
TABLE
  2
STYLE
  5
A6F7
330
0
100
AcDbSymbolTable
 70
     1
  0
STYLE
  5
A705
330
A6F7
100
AcDbSymbolTableRecord
100
AcDbTextStyleTableRecord
  2
STANDARD
 70
     0
 40
0.0
 41
1.0
 50
0.0
 71
     0
 42
5.0
  3
txt
  4

  0
ENDTAB
  0
TABLE
  2
VIEW
  5
A6FA
330
0
100
AcDbSymbolTable
 70
     0
  0
ENDTAB
  0
TABLE
  2
UCS
  5
A6FB
330
0
100
AcDbSymbolTable
 70
     0
  0
ENDTAB
  0
TABLE
  2
APPID
  5
A6FD
330
0
100
AcDbSymbolTable
 70
     3
  0
APPID
  5
A706
330
A6FD
100
AcDbSymbolTableRecord
100
AcDbRegAppTableRecord
  2
ACAD
 70
     0
  0
APPID
  5
A951
330
A6FD
100
AcDbSymbolTableRecord
100
AcDbRegAppTableRecord
  2
ACAD_NAV_VCDISPLAY
 70
     0
  0
APPID
  5
A98A
330
A6FD
100
AcDbSymbolTableRecord
100
AcDbRegAppTableRecord
  2
ACAD_MLEADERVER
 70
     0
  0
ENDTAB
  0
TABLE
  2
DIMSTYLE
  5
A6FE
330
0
100
AcDbSymbolTable
 70
     1
100
AcDbDimStyleTable
 71
     0
  0
DIMSTYLE
105
A722
330
A6FE
100
AcDbSymbolTableRecord
100
AcDbDimStyleTableRecord
  2
STANDARD
 70
     0
 41
2.5
 42
1.0
 43
10.0
 44
1.0
 73
     0
 74
     0
 77
     3
 78
     8
140
3.2
141
0.0
147
1.0
172
     1
173
     1
284
     8
285
     8
286
     8
340
A705
  0
ENDTAB
  0
TABLE
  2
BLOCK_RECORD
  5
A6F5
330
0
100
AcDbSymbolTable
 70
     1
  0
BLOCK_RECORD
  5
A712
102
{ACAD_XDICTIONARY
360
A8DF
102
}
330
A6F5
100
AcDbSymbolTableRecord
100
AcDbBlockTableRecord
  2
*MODEL_SPACE
340
A933
  0
BLOCK_RECORD
  5
A70E
102
{ACAD_XDICTIONARY
360
A8DD
102
}
330
A6F5
100
AcDbSymbolTableRecord
100
AcDbBlockTableRecord
  2
*PAPER_SPACE
340
A934
  0
BLOCK_RECORD
  5
A72A
330
A6F5
100
AcDbSymbolTableRecord
100
AcDbBlockTableRecord
  2
_OPEN
340
0
  0
ENDTAB
  0
ENDSEC
  0
SECTION
  2
BLOCKS
  0
BLOCK
  5
A713
330
A712
100
AcDbEntity
  8
0
100
AcDbBlockBegin
  2
*MODEL_SPACE
 70
     0
 10
0.0
 20
0.0
 30
0.0
  3
*MODEL_SPACE
  1

  0
ENDBLK
  5
A714
330
A712
100
AcDbEntity
  8
0
100
AcDbBlockEnd
  0
BLOCK
  5
A70F
330
A70E
100
AcDbEntity
 67
     1
  8
0
100
AcDbBlockBegin
  2
*PAPER_SPACE
 70
     0
 10
0.0
 20
0.0
 30
0.0
  3
*PAPER_SPACE
  1

  0
ENDBLK
  5
A710
330
A70E
100
AcDbEntity
 67
     1
  8
0
100
AcDbBlockEnd
  0
BLOCK
  5
A72B
330
A72A
100
AcDbEntity
  8
0
100
AcDbBlockBegin
  2
_OPEN
 70
     0
 10
0.0
 20
0.0
 30
0.0
  3
_OPEN
  1

  0
LINE
  5
A72C
330
A72A
100
AcDbEntity
  8
0
  6
ByBlock
 62
     0
100
AcDbLine
 10
-1.0
 20
0.166667
 30
0.0
 11
0.0
 21
0.0
 31
0.0
  0
LINE
  5
A72D
330
A72A
100
AcDbEntity
  8
0
  6
ByBlock
 62
     0
100
AcDbLine
 10
0.0
 20
0.0
 30
0.0
 11
-1.0
 21
-0.166667
 31
0.0
  0
LINE
  5
A72E
330
A72A
100
AcDbEntity
  8
0
  6
ByBlock
 62
     0
100
AcDbLine
 10
0.0
 20
0.0
 30
0.0
 11
-1.0
 21
0.0
 31
0.0
  0
ENDBLK
  5
A72F
330
A72A
100
AcDbEntity
  8
0
100
AcDbBlockEnd
  0
ENDSEC
  0
SECTION
  2
ENTITIES
  0
TEXT
  5
A730
330
A712
100
AcDbEntity
  8
7
  6
Continuous
100
AcDbText
 10
10.0
 20
18.0
 30
0.0
 40
3.0
  1
TYPE No.THA-433-F
100
AcDbText
  0
TEXT
  5
A731
330
A712
100
AcDbEntity
  8
7
  6
Continuous
100
AcDbText
 10
10.0
 20
26.0
 30
0.0
 40
3.0
  1
CODE No.13108
100
AcDbText
  0
TEXT
  5
A732
330
A712
100
AcDbEntity
  8
1
  6
Continuous
100
AcDbText
 10
10.0
 20
10.0
 30
0.0
 40
1.399999999999999
  1
LAYER
100
AcDbText
  0
TEXT
  5
A733
330
A712
100
AcDbEntity
  8
1
  6
Continuous
100
AcDbText
 10
17.97951099999998
 20
10.04873699999998
 30
0.0
 40
1.399999999999999
  1
1
100
AcDbText
  0
TEXT
  5
A734
330
A712
100
AcDbEntity
  8
7
  6
Continuous
100
AcDbText
 10
29.97951099999999
 20
10.04873699999998
 30
0.0
 40
1.399999999999999
  1
7
100
AcDbText
  0
TEXT
  5
A735
330
A712
100
AcDbEntity
  8
4
  6
CENTER
100
AcDbText
 10
23.97951099999999
 20
10.04873699999998
 30
0.0
 40
1.399999999999999
  1
4
100
AcDbText
  0
TEXT
  5
A736
330
A712
100
AcDbEntity
  8
3
  6
DASHED
100
AcDbText
 10
21.979511
 20
10.04873699999998
 30
0.0
 40
1.399999999999999
  1
3
100
AcDbText
  0
TEXT
  5
A737
330
A712
100
AcDbEntity
  8
2
  6
Continuous
100
AcDbText
 10
19.97951099999999
 20
10.04873699999998
 30
0.0
 40
1.399999999999999
  1
2
100
AcDbText
  0
TEXT
  5
A738
330
A712
100
AcDbEntity
  8
6
  6
Continuous
100
AcDbText
 10
27.979511
 20
10.04873699999998
 30
0.0
 40
1.399999999999999
  1
6
100
AcDbText
  0
TEXT
  5
A739
330
A712
100
AcDbEntity
  8
5
  6
PHANTOM
100
AcDbText
 10
25.97951099999999
 20
10.04873699999998
 30
0.0
 40
1.399999999999999
  1
5
100
AcDbText
  0
ARC
  5
A73A
330
A712
100
AcDbEntity
  8
1
  6
Continuous
100
AcDbCircle
 10
603.608698
 20
349.0984509999998
 30
0.0
 40
7.0
100
AcDbArc
 50
3.289701999999998
 51
42.797482
  0
ARC
  5
A73B
330
A712
100
AcDbEntity
  8
1
  6
Continuous
100
AcDbCircle
 10
525.881334
 20
349.0984509999998
 30
0.0
 40
7.0
100
AcDbArc
 50
126.2210839999999
 51
176.7102979999999
  0
LINE
  5
A73C
330
A712
100
AcDbEntity
  8
1
  6
Continuous
100
AcDbLine
 10
521.7450159999998
 20
357.1155569999998
 30
0.0
 11
521.7450159999998
 21
227.1155569999999
 31
0.0
  0
LINE
  5
A73D
330
A712
100
AcDbEntity
  8
1
  6
Continuous
100
AcDbLine
 10
608.7450159999997
 20
357.1155569999998
 30
0.0
 11
608.7450159999997
 21
227.1155569999999
 31
0.0
  0
ARC
  5
A73E
330
A712
100
AcDbEntity
  8
1
  6
Continuous
100
AcDbCircle
 10
-387.754984
 20
292.1155569999999
 30
0.0
 40
1000.0
100
AcDbArc
 50
356.710298
 51
3.289701999999998
  0
ARC
  5
A73F
330
A712
100
AcDbEntity
  8
1
  6
Continuous
100
AcDbCircle
 10
1517.245016
 20
292.1155569999999
 30
0.0
 40
1000.0
100
AcDbArc
 50
176.7102979999999
 51
183.289702
  0
LINE
  5
A740
330
A712
100
AcDbEntity
  8
1
  6
Continuous
100
AcDbLine
 10
521.7450159999998
 20
227.1155569999999
 30
0.0
 11
608.7450159999997
 21
227.1155569999999
 31
0.0
  0
LINE
  5
A741
330
A712
100
AcDbEntity
  8
1
  6
Continuous
100
AcDbLine
 10
608.7450159999997
 20
237.379489
 30
0.0
 11
521.7450159999998
 21
237.379489
 31
0.0
  0
LINE
  5
A742
330
A712
100
AcDbEntity
  8
1
  6
Continuous
100
AcDbLine
 10
608.7450159999997
 20
241.851625
 30
0.0
 11
521.7450159999998
 21
241.851625
 31
0.0
  0
ARC
  5
A743
330
A712
100
AcDbEntity
  8
1
  6
Continuous
100
AcDbCircle
 10
519.7450159999998
 20
239.6155569999999
 30
0.0
 40
3.0
100
AcDbArc
 50
311.810315
 51
48.189685
  0
ARC
  5
A744
330
A712
100
AcDbEntity
  8
1
  6
Continuous
100
AcDbCircle
 10
525.881334
 20
235.1326639999999
 30
0.0
 40
7.0
100
AcDbArc
 50
183.289702
 51
233.778916
  0
LINE
  5
A745
330
A712
100
AcDbEntity
  8
4
  6
CENTER
100
AcDbLine
 10
529.7450159999998
 20
252.1155569999999
 30
0.0
 11
542.7450159999998
 21
252.1155569999999
 31
0.0
  0
LINE
  5
A746
330
A712
100
AcDbEntity
  8
4
  6
CENTER
100
AcDbLine
 10
536.2450159999998
 20
245.6155569999999
 30
0.0
 11
536.2450159999998
 21
258.6155569999998
 31
0.0
  0
LINE
  5
A747
330
A712
100
AcDbEntity
  8
4
  6
CENTER
100
AcDbLine
 10
589.7450159999997
 20
252.1155569999999
 30
0.0
 11
602.7450159999999
 21
252.1155569999999
 31
0.0
  0
ARC
  5
A748
330
A712
100
AcDbEntity
  8
1
  6
Continuous
100
AcDbCircle
 10
610.7450159999999
 20
239.6155569999999
 30
0.0
 40
3.0
100
AcDbArc
 50
131.810315
 51
228.1896849999998
  0
ARC
  5
A749
330
A712
100
AcDbEntity
  8
1
  6
Continuous
100
AcDbCircle
 10
603.608698
 20
235.1326639999999
 30
0.0
 40
7.0
100
AcDbArc
 50
317.2025179999999
 51
356.710298
  0
LINE
  5
A74A
330
A712
100
AcDbEntity
  8
4
  6
CENTER
100
AcDbLine
 10
596.2450159999997
 20
245.6155569999999
 30
0.0
 11
596.2450159999997
 21
258.6155569999998
 31
0.0
  0
LINE
  5
A74B
330
A712
100
AcDbEntity
  8
1
  6
Continuous
100
AcDbLine
 10
608.7450159999997
 20
346.851625
 30
0.0
 11
521.7450159999998
 21
346.851625
 31
0.0
  0
CIRCLE
  5
A74C
330
A712
100
AcDbEntity
  8
1
  6
Continuous
100
AcDbCircle
 10
556.245016
 20
314.2712009999999
 30
0.0
 40
2.399999999999999
  0
CIRCLE
  5
A74D
330
A712
100
AcDbEntity
  8
1
  6
Continuous
100
AcDbCircle
 10
556.245016
 20
314.2712009999999
 30
0.0
 40
2.5
  0
LINE
  5
A74E
330
A712
100
AcDbEntity
  8
4
  6
CENTER
100
AcDbLine
 10
549.7450159999998
 20
314.2712009999999
 30
0.0
 11
562.7450159999998
 21
314.2712009999999
 31
0.0
  0
LINE
  5
A74F
330
A712
100
AcDbEntity
  8
4
  6
CENTER
100
AcDbLine
 10
549.7450159999998
 20
269.9599129999999
 30
0.0
 11
562.7450159999998
 21
269.9599129999999
 31
0.0
  0
CIRCLE
  5
A750
330
A712
100
AcDbEntity
  8
1
  6
Continuous
100
AcDbCircle
 10
556.245016
 20
269.9599129999999
 30
0.0
 40
2.399999999999999
  0
CIRCLE
  5
A751
330
A712
100
AcDbEntity
  8
1
  6
Continuous
100
AcDbCircle
 10
556.245016
 20
269.9599129999999
 30
0.0
 40
2.5
  0
LINE
  5
A752
330
A712
100
AcDbEntity
  8
1
  6
Continuous
100
AcDbLine
 10
608.7450159999997
 20
342.3794889999999
 30
0.0
 11
521.7450159999998
 21
342.3794889999999
 31
0.0
  0
LINE
  5
A753
330
A712
100
AcDbEntity
  8
4
  6
CENTER
100
AcDbLine
 10
513.2451269999998
 20
292.1155569999999
 30
0.0
 11
616.822569
 21
292.1155569999999
 31
0.0
  0
LINE
  5
A754
330
A712
100
AcDbEntity
  8
4
  6
CENTER
100
AcDbLine
 10
556.245016
 20
263.4599129999999
 30
0.0
 11
556.245016
 21
276.4599129999999
 31
0.0
  0
ARC
  5
A755
330
A712
100
AcDbEntity
  8
1
  6
Continuous
100
AcDbCircle
 10
519.7450159999998
 20
344.6155569999998
 30
0.0
 40
3.0
100
AcDbArc
 50
311.810315
 51
48.189685
  0
LINE
  5
A756
330
A712
100
AcDbEntity
  8
4
  6
CENTER
100
AcDbLine
 10
536.2450159999998
 20
325.6155569999999
 30
0.0
 11
536.2450159999998
 21
338.6155569999999
 31
0.0
  0
LINE
  5
A757
330
A712
100
AcDbEntity
  8
4
  6
CENTER
100
AcDbLine
 10
556.245016
 20
307.7712009999999
 30
0.0
 11
556.245016
 21
320.7712009999998
 31
0.0
  0
LINE
  5
A758
330
A712
100
AcDbEntity
  8
4
  6
CENTER
100
AcDbLine
 10
529.7450159999998
 20
332.1155569999999
 30
0.0
 11
542.7450159999998
 21
332.1155569999999
 31
0.0
  0
LINE
  5
A759
330
A712
100
AcDbEntity
  8
1
  6
Continuous
100
AcDbLine
 10
583.7450159999997
 20
295.1155569999999
 30
0.0
 11
567.7450159999997
 21
295.1155569999999
 31
0.0
  0
LINE
  5
A75A
330
A712
100
AcDbEntity
  8
1
  6
Continuous
100
AcDbLine
 10
583.7450159999997
 20
289.1155569999999
 30
0.0
 11
567.7450159999997
 21
289.1155569999999
 31
0.0
  0
ARC
  5
A75B
330
A712
100
AcDbEntity
  8
1
  6
Continuous
100
AcDbCircle
 10
567.7450159999997
 20
292.1155569999999
 30
0.0
 40
3.0
100
AcDbArc
 50
90.0
 51
270.0
  0
CIRCLE
  5
A75C
330
A712
100
AcDbEntity
  8
2
  6
Continuous
100
AcDbCircle
 10
582.0200160000001
 20
292.1155569999999
 30
0.0
 40
2.0
  0
CIRCLE
  5
A75D
330
A712
100
AcDbEntity
  8
1
  6
Continuous
100
AcDbCircle
 10
582.0200160000001
 20
292.1155569999999
 30
0.0
 40
1.620999999999999
  0
LINE
  5
A75E
330
A712
100
AcDbEntity
  8
4
  6
CENTER
100
AcDbLine
 10
582.0200160000001
 20
289.172326
 30
0.0
 11
582.0200160000001
 21
295.687974
 31
0.0
  0
ARC
  5
A75F
330
A712
100
AcDbEntity
  8
1
  6
Continuous
100
AcDbCircle
 10
583.7450159999997
 20
292.1155569999999
 30
0.0
 40
3.0
100
AcDbArc
 50
270.0
 51
90.0
  0
LINE
  5
A760
330
A712
100
AcDbEntity
  8
4
  6
CENTER
100
AcDbLine
 10
589.7450159999997
 20
332.1155569999999
 30
0.0
 11
602.7450159999999
 21
332.1155569999999
 31
0.0
  0
LINE
  5
A761
330
A712
100
AcDbEntity
  8
4
  6
CENTER
100
AcDbLine
 10
596.2450159999997
 20
325.6155569999999
 30
0.0
 11
596.2450159999997
 21
338.6155569999999
 31
0.0
  0
CIRCLE
  5
A762
330
A712
100
AcDbEntity
  8
1
  6
Continuous
100
AcDbCircle
 10
596.2450159999997
 20
332.1155569999999
 30
0.0
 40
4.299999999999998
  0
ARC
  5
A763
330
A712
100
AcDbEntity
  8
1
  6
Continuous
100
AcDbCircle
 10
610.7450159999999
 20
344.6155569999998
 30
0.0
 40
3.0
100
AcDbArc
 50
131.810315
 51
228.1896849999998
  0
LINE
  5
A764
330
A712
100
AcDbEntity
  8
1
  6
Continuous
100
AcDbLine
 10
521.7450159999998
 20
357.1155569999998
 30
0.0
 11
608.7450159999997
 21
357.1155569999998
 31
0.0
  0
LINE
  5
A765
330
A712
100
AcDbEntity
  8
4
  6
CENTER
100
AcDbLine
 10
195.1688509999999
 20
359.6836599999999
 30
0.0
 11
195.1688509999999
 21
224.547454
 31
0.0
  0
ARC
  5
A766
330
A712
100
AcDbEntity
  8
1
  6
Continuous
100
AcDbCircle
 10
181.805169
 20
349.09845
 30
0.0
 40
7.0
100
AcDbArc
 50
92.99830599999999
 51
176.7102979999999
  0
ARC
  5
A767
330
A712
100
AcDbEntity
  8
1
  6
Continuous
100
AcDbCircle
 10
259.532533
 20
349.09845
 30
0.0
 40
7.0
100
AcDbArc
 50
3.289701999999998
 51
87.001694
  0
LINE
  5
A768
330
A712
100
AcDbEntity
  8
4
  6
CENTER
100
AcDbLine
 10
273.1845719999999
 20
292.1155569999999
 30
0.0
 11
169.14822
 21
292.1155569999999
 31
0.0
  0
ARC
  5
A769
330
A712
100
AcDbEntity
  8
1
  6
Continuous
100
AcDbCircle
 10
259.532533
 20
235.1326629999999
 30
0.0
 40
7.0
100
AcDbArc
 50
272.998306
 51
356.710298
  0
LINE
  5
A76A
330
A712
100
AcDbEntity
  8
1
  6
Continuous
100
AcDbLine
 10
189.617322
 20
240.935937
 30
0.0
 11
189.617322
 21
343.1155569999999
 31
0.0
  0
ARC
  5
A76B
330
A712
100
AcDbEntity
  8
1
  6
Continuous
100
AcDbCircle
 10
-731.831149
 20
292.1155569999999
 30
0.0
 40
964.0
100
AcDbArc
 50
357.244909
 51
2.755091
  0
LINE
  5
A76C
330
A712
100
AcDbEntity
  8
1
  6
Continuous
100
AcDbLine
 10
184.4556289999999
 20
241.115557
 30
0.0
 11
184.4556289999999
 21
343.1155569999999
 31
0.0
  0
ARC
  5
A76D
330
A712
100
AcDbEntity
  8
1
  6
Continuous
100
AcDbCircle
 10
-731.831149
 20
292.1155569999999
 30
0.0
 40
991.1780890000001
100
AcDbArc
 50
357.262765
 51
2.737234999999998
  0
LINE
  5
A76E
330
A712
100
AcDbEntity
  8
1
  6
Continuous
100
AcDbLine
 10
182.1688509999999
 20
239.115557
 30
0.0
 11
182.1688509999999
 21
345.1155569999999
 31
0.0
  0
ARC
  5
A76F
330
A712
100
AcDbEntity
  8
1
  6
Continuous
100
AcDbCircle
 10
1173.168851
 20
292.1155569999999
 30
0.0
 40
1000.0
100
AcDbArc
 50
176.7102979999999
 51
183.289702
  0
LINE
  5
A770
330
A712
100
AcDbEntity
  8
1
  6
Continuous
100
AcDbLine
 10
186.4556289999999
 20
239.115557
 30
0.0
 11
224.0626739999999
 21
239.115557
 31
0.0
  0
LINE
  5
A771
330
A712
100
AcDbEntity
  8
1
  6
Continuous
100
AcDbLine
 10
183.168851
 20
238.115557
 30
0.0
 11
251.2240429999999
 21
238.115557
 31
0.0
  0
ARC
  5
A772
330
A712
100
AcDbEntity
  8
1
  6
Continuous
100
AcDbCircle
 10
220.6688509999999
 20
977.1155569999999
 30
0.0
 40
750.0
100
AcDbArc
 50
267.001694
 51
272.998306
  0
ARC
  5
A773
330
A712
100
AcDbEntity
  8
1
  6
Continuous
100
AcDbCircle
 10
186.4556289999999
 20
241.115557
 30
0.0
 40
2.0
100
AcDbArc
 50
180.0
 51
270.0
  0
ARC
  5
A774
330
A712
100
AcDbEntity
  8
1
  6
Continuous
100
AcDbCircle
 10
183.168851
 20
239.115557
 30
0.0
 40
1.0
100
AcDbArc
 50
180.0
 51
270.0
  0
ARC
  5
A775
330
A712
100
AcDbEntity
  8
1
  6
Continuous
100
AcDbCircle
 10
181.805169
 20
235.1326629999999
 30
0.0
 40
7.0
100
AcDbArc
 50
183.289702
 51
267.001694
  0
LINE
  5
A776
330
A712
100
AcDbEntity
  8
1
  6
Continuous
100
AcDbLine
 10
198.6329529999999
 20
238.115557
 30
0.0
 11
198.6329529999999
 21
239.115557
 31
0.0
  0
LINE
  5
A777
330
A712
100
AcDbEntity
  8
1
  6
Continuous
100
AcDbLine
 10
191.1688509999999
 20
238.115557
 30
0.0
 11
191.1688509999999
 21
239.115557
 31
0.0
  0
ARC
  5
A778
330
A712
100
AcDbEntity
  8
1
  6
Continuous
100
AcDbCircle
 10
224.0626739999999
 20
246.1155569999998
 30
0.0
 40
7.0
100
AcDbArc
 50
270.0
 51
357.244909
  0
LINE
  5
A779
330
A712
100
AcDbEntity
  8
1
  6
Continuous
100
AcDbLine
 10
222.1688509999999
 20
238.115557
 30
0.0
 11
222.1688509999999
 21
239.115557
 31
0.0
  0
ARC
  5
A77A
330
A712
100
AcDbEntity
  8
1
  6
Continuous
100
AcDbCircle
 10
251.2240429999999
 20
245.115557
 30
0.0
 40
7.0
100
AcDbArc
 50
270.0
 51
357.262765
  0
LINE
  5
A77B
330
A712
100
AcDbEntity
  8
1
  6
Continuous
100
AcDbLine
 10
186.4556289999999
 20
345.1155569999999
 30
0.0
 11
224.0626739999999
 21
345.1155569999999
 31
0.0
  0
LINE
  5
A77C
330
A712
100
AcDbEntity
  8
1
  6
Continuous
100
AcDbLine
 10
183.168851
 20
346.1155569999998
 30
0.0
 11
251.2240429999999
 21
346.1155569999998
 31
0.0
  0
ARC
  5
A77D
330
A712
100
AcDbEntity
  8
1
  6
Continuous
100
AcDbCircle
 10
186.4556289999999
 20
343.1155569999999
 30
0.0
 40
2.0
100
AcDbArc
 50
90.0
 51
180.0
  0
ARC
  5
A77E
330
A712
100
AcDbEntity
  8
1
  6
Continuous
100
AcDbCircle
 10
183.168851
 20
345.1155569999999
 30
0.0
 40
1.0
100
AcDbArc
 50
90.0
 51
180.0
  0
LINE
  5
A77F
330
A712
100
AcDbEntity
  8
1
  6
Continuous
100
AcDbLine
 10
198.6329529999999
 20
345.1155569999999
 30
0.0
 11
198.6329529999999
 21
346.1155569999998
 31
0.0
  0
LINE
  5
A780
330
A712
100
AcDbEntity
  8
1
  6
Continuous
100
AcDbLine
 10
191.1688509999999
 20
346.1155569999998
 30
0.0
 11
191.1688509999999
 21
345.1155569999999
 31
0.0
  0
ARC
  5
A781
330
A712
100
AcDbEntity
  8
1
  6
Continuous
100
AcDbCircle
 10
224.0626739999999
 20
338.1155569999999
 30
0.0
 40
7.0
100
AcDbArc
 50
2.755091
 51
90.0
  0
LINE
  5
A782
330
A712
100
AcDbEntity
  8
1
  6
Continuous
100
AcDbLine
 10
222.1688509999999
 20
346.1155569999998
 30
0.0
 11
222.1688509999999
 21
345.1155569999999
 31
0.0
  0
ARC
  5
A783
330
A712
100
AcDbEntity
  8
1
  6
Continuous
100
AcDbCircle
 10
251.2240429999999
 20
339.1155569999999
 30
0.0
 40
7.0
100
AcDbArc
 50
2.737234999999998
 51
90.0
  0
ARC
  5
A784
330
A712
100
AcDbEntity
  8
1
  6
Continuous
100
AcDbCircle
 10
-731.831149
 20
292.1155569999999
 30
0.0
 40
1000.0
100
AcDbArc
 50
356.710298
 51
3.289701999999998
  0
ARC
  5
A785
330
A712
100
AcDbEntity
  8
1
  6
Continuous
100
AcDbCircle
 10
220.6688509999999
 20
-392.8844429999998
 30
0.0
 40
750.0
100
AcDbArc
 50
87.001694
 51
92.99830599999999
  0
LINE
  5
A786
330
A712
100
AcDbEntity
  8
4
  6
CENTER
100
AcDbLine
 10
389.0236429999998
 20
360.1155569999999
 30
0.0
 11
389.0236429999998
 21
224.115557
 31
0.0
  0
LINE
  5
A787
330
A712
100
AcDbEntity
  8
1
  6
Continuous
100
AcDbLine
 10
410.3236429999998
 20
227.1155569999999
 30
0.0
 11
410.3236429999998
 21
357.1155569999998
 31
0.0
  0
LINE
  5
A788
330
A712
100
AcDbEntity
  8
1
  6
Continuous
100
AcDbLine
 10
386.8236429999998
 20
227.1155569999999
 30
0.0
 11
386.8236429999998
 21
357.1155569999998
 31
0.0
  0
LINE
  5
A789
330
A712
100
AcDbEntity
  8
1
  6
Continuous
100
AcDbLine
 10
411.3236429999998
 20
316.171201
 30
0.0
 11
411.3236429999998
 21
312.3712009999999
 31
0.0
  0
LINE
  5
A78A
330
A712
100
AcDbEntity
  8
1
  6
Continuous
100
AcDbLine
 10
410.8236429999998
 20
316.6712009999999
 30
0.0
 11
410.8236429999998
 21
311.8712009999999
 31
0.0
  0
LINE
  5
A78B
330
A712
100
AcDbEntity
  8
1
  6
Continuous
100
AcDbLine
 10
378.858048
 20
238.115557
 30
0.0
 11
378.858048
 21
346.1155569999998
 31
0.0
  0
LINE
  5
A78C
330
A712
100
AcDbEntity
  8
1
  6
Continuous
100
AcDbLine
 10
374.8236429999999
 20
240.1155569999999
 30
0.0
 11
374.8236429999999
 21
344.1155569999998
 31
0.0
  0
LINE
  5
A78D
330
A712
100
AcDbEntity
  8
1
  6
Continuous
100
AcDbLine
 10
385.3236429999999
 20
227.1155569999999
 30
0.0
 11
385.3236429999999
 21
357.1155569999998
 31
0.0
  0
LINE
  5
A78E
330
A712
100
AcDbEntity
  8
1
  6
Continuous
100
AcDbLine
 10
386.323643
 20
227.1155569999999
 30
0.0
 11
386.323643
 21
357.1155569999998
 31
0.0
  0
LINE
  5
A78F
330
A712
100
AcDbEntity
  8
4
  6
CENTER
100
AcDbLine
 10
413.323643
 20
292.1155569999999
 30
0.0
 11
371.823643
 21
292.1155569999999
 31
0.0
  0
LINE
  5
A790
330
A712
100
AcDbEntity
  8
1
  6
Continuous
100
AcDbLine
 10
411.3236429999998
 20
271.8599119999999
 30
0.0
 11
411.3236429999998
 21
268.059912
 31
0.0
  0
LINE
  5
A791
330
A712
100
AcDbEntity
  8
1
  6
Continuous
100
AcDbLine
 10
410.8236429999998
 20
272.359912
 30
0.0
 11
410.8236429999998
 21
267.559912
 31
0.0
  0
LINE
  5
A792
330
A712
100
AcDbEntity
  8
1
  6
Continuous
100
AcDbLine
 10
386.8236429999998
 20
227.1155569999999
 30
0.0
 11
410.3236429999998
 21
227.1155569999999
 31
0.0
  0
LINE
  5
A793
330
A712
100
AcDbEntity
  8
4
  6
CENTER
100
AcDbLine
 10
414.3236429999998
 20
252.1155569999999
 30
0.0
 11
397.927027
 21
252.1155569999999
 31
0.0
  0
LINE
  5
A794
330
A712
100
AcDbEntity
  8
1
  6
Continuous
100
AcDbLine
 10
410.8236429999998
 20
267.559912
 30
0.0
 11
411.3236429999998
 21
268.059912
 31
0.0
  0
LINE
  5
A795
330
A712
100
AcDbEntity
  8
1
  6
Continuous
100
AcDbLine
 10
410.8236429999998
 20
267.559912
 30
0.0
 11
410.3236429999998
 21
267.559912
 31
0.0
  0
ARC
  5
A796
330
A712
100
AcDbEntity
  8
1
  6
Continuous
100
AcDbCircle
 10
378.623643
 20
230.9155569999998
 30
0.0
 40
3.799999999999998
100
AcDbArc
 50
180.0
 51
270.0
  0
LINE
  5
A797
330
A712
100
AcDbEntity
  8
1
  6
Continuous
100
AcDbLine
 10
375.323643
 20
238.115557
 30
0.0
 11
378.858048
 21
238.115557
 31
0.0
  0
LINE
  5
A798
330
A712
100
AcDbEntity
  8
1
  6
Continuous
100
AcDbLine
 10
375.823643
 20
239.115557
 30
0.0
 11
378.858048
 21
239.115557
 31
0.0
  0
LINE
  5
A799
330
A712
100
AcDbEntity
  8
1
  6
Continuous
100
AcDbLine
 10
385.3236429999999
 20
227.1155569999999
 30
0.0
 11
378.623643
 21
227.1155569999999
 31
0.0
  0
LINE
  5
A79A
330
A712
100
AcDbEntity
  8
1
  6
Continuous
100
AcDbLine
 10
386.323643
 20
227.1155569999999
 30
0.0
 11
385.3236429999999
 21
227.1155569999999
 31
0.0
  0
LINE
  5
A79B
330
A712
100
AcDbEntity
  8
1
  6
Continuous
100
AcDbLine
 10
386.323643
 20
235.1155569999999
 30
0.0
 11
386.8236429999998
 21
235.1155569999999
 31
0.0
  0
LINE
  5
A79C
330
A712
100
AcDbEntity
  8
1
  6
Continuous
100
AcDbLine
 10
374.8236429999999
 20
230.9155569999998
 30
0.0
 11
374.8236429999999
 21
237.6155569999998
 31
0.0
  0
ARC
  5
A79D
330
A712
100
AcDbEntity
  8
1
  6
Continuous
100
AcDbCircle
 10
375.323643
 20
237.6155569999998
 30
0.0
 40
0.5
100
AcDbArc
 50
90.0
 51
180.0
  0
ARC
  5
A79E
330
A712
100
AcDbEntity
  8
1
  6
Continuous
100
AcDbCircle
 10
375.823643
 20
240.1155569999999
 30
0.0
 40
1.0
100
AcDbArc
 50
180.0
 51
270.0
  0
LINE
  5
A79F
330
A712
100
AcDbEntity
  8
4
  6
CENTER
100
AcDbLine
 10
414.3236429999998
 20
269.9599119999999
 30
0.0
 11
397.927027
 21
269.9599119999999
 31
0.0
  0
LINE
  5
A7A0
330
A712
100
AcDbEntity
  8
1
  6
Continuous
100
AcDbLine
 10
410.8236429999998
 20
272.359912
 30
0.0
 11
411.3236429999998
 21
271.8599119999999
 31
0.0
  0
LINE
  5
A7A1
330
A712
100
AcDbEntity
  8
1
  6
Continuous
100
AcDbLine
 10
410.8236429999998
 20
272.359912
 30
0.0
 11
410.3236429999998
 21
272.359912
 31
0.0
  0
LINE
  5
A7A2
330
A712
100
AcDbEntity
  8
1
  6
Continuous
100
AcDbLine
 10
410.8236429999998
 20
311.8712009999999
 30
0.0
 11
411.3236429999998
 21
312.3712009999999
 31
0.0
  0
LINE
  5
A7A3
330
A712
100
AcDbEntity
  8
1
  6
Continuous
100
AcDbLine
 10
410.8236429999998
 20
311.8712009999999
 30
0.0
 11
410.3236429999998
 21
311.8712009999999
 31
0.0
  0
ARC
  5
A7A4
330
A712
100
AcDbEntity
  8
1
  6
Continuous
100
AcDbCircle
 10
378.623643
 20
353.3155569999999
 30
0.0
 40
3.799999999999998
100
AcDbArc
 50
90.0
 51
180.0
  0
LINE
  5
A7A5
330
A712
100
AcDbEntity
  8
4
  6
CENTER
100
AcDbLine
 10
413.323643
 20
332.1155569999999
 30
0.0
 11
397.927027
 21
332.1155569999999
 31
0.0
  0
LINE
  5
A7A6
330
A712
100
AcDbEntity
  8
4
  6
CENTER
100
AcDbLine
 10
413.323643
 20
314.2712009999999
 30
0.0
 11
397.927027
 21
314.2712009999999
 31
0.0
  0
LINE
  5
A7A7
330
A712
100
AcDbEntity
  8
1
  6
Continuous
100
AcDbLine
 10
410.8236429999998
 20
316.6712009999999
 30
0.0
 11
411.3236429999998
 21
316.171201
 31
0.0
  0
LINE
  5
A7A8
330
A712
100
AcDbEntity
  8
1
  6
Continuous
100
AcDbLine
 10
410.8236429999998
 20
316.6712009999999
 30
0.0
 11
410.3236429999998
 21
316.6712009999999
 31
0.0
  0
LINE
  5
A7A9
330
A712
100
AcDbEntity
  8
1
  6
Continuous
100
AcDbLine
 10
375.323643
 20
346.1155569999998
 30
0.0
 11
378.858048
 21
346.1155569999998
 31
0.0
  0
LINE
  5
A7AA
330
A712
100
AcDbEntity
  8
1
  6
Continuous
100
AcDbLine
 10
375.823643
 20
345.1155569999999
 30
0.0
 11
378.858048
 21
345.1155569999999
 31
0.0
  0
LINE
  5
A7AB
330
A712
100
AcDbEntity
  8
1
  6
Continuous
100
AcDbLine
 10
386.323643
 20
349.1155569999999
 30
0.0
 11
386.8236429999998
 21
349.1155569999999
 31
0.0
  0
ARC
  5
A7AC
330
A712
100
AcDbEntity
  8
1
  6
Continuous
100
AcDbCircle
 10
375.323643
 20
346.6155569999998
 30
0.0
 40
0.5
100
AcDbArc
 50
180.0
 51
270.0
  0
ARC
  5
A7AD
330
A712
100
AcDbEntity
  8
1
  6
Continuous
100
AcDbCircle
 10
375.823643
 20
344.1155569999998
 30
0.0
 40
1.0
100
AcDbArc
 50
90.0
 51
180.0
  0
LINE
  5
A7AE
330
A712
100
AcDbEntity
  8
1
  6
Continuous
100
AcDbLine
 10
374.8236429999999
 20
346.6155569999998
 30
0.0
 11
374.8236429999999
 21
353.3155569999999
 31
0.0
  0
LINE
  5
A7AF
330
A712
100
AcDbEntity
  8
1
  6
Continuous
100
AcDbLine
 10
386.8236429999998
 20
357.1155569999998
 30
0.0
 11
410.3236429999998
 21
357.1155569999998
 31
0.0
  0
LINE
  5
A7B0
330
A712
100
AcDbEntity
  8
1
  6
Continuous
100
AcDbLine
 10
385.3236429999999
 20
357.1155569999998
 30
0.0
 11
378.623643
 21
357.1155569999998
 31
0.0
  0
LINE
  5
A7B1
330
A712
100
AcDbEntity
  8
1
  6
Continuous
100
AcDbLine
 10
386.323643
 20
357.1155569999998
 30
0.0
 11
385.3236429999999
 21
357.1155569999998
 31
0.0
  0
CIRCLE
  5
A7B2
330
A712
100
AcDbEntity
  8
1
  6
Continuous
100
AcDbCircle
 10
596.2450159999997
 20
332.1155569999999
 30
0.0
 40
4.0
  0
ARC
  5
A7B3
330
A712
100
AcDbEntity
  8
1
  6
Continuous
100
AcDbCircle
 10
596.2450159999997
 20
332.1155569999999
 30
0.0
 40
2.25
100
AcDbArc
 50
304.242
 51
325.7579999999999
  0
LINE
  5
A7B4
330
A712
100
AcDbEntity
  8
1
  6
Continuous
100
AcDbLine
 10
597.2250659999997
 20
332.1155569999999
 30
0.0
 11
597.432955
 21
332.6854850000001
 31
0.0
  0
LINE
  5
A7B5
330
A712
100
AcDbEntity
  8
1
  6
Continuous
100
AcDbLine
 10
597.2250659999997
 20
332.1155569999999
 30
0.0
 11
597.4322479999998
 21
331.5463359999998
 31
0.0
  0
ARC
  5
A7B6
330
A712
100
AcDbEntity
  8
1
  6
Continuous
100
AcDbCircle
 10
596.2450159999997
 20
332.1155569999999
 30
0.0
 40
2.25
100
AcDbArc
 50
34.24199999999999
 51
55.75829999999999
  0
LINE
  5
A7B7
330
A712
100
AcDbEntity
  8
1
  6
Continuous
100
AcDbLine
 10
597.432955
 20
332.6854850000001
 30
0.0
 11
598.105414
 21
333.3819849999998
 31
0.0
  0
LINE
  5
A7B8
330
A712
100
AcDbEntity
  8
1
  6
Continuous
100
AcDbLine
 10
597.4322479999998
 20
331.5463359999998
 30
0.0
 11
598.105414
 21
330.849129
 31
0.0
  0
LINE
  5
A7B9
330
A712
100
AcDbEntity
  8
1
  6
Continuous
100
AcDbLine
 10
595.675795
 20
330.928325
 30
0.0
 11
594.9792949999999
 21
330.255866
 31
0.0
  0
LINE
  5
A7BA
330
A712
100
AcDbEntity
  8
1
  6
Continuous
100
AcDbLine
 10
596.2450159999997
 20
333.0956069999999
 30
0.0
 11
595.675795
 21
333.302789
 31
0.0
  0
LINE
  5
A7BB
330
A712
100
AcDbEntity
  8
1
  6
Continuous
100
AcDbLine
 10
596.2450159999997
 20
331.1355069999998
 30
0.0
 11
595.675795
 21
330.928325
 31
0.0
  0
LINE
  5
A7BC
330
A712
100
AcDbEntity
  8
1
  6
Continuous
100
AcDbLine
 10
595.675795
 20
333.302789
 30
0.0
 11
594.9792949999999
 21
333.975248
 31
0.0
  0
LINE
  5
A7BD
330
A712
100
AcDbEntity
  8
1
  6
Continuous
100
AcDbLine
 10
595.2649659999997
 20
332.1155569999999
 30
0.0
 11
595.057784
 21
332.684778
 31
0.0
  0
LINE
  5
A7BE
330
A712
100
AcDbEntity
  8
1
  6
Continuous
100
AcDbLine
 10
595.2649659999997
 20
332.1155569999999
 30
0.0
 11
595.057784
 21
331.5463359999998
 31
0.0
  0
LINE
  5
A7BF
330
A712
100
AcDbEntity
  8
1
  6
Continuous
100
AcDbLine
 10
596.2450159999997
 20
333.0956069999999
 30
0.0
 11
596.8149440000002
 21
333.3034959999999
 31
0.0
  0
LINE
  5
A7C0
330
A712
100
AcDbEntity
  8
1
  6
Continuous
100
AcDbLine
 10
596.2450159999997
 20
331.1355069999998
 30
0.0
 11
596.8142370000001
 21
330.928325
 31
0.0
  0
ARC
  5
A7C1
330
A712
100
AcDbEntity
  8
1
  6
Continuous
100
AcDbCircle
 10
596.2450159999997
 20
332.1155569999999
 30
0.0
 40
2.25
100
AcDbArc
 50
214.2419999999999
 51
235.758
  0
LINE
  5
A7C2
330
A712
100
AcDbEntity
  8
1
  6
Continuous
100
AcDbLine
 10
595.057784
 20
332.684778
 30
0.0
 11
594.385325
 21
333.3812779999998
 31
0.0
  0
LINE
  5
A7C3
330
A712
100
AcDbEntity
  8
1
  6
Continuous
100
AcDbLine
 10
595.057784
 20
331.5463359999998
 30
0.0
 11
594.385325
 21
330.8498359999999
 31
0.0
  0
ARC
  5
A7C4
330
A712
100
AcDbEntity
  8
1
  6
Continuous
100
AcDbCircle
 10
596.2450159999997
 20
332.1155569999999
 30
0.0
 40
2.25
100
AcDbArc
 50
124.2416999999998
 51
145.7579999999999
  0
LINE
  5
A7C5
330
A712
100
AcDbEntity
  8
1
  6
Continuous
100
AcDbLine
 10
596.8142370000001
 20
330.928325
 30
0.0
 11
597.5114440000001
 21
330.255159
 31
0.0
  0
LINE
  5
A7C6
330
A712
100
AcDbEntity
  8
1
  6
Continuous
100
AcDbLine
 10
596.8149440000002
 20
333.3034959999999
 30
0.0
 11
597.5114440000001
 21
333.975955
 31
0.0
  0
CIRCLE
  5
A7C7
330
A712
100
AcDbEntity
  8
1
  6
Continuous
100
AcDbCircle
 10
536.2450159999998
 20
332.1155569999999
 30
0.0
 40
4.0
  0
CIRCLE
  5
A7C8
330
A712
100
AcDbEntity
  8
1
  6
Continuous
100
AcDbCircle
 10
536.2450159999998
 20
332.1155569999999
 30
0.0
 40
4.299999999999998
  0
LINE
  5
A7C9
330
A712
100
AcDbEntity
  8
1
  6
Continuous
100
AcDbLine
 10
536.8149439999998
 20
333.3034959999999
 30
0.0
 11
537.5114439999999
 21
333.975955
 31
0.0
  0
LINE
  5
A7CA
330
A712
100
AcDbEntity
  8
1
  6
Continuous
100
AcDbLine
 10
536.814237
 20
330.928325
 30
0.0
 11
537.5114439999999
 21
330.255159
 31
0.0
  0
ARC
  5
A7CB
330
A712
100
AcDbEntity
  8
1
  6
Continuous
100
AcDbCircle
 10
536.2450159999998
 20
332.1155569999999
 30
0.0
 40
2.25
100
AcDbArc
 50
124.2416999999998
 51
145.7579999999999
  0
LINE
  5
A7CC
330
A712
100
AcDbEntity
  8
1
  6
Continuous
100
AcDbLine
 10
535.0577839999998
 20
331.5463359999998
 30
0.0
 11
534.3853249999998
 21
330.8498359999999
 31
0.0
  0
LINE
  5
A7CD
330
A712
100
AcDbEntity
  8
1
  6
Continuous
100
AcDbLine
 10
535.0577839999998
 20
332.684778
 30
0.0
 11
534.3853249999998
 21
333.3812779999998
 31
0.0
  0
ARC
  5
A7CE
330
A712
100
AcDbEntity
  8
1
  6
Continuous
100
AcDbCircle
 10
536.2450159999998
 20
332.1155569999999
 30
0.0
 40
2.25
100
AcDbArc
 50
214.2419999999999
 51
235.758
  0
LINE
  5
A7CF
330
A712
100
AcDbEntity
  8
1
  6
Continuous
100
AcDbLine
 10
536.2450159999998
 20
331.1355069999998
 30
0.0
 11
536.814237
 21
330.928325
 31
0.0
  0
LINE
  5
A7D0
330
A712
100
AcDbEntity
  8
1
  6
Continuous
100
AcDbLine
 10
536.2450159999998
 20
333.0956069999999
 30
0.0
 11
536.8149439999998
 21
333.3034959999999
 31
0.0
  0
LINE
  5
A7D1
330
A712
100
AcDbEntity
  8
1
  6
Continuous
100
AcDbLine
 10
535.2649659999998
 20
332.1155569999999
 30
0.0
 11
535.0577839999998
 21
331.5463359999998
 31
0.0
  0
LINE
  5
A7D2
330
A712
100
AcDbEntity
  8
1
  6
Continuous
100
AcDbLine
 10
535.2649659999998
 20
332.1155569999999
 30
0.0
 11
535.0577839999998
 21
332.684778
 31
0.0
  0
LINE
  5
A7D3
330
A712
100
AcDbEntity
  8
1
  6
Continuous
100
AcDbLine
 10
535.675795
 20
333.302789
 30
0.0
 11
534.979295
 21
333.975248
 31
0.0
  0
LINE
  5
A7D4
330
A712
100
AcDbEntity
  8
1
  6
Continuous
100
AcDbLine
 10
536.2450159999998
 20
331.1355069999998
 30
0.0
 11
535.675795
 21
330.928325
 31
0.0
  0
LINE
  5
A7D5
330
A712
100
AcDbEntity
  8
1
  6
Continuous
100
AcDbLine
 10
536.2450159999998
 20
333.0956069999999
 30
0.0
 11
535.675795
 21
333.302789
 31
0.0
  0
LINE
  5
A7D6
330
A712
100
AcDbEntity
  8
1
  6
Continuous
100
AcDbLine
 10
535.675795
 20
330.928325
 30
0.0
 11
534.979295
 21
330.255866
 31
0.0
  0
LINE
  5
A7D7
330
A712
100
AcDbEntity
  8
1
  6
Continuous
100
AcDbLine
 10
537.432248
 20
331.5463359999998
 30
0.0
 11
538.1054139999998
 21
330.849129
 31
0.0
  0
LINE
  5
A7D8
330
A712
100
AcDbEntity
  8
1
  6
Continuous
100
AcDbLine
 10
537.4329549999998
 20
332.6854850000001
 30
0.0
 11
538.1054139999998
 21
333.3819849999998
 31
0.0
  0
ARC
  5
A7D9
330
A712
100
AcDbEntity
  8
1
  6
Continuous
100
AcDbCircle
 10
536.2450159999998
 20
332.1155569999999
 30
0.0
 40
2.25
100
AcDbArc
 50
34.24199999999999
 51
55.75829999999999
  0
LINE
  5
A7DA
330
A712
100
AcDbEntity
  8
1
  6
Continuous
100
AcDbLine
 10
537.2250659999998
 20
332.1155569999999
 30
0.0
 11
537.432248
 21
331.5463359999998
 31
0.0
  0
LINE
  5
A7DB
330
A712
100
AcDbEntity
  8
1
  6
Continuous
100
AcDbLine
 10
537.2250659999998
 20
332.1155569999999
 30
0.0
 11
537.4329549999998
 21
332.6854850000001
 31
0.0
  0
ARC
  5
A7DC
330
A712
100
AcDbEntity
  8
1
  6
Continuous
100
AcDbCircle
 10
536.2450159999998
 20
332.1155569999999
 30
0.0
 40
2.25
100
AcDbArc
 50
304.242
 51
325.7579999999999
  0
ARC
  5
A7DD
330
A712
100
AcDbEntity
  8
1
  6
Continuous
100
AcDbCircle
 10
536.2450159999998
 20
252.1155569999999
 30
0.0
 40
2.25
100
AcDbArc
 50
304.242
 51
325.7579999999999
  0
LINE
  5
A7DE
330
A712
100
AcDbEntity
  8
1
  6
Continuous
100
AcDbLine
 10
537.2250659999998
 20
252.1155569999999
 30
0.0
 11
537.4329549999998
 21
252.6854849999998
 31
0.0
  0
LINE
  5
A7DF
330
A712
100
AcDbEntity
  8
1
  6
Continuous
100
AcDbLine
 10
537.2250659999998
 20
252.1155569999999
 30
0.0
 11
537.432248
 21
251.546336
 31
0.0
  0
ARC
  5
A7E0
330
A712
100
AcDbEntity
  8
1
  6
Continuous
100
AcDbCircle
 10
536.2450159999998
 20
252.1155569999999
 30
0.0
 40
2.25
100
AcDbArc
 50
34.24199999999999
 51
55.75829999999999
  0
LINE
  5
A7E1
330
A712
100
AcDbEntity
  8
1
  6
Continuous
100
AcDbLine
 10
537.4329549999998
 20
252.6854849999998
 30
0.0
 11
538.1054139999998
 21
253.3819849999999
 31
0.0
  0
LINE
  5
A7E2
330
A712
100
AcDbEntity
  8
1
  6
Continuous
100
AcDbLine
 10
537.432248
 20
251.546336
 30
0.0
 11
538.1054139999998
 21
250.849129
 31
0.0
  0
LINE
  5
A7E3
330
A712
100
AcDbEntity
  8
1
  6
Continuous
100
AcDbLine
 10
535.675795
 20
250.928325
 30
0.0
 11
534.979295
 21
250.255866
 31
0.0
  0
LINE
  5
A7E4
330
A712
100
AcDbEntity
  8
1
  6
Continuous
100
AcDbLine
 10
536.2450159999998
 20
253.0956069999998
 30
0.0
 11
535.675795
 21
253.302789
 31
0.0
  0
LINE
  5
A7E5
330
A712
100
AcDbEntity
  8
1
  6
Continuous
100
AcDbLine
 10
536.2450159999998
 20
251.135507
 30
0.0
 11
535.675795
 21
250.928325
 31
0.0
  0
LINE
  5
A7E6
330
A712
100
AcDbEntity
  8
1
  6
Continuous
100
AcDbLine
 10
535.675795
 20
253.302789
 30
0.0
 11
534.979295
 21
253.975248
 31
0.0
  0
LINE
  5
A7E7
330
A712
100
AcDbEntity
  8
1
  6
Continuous
100
AcDbLine
 10
535.2649659999998
 20
252.1155569999999
 30
0.0
 11
535.0577839999998
 21
252.6847779999999
 31
0.0
  0
LINE
  5
A7E8
330
A712
100
AcDbEntity
  8
1
  6
Continuous
100
AcDbLine
 10
535.2649659999998
 20
252.1155569999999
 30
0.0
 11
535.0577839999998
 21
251.546336
 31
0.0
  0
LINE
  5
A7E9
330
A712
100
AcDbEntity
  8
1
  6
Continuous
100
AcDbLine
 10
536.2450159999998
 20
253.0956069999998
 30
0.0
 11
536.8149439999998
 21
253.303496
 31
0.0
  0
LINE
  5
A7EA
330
A712
100
AcDbEntity
  8
1
  6
Continuous
100
AcDbLine
 10
536.2450159999998
 20
251.135507
 30
0.0
 11
536.814237
 21
250.928325
 31
0.0
  0
ARC
  5
A7EB
330
A712
100
AcDbEntity
  8
1
  6
Continuous
100
AcDbCircle
 10
536.2450159999998
 20
252.1155569999999
 30
0.0
 40
2.25
100
AcDbArc
 50
214.2419999999999
 51
235.758
  0
LINE
  5
A7EC
330
A712
100
AcDbEntity
  8
1
  6
Continuous
100
AcDbLine
 10
535.0577839999998
 20
252.6847779999999
 30
0.0
 11
534.3853249999998
 21
253.3812779999999
 31
0.0
  0
LINE
  5
A7ED
330
A712
100
AcDbEntity
  8
1
  6
Continuous
100
AcDbLine
 10
535.0577839999998
 20
251.546336
 30
0.0
 11
534.3853249999998
 21
250.8498359999999
 31
0.0
  0
ARC
  5
A7EE
330
A712
100
AcDbEntity
  8
1
  6
Continuous
100
AcDbCircle
 10
536.2450159999998
 20
252.1155569999999
 30
0.0
 40
2.25
100
AcDbArc
 50
124.2416999999998
 51
145.7579999999999
  0
LINE
  5
A7EF
330
A712
100
AcDbEntity
  8
1
  6
Continuous
100
AcDbLine
 10
536.814237
 20
250.928325
 30
0.0
 11
537.5114439999999
 21
250.2551589999999
 31
0.0
  0
LINE
  5
A7F0
330
A712
100
AcDbEntity
  8
1
  6
Continuous
100
AcDbLine
 10
536.8149439999998
 20
253.303496
 30
0.0
 11
537.5114439999999
 21
253.9759549999998
 31
0.0
  0
CIRCLE
  5
A7F1
330
A712
100
AcDbEntity
  8
1
  6
Continuous
100
AcDbCircle
 10
536.2450159999998
 20
252.1155569999999
 30
0.0
 40
4.299999999999998
  0
CIRCLE
  5
A7F2
330
A712
100
AcDbEntity
  8
1
  6
Continuous
100
AcDbCircle
 10
536.2450159999998
 20
252.1155569999999
 30
0.0
 40
4.0
  0
CIRCLE
  5
A7F3
330
A712
100
AcDbEntity
  8
1
  6
Continuous
100
AcDbCircle
 10
596.2450159999997
 20
252.1155569999999
 30
0.0
 40
4.0
  0
CIRCLE
  5
A7F4
330
A712
100
AcDbEntity
  8
1
  6
Continuous
100
AcDbCircle
 10
596.2450159999997
 20
252.1155569999999
 30
0.0
 40
4.299999999999998
  0
LINE
  5
A7F5
330
A712
100
AcDbEntity
  8
1
  6
Continuous
100
AcDbLine
 10
596.8149440000002
 20
253.303496
 30
0.0
 11
597.5114440000001
 21
253.9759549999998
 31
0.0
  0
LINE
  5
A7F6
330
A712
100
AcDbEntity
  8
1
  6
Continuous
100
AcDbLine
 10
596.8142370000001
 20
250.928325
 30
0.0
 11
597.5114440000001
 21
250.2551589999999
 31
0.0
  0
ARC
  5
A7F7
330
A712
100
AcDbEntity
  8
1
  6
Continuous
100
AcDbCircle
 10
596.2450159999997
 20
252.1155569999999
 30
0.0
 40
2.25
100
AcDbArc
 50
124.2416999999998
 51
145.7579999999999
  0
LINE
  5
A7F8
330
A712
100
AcDbEntity
  8
1
  6
Continuous
100
AcDbLine
 10
595.057784
 20
251.546336
 30
0.0
 11
594.385325
 21
250.8498359999999
 31
0.0
  0
LINE
  5
A7F9
330
A712
100
AcDbEntity
  8
1
  6
Continuous
100
AcDbLine
 10
595.057784
 20
252.6847779999999
 30
0.0
 11
594.385325
 21
253.3812779999999
 31
0.0
  0
ARC
  5
A7FA
330
A712
100
AcDbEntity
  8
1
  6
Continuous
100
AcDbCircle
 10
596.2450159999997
 20
252.1155569999999
 30
0.0
 40
2.25
100
AcDbArc
 50
214.2419999999999
 51
235.758
  0
LINE
  5
A7FB
330
A712
100
AcDbEntity
  8
1
  6
Continuous
100
AcDbLine
 10
596.2450159999997
 20
251.135507
 30
0.0
 11
596.8142370000001
 21
250.928325
 31
0.0
  0
LINE
  5
A7FC
330
A712
100
AcDbEntity
  8
1
  6
Continuous
100
AcDbLine
 10
596.2450159999997
 20
253.0956069999998
 30
0.0
 11
596.8149440000002
 21
253.303496
 31
0.0
  0
LINE
  5
A7FD
330
A712
100
AcDbEntity
  8
1
  6
Continuous
100
AcDbLine
 10
595.2649659999997
 20
252.1155569999999
 30
0.0
 11
595.057784
 21
251.546336
 31
0.0
  0
LINE
  5
A7FE
330
A712
100
AcDbEntity
  8
1
  6
Continuous
100
AcDbLine
 10
595.2649659999997
 20
252.1155569999999
 30
0.0
 11
595.057784
 21
252.6847779999999
 31
0.0
  0
LINE
  5
A7FF
330
A712
100
AcDbEntity
  8
1
  6
Continuous
100
AcDbLine
 10
595.675795
 20
253.302789
 30
0.0
 11
594.9792949999999
 21
253.975248
 31
0.0
  0
LINE
  5
A800
330
A712
100
AcDbEntity
  8
1
  6
Continuous
100
AcDbLine
 10
596.2450159999997
 20
251.135507
 30
0.0
 11
595.675795
 21
250.928325
 31
0.0
  0
LINE
  5
A801
330
A712
100
AcDbEntity
  8
1
  6
Continuous
100
AcDbLine
 10
596.2450159999997
 20
253.0956069999998
 30
0.0
 11
595.675795
 21
253.302789
 31
0.0
  0
LINE
  5
A802
330
A712
100
AcDbEntity
  8
1
  6
Continuous
100
AcDbLine
 10
595.675795
 20
250.928325
 30
0.0
 11
594.9792949999999
 21
250.255866
 31
0.0
  0
LINE
  5
A803
330
A712
100
AcDbEntity
  8
1
  6
Continuous
100
AcDbLine
 10
597.4322479999998
 20
251.546336
 30
0.0
 11
598.105414
 21
250.849129
 31
0.0
  0
LINE
  5
A804
330
A712
100
AcDbEntity
  8
1
  6
Continuous
100
AcDbLine
 10
597.432955
 20
252.6854849999998
 30
0.0
 11
598.105414
 21
253.3819849999999
 31
0.0
  0
ARC
  5
A805
330
A712
100
AcDbEntity
  8
1
  6
Continuous
100
AcDbCircle
 10
596.2450159999997
 20
252.1155569999999
 30
0.0
 40
2.25
100
AcDbArc
 50
34.24199999999999
 51
55.75829999999999
  0
LINE
  5
A806
330
A712
100
AcDbEntity
  8
1
  6
Continuous
100
AcDbLine
 10
597.2250659999997
 20
252.1155569999999
 30
0.0
 11
597.4322479999998
 21
251.546336
 31
0.0
  0
LINE
  5
A807
330
A712
100
AcDbEntity
  8
1
  6
Continuous
100
AcDbLine
 10
597.2250659999997
 20
252.1155569999999
 30
0.0
 11
597.432955
 21
252.6854849999998
 31
0.0
  0
ARC
  5
A808
330
A712
100
AcDbEntity
  8
1
  6
Continuous
100
AcDbCircle
 10
596.2450159999997
 20
252.1155569999999
 30
0.0
 40
2.25
100
AcDbArc
 50
304.242
 51
325.7579999999999
  0
LINE
  5
A809
330
A712
100
AcDbEntity
  8
1
  6
Continuous
100
AcDbLine
 10
410.3236429999998
 20
346.851625
 30
0.0
 11
394.059711
 21
346.851625
 31
0.0
  0
LINE
  5
A80A
330
A712
100
AcDbEntity
  8
1
  6
Continuous
100
AcDbLine
 10
410.3236429999998
 20
342.3794889999999
 30
0.0
 11
394.059711
 21
342.3794889999999
 31
0.0
  0
ARC
  5
A80B
330
A712
100
AcDbEntity
  8
1
  6
Continuous
100
AcDbCircle
 10
394.059711
 20
344.6155569999998
 30
0.0
 40
2.236067999999999
100
AcDbArc
 50
90.0
 51
270.0
  0
ARC
  5
A80C
330
A712
100
AcDbEntity
  8
1
  6
Continuous
100
AcDbCircle
 10
412.323643
 20
344.6155569999998
 30
0.0
 40
3.0
100
AcDbArc
 50
131.810315
 51
228.1896849999998
  0
ARC
  5
A80D
330
A712
100
AcDbEntity
  8
1
  6
Continuous
100
AcDbCircle
 10
394.059711
 20
239.6155569999999
 30
0.0
 40
2.236067999999999
100
AcDbArc
 50
90.0
 51
270.0
  0
LINE
  5
A80E
330
A712
100
AcDbEntity
  8
1
  6
Continuous
100
AcDbLine
 10
410.3236429999998
 20
241.851625
 30
0.0
 11
394.059711
 21
241.851625
 31
0.0
  0
LINE
  5
A80F
330
A712
100
AcDbEntity
  8
1
  6
Continuous
100
AcDbLine
 10
410.3236429999998
 20
237.379489
 30
0.0
 11
394.059711
 21
237.379489
 31
0.0
  0
ARC
  5
A810
330
A712
100
AcDbEntity
  8
1
  6
Continuous
100
AcDbCircle
 10
412.323643
 20
239.6155569999999
 30
0.0
 40
3.0
100
AcDbArc
 50
131.810315
 51
228.1896849999998
  0
LINE
  5
A811
330
A712
100
AcDbEntity
  8
4
  6
CENTER
100
AcDbLine
 10
515.6199609999998
 20
344.6155569999998
 30
0.0
 11
613.8700710000001
 21
344.6155569999998
 31
0.0
  0
LINE
  5
A812
330
A712
100
AcDbEntity
  8
4
  6
CENTER
100
AcDbLine
 10
515.6199609999998
 20
239.6155569999999
 30
0.0
 11
613.8700710000001
 21
239.6155569999999
 31
0.0
  0
LINE
  5
A813
330
A712
100
AcDbEntity
  8
1
  6
Continuous
100
AcDbLine
 10
54.40495799999999
 20
227.1155569999999
 30
0.0
 11
54.40495799999999
 21
357.1155569999998
 31
0.0
  0
LINE
  5
A814
330
A712
100
AcDbEntity
  8
1
  6
Continuous
100
AcDbLine
 10
62.370553
 20
238.115557
 30
0.0
 11
62.370553
 21
346.1155569999998
 31
0.0
  0
LINE
  5
A815
330
A712
100
AcDbEntity
  8
1
  6
Continuous
100
AcDbLine
 10
66.404958
 20
240.1155569999999
 30
0.0
 11
66.404958
 21
344.1155569999998
 31
0.0
  0
LINE
  5
A816
330
A712
100
AcDbEntity
  8
1
  6
Continuous
100
AcDbLine
 10
55.90495799999999
 20
227.1155569999999
 30
0.0
 11
55.90495799999999
 21
357.1155569999998
 31
0.0
  0
LINE
  5
A817
330
A712
100
AcDbEntity
  8
1
  6
Continuous
100
AcDbLine
 10
54.90495799999999
 20
227.1155569999999
 30
0.0
 11
54.90495799999999
 21
357.1155569999998
 31
0.0
  0
LINE
  5
A818
330
A712
100
AcDbEntity
  8
1
  6
Continuous
100
AcDbLine
 10
30.904958
 20
227.1155569999999
 30
0.0
 11
30.904958
 21
357.1155569999998
 31
0.0
  0
LINE
  5
A819
330
A712
100
AcDbEntity
  8
4
  6
CENTER
100
AcDbLine
 10
52.20495800000001
 20
360.1155569999999
 30
0.0
 11
52.20495800000001
 21
224.115557
 31
0.0
  0
LINE
  5
A81A
330
A712
100
AcDbEntity
  8
4
  6
CENTER
100
AcDbLine
 10
27.904958
 20
292.1155569999999
 30
0.0
 11
69.40495799999999
 21
292.1155569999999
 31
0.0
  0
LINE
  5
A81B
330
A712
100
AcDbEntity
  8
1
  6
Continuous
100
AcDbLine
 10
54.40495799999999
 20
227.1155569999999
 30
0.0
 11
30.904958
 21
227.1155569999999
 31
0.0
  0
LINE
  5
A81C
330
A712
100
AcDbEntity
  8
4
  6
CENTER
100
AcDbLine
 10
26.904958
 20
252.1155569999999
 30
0.0
 11
43.301574
 21
252.1155569999999
 31
0.0
  0
LINE
  5
A81D
330
A712
100
AcDbEntity
  8
4
  6
CENTER
100
AcDbLine
 10
26.904958
 20
269.9599119999999
 30
0.0
 11
43.301574
 21
269.9599119999999
 31
0.0
  0
LINE
  5
A81E
330
A712
100
AcDbEntity
  8
1
  6
Continuous
100
AcDbLine
 10
30.904958
 20
241.851625
 30
0.0
 11
47.16889
 21
241.851625
 31
0.0
  0
LINE
  5
A81F
330
A712
100
AcDbEntity
  8
1
  6
Continuous
100
AcDbLine
 10
30.904958
 20
237.379489
 30
0.0
 11
47.16889
 21
237.379489
 31
0.0
  0
LINE
  5
A820
330
A712
100
AcDbEntity
  8
1
  6
Continuous
100
AcDbLine
 10
66.404958
 20
230.9155569999998
 30
0.0
 11
66.404958
 21
237.6155569999998
 31
0.0
  0
LINE
  5
A821
330
A712
100
AcDbEntity
  8
1
  6
Continuous
100
AcDbLine
 10
54.90495799999999
 20
235.1155569999999
 30
0.0
 11
54.40495799999999
 21
235.1155569999999
 31
0.0
  0
LINE
  5
A822
330
A712
100
AcDbEntity
  8
1
  6
Continuous
100
AcDbLine
 10
54.90495799999999
 20
227.1155569999999
 30
0.0
 11
55.90495799999999
 21
227.1155569999999
 31
0.0
  0
LINE
  5
A823
330
A712
100
AcDbEntity
  8
1
  6
Continuous
100
AcDbLine
 10
55.90495799999999
 20
227.1155569999999
 30
0.0
 11
62.60495800000001
 21
227.1155569999999
 31
0.0
  0
ARC
  5
A824
330
A712
100
AcDbEntity
  8
1
  6
Continuous
100
AcDbCircle
 10
62.60495800000001
 20
230.9155569999998
 30
0.0
 40
3.799999999999998
100
AcDbArc
 50
270.0
 51
0.0
  0
LINE
  5
A825
330
A712
100
AcDbEntity
  8
1
  6
Continuous
100
AcDbLine
 10
65.90495799999999
 20
238.115557
 30
0.0
 11
62.370553
 21
238.115557
 31
0.0
  0
LINE
  5
A826
330
A712
100
AcDbEntity
  8
1
  6
Continuous
100
AcDbLine
 10
65.40495799999999
 20
239.115557
 30
0.0
 11
62.370553
 21
239.115557
 31
0.0
  0
ARC
  5
A827
330
A712
100
AcDbEntity
  8
1
  6
Continuous
100
AcDbCircle
 10
65.90495799999999
 20
237.6155569999998
 30
0.0
 40
0.5
100
AcDbArc
 50
0.0
 51
90.0
  0
ARC
  5
A828
330
A712
100
AcDbEntity
  8
1
  6
Continuous
100
AcDbCircle
 10
65.40495799999999
 20
240.1155569999999
 30
0.0
 40
1.0
100
AcDbArc
 50
270.0
 51
0.0
  0
ARC
  5
A829
330
A712
100
AcDbEntity
  8
1
  6
Continuous
100
AcDbCircle
 10
47.16889
 20
239.6155569999999
 30
0.0
 40
2.236067999999999
100
AcDbArc
 50
270.0
 51
90.0
  0
ARC
  5
A82A
330
A712
100
AcDbEntity
  8
1
  6
Continuous
100
AcDbCircle
 10
28.904958
 20
239.6155569999999
 30
0.0
 40
3.0
100
AcDbArc
 50
311.810315
 51
48.189685
  0
LINE
  5
A82B
330
A712
100
AcDbEntity
  8
1
  6
Continuous
100
AcDbLine
 10
30.404958
 20
272.359912
 30
0.0
 11
30.904958
 21
272.359912
 31
0.0
  0
LINE
  5
A82C
330
A712
100
AcDbEntity
  8
1
  6
Continuous
100
AcDbLine
 10
30.404958
 20
267.559912
 30
0.0
 11
29.904958
 21
268.059912
 31
0.0
  0
LINE
  5
A82D
330
A712
100
AcDbEntity
  8
1
  6
Continuous
100
AcDbLine
 10
30.404958
 20
267.559912
 30
0.0
 11
30.904958
 21
267.559912
 31
0.0
  0
LINE
  5
A82E
330
A712
100
AcDbEntity
  8
1
  6
Continuous
100
AcDbLine
 10
29.904958
 20
271.8599119999999
 30
0.0
 11
29.904958
 21
268.059912
 31
0.0
  0
LINE
  5
A82F
330
A712
100
AcDbEntity
  8
1
  6
Continuous
100
AcDbLine
 10
30.404958
 20
272.359912
 30
0.0
 11
29.904958
 21
271.8599119999999
 31
0.0
  0
LINE
  5
A830
330
A712
100
AcDbEntity
  8
1
  6
Continuous
100
AcDbLine
 10
30.404958
 20
272.359912
 30
0.0
 11
30.404958
 21
267.559912
 31
0.0
  0
LINE
  5
A831
330
A712
100
AcDbEntity
  8
1
  6
Continuous
100
AcDbLine
 10
54.40495799999999
 20
357.1155569999998
 30
0.0
 11
30.904958
 21
357.1155569999998
 31
0.0
  0
LINE
  5
A832
330
A712
100
AcDbEntity
  8
1
  6
Continuous
100
AcDbLine
 10
30.904958
 20
342.3794889999999
 30
0.0
 11
47.16889
 21
342.3794889999999
 31
0.0
  0
LINE
  5
A833
330
A712
100
AcDbEntity
  8
1
  6
Continuous
100
AcDbLine
 10
30.904958
 20
346.851625
 30
0.0
 11
47.16889
 21
346.851625
 31
0.0
  0
LINE
  5
A834
330
A712
100
AcDbEntity
  8
4
  6
CENTER
100
AcDbLine
 10
27.904958
 20
314.2712009999999
 30
0.0
 11
43.301574
 21
314.2712009999999
 31
0.0
  0
LINE
  5
A835
330
A712
100
AcDbEntity
  8
4
  6
CENTER
100
AcDbLine
 10
27.904958
 20
332.1155569999999
 30
0.0
 11
43.301574
 21
332.1155569999999
 31
0.0
  0
LINE
  5
A836
330
A712
100
AcDbEntity
  8
1
  6
Continuous
100
AcDbLine
 10
66.404958
 20
346.6155569999998
 30
0.0
 11
66.404958
 21
353.3155569999999
 31
0.0
  0
LINE
  5
A837
330
A712
100
AcDbEntity
  8
1
  6
Continuous
100
AcDbLine
 10
65.90495799999999
 20
346.1155569999998
 30
0.0
 11
62.370553
 21
346.1155569999998
 31
0.0
  0
LINE
  5
A838
330
A712
100
AcDbEntity
  8
1
  6
Continuous
100
AcDbLine
 10
65.40495799999999
 20
345.1155569999999
 30
0.0
 11
62.370553
 21
345.1155569999999
 31
0.0
  0
ARC
  5
A839
330
A712
100
AcDbEntity
  8
1
  6
Continuous
100
AcDbCircle
 10
65.90495799999999
 20
346.6155569999998
 30
0.0
 40
0.5
100
AcDbArc
 50
270.0
 51
0.0
  0
ARC
  5
A83A
330
A712
100
AcDbEntity
  8
1
  6
Continuous
100
AcDbCircle
 10
65.40495799999999
 20
344.1155569999998
 30
0.0
 40
1.0
100
AcDbArc
 50
0.0
 51
90.0
  0
ARC
  5
A83B
330
A712
100
AcDbEntity
  8
1
  6
Continuous
100
AcDbCircle
 10
47.16889
 20
344.6155569999998
 30
0.0
 40
2.236067999999999
100
AcDbArc
 50
270.0
 51
90.0
  0
LINE
  5
A83C
330
A712
100
AcDbEntity
  8
1
  6
Continuous
100
AcDbLine
 10
54.90495799999999
 20
349.1155569999999
 30
0.0
 11
54.40495799999999
 21
349.1155569999999
 31
0.0
  0
ARC
  5
A83D
330
A712
100
AcDbEntity
  8
1
  6
Continuous
100
AcDbCircle
 10
62.60495800000001
 20
353.3155569999999
 30
0.0
 40
3.799999999999998
100
AcDbArc
 50
0.0
 51
90.0
  0
LINE
  5
A83E
330
A712
100
AcDbEntity
  8
1
  6
Continuous
100
AcDbLine
 10
54.90495799999999
 20
357.1155569999998
 30
0.0
 11
55.90495799999999
 21
357.1155569999998
 31
0.0
  0
LINE
  5
A83F
330
A712
100
AcDbEntity
  8
1
  6
Continuous
100
AcDbLine
 10
55.90495799999999
 20
357.1155569999998
 30
0.0
 11
62.60495800000001
 21
357.1155569999998
 31
0.0
  0
LINE
  5
A840
330
A712
100
AcDbEntity
  8
1
  6
Continuous
100
AcDbLine
 10
30.404958
 20
316.6712009999999
 30
0.0
 11
29.904958
 21
316.171201
 31
0.0
  0
LINE
  5
A841
330
A712
100
AcDbEntity
  8
1
  6
Continuous
100
AcDbLine
 10
30.404958
 20
316.6712009999999
 30
0.0
 11
30.904958
 21
316.6712009999999
 31
0.0
  0
LINE
  5
A842
330
A712
100
AcDbEntity
  8
1
  6
Continuous
100
AcDbLine
 10
30.404958
 20
311.8712009999999
 30
0.0
 11
29.904958
 21
312.3712009999999
 31
0.0
  0
LINE
  5
A843
330
A712
100
AcDbEntity
  8
1
  6
Continuous
100
AcDbLine
 10
30.404958
 20
311.8712009999999
 30
0.0
 11
30.904958
 21
311.8712009999999
 31
0.0
  0
LINE
  5
A844
330
A712
100
AcDbEntity
  8
1
  6
Continuous
100
AcDbLine
 10
29.904958
 20
316.171201
 30
0.0
 11
29.904958
 21
312.3712009999999
 31
0.0
  0
LINE
  5
A845
330
A712
100
AcDbEntity
  8
1
  6
Continuous
100
AcDbLine
 10
30.404958
 20
316.6712009999999
 30
0.0
 11
30.404958
 21
311.8712009999999
 31
0.0
  0
ARC
  5
A846
330
A712
100
AcDbEntity
  8
1
  6
Continuous
100
AcDbCircle
 10
28.904958
 20
344.6155569999998
 30
0.0
 40
3.0
100
AcDbArc
 50
311.810315
 51
48.189685
  0
LINE
  5
A847
330
A712
100
AcDbEntity
  8
1
  6
Continuous
100
AcDbLine
 10
63.786715
 20
240.1155569999999
 30
0.0
 11
63.786715
 21
344.1155569999998
 31
0.0
  0
LINE
  5
A848
330
A712
100
AcDbEntity
  8
1
  6
Continuous
100
AcDbLine
 10
263.6688589999998
 20
64.49998199999999
 30
0.0
 11
261.6688589999998
 21
64.49998199999999
 31
0.0
  0
LINE
  5
A849
330
A712
100
AcDbEntity
  8
1
  6
Continuous
100
AcDbLine
 10
173.168859
 20
65.99998199999999
 30
0.0
 11
268.1688589999998
 21
65.99998199999999
 31
0.0
  0
ARC
  5
A84A
330
A712
100
AcDbEntity
  8
1
  6
Continuous
100
AcDbCircle
 10
220.668859
 20
-114.520852
 30
0.0
 40
191.020833
100
AcDbArc
 50
76.071303
 51
103.928697
  0
LINE
  5
A84B
330
A712
100
AcDbEntity
  8
1
  6
Continuous
100
AcDbLine
 10
173.168859
 20
64.99998199999999
 30
0.0
 11
268.1688589999998
 21
64.99998199999999
 31
0.0
  0
ARC
  5
A84C
330
A712
100
AcDbEntity
  8
1
  6
Continuous
100
AcDbCircle
 10
261.6688589999998
 20
42.999982
 30
0.0
 40
2.0
100
AcDbArc
 50
270.0
 51
0.0
  0
LINE
  5
A84D
330
A712
100
AcDbEntity
  8
1
  6
Continuous
100
AcDbLine
 10
260.168859
 20
64.99998199999999
 30
0.0
 11
260.168859
 21
43.999982
 31
0.0
  0
LINE
  5
A84E
330
A712
100
AcDbEntity
  8
1
  6
Continuous
100
AcDbLine
 10
261.6688589999998
 20
42.999982
 30
0.0
 11
261.6688589999998
 21
64.49998199999999
 31
0.0
  0
LINE
  5
A84F
330
A712
100
AcDbEntity
  8
1
  6
Continuous
100
AcDbLine
 10
259.9009099999999
 20
64.99998199999999
 30
0.0
 11
258.526499
 21
59.87061
 31
0.0
  0
LINE
  5
A850
330
A712
100
AcDbEntity
  8
1
  6
Continuous
100
AcDbLine
 10
180.1688589999999
 20
43.999982
 30
0.0
 11
180.1688589999999
 21
64.99998199999999
 31
0.0
  0
LINE
  5
A851
330
A712
100
AcDbEntity
  8
4
  6
CENTER
100
AcDbLine
 10
195.168859
 20
66.349982
 30
0.0
 11
195.168859
 21
58.24998199999999
 31
0.0
  0
LINE
  5
A852
330
A712
100
AcDbEntity
  8
1
  6
Continuous
100
AcDbLine
 10
176.668859
 20
42.999982
 30
0.0
 11
176.668859
 21
64.49998199999999
 31
0.0
  0
LINE
  5
A853
330
A712
100
AcDbEntity
  8
1
  6
Continuous
100
AcDbLine
 10
178.6688589999999
 20
42.999982
 30
0.0
 11
178.6688589999999
 21
64.49998199999999
 31
0.0
  0
CIRCLE
  5
A854
330
A712
100
AcDbEntity
  8
1
  6
Continuous
100
AcDbCircle
 10
195.168859
 20
62.29998199999999
 30
0.0
 40
2.549999999999998
  0
LINE
  5
A855
330
A712
100
AcDbEntity
  8
1
  6
Continuous
100
AcDbLine
 10
180.1688589999999
 20
53.19998199999999
 30
0.0
 11
197.4029469999999
 21
53.19998199999999
 31
0.0
  0
LINE
  5
A856
330
A712
100
AcDbEntity
  8
1
  6
Continuous
100
AcDbLine
 10
180.1688589999999
 20
42.999982
 30
0.0
 11
216.168859
 21
42.999982
 31
0.0
  0
LINE
  5
A857
330
A712
100
AcDbEntity
  8
1
  6
Continuous
100
AcDbLine
 10
261.6688589999998
 20
42.999982
 30
0.0
 11
178.6688589999999
 21
42.999982
 31
0.0
  0
LINE
  5
A858
330
A712
100
AcDbEntity
  8
1
  6
Continuous
100
AcDbLine
 10
260.668859
 20
43.999982
 30
0.0
 11
179.668859
 21
43.999982
 31
0.0
  0
LINE
  5
A859
330
A712
100
AcDbEntity
  8
1
  6
Continuous
100
AcDbLine
 10
231.168854
 20
42.999982
 30
0.0
 11
181.6188539999999
 21
42.999982
 31
0.0
  0
LINE
  5
A85A
330
A712
100
AcDbEntity
  8
1
  6
Continuous
100
AcDbLine
 10
261.6688589999998
 20
40.999982
 30
0.0
 11
178.6688589999999
 21
40.999982
 31
0.0
  0
LINE
  5
A85B
330
A712
100
AcDbEntity
  8
1
  6
Continuous
100
AcDbLine
 10
184.168859
 20
43.999982
 30
0.0
 11
184.168859
 21
53.19998199999999
 31
0.0
  0
LINE
  5
A85C
330
A712
100
AcDbEntity
  8
1
  6
Continuous
100
AcDbLine
 10
179.668859
 20
43.999982
 30
0.0
 11
179.668859
 21
57.499982
 31
0.0
  0
ARC
  5
A85D
330
A712
100
AcDbEntity
  8
1
  6
Continuous
100
AcDbCircle
 10
178.6688589999999
 20
42.999982
 30
0.0
 40
2.0
100
AcDbArc
 50
180.0
 51
270.0
  0
ARC
  5
A85E
330
A712
100
AcDbEntity
  8
1
  6
Continuous
100
AcDbCircle
 10
178.6688589999999
 20
57.499982
 30
0.0
 40
1.0
100
AcDbArc
 50
0.0
 51
90.0
  0
LINE
  5
A85F
330
A712
100
AcDbEntity
  8
1
  6
Continuous
100
AcDbLine
 10
224.1688589999998
 20
45.499982
 30
0.0
 11
234.1688589999999
 21
45.499982
 31
0.0
  0
LINE
  5
A860
330
A712
100
AcDbEntity
  8
1
  6
Continuous
100
AcDbLine
 10
215.602947
 20
53.19998199999999
 30
0.0
 11
249.833166
 21
53.19998199999999
 31
0.0
  0
LINE
  5
A861
330
A712
100
AcDbEntity
  8
1
  6
Continuous
100
AcDbLine
 10
199.4029469999999
 20
49.799982
 30
0.0
 11
213.602947
 21
49.799982
 31
0.0
  0
LINE
  5
A862
330
A712
100
AcDbEntity
  8
1
  6
Continuous
100
AcDbLine
 10
197.4029469999999
 20
43.999982
 30
0.0
 11
197.4029469999999
 21
58.19998199999999
 31
0.0
  0
LINE
  5
A863
330
A712
100
AcDbEntity
  8
1
  6
Continuous
100
AcDbLine
 10
199.4029469999999
 20
43.999982
 30
0.0
 11
199.4029469999999
 21
49.799982
 31
0.0
  0
LINE
  5
A864
330
A712
100
AcDbEntity
  8
1
  6
Continuous
100
AcDbLine
 10
194.168859
 20
43.999982
 30
0.0
 11
194.168859
 21
53.19998199999999
 31
0.0
  0
LINE
  5
A865
330
A712
100
AcDbEntity
  8
1
  6
Continuous
100
AcDbLine
 10
197.4029469999999
 20
45.999982
 30
0.0
 11
199.4029469999999
 21
45.999982
 31
0.0
  0
LINE
  5
A866
330
A712
100
AcDbEntity
  8
4
  6
CENTER
100
AcDbLine
 10
199.2188589999999
 20
62.29998199999999
 30
0.0
 11
191.1188589999999
 21
62.29998199999999
 31
0.0
  0
LINE
  5
A867
330
A712
100
AcDbEntity
  8
1
  6
Continuous
100
AcDbLine
 10
224.1688589999998
 20
45.499982
 30
0.0
 11
224.1688589999998
 21
53.19998199999999
 31
0.0
  0
LINE
  5
A868
330
A712
100
AcDbEntity
  8
1
  6
Continuous
100
AcDbLine
 10
215.602947
 20
43.999982
 30
0.0
 11
215.602947
 21
58.19998199999999
 31
0.0
  0
LINE
  5
A869
330
A712
100
AcDbEntity
  8
1
  6
Continuous
100
AcDbLine
 10
213.602947
 20
43.999982
 30
0.0
 11
213.602947
 21
49.799982
 31
0.0
  0
LINE
  5
A86A
330
A712
100
AcDbEntity
  8
1
  6
Continuous
100
AcDbLine
 10
216.168859
 20
43.999982
 30
0.0
 11
216.168859
 21
50.699982
 31
0.0
  0
LINE
  5
A86B
330
A712
100
AcDbEntity
  8
1
  6
Continuous
100
AcDbLine
 10
216.1688729999999
 20
47.299965
 30
0.0
 11
216.1688729999999
 21
50.299971
 31
0.0
  0
LINE
  5
A86C
330
A712
100
AcDbEntity
  8
1
  6
Continuous
100
AcDbLine
 10
213.602947
 20
45.999982
 30
0.0
 11
215.602947
 21
45.999982
 31
0.0
  0
LINE
  5
A86D
330
A712
100
AcDbEntity
  8
1
  6
Continuous
100
AcDbLine
 10
216.168859
 20
45.499982
 30
0.0
 11
224.1688589999998
 21
45.499982
 31
0.0
  0
LINE
  5
A86E
330
A712
100
AcDbEntity
  8
1
  6
Continuous
100
AcDbLine
 10
216.168859
 20
50.499982
 30
0.0
 11
224.1688589999998
 21
50.499982
 31
0.0
  0
LINE
  5
A86F
330
A712
100
AcDbEntity
  8
1
  6
Continuous
100
AcDbLine
 10
216.168859
 20
50.699982
 30
0.0
 11
224.1688589999998
 21
50.699982
 31
0.0
  0
LINE
  5
A870
330
A712
100
AcDbEntity
  8
1
  6
Continuous
100
AcDbLine
 10
242.168859
 20
42.999982
 30
0.0
 11
260.168859
 21
42.999982
 31
0.0
  0
LINE
  5
A871
330
A712
100
AcDbEntity
  8
1
  6
Continuous
100
AcDbLine
 10
234.1688589999999
 20
45.499982
 30
0.0
 11
234.1688589999999
 21
53.19998199999999
 31
0.0
  0
LINE
  5
A872
330
A712
100
AcDbEntity
  8
1
  6
Continuous
100
AcDbLine
 10
242.168859
 20
43.999982
 30
0.0
 11
242.168859
 21
50.699982
 31
0.0
  0
LINE
  5
A873
330
A712
100
AcDbEntity
  8
1
  6
Continuous
100
AcDbLine
 10
227.268859
 20
39.999982
 30
0.0
 11
231.0688589999998
 21
39.999982
 31
0.0
  0
LINE
  5
A874
330
A712
100
AcDbEntity
  8
1
  6
Continuous
100
AcDbLine
 10
226.768859
 20
40.499982
 30
0.0
 11
231.5688589999998
 21
40.499982
 31
0.0
  0
LINE
  5
A875
330
A712
100
AcDbEntity
  8
1
  6
Continuous
100
AcDbLine
 10
226.768859
 20
40.499982
 30
0.0
 11
226.768859
 21
40.999982
 31
0.0
  0
LINE
  5
A876
330
A712
100
AcDbEntity
  8
1
  6
Continuous
100
AcDbLine
 10
226.768859
 20
40.499982
 30
0.0
 11
227.268859
 21
39.999982
 31
0.0
  0
LINE
  5
A877
330
A712
100
AcDbEntity
  8
1
  6
Continuous
100
AcDbLine
 10
231.5688589999998
 20
40.499982
 30
0.0
 11
231.5688589999998
 21
40.999982
 31
0.0
  0
LINE
  5
A878
330
A712
100
AcDbEntity
  8
1
  6
Continuous
100
AcDbLine
 10
231.5688589999998
 20
40.499982
 30
0.0
 11
231.0688589999998
 21
39.999982
 31
0.0
  0
LINE
  5
A879
330
A712
100
AcDbEntity
  8
1
  6
Continuous
100
AcDbLine
 10
226.1688589999998
 20
43.999982
 30
0.0
 11
226.1688589999998
 21
45.499982
 31
0.0
  0
LINE
  5
A87A
330
A712
100
AcDbEntity
  8
1
  6
Continuous
100
AcDbLine
 10
232.1688589999999
 20
43.999982
 30
0.0
 11
232.1688589999999
 21
45.499982
 31
0.0
  0
LINE
  5
A87B
330
A712
100
AcDbEntity
  8
1
  6
Continuous
100
AcDbLine
 10
234.1688589999999
 20
50.699982
 30
0.0
 11
242.168859
 21
50.699982
 31
0.0
  0
LINE
  5
A87C
330
A712
100
AcDbEntity
  8
1
  6
Continuous
100
AcDbLine
 10
260.668859
 20
43.999982
 30
0.0
 11
260.668859
 21
57.499982
 31
0.0
  0
LINE
  5
A87D
330
A712
100
AcDbEntity
  8
1
  6
Continuous
100
AcDbLine
 10
244.168859
 20
43.999982
 30
0.0
 11
244.168859
 21
53.19998199999999
 31
0.0
  0
LINE
  5
A87E
330
A712
100
AcDbEntity
  8
1
  6
Continuous
100
AcDbLine
 10
254.168859
 20
43.999982
 30
0.0
 11
254.168859
 21
54.31317199999998
 31
0.0
  0
ARC
  5
A87F
330
A712
100
AcDbEntity
  8
1
  6
Continuous
100
AcDbCircle
 10
249.833166
 20
62.19998199999999
 30
0.0
 40
9.0
100
AcDbArc
 50
270.0
 51
345.0
  0
ARC
  5
A880
330
A712
100
AcDbEntity
  8
1
  6
Continuous
100
AcDbCircle
 10
261.6688589999998
 20
57.499982
 30
0.0
 40
1.0
100
AcDbArc
 50
90.0
 51
180.0
  0
ARC
  5
A881
330
A712
100
AcDbEntity
  8
1
  6
Continuous
100
AcDbCircle
 10
175.168859
 20
68.94201999999999
 30
0.0
 40
2.0
100
AcDbArc
 50
103.928697
 51
180.0
  0
LINE
  5
A882
330
A712
100
AcDbEntity
  8
1
  6
Continuous
100
AcDbLine
 10
173.168859
 20
65.99998199999999
 30
0.0
 11
173.168859
 21
68.94201999999999
 31
0.0
  0
LINE
  5
A883
330
A712
100
AcDbEntity
  8
1
  6
Continuous
100
AcDbLine
 10
173.168859
 20
65.99998199999999
 30
0.0
 11
173.168859
 21
64.99998199999999
 31
0.0
  0
LINE
  5
A884
330
A712
100
AcDbEntity
  8
1
  6
Continuous
100
AcDbLine
 10
178.6688589999999
 20
64.49998199999999
 30
0.0
 11
176.668859
 21
64.49998199999999
 31
0.0
  0
LINE
  5
A885
330
A712
100
AcDbEntity
  8
1
  6
Continuous
100
AcDbLine
 10
263.6688589999998
 20
42.999982
 30
0.0
 11
263.6688589999998
 21
64.49998199999999
 31
0.0
  0
ARC
  5
A886
330
A712
100
AcDbEntity
  8
1
  6
Continuous
100
AcDbCircle
 10
266.168859
 20
68.94201999999999
 30
0.0
 40
2.0
100
AcDbArc
 50
0.0
 51
76.071303
  0
LINE
  5
A887
330
A712
100
AcDbEntity
  8
1
  6
Continuous
100
AcDbLine
 10
268.1688589999998
 20
65.99998199999999
 30
0.0
 11
268.1688589999998
 21
68.94201999999999
 31
0.0
  0
LINE
  5
A888
330
A712
100
AcDbEntity
  8
1
  6
Continuous
100
AcDbLine
 10
268.1688589999998
 20
65.99998199999999
 30
0.0
 11
268.1688589999998
 21
64.99998199999999
 31
0.0
  0
LINE
  5
A889
330
A712
100
AcDbEntity
  8
4
  6
CENTER
100
AcDbLine
 10
249.1688589999998
 20
37.999982
 30
0.0
 11
249.1688589999998
 21
53.19998199999999
 31
0.0
  0
LINE
  5
A88A
330
A712
100
AcDbEntity
  8
4
  6
CENTER
100
AcDbLine
 10
229.168859
 20
36.999982
 30
0.0
 11
229.168859
 21
53.19998199999999
 31
0.0
  0
LINE
  5
A88B
330
A712
100
AcDbEntity
  8
4
  6
CENTER
100
AcDbLine
 10
189.168859
 20
37.999982
 30
0.0
 11
189.168859
 21
53.19998199999999
 31
0.0
  0
ARC
  5
A88C
330
A712
100
AcDbEntity
  8
1
  6
Continuous
100
AcDbCircle
 10
249.833166
 20
478.2311319999998
 30
0.0
 40
9.0
100
AcDbArc
 50
15.0
 51
90.0
  0
LINE
  5
A88D
330
A712
100
AcDbEntity
  8
1
  6
Continuous
100
AcDbLine
 10
242.168859
 20
497.4311319999998
 30
0.0
 11
260.168859
 21
497.4311319999998
 31
0.0
  0
LINE
  5
A88E
330
A712
100
AcDbEntity
  8
1
  6
Continuous
100
AcDbLine
 10
261.6688589999998
 20
499.431132
 30
0.0
 11
178.6688589999999
 21
499.431132
 31
0.0
  0
LINE
  5
A88F
330
A712
100
AcDbEntity
  8
1
  6
Continuous
100
AcDbLine
 10
260.668859
 20
496.431132
 30
0.0
 11
179.668859
 21
496.431132
 31
0.0
  0
LINE
  5
A890
330
A712
100
AcDbEntity
  8
1
  6
Continuous
100
AcDbLine
 10
261.6688589999998
 20
497.4311319999998
 30
0.0
 11
178.6688589999999
 21
497.4311319999998
 31
0.0
  0
LINE
  5
A891
330
A712
100
AcDbEntity
  8
1
  6
Continuous
100
AcDbLine
 10
173.168859
 20
475.431132
 30
0.0
 11
268.1688589999998
 21
475.431132
 31
0.0
  0
ARC
  5
A892
330
A712
100
AcDbEntity
  8
1
  6
Continuous
100
AcDbCircle
 10
220.668859
 20
654.9519659999997
 30
0.0
 40
191.020833
100
AcDbArc
 50
256.071303
 51
283.9286969999998
  0
LINE
  5
A893
330
A712
100
AcDbEntity
  8
1
  6
Continuous
100
AcDbLine
 10
173.168859
 20
474.431132
 30
0.0
 11
268.1688589999998
 21
474.431132
 31
0.0
  0
LINE
  5
A894
330
A712
100
AcDbEntity
  8
4
  6
CENTER
100
AcDbLine
 10
199.2188589999999
 20
478.1311319999998
 30
0.0
 11
191.1188589999999
 21
478.1311319999998
 31
0.0
  0
LINE
  5
A895
330
A712
100
AcDbEntity
  8
1
  6
Continuous
100
AcDbLine
 10
231.168854
 20
497.4311319999998
 30
0.0
 11
181.6188539999999
 21
497.4311319999998
 31
0.0
  0
LINE
  5
A896
330
A712
100
AcDbEntity
  8
1
  6
Continuous
100
AcDbLine
 10
180.1688589999999
 20
497.4311319999998
 30
0.0
 11
216.168859
 21
497.4311319999998
 31
0.0
  0
LINE
  5
A897
330
A712
100
AcDbEntity
  8
1
  6
Continuous
100
AcDbLine
 10
180.1688589999999
 20
487.231132
 30
0.0
 11
197.4029469999999
 21
487.231132
 31
0.0
  0
CIRCLE
  5
A898
330
A712
100
AcDbEntity
  8
1
  6
Continuous
100
AcDbCircle
 10
195.168859
 20
478.1311319999998
 30
0.0
 40
2.549999999999998
  0
LINE
  5
A899
330
A712
100
AcDbEntity
  8
4
  6
CENTER
100
AcDbLine
 10
189.168859
 20
502.4311319999998
 30
0.0
 11
189.168859
 21
487.231132
 31
0.0
  0
LINE
  5
A89A
330
A712
100
AcDbEntity
  8
1
  6
Continuous
100
AcDbLine
 10
194.168859
 20
496.431132
 30
0.0
 11
194.168859
 21
487.231132
 31
0.0
  0
LINE
  5
A89B
330
A712
100
AcDbEntity
  8
1
  6
Continuous
100
AcDbLine
 10
179.668859
 20
496.431132
 30
0.0
 11
179.668859
 21
482.931132
 31
0.0
  0
LINE
  5
A89C
330
A712
100
AcDbEntity
  8
1
  6
Continuous
100
AcDbLine
 10
184.168859
 20
496.431132
 30
0.0
 11
184.168859
 21
487.231132
 31
0.0
  0
LINE
  5
A89D
330
A712
100
AcDbEntity
  8
1
  6
Continuous
100
AcDbLine
 10
178.6688589999999
 20
497.4311319999998
 30
0.0
 11
178.6688589999999
 21
475.9311320000001
 31
0.0
  0
LINE
  5
A89E
330
A712
100
AcDbEntity
  8
1
  6
Continuous
100
AcDbLine
 10
176.668859
 20
497.4311319999998
 30
0.0
 11
176.668859
 21
475.9311320000001
 31
0.0
  0
LINE
  5
A89F
330
A712
100
AcDbEntity
  8
1
  6
Continuous
100
AcDbLine
 10
180.1688589999999
 20
496.431132
 30
0.0
 11
180.1688589999999
 21
475.431132
 31
0.0
  0
LINE
  5
A8A0
330
A712
100
AcDbEntity
  8
1
  6
Continuous
100
AcDbLine
 10
178.6688589999999
 20
475.9311320000001
 30
0.0
 11
176.668859
 21
475.9311320000001
 31
0.0
  0
LINE
  5
A8A1
330
A712
100
AcDbEntity
  8
1
  6
Continuous
100
AcDbLine
 10
173.168859
 20
474.431132
 30
0.0
 11
173.168859
 21
475.431132
 31
0.0
  0
LINE
  5
A8A2
330
A712
100
AcDbEntity
  8
1
  6
Continuous
100
AcDbLine
 10
173.168859
 20
474.431132
 30
0.0
 11
173.168859
 21
471.489094
 31
0.0
  0
ARC
  5
A8A3
330
A712
100
AcDbEntity
  8
1
  6
Continuous
100
AcDbCircle
 10
175.168859
 20
471.489094
 30
0.0
 40
2.0
100
AcDbArc
 50
180.0
 51
256.071303
  0
ARC
  5
A8A4
330
A712
100
AcDbEntity
  8
1
  6
Continuous
100
AcDbCircle
 10
178.6688589999999
 20
482.931132
 30
0.0
 40
1.0
100
AcDbArc
 50
270.0
 51
0.0
  0
LINE
  5
A8A5
330
A712
100
AcDbEntity
  8
4
  6
CENTER
100
AcDbLine
 10
195.168859
 20
474.081132
 30
0.0
 11
195.168859
 21
482.1811320000001
 31
0.0
  0
ARC
  5
A8A6
330
A712
100
AcDbEntity
  8
1
  6
Continuous
100
AcDbCircle
 10
178.6688589999999
 20
497.4311319999998
 30
0.0
 40
2.0
100
AcDbArc
 50
90.0
 51
180.0
  0
LINE
  5
A8A7
330
A712
100
AcDbEntity
  8
4
  6
CENTER
100
AcDbLine
 10
229.168859
 20
503.4311319999998
 30
0.0
 11
229.168859
 21
487.231132
 31
0.0
  0
LINE
  5
A8A8
330
A712
100
AcDbEntity
  8
4
  6
CENTER
100
AcDbLine
 10
249.1688589999998
 20
502.4311319999998
 30
0.0
 11
249.1688589999998
 21
487.231132
 31
0.0
  0
LINE
  5
A8A9
330
A712
100
AcDbEntity
  8
1
  6
Continuous
100
AcDbLine
 10
244.168859
 20
496.431132
 30
0.0
 11
244.168859
 21
487.231132
 31
0.0
  0
LINE
  5
A8AA
330
A712
100
AcDbEntity
  8
1
  6
Continuous
100
AcDbLine
 10
234.1688589999999
 20
494.9311319999998
 30
0.0
 11
234.1688589999999
 21
487.231132
 31
0.0
  0
LINE
  5
A8AB
330
A712
100
AcDbEntity
  8
1
  6
Continuous
100
AcDbLine
 10
215.602947
 20
496.431132
 30
0.0
 11
215.602947
 21
482.2311319999998
 31
0.0
  0
LINE
  5
A8AC
330
A712
100
AcDbEntity
  8
1
  6
Continuous
100
AcDbLine
 10
224.1688589999998
 20
494.9311319999998
 30
0.0
 11
224.1688589999998
 21
487.231132
 31
0.0
  0
LINE
  5
A8AD
330
A712
100
AcDbEntity
  8
1
  6
Continuous
100
AcDbLine
 10
197.4029469999999
 20
496.431132
 30
0.0
 11
197.4029469999999
 21
482.2311319999998
 31
0.0
  0
LINE
  5
A8AE
330
A712
100
AcDbEntity
  8
1
  6
Continuous
100
AcDbLine
 10
215.602947
 20
487.231132
 30
0.0
 11
249.833166
 21
487.231132
 31
0.0
  0
LINE
  5
A8AF
330
A712
100
AcDbEntity
  8
1
  6
Continuous
100
AcDbLine
 10
216.168859
 20
489.731132
 30
0.0
 11
224.1688589999998
 21
489.731132
 31
0.0
  0
LINE
  5
A8B0
330
A712
100
AcDbEntity
  8
1
  6
Continuous
100
AcDbLine
 10
216.168859
 20
489.9311319999998
 30
0.0
 11
224.1688589999998
 21
489.9311319999998
 31
0.0
  0
LINE
  5
A8B1
330
A712
100
AcDbEntity
  8
1
  6
Continuous
100
AcDbLine
 10
216.168859
 20
494.9311319999998
 30
0.0
 11
224.1688589999998
 21
494.9311319999998
 31
0.0
  0
LINE
  5
A8B2
330
A712
100
AcDbEntity
  8
1
  6
Continuous
100
AcDbLine
 10
213.602947
 20
494.4311319999997
 30
0.0
 11
215.602947
 21
494.4311319999997
 31
0.0
  0
LINE
  5
A8B3
330
A712
100
AcDbEntity
  8
1
  6
Continuous
100
AcDbLine
 10
216.1688729999999
 20
493.1311489999997
 30
0.0
 11
216.1688729999999
 21
490.1311429999998
 31
0.0
  0
LINE
  5
A8B4
330
A712
100
AcDbEntity
  8
1
  6
Continuous
100
AcDbLine
 10
216.168859
 20
496.431132
 30
0.0
 11
216.168859
 21
489.731132
 31
0.0
  0
LINE
  5
A8B5
330
A712
100
AcDbEntity
  8
1
  6
Continuous
100
AcDbLine
 10
213.602947
 20
496.431132
 30
0.0
 11
213.602947
 21
490.6311319999998
 31
0.0
  0
LINE
  5
A8B6
330
A712
100
AcDbEntity
  8
1
  6
Continuous
100
AcDbLine
 10
197.4029469999999
 20
494.4311319999997
 30
0.0
 11
199.4029469999999
 21
494.4311319999997
 31
0.0
  0
LINE
  5
A8B7
330
A712
100
AcDbEntity
  8
1
  6
Continuous
100
AcDbLine
 10
199.4029469999999
 20
496.431132
 30
0.0
 11
199.4029469999999
 21
490.6311319999998
 31
0.0
  0
LINE
  5
A8B8
330
A712
100
AcDbEntity
  8
1
  6
Continuous
100
AcDbLine
 10
199.4029469999999
 20
490.6311319999998
 30
0.0
 11
213.602947
 21
490.6311319999998
 31
0.0
  0
LINE
  5
A8B9
330
A712
100
AcDbEntity
  8
1
  6
Continuous
100
AcDbLine
 10
234.1688589999999
 20
489.731132
 30
0.0
 11
242.168859
 21
489.731132
 31
0.0
  0
LINE
  5
A8BA
330
A712
100
AcDbEntity
  8
1
  6
Continuous
100
AcDbLine
 10
232.1688589999999
 20
496.431132
 30
0.0
 11
232.1688589999999
 21
494.9311319999998
 31
0.0
  0
LINE
  5
A8BB
330
A712
100
AcDbEntity
  8
1
  6
Continuous
100
AcDbLine
 10
226.1688589999998
 20
496.431132
 30
0.0
 11
226.1688589999998
 21
494.9311319999998
 31
0.0
  0
LINE
  5
A8BC
330
A712
100
AcDbEntity
  8
1
  6
Continuous
100
AcDbLine
 10
231.5688589999998
 20
499.931132
 30
0.0
 11
231.0688589999998
 21
500.431132
 31
0.0
  0
LINE
  5
A8BD
330
A712
100
AcDbEntity
  8
1
  6
Continuous
100
AcDbLine
 10
231.5688589999998
 20
499.931132
 30
0.0
 11
231.5688589999998
 21
499.431132
 31
0.0
  0
LINE
  5
A8BE
330
A712
100
AcDbEntity
  8
1
  6
Continuous
100
AcDbLine
 10
226.768859
 20
499.931132
 30
0.0
 11
227.268859
 21
500.431132
 31
0.0
  0
LINE
  5
A8BF
330
A712
100
AcDbEntity
  8
1
  6
Continuous
100
AcDbLine
 10
226.768859
 20
499.931132
 30
0.0
 11
226.768859
 21
499.431132
 31
0.0
  0
LINE
  5
A8C0
330
A712
100
AcDbEntity
  8
1
  6
Continuous
100
AcDbLine
 10
226.768859
 20
499.931132
 30
0.0
 11
231.5688589999998
 21
499.931132
 31
0.0
  0
LINE
  5
A8C1
330
A712
100
AcDbEntity
  8
1
  6
Continuous
100
AcDbLine
 10
227.268859
 20
500.431132
 30
0.0
 11
231.0688589999998
 21
500.431132
 31
0.0
  0
LINE
  5
A8C2
330
A712
100
AcDbEntity
  8
1
  6
Continuous
100
AcDbLine
 10
242.168859
 20
496.431132
 30
0.0
 11
242.168859
 21
489.731132
 31
0.0
  0
LINE
  5
A8C3
330
A712
100
AcDbEntity
  8
1
  6
Continuous
100
AcDbLine
 10
224.1688589999998
 20
494.9311319999998
 30
0.0
 11
234.1688589999999
 21
494.9311319999998
 31
0.0
  0
LINE
  5
A8C4
330
A712
100
AcDbEntity
  8
1
  6
Continuous
100
AcDbLine
 10
263.6688589999998
 20
497.4311319999998
 30
0.0
 11
263.6688589999998
 21
475.9311320000001
 31
0.0
  0
LINE
  5
A8C5
330
A712
100
AcDbEntity
  8
1
  6
Continuous
100
AcDbLine
 10
254.168859
 20
496.431132
 30
0.0
 11
254.168859
 21
486.117942
 31
0.0
  0
LINE
  5
A8C6
330
A712
100
AcDbEntity
  8
1
  6
Continuous
100
AcDbLine
 10
260.668859
 20
496.431132
 30
0.0
 11
260.668859
 21
482.931132
 31
0.0
  0
LINE
  5
A8C7
330
A712
100
AcDbEntity
  8
1
  6
Continuous
100
AcDbLine
 10
261.6688589999998
 20
497.4311319999998
 30
0.0
 11
261.6688589999998
 21
475.9311320000001
 31
0.0
  0
LINE
  5
A8C8
330
A712
100
AcDbEntity
  8
1
  6
Continuous
100
AcDbLine
 10
260.168859
 20
475.431132
 30
0.0
 11
260.168859
 21
496.431132
 31
0.0
  0
LINE
  5
A8C9
330
A712
100
AcDbEntity
  8
1
  6
Continuous
100
AcDbLine
 10
268.1688589999998
 20
474.431132
 30
0.0
 11
268.1688589999998
 21
475.431132
 31
0.0
  0
LINE
  5
A8CA
330
A712
100
AcDbEntity
  8
1
  6
Continuous
100
AcDbLine
 10
268.1688589999998
 20
474.431132
 30
0.0
 11
268.1688589999998
 21
471.489094
 31
0.0
  0
ARC
  5
A8CB
330
A712
100
AcDbEntity
  8
1
  6
Continuous
100
AcDbCircle
 10
266.168859
 20
471.489094
 30
0.0
 40
2.0
100
AcDbArc
 50
283.9286969999998
 51
0.0
  0
ARC
  5
A8CC
330
A712
100
AcDbEntity
  8
1
  6
Continuous
100
AcDbCircle
 10
261.6688589999998
 20
482.931132
 30
0.0
 40
1.0
100
AcDbArc
 50
180.0
 51
270.0
  0
LINE
  5
A8CD
330
A712
100
AcDbEntity
  8
1
  6
Continuous
100
AcDbLine
 10
259.9009099999999
 20
475.431132
 30
0.0
 11
258.526499
 21
480.5605039999998
 31
0.0
  0
LINE
  5
A8CE
330
A712
100
AcDbEntity
  8
1
  6
Continuous
100
AcDbLine
 10
263.6688589999998
 20
475.9311320000001
 30
0.0
 11
261.6688589999998
 21
475.9311320000001
 31
0.0
  0
ARC
  5
A8CF
330
A712
100
AcDbEntity
  8
1
  6
Continuous
100
AcDbCircle
 10
261.6688589999998
 20
497.4311319999998
 30
0.0
 40
2.0
100
AcDbArc
 50
0.0
 51
90.0
  0
LINE
  5
A8D0
330
A712
100
AcDbEntity
  8
4
  6
CENTER
100
AcDbLine
 10
590.2450159999999
 20
224.115557
 30
0.0
 11
590.2450159999999
 21
360.1155569999999
 31
0.0
  0
ENDSEC
  0
SECTION
  2
OBJECTS
  0
DICTIONARY
  5
A700
330
0
100
AcDbDictionary
281
     1
  3
ACAD_CIP_PREVIOUS_PRODUCT_INFO
350
A936
  3
ACAD_COLOR
350
A918
  3
ACAD_DETAILVIEWSTYLE
350
A931
  3
ACAD_GROUP
350
A701
  3
ACAD_LAYOUT
350
A70D
  3
ACAD_MATERIAL
350
A8E6
  3
ACAD_MLEADERSTYLE
350
A92D
  3
ACAD_MLINESTYLE
350
A70A
  3
ACAD_PLOTSETTINGS
350
A70C
  3
ACAD_PLOTSTYLENAME
350
A8E4
  3
ACAD_SCALELIST
350
A91B
  3
ACAD_SECTIONVIEWSTYLE
350
A92F
  3
ACAD_TABLESTYLE
350
A919
  3
ACAD_VISUALSTYLE
350
A8FF
  3
ACDB_RECOMPOSE_DATA
350
A954
  3
AcDbVariableDictionary
350
A947
  3
DWGPROPS
350
A955
  0
DICTIONARY
  5
A937
330
A704
100
AcDbDictionary
280
     1
281
     1
  3
ADSK_XREC_LAYER_RECONCILED
360
A938
  0
DICTIONARY
  5
A939
330
A71A
100
AcDbDictionary
280
     1
281
     1
  3
ADSK_XREC_LAYER_RECONCILED
360
A93A
  0
DICTIONARY
  5
A93B
330
A71B
100
AcDbDictionary
280
     1
281
     1
  3
ADSK_XREC_LAYER_RECONCILED
360
A93C
  0
DICTIONARY
  5
A93D
330
A71C
100
AcDbDictionary
280
     1
281
     1
  3
ADSK_XREC_LAYER_RECONCILED
360
A93E
  0
DICTIONARY
  5
A93F
330
A71D
100
AcDbDictionary
280
     1
281
     1
  3
ADSK_XREC_LAYER_RECONCILED
360
A940
  0
DICTIONARY
  5
A941
330
A71E
100
AcDbDictionary
280
     1
281
     1
  3
ADSK_XREC_LAYER_RECONCILED
360
A942
  0
DICTIONARY
  5
A943
330
A71F
100
AcDbDictionary
280
     1
281
     1
  3
ADSK_XREC_LAYER_RECONCILED
360
A944
  0
DICTIONARY
  5
A945
330
A720
100
AcDbDictionary
280
     1
281
     1
  3
ADSK_XREC_LAYER_RECONCILED
360
A946
  0
DICTIONARY
  5
A8DF
330
A712
100
AcDbDictionary
281
     1
  3
ACAD_LAYOUTSELFREF
350
A8E0
  0
DICTIONARY
  5
A8DD
330
A70E
100
AcDbDictionary
281
     1
  3
ACAD_LAYOUTSELFREF
350
A8DE
  0
XRECORD
  5
A936
102
{ACAD_REACTORS
330
A700
102
}
330
A700
100
AcDbXrecord
280
     1
300
ACDLT
300
2014
300
ACDLT_F_S
  0
DICTIONARY
  5
A918
102
{ACAD_REACTORS
330
A700
102
}
330
A700
100
AcDbDictionary
281
     1
  0
DICTIONARY
  5
A931
102
{ACAD_REACTORS
330
A700
102
}
330
A700
100
AcDbDictionary
281
     1
  3
Imperial24
350
A932
  0
DICTIONARY
  5
A701
102
{ACAD_REACTORS
330
A700
102
}
330
A700
100
AcDbDictionary
281
     1
  0
DICTIONARY
  5
A70D
102
{ACAD_REACTORS
330
A700
102
}
330
A700
100
AcDbDictionary
281
     1
  3
Model
350
A933
  3
レイアウト1
350
A934
  0
DICTIONARY
  5
A8E6
102
{ACAD_REACTORS
330
A700
102
}
330
A700
100
AcDbDictionary
281
     1
  3
ByBlock
350
A8EF
  3
ByLayer
350
A8E7
  3
Global
350
A8F7
  0
DICTIONARY
  5
A92D
102
{ACAD_REACTORS
330
A700
102
}
330
A700
100
AcDbDictionary
281
     1
  3
Standard
350
A92E
  0
DICTIONARY
  5
A70A
102
{ACAD_REACTORS
330
A700
102
}
330
A700
100
AcDbDictionary
281
     1
  3
STANDARD
350
A70B
  0
DICTIONARY
  5
A70C
102
{ACAD_REACTORS
330
A700
102
}
330
A700
100
AcDbDictionary
281
     1
  0
ACDBDICTIONARYWDFLT
  5
A8E4
102
{ACAD_REACTORS
330
A700
102
}
330
A700
100
AcDbDictionary
281
     1
  3
Normal
350
A8E5
100
AcDbDictionaryWithDefault
340
A8E5
  0
DICTIONARY
  5
A91B
102
{ACAD_REACTORS
330
A700
102
}
330
A700
100
AcDbDictionary
281
     1
  3
A0
350
A91C
  3
A1
350
A91D
  3
A2
350
A91E
  3
A3
350
A91F
  3
A4
350
A920
  3
A5
350
A921
  3
A6
350
A922
  3
A7
350
A923
  3
A8
350
A924
  3
A9
350
A925
  3
B0
350
A926
  3
B1
350
A927
  3
B2
350
A928
  3
B3
350
A929
  3
B4
350
A92A
  3
B5
350
A92B
  3
B6
350
A92C
  0
DICTIONARY
  5
A92F
102
{ACAD_REACTORS
330
A700
102
}
330
A700
100
AcDbDictionary
281
     1
  3
Imperial24
350
A930
  0
DICTIONARY
  5
A919
102
{ACAD_REACTORS
330
A700
102
}
330
A700
100
AcDbDictionary
281
     1
  3
Standard
350
A91A
  0
DICTIONARY
  5
A8FF
102
{ACAD_REACTORS
330
A700
102
}
330
A700
100
AcDbDictionary
281
     1
  3
2dWireframe
350
A905
  3
Basic
350
A904
  3
Brighten
350
A90B
  3
ColorChange
350
A90F
  3
Conceptual
350
A908
  3
Dim
350
A90A
  3
EdgeColorOff
350
A917
  3
Facepattern
350
A90E
  3
Flat
350
A900
  3
FlatWithEdges
350
A901
  3
Gouraud
350
A902
  3
GouraudWithEdges
350
A903
  3
Hidden
350
A907
  3
JitterOff
350
A915
  3
Linepattern
350
A90D
  3
OverhangOff
350
A916
  3
Realistic
350
A909
  3
Shaded
350
A914
  3
Shaded with edges
350
A913
  3
Shades of Gray
350
A910
  3
Sketchy
350
A911
  3
Thicken
350
A90C
  3
Wireframe
350
A906
  3
X-Ray
350
A912
  0
XRECORD
  5
A954
102
{ACAD_REACTORS
330
A700
102
}
330
A700
100
AcDbXrecord
280
     1
 90
        1
330
A91A
  0
DICTIONARY
  5
A947
102
{ACAD_REACTORS
330
A700
102
}
330
A700
100
AcDbDictionary
281
     1
  3
CANNOSCALE
350
A94C
  3
CMLEADERSTYLE
350
A949
  3
CTABLESTYLE
350
A948
  3
CVIEWDETAILSTYLE
350
A94A
  3
CVIEWSECTIONSTYLE
350
A94B
  3
DIMASSOC
350
A94F
  3
INDEXCTL
350
A94E
  3
SORTENTS
350
A94D
  3
XCLIPFRAME
350
A950
  0
XRECORD
  5
A955
102
{ACAD_REACTORS
330
A700
102
}
330
A700
100
AcDbXrecord
280
     1
  1
DWGPROPS COOKIE
  2

  3

  4

  6

  7

  8
Yoshitsune
  9

300
=
301
=
302
=
303
=
304
=
305
=
306
=
307
=
308
=
309
=
 40
0.0000141087962963
 41
2451368.51051713
 42
2457192.643123832
  1

 90
        0
  0
XRECORD
  5
A938
102
{ACAD_REACTORS
330
A937
102
}
330
A937
100
AcDbXrecord
280
     1
290
     1
  0
XRECORD
  5
A93A
102
{ACAD_REACTORS
330
A939
102
}
330
A939
100
AcDbXrecord
280
     1
290
     1
  0
XRECORD
  5
A93C
102
{ACAD_REACTORS
330
A93B
102
}
330
A93B
100
AcDbXrecord
280
     1
290
     1
  0
XRECORD
  5
A93E
102
{ACAD_REACTORS
330
A93D
102
}
330
A93D
100
AcDbXrecord
280
     1
290
     1
  0
XRECORD
  5
A940
102
{ACAD_REACTORS
330
A93F
102
}
330
A93F
100
AcDbXrecord
280
     1
290
     1
  0
XRECORD
  5
A942
102
{ACAD_REACTORS
330
A941
102
}
330
A941
100
AcDbXrecord
280
     1
290
     1
  0
XRECORD
  5
A944
102
{ACAD_REACTORS
330
A943
102
}
330
A943
100
AcDbXrecord
280
     1
290
     1
  0
XRECORD
  5
A946
102
{ACAD_REACTORS
330
A945
102
}
330
A945
100
AcDbXrecord
280
     1
290
     1
  0
XRECORD
  5
A8E0
102
{ACAD_REACTORS
330
A8DF
102
}
330
A8DF
100
AcDbXrecord
280
     1
340
A712
  0
XRECORD
  5
A8DE
102
{ACAD_REACTORS
330
A8DD
102
}
330
A8DD
100
AcDbXrecord
280
     1
340
A70E
  0
ACDBDETAILVIEWSTYLE
  5
A932
102
{ACAD_XDICTIONARY
360
A98D
102
}
102
{ACAD_REACTORS
330
A931
102
}
330
A931
100
AcDbModelDocViewStyle
 70
     0
  3
Imperial24
290
     0
100
AcDbDetailViewStyle
 70
     0
 71
     0
 90
        3
 71
     1
340
A705
 40
0.24
340
0
 40
0.24
300

 40
0.36
280
     3
 71
     2
340
A709
 90
       25
 71
     3
340
A705
 40
0.24
 90
        1
 40
0.75
 90
        1
300
%<\AcVar ViewType \f "%tc1">% %<\AcVar ViewDetailId>%\PSCALE %<\AcVar ViewScale \f "%sn">%
 71
     4
340
A709
 90
       25
340
A709
 90
       25
280
     0
  0
LAYOUT
  5
A933
102
{ACAD_XDICTIONARY
360
A98F
102
}
102
{ACAD_REACTORS
330
A70D
102
}
330
A70D
100
AcDbPlotSettings
  1

  2
Canon LBP9100C
  4

  6

 40
0.0
 41
0.0
 42
0.0
 43
0.0
 44
0.0
 45
0.0
 46
0.0
 47
0.0
 48
0.0
 49
0.0
140
0.0
141
0.0
142
1.0
143
1.0
 70
  1712
 72
     0
 73
     0
 74
     0
  7

 75
     0
147
1.0
148
0.0
149
0.0
100
AcDbLayout
  1
Model
 70
     1
 71
     0
 10
0.0
 20
0.0
 11
12.0
 21
9.0
 12
0.0
 22
0.0
 32
0.0
 14
0.0
 24
0.0
 34
0.0
 15
0.0
 25
0.0
 35
0.0
146
0.0
 13
0.0
 23
0.0
 33
0.0
 16
1.0
 26
0.0
 36
0.0
 17
0.0
 27
1.0
 37
0.0
 76
     0
330
A712
331
A8DC
  0
LAYOUT
  5
A934
102
{ACAD_XDICTIONARY
360
A991
102
}
102
{ACAD_REACTORS
330
A70D
102
}
330
A70D
100
AcDbPlotSettings
  1

  2
Canon LBP9100C
  4

  6

 40
0.0
 41
0.0
 42
0.0
 43
0.0
 44
0.0
 45
0.0
 46
0.0
 47
0.0
 48
0.0
 49
0.0
140
0.0
141
0.0
142
1.0
143
1.0
 70
   688
 72
     0
 73
     0
 74
     5
  7

 75
    16
147
1.0
148
0.0
149
0.0
100
AcDbLayout
  1
レイアウト1
 70
     0
 71
     1
 10
0.0
 20
0.0
 11
420.0
 21
297.0
 12
0.0
 22
0.0
 32
0.0
 14
1.000000000000000E+20
 24
1.000000000000000E+20
 34
1.000000000000000E+20
 15
-1.000000000000000E+20
 25
-1.000000000000000E+20
 35
-1.000000000000000E+20
146
0.0
 13
0.0
 23
0.0
 33
0.0
 16
1.0
 26
0.0
 36
0.0
 17
0.0
 27
1.0
 37
0.0
 76
     0
330
A70E
  0
MATERIAL
  5
A8EF
102
{ACAD_XDICTIONARY
360
A8F0
102
}
102
{ACAD_REACTORS
330
A8E6
102
}
330
A8E6
100
AcDbMaterial
  1
ByBlock
 72
     0
 43
0.0208333333333333
 43
0.0
 43
0.0
 43
0.0
 43
0.0
 43
0.0208333333333333
 43
0.0
 43
0.0
 43
0.0
 43
0.0
 43
1.0
 43
0.0
 43
0.0
 43
0.0
 43
0.0
 43
1.0
 77
     0
 47
0.0208333333333333
 47
0.0
 47
0.0
 47
0.0
 47
0.0
 47
0.0208333333333333
 47
0.0
 47
0.0
 47
0.0
 47
0.0
 47
1.0
 47
0.0
 47
0.0
 47
0.0
 47
0.0
 47
1.0
171
     0
 49
0.0208333333333333
 49
0.0
 49
0.0
 49
0.0
 49
0.0
 49
0.0208333333333333
 49
0.0
 49
0.0
 49
0.0
 49
0.0
 49
1.0
 49
0.0
 49
0.0
 49
0.0
 49
0.0
 49
1.0
175
     0
142
0.0208333333333333
142
0.0
142
0.0
142
0.0
142
0.0
142
0.0208333333333333
142
0.0
142
0.0
142
0.0
142
0.0
142
1.0
142
0.0
142
0.0
142
0.0
142
0.0
142
1.0
179
     0
144
0.0208333333333333
144
0.0
144
0.0
144
0.0
144
0.0
144
0.0208333333333333
144
0.0
144
0.0
144
0.0
144
0.0
144
1.0
144
0.0
144
0.0
144
0.0
144
0.0
144
1.0
147
0.0208333333333333
147
0.0
147
0.0
147
0.0
147
0.0
147
0.0208333333333333
147
0.0
147
0.0
147
0.0
147
0.0
147
1.0
147
0.0
147
0.0
147
0.0
147
0.0
147
1.0
  0
MATERIAL
  5
A8E7
102
{ACAD_XDICTIONARY
360
A8E8
102
}
102
{ACAD_REACTORS
330
A8E6
102
}
330
A8E6
100
AcDbMaterial
  1
ByLayer
 72
     0
 43
0.0208333333333333
 43
0.0
 43
0.0
 43
0.0
 43
0.0
 43
0.0208333333333333
 43
0.0
 43
0.0
 43
0.0
 43
0.0
 43
1.0
 43
0.0
 43
0.0
 43
0.0
 43
0.0
 43
1.0
 77
     0
 47
0.0208333333333333
 47
0.0
 47
0.0
 47
0.0
 47
0.0
 47
0.0208333333333333
 47
0.0
 47
0.0
 47
0.0
 47
0.0
 47
1.0
 47
0.0
 47
0.0
 47
0.0
 47
0.0
 47
1.0
171
     0
 49
0.0208333333333333
 49
0.0
 49
0.0
 49
0.0
 49
0.0
 49
0.0208333333333333
 49
0.0
 49
0.0
 49
0.0
 49
0.0
 49
1.0
 49
0.0
 49
0.0
 49
0.0
 49
0.0
 49
1.0
175
     0
142
0.0208333333333333
142
0.0
142
0.0
142
0.0
142
0.0
142
0.0208333333333333
142
0.0
142
0.0
142
0.0
142
0.0
142
1.0
142
0.0
142
0.0
142
0.0
142
0.0
142
1.0
179
     0
144
0.0208333333333333
144
0.0
144
0.0
144
0.0
144
0.0
144
0.0208333333333333
144
0.0
144
0.0
144
0.0
144
0.0
144
1.0
144
0.0
144
0.0
144
0.0
144
0.0
144
1.0
147
0.0208333333333333
147
0.0
147
0.0
147
0.0
147
0.0
147
0.0208333333333333
147
0.0
147
0.0
147
0.0
147
0.0
147
1.0
147
0.0
147
0.0
147
0.0
147
0.0
147
1.0
  0
MATERIAL
  5
A8F7
102
{ACAD_XDICTIONARY
360
A8F8
102
}
102
{ACAD_REACTORS
330
A8E6
102
}
330
A8E6
100
AcDbMaterial
  1
Global
 72
     0
 43
0.0208333333333333
 43
0.0
 43
0.0
 43
0.0
 43
0.0
 43
0.0208333333333333
 43
0.0
 43
0.0
 43
0.0
 43
0.0
 43
1.0
 43
0.0
 43
0.0
 43
0.0
 43
0.0
 43
1.0
 77
     0
 47
0.0208333333333333
 47
0.0
 47
0.0
 47
0.0
 47
0.0
 47
0.0208333333333333
 47
0.0
 47
0.0
 47
0.0
 47
0.0
 47
1.0
 47
0.0
 47
0.0
 47
0.0
 47
0.0
 47
1.0
171
     0
 49
0.0208333333333333
 49
0.0
 49
0.0
 49
0.0
 49
0.0
 49
0.0208333333333333
 49
0.0
 49
0.0
 49
0.0
 49
0.0
 49
1.0
 49
0.0
 49
0.0
 49
0.0
 49
0.0
 49
1.0
175
     0
142
0.0208333333333333
142
0.0
142
0.0
142
0.0
142
0.0
142
0.0208333333333333
142
0.0
142
0.0
142
0.0
142
0.0
142
1.0
142
0.0
142
0.0
142
0.0
142
0.0
142
1.0
179
     0
144
0.0208333333333333
144
0.0
144
0.0
144
0.0
144
0.0
144
0.0208333333333333
144
0.0
144
0.0
144
0.0
144
0.0
144
1.0
144
0.0
144
0.0
144
0.0
144
0.0
144
1.0
147
0.0208333333333333
147
0.0
147
0.0
147
0.0
147
0.0
147
0.0208333333333333
147
0.0
147
0.0
147
0.0
147
0.0
147
1.0
147
0.0
147
0.0
147
0.0
147
0.0
147
1.0
  0
MLEADERSTYLE
  5
A92E
102
{ACAD_REACTORS
330
A92D
102
}
330
A92D
100
AcDbMLeaderStyle
170
     2
171
     1
172
     0
 90
        2
 40
0.0
 41
0.0
173
     1
 91
-1056964608
340
A707
 92
       -2
290
     1
 42
0.09
291
     1
 43
0.36
  3
Standard
 44
0.18
300

342
A705
174
     1
178
     6
175
     1
176
     0
 93
-1056964608
 45
0.18
292
     0
297
     0
 46
0.18
 94
-1056964608
 47
1.0
 49
1.0
140
1.0
293
     1
141
0.0
294
     1
177
     0
142
1.0
295
     0
296
     0
143
0.125
1001
ACAD_MLEADERVER
1070
     2
  0
MLINESTYLE
  5
A70B
102
{ACAD_REACTORS
330
A70A
102
}
330
A70A
100
AcDbMlineStyle
  2
STANDARD
 70
     0
  3

 62
   256
 51
90.0
 52
90.0
 71
     2
 49
0.5
 62
   256
  6
BYLAYER
 49
-0.5
 62
   256
  6
BYLAYER
  0
ACDBPLACEHOLDER
  5
A8E5
102
{ACAD_REACTORS
330
A8E4
102
}
330
A8E4
  0
SCALE
  5
A91C
102
{ACAD_REACTORS
330
A91B
102
}
330
A91B
100
AcDbScale
 70
     0
300
1:1
140
1.0
141
1.0
290
     1
  0
SCALE
  5
A91D
102
{ACAD_REACTORS
330
A91B
102
}
330
A91B
100
AcDbScale
 70
     0
300
1/128" = 1'-0"
140
0.0078125
141
12.0
290
     0
  0
SCALE
  5
A91E
102
{ACAD_REACTORS
330
A91B
102
}
330
A91B
100
AcDbScale
 70
     0
300
1/64" = 1'-0"
140
0.015625
141
12.0
290
     0
  0
SCALE
  5
A91F
102
{ACAD_REACTORS
330
A91B
102
}
330
A91B
100
AcDbScale
 70
     0
300
1/32" = 1'-0"
140
0.03125
141
12.0
290
     0
  0
SCALE
  5
A920
102
{ACAD_REACTORS
330
A91B
102
}
330
A91B
100
AcDbScale
 70
     0
300
1/16" = 1'-0"
140
0.0625
141
12.0
290
     0
  0
SCALE
  5
A921
102
{ACAD_REACTORS
330
A91B
102
}
330
A91B
100
AcDbScale
 70
     0
300
3/32" = 1'-0"
140
0.09375
141
12.0
290
     0
  0
SCALE
  5
A922
102
{ACAD_REACTORS
330
A91B
102
}
330
A91B
100
AcDbScale
 70
     0
300
1/8" = 1'-0"
140
0.125
141
12.0
290
     0
  0
SCALE
  5
A923
102
{ACAD_REACTORS
330
A91B
102
}
330
A91B
100
AcDbScale
 70
     0
300
3/16" = 1'-0"
140
0.1875
141
12.0
290
     0
  0
SCALE
  5
A924
102
{ACAD_REACTORS
330
A91B
102
}
330
A91B
100
AcDbScale
 70
     0
300
1/4" = 1'-0"
140
0.25
141
12.0
290
     0
  0
SCALE
  5
A925
102
{ACAD_REACTORS
330
A91B
102
}
330
A91B
100
AcDbScale
 70
     0
300
3/8" = 1'-0"
140
0.375
141
12.0
290
     0
  0
SCALE
  5
A926
102
{ACAD_REACTORS
330
A91B
102
}
330
A91B
100
AcDbScale
 70
     0
300
1/2" = 1'-0"
140
0.5
141
12.0
290
     0
  0
SCALE
  5
A927
102
{ACAD_REACTORS
330
A91B
102
}
330
A91B
100
AcDbScale
 70
     0
300
3/4" = 1'-0"
140
0.75
141
12.0
290
     0
  0
SCALE
  5
A928
102
{ACAD_REACTORS
330
A91B
102
}
330
A91B
100
AcDbScale
 70
     0
300
1" = 1'-0"
140
1.0
141
12.0
290
     0
  0
SCALE
  5
A929
102
{ACAD_REACTORS
330
A91B
102
}
330
A91B
100
AcDbScale
 70
     0
300
1-1/2" = 1'-0"
140
1.5
141
12.0
290
     0
  0
SCALE
  5
A92A
102
{ACAD_REACTORS
330
A91B
102
}
330
A91B
100
AcDbScale
 70
     0
300
3" = 1'-0"
140
3.0
141
12.0
290
     0
  0
SCALE
  5
A92B
102
{ACAD_REACTORS
330
A91B
102
}
330
A91B
100
AcDbScale
 70
     0
300
6" = 1'-0"
140
6.0
141
12.0
290
     0
  0
SCALE
  5
A92C
102
{ACAD_REACTORS
330
A91B
102
}
330
A91B
100
AcDbScale
 70
     0
300
1'-0" = 1'-0"
140
12.0
141
12.0
290
     0
  0
ACDBSECTIONVIEWSTYLE
  5
A930
102
{ACAD_XDICTIONARY
360
A98B
102
}
102
{ACAD_REACTORS
330
A92F
102
}
330
A92F
100
AcDbModelDocViewStyle
 70
     0
  3
Imperial24
290
     0
100
AcDbSectionViewStyle
 70
     0
 71
     0
 90
       78
 71
     1
340
A705
 40
0.24
340
0
340
0
 40
0.24
300
I, O, Q, S, X, Z
 40
0.48
 90
        3
 40
0.18
 90
        1
 71
     2
340
A709
 90
       25
340
A709
 90
       50
 40
0.24
 40
0.0
 40
0.24
 71
     3
340
A705
 40
0.24
 90
        1
 40
0.75
 90
        1
300
%<\AcVar ViewType \f "%tc1">% %<\AcVar ViewSectionStartId>%-%<\AcVar ViewSectionEndId>%\PSCALE %<\AcVar ViewScale \f "%sn">%
 71
     4
300
ANSI31
 40
1.0
 90
        0
290
     0
290
     0
 90
        6
 40
0.0
 40
1.570796326794896
 40
0.2617993877991494
 40
1.308996938995747
 40
-0.2617993877991494
 40
1.832595714594046
  0
TABLESTYLE
  5
A91A
102
{ACAD_XDICTIONARY
360
A952
102
}
102
{ACAD_REACTORS
330
A919
102
}
330
A919
100
AcDbTableStyle
  3
Standard
 70
     0
 71
     0
 40
0.06
 41
0.06
280
     0
281
     0
  7
STANDARD
140
0.18
170
     2
 62
     0
 63
     7
283
     0
274
    -2
284
     1
 64
     0
275
    -2
285
     1
 65
     0
276
    -2
286
     1
 66
     0
277
    -2
287
     1
 67
     0
278
    -2
288
     1
 68
     0
279
    -2
289
     1
 69
     0
  7
STANDARD
140
0.25
170
     5
 62
     0
 63
     7
283
     0
274
    -2
284
     1
 64
     0
275
    -2
285
     1
 65
     0
276
    -2
286
     1
 66
     0
277
    -2
287
     1
 67
     0
278
    -2
288
     1
 68
     0
279
    -2
289
     1
 69
     0
  7
STANDARD
140
0.18
170
     5
 62
     0
 63
     7
283
     0
274
    -2
284
     1
 64
     0
275
    -2
285
     1
 65
     0
276
    -2
286
     1
 66
     0
277
    -2
287
     1
 67
     0
278
    -2
288
     1
 68
     0
279
    -2
289
     1
 69
     0
  0
VISUALSTYLE
  5
A905
102
{ACAD_XDICTIONARY
360
A963
102
}
102
{ACAD_REACTORS
330
A8FF
102
}
330
A8FF
100
AcDbVisualStyle
  2
2dWireframe
 70
     4
 71
     0
 72
     2
 73
     0
 90
        0
 40
-0.6
 41
-30.0
 62
     5
 63
     7
 74
     1
 91
        4
 64
     7
 65
   257
 75
     1
175
     1
 42
1.0
 92
        0
 66
   257
 43
1.0
 76
     1
 77
     6
 78
     2
 67
     7
 79
     5
170
     0
171
     0
290
     0
174
     0
 93
        1
 44
0.0
173
     0
291
     0
 45
0.0
1001
ACAD
1000
AcDbSavedByObjectVersion
1070
     0
  0
VISUALSTYLE
  5
A904
102
{ACAD_XDICTIONARY
360
A961
102
}
102
{ACAD_REACTORS
330
A8FF
102
}
330
A8FF
100
AcDbVisualStyle
  2
Basic
 70
     7
 71
     1
 72
     0
 73
     1
 90
        0
 40
-0.6
 41
-30.0
 62
     5
 63
     7
 74
     0
 91
        4
 64
     7
 65
   257
 75
     1
175
     1
 42
1.0
 92
        8
 66
     7
 43
1.0
 76
     1
 77
     6
 78
     2
 67
     7
 79
     5
170
     0
171
     0
290
     0
174
     0
 93
        1
 44
0.0
173
     0
291
     1
 45
0.0
1001
ACAD
1000
AcDbSavedByObjectVersion
1070
     0
  0
VISUALSTYLE
  5
A90B
102
{ACAD_XDICTIONARY
360
A96F
102
}
102
{ACAD_REACTORS
330
A8FF
102
}
330
A8FF
100
AcDbVisualStyle
  2
Brighten
 70
    12
 71
     2
 72
     2
 73
     0
 90
        0
 40
-0.6
 41
-30.0
 62
     5
 63
     7
 74
     1
 91
        4
 64
     7
 65
   257
 75
     1
175
     1
 42
1.0
 92
        8
 66
     7
 43
1.0
 76
     1
 77
     6
 78
     2
 67
     7
 79
     5
170
     0
171
     0
290
     0
174
     0
 93
        1
 44
50.0
173
     0
291
     1
 45
0.0
1001
ACAD
1000
AcDbSavedByObjectVersion
1070
     0
  0
VISUALSTYLE
  5
A90F
102
{ACAD_XDICTIONARY
360
A977
102
}
102
{ACAD_REACTORS
330
A8FF
102
}
330
A8FF
100
AcDbVisualStyle
  2
ColorChange
 70
    16
 71
     2
 72
     2
 73
     3
 90
        0
 40
-0.6
 41
-30.0
 62
     5
 63
     8
 74
     1
 91
        4
 64
     7
 65
   257
 75
     1
175
     1
 42
1.0
 92
        8
 66
     8
 43
1.0
 76
     1
 77
     6
 78
     2
 67
     7
 79
     5
170
     0
171
     0
290
     0
174
     0
 93
        1
 44
0.0
173
     0
291
     1
 45
0.0
1001
ACAD
1000
AcDbSavedByObjectVersion
1070
     0
  0
VISUALSTYLE
  5
A908
102
{ACAD_XDICTIONARY
360
A969
102
}
102
{ACAD_REACTORS
330
A8FF
102
}
330
A8FF
100
AcDbVisualStyle
  2
Conceptual
 70
     9
 71
     3
 72
     2
 73
     0
 90
        0
 40
-0.6
 41
-30.0
 62
     5
 63
     7
 74
     2
 91
        2
 64
     7
 65
   257
 75
     1
175
     1
 42
179.0
 92
        8
 66
     7
 43
1.0
 76
     1
 77
     6
 78
     2
 67
     7
 79
     3
170
     0
171
     0
290
     0
174
     0
 93
        1
 44
0.0
173
     0
291
     0
 45
0.0
1001
ACAD
1000
AcDbSavedByObjectVersion
1070
     0
  0
VISUALSTYLE
  5
A90A
102
{ACAD_XDICTIONARY
360
A96D
102
}
102
{ACAD_REACTORS
330
A8FF
102
}
330
A8FF
100
AcDbVisualStyle
  2
Dim
 70
    11
 71
     2
 72
     2
 73
     0
 90
        0
 40
-0.6
 41
-30.0
 62
     5
 63
     7
 74
     1
 91
        4
 64
     7
 65
   257
 75
     1
175
     1
 42
1.0
 92
        8
 66
     7
 43
1.0
 76
     1
 77
     6
 78
     2
 67
     7
 79
     5
170
     0
171
     0
290
     0
174
     0
 93
        1
 44
-50.0
173
     0
291
     1
 45
0.0
1001
ACAD
1000
AcDbSavedByObjectVersion
1070
     0
  0
VISUALSTYLE
  5
A917
102
{ACAD_XDICTIONARY
360
A987
102
}
102
{ACAD_REACTORS
330
A8FF
102
}
330
A8FF
100
AcDbVisualStyle
  2
EdgeColorOff
 70
    22
 71
     2
 72
     2
 73
     0
 90
        0
 40
-0.6
 41
-30.0
 62
     5
 63
     7
 74
     1
 91
        4
 64
     7
 65
   257
 75
     1
175
     1
 42
1.0
 92
        8
 66
     7
 43
1.0
 76
     1
 77
     6
 78
     2
 67
     7
 79
     5
170
     0
171
     0
290
     0
174
     0
 93
        1
 44
0.0
173
     0
291
     1
 45
0.0
1001
ACAD
1000
AcDbSavedByObjectVersion
1070
     0
  0
VISUALSTYLE
  5
A90E
102
{ACAD_XDICTIONARY
360
A975
102
}
102
{ACAD_REACTORS
330
A8FF
102
}
330
A8FF
100
AcDbVisualStyle
  2
Facepattern
 70
    15
 71
     2
 72
     2
 73
     0
 90
        0
 40
-0.6
 41
-30.0
 62
     5
 63
     7
 74
     1
 91
        4
 64
     7
 65
   257
 75
     1
175
     1
 42
1.0
 92
        8
 66
     7
 43
1.0
 76
     1
 77
     6
 78
     2
 67
     7
 79
     5
170
     0
171
     0
290
     0
174
     0
 93
        1
 44
0.0
173
     0
291
     1
 45
0.0
1001
ACAD
1000
AcDbSavedByObjectVersion
1070
     0
  0
VISUALSTYLE
  5
A900
102
{ACAD_XDICTIONARY
360
A959
102
}
102
{ACAD_REACTORS
330
A8FF
102
}
330
A8FF
100
AcDbVisualStyle
  2
Flat
 70
     0
 71
     2
 72
     1
 73
     1
 90
        2
 40
-0.6
 41
30.0
 62
     5
 63
     7
 74
     0
 91
        0
 64
     7
 65
   257
 75
     1
175
     1
 42
1.0
 92
        8
 66
     7
 43
1.0
 76
     1
 77
     6
 78
     2
 67
     7
 79
     5
170
     0
171
     0
290
     0
174
     0
 93
       13
 44
0.0
173
     0
291
     1
 45
0.0
1001
ACAD
1000
AcDbSavedByObjectVersion
1070
     0
  0
VISUALSTYLE
  5
A901
102
{ACAD_XDICTIONARY
360
A95B
102
}
102
{ACAD_REACTORS
330
A8FF
102
}
330
A8FF
100
AcDbVisualStyle
  2
FlatWithEdges
 70
     1
 71
     2
 72
     1
 73
     1
 90
        2
 40
-0.6
 41
30.0
 62
     5
 63
     7
 74
     1
 91
        0
 64
     7
 65
   257
 75
     1
175
     1
 42
1.0
 92
        0
 66
   257
 43
1.0
 76
     1
 77
     6
 78
     2
 67
     7
 79
     5
170
     0
171
     0
290
     0
174
     0
 93
       13
 44
0.0
173
     0
291
     1
 45
0.0
1001
ACAD
1000
AcDbSavedByObjectVersion
1070
     0
  0
VISUALSTYLE
  5
A902
102
{ACAD_XDICTIONARY
360
A95D
102
}
102
{ACAD_REACTORS
330
A8FF
102
}
330
A8FF
100
AcDbVisualStyle
  2
Gouraud
 70
     2
 71
     2
 72
     2
 73
     1
 90
        2
 40
-0.6
 41
30.0
 62
     5
 63
     7
 74
     0
 91
        0
 64
     7
 65
   257
 75
     1
175
     1
 42
1.0
 92
        0
 66
     7
 43
1.0
 76
     1
 77
     6
 78
     2
 67
     7
 79
     5
170
     0
171
     0
290
     0
174
     0
 93
       13
 44
0.0
173
     0
291
     1
 45
0.0
1001
ACAD
1000
AcDbSavedByObjectVersion
1070
     0
  0
VISUALSTYLE
  5
A903
102
{ACAD_XDICTIONARY
360
A95F
102
}
102
{ACAD_REACTORS
330
A8FF
102
}
330
A8FF
100
AcDbVisualStyle
  2
GouraudWithEdges
 70
     3
 71
     2
 72
     2
 73
     1
 90
        2
 40
-0.6
 41
30.0
 62
     5
 63
     7
 74
     1
 91
        0
 64
     7
 65
   257
 75
     1
175
     1
 42
1.0
 92
        0
 66
   257
 43
1.0
 76
     1
 77
     6
 78
     2
 67
     7
 79
     5
170
     0
171
     0
290
     0
174
     0
 93
       13
 44
0.0
173
     0
291
     1
 45
0.0
1001
ACAD
1000
AcDbSavedByObjectVersion
1070
     0
  0
VISUALSTYLE
  5
A907
102
{ACAD_XDICTIONARY
360
A967
102
}
102
{ACAD_REACTORS
330
A8FF
102
}
330
A8FF
100
AcDbVisualStyle
  2
Hidden
 70
     6
 71
     1
 72
     2
 73
     2
 90
        0
 40
-0.6
 41
-30.0
 62
     5
 63
     7
 74
     2
 91
        2
 64
     7
 65
   257
 75
     2
175
     1
 42
40.0
 92
        0
 66
   257
 43
1.0
 76
     1
 77
     6
 78
     2
 67
     7
 79
     3
170
     0
171
     0
290
     0
174
     0
 93
        1
 44
0.0
173
     0
291
     0
 45
0.0
1001
ACAD
1000
AcDbSavedByObjectVersion
1070
     0
  0
VISUALSTYLE
  5
A915
102
{ACAD_XDICTIONARY
360
A983
102
}
102
{ACAD_REACTORS
330
A8FF
102
}
330
A8FF
100
AcDbVisualStyle
  2
JitterOff
 70
    20
 71
     2
 72
     2
 73
     0
 90
        0
 40
-0.6
 41
-30.0
 62
     5
 63
     7
 74
     1
 91
        4
 64
     7
 65
   257
 75
     1
175
     1
 42
1.0
 92
       10
 66
     7
 43
1.0
 76
     1
 77
     6
 78
     2
 67
     7
 79
     5
170
     0
171
     0
290
     0
174
     0
 93
        1
 44
0.0
173
     0
291
     1
 45
0.0
1001
ACAD
1000
AcDbSavedByObjectVersion
1070
     0
  0
VISUALSTYLE
  5
A90D
102
{ACAD_XDICTIONARY
360
A973
102
}
102
{ACAD_REACTORS
330
A8FF
102
}
330
A8FF
100
AcDbVisualStyle
  2
Linepattern
 70
    14
 71
     2
 72
     2
 73
     0
 90
        0
 40
-0.6
 41
-30.0
 62
     5
 63
     7
 74
     1
 91
        4
 64
     7
 65
   257
 75
     7
175
     7
 42
1.0
 92
        8
 66
     7
 43
1.0
 76
     1
 77
     6
 78
     2
 67
     7
 79
     5
170
     0
171
     0
290
     0
174
     0
 93
        1
 44
0.0
173
     0
291
     1
 45
0.0
1001
ACAD
1000
AcDbSavedByObjectVersion
1070
     0
  0
VISUALSTYLE
  5
A916
102
{ACAD_XDICTIONARY
360
A985
102
}
102
{ACAD_REACTORS
330
A8FF
102
}
330
A8FF
100
AcDbVisualStyle
  2
OverhangOff
 70
    21
 71
     2
 72
     2
 73
     0
 90
        0
 40
-0.6
 41
-30.0
 62
     5
 63
     7
 74
     1
 91
        4
 64
     7
 65
   257
 75
     1
175
     1
 42
1.0
 92
        9
 66
     7
 43
1.0
 76
     1
 77
     6
 78
     2
 67
     7
 79
     5
170
     0
171
     0
290
     0
174
     0
 93
        1
 44
0.0
173
     0
291
     1
 45
0.0
1001
ACAD
1000
AcDbSavedByObjectVersion
1070
     0
  0
VISUALSTYLE
  5
A909
102
{ACAD_XDICTIONARY
360
A96B
102
}
102
{ACAD_REACTORS
330
A8FF
102
}
330
A8FF
100
AcDbVisualStyle
  2
Realistic
 70
     8
 71
     2
 72
     3
 73
     0
 90
        2
 40
-0.6
 41
30.0
 62
     5
 63
     7
 74
     0
 91
        0
 64
     7
 65
   257
 75
     1
175
     1
 42
1.0
 92
        8
 66
   257
 43
1.0
 76
     1
 77
     6
 78
     2
 67
     7
 79
     3
170
     0
171
     0
290
     0
174
     0
 93
       13
 44
0.0
173
     0
291
     0
 45
0.0
1001
ACAD
1000
AcDbSavedByObjectVersion
1070
     0
  0
VISUALSTYLE
  5
A914
102
{ACAD_XDICTIONARY
360
A981
102
}
102
{ACAD_REACTORS
330
A8FF
102
}
330
A8FF
100
AcDbVisualStyle
  2
Shaded
 70
    27
 71
     2
 72
     2
 73
     1
 90
        2
 40
-0.6
 41
30.0
 62
     5
 63
     7
 74
     0
 91
        4
 64
     7
 65
   257
 75
     1
175
     1
 42
1.0
 92
        8
 66
   257
 43
1.0
 76
     1
 77
     6
 78
     2
 67
     8
 79
     3
170
     0
171
     0
290
     0
174
     0
 93
        5
 44
0.0
173
     0
291
     0
 45
0.0
1001
ACAD
1000
AcDbSavedByObjectVersion
1070
     0
  0
VISUALSTYLE
  5
A913
102
{ACAD_XDICTIONARY
360
A97F
102
}
102
{ACAD_REACTORS
330
A8FF
102
}
330
A8FF
100
AcDbVisualStyle
  2
Shaded with edges
 70
    26
 71
     2
 72
     2
 73
     1
 90
        2
 40
-0.6
 41
30.0
 62
     5
 63
     7
 74
     1
 91
       10
 64
     7
 65
   257
 75
     2
175
     1
 42
1.0
 92
        8
 66
   257
 43
1.0
 76
     1
 77
     6
 78
     2
 67
     7
 79
     3
170
     0
171
     0
290
     0
174
     0
 93
        5
 44
0.0
173
     0
291
     0
 45
0.0
1001
ACAD
1000
AcDbSavedByObjectVersion
1070
     0
  0
VISUALSTYLE
  5
A910
102
{ACAD_XDICTIONARY
360
A979
102
}
102
{ACAD_REACTORS
330
A8FF
102
}
330
A8FF
100
AcDbVisualStyle
  2
Shades of Gray
 70
    23
 71
     2
 72
     2
 73
     3
 90
        0
 40
-0.6
 41
-30.0
 62
     5
 63
     7
 74
     2
 91
        2
 64
     7
 65
     7
 75
     1
175
     1
 42
40.0
 92
        8
 66
     7
 43
1.0
 76
     1
 77
     6
 78
     2
 67
     7
 79
     3
170
     0
171
     0
290
     0
174
     0
 93
        1
 44
0.0
173
     0
291
     0
 45
0.0
1001
ACAD
1000
AcDbSavedByObjectVersion
1070
     0
  0
VISUALSTYLE
  5
A911
102
{ACAD_XDICTIONARY
360
A97B
102
}
102
{ACAD_REACTORS
330
A8FF
102
}
330
A8FF
100
AcDbVisualStyle
  2
Sketchy
 70
    24
 71
     1
 72
     2
 73
     2
 90
        0
 40
-0.6
 41
-30.0
 62
     5
 63
     7
 74
     2
 91
        2
 64
     7
 65
     7
 75
     1
175
     1
 42
40.0
 92
       11
 66
     7
 43
1.0
 76
     1
 77
     6
 78
     2
 67
     7
 79
     6
170
     0
171
     0
290
     0
174
     0
 93
        1
 44
0.0
173
     0
291
     0
 45
0.0
1001
ACAD
1000
AcDbSavedByObjectVersion
1070
     0
  0
VISUALSTYLE
  5
A90C
102
{ACAD_XDICTIONARY
360
A971
102
}
102
{ACAD_REACTORS
330
A8FF
102
}
330
A8FF
100
AcDbVisualStyle
  2
Thicken
 70
    13
 71
     2
 72
     2
 73
     0
 90
        0
 40
-0.6
 41
-30.0
 62
     5
 63
     7
 74
     1
 91
        4
 64
     7
 65
   257
 75
     1
175
     1
 42
1.0
 92
       12
 66
     7
 43
1.0
 76
     1
 77
     6
 78
     2
 67
     7
 79
     5
170
     0
171
     0
290
     0
174
     0
 93
        1
 44
0.0
173
     0
291
     1
 45
0.0
1001
ACAD
1000
AcDbSavedByObjectVersion
1070
     0
  0
VISUALSTYLE
  5
A906
102
{ACAD_XDICTIONARY
360
A965
102
}
102
{ACAD_REACTORS
330
A8FF
102
}
330
A8FF
100
AcDbVisualStyle
  2
Wireframe
 70
     5
 71
     0
 72
     2
 73
     0
 90
        0
 40
-0.6
 41
-30.0
 62
     5
 63
     7
 74
     1
 91
        4
 64
     7
 65
   257
 75
     1
175
     1
 42
1.0
 92
        0
 66
   257
 43
1.0
 76
     1
 77
     6
 78
     2
 67
     7
 79
     3
170
     0
171
     0
290
     0
174
     0
 93
        1
 44
0.0
173
     0
291
     0
 45
0.0
1001
ACAD
1000
AcDbSavedByObjectVersion
1070
     0
  0
VISUALSTYLE
  5
A912
102
{ACAD_XDICTIONARY
360
A97D
102
}
102
{ACAD_REACTORS
330
A8FF
102
}
330
A8FF
100
AcDbVisualStyle
  2
X-Ray
 70
    25
 71
     2
 72
     2
 73
     1
 90
        1
 40
0.5
 41
-30.0
 62
     5
 63
     7
 74
     1
 91
        0
 64
     7
 65
   257
 75
     1
175
     1
 42
1.0
 92
        8
 66
     7
 43
1.0
 76
     1
 77
     6
 78
     2
 67
     7
 79
     3
170
     0
171
     0
290
     0
174
     0
 93
       13
 44
0.0
173
     0
291
     0
 45
0.0
1001
ACAD
1000
AcDbSavedByObjectVersion
1070
     0
  0
DICTIONARYVAR
  5
A94C
102
{ACAD_REACTORS
330
A947
102
}
330
A947
100
DictionaryVariables
280
     0
  1
1:1
  0
DICTIONARYVAR
  5
A949
102
{ACAD_REACTORS
330
A947
102
}
330
A947
100
DictionaryVariables
280
     0
  1
STANDARD
  0
DICTIONARYVAR
  5
A948
102
{ACAD_REACTORS
330
A947
102
}
330
A947
100
DictionaryVariables
280
     0
  1
STANDARD
  0
DICTIONARYVAR
  5
A94A
102
{ACAD_REACTORS
330
A947
102
}
330
A947
100
DictionaryVariables
280
     0
  1
Imperial24
  0
DICTIONARYVAR
  5
A94B
102
{ACAD_REACTORS
330
A947
102
}
330
A947
100
DictionaryVariables
280
     0
  1
Imperial24
  0
DICTIONARYVAR
  5
A94F
102
{ACAD_REACTORS
330
A947
102
}
330
A947
100
DictionaryVariables
280
     0
  1
1
  0
DICTIONARYVAR
  5
A94E
102
{ACAD_REACTORS
330
A947
102
}
330
A947
100
DictionaryVariables
280
     0
  1
0
  0
DICTIONARYVAR
  5
A94D
102
{ACAD_REACTORS
330
A947
102
}
330
A947
100
DictionaryVariables
280
     0
  1
127
  0
DICTIONARYVAR
  5
A950
102
{ACAD_REACTORS
330
A947
102
}
330
A947
100
DictionaryVariables
280
     0
  1
2
  0
DICTIONARY
  5
A98D
330
A932
100
AcDbDictionary
280
     1
281
     1
  3
ACAD_XREC_ROUNDTRIP
360
A98E
  0
DICTIONARY
  5
A98F
330
A933
100
AcDbDictionary
280
     1
281
     1
  3
ACAD_XREC_ROUNDTRIP
360
A990
  0
DICTIONARY
  5
A991
330
A934
100
AcDbDictionary
280
     1
281
     1
  3
ACAD_XREC_ROUNDTRIP
360
A992
  0
DICTIONARY
  5
A8F0
330
A8EF
100
AcDbDictionary
280
     1
281
     1
  3
ACAD_XREC_ROUNDTRIP
360
A957
  3
BUMPTILE
360
A8F2
  3
DIFFUSETILE
360
A8F1
  3
OPACITYTILE
360
A8F5
  3
REFLECTIONTILE
360
A8F4
  3
REFRACTIONTILE
360
A8F6
  3
SPECULARTILE
360
A8F3
  0
DICTIONARY
  5
A8E8
330
A8E7
100
AcDbDictionary
280
     1
281
     1
  3
ACAD_XREC_ROUNDTRIP
360
A956
  3
BUMPTILE
360
A8EA
  3
DIFFUSETILE
360
A8E9
  3
OPACITYTILE
360
A8ED
  3
REFLECTIONTILE
360
A8EC
  3
REFRACTIONTILE
360
A8EE
  3
SPECULARTILE
360
A8EB
  0
DICTIONARY
  5
A8F8
330
A8F7
100
AcDbDictionary
280
     1
281
     1
  3
ACAD_XREC_ROUNDTRIP
360
A958
  3
BUMPTILE
360
A8FA
  3
DIFFUSETILE
360
A8F9
  3
OPACITYTILE
360
A8FD
  3
REFLECTIONTILE
360
A8FC
  3
REFRACTIONTILE
360
A8FE
  3
SPECULARTILE
360
A8FB
  0
DICTIONARY
  5
A98B
330
A930
100
AcDbDictionary
280
     1
281
     1
  3
ACAD_XREC_ROUNDTRIP
360
A98C
  0
DICTIONARY
  5
A952
330
A91A
100
AcDbDictionary
280
     1
281
     1
  3
ACAD_ROUNDTRIP_2008_TABLESTYLE_CELLSTYLEMAP
360
A953
  3
ACAD_XREC_ROUNDTRIP
360
A989
  0
DICTIONARY
  5
A963
330
A905
100
AcDbDictionary
280
     1
281
     1
  3
ACAD_XREC_ROUNDTRIP
360
A964
  0
DICTIONARY
  5
A961
330
A904
100
AcDbDictionary
280
     1
281
     1
  3
ACAD_XREC_ROUNDTRIP
360
A962
  0
DICTIONARY
  5
A96F
330
A90B
100
AcDbDictionary
280
     1
281
     1
  3
ACAD_XREC_ROUNDTRIP
360
A970
  0
DICTIONARY
  5
A977
330
A90F
100
AcDbDictionary
280
     1
281
     1
  3
ACAD_XREC_ROUNDTRIP
360
A978
  0
DICTIONARY
  5
A969
330
A908
100
AcDbDictionary
280
     1
281
     1
  3
ACAD_XREC_ROUNDTRIP
360
A96A
  0
DICTIONARY
  5
A96D
330
A90A
100
AcDbDictionary
280
     1
281
     1
  3
ACAD_XREC_ROUNDTRIP
360
A96E
  0
DICTIONARY
  5
A987
330
A917
100
AcDbDictionary
280
     1
281
     1
  3
ACAD_XREC_ROUNDTRIP
360
A988
  0
DICTIONARY
  5
A975
330
A90E
100
AcDbDictionary
280
     1
281
     1
  3
ACAD_XREC_ROUNDTRIP
360
A976
  0
DICTIONARY
  5
A959
330
A900
100
AcDbDictionary
280
     1
281
     1
  3
ACAD_XREC_ROUNDTRIP
360
A95A
  0
DICTIONARY
  5
A95B
330
A901
100
AcDbDictionary
280
     1
281
     1
  3
ACAD_XREC_ROUNDTRIP
360
A95C
  0
DICTIONARY
  5
A95D
330
A902
100
AcDbDictionary
280
     1
281
     1
  3
ACAD_XREC_ROUNDTRIP
360
A95E
  0
DICTIONARY
  5
A95F
330
A903
100
AcDbDictionary
280
     1
281
     1
  3
ACAD_XREC_ROUNDTRIP
360
A960
  0
DICTIONARY
  5
A967
330
A907
100
AcDbDictionary
280
     1
281
     1
  3
ACAD_XREC_ROUNDTRIP
360
A968
  0
DICTIONARY
  5
A983
330
A915
100
AcDbDictionary
280
     1
281
     1
  3
ACAD_XREC_ROUNDTRIP
360
A984
  0
DICTIONARY
  5
A973
330
A90D
100
AcDbDictionary
280
     1
281
     1
  3
ACAD_XREC_ROUNDTRIP
360
A974
  0
DICTIONARY
  5
A985
330
A916
100
AcDbDictionary
280
     1
281
     1
  3
ACAD_XREC_ROUNDTRIP
360
A986
  0
DICTIONARY
  5
A96B
330
A909
100
AcDbDictionary
280
     1
281
     1
  3
ACAD_XREC_ROUNDTRIP
360
A96C
  0
DICTIONARY
  5
A981
330
A914
100
AcDbDictionary
280
     1
281
     1
  3
ACAD_XREC_ROUNDTRIP
360
A982
  0
DICTIONARY
  5
A97F
330
A913
100
AcDbDictionary
280
     1
281
     1
  3
ACAD_XREC_ROUNDTRIP
360
A980
  0
DICTIONARY
  5
A979
330
A910
100
AcDbDictionary
280
     1
281
     1
  3
ACAD_XREC_ROUNDTRIP
360
A97A
  0
DICTIONARY
  5
A97B
330
A911
100
AcDbDictionary
280
     1
281
     1
  3
ACAD_XREC_ROUNDTRIP
360
A97C
  0
DICTIONARY
  5
A971
330
A90C
100
AcDbDictionary
280
     1
281
     1
  3
ACAD_XREC_ROUNDTRIP
360
A972
  0
DICTIONARY
  5
A965
330
A906
100
AcDbDictionary
280
     1
281
     1
  3
ACAD_XREC_ROUNDTRIP
360
A966
  0
DICTIONARY
  5
A97D
330
A912
100
AcDbDictionary
280
     1
281
     1
  3
ACAD_XREC_ROUNDTRIP
360
A97E
  0
XRECORD
  5
A98E
102
{ACAD_REACTORS
330
A98D
102
}
330
A98D
100
AcDbXrecord
280
     1
102
DISPLAYNAME
  1
Imperial24
102
FLAGS
 90
        0
  0
XRECORD
  5
A990
102
{ACAD_REACTORS
330
A98F
102
}
330
A98F
100
AcDbXrecord
280
     1
102
SHADEPLOT
 70
     0
102
SHADEPLOTRESLEVEL
 70
     2
102
SHADEPLOTCUSTOMDPI
 70
   300
  0
XRECORD
  5
A992
102
{ACAD_REACTORS
330
A991
102
}
330
A991
100
AcDbXrecord
280
     1
102
SHADEPLOT
 70
     0
102
SHADEPLOTRESLEVEL
 70
     2
102
SHADEPLOTCUSTOMDPI
 70
   300
  0
XRECORD
  5
A957
102
{ACAD_REACTORS
330
A8F0
102
}
330
A8F0
100
AcDbXrecord
280
     1
102
MATERIAL
148
0.0
149
0.0
149
0.0
 93
        0
 94
      127
282
     0
 72
     0
 77
     0
171
     0
175
     0
179
     0
273
     0
  0
XRECORD
  5
A8F2
102
{ACAD_REACTORS
330
A8F0
102
}
330
A8F0
100
AcDbXrecord
280
     1
270
     1
271
     1
  0
XRECORD
  5
A8F1
102
{ACAD_REACTORS
330
A8F0
102
}
330
A8F0
100
AcDbXrecord
280
     1
270
     1
271
     1
  0
XRECORD
  5
A8F5
102
{ACAD_REACTORS
330
A8F0
102
}
330
A8F0
100
AcDbXrecord
280
     1
270
     1
271
     1
  0
XRECORD
  5
A8F4
102
{ACAD_REACTORS
330
A8F0
102
}
330
A8F0
100
AcDbXrecord
280
     1
270
     1
271
     1
  0
XRECORD
  5
A8F6
102
{ACAD_REACTORS
330
A8F0
102
}
330
A8F0
100
AcDbXrecord
280
     1
270
     1
271
     1
  0
XRECORD
  5
A8F3
102
{ACAD_REACTORS
330
A8F0
102
}
330
A8F0
100
AcDbXrecord
280
     1
270
     1
271
     1
  0
XRECORD
  5
A956
102
{ACAD_REACTORS
330
A8E8
102
}
330
A8E8
100
AcDbXrecord
280
     1
102
MATERIAL
148
0.0
149
0.0
149
0.0
 93
        0
 94
      127
282
     0
 72
     0
 77
     0
171
     0
175
     0
179
     0
273
     0
  0
XRECORD
  5
A8EA
102
{ACAD_REACTORS
330
A8E8
102
}
330
A8E8
100
AcDbXrecord
280
     1
270
     1
271
     1
  0
XRECORD
  5
A8E9
102
{ACAD_REACTORS
330
A8E8
102
}
330
A8E8
100
AcDbXrecord
280
     1
270
     1
271
     1
  0
XRECORD
  5
A8ED
102
{ACAD_REACTORS
330
A8E8
102
}
330
A8E8
100
AcDbXrecord
280
     1
270
     1
271
     1
  0
XRECORD
  5
A8EC
102
{ACAD_REACTORS
330
A8E8
102
}
330
A8E8
100
AcDbXrecord
280
     1
270
     1
271
     1
  0
XRECORD
  5
A8EE
102
{ACAD_REACTORS
330
A8E8
102
}
330
A8E8
100
AcDbXrecord
280
     1
270
     1
271
     1
  0
XRECORD
  5
A8EB
102
{ACAD_REACTORS
330
A8E8
102
}
330
A8E8
100
AcDbXrecord
280
     1
270
     1
271
     1
  0
XRECORD
  5
A958
102
{ACAD_REACTORS
330
A8F8
102
}
330
A8F8
100
AcDbXrecord
280
     1
102
MATERIAL
148
0.0
149
0.0
149
0.0
 93
        0
 94
      127
282
     0
 72
     0
 77
     0
171
     0
175
     0
179
     0
273
     0
  0
XRECORD
  5
A8FA
102
{ACAD_REACTORS
330
A8F8
102
}
330
A8F8
100
AcDbXrecord
280
     1
270
     1
271
     1
  0
XRECORD
  5
A8F9
102
{ACAD_REACTORS
330
A8F8
102
}
330
A8F8
100
AcDbXrecord
280
     1
270
     1
271
     1
  0
XRECORD
  5
A8FD
102
{ACAD_REACTORS
330
A8F8
102
}
330
A8F8
100
AcDbXrecord
280
     1
270
     1
271
     1
  0
XRECORD
  5
A8FC
102
{ACAD_REACTORS
330
A8F8
102
}
330
A8F8
100
AcDbXrecord
280
     1
270
     1
271
     1
  0
XRECORD
  5
A8FE
102
{ACAD_REACTORS
330
A8F8
102
}
330
A8F8
100
AcDbXrecord
280
     1
270
     1
271
     1
  0
XRECORD
  5
A8FB
102
{ACAD_REACTORS
330
A8F8
102
}
330
A8F8
100
AcDbXrecord
280
     1
270
     1
271
     1
  0
XRECORD
  5
A98C
102
{ACAD_REACTORS
330
A98B
102
}
330
A98B
100
AcDbXrecord
280
     1
102
DISPLAYNAME
  1
Imperial24
102
FLAGS
 90
        0
  0
CELLSTYLEMAP
  5
A953
102
{ACAD_REACTORS
330
A952
102
}
330
A952
100
AcDbCellStyleMap
 90
        3
300
CELLSTYLE
  1
TABLEFORMAT_BEGIN
 90
        5
170
     1
 91
        0
 92
    32768
 62
   257
 93
        1
300
CONTENTFORMAT
  1
CONTENTFORMAT_BEGIN
 90
        0
 91
        0
 92
      512
 93
        0
300

 40
0.0
140
1.0
 94
        5
 62
     0
340
A705
144
0.25
309
CONTENTFORMAT_END
171
     0
 94
        0
309
TABLEFORMAT_END
  1
CELLSTYLE_BEGIN
 90
        1
 91
        1
300
_TITLE
309
CELLSTYLE_END
300
CELLSTYLE
  1
TABLEFORMAT_BEGIN
 90
        5
170
     1
 91
        0
 92
        0
 62
   257
 93
        1
300
CONTENTFORMAT
  1
CONTENTFORMAT_BEGIN
 90
        0
 91
        0
 92
      512
 93
        0
300

 40
0.0
140
1.0
 94
        5
 62
     0
340
A705
144
0.18
309
CONTENTFORMAT_END
171
     0
 94
        0
309
TABLEFORMAT_END
  1
CELLSTYLE_BEGIN
 90
        2
 91
        1
300
_HEADER
309
CELLSTYLE_END
300
CELLSTYLE
  1
TABLEFORMAT_BEGIN
 90
        5
170
     1
 91
        0
 92
        0
 62
   257
 93
        1
300
CONTENTFORMAT
  1
CONTENTFORMAT_BEGIN
 90
        0
 91
        0
 92
      512
 93
        0
300

 40
0.0
140
1.0
 94
        2
 62
     0
340
A705
144
0.18
309
CONTENTFORMAT_END
171
     0
 94
        0
309
TABLEFORMAT_END
  1
CELLSTYLE_BEGIN
 90
        3
 91
        2
300
_DATA
309
CELLSTYLE_END
  0
XRECORD
  5
A989
102
{ACAD_REACTORS
330
A952
102
}
330
A952
100
AcDbXrecord
280
     1
102
ACAD_ROUNDTRIP_PRE2007_TABLESTYLE
 90
      512
 91
        0
  1

 92
      512
 93
        0
  2

 94
      512
 95
        0
  3

  0
XRECORD
  5
A964
102
{ACAD_REACTORS
330
A963
102
}
330
A963
100
AcDbXrecord
280
     1
102
RTVSPost2010Prop28
280
     1
102
RTVSPost2010PropOp28
 70
     1
102
RTVSPost2010Prop29
280
     1
102
RTVSPost2010PropOp29
 70
     1
102
RTVSPost2010Prop30
280
     0
102
RTVSPost2010PropOp30
 70
     1
102
RTVSPost2010Prop31
280
     0
102
RTVSPost2010PropOp31
 70
     1
102
RTVSPost2010Prop32
280
     0
102
RTVSPost2010PropOp32
 70
     1
102
RTVSPost2010Prop33
280
     0
102
RTVSPost2010PropOp33
 70
     1
102
RTVSPost2010Prop34
280
     0
102
RTVSPost2010PropOp34
 70
     1
102
RTVSPost2010Prop35
280
     0
102
RTVSPost2010PropOp35
 70
     1
102
RTVSPost2010Prop36
280
     0
102
RTVSPost2010PropOp36
 70
     1
102
RTVSPost2010Prop37
 90
       50
102
RTVSPost2010PropOp37
 70
     1
102
RTVSPost2010Prop38
140
0.0
102
RTVSPost2010PropOp38
 70
     1
102
RTVSPost2010Prop39
140
1.0
102
RTVSPost2010PropOp39
 70
     1
102
RTVSPost2010Prop40
 90
        0
102
RTVSPost2010PropOp40
 70
     1
102
RTVSPost2010Prop41ColorIndex
 90
       18
102
RTVSPost2010Prop41ColorRGB
 90
        0
102
RTVSPost2010PropOp41
 70
     1
102
RTVSPost2010Prop42
 90
       50
102
RTVSPost2010PropOp42
 70
     1
102
RTVSPost2010Prop43
 90
        3
102
RTVSPost2010PropOp43
 70
     1
102
RTVSPost2010Prop44ColorIndex
 90
        5
102
RTVSPost2010Prop44ColorRGB
 90
      255
102
RTVSPost2010PropOp44
 70
     1
102
RTVSPost2010Prop45
280
     0
102
RTVSPost2010PropOp45
 70
     1
102
RTVSPost2010Prop46
 90
       50
102
RTVSPost2010PropOp46
 70
     1
102
RTVSPost2010Prop47
 90
       50
102
RTVSPost2010PropOp47
 70
     1
102
RTVSPost2010Prop48
 90
       50
102
RTVSPost2010PropOp48
 70
     1
102
RTVSPost2010Prop49
280
     0
102
RTVSPost2010PropOp49
 70
     1
102
RTVSPost2010Prop50
 90
       50
102
RTVSPost2010PropOp50
 70
     1
102
RTVSPost2010Prop51ColorIndex
 90
      256
102
RTVSPost2010Prop51ColorRGB
 90
-16777216
102
RTVSPost2010PropOp51
 70
     0
102
RTVSPost2010Prop52
140
1.0
102
RTVSPost2010PropOp52
 70
     0
102
RTVSPost2010Prop53
 90
        2
102
RTVSPost2010PropOp53
 70
     1
102
RTVSPost2010Prop54
  1
strokes_ogs.tif
102
RTVSPost2010PropOp54
 70
     1
102
RTVSPost2010Prop55
280
     0
102
RTVSPost2010PropOp55
 70
     1
102
RTVSPost2010Prop56
140
1.0
102
RTVSPost2010PropOp56
 70
     1
102
RTVSPost2010Prop57
140
1.0
102
RTVSPost2010PropOp57
 70
     1
102
RTVSPropertyOp0
 70
     1
102
RTVSPropertyOp1
 70
     1
102
RTVSPropertyOp2
 70
     1
102
RTVSPropertyOp3
 70
     1
102
RTVSPropertyOp4
 70
     1
102
RTVSPropertyOp5
 70
     1
102
RTVSPropertyOp6
 70
     1
102
RTVSPropertyOp7
 70
     1
102
RTVSPropertyOp8
 70
     1
102
RTVSPropertyOp9
 70
     1
102
RTVSPropertyOp10
 70
     1
102
RTVSPropertyOp11
 70
     1
102
RTVSPropertyOp12
 70
     1
102
RTVSPropertyOp13
 70
     1
102
RTVSPropertyOp14
 70
     1
102
RTVSPropertyOp15
 70
     1
102
RTVSPropertyOp16
 70
     1
102
RTVSPropertyOp17
 70
     1
102
RTVSPropertyOp18
 70
     1
102
RTVSPropertyOp19
 70
     1
102
RTVSPropertyOp20
 70
     1
102
RTVSPropertyOp21
 70
     1
102
RTVSPropertyOp22
 70
     1
102
RTVSPropertyOp23
 70
     1
102
RTVSPropertyOp24
 70
     1
102
RTVSPropertyOp25
 70
     1
102
RTVSPropertyOp26
 70
     1
102
RTVSPropertyOp27
 70
     1
102
RTVSPropertyOp28
 70
     1
102
RTVSPropertyOp29
 70
     1
102
RTVSPropertyOp30
 70
     1
102
RTVSPropertyOp31
 70
     1
102
RTVSPropertyOp32
 70
     1
102
RTVSPropertyOp33
 70
     1
102
RTVSPropertyOp34
 70
     1
102
RTVSPropertyOp35
 70
     1
102
RTVSPropertyOp36
 70
     1
102
RTVSPropertyOp37
 70
     1
102
RTVSPropertyOp38
 70
     1
102
RTVSPropertyOp39
 70
     1
102
RTVSPropertyOp40
 70
     1
102
RTVSPropertyOp41
 70
     1
102
RTVSPropertyOp42
 70
     1
102
RTVSPropertyOp43
 70
     1
102
RTVSPropertyOp44
 70
     1
102
RTVSPropertyOp45
 70
     1
102
RTVSPropertyOp46
 70
     1
102
RTVSPropertyOp47
 70
     1
102
RTVSPropertyOp48
 70
     1
102
RTVSPropertyOp49
 70
     1
102
RTVSPropertyOp50
 70
     1
102
RTVSPropertyOp51
 70
     0
102
RTVSPropertyOp52
 70
     0
102
RTVSPropertyOp53
 70
     1
102
RTVSPropertyOp54
 70
     1
102
RTVSPropertyOp55
 70
     1
102
RTVSPropertyOp56
 70
     1
102
RTVSPropertyOp57
 70
     1
102
RTVSPropertyOp58
 70
     1
102
RTVSPropertyOp59
 70
     1
102
RTVSPropertyOp60
 70
     1
102
RTVSPropertyOp61
 70
     1
102
RTVSPropertyOp62
 70
     1
  0
XRECORD
  5
A962
102
{ACAD_REACTORS
330
A961
102
}
330
A961
100
AcDbXrecord
280
     1
102
RTVSPost2010Prop28
280
     0
102
RTVSPost2010PropOp28
 70
     1
102
RTVSPost2010Prop29
280
     1
102
RTVSPost2010PropOp29
 70
     1
102
RTVSPost2010Prop30
280
     1
102
RTVSPost2010PropOp30
 70
     1
102
RTVSPost2010Prop31
280
     0
102
RTVSPost2010PropOp31
 70
     1
102
RTVSPost2010Prop32
280
     0
102
RTVSPost2010PropOp32
 70
     1
102
RTVSPost2010Prop33
280
     0
102
RTVSPost2010PropOp33
 70
     1
102
RTVSPost2010Prop34
280
     0
102
RTVSPost2010PropOp34
 70
     1
102
RTVSPost2010Prop35
280
     0
102
RTVSPost2010PropOp35
 70
     1
102
RTVSPost2010Prop36
280
     0
102
RTVSPost2010PropOp36
 70
     1
102
RTVSPost2010Prop37
 90
       50
102
RTVSPost2010PropOp37
 70
     1
102
RTVSPost2010Prop38
140
0.0
102
RTVSPost2010PropOp38
 70
     1
102
RTVSPost2010Prop39
140
1.0
102
RTVSPost2010PropOp39
 70
     1
102
RTVSPost2010Prop40
 90
        0
102
RTVSPost2010PropOp40
 70
     1
102
RTVSPost2010Prop41ColorIndex
 90
       18
102
RTVSPost2010Prop41ColorRGB
 90
        0
102
RTVSPost2010PropOp41
 70
     1
102
RTVSPost2010Prop42
 90
       50
102
RTVSPost2010PropOp42
 70
     1
102
RTVSPost2010Prop43
 90
        3
102
RTVSPost2010PropOp43
 70
     1
102
RTVSPost2010Prop44ColorIndex
 90
        5
102
RTVSPost2010Prop44ColorRGB
 90
      255
102
RTVSPost2010PropOp44
 70
     1
102
RTVSPost2010Prop45
280
     0
102
RTVSPost2010PropOp45
 70
     1
102
RTVSPost2010Prop46
 90
       50
102
RTVSPost2010PropOp46
 70
     1
102
RTVSPost2010Prop47
 90
       50
102
RTVSPost2010PropOp47
 70
     1
102
RTVSPost2010Prop48
 90
       50
102
RTVSPost2010PropOp48
 70
     1
102
RTVSPost2010Prop49
280
     0
102
RTVSPost2010PropOp49
 70
     1
102
RTVSPost2010Prop50
 90
       50
102
RTVSPost2010PropOp50
 70
     1
102
RTVSPost2010Prop51ColorIndex
 90
      256
102
RTVSPost2010Prop51ColorRGB
 90
-16777216
102
RTVSPost2010PropOp51
 70
     0
102
RTVSPost2010Prop52
140
1.0
102
RTVSPost2010PropOp52
 70
     0
102
RTVSPost2010Prop53
 90
        2
102
RTVSPost2010PropOp53
 70
     1
102
RTVSPost2010Prop54
  1
strokes_ogs.tif
102
RTVSPost2010PropOp54
 70
     1
102
RTVSPost2010Prop55
280
     0
102
RTVSPost2010PropOp55
 70
     1
102
RTVSPost2010Prop56
140
1.0
102
RTVSPost2010PropOp56
 70
     1
102
RTVSPost2010Prop57
140
1.0
102
RTVSPost2010PropOp57
 70
     1
102
RTVSPropertyOp0
 70
     1
102
RTVSPropertyOp1
 70
     1
102
RTVSPropertyOp2
 70
     1
102
RTVSPropertyOp3
 70
     1
102
RTVSPropertyOp4
 70
     1
102
RTVSPropertyOp5
 70
     1
102
RTVSPropertyOp6
 70
     1
102
RTVSPropertyOp7
 70
     1
102
RTVSPropertyOp8
 70
     1
102
RTVSPropertyOp9
 70
     1
102
RTVSPropertyOp10
 70
     1
102
RTVSPropertyOp11
 70
     1
102
RTVSPropertyOp12
 70
     1
102
RTVSPropertyOp13
 70
     1
102
RTVSPropertyOp14
 70
     1
102
RTVSPropertyOp15
 70
     1
102
RTVSPropertyOp16
 70
     1
102
RTVSPropertyOp17
 70
     1
102
RTVSPropertyOp18
 70
     1
102
RTVSPropertyOp19
 70
     1
102
RTVSPropertyOp20
 70
     1
102
RTVSPropertyOp21
 70
     1
102
RTVSPropertyOp22
 70
     1
102
RTVSPropertyOp23
 70
     1
102
RTVSPropertyOp24
 70
     1
102
RTVSPropertyOp25
 70
     1
102
RTVSPropertyOp26
 70
     1
102
RTVSPropertyOp27
 70
     1
102
RTVSPropertyOp28
 70
     1
102
RTVSPropertyOp29
 70
     1
102
RTVSPropertyOp30
 70
     1
102
RTVSPropertyOp31
 70
     1
102
RTVSPropertyOp32
 70
     1
102
RTVSPropertyOp33
 70
     1
102
RTVSPropertyOp34
 70
     1
102
RTVSPropertyOp35
 70
     1
102
RTVSPropertyOp36
 70
     1
102
RTVSPropertyOp37
 70
     1
102
RTVSPropertyOp38
 70
     1
102
RTVSPropertyOp39
 70
     1
102
RTVSPropertyOp40
 70
     1
102
RTVSPropertyOp41
 70
     1
102
RTVSPropertyOp42
 70
     1
102
RTVSPropertyOp43
 70
     1
102
RTVSPropertyOp44
 70
     1
102
RTVSPropertyOp45
 70
     1
102
RTVSPropertyOp46
 70
     1
102
RTVSPropertyOp47
 70
     1
102
RTVSPropertyOp48
 70
     1
102
RTVSPropertyOp49
 70
     1
102
RTVSPropertyOp50
 70
     1
102
RTVSPropertyOp51
 70
     0
102
RTVSPropertyOp52
 70
     0
102
RTVSPropertyOp53
 70
     1
102
RTVSPropertyOp54
 70
     1
102
RTVSPropertyOp55
 70
     1
102
RTVSPropertyOp56
 70
     1
102
RTVSPropertyOp57
 70
     1
102
RTVSPropertyOp58
 70
     1
102
RTVSPropertyOp59
 70
     1
102
RTVSPropertyOp60
 70
     1
102
RTVSPropertyOp61
 70
     1
102
RTVSPropertyOp62
 70
     1
  0
XRECORD
  5
A970
102
{ACAD_REACTORS
330
A96F
102
}
330
A96F
100
AcDbXrecord
280
     1
102
RTVSPost2010Prop28
280
     0
102
RTVSPost2010PropOp28
 70
     1
102
RTVSPost2010Prop29
280
     1
102
RTVSPost2010PropOp29
 70
     1
102
RTVSPost2010Prop30
280
     1
102
RTVSPost2010PropOp30
 70
     1
102
RTVSPost2010Prop31
280
     0
102
RTVSPost2010PropOp31
 70
     1
102
RTVSPost2010Prop32
280
     0
102
RTVSPost2010PropOp32
 70
     1
102
RTVSPost2010Prop33
280
     0
102
RTVSPost2010PropOp33
 70
     1
102
RTVSPost2010Prop34
280
     0
102
RTVSPost2010PropOp34
 70
     1
102
RTVSPost2010Prop35
280
     0
102
RTVSPost2010PropOp35
 70
     1
102
RTVSPost2010Prop36
280
     0
102
RTVSPost2010PropOp36
 70
     1
102
RTVSPost2010Prop37
 90
       50
102
RTVSPost2010PropOp37
 70
     1
102
RTVSPost2010Prop38
140
0.0
102
RTVSPost2010PropOp38
 70
     1
102
RTVSPost2010Prop39
140
1.0
102
RTVSPost2010PropOp39
 70
     1
102
RTVSPost2010Prop40
 90
        0
102
RTVSPost2010PropOp40
 70
     1
102
RTVSPost2010Prop41ColorIndex
 90
       18
102
RTVSPost2010Prop41ColorRGB
 90
        0
102
RTVSPost2010PropOp41
 70
     1
102
RTVSPost2010Prop42
 90
       50
102
RTVSPost2010PropOp42
 70
     1
102
RTVSPost2010Prop43
 90
        3
102
RTVSPost2010PropOp43
 70
     1
102
RTVSPost2010Prop44ColorIndex
 90
        5
102
RTVSPost2010Prop44ColorRGB
 90
      255
102
RTVSPost2010PropOp44
 70
     1
102
RTVSPost2010Prop45
280
     0
102
RTVSPost2010PropOp45
 70
     1
102
RTVSPost2010Prop46
 90
       50
102
RTVSPost2010PropOp46
 70
     1
102
RTVSPost2010Prop47
 90
       50
102
RTVSPost2010PropOp47
 70
     1
102
RTVSPost2010Prop48
 90
       50
102
RTVSPost2010PropOp48
 70
     1
102
RTVSPost2010Prop49
280
     0
102
RTVSPost2010PropOp49
 70
     1
102
RTVSPost2010Prop50
 90
       50
102
RTVSPost2010PropOp50
 70
     1
102
RTVSPost2010Prop51ColorIndex
 90
      256
102
RTVSPost2010Prop51ColorRGB
 90
-16777216
102
RTVSPost2010PropOp51
 70
     0
102
RTVSPost2010Prop52
140
1.0
102
RTVSPost2010PropOp52
 70
     0
102
RTVSPost2010Prop53
 90
        2
102
RTVSPost2010PropOp53
 70
     1
102
RTVSPost2010Prop54
  1
strokes_ogs.tif
102
RTVSPost2010PropOp54
 70
     1
102
RTVSPost2010Prop55
280
     0
102
RTVSPost2010PropOp55
 70
     1
102
RTVSPost2010Prop56
140
1.0
102
RTVSPost2010PropOp56
 70
     1
102
RTVSPost2010Prop57
140
1.0
102
RTVSPost2010PropOp57
 70
     1
102
RTVSPropertyOp0
 70
     1
102
RTVSPropertyOp1
 70
     1
102
RTVSPropertyOp2
 70
     1
102
RTVSPropertyOp3
 70
     1
102
RTVSPropertyOp4
 70
     1
102
RTVSPropertyOp5
 70
     1
102
RTVSPropertyOp6
 70
     1
102
RTVSPropertyOp7
 70
     1
102
RTVSPropertyOp8
 70
     1
102
RTVSPropertyOp9
 70
     1
102
RTVSPropertyOp10
 70
     1
102
RTVSPropertyOp11
 70
     1
102
RTVSPropertyOp12
 70
     1
102
RTVSPropertyOp13
 70
     1
102
RTVSPropertyOp14
 70
     1
102
RTVSPropertyOp15
 70
     1
102
RTVSPropertyOp16
 70
     1
102
RTVSPropertyOp17
 70
     1
102
RTVSPropertyOp18
 70
     1
102
RTVSPropertyOp19
 70
     1
102
RTVSPropertyOp20
 70
     1
102
RTVSPropertyOp21
 70
     1
102
RTVSPropertyOp22
 70
     1
102
RTVSPropertyOp23
 70
     1
102
RTVSPropertyOp24
 70
     1
102
RTVSPropertyOp25
 70
     1
102
RTVSPropertyOp26
 70
     1
102
RTVSPropertyOp27
 70
     1
102
RTVSPropertyOp28
 70
     1
102
RTVSPropertyOp29
 70
     1
102
RTVSPropertyOp30
 70
     1
102
RTVSPropertyOp31
 70
     1
102
RTVSPropertyOp32
 70
     1
102
RTVSPropertyOp33
 70
     1
102
RTVSPropertyOp34
 70
     1
102
RTVSPropertyOp35
 70
     1
102
RTVSPropertyOp36
 70
     1
102
RTVSPropertyOp37
 70
     1
102
RTVSPropertyOp38
 70
     1
102
RTVSPropertyOp39
 70
     1
102
RTVSPropertyOp40
 70
     1
102
RTVSPropertyOp41
 70
     1
102
RTVSPropertyOp42
 70
     1
102
RTVSPropertyOp43
 70
     1
102
RTVSPropertyOp44
 70
     1
102
RTVSPropertyOp45
 70
     1
102
RTVSPropertyOp46
 70
     1
102
RTVSPropertyOp47
 70
     1
102
RTVSPropertyOp48
 70
     1
102
RTVSPropertyOp49
 70
     1
102
RTVSPropertyOp50
 70
     1
102
RTVSPropertyOp51
 70
     0
102
RTVSPropertyOp52
 70
     0
102
RTVSPropertyOp53
 70
     1
102
RTVSPropertyOp54
 70
     1
102
RTVSPropertyOp55
 70
     1
102
RTVSPropertyOp56
 70
     1
102
RTVSPropertyOp57
 70
     1
102
RTVSPropertyOp58
 70
     1
102
RTVSPropertyOp59
 70
     1
102
RTVSPropertyOp60
 70
     1
102
RTVSPropertyOp61
 70
     1
102
RTVSPropertyOp62
 70
     1
  0
XRECORD
  5
A978
102
{ACAD_REACTORS
330
A977
102
}
330
A977
100
AcDbXrecord
280
     1
102
RTVSPost2010Prop28
280
     0
102
RTVSPost2010PropOp28
 70
     1
102
RTVSPost2010Prop29
280
     1
102
RTVSPost2010PropOp29
 70
     1
102
RTVSPost2010Prop30
280
     1
102
RTVSPost2010PropOp30
 70
     1
102
RTVSPost2010Prop31
280
     0
102
RTVSPost2010PropOp31
 70
     1
102
RTVSPost2010Prop32
280
     0
102
RTVSPost2010PropOp32
 70
     1
102
RTVSPost2010Prop33
280
     0
102
RTVSPost2010PropOp33
 70
     1
102
RTVSPost2010Prop34
280
     0
102
RTVSPost2010PropOp34
 70
     1
102
RTVSPost2010Prop35
280
     0
102
RTVSPost2010PropOp35
 70
     1
102
RTVSPost2010Prop36
280
     0
102
RTVSPost2010PropOp36
 70
     1
102
RTVSPost2010Prop37
 90
       50
102
RTVSPost2010PropOp37
 70
     1
102
RTVSPost2010Prop38
140
0.0
102
RTVSPost2010PropOp38
 70
     1
102
RTVSPost2010Prop39
140
1.0
102
RTVSPost2010PropOp39
 70
     1
102
RTVSPost2010Prop40
 90
        0
102
RTVSPost2010PropOp40
 70
     1
102
RTVSPost2010Prop41ColorIndex
 90
       18
102
RTVSPost2010Prop41ColorRGB
 90
        0
102
RTVSPost2010PropOp41
 70
     1
102
RTVSPost2010Prop42
 90
       50
102
RTVSPost2010PropOp42
 70
     1
102
RTVSPost2010Prop43
 90
        3
102
RTVSPost2010PropOp43
 70
     1
102
RTVSPost2010Prop44ColorIndex
 90
        5
102
RTVSPost2010Prop44ColorRGB
 90
      255
102
RTVSPost2010PropOp44
 70
     1
102
RTVSPost2010Prop45
280
     0
102
RTVSPost2010PropOp45
 70
     1
102
RTVSPost2010Prop46
 90
       50
102
RTVSPost2010PropOp46
 70
     1
102
RTVSPost2010Prop47
 90
       50
102
RTVSPost2010PropOp47
 70
     1
102
RTVSPost2010Prop48
 90
       50
102
RTVSPost2010PropOp48
 70
     1
102
RTVSPost2010Prop49
280
     0
102
RTVSPost2010PropOp49
 70
     1
102
RTVSPost2010Prop50
 90
       50
102
RTVSPost2010PropOp50
 70
     1
102
RTVSPost2010Prop51ColorIndex
 90
      256
102
RTVSPost2010Prop51ColorRGB
 90
-16777216
102
RTVSPost2010PropOp51
 70
     0
102
RTVSPost2010Prop52
140
1.0
102
RTVSPost2010PropOp52
 70
     0
102
RTVSPost2010Prop53
 90
        2
102
RTVSPost2010PropOp53
 70
     1
102
RTVSPost2010Prop54
  1
strokes_ogs.tif
102
RTVSPost2010PropOp54
 70
     1
102
RTVSPost2010Prop55
280
     0
102
RTVSPost2010PropOp55
 70
     1
102
RTVSPost2010Prop56
140
1.0
102
RTVSPost2010PropOp56
 70
     1
102
RTVSPost2010Prop57
140
1.0
102
RTVSPost2010PropOp57
 70
     1
102
RTVSPropertyOp0
 70
     1
102
RTVSPropertyOp1
 70
     1
102
RTVSPropertyOp2
 70
     1
102
RTVSPropertyOp3
 70
     1
102
RTVSPropertyOp4
 70
     1
102
RTVSPropertyOp5
 70
     1
102
RTVSPropertyOp6
 70
     1
102
RTVSPropertyOp7
 70
     1
102
RTVSPropertyOp8
 70
     1
102
RTVSPropertyOp9
 70
     1
102
RTVSPropertyOp10
 70
     1
102
RTVSPropertyOp11
 70
     1
102
RTVSPropertyOp12
 70
     1
102
RTVSPropertyOp13
 70
     1
102
RTVSPropertyOp14
 70
     1
102
RTVSPropertyOp15
 70
     1
102
RTVSPropertyOp16
 70
     1
102
RTVSPropertyOp17
 70
     1
102
RTVSPropertyOp18
 70
     1
102
RTVSPropertyOp19
 70
     1
102
RTVSPropertyOp20
 70
     1
102
RTVSPropertyOp21
 70
     1
102
RTVSPropertyOp22
 70
     1
102
RTVSPropertyOp23
 70
     1
102
RTVSPropertyOp24
 70
     1
102
RTVSPropertyOp25
 70
     1
102
RTVSPropertyOp26
 70
     1
102
RTVSPropertyOp27
 70
     1
102
RTVSPropertyOp28
 70
     1
102
RTVSPropertyOp29
 70
     1
102
RTVSPropertyOp30
 70
     1
102
RTVSPropertyOp31
 70
     1
102
RTVSPropertyOp32
 70
     1
102
RTVSPropertyOp33
 70
     1
102
RTVSPropertyOp34
 70
     1
102
RTVSPropertyOp35
 70
     1
102
RTVSPropertyOp36
 70
     1
102
RTVSPropertyOp37
 70
     1
102
RTVSPropertyOp38
 70
     1
102
RTVSPropertyOp39
 70
     1
102
RTVSPropertyOp40
 70
     1
102
RTVSPropertyOp41
 70
     1
102
RTVSPropertyOp42
 70
     1
102
RTVSPropertyOp43
 70
     1
102
RTVSPropertyOp44
 70
     1
102
RTVSPropertyOp45
 70
     1
102
RTVSPropertyOp46
 70
     1
102
RTVSPropertyOp47
 70
     1
102
RTVSPropertyOp48
 70
     1
102
RTVSPropertyOp49
 70
     1
102
RTVSPropertyOp50
 70
     1
102
RTVSPropertyOp51
 70
     0
102
RTVSPropertyOp52
 70
     0
102
RTVSPropertyOp53
 70
     1
102
RTVSPropertyOp54
 70
     1
102
RTVSPropertyOp55
 70
     1
102
RTVSPropertyOp56
 70
     1
102
RTVSPropertyOp57
 70
     1
102
RTVSPropertyOp58
 70
     1
102
RTVSPropertyOp59
 70
     1
102
RTVSPropertyOp60
 70
     1
102
RTVSPropertyOp61
 70
     1
102
RTVSPropertyOp62
 70
     1
  0
XRECORD
  5
A96A
102
{ACAD_REACTORS
330
A969
102
}
330
A969
100
AcDbXrecord
280
     1
102
RTVSPost2010Prop28
280
     0
102
RTVSPost2010PropOp28
 70
     1
102
RTVSPost2010Prop29
280
     1
102
RTVSPost2010PropOp29
 70
     1
102
RTVSPost2010Prop30
280
     1
102
RTVSPost2010PropOp30
 70
     1
102
RTVSPost2010Prop31
280
     0
102
RTVSPost2010PropOp31
 70
     1
102
RTVSPost2010Prop32
280
     0
102
RTVSPost2010PropOp32
 70
     1
102
RTVSPost2010Prop33
280
     0
102
RTVSPost2010PropOp33
 70
     1
102
RTVSPost2010Prop34
280
     0
102
RTVSPost2010PropOp34
 70
     1
102
RTVSPost2010Prop35
280
     0
102
RTVSPost2010PropOp35
 70
     1
102
RTVSPost2010Prop36
280
     0
102
RTVSPost2010PropOp36
 70
     1
102
RTVSPost2010Prop37
 90
       50
102
RTVSPost2010PropOp37
 70
     1
102
RTVSPost2010Prop38
140
0.0
102
RTVSPost2010PropOp38
 70
     1
102
RTVSPost2010Prop39
140
1.0
102
RTVSPost2010PropOp39
 70
     1
102
RTVSPost2010Prop40
 90
        0
102
RTVSPost2010PropOp40
 70
     1
102
RTVSPost2010Prop41ColorIndex
 90
       18
102
RTVSPost2010Prop41ColorRGB
 90
        0
102
RTVSPost2010PropOp41
 70
     1
102
RTVSPost2010Prop42
 90
       50
102
RTVSPost2010PropOp42
 70
     1
102
RTVSPost2010Prop43
 90
        3
102
RTVSPost2010PropOp43
 70
     1
102
RTVSPost2010Prop44ColorIndex
 90
        5
102
RTVSPost2010Prop44ColorRGB
 90
      255
102
RTVSPost2010PropOp44
 70
     1
102
RTVSPost2010Prop45
280
     0
102
RTVSPost2010PropOp45
 70
     1
102
RTVSPost2010Prop46
 90
       50
102
RTVSPost2010PropOp46
 70
     1
102
RTVSPost2010Prop47
 90
       50
102
RTVSPost2010PropOp47
 70
     1
102
RTVSPost2010Prop48
 90
       50
102
RTVSPost2010PropOp48
 70
     1
102
RTVSPost2010Prop49
280
     0
102
RTVSPost2010PropOp49
 70
     1
102
RTVSPost2010Prop50
 90
       50
102
RTVSPost2010PropOp50
 70
     1
102
RTVSPost2010Prop51ColorIndex
 90
      256
102
RTVSPost2010Prop51ColorRGB
 90
-16777216
102
RTVSPost2010PropOp51
 70
     0
102
RTVSPost2010Prop52
140
1.0
102
RTVSPost2010PropOp52
 70
     0
102
RTVSPost2010Prop53
 90
        2
102
RTVSPost2010PropOp53
 70
     1
102
RTVSPost2010Prop54
  1
strokes_ogs.tif
102
RTVSPost2010PropOp54
 70
     1
102
RTVSPost2010Prop55
280
     0
102
RTVSPost2010PropOp55
 70
     1
102
RTVSPost2010Prop56
140
1.0
102
RTVSPost2010PropOp56
 70
     1
102
RTVSPost2010Prop57
140
1.0
102
RTVSPost2010PropOp57
 70
     1
102
RTVSPropertyOp0
 70
     1
102
RTVSPropertyOp1
 70
     1
102
RTVSPropertyOp2
 70
     1
102
RTVSPropertyOp3
 70
     1
102
RTVSPropertyOp4
 70
     1
102
RTVSPropertyOp5
 70
     1
102
RTVSPropertyOp6
 70
     1
102
RTVSPropertyOp7
 70
     1
102
RTVSPropertyOp8
 70
     1
102
RTVSPropertyOp9
 70
     1
102
RTVSPropertyOp10
 70
     1
102
RTVSPropertyOp11
 70
     1
102
RTVSPropertyOp12
 70
     1
102
RTVSPropertyOp13
 70
     1
102
RTVSPropertyOp14
 70
     1
102
RTVSPropertyOp15
 70
     1
102
RTVSPropertyOp16
 70
     1
102
RTVSPropertyOp17
 70
     1
102
RTVSPropertyOp18
 70
     1
102
RTVSPropertyOp19
 70
     1
102
RTVSPropertyOp20
 70
     1
102
RTVSPropertyOp21
 70
     1
102
RTVSPropertyOp22
 70
     1
102
RTVSPropertyOp23
 70
     1
102
RTVSPropertyOp24
 70
     1
102
RTVSPropertyOp25
 70
     1
102
RTVSPropertyOp26
 70
     1
102
RTVSPropertyOp27
 70
     1
102
RTVSPropertyOp28
 70
     1
102
RTVSPropertyOp29
 70
     1
102
RTVSPropertyOp30
 70
     1
102
RTVSPropertyOp31
 70
     1
102
RTVSPropertyOp32
 70
     1
102
RTVSPropertyOp33
 70
     1
102
RTVSPropertyOp34
 70
     1
102
RTVSPropertyOp35
 70
     1
102
RTVSPropertyOp36
 70
     1
102
RTVSPropertyOp37
 70
     1
102
RTVSPropertyOp38
 70
     1
102
RTVSPropertyOp39
 70
     1
102
RTVSPropertyOp40
 70
     1
102
RTVSPropertyOp41
 70
     1
102
RTVSPropertyOp42
 70
     1
102
RTVSPropertyOp43
 70
     1
102
RTVSPropertyOp44
 70
     1
102
RTVSPropertyOp45
 70
     1
102
RTVSPropertyOp46
 70
     1
102
RTVSPropertyOp47
 70
     1
102
RTVSPropertyOp48
 70
     1
102
RTVSPropertyOp49
 70
     1
102
RTVSPropertyOp50
 70
     1
102
RTVSPropertyOp51
 70
     0
102
RTVSPropertyOp52
 70
     0
102
RTVSPropertyOp53
 70
     1
102
RTVSPropertyOp54
 70
     1
102
RTVSPropertyOp55
 70
     1
102
RTVSPropertyOp56
 70
     1
102
RTVSPropertyOp57
 70
     1
102
RTVSPropertyOp58
 70
     1
102
RTVSPropertyOp59
 70
     1
102
RTVSPropertyOp60
 70
     1
102
RTVSPropertyOp61
 70
     1
102
RTVSPropertyOp62
 70
     1
  0
XRECORD
  5
A96E
102
{ACAD_REACTORS
330
A96D
102
}
330
A96D
100
AcDbXrecord
280
     1
102
RTVSPost2010Prop28
280
     0
102
RTVSPost2010PropOp28
 70
     1
102
RTVSPost2010Prop29
280
     1
102
RTVSPost2010PropOp29
 70
     1
102
RTVSPost2010Prop30
280
     1
102
RTVSPost2010PropOp30
 70
     1
102
RTVSPost2010Prop31
280
     0
102
RTVSPost2010PropOp31
 70
     1
102
RTVSPost2010Prop32
280
     0
102
RTVSPost2010PropOp32
 70
     1
102
RTVSPost2010Prop33
280
     0
102
RTVSPost2010PropOp33
 70
     1
102
RTVSPost2010Prop34
280
     0
102
RTVSPost2010PropOp34
 70
     1
102
RTVSPost2010Prop35
280
     0
102
RTVSPost2010PropOp35
 70
     1
102
RTVSPost2010Prop36
280
     0
102
RTVSPost2010PropOp36
 70
     1
102
RTVSPost2010Prop37
 90
       50
102
RTVSPost2010PropOp37
 70
     1
102
RTVSPost2010Prop38
140
0.0
102
RTVSPost2010PropOp38
 70
     1
102
RTVSPost2010Prop39
140
1.0
102
RTVSPost2010PropOp39
 70
     1
102
RTVSPost2010Prop40
 90
        0
102
RTVSPost2010PropOp40
 70
     1
102
RTVSPost2010Prop41ColorIndex
 90
       18
102
RTVSPost2010Prop41ColorRGB
 90
        0
102
RTVSPost2010PropOp41
 70
     1
102
RTVSPost2010Prop42
 90
       50
102
RTVSPost2010PropOp42
 70
     1
102
RTVSPost2010Prop43
 90
        3
102
RTVSPost2010PropOp43
 70
     1
102
RTVSPost2010Prop44ColorIndex
 90
        5
102
RTVSPost2010Prop44ColorRGB
 90
      255
102
RTVSPost2010PropOp44
 70
     1
102
RTVSPost2010Prop45
280
     0
102
RTVSPost2010PropOp45
 70
     1
102
RTVSPost2010Prop46
 90
       50
102
RTVSPost2010PropOp46
 70
     1
102
RTVSPost2010Prop47
 90
       50
102
RTVSPost2010PropOp47
 70
     1
102
RTVSPost2010Prop48
 90
       50
102
RTVSPost2010PropOp48
 70
     1
102
RTVSPost2010Prop49
280
     0
102
RTVSPost2010PropOp49
 70
     1
102
RTVSPost2010Prop50
 90
       50
102
RTVSPost2010PropOp50
 70
     1
102
RTVSPost2010Prop51ColorIndex
 90
      256
102
RTVSPost2010Prop51ColorRGB
 90
-16777216
102
RTVSPost2010PropOp51
 70
     0
102
RTVSPost2010Prop52
140
1.0
102
RTVSPost2010PropOp52
 70
     0
102
RTVSPost2010Prop53
 90
        2
102
RTVSPost2010PropOp53
 70
     1
102
RTVSPost2010Prop54
  1
strokes_ogs.tif
102
RTVSPost2010PropOp54
 70
     1
102
RTVSPost2010Prop55
280
     0
102
RTVSPost2010PropOp55
 70
     1
102
RTVSPost2010Prop56
140
1.0
102
RTVSPost2010PropOp56
 70
     1
102
RTVSPost2010Prop57
140
1.0
102
RTVSPost2010PropOp57
 70
     1
102
RTVSPropertyOp0
 70
     1
102
RTVSPropertyOp1
 70
     1
102
RTVSPropertyOp2
 70
     1
102
RTVSPropertyOp3
 70
     1
102
RTVSPropertyOp4
 70
     1
102
RTVSPropertyOp5
 70
     1
102
RTVSPropertyOp6
 70
     1
102
RTVSPropertyOp7
 70
     1
102
RTVSPropertyOp8
 70
     1
102
RTVSPropertyOp9
 70
     1
102
RTVSPropertyOp10
 70
     1
102
RTVSPropertyOp11
 70
     1
102
RTVSPropertyOp12
 70
     1
102
RTVSPropertyOp13
 70
     1
102
RTVSPropertyOp14
 70
     1
102
RTVSPropertyOp15
 70
     1
102
RTVSPropertyOp16
 70
     1
102
RTVSPropertyOp17
 70
     1
102
RTVSPropertyOp18
 70
     1
102
RTVSPropertyOp19
 70
     1
102
RTVSPropertyOp20
 70
     1
102
RTVSPropertyOp21
 70
     1
102
RTVSPropertyOp22
 70
     1
102
RTVSPropertyOp23
 70
     1
102
RTVSPropertyOp24
 70
     1
102
RTVSPropertyOp25
 70
     1
102
RTVSPropertyOp26
 70
     1
102
RTVSPropertyOp27
 70
     1
102
RTVSPropertyOp28
 70
     1
102
RTVSPropertyOp29
 70
     1
102
RTVSPropertyOp30
 70
     1
102
RTVSPropertyOp31
 70
     1
102
RTVSPropertyOp32
 70
     1
102
RTVSPropertyOp33
 70
     1
102
RTVSPropertyOp34
 70
     1
102
RTVSPropertyOp35
 70
     1
102
RTVSPropertyOp36
 70
     1
102
RTVSPropertyOp37
 70
     1
102
RTVSPropertyOp38
 70
     1
102
RTVSPropertyOp39
 70
     1
102
RTVSPropertyOp40
 70
     1
102
RTVSPropertyOp41
 70
     1
102
RTVSPropertyOp42
 70
     1
102
RTVSPropertyOp43
 70
     1
102
RTVSPropertyOp44
 70
     1
102
RTVSPropertyOp45
 70
     1
102
RTVSPropertyOp46
 70
     1
102
RTVSPropertyOp47
 70
     1
102
RTVSPropertyOp48
 70
     1
102
RTVSPropertyOp49
 70
     1
102
RTVSPropertyOp50
 70
     1
102
RTVSPropertyOp51
 70
     0
102
RTVSPropertyOp52
 70
     0
102
RTVSPropertyOp53
 70
     1
102
RTVSPropertyOp54
 70
     1
102
RTVSPropertyOp55
 70
     1
102
RTVSPropertyOp56
 70
     1
102
RTVSPropertyOp57
 70
     1
102
RTVSPropertyOp58
 70
     1
102
RTVSPropertyOp59
 70
     1
102
RTVSPropertyOp60
 70
     1
102
RTVSPropertyOp61
 70
     1
102
RTVSPropertyOp62
 70
     1
  0
XRECORD
  5
A988
102
{ACAD_REACTORS
330
A987
102
}
330
A987
100
AcDbXrecord
280
     1
102
RTVSPost2010Prop28
280
     0
102
RTVSPost2010PropOp28
 70
     1
102
RTVSPost2010Prop29
280
     1
102
RTVSPost2010PropOp29
 70
     1
102
RTVSPost2010Prop30
280
     1
102
RTVSPost2010PropOp30
 70
     1
102
RTVSPost2010Prop31
280
     0
102
RTVSPost2010PropOp31
 70
     1
102
RTVSPost2010Prop32
280
     0
102
RTVSPost2010PropOp32
 70
     1
102
RTVSPost2010Prop33
280
     0
102
RTVSPost2010PropOp33
 70
     1
102
RTVSPost2010Prop34
280
     0
102
RTVSPost2010PropOp34
 70
     1
102
RTVSPost2010Prop35
280
     0
102
RTVSPost2010PropOp35
 70
     1
102
RTVSPost2010Prop36
280
     0
102
RTVSPost2010PropOp36
 70
     1
102
RTVSPost2010Prop37
 90
       50
102
RTVSPost2010PropOp37
 70
     0
102
RTVSPost2010Prop38
140
0.0
102
RTVSPost2010PropOp38
 70
     0
102
RTVSPost2010Prop39
140
1.0
102
RTVSPost2010PropOp39
 70
     0
102
RTVSPost2010Prop40
 90
        0
102
RTVSPost2010PropOp40
 70
     0
102
RTVSPost2010Prop41ColorIndex
 90
       18
102
RTVSPost2010Prop41ColorRGB
 90
        0
102
RTVSPost2010PropOp41
 70
     0
102
RTVSPost2010Prop42
 90
       50
102
RTVSPost2010PropOp42
 70
     0
102
RTVSPost2010Prop43
 90
        3
102
RTVSPost2010PropOp43
 70
     0
102
RTVSPost2010Prop44ColorIndex
 90
        5
102
RTVSPost2010Prop44ColorRGB
 90
      255
102
RTVSPost2010PropOp44
 70
     0
102
RTVSPost2010Prop45
280
     0
102
RTVSPost2010PropOp45
 70
     1
102
RTVSPost2010Prop46
 90
       50
102
RTVSPost2010PropOp46
 70
     0
102
RTVSPost2010Prop47
 90
       50
102
RTVSPost2010PropOp47
 70
     0
102
RTVSPost2010Prop48
 90
       50
102
RTVSPost2010PropOp48
 70
     0
102
RTVSPost2010Prop49
280
     0
102
RTVSPost2010PropOp49
 70
     1
102
RTVSPost2010Prop50
 90
       50
102
RTVSPost2010PropOp50
 70
     0
102
RTVSPost2010Prop51ColorIndex
 90
      256
102
RTVSPost2010Prop51ColorRGB
 90
-16777216
102
RTVSPost2010PropOp51
 70
     0
102
RTVSPost2010Prop52
140
1.0
102
RTVSPost2010PropOp52
 70
     0
102
RTVSPost2010Prop53
 90
        2
102
RTVSPost2010PropOp53
 70
     0
102
RTVSPost2010Prop54
  1
strokes_ogs.tif
102
RTVSPost2010PropOp54
 70
     0
102
RTVSPost2010Prop55
280
     0
102
RTVSPost2010PropOp55
 70
     1
102
RTVSPost2010Prop56
140
1.0
102
RTVSPost2010PropOp56
 70
     0
102
RTVSPost2010Prop57
140
1.0
102
RTVSPost2010PropOp57
 70
     0
102
RTVSPropertyOp0
 70
     0
102
RTVSPropertyOp1
 70
     0
102
RTVSPropertyOp2
 70
     0
102
RTVSPropertyOp3
 70
     0
102
RTVSPropertyOp4
 70
     0
102
RTVSPropertyOp5
 70
     0
102
RTVSPropertyOp6
 70
     0
102
RTVSPropertyOp7
 70
     0
102
RTVSPropertyOp8
 70
     0
102
RTVSPropertyOp9
 70
     0
102
RTVSPropertyOp10
 70
     0
102
RTVSPropertyOp11
 70
     0
102
RTVSPropertyOp12
 70
     0
102
RTVSPropertyOp13
 70
     0
102
RTVSPropertyOp14
 70
     2
102
RTVSPropertyOp15
 70
     0
102
RTVSPropertyOp16
 70
     0
102
RTVSPropertyOp17
 70
     0
102
RTVSPropertyOp18
 70
     0
102
RTVSPropertyOp19
 70
     0
102
RTVSPropertyOp20
 70
     0
102
RTVSPropertyOp21
 70
     0
102
RTVSPropertyOp22
 70
     0
102
RTVSPropertyOp23
 70
     0
102
RTVSPropertyOp24
 70
     0
102
RTVSPropertyOp25
 70
     0
102
RTVSPropertyOp26
 70
     0
102
RTVSPropertyOp27
 70
     0
102
RTVSPropertyOp28
 70
     1
102
RTVSPropertyOp29
 70
     1
102
RTVSPropertyOp30
 70
     1
102
RTVSPropertyOp31
 70
     1
102
RTVSPropertyOp32
 70
     1
102
RTVSPropertyOp33
 70
     1
102
RTVSPropertyOp34
 70
     1
102
RTVSPropertyOp35
 70
     1
102
RTVSPropertyOp36
 70
     1
102
RTVSPropertyOp37
 70
     0
102
RTVSPropertyOp38
 70
     0
102
RTVSPropertyOp39
 70
     0
102
RTVSPropertyOp40
 70
     0
102
RTVSPropertyOp41
 70
     0
102
RTVSPropertyOp42
 70
     0
102
RTVSPropertyOp43
 70
     0
102
RTVSPropertyOp44
 70
     0
102
RTVSPropertyOp45
 70
     1
102
RTVSPropertyOp46
 70
     0
102
RTVSPropertyOp47
 70
     0
102
RTVSPropertyOp48
 70
     0
102
RTVSPropertyOp49
 70
     1
102
RTVSPropertyOp50
 70
     0
102
RTVSPropertyOp51
 70
     0
102
RTVSPropertyOp52
 70
     0
102
RTVSPropertyOp53
 70
     0
102
RTVSPropertyOp54
 70
     0
102
RTVSPropertyOp55
 70
     1
102
RTVSPropertyOp56
 70
     0
102
RTVSPropertyOp57
 70
     0
102
RTVSPropertyOp58
 70
     0
102
RTVSPropertyOp59
 70
     0
102
RTVSPropertyOp60
 70
     0
102
RTVSPropertyOp61
 70
     0
102
RTVSPropertyOp62
 70
     0
  0
XRECORD
  5
A976
102
{ACAD_REACTORS
330
A975
102
}
330
A975
100
AcDbXrecord
280
     1
102
RTVSPost2010Prop28
280
     0
102
RTVSPost2010PropOp28
 70
     1
102
RTVSPost2010Prop29
280
     1
102
RTVSPost2010PropOp29
 70
     1
102
RTVSPost2010Prop30
280
     1
102
RTVSPost2010PropOp30
 70
     1
102
RTVSPost2010Prop31
280
     0
102
RTVSPost2010PropOp31
 70
     1
102
RTVSPost2010Prop32
280
     0
102
RTVSPost2010PropOp32
 70
     1
102
RTVSPost2010Prop33
280
     0
102
RTVSPost2010PropOp33
 70
     1
102
RTVSPost2010Prop34
280
     0
102
RTVSPost2010PropOp34
 70
     1
102
RTVSPost2010Prop35
280
     0
102
RTVSPost2010PropOp35
 70
     1
102
RTVSPost2010Prop36
280
     0
102
RTVSPost2010PropOp36
 70
     1
102
RTVSPost2010Prop37
 90
       50
102
RTVSPost2010PropOp37
 70
     1
102
RTVSPost2010Prop38
140
0.0
102
RTVSPost2010PropOp38
 70
     1
102
RTVSPost2010Prop39
140
1.0
102
RTVSPost2010PropOp39
 70
     1
102
RTVSPost2010Prop40
 90
        0
102
RTVSPost2010PropOp40
 70
     1
102
RTVSPost2010Prop41ColorIndex
 90
       18
102
RTVSPost2010Prop41ColorRGB
 90
        0
102
RTVSPost2010PropOp41
 70
     1
102
RTVSPost2010Prop42
 90
       50
102
RTVSPost2010PropOp42
 70
     1
102
RTVSPost2010Prop43
 90
        3
102
RTVSPost2010PropOp43
 70
     1
102
RTVSPost2010Prop44ColorIndex
 90
        5
102
RTVSPost2010Prop44ColorRGB
 90
      255
102
RTVSPost2010PropOp44
 70
     1
102
RTVSPost2010Prop45
280
     0
102
RTVSPost2010PropOp45
 70
     1
102
RTVSPost2010Prop46
 90
       50
102
RTVSPost2010PropOp46
 70
     1
102
RTVSPost2010Prop47
 90
       50
102
RTVSPost2010PropOp47
 70
     1
102
RTVSPost2010Prop48
 90
       50
102
RTVSPost2010PropOp48
 70
     1
102
RTVSPost2010Prop49
280
     0
102
RTVSPost2010PropOp49
 70
     1
102
RTVSPost2010Prop50
 90
       50
102
RTVSPost2010PropOp50
 70
     1
102
RTVSPost2010Prop51ColorIndex
 90
      256
102
RTVSPost2010Prop51ColorRGB
 90
-16777216
102
RTVSPost2010PropOp51
 70
     0
102
RTVSPost2010Prop52
140
1.0
102
RTVSPost2010PropOp52
 70
     0
102
RTVSPost2010Prop53
 90
        2
102
RTVSPost2010PropOp53
 70
     1
102
RTVSPost2010Prop54
  1
strokes_ogs.tif
102
RTVSPost2010PropOp54
 70
     1
102
RTVSPost2010Prop55
280
     0
102
RTVSPost2010PropOp55
 70
     1
102
RTVSPost2010Prop56
140
1.0
102
RTVSPost2010PropOp56
 70
     1
102
RTVSPost2010Prop57
140
1.0
102
RTVSPost2010PropOp57
 70
     1
102
RTVSPropertyOp0
 70
     1
102
RTVSPropertyOp1
 70
     1
102
RTVSPropertyOp2
 70
     1
102
RTVSPropertyOp3
 70
     1
102
RTVSPropertyOp4
 70
     1
102
RTVSPropertyOp5
 70
     1
102
RTVSPropertyOp6
 70
     1
102
RTVSPropertyOp7
 70
     1
102
RTVSPropertyOp8
 70
     1
102
RTVSPropertyOp9
 70
     1
102
RTVSPropertyOp10
 70
     1
102
RTVSPropertyOp11
 70
     1
102
RTVSPropertyOp12
 70
     1
102
RTVSPropertyOp13
 70
     1
102
RTVSPropertyOp14
 70
     1
102
RTVSPropertyOp15
 70
     1
102
RTVSPropertyOp16
 70
     1
102
RTVSPropertyOp17
 70
     1
102
RTVSPropertyOp18
 70
     1
102
RTVSPropertyOp19
 70
     1
102
RTVSPropertyOp20
 70
     1
102
RTVSPropertyOp21
 70
     1
102
RTVSPropertyOp22
 70
     1
102
RTVSPropertyOp23
 70
     1
102
RTVSPropertyOp24
 70
     1
102
RTVSPropertyOp25
 70
     1
102
RTVSPropertyOp26
 70
     1
102
RTVSPropertyOp27
 70
     1
102
RTVSPropertyOp28
 70
     1
102
RTVSPropertyOp29
 70
     1
102
RTVSPropertyOp30
 70
     1
102
RTVSPropertyOp31
 70
     1
102
RTVSPropertyOp32
 70
     1
102
RTVSPropertyOp33
 70
     1
102
RTVSPropertyOp34
 70
     1
102
RTVSPropertyOp35
 70
     1
102
RTVSPropertyOp36
 70
     1
102
RTVSPropertyOp37
 70
     1
102
RTVSPropertyOp38
 70
     1
102
RTVSPropertyOp39
 70
     1
102
RTVSPropertyOp40
 70
     1
102
RTVSPropertyOp41
 70
     1
102
RTVSPropertyOp42
 70
     1
102
RTVSPropertyOp43
 70
     1
102
RTVSPropertyOp44
 70
     1
102
RTVSPropertyOp45
 70
     1
102
RTVSPropertyOp46
 70
     1
102
RTVSPropertyOp47
 70
     1
102
RTVSPropertyOp48
 70
     1
102
RTVSPropertyOp49
 70
     1
102
RTVSPropertyOp50
 70
     1
102
RTVSPropertyOp51
 70
     0
102
RTVSPropertyOp52
 70
     0
102
RTVSPropertyOp53
 70
     1
102
RTVSPropertyOp54
 70
     1
102
RTVSPropertyOp55
 70
     1
102
RTVSPropertyOp56
 70
     1
102
RTVSPropertyOp57
 70
     1
102
RTVSPropertyOp58
 70
     1
102
RTVSPropertyOp59
 70
     1
102
RTVSPropertyOp60
 70
     1
102
RTVSPropertyOp61
 70
     1
102
RTVSPropertyOp62
 70
     1
  0
XRECORD
  5
A95A
102
{ACAD_REACTORS
330
A959
102
}
330
A959
100
AcDbXrecord
280
     1
102
RTVSPost2010Prop28
280
     0
102
RTVSPost2010PropOp28
 70
     1
102
RTVSPost2010Prop29
280
     1
102
RTVSPost2010PropOp29
 70
     1
102
RTVSPost2010Prop30
280
     1
102
RTVSPost2010PropOp30
 70
     1
102
RTVSPost2010Prop31
280
     0
102
RTVSPost2010PropOp31
 70
     1
102
RTVSPost2010Prop32
280
     0
102
RTVSPost2010PropOp32
 70
     1
102
RTVSPost2010Prop33
280
     0
102
RTVSPost2010PropOp33
 70
     1
102
RTVSPost2010Prop34
280
     0
102
RTVSPost2010PropOp34
 70
     1
102
RTVSPost2010Prop35
280
     0
102
RTVSPost2010PropOp35
 70
     1
102
RTVSPost2010Prop36
280
     0
102
RTVSPost2010PropOp36
 70
     1
102
RTVSPost2010Prop37
 90
       50
102
RTVSPost2010PropOp37
 70
     1
102
RTVSPost2010Prop38
140
0.0
102
RTVSPost2010PropOp38
 70
     1
102
RTVSPost2010Prop39
140
1.0
102
RTVSPost2010PropOp39
 70
     1
102
RTVSPost2010Prop40
 90
        0
102
RTVSPost2010PropOp40
 70
     1
102
RTVSPost2010Prop41ColorIndex
 90
       18
102
RTVSPost2010Prop41ColorRGB
 90
        0
102
RTVSPost2010PropOp41
 70
     1
102
RTVSPost2010Prop42
 90
       50
102
RTVSPost2010PropOp42
 70
     1
102
RTVSPost2010Prop43
 90
        3
102
RTVSPost2010PropOp43
 70
     1
102
RTVSPost2010Prop44ColorIndex
 90
        5
102
RTVSPost2010Prop44ColorRGB
 90
      255
102
RTVSPost2010PropOp44
 70
     1
102
RTVSPost2010Prop45
280
     0
102
RTVSPost2010PropOp45
 70
     1
102
RTVSPost2010Prop46
 90
       50
102
RTVSPost2010PropOp46
 70
     1
102
RTVSPost2010Prop47
 90
       50
102
RTVSPost2010PropOp47
 70
     1
102
RTVSPost2010Prop48
 90
       50
102
RTVSPost2010PropOp48
 70
     1
102
RTVSPost2010Prop49
280
     0
102
RTVSPost2010PropOp49
 70
     1
102
RTVSPost2010Prop50
 90
       50
102
RTVSPost2010PropOp50
 70
     1
102
RTVSPost2010Prop51ColorIndex
 90
      256
102
RTVSPost2010Prop51ColorRGB
 90
-16777216
102
RTVSPost2010PropOp51
 70
     0
102
RTVSPost2010Prop52
140
1.0
102
RTVSPost2010PropOp52
 70
     0
102
RTVSPost2010Prop53
 90
        2
102
RTVSPost2010PropOp53
 70
     1
102
RTVSPost2010Prop54
  1
strokes_ogs.tif
102
RTVSPost2010PropOp54
 70
     1
102
RTVSPost2010Prop55
280
     0
102
RTVSPost2010PropOp55
 70
     1
102
RTVSPost2010Prop56
140
1.0
102
RTVSPost2010PropOp56
 70
     1
102
RTVSPost2010Prop57
140
1.0
102
RTVSPost2010PropOp57
 70
     1
102
RTVSPropertyOp0
 70
     1
102
RTVSPropertyOp1
 70
     1
102
RTVSPropertyOp2
 70
     1
102
RTVSPropertyOp3
 70
     1
102
RTVSPropertyOp4
 70
     1
102
RTVSPropertyOp5
 70
     1
102
RTVSPropertyOp6
 70
     1
102
RTVSPropertyOp7
 70
     1
102
RTVSPropertyOp8
 70
     1
102
RTVSPropertyOp9
 70
     1
102
RTVSPropertyOp10
 70
     1
102
RTVSPropertyOp11
 70
     1
102
RTVSPropertyOp12
 70
     1
102
RTVSPropertyOp13
 70
     1
102
RTVSPropertyOp14
 70
     1
102
RTVSPropertyOp15
 70
     1
102
RTVSPropertyOp16
 70
     1
102
RTVSPropertyOp17
 70
     1
102
RTVSPropertyOp18
 70
     1
102
RTVSPropertyOp19
 70
     1
102
RTVSPropertyOp20
 70
     1
102
RTVSPropertyOp21
 70
     1
102
RTVSPropertyOp22
 70
     1
102
RTVSPropertyOp23
 70
     1
102
RTVSPropertyOp24
 70
     1
102
RTVSPropertyOp25
 70
     1
102
RTVSPropertyOp26
 70
     1
102
RTVSPropertyOp27
 70
     1
102
RTVSPropertyOp28
 70
     1
102
RTVSPropertyOp29
 70
     1
102
RTVSPropertyOp30
 70
     1
102
RTVSPropertyOp31
 70
     1
102
RTVSPropertyOp32
 70
     1
102
RTVSPropertyOp33
 70
     1
102
RTVSPropertyOp34
 70
     1
102
RTVSPropertyOp35
 70
     1
102
RTVSPropertyOp36
 70
     1
102
RTVSPropertyOp37
 70
     1
102
RTVSPropertyOp38
 70
     1
102
RTVSPropertyOp39
 70
     1
102
RTVSPropertyOp40
 70
     1
102
RTVSPropertyOp41
 70
     1
102
RTVSPropertyOp42
 70
     1
102
RTVSPropertyOp43
 70
     1
102
RTVSPropertyOp44
 70
     1
102
RTVSPropertyOp45
 70
     1
102
RTVSPropertyOp46
 70
     1
102
RTVSPropertyOp47
 70
     1
102
RTVSPropertyOp48
 70
     1
102
RTVSPropertyOp49
 70
     1
102
RTVSPropertyOp50
 70
     1
102
RTVSPropertyOp51
 70
     0
102
RTVSPropertyOp52
 70
     0
102
RTVSPropertyOp53
 70
     1
102
RTVSPropertyOp54
 70
     1
102
RTVSPropertyOp55
 70
     1
102
RTVSPropertyOp56
 70
     1
102
RTVSPropertyOp57
 70
     1
102
RTVSPropertyOp58
 70
     1
102
RTVSPropertyOp59
 70
     1
102
RTVSPropertyOp60
 70
     1
102
RTVSPropertyOp61
 70
     1
102
RTVSPropertyOp62
 70
     1
  0
XRECORD
  5
A95C
102
{ACAD_REACTORS
330
A95B
102
}
330
A95B
100
AcDbXrecord
280
     1
102
RTVSPost2010Prop28
280
     0
102
RTVSPost2010PropOp28
 70
     1
102
RTVSPost2010Prop29
280
     1
102
RTVSPost2010PropOp29
 70
     1
102
RTVSPost2010Prop30
280
     1
102
RTVSPost2010PropOp30
 70
     1
102
RTVSPost2010Prop31
280
     0
102
RTVSPost2010PropOp31
 70
     1
102
RTVSPost2010Prop32
280
     0
102
RTVSPost2010PropOp32
 70
     1
102
RTVSPost2010Prop33
280
     0
102
RTVSPost2010PropOp33
 70
     1
102
RTVSPost2010Prop34
280
     0
102
RTVSPost2010PropOp34
 70
     1
102
RTVSPost2010Prop35
280
     0
102
RTVSPost2010PropOp35
 70
     1
102
RTVSPost2010Prop36
280
     0
102
RTVSPost2010PropOp36
 70
     1
102
RTVSPost2010Prop37
 90
       50
102
RTVSPost2010PropOp37
 70
     1
102
RTVSPost2010Prop38
140
0.0
102
RTVSPost2010PropOp38
 70
     1
102
RTVSPost2010Prop39
140
1.0
102
RTVSPost2010PropOp39
 70
     1
102
RTVSPost2010Prop40
 90
        0
102
RTVSPost2010PropOp40
 70
     1
102
RTVSPost2010Prop41ColorIndex
 90
       18
102
RTVSPost2010Prop41ColorRGB
 90
        0
102
RTVSPost2010PropOp41
 70
     1
102
RTVSPost2010Prop42
 90
       50
102
RTVSPost2010PropOp42
 70
     1
102
RTVSPost2010Prop43
 90
        3
102
RTVSPost2010PropOp43
 70
     1
102
RTVSPost2010Prop44ColorIndex
 90
        5
102
RTVSPost2010Prop44ColorRGB
 90
      255
102
RTVSPost2010PropOp44
 70
     1
102
RTVSPost2010Prop45
280
     0
102
RTVSPost2010PropOp45
 70
     1
102
RTVSPost2010Prop46
 90
       50
102
RTVSPost2010PropOp46
 70
     1
102
RTVSPost2010Prop47
 90
       50
102
RTVSPost2010PropOp47
 70
     1
102
RTVSPost2010Prop48
 90
       50
102
RTVSPost2010PropOp48
 70
     1
102
RTVSPost2010Prop49
280
     0
102
RTVSPost2010PropOp49
 70
     1
102
RTVSPost2010Prop50
 90
       50
102
RTVSPost2010PropOp50
 70
     1
102
RTVSPost2010Prop51ColorIndex
 90
      256
102
RTVSPost2010Prop51ColorRGB
 90
-16777216
102
RTVSPost2010PropOp51
 70
     0
102
RTVSPost2010Prop52
140
1.0
102
RTVSPost2010PropOp52
 70
     0
102
RTVSPost2010Prop53
 90
        2
102
RTVSPost2010PropOp53
 70
     1
102
RTVSPost2010Prop54
  1
strokes_ogs.tif
102
RTVSPost2010PropOp54
 70
     1
102
RTVSPost2010Prop55
280
     0
102
RTVSPost2010PropOp55
 70
     1
102
RTVSPost2010Prop56
140
1.0
102
RTVSPost2010PropOp56
 70
     1
102
RTVSPost2010Prop57
140
1.0
102
RTVSPost2010PropOp57
 70
     1
102
RTVSPropertyOp0
 70
     1
102
RTVSPropertyOp1
 70
     1
102
RTVSPropertyOp2
 70
     1
102
RTVSPropertyOp3
 70
     1
102
RTVSPropertyOp4
 70
     1
102
RTVSPropertyOp5
 70
     1
102
RTVSPropertyOp6
 70
     1
102
RTVSPropertyOp7
 70
     1
102
RTVSPropertyOp8
 70
     1
102
RTVSPropertyOp9
 70
     1
102
RTVSPropertyOp10
 70
     1
102
RTVSPropertyOp11
 70
     1
102
RTVSPropertyOp12
 70
     1
102
RTVSPropertyOp13
 70
     1
102
RTVSPropertyOp14
 70
     1
102
RTVSPropertyOp15
 70
     1
102
RTVSPropertyOp16
 70
     1
102
RTVSPropertyOp17
 70
     1
102
RTVSPropertyOp18
 70
     1
102
RTVSPropertyOp19
 70
     1
102
RTVSPropertyOp20
 70
     1
102
RTVSPropertyOp21
 70
     1
102
RTVSPropertyOp22
 70
     1
102
RTVSPropertyOp23
 70
     1
102
RTVSPropertyOp24
 70
     1
102
RTVSPropertyOp25
 70
     1
102
RTVSPropertyOp26
 70
     1
102
RTVSPropertyOp27
 70
     1
102
RTVSPropertyOp28
 70
     1
102
RTVSPropertyOp29
 70
     1
102
RTVSPropertyOp30
 70
     1
102
RTVSPropertyOp31
 70
     1
102
RTVSPropertyOp32
 70
     1
102
RTVSPropertyOp33
 70
     1
102
RTVSPropertyOp34
 70
     1
102
RTVSPropertyOp35
 70
     1
102
RTVSPropertyOp36
 70
     1
102
RTVSPropertyOp37
 70
     1
102
RTVSPropertyOp38
 70
     1
102
RTVSPropertyOp39
 70
     1
102
RTVSPropertyOp40
 70
     1
102
RTVSPropertyOp41
 70
     1
102
RTVSPropertyOp42
 70
     1
102
RTVSPropertyOp43
 70
     1
102
RTVSPropertyOp44
 70
     1
102
RTVSPropertyOp45
 70
     1
102
RTVSPropertyOp46
 70
     1
102
RTVSPropertyOp47
 70
     1
102
RTVSPropertyOp48
 70
     1
102
RTVSPropertyOp49
 70
     1
102
RTVSPropertyOp50
 70
     1
102
RTVSPropertyOp51
 70
     0
102
RTVSPropertyOp52
 70
     0
102
RTVSPropertyOp53
 70
     1
102
RTVSPropertyOp54
 70
     1
102
RTVSPropertyOp55
 70
     1
102
RTVSPropertyOp56
 70
     1
102
RTVSPropertyOp57
 70
     1
102
RTVSPropertyOp58
 70
     1
102
RTVSPropertyOp59
 70
     1
102
RTVSPropertyOp60
 70
     1
102
RTVSPropertyOp61
 70
     1
102
RTVSPropertyOp62
 70
     1
  0
XRECORD
  5
A95E
102
{ACAD_REACTORS
330
A95D
102
}
330
A95D
100
AcDbXrecord
280
     1
102
RTVSPost2010Prop28
280
     0
102
RTVSPost2010PropOp28
 70
     1
102
RTVSPost2010Prop29
280
     1
102
RTVSPost2010PropOp29
 70
     1
102
RTVSPost2010Prop30
280
     1
102
RTVSPost2010PropOp30
 70
     1
102
RTVSPost2010Prop31
280
     0
102
RTVSPost2010PropOp31
 70
     1
102
RTVSPost2010Prop32
280
     0
102
RTVSPost2010PropOp32
 70
     1
102
RTVSPost2010Prop33
280
     0
102
RTVSPost2010PropOp33
 70
     1
102
RTVSPost2010Prop34
280
     0
102
RTVSPost2010PropOp34
 70
     1
102
RTVSPost2010Prop35
280
     0
102
RTVSPost2010PropOp35
 70
     1
102
RTVSPost2010Prop36
280
     0
102
RTVSPost2010PropOp36
 70
     1
102
RTVSPost2010Prop37
 90
       50
102
RTVSPost2010PropOp37
 70
     1
102
RTVSPost2010Prop38
140
0.0
102
RTVSPost2010PropOp38
 70
     1
102
RTVSPost2010Prop39
140
1.0
102
RTVSPost2010PropOp39
 70
     1
102
RTVSPost2010Prop40
 90
        0
102
RTVSPost2010PropOp40
 70
     1
102
RTVSPost2010Prop41ColorIndex
 90
       18
102
RTVSPost2010Prop41ColorRGB
 90
        0
102
RTVSPost2010PropOp41
 70
     1
102
RTVSPost2010Prop42
 90
       50
102
RTVSPost2010PropOp42
 70
     1
102
RTVSPost2010Prop43
 90
        3
102
RTVSPost2010PropOp43
 70
     1
102
RTVSPost2010Prop44ColorIndex
 90
        5
102
RTVSPost2010Prop44ColorRGB
 90
      255
102
RTVSPost2010PropOp44
 70
     1
102
RTVSPost2010Prop45
280
     0
102
RTVSPost2010PropOp45
 70
     1
102
RTVSPost2010Prop46
 90
       50
102
RTVSPost2010PropOp46
 70
     1
102
RTVSPost2010Prop47
 90
       50
102
RTVSPost2010PropOp47
 70
     1
102
RTVSPost2010Prop48
 90
       50
102
RTVSPost2010PropOp48
 70
     1
102
RTVSPost2010Prop49
280
     0
102
RTVSPost2010PropOp49
 70
     1
102
RTVSPost2010Prop50
 90
       50
102
RTVSPost2010PropOp50
 70
     1
102
RTVSPost2010Prop51ColorIndex
 90
      256
102
RTVSPost2010Prop51ColorRGB
 90
-16777216
102
RTVSPost2010PropOp51
 70
     0
102
RTVSPost2010Prop52
140
1.0
102
RTVSPost2010PropOp52
 70
     0
102
RTVSPost2010Prop53
 90
        2
102
RTVSPost2010PropOp53
 70
     1
102
RTVSPost2010Prop54
  1
strokes_ogs.tif
102
RTVSPost2010PropOp54
 70
     1
102
RTVSPost2010Prop55
280
     0
102
RTVSPost2010PropOp55
 70
     1
102
RTVSPost2010Prop56
140
1.0
102
RTVSPost2010PropOp56
 70
     1
102
RTVSPost2010Prop57
140
1.0
102
RTVSPost2010PropOp57
 70
     1
102
RTVSPropertyOp0
 70
     1
102
RTVSPropertyOp1
 70
     1
102
RTVSPropertyOp2
 70
     1
102
RTVSPropertyOp3
 70
     1
102
RTVSPropertyOp4
 70
     1
102
RTVSPropertyOp5
 70
     1
102
RTVSPropertyOp6
 70
     1
102
RTVSPropertyOp7
 70
     1
102
RTVSPropertyOp8
 70
     1
102
RTVSPropertyOp9
 70
     1
102
RTVSPropertyOp10
 70
     1
102
RTVSPropertyOp11
 70
     1
102
RTVSPropertyOp12
 70
     1
102
RTVSPropertyOp13
 70
     1
102
RTVSPropertyOp14
 70
     1
102
RTVSPropertyOp15
 70
     1
102
RTVSPropertyOp16
 70
     1
102
RTVSPropertyOp17
 70
     1
102
RTVSPropertyOp18
 70
     1
102
RTVSPropertyOp19
 70
     1
102
RTVSPropertyOp20
 70
     1
102
RTVSPropertyOp21
 70
     1
102
RTVSPropertyOp22
 70
     1
102
RTVSPropertyOp23
 70
     1
102
RTVSPropertyOp24
 70
     1
102
RTVSPropertyOp25
 70
     1
102
RTVSPropertyOp26
 70
     1
102
RTVSPropertyOp27
 70
     1
102
RTVSPropertyOp28
 70
     1
102
RTVSPropertyOp29
 70
     1
102
RTVSPropertyOp30
 70
     1
102
RTVSPropertyOp31
 70
     1
102
RTVSPropertyOp32
 70
     1
102
RTVSPropertyOp33
 70
     1
102
RTVSPropertyOp34
 70
     1
102
RTVSPropertyOp35
 70
     1
102
RTVSPropertyOp36
 70
     1
102
RTVSPropertyOp37
 70
     1
102
RTVSPropertyOp38
 70
     1
102
RTVSPropertyOp39
 70
     1
102
RTVSPropertyOp40
 70
     1
102
RTVSPropertyOp41
 70
     1
102
RTVSPropertyOp42
 70
     1
102
RTVSPropertyOp43
 70
     1
102
RTVSPropertyOp44
 70
     1
102
RTVSPropertyOp45
 70
     1
102
RTVSPropertyOp46
 70
     1
102
RTVSPropertyOp47
 70
     1
102
RTVSPropertyOp48
 70
     1
102
RTVSPropertyOp49
 70
     1
102
RTVSPropertyOp50
 70
     1
102
RTVSPropertyOp51
 70
     0
102
RTVSPropertyOp52
 70
     0
102
RTVSPropertyOp53
 70
     1
102
RTVSPropertyOp54
 70
     1
102
RTVSPropertyOp55
 70
     1
102
RTVSPropertyOp56
 70
     1
102
RTVSPropertyOp57
 70
     1
102
RTVSPropertyOp58
 70
     1
102
RTVSPropertyOp59
 70
     1
102
RTVSPropertyOp60
 70
     1
102
RTVSPropertyOp61
 70
     1
102
RTVSPropertyOp62
 70
     1
  0
XRECORD
  5
A960
102
{ACAD_REACTORS
330
A95F
102
}
330
A95F
100
AcDbXrecord
280
     1
102
RTVSPost2010Prop28
280
     0
102
RTVSPost2010PropOp28
 70
     1
102
RTVSPost2010Prop29
280
     1
102
RTVSPost2010PropOp29
 70
     1
102
RTVSPost2010Prop30
280
     1
102
RTVSPost2010PropOp30
 70
     1
102
RTVSPost2010Prop31
280
     0
102
RTVSPost2010PropOp31
 70
     1
102
RTVSPost2010Prop32
280
     0
102
RTVSPost2010PropOp32
 70
     1
102
RTVSPost2010Prop33
280
     0
102
RTVSPost2010PropOp33
 70
     1
102
RTVSPost2010Prop34
280
     0
102
RTVSPost2010PropOp34
 70
     1
102
RTVSPost2010Prop35
280
     0
102
RTVSPost2010PropOp35
 70
     1
102
RTVSPost2010Prop36
280
     0
102
RTVSPost2010PropOp36
 70
     1
102
RTVSPost2010Prop37
 90
       50
102
RTVSPost2010PropOp37
 70
     1
102
RTVSPost2010Prop38
140
0.0
102
RTVSPost2010PropOp38
 70
     1
102
RTVSPost2010Prop39
140
1.0
102
RTVSPost2010PropOp39
 70
     1
102
RTVSPost2010Prop40
 90
        0
102
RTVSPost2010PropOp40
 70
     1
102
RTVSPost2010Prop41ColorIndex
 90
       18
102
RTVSPost2010Prop41ColorRGB
 90
        0
102
RTVSPost2010PropOp41
 70
     1
102
RTVSPost2010Prop42
 90
       50
102
RTVSPost2010PropOp42
 70
     1
102
RTVSPost2010Prop43
 90
        3
102
RTVSPost2010PropOp43
 70
     1
102
RTVSPost2010Prop44ColorIndex
 90
        5
102
RTVSPost2010Prop44ColorRGB
 90
      255
102
RTVSPost2010PropOp44
 70
     1
102
RTVSPost2010Prop45
280
     0
102
RTVSPost2010PropOp45
 70
     1
102
RTVSPost2010Prop46
 90
       50
102
RTVSPost2010PropOp46
 70
     1
102
RTVSPost2010Prop47
 90
       50
102
RTVSPost2010PropOp47
 70
     1
102
RTVSPost2010Prop48
 90
       50
102
RTVSPost2010PropOp48
 70
     1
102
RTVSPost2010Prop49
280
     0
102
RTVSPost2010PropOp49
 70
     1
102
RTVSPost2010Prop50
 90
       50
102
RTVSPost2010PropOp50
 70
     1
102
RTVSPost2010Prop51ColorIndex
 90
      256
102
RTVSPost2010Prop51ColorRGB
 90
-16777216
102
RTVSPost2010PropOp51
 70
     0
102
RTVSPost2010Prop52
140
1.0
102
RTVSPost2010PropOp52
 70
     0
102
RTVSPost2010Prop53
 90
        2
102
RTVSPost2010PropOp53
 70
     1
102
RTVSPost2010Prop54
  1
strokes_ogs.tif
102
RTVSPost2010PropOp54
 70
     1
102
RTVSPost2010Prop55
280
     0
102
RTVSPost2010PropOp55
 70
     1
102
RTVSPost2010Prop56
140
1.0
102
RTVSPost2010PropOp56
 70
     1
102
RTVSPost2010Prop57
140
1.0
102
RTVSPost2010PropOp57
 70
     1
102
RTVSPropertyOp0
 70
     1
102
RTVSPropertyOp1
 70
     1
102
RTVSPropertyOp2
 70
     1
102
RTVSPropertyOp3
 70
     1
102
RTVSPropertyOp4
 70
     1
102
RTVSPropertyOp5
 70
     1
102
RTVSPropertyOp6
 70
     1
102
RTVSPropertyOp7
 70
     1
102
RTVSPropertyOp8
 70
     1
102
RTVSPropertyOp9
 70
     1
102
RTVSPropertyOp10
 70
     1
102
RTVSPropertyOp11
 70
     1
102
RTVSPropertyOp12
 70
     1
102
RTVSPropertyOp13
 70
     1
102
RTVSPropertyOp14
 70
     1
102
RTVSPropertyOp15
 70
     1
102
RTVSPropertyOp16
 70
     1
102
RTVSPropertyOp17
 70
     1
102
RTVSPropertyOp18
 70
     1
102
RTVSPropertyOp19
 70
     1
102
RTVSPropertyOp20
 70
     1
102
RTVSPropertyOp21
 70
     1
102
RTVSPropertyOp22
 70
     1
102
RTVSPropertyOp23
 70
     1
102
RTVSPropertyOp24
 70
     1
102
RTVSPropertyOp25
 70
     1
102
RTVSPropertyOp26
 70
     1
102
RTVSPropertyOp27
 70
     1
102
RTVSPropertyOp28
 70
     1
102
RTVSPropertyOp29
 70
     1
102
RTVSPropertyOp30
 70
     1
102
RTVSPropertyOp31
 70
     1
102
RTVSPropertyOp32
 70
     1
102
RTVSPropertyOp33
 70
     1
102
RTVSPropertyOp34
 70
     1
102
RTVSPropertyOp35
 70
     1
102
RTVSPropertyOp36
 70
     1
102
RTVSPropertyOp37
 70
     1
102
RTVSPropertyOp38
 70
     1
102
RTVSPropertyOp39
 70
     1
102
RTVSPropertyOp40
 70
     1
102
RTVSPropertyOp41
 70
     1
102
RTVSPropertyOp42
 70
     1
102
RTVSPropertyOp43
 70
     1
102
RTVSPropertyOp44
 70
     1
102
RTVSPropertyOp45
 70
     1
102
RTVSPropertyOp46
 70
     1
102
RTVSPropertyOp47
 70
     1
102
RTVSPropertyOp48
 70
     1
102
RTVSPropertyOp49
 70
     1
102
RTVSPropertyOp50
 70
     1
102
RTVSPropertyOp51
 70
     0
102
RTVSPropertyOp52
 70
     0
102
RTVSPropertyOp53
 70
     1
102
RTVSPropertyOp54
 70
     1
102
RTVSPropertyOp55
 70
     1
102
RTVSPropertyOp56
 70
     1
102
RTVSPropertyOp57
 70
     1
102
RTVSPropertyOp58
 70
     1
102
RTVSPropertyOp59
 70
     1
102
RTVSPropertyOp60
 70
     1
102
RTVSPropertyOp61
 70
     1
102
RTVSPropertyOp62
 70
     1
  0
XRECORD
  5
A968
102
{ACAD_REACTORS
330
A967
102
}
330
A967
100
AcDbXrecord
280
     1
102
RTVSPost2010Prop28
280
     0
102
RTVSPost2010PropOp28
 70
     1
102
RTVSPost2010Prop29
280
     1
102
RTVSPost2010PropOp29
 70
     1
102
RTVSPost2010Prop30
280
     1
102
RTVSPost2010PropOp30
 70
     1
102
RTVSPost2010Prop31
280
     0
102
RTVSPost2010PropOp31
 70
     1
102
RTVSPost2010Prop32
280
     0
102
RTVSPost2010PropOp32
 70
     1
102
RTVSPost2010Prop33
280
     0
102
RTVSPost2010PropOp33
 70
     1
102
RTVSPost2010Prop34
280
     0
102
RTVSPost2010PropOp34
 70
     1
102
RTVSPost2010Prop35
280
     0
102
RTVSPost2010PropOp35
 70
     1
102
RTVSPost2010Prop36
280
     0
102
RTVSPost2010PropOp36
 70
     1
102
RTVSPost2010Prop37
 90
       50
102
RTVSPost2010PropOp37
 70
     1
102
RTVSPost2010Prop38
140
0.0
102
RTVSPost2010PropOp38
 70
     1
102
RTVSPost2010Prop39
140
1.0
102
RTVSPost2010PropOp39
 70
     1
102
RTVSPost2010Prop40
 90
        0
102
RTVSPost2010PropOp40
 70
     1
102
RTVSPost2010Prop41ColorIndex
 90
       18
102
RTVSPost2010Prop41ColorRGB
 90
        0
102
RTVSPost2010PropOp41
 70
     1
102
RTVSPost2010Prop42
 90
       50
102
RTVSPost2010PropOp42
 70
     1
102
RTVSPost2010Prop43
 90
        3
102
RTVSPost2010PropOp43
 70
     1
102
RTVSPost2010Prop44ColorIndex
 90
        5
102
RTVSPost2010Prop44ColorRGB
 90
      255
102
RTVSPost2010PropOp44
 70
     1
102
RTVSPost2010Prop45
280
     0
102
RTVSPost2010PropOp45
 70
     1
102
RTVSPost2010Prop46
 90
       50
102
RTVSPost2010PropOp46
 70
     1
102
RTVSPost2010Prop47
 90
       50
102
RTVSPost2010PropOp47
 70
     1
102
RTVSPost2010Prop48
 90
       50
102
RTVSPost2010PropOp48
 70
     1
102
RTVSPost2010Prop49
280
     0
102
RTVSPost2010PropOp49
 70
     1
102
RTVSPost2010Prop50
 90
       50
102
RTVSPost2010PropOp50
 70
     1
102
RTVSPost2010Prop51ColorIndex
 90
      256
102
RTVSPost2010Prop51ColorRGB
 90
-16777216
102
RTVSPost2010PropOp51
 70
     0
102
RTVSPost2010Prop52
140
1.0
102
RTVSPost2010PropOp52
 70
     0
102
RTVSPost2010Prop53
 90
        2
102
RTVSPost2010PropOp53
 70
     1
102
RTVSPost2010Prop54
  1
strokes_ogs.tif
102
RTVSPost2010PropOp54
 70
     1
102
RTVSPost2010Prop55
280
     0
102
RTVSPost2010PropOp55
 70
     1
102
RTVSPost2010Prop56
140
1.0
102
RTVSPost2010PropOp56
 70
     1
102
RTVSPost2010Prop57
140
1.0
102
RTVSPost2010PropOp57
 70
     1
102
RTVSPropertyOp0
 70
     1
102
RTVSPropertyOp1
 70
     1
102
RTVSPropertyOp2
 70
     1
102
RTVSPropertyOp3
 70
     1
102
RTVSPropertyOp4
 70
     1
102
RTVSPropertyOp5
 70
     1
102
RTVSPropertyOp6
 70
     1
102
RTVSPropertyOp7
 70
     1
102
RTVSPropertyOp8
 70
     1
102
RTVSPropertyOp9
 70
     1
102
RTVSPropertyOp10
 70
     1
102
RTVSPropertyOp11
 70
     1
102
RTVSPropertyOp12
 70
     1
102
RTVSPropertyOp13
 70
     1
102
RTVSPropertyOp14
 70
     1
102
RTVSPropertyOp15
 70
     1
102
RTVSPropertyOp16
 70
     1
102
RTVSPropertyOp17
 70
     1
102
RTVSPropertyOp18
 70
     1
102
RTVSPropertyOp19
 70
     1
102
RTVSPropertyOp20
 70
     1
102
RTVSPropertyOp21
 70
     1
102
RTVSPropertyOp22
 70
     1
102
RTVSPropertyOp23
 70
     1
102
RTVSPropertyOp24
 70
     1
102
RTVSPropertyOp25
 70
     1
102
RTVSPropertyOp26
 70
     1
102
RTVSPropertyOp27
 70
     1
102
RTVSPropertyOp28
 70
     1
102
RTVSPropertyOp29
 70
     1
102
RTVSPropertyOp30
 70
     1
102
RTVSPropertyOp31
 70
     1
102
RTVSPropertyOp32
 70
     1
102
RTVSPropertyOp33
 70
     1
102
RTVSPropertyOp34
 70
     1
102
RTVSPropertyOp35
 70
     1
102
RTVSPropertyOp36
 70
     1
102
RTVSPropertyOp37
 70
     1
102
RTVSPropertyOp38
 70
     1
102
RTVSPropertyOp39
 70
     1
102
RTVSPropertyOp40
 70
     1
102
RTVSPropertyOp41
 70
     1
102
RTVSPropertyOp42
 70
     1
102
RTVSPropertyOp43
 70
     1
102
RTVSPropertyOp44
 70
     1
102
RTVSPropertyOp45
 70
     1
102
RTVSPropertyOp46
 70
     1
102
RTVSPropertyOp47
 70
     1
102
RTVSPropertyOp48
 70
     1
102
RTVSPropertyOp49
 70
     1
102
RTVSPropertyOp50
 70
     1
102
RTVSPropertyOp51
 70
     0
102
RTVSPropertyOp52
 70
     0
102
RTVSPropertyOp53
 70
     1
102
RTVSPropertyOp54
 70
     1
102
RTVSPropertyOp55
 70
     1
102
RTVSPropertyOp56
 70
     1
102
RTVSPropertyOp57
 70
     1
102
RTVSPropertyOp58
 70
     1
102
RTVSPropertyOp59
 70
     1
102
RTVSPropertyOp60
 70
     1
102
RTVSPropertyOp61
 70
     1
102
RTVSPropertyOp62
 70
     1
  0
XRECORD
  5
A984
102
{ACAD_REACTORS
330
A983
102
}
330
A983
100
AcDbXrecord
280
     1
102
RTVSPost2010Prop28
280
     0
102
RTVSPost2010PropOp28
 70
     1
102
RTVSPost2010Prop29
280
     1
102
RTVSPost2010PropOp29
 70
     1
102
RTVSPost2010Prop30
280
     1
102
RTVSPost2010PropOp30
 70
     1
102
RTVSPost2010Prop31
280
     0
102
RTVSPost2010PropOp31
 70
     1
102
RTVSPost2010Prop32
280
     0
102
RTVSPost2010PropOp32
 70
     1
102
RTVSPost2010Prop33
280
     0
102
RTVSPost2010PropOp33
 70
     1
102
RTVSPost2010Prop34
280
     0
102
RTVSPost2010PropOp34
 70
     1
102
RTVSPost2010Prop35
280
     0
102
RTVSPost2010PropOp35
 70
     1
102
RTVSPost2010Prop36
280
     0
102
RTVSPost2010PropOp36
 70
     1
102
RTVSPost2010Prop37
 90
       50
102
RTVSPost2010PropOp37
 70
     0
102
RTVSPost2010Prop38
140
0.0
102
RTVSPost2010PropOp38
 70
     0
102
RTVSPost2010Prop39
140
1.0
102
RTVSPost2010PropOp39
 70
     0
102
RTVSPost2010Prop40
 90
        0
102
RTVSPost2010PropOp40
 70
     0
102
RTVSPost2010Prop41ColorIndex
 90
       18
102
RTVSPost2010Prop41ColorRGB
 90
        0
102
RTVSPost2010PropOp41
 70
     0
102
RTVSPost2010Prop42
 90
       50
102
RTVSPost2010PropOp42
 70
     0
102
RTVSPost2010Prop43
 90
        3
102
RTVSPost2010PropOp43
 70
     0
102
RTVSPost2010Prop44ColorIndex
 90
        5
102
RTVSPost2010Prop44ColorRGB
 90
      255
102
RTVSPost2010PropOp44
 70
     0
102
RTVSPost2010Prop45
280
     0
102
RTVSPost2010PropOp45
 70
     1
102
RTVSPost2010Prop46
 90
       50
102
RTVSPost2010PropOp46
 70
     0
102
RTVSPost2010Prop47
 90
       50
102
RTVSPost2010PropOp47
 70
     0
102
RTVSPost2010Prop48
 90
       50
102
RTVSPost2010PropOp48
 70
     0
102
RTVSPost2010Prop49
280
     0
102
RTVSPost2010PropOp49
 70
     1
102
RTVSPost2010Prop50
 90
       50
102
RTVSPost2010PropOp50
 70
     0
102
RTVSPost2010Prop51ColorIndex
 90
      256
102
RTVSPost2010Prop51ColorRGB
 90
-16777216
102
RTVSPost2010PropOp51
 70
     0
102
RTVSPost2010Prop52
140
1.0
102
RTVSPost2010PropOp52
 70
     0
102
RTVSPost2010Prop53
 90
        2
102
RTVSPost2010PropOp53
 70
     0
102
RTVSPost2010Prop54
  1
strokes_ogs.tif
102
RTVSPost2010PropOp54
 70
     0
102
RTVSPost2010Prop55
280
     0
102
RTVSPost2010PropOp55
 70
     1
102
RTVSPost2010Prop56
140
1.0
102
RTVSPost2010PropOp56
 70
     0
102
RTVSPost2010Prop57
140
1.0
102
RTVSPost2010PropOp57
 70
     0
102
RTVSPropertyOp0
 70
     0
102
RTVSPropertyOp1
 70
     0
102
RTVSPropertyOp2
 70
     0
102
RTVSPropertyOp3
 70
     0
102
RTVSPropertyOp4
 70
     0
102
RTVSPropertyOp5
 70
     0
102
RTVSPropertyOp6
 70
     0
102
RTVSPropertyOp7
 70
     0
102
RTVSPropertyOp8
 70
     0
102
RTVSPropertyOp9
 70
     0
102
RTVSPropertyOp10
 70
     0
102
RTVSPropertyOp11
 70
     0
102
RTVSPropertyOp12
 70
     0
102
RTVSPropertyOp13
 70
     0
102
RTVSPropertyOp14
 70
     2
102
RTVSPropertyOp15
 70
     0
102
RTVSPropertyOp16
 70
     0
102
RTVSPropertyOp17
 70
     0
102
RTVSPropertyOp18
 70
     0
102
RTVSPropertyOp19
 70
     0
102
RTVSPropertyOp20
 70
     0
102
RTVSPropertyOp21
 70
     0
102
RTVSPropertyOp22
 70
     0
102
RTVSPropertyOp23
 70
     0
102
RTVSPropertyOp24
 70
     0
102
RTVSPropertyOp25
 70
     0
102
RTVSPropertyOp26
 70
     0
102
RTVSPropertyOp27
 70
     0
102
RTVSPropertyOp28
 70
     1
102
RTVSPropertyOp29
 70
     1
102
RTVSPropertyOp30
 70
     1
102
RTVSPropertyOp31
 70
     1
102
RTVSPropertyOp32
 70
     1
102
RTVSPropertyOp33
 70
     1
102
RTVSPropertyOp34
 70
     1
102
RTVSPropertyOp35
 70
     1
102
RTVSPropertyOp36
 70
     1
102
RTVSPropertyOp37
 70
     0
102
RTVSPropertyOp38
 70
     0
102
RTVSPropertyOp39
 70
     0
102
RTVSPropertyOp40
 70
     0
102
RTVSPropertyOp41
 70
     0
102
RTVSPropertyOp42
 70
     0
102
RTVSPropertyOp43
 70
     0
102
RTVSPropertyOp44
 70
     0
102
RTVSPropertyOp45
 70
     1
102
RTVSPropertyOp46
 70
     0
102
RTVSPropertyOp47
 70
     0
102
RTVSPropertyOp48
 70
     0
102
RTVSPropertyOp49
 70
     1
102
RTVSPropertyOp50
 70
     0
102
RTVSPropertyOp51
 70
     0
102
RTVSPropertyOp52
 70
     0
102
RTVSPropertyOp53
 70
     0
102
RTVSPropertyOp54
 70
     0
102
RTVSPropertyOp55
 70
     1
102
RTVSPropertyOp56
 70
     0
102
RTVSPropertyOp57
 70
     0
102
RTVSPropertyOp58
 70
     0
102
RTVSPropertyOp59
 70
     0
102
RTVSPropertyOp60
 70
     0
102
RTVSPropertyOp61
 70
     0
102
RTVSPropertyOp62
 70
     0
  0
XRECORD
  5
A974
102
{ACAD_REACTORS
330
A973
102
}
330
A973
100
AcDbXrecord
280
     1
102
RTVSPost2010Prop28
280
     0
102
RTVSPost2010PropOp28
 70
     1
102
RTVSPost2010Prop29
280
     1
102
RTVSPost2010PropOp29
 70
     1
102
RTVSPost2010Prop30
280
     1
102
RTVSPost2010PropOp30
 70
     1
102
RTVSPost2010Prop31
280
     0
102
RTVSPost2010PropOp31
 70
     1
102
RTVSPost2010Prop32
280
     0
102
RTVSPost2010PropOp32
 70
     1
102
RTVSPost2010Prop33
280
     0
102
RTVSPost2010PropOp33
 70
     1
102
RTVSPost2010Prop34
280
     0
102
RTVSPost2010PropOp34
 70
     1
102
RTVSPost2010Prop35
280
     0
102
RTVSPost2010PropOp35
 70
     1
102
RTVSPost2010Prop36
280
     0
102
RTVSPost2010PropOp36
 70
     1
102
RTVSPost2010Prop37
 90
       50
102
RTVSPost2010PropOp37
 70
     1
102
RTVSPost2010Prop38
140
0.0
102
RTVSPost2010PropOp38
 70
     1
102
RTVSPost2010Prop39
140
1.0
102
RTVSPost2010PropOp39
 70
     1
102
RTVSPost2010Prop40
 90
        0
102
RTVSPost2010PropOp40
 70
     1
102
RTVSPost2010Prop41ColorIndex
 90
       18
102
RTVSPost2010Prop41ColorRGB
 90
        0
102
RTVSPost2010PropOp41
 70
     1
102
RTVSPost2010Prop42
 90
       50
102
RTVSPost2010PropOp42
 70
     1
102
RTVSPost2010Prop43
 90
        3
102
RTVSPost2010PropOp43
 70
     1
102
RTVSPost2010Prop44ColorIndex
 90
        5
102
RTVSPost2010Prop44ColorRGB
 90
      255
102
RTVSPost2010PropOp44
 70
     1
102
RTVSPost2010Prop45
280
     0
102
RTVSPost2010PropOp45
 70
     1
102
RTVSPost2010Prop46
 90
       50
102
RTVSPost2010PropOp46
 70
     1
102
RTVSPost2010Prop47
 90
       50
102
RTVSPost2010PropOp47
 70
     1
102
RTVSPost2010Prop48
 90
       50
102
RTVSPost2010PropOp48
 70
     1
102
RTVSPost2010Prop49
280
     0
102
RTVSPost2010PropOp49
 70
     1
102
RTVSPost2010Prop50
 90
       50
102
RTVSPost2010PropOp50
 70
     1
102
RTVSPost2010Prop51ColorIndex
 90
      256
102
RTVSPost2010Prop51ColorRGB
 90
-16777216
102
RTVSPost2010PropOp51
 70
     0
102
RTVSPost2010Prop52
140
1.0
102
RTVSPost2010PropOp52
 70
     0
102
RTVSPost2010Prop53
 90
        2
102
RTVSPost2010PropOp53
 70
     1
102
RTVSPost2010Prop54
  1
strokes_ogs.tif
102
RTVSPost2010PropOp54
 70
     1
102
RTVSPost2010Prop55
280
     0
102
RTVSPost2010PropOp55
 70
     1
102
RTVSPost2010Prop56
140
1.0
102
RTVSPost2010PropOp56
 70
     1
102
RTVSPost2010Prop57
140
1.0
102
RTVSPost2010PropOp57
 70
     1
102
RTVSPropertyOp0
 70
     1
102
RTVSPropertyOp1
 70
     1
102
RTVSPropertyOp2
 70
     1
102
RTVSPropertyOp3
 70
     1
102
RTVSPropertyOp4
 70
     1
102
RTVSPropertyOp5
 70
     1
102
RTVSPropertyOp6
 70
     1
102
RTVSPropertyOp7
 70
     1
102
RTVSPropertyOp8
 70
     1
102
RTVSPropertyOp9
 70
     1
102
RTVSPropertyOp10
 70
     1
102
RTVSPropertyOp11
 70
     1
102
RTVSPropertyOp12
 70
     1
102
RTVSPropertyOp13
 70
     1
102
RTVSPropertyOp14
 70
     1
102
RTVSPropertyOp15
 70
     1
102
RTVSPropertyOp16
 70
     1
102
RTVSPropertyOp17
 70
     1
102
RTVSPropertyOp18
 70
     1
102
RTVSPropertyOp19
 70
     1
102
RTVSPropertyOp20
 70
     1
102
RTVSPropertyOp21
 70
     1
102
RTVSPropertyOp22
 70
     1
102
RTVSPropertyOp23
 70
     1
102
RTVSPropertyOp24
 70
     1
102
RTVSPropertyOp25
 70
     1
102
RTVSPropertyOp26
 70
     1
102
RTVSPropertyOp27
 70
     1
102
RTVSPropertyOp28
 70
     1
102
RTVSPropertyOp29
 70
     1
102
RTVSPropertyOp30
 70
     1
102
RTVSPropertyOp31
 70
     1
102
RTVSPropertyOp32
 70
     1
102
RTVSPropertyOp33
 70
     1
102
RTVSPropertyOp34
 70
     1
102
RTVSPropertyOp35
 70
     1
102
RTVSPropertyOp36
 70
     1
102
RTVSPropertyOp37
 70
     1
102
RTVSPropertyOp38
 70
     1
102
RTVSPropertyOp39
 70
     1
102
RTVSPropertyOp40
 70
     1
102
RTVSPropertyOp41
 70
     1
102
RTVSPropertyOp42
 70
     1
102
RTVSPropertyOp43
 70
     1
102
RTVSPropertyOp44
 70
     1
102
RTVSPropertyOp45
 70
     1
102
RTVSPropertyOp46
 70
     1
102
RTVSPropertyOp47
 70
     1
102
RTVSPropertyOp48
 70
     1
102
RTVSPropertyOp49
 70
     1
102
RTVSPropertyOp50
 70
     1
102
RTVSPropertyOp51
 70
     0
102
RTVSPropertyOp52
 70
     0
102
RTVSPropertyOp53
 70
     1
102
RTVSPropertyOp54
 70
     1
102
RTVSPropertyOp55
 70
     1
102
RTVSPropertyOp56
 70
     1
102
RTVSPropertyOp57
 70
     1
102
RTVSPropertyOp58
 70
     1
102
RTVSPropertyOp59
 70
     1
102
RTVSPropertyOp60
 70
     1
102
RTVSPropertyOp61
 70
     1
102
RTVSPropertyOp62
 70
     1
  0
XRECORD
  5
A986
102
{ACAD_REACTORS
330
A985
102
}
330
A985
100
AcDbXrecord
280
     1
102
RTVSPost2010Prop28
280
     0
102
RTVSPost2010PropOp28
 70
     1
102
RTVSPost2010Prop29
280
     1
102
RTVSPost2010PropOp29
 70
     1
102
RTVSPost2010Prop30
280
     1
102
RTVSPost2010PropOp30
 70
     1
102
RTVSPost2010Prop31
280
     0
102
RTVSPost2010PropOp31
 70
     1
102
RTVSPost2010Prop32
280
     0
102
RTVSPost2010PropOp32
 70
     1
102
RTVSPost2010Prop33
280
     0
102
RTVSPost2010PropOp33
 70
     1
102
RTVSPost2010Prop34
280
     0
102
RTVSPost2010PropOp34
 70
     1
102
RTVSPost2010Prop35
280
     0
102
RTVSPost2010PropOp35
 70
     1
102
RTVSPost2010Prop36
280
     0
102
RTVSPost2010PropOp36
 70
     1
102
RTVSPost2010Prop37
 90
       50
102
RTVSPost2010PropOp37
 70
     0
102
RTVSPost2010Prop38
140
0.0
102
RTVSPost2010PropOp38
 70
     0
102
RTVSPost2010Prop39
140
1.0
102
RTVSPost2010PropOp39
 70
     0
102
RTVSPost2010Prop40
 90
        0
102
RTVSPost2010PropOp40
 70
     0
102
RTVSPost2010Prop41ColorIndex
 90
       18
102
RTVSPost2010Prop41ColorRGB
 90
        0
102
RTVSPost2010PropOp41
 70
     0
102
RTVSPost2010Prop42
 90
       50
102
RTVSPost2010PropOp42
 70
     0
102
RTVSPost2010Prop43
 90
        3
102
RTVSPost2010PropOp43
 70
     0
102
RTVSPost2010Prop44ColorIndex
 90
        5
102
RTVSPost2010Prop44ColorRGB
 90
      255
102
RTVSPost2010PropOp44
 70
     0
102
RTVSPost2010Prop45
280
     0
102
RTVSPost2010PropOp45
 70
     1
102
RTVSPost2010Prop46
 90
       50
102
RTVSPost2010PropOp46
 70
     0
102
RTVSPost2010Prop47
 90
       50
102
RTVSPost2010PropOp47
 70
     0
102
RTVSPost2010Prop48
 90
       50
102
RTVSPost2010PropOp48
 70
     0
102
RTVSPost2010Prop49
280
     0
102
RTVSPost2010PropOp49
 70
     1
102
RTVSPost2010Prop50
 90
       50
102
RTVSPost2010PropOp50
 70
     0
102
RTVSPost2010Prop51ColorIndex
 90
      256
102
RTVSPost2010Prop51ColorRGB
 90
-16777216
102
RTVSPost2010PropOp51
 70
     0
102
RTVSPost2010Prop52
140
1.0
102
RTVSPost2010PropOp52
 70
     0
102
RTVSPost2010Prop53
 90
        2
102
RTVSPost2010PropOp53
 70
     0
102
RTVSPost2010Prop54
  1
strokes_ogs.tif
102
RTVSPost2010PropOp54
 70
     0
102
RTVSPost2010Prop55
280
     0
102
RTVSPost2010PropOp55
 70
     1
102
RTVSPost2010Prop56
140
1.0
102
RTVSPost2010PropOp56
 70
     0
102
RTVSPost2010Prop57
140
1.0
102
RTVSPost2010PropOp57
 70
     0
102
RTVSPropertyOp0
 70
     0
102
RTVSPropertyOp1
 70
     0
102
RTVSPropertyOp2
 70
     0
102
RTVSPropertyOp3
 70
     0
102
RTVSPropertyOp4
 70
     0
102
RTVSPropertyOp5
 70
     0
102
RTVSPropertyOp6
 70
     0
102
RTVSPropertyOp7
 70
     0
102
RTVSPropertyOp8
 70
     0
102
RTVSPropertyOp9
 70
     0
102
RTVSPropertyOp10
 70
     0
102
RTVSPropertyOp11
 70
     0
102
RTVSPropertyOp12
 70
     0
102
RTVSPropertyOp13
 70
     0
102
RTVSPropertyOp14
 70
     2
102
RTVSPropertyOp15
 70
     0
102
RTVSPropertyOp16
 70
     0
102
RTVSPropertyOp17
 70
     0
102
RTVSPropertyOp18
 70
     0
102
RTVSPropertyOp19
 70
     0
102
RTVSPropertyOp20
 70
     0
102
RTVSPropertyOp21
 70
     0
102
RTVSPropertyOp22
 70
     0
102
RTVSPropertyOp23
 70
     0
102
RTVSPropertyOp24
 70
     0
102
RTVSPropertyOp25
 70
     0
102
RTVSPropertyOp26
 70
     0
102
RTVSPropertyOp27
 70
     0
102
RTVSPropertyOp28
 70
     1
102
RTVSPropertyOp29
 70
     1
102
RTVSPropertyOp30
 70
     1
102
RTVSPropertyOp31
 70
     1
102
RTVSPropertyOp32
 70
     1
102
RTVSPropertyOp33
 70
     1
102
RTVSPropertyOp34
 70
     1
102
RTVSPropertyOp35
 70
     1
102
RTVSPropertyOp36
 70
     1
102
RTVSPropertyOp37
 70
     0
102
RTVSPropertyOp38
 70
     0
102
RTVSPropertyOp39
 70
     0
102
RTVSPropertyOp40
 70
     0
102
RTVSPropertyOp41
 70
     0
102
RTVSPropertyOp42
 70
     0
102
RTVSPropertyOp43
 70
     0
102
RTVSPropertyOp44
 70
     0
102
RTVSPropertyOp45
 70
     1
102
RTVSPropertyOp46
 70
     0
102
RTVSPropertyOp47
 70
     0
102
RTVSPropertyOp48
 70
     0
102
RTVSPropertyOp49
 70
     1
102
RTVSPropertyOp50
 70
     0
102
RTVSPropertyOp51
 70
     0
102
RTVSPropertyOp52
 70
     0
102
RTVSPropertyOp53
 70
     0
102
RTVSPropertyOp54
 70
     0
102
RTVSPropertyOp55
 70
     1
102
RTVSPropertyOp56
 70
     0
102
RTVSPropertyOp57
 70
     0
102
RTVSPropertyOp58
 70
     0
102
RTVSPropertyOp59
 70
     0
102
RTVSPropertyOp60
 70
     0
102
RTVSPropertyOp61
 70
     0
102
RTVSPropertyOp62
 70
     0
  0
XRECORD
  5
A96C
102
{ACAD_REACTORS
330
A96B
102
}
330
A96B
100
AcDbXrecord
280
     1
102
RTVSPost2010Prop28
280
     0
102
RTVSPost2010PropOp28
 70
     1
102
RTVSPost2010Prop29
280
     1
102
RTVSPost2010PropOp29
 70
     1
102
RTVSPost2010Prop30
280
     1
102
RTVSPost2010PropOp30
 70
     1
102
RTVSPost2010Prop31
280
     0
102
RTVSPost2010PropOp31
 70
     1
102
RTVSPost2010Prop32
280
     0
102
RTVSPost2010PropOp32
 70
     1
102
RTVSPost2010Prop33
280
     0
102
RTVSPost2010PropOp33
 70
     1
102
RTVSPost2010Prop34
280
     0
102
RTVSPost2010PropOp34
 70
     1
102
RTVSPost2010Prop35
280
     0
102
RTVSPost2010PropOp35
 70
     1
102
RTVSPost2010Prop36
280
     0
102
RTVSPost2010PropOp36
 70
     1
102
RTVSPost2010Prop37
 90
       50
102
RTVSPost2010PropOp37
 70
     1
102
RTVSPost2010Prop38
140
0.0
102
RTVSPost2010PropOp38
 70
     1
102
RTVSPost2010Prop39
140
1.0
102
RTVSPost2010PropOp39
 70
     1
102
RTVSPost2010Prop40
 90
        0
102
RTVSPost2010PropOp40
 70
     1
102
RTVSPost2010Prop41ColorIndex
 90
       18
102
RTVSPost2010Prop41ColorRGB
 90
        0
102
RTVSPost2010PropOp41
 70
     1
102
RTVSPost2010Prop42
 90
       50
102
RTVSPost2010PropOp42
 70
     1
102
RTVSPost2010Prop43
 90
        3
102
RTVSPost2010PropOp43
 70
     1
102
RTVSPost2010Prop44ColorIndex
 90
        5
102
RTVSPost2010Prop44ColorRGB
 90
      255
102
RTVSPost2010PropOp44
 70
     1
102
RTVSPost2010Prop45
280
     0
102
RTVSPost2010PropOp45
 70
     1
102
RTVSPost2010Prop46
 90
       50
102
RTVSPost2010PropOp46
 70
     1
102
RTVSPost2010Prop47
 90
       50
102
RTVSPost2010PropOp47
 70
     1
102
RTVSPost2010Prop48
 90
       50
102
RTVSPost2010PropOp48
 70
     1
102
RTVSPost2010Prop49
280
     0
102
RTVSPost2010PropOp49
 70
     1
102
RTVSPost2010Prop50
 90
       50
102
RTVSPost2010PropOp50
 70
     1
102
RTVSPost2010Prop51ColorIndex
 90
      256
102
RTVSPost2010Prop51ColorRGB
 90
-16777216
102
RTVSPost2010PropOp51
 70
     0
102
RTVSPost2010Prop52
140
1.0
102
RTVSPost2010PropOp52
 70
     0
102
RTVSPost2010Prop53
 90
        2
102
RTVSPost2010PropOp53
 70
     1
102
RTVSPost2010Prop54
  1
strokes_ogs.tif
102
RTVSPost2010PropOp54
 70
     1
102
RTVSPost2010Prop55
280
     0
102
RTVSPost2010PropOp55
 70
     1
102
RTVSPost2010Prop56
140
1.0
102
RTVSPost2010PropOp56
 70
     1
102
RTVSPost2010Prop57
140
1.0
102
RTVSPost2010PropOp57
 70
     1
102
RTVSPropertyOp0
 70
     1
102
RTVSPropertyOp1
 70
     1
102
RTVSPropertyOp2
 70
     1
102
RTVSPropertyOp3
 70
     1
102
RTVSPropertyOp4
 70
     1
102
RTVSPropertyOp5
 70
     1
102
RTVSPropertyOp6
 70
     1
102
RTVSPropertyOp7
 70
     1
102
RTVSPropertyOp8
 70
     1
102
RTVSPropertyOp9
 70
     1
102
RTVSPropertyOp10
 70
     1
102
RTVSPropertyOp11
 70
     1
102
RTVSPropertyOp12
 70
     1
102
RTVSPropertyOp13
 70
     1
102
RTVSPropertyOp14
 70
     1
102
RTVSPropertyOp15
 70
     1
102
RTVSPropertyOp16
 70
     1
102
RTVSPropertyOp17
 70
     1
102
RTVSPropertyOp18
 70
     1
102
RTVSPropertyOp19
 70
     1
102
RTVSPropertyOp20
 70
     1
102
RTVSPropertyOp21
 70
     1
102
RTVSPropertyOp22
 70
     1
102
RTVSPropertyOp23
 70
     1
102
RTVSPropertyOp24
 70
     1
102
RTVSPropertyOp25
 70
     1
102
RTVSPropertyOp26
 70
     1
102
RTVSPropertyOp27
 70
     1
102
RTVSPropertyOp28
 70
     1
102
RTVSPropertyOp29
 70
     1
102
RTVSPropertyOp30
 70
     1
102
RTVSPropertyOp31
 70
     1
102
RTVSPropertyOp32
 70
     1
102
RTVSPropertyOp33
 70
     1
102
RTVSPropertyOp34
 70
     1
102
RTVSPropertyOp35
 70
     1
102
RTVSPropertyOp36
 70
     1
102
RTVSPropertyOp37
 70
     1
102
RTVSPropertyOp38
 70
     1
102
RTVSPropertyOp39
 70
     1
102
RTVSPropertyOp40
 70
     1
102
RTVSPropertyOp41
 70
     1
102
RTVSPropertyOp42
 70
     1
102
RTVSPropertyOp43
 70
     1
102
RTVSPropertyOp44
 70
     1
102
RTVSPropertyOp45
 70
     1
102
RTVSPropertyOp46
 70
     1
102
RTVSPropertyOp47
 70
     1
102
RTVSPropertyOp48
 70
     1
102
RTVSPropertyOp49
 70
     1
102
RTVSPropertyOp50
 70
     1
102
RTVSPropertyOp51
 70
     0
102
RTVSPropertyOp52
 70
     0
102
RTVSPropertyOp53
 70
     1
102
RTVSPropertyOp54
 70
     1
102
RTVSPropertyOp55
 70
     1
102
RTVSPropertyOp56
 70
     1
102
RTVSPropertyOp57
 70
     1
102
RTVSPropertyOp58
 70
     1
102
RTVSPropertyOp59
 70
     1
102
RTVSPropertyOp60
 70
     1
102
RTVSPropertyOp61
 70
     1
102
RTVSPropertyOp62
 70
     1
  0
XRECORD
  5
A982
102
{ACAD_REACTORS
330
A981
102
}
330
A981
100
AcDbXrecord
280
     1
102
RTVSPost2010Prop28
280
     0
102
RTVSPost2010PropOp28
 70
     1
102
RTVSPost2010Prop29
280
     1
102
RTVSPost2010PropOp29
 70
     1
102
RTVSPost2010Prop30
280
     1
102
RTVSPost2010PropOp30
 70
     1
102
RTVSPost2010Prop31
280
     0
102
RTVSPost2010PropOp31
 70
     1
102
RTVSPost2010Prop32
280
     0
102
RTVSPost2010PropOp32
 70
     1
102
RTVSPost2010Prop33
280
     0
102
RTVSPost2010PropOp33
 70
     1
102
RTVSPost2010Prop34
280
     0
102
RTVSPost2010PropOp34
 70
     1
102
RTVSPost2010Prop35
280
     0
102
RTVSPost2010PropOp35
 70
     1
102
RTVSPost2010Prop36
280
     0
102
RTVSPost2010PropOp36
 70
     1
102
RTVSPost2010Prop37
 90
       50
102
RTVSPost2010PropOp37
 70
     1
102
RTVSPost2010Prop38
140
0.0
102
RTVSPost2010PropOp38
 70
     1
102
RTVSPost2010Prop39
140
1.0
102
RTVSPost2010PropOp39
 70
     1
102
RTVSPost2010Prop40
 90
        0
102
RTVSPost2010PropOp40
 70
     1
102
RTVSPost2010Prop41ColorIndex
 90
       18
102
RTVSPost2010Prop41ColorRGB
 90
        0
102
RTVSPost2010PropOp41
 70
     1
102
RTVSPost2010Prop42
 90
       50
102
RTVSPost2010PropOp42
 70
     1
102
RTVSPost2010Prop43
 90
        3
102
RTVSPost2010PropOp43
 70
     1
102
RTVSPost2010Prop44ColorIndex
 90
        5
102
RTVSPost2010Prop44ColorRGB
 90
      255
102
RTVSPost2010PropOp44
 70
     1
102
RTVSPost2010Prop45
280
     0
102
RTVSPost2010PropOp45
 70
     1
102
RTVSPost2010Prop46
 90
       50
102
RTVSPost2010PropOp46
 70
     1
102
RTVSPost2010Prop47
 90
       50
102
RTVSPost2010PropOp47
 70
     1
102
RTVSPost2010Prop48
 90
       50
102
RTVSPost2010PropOp48
 70
     1
102
RTVSPost2010Prop49
280
     0
102
RTVSPost2010PropOp49
 70
     1
102
RTVSPost2010Prop50
 90
       50
102
RTVSPost2010PropOp50
 70
     1
102
RTVSPost2010Prop51ColorIndex
 90
      256
102
RTVSPost2010Prop51ColorRGB
 90
-16777216
102
RTVSPost2010PropOp51
 70
     0
102
RTVSPost2010Prop52
140
1.0
102
RTVSPost2010PropOp52
 70
     0
102
RTVSPost2010Prop53
 90
        2
102
RTVSPost2010PropOp53
 70
     1
102
RTVSPost2010Prop54
  1
strokes_ogs.tif
102
RTVSPost2010PropOp54
 70
     1
102
RTVSPost2010Prop55
280
     0
102
RTVSPost2010PropOp55
 70
     1
102
RTVSPost2010Prop56
140
1.0
102
RTVSPost2010PropOp56
 70
     1
102
RTVSPost2010Prop57
140
1.0
102
RTVSPost2010PropOp57
 70
     1
102
RTVSPropertyOp0
 70
     1
102
RTVSPropertyOp1
 70
     1
102
RTVSPropertyOp2
 70
     1
102
RTVSPropertyOp3
 70
     1
102
RTVSPropertyOp4
 70
     1
102
RTVSPropertyOp5
 70
     1
102
RTVSPropertyOp6
 70
     1
102
RTVSPropertyOp7
 70
     1
102
RTVSPropertyOp8
 70
     1
102
RTVSPropertyOp9
 70
     1
102
RTVSPropertyOp10
 70
     1
102
RTVSPropertyOp11
 70
     1
102
RTVSPropertyOp12
 70
     1
102
RTVSPropertyOp13
 70
     1
102
RTVSPropertyOp14
 70
     1
102
RTVSPropertyOp15
 70
     1
102
RTVSPropertyOp16
 70
     1
102
RTVSPropertyOp17
 70
     1
102
RTVSPropertyOp18
 70
     1
102
RTVSPropertyOp19
 70
     1
102
RTVSPropertyOp20
 70
     1
102
RTVSPropertyOp21
 70
     1
102
RTVSPropertyOp22
 70
     1
102
RTVSPropertyOp23
 70
     1
102
RTVSPropertyOp24
 70
     1
102
RTVSPropertyOp25
 70
     1
102
RTVSPropertyOp26
 70
     1
102
RTVSPropertyOp27
 70
     1
102
RTVSPropertyOp28
 70
     1
102
RTVSPropertyOp29
 70
     1
102
RTVSPropertyOp30
 70
     1
102
RTVSPropertyOp31
 70
     1
102
RTVSPropertyOp32
 70
     1
102
RTVSPropertyOp33
 70
     1
102
RTVSPropertyOp34
 70
     1
102
RTVSPropertyOp35
 70
     1
102
RTVSPropertyOp36
 70
     1
102
RTVSPropertyOp37
 70
     1
102
RTVSPropertyOp38
 70
     1
102
RTVSPropertyOp39
 70
     1
102
RTVSPropertyOp40
 70
     1
102
RTVSPropertyOp41
 70
     1
102
RTVSPropertyOp42
 70
     1
102
RTVSPropertyOp43
 70
     1
102
RTVSPropertyOp44
 70
     1
102
RTVSPropertyOp45
 70
     1
102
RTVSPropertyOp46
 70
     1
102
RTVSPropertyOp47
 70
     1
102
RTVSPropertyOp48
 70
     1
102
RTVSPropertyOp49
 70
     1
102
RTVSPropertyOp50
 70
     1
102
RTVSPropertyOp51
 70
     0
102
RTVSPropertyOp52
 70
     0
102
RTVSPropertyOp53
 70
     1
102
RTVSPropertyOp54
 70
     1
102
RTVSPropertyOp55
 70
     1
102
RTVSPropertyOp56
 70
     1
102
RTVSPropertyOp57
 70
     1
102
RTVSPropertyOp58
 70
     1
102
RTVSPropertyOp59
 70
     1
102
RTVSPropertyOp60
 70
     1
102
RTVSPropertyOp61
 70
     1
102
RTVSPropertyOp62
 70
     1
  0
XRECORD
  5
A980
102
{ACAD_REACTORS
330
A97F
102
}
330
A97F
100
AcDbXrecord
280
     1
102
RTVSPost2010Prop28
280
     0
102
RTVSPost2010PropOp28
 70
     1
102
RTVSPost2010Prop29
280
     1
102
RTVSPost2010PropOp29
 70
     1
102
RTVSPost2010Prop30
280
     1
102
RTVSPost2010PropOp30
 70
     1
102
RTVSPost2010Prop31
280
     0
102
RTVSPost2010PropOp31
 70
     1
102
RTVSPost2010Prop32
280
     0
102
RTVSPost2010PropOp32
 70
     1
102
RTVSPost2010Prop33
280
     0
102
RTVSPost2010PropOp33
 70
     1
102
RTVSPost2010Prop34
280
     0
102
RTVSPost2010PropOp34
 70
     1
102
RTVSPost2010Prop35
280
     0
102
RTVSPost2010PropOp35
 70
     1
102
RTVSPost2010Prop36
280
     0
102
RTVSPost2010PropOp36
 70
     1
102
RTVSPost2010Prop37
 90
       50
102
RTVSPost2010PropOp37
 70
     1
102
RTVSPost2010Prop38
140
0.0
102
RTVSPost2010PropOp38
 70
     1
102
RTVSPost2010Prop39
140
1.0
102
RTVSPost2010PropOp39
 70
     1
102
RTVSPost2010Prop40
 90
        0
102
RTVSPost2010PropOp40
 70
     1
102
RTVSPost2010Prop41ColorIndex
 90
       18
102
RTVSPost2010Prop41ColorRGB
 90
        0
102
RTVSPost2010PropOp41
 70
     1
102
RTVSPost2010Prop42
 90
       50
102
RTVSPost2010PropOp42
 70
     1
102
RTVSPost2010Prop43
 90
        3
102
RTVSPost2010PropOp43
 70
     1
102
RTVSPost2010Prop44ColorIndex
 90
        5
102
RTVSPost2010Prop44ColorRGB
 90
      255
102
RTVSPost2010PropOp44
 70
     1
102
RTVSPost2010Prop45
280
     0
102
RTVSPost2010PropOp45
 70
     1
102
RTVSPost2010Prop46
 90
       50
102
RTVSPost2010PropOp46
 70
     1
102
RTVSPost2010Prop47
 90
       50
102
RTVSPost2010PropOp47
 70
     1
102
RTVSPost2010Prop48
 90
       50
102
RTVSPost2010PropOp48
 70
     1
102
RTVSPost2010Prop49
280
     0
102
RTVSPost2010PropOp49
 70
     1
102
RTVSPost2010Prop50
 90
       50
102
RTVSPost2010PropOp50
 70
     1
102
RTVSPost2010Prop51ColorIndex
 90
      256
102
RTVSPost2010Prop51ColorRGB
 90
-16777216
102
RTVSPost2010PropOp51
 70
     0
102
RTVSPost2010Prop52
140
1.0
102
RTVSPost2010PropOp52
 70
     0
102
RTVSPost2010Prop53
 90
        2
102
RTVSPost2010PropOp53
 70
     1
102
RTVSPost2010Prop54
  1
strokes_ogs.tif
102
RTVSPost2010PropOp54
 70
     1
102
RTVSPost2010Prop55
280
     0
102
RTVSPost2010PropOp55
 70
     1
102
RTVSPost2010Prop56
140
1.0
102
RTVSPost2010PropOp56
 70
     1
102
RTVSPost2010Prop57
140
1.0
102
RTVSPost2010PropOp57
 70
     1
102
RTVSPropertyOp0
 70
     1
102
RTVSPropertyOp1
 70
     1
102
RTVSPropertyOp2
 70
     1
102
RTVSPropertyOp3
 70
     1
102
RTVSPropertyOp4
 70
     1
102
RTVSPropertyOp5
 70
     1
102
RTVSPropertyOp6
 70
     1
102
RTVSPropertyOp7
 70
     1
102
RTVSPropertyOp8
 70
     1
102
RTVSPropertyOp9
 70
     1
102
RTVSPropertyOp10
 70
     1
102
RTVSPropertyOp11
 70
     1
102
RTVSPropertyOp12
 70
     1
102
RTVSPropertyOp13
 70
     1
102
RTVSPropertyOp14
 70
     1
102
RTVSPropertyOp15
 70
     1
102
RTVSPropertyOp16
 70
     1
102
RTVSPropertyOp17
 70
     1
102
RTVSPropertyOp18
 70
     1
102
RTVSPropertyOp19
 70
     1
102
RTVSPropertyOp20
 70
     1
102
RTVSPropertyOp21
 70
     1
102
RTVSPropertyOp22
 70
     1
102
RTVSPropertyOp23
 70
     1
102
RTVSPropertyOp24
 70
     1
102
RTVSPropertyOp25
 70
     1
102
RTVSPropertyOp26
 70
     1
102
RTVSPropertyOp27
 70
     1
102
RTVSPropertyOp28
 70
     1
102
RTVSPropertyOp29
 70
     1
102
RTVSPropertyOp30
 70
     1
102
RTVSPropertyOp31
 70
     1
102
RTVSPropertyOp32
 70
     1
102
RTVSPropertyOp33
 70
     1
102
RTVSPropertyOp34
 70
     1
102
RTVSPropertyOp35
 70
     1
102
RTVSPropertyOp36
 70
     1
102
RTVSPropertyOp37
 70
     1
102
RTVSPropertyOp38
 70
     1
102
RTVSPropertyOp39
 70
     1
102
RTVSPropertyOp40
 70
     1
102
RTVSPropertyOp41
 70
     1
102
RTVSPropertyOp42
 70
     1
102
RTVSPropertyOp43
 70
     1
102
RTVSPropertyOp44
 70
     1
102
RTVSPropertyOp45
 70
     1
102
RTVSPropertyOp46
 70
     1
102
RTVSPropertyOp47
 70
     1
102
RTVSPropertyOp48
 70
     1
102
RTVSPropertyOp49
 70
     1
102
RTVSPropertyOp50
 70
     1
102
RTVSPropertyOp51
 70
     0
102
RTVSPropertyOp52
 70
     0
102
RTVSPropertyOp53
 70
     1
102
RTVSPropertyOp54
 70
     1
102
RTVSPropertyOp55
 70
     1
102
RTVSPropertyOp56
 70
     1
102
RTVSPropertyOp57
 70
     1
102
RTVSPropertyOp58
 70
     1
102
RTVSPropertyOp59
 70
     1
102
RTVSPropertyOp60
 70
     1
102
RTVSPropertyOp61
 70
     1
102
RTVSPropertyOp62
 70
     1
  0
XRECORD
  5
A97A
102
{ACAD_REACTORS
330
A979
102
}
330
A979
100
AcDbXrecord
280
     1
102
RTVSPost2010Prop28
280
     0
102
RTVSPost2010PropOp28
 70
     1
102
RTVSPost2010Prop29
280
     1
102
RTVSPost2010PropOp29
 70
     1
102
RTVSPost2010Prop30
280
     1
102
RTVSPost2010PropOp30
 70
     1
102
RTVSPost2010Prop31
280
     0
102
RTVSPost2010PropOp31
 70
     1
102
RTVSPost2010Prop32
280
     0
102
RTVSPost2010PropOp32
 70
     1
102
RTVSPost2010Prop33
280
     0
102
RTVSPost2010PropOp33
 70
     1
102
RTVSPost2010Prop34
280
     0
102
RTVSPost2010PropOp34
 70
     1
102
RTVSPost2010Prop35
280
     0
102
RTVSPost2010PropOp35
 70
     1
102
RTVSPost2010Prop36
280
     0
102
RTVSPost2010PropOp36
 70
     1
102
RTVSPost2010Prop37
 90
       50
102
RTVSPost2010PropOp37
 70
     1
102
RTVSPost2010Prop38
140
0.0
102
RTVSPost2010PropOp38
 70
     1
102
RTVSPost2010Prop39
140
1.0
102
RTVSPost2010PropOp39
 70
     1
102
RTVSPost2010Prop40
 90
        0
102
RTVSPost2010PropOp40
 70
     1
102
RTVSPost2010Prop41ColorIndex
 90
       18
102
RTVSPost2010Prop41ColorRGB
 90
        0
102
RTVSPost2010PropOp41
 70
     1
102
RTVSPost2010Prop42
 90
       50
102
RTVSPost2010PropOp42
 70
     1
102
RTVSPost2010Prop43
 90
        3
102
RTVSPost2010PropOp43
 70
     1
102
RTVSPost2010Prop44ColorIndex
 90
        5
102
RTVSPost2010Prop44ColorRGB
 90
      255
102
RTVSPost2010PropOp44
 70
     1
102
RTVSPost2010Prop45
280
     0
102
RTVSPost2010PropOp45
 70
     1
102
RTVSPost2010Prop46
 90
       50
102
RTVSPost2010PropOp46
 70
     1
102
RTVSPost2010Prop47
 90
       50
102
RTVSPost2010PropOp47
 70
     1
102
RTVSPost2010Prop48
 90
       50
102
RTVSPost2010PropOp48
 70
     1
102
RTVSPost2010Prop49
280
     0
102
RTVSPost2010PropOp49
 70
     1
102
RTVSPost2010Prop50
 90
       50
102
RTVSPost2010PropOp50
 70
     1
102
RTVSPost2010Prop51ColorIndex
 90
      256
102
RTVSPost2010Prop51ColorRGB
 90
-16777216
102
RTVSPost2010PropOp51
 70
     0
102
RTVSPost2010Prop52
140
1.0
102
RTVSPost2010PropOp52
 70
     0
102
RTVSPost2010Prop53
 90
        2
102
RTVSPost2010PropOp53
 70
     1
102
RTVSPost2010Prop54
  1
strokes_ogs.tif
102
RTVSPost2010PropOp54
 70
     1
102
RTVSPost2010Prop55
280
     0
102
RTVSPost2010PropOp55
 70
     1
102
RTVSPost2010Prop56
140
1.0
102
RTVSPost2010PropOp56
 70
     1
102
RTVSPost2010Prop57
140
1.0
102
RTVSPost2010PropOp57
 70
     1
102
RTVSPropertyOp0
 70
     1
102
RTVSPropertyOp1
 70
     1
102
RTVSPropertyOp2
 70
     1
102
RTVSPropertyOp3
 70
     1
102
RTVSPropertyOp4
 70
     1
102
RTVSPropertyOp5
 70
     1
102
RTVSPropertyOp6
 70
     1
102
RTVSPropertyOp7
 70
     1
102
RTVSPropertyOp8
 70
     1
102
RTVSPropertyOp9
 70
     1
102
RTVSPropertyOp10
 70
     1
102
RTVSPropertyOp11
 70
     1
102
RTVSPropertyOp12
 70
     1
102
RTVSPropertyOp13
 70
     1
102
RTVSPropertyOp14
 70
     1
102
RTVSPropertyOp15
 70
     1
102
RTVSPropertyOp16
 70
     1
102
RTVSPropertyOp17
 70
     1
102
RTVSPropertyOp18
 70
     1
102
RTVSPropertyOp19
 70
     1
102
RTVSPropertyOp20
 70
     1
102
RTVSPropertyOp21
 70
     1
102
RTVSPropertyOp22
 70
     1
102
RTVSPropertyOp23
 70
     1
102
RTVSPropertyOp24
 70
     1
102
RTVSPropertyOp25
 70
     1
102
RTVSPropertyOp26
 70
     1
102
RTVSPropertyOp27
 70
     1
102
RTVSPropertyOp28
 70
     1
102
RTVSPropertyOp29
 70
     1
102
RTVSPropertyOp30
 70
     1
102
RTVSPropertyOp31
 70
     1
102
RTVSPropertyOp32
 70
     1
102
RTVSPropertyOp33
 70
     1
102
RTVSPropertyOp34
 70
     1
102
RTVSPropertyOp35
 70
     1
102
RTVSPropertyOp36
 70
     1
102
RTVSPropertyOp37
 70
     1
102
RTVSPropertyOp38
 70
     1
102
RTVSPropertyOp39
 70
     1
102
RTVSPropertyOp40
 70
     1
102
RTVSPropertyOp41
 70
     1
102
RTVSPropertyOp42
 70
     1
102
RTVSPropertyOp43
 70
     1
102
RTVSPropertyOp44
 70
     1
102
RTVSPropertyOp45
 70
     1
102
RTVSPropertyOp46
 70
     1
102
RTVSPropertyOp47
 70
     1
102
RTVSPropertyOp48
 70
     1
102
RTVSPropertyOp49
 70
     1
102
RTVSPropertyOp50
 70
     1
102
RTVSPropertyOp51
 70
     0
102
RTVSPropertyOp52
 70
     0
102
RTVSPropertyOp53
 70
     1
102
RTVSPropertyOp54
 70
     1
102
RTVSPropertyOp55
 70
     1
102
RTVSPropertyOp56
 70
     1
102
RTVSPropertyOp57
 70
     1
102
RTVSPropertyOp58
 70
     1
102
RTVSPropertyOp59
 70
     1
102
RTVSPropertyOp60
 70
     1
102
RTVSPropertyOp61
 70
     1
102
RTVSPropertyOp62
 70
     1
  0
XRECORD
  5
A97C
102
{ACAD_REACTORS
330
A97B
102
}
330
A97B
100
AcDbXrecord
280
     1
102
RTVSPost2010Prop28
280
     0
102
RTVSPost2010PropOp28
 70
     1
102
RTVSPost2010Prop29
280
     1
102
RTVSPost2010PropOp29
 70
     1
102
RTVSPost2010Prop30
280
     1
102
RTVSPost2010PropOp30
 70
     1
102
RTVSPost2010Prop31
280
     0
102
RTVSPost2010PropOp31
 70
     1
102
RTVSPost2010Prop32
280
     0
102
RTVSPost2010PropOp32
 70
     1
102
RTVSPost2010Prop33
280
     0
102
RTVSPost2010PropOp33
 70
     1
102
RTVSPost2010Prop34
280
     0
102
RTVSPost2010PropOp34
 70
     1
102
RTVSPost2010Prop35
280
     0
102
RTVSPost2010PropOp35
 70
     1
102
RTVSPost2010Prop36
280
     0
102
RTVSPost2010PropOp36
 70
     1
102
RTVSPost2010Prop37
 90
       50
102
RTVSPost2010PropOp37
 70
     1
102
RTVSPost2010Prop38
140
0.0
102
RTVSPost2010PropOp38
 70
     1
102
RTVSPost2010Prop39
140
1.0
102
RTVSPost2010PropOp39
 70
     1
102
RTVSPost2010Prop40
 90
        0
102
RTVSPost2010PropOp40
 70
     1
102
RTVSPost2010Prop41ColorIndex
 90
       18
102
RTVSPost2010Prop41ColorRGB
 90
        0
102
RTVSPost2010PropOp41
 70
     1
102
RTVSPost2010Prop42
 90
       50
102
RTVSPost2010PropOp42
 70
     1
102
RTVSPost2010Prop43
 90
        3
102
RTVSPost2010PropOp43
 70
     1
102
RTVSPost2010Prop44ColorIndex
 90
        5
102
RTVSPost2010Prop44ColorRGB
 90
      255
102
RTVSPost2010PropOp44
 70
     1
102
RTVSPost2010Prop45
280
     0
102
RTVSPost2010PropOp45
 70
     1
102
RTVSPost2010Prop46
 90
       50
102
RTVSPost2010PropOp46
 70
     1
102
RTVSPost2010Prop47
 90
       50
102
RTVSPost2010PropOp47
 70
     1
102
RTVSPost2010Prop48
 90
       50
102
RTVSPost2010PropOp48
 70
     1
102
RTVSPost2010Prop49
280
     0
102
RTVSPost2010PropOp49
 70
     1
102
RTVSPost2010Prop50
 90
       50
102
RTVSPost2010PropOp50
 70
     1
102
RTVSPost2010Prop51ColorIndex
 90
      256
102
RTVSPost2010Prop51ColorRGB
 90
-16777216
102
RTVSPost2010PropOp51
 70
     0
102
RTVSPost2010Prop52
140
1.0
102
RTVSPost2010PropOp52
 70
     0
102
RTVSPost2010Prop53
 90
        2
102
RTVSPost2010PropOp53
 70
     1
102
RTVSPost2010Prop54
  1
strokes_ogs.tif
102
RTVSPost2010PropOp54
 70
     1
102
RTVSPost2010Prop55
280
     0
102
RTVSPost2010PropOp55
 70
     1
102
RTVSPost2010Prop56
140
1.0
102
RTVSPost2010PropOp56
 70
     1
102
RTVSPost2010Prop57
140
1.0
102
RTVSPost2010PropOp57
 70
     1
102
RTVSPropertyOp0
 70
     1
102
RTVSPropertyOp1
 70
     1
102
RTVSPropertyOp2
 70
     1
102
RTVSPropertyOp3
 70
     1
102
RTVSPropertyOp4
 70
     1
102
RTVSPropertyOp5
 70
     1
102
RTVSPropertyOp6
 70
     1
102
RTVSPropertyOp7
 70
     1
102
RTVSPropertyOp8
 70
     1
102
RTVSPropertyOp9
 70
     1
102
RTVSPropertyOp10
 70
     1
102
RTVSPropertyOp11
 70
     1
102
RTVSPropertyOp12
 70
     1
102
RTVSPropertyOp13
 70
     1
102
RTVSPropertyOp14
 70
     1
102
RTVSPropertyOp15
 70
     1
102
RTVSPropertyOp16
 70
     1
102
RTVSPropertyOp17
 70
     1
102
RTVSPropertyOp18
 70
     1
102
RTVSPropertyOp19
 70
     1
102
RTVSPropertyOp20
 70
     1
102
RTVSPropertyOp21
 70
     1
102
RTVSPropertyOp22
 70
     1
102
RTVSPropertyOp23
 70
     1
102
RTVSPropertyOp24
 70
     1
102
RTVSPropertyOp25
 70
     1
102
RTVSPropertyOp26
 70
     1
102
RTVSPropertyOp27
 70
     1
102
RTVSPropertyOp28
 70
     1
102
RTVSPropertyOp29
 70
     1
102
RTVSPropertyOp30
 70
     1
102
RTVSPropertyOp31
 70
     1
102
RTVSPropertyOp32
 70
     1
102
RTVSPropertyOp33
 70
     1
102
RTVSPropertyOp34
 70
     1
102
RTVSPropertyOp35
 70
     1
102
RTVSPropertyOp36
 70
     1
102
RTVSPropertyOp37
 70
     1
102
RTVSPropertyOp38
 70
     1
102
RTVSPropertyOp39
 70
     1
102
RTVSPropertyOp40
 70
     1
102
RTVSPropertyOp41
 70
     1
102
RTVSPropertyOp42
 70
     1
102
RTVSPropertyOp43
 70
     1
102
RTVSPropertyOp44
 70
     1
102
RTVSPropertyOp45
 70
     1
102
RTVSPropertyOp46
 70
     1
102
RTVSPropertyOp47
 70
     1
102
RTVSPropertyOp48
 70
     1
102
RTVSPropertyOp49
 70
     1
102
RTVSPropertyOp50
 70
     1
102
RTVSPropertyOp51
 70
     0
102
RTVSPropertyOp52
 70
     0
102
RTVSPropertyOp53
 70
     1
102
RTVSPropertyOp54
 70
     1
102
RTVSPropertyOp55
 70
     1
102
RTVSPropertyOp56
 70
     1
102
RTVSPropertyOp57
 70
     1
102
RTVSPropertyOp58
 70
     1
102
RTVSPropertyOp59
 70
     1
102
RTVSPropertyOp60
 70
     1
102
RTVSPropertyOp61
 70
     1
102
RTVSPropertyOp62
 70
     1
  0
XRECORD
  5
A972
102
{ACAD_REACTORS
330
A971
102
}
330
A971
100
AcDbXrecord
280
     1
102
RTVSPost2010Prop28
280
     0
102
RTVSPost2010PropOp28
 70
     1
102
RTVSPost2010Prop29
280
     1
102
RTVSPost2010PropOp29
 70
     1
102
RTVSPost2010Prop30
280
     1
102
RTVSPost2010PropOp30
 70
     1
102
RTVSPost2010Prop31
280
     0
102
RTVSPost2010PropOp31
 70
     1
102
RTVSPost2010Prop32
280
     0
102
RTVSPost2010PropOp32
 70
     1
102
RTVSPost2010Prop33
280
     0
102
RTVSPost2010PropOp33
 70
     1
102
RTVSPost2010Prop34
280
     0
102
RTVSPost2010PropOp34
 70
     1
102
RTVSPost2010Prop35
280
     0
102
RTVSPost2010PropOp35
 70
     1
102
RTVSPost2010Prop36
280
     0
102
RTVSPost2010PropOp36
 70
     1
102
RTVSPost2010Prop37
 90
       50
102
RTVSPost2010PropOp37
 70
     1
102
RTVSPost2010Prop38
140
0.0
102
RTVSPost2010PropOp38
 70
     1
102
RTVSPost2010Prop39
140
1.0
102
RTVSPost2010PropOp39
 70
     1
102
RTVSPost2010Prop40
 90
        0
102
RTVSPost2010PropOp40
 70
     1
102
RTVSPost2010Prop41ColorIndex
 90
       18
102
RTVSPost2010Prop41ColorRGB
 90
        0
102
RTVSPost2010PropOp41
 70
     1
102
RTVSPost2010Prop42
 90
       50
102
RTVSPost2010PropOp42
 70
     1
102
RTVSPost2010Prop43
 90
        3
102
RTVSPost2010PropOp43
 70
     1
102
RTVSPost2010Prop44ColorIndex
 90
        5
102
RTVSPost2010Prop44ColorRGB
 90
      255
102
RTVSPost2010PropOp44
 70
     1
102
RTVSPost2010Prop45
280
     0
102
RTVSPost2010PropOp45
 70
     1
102
RTVSPost2010Prop46
 90
       50
102
RTVSPost2010PropOp46
 70
     1
102
RTVSPost2010Prop47
 90
       50
102
RTVSPost2010PropOp47
 70
     1
102
RTVSPost2010Prop48
 90
       50
102
RTVSPost2010PropOp48
 70
     1
102
RTVSPost2010Prop49
280
     0
102
RTVSPost2010PropOp49
 70
     1
102
RTVSPost2010Prop50
 90
       50
102
RTVSPost2010PropOp50
 70
     1
102
RTVSPost2010Prop51ColorIndex
 90
      256
102
RTVSPost2010Prop51ColorRGB
 90
-16777216
102
RTVSPost2010PropOp51
 70
     0
102
RTVSPost2010Prop52
140
1.0
102
RTVSPost2010PropOp52
 70
     0
102
RTVSPost2010Prop53
 90
        2
102
RTVSPost2010PropOp53
 70
     1
102
RTVSPost2010Prop54
  1
strokes_ogs.tif
102
RTVSPost2010PropOp54
 70
     1
102
RTVSPost2010Prop55
280
     0
102
RTVSPost2010PropOp55
 70
     1
102
RTVSPost2010Prop56
140
1.0
102
RTVSPost2010PropOp56
 70
     1
102
RTVSPost2010Prop57
140
1.0
102
RTVSPost2010PropOp57
 70
     1
102
RTVSPropertyOp0
 70
     1
102
RTVSPropertyOp1
 70
     1
102
RTVSPropertyOp2
 70
     1
102
RTVSPropertyOp3
 70
     1
102
RTVSPropertyOp4
 70
     1
102
RTVSPropertyOp5
 70
     1
102
RTVSPropertyOp6
 70
     1
102
RTVSPropertyOp7
 70
     1
102
RTVSPropertyOp8
 70
     1
102
RTVSPropertyOp9
 70
     1
102
RTVSPropertyOp10
 70
     1
102
RTVSPropertyOp11
 70
     1
102
RTVSPropertyOp12
 70
     1
102
RTVSPropertyOp13
 70
     1
102
RTVSPropertyOp14
 70
     1
102
RTVSPropertyOp15
 70
     1
102
RTVSPropertyOp16
 70
     1
102
RTVSPropertyOp17
 70
     1
102
RTVSPropertyOp18
 70
     1
102
RTVSPropertyOp19
 70
     1
102
RTVSPropertyOp20
 70
     1
102
RTVSPropertyOp21
 70
     1
102
RTVSPropertyOp22
 70
     1
102
RTVSPropertyOp23
 70
     1
102
RTVSPropertyOp24
 70
     1
102
RTVSPropertyOp25
 70
     1
102
RTVSPropertyOp26
 70
     1
102
RTVSPropertyOp27
 70
     1
102
RTVSPropertyOp28
 70
     1
102
RTVSPropertyOp29
 70
     1
102
RTVSPropertyOp30
 70
     1
102
RTVSPropertyOp31
 70
     1
102
RTVSPropertyOp32
 70
     1
102
RTVSPropertyOp33
 70
     1
102
RTVSPropertyOp34
 70
     1
102
RTVSPropertyOp35
 70
     1
102
RTVSPropertyOp36
 70
     1
102
RTVSPropertyOp37
 70
     1
102
RTVSPropertyOp38
 70
     1
102
RTVSPropertyOp39
 70
     1
102
RTVSPropertyOp40
 70
     1
102
RTVSPropertyOp41
 70
     1
102
RTVSPropertyOp42
 70
     1
102
RTVSPropertyOp43
 70
     1
102
RTVSPropertyOp44
 70
     1
102
RTVSPropertyOp45
 70
     1
102
RTVSPropertyOp46
 70
     1
102
RTVSPropertyOp47
 70
     1
102
RTVSPropertyOp48
 70
     1
102
RTVSPropertyOp49
 70
     1
102
RTVSPropertyOp50
 70
     1
102
RTVSPropertyOp51
 70
     0
102
RTVSPropertyOp52
 70
     0
102
RTVSPropertyOp53
 70
     1
102
RTVSPropertyOp54
 70
     1
102
RTVSPropertyOp55
 70
     1
102
RTVSPropertyOp56
 70
     1
102
RTVSPropertyOp57
 70
     1
102
RTVSPropertyOp58
 70
     1
102
RTVSPropertyOp59
 70
     1
102
RTVSPropertyOp60
 70
     1
102
RTVSPropertyOp61
 70
     1
102
RTVSPropertyOp62
 70
     1
  0
XRECORD
  5
A966
102
{ACAD_REACTORS
330
A965
102
}
330
A965
100
AcDbXrecord
280
     1
102
RTVSPost2010Prop28
280
     0
102
RTVSPost2010PropOp28
 70
     1
102
RTVSPost2010Prop29
280
     1
102
RTVSPost2010PropOp29
 70
     1
102
RTVSPost2010Prop30
280
     1
102
RTVSPost2010PropOp30
 70
     1
102
RTVSPost2010Prop31
280
     0
102
RTVSPost2010PropOp31
 70
     1
102
RTVSPost2010Prop32
280
     0
102
RTVSPost2010PropOp32
 70
     1
102
RTVSPost2010Prop33
280
     0
102
RTVSPost2010PropOp33
 70
     1
102
RTVSPost2010Prop34
280
     0
102
RTVSPost2010PropOp34
 70
     1
102
RTVSPost2010Prop35
280
     0
102
RTVSPost2010PropOp35
 70
     1
102
RTVSPost2010Prop36
280
     0
102
RTVSPost2010PropOp36
 70
     1
102
RTVSPost2010Prop37
 90
       50
102
RTVSPost2010PropOp37
 70
     1
102
RTVSPost2010Prop38
140
0.0
102
RTVSPost2010PropOp38
 70
     1
102
RTVSPost2010Prop39
140
1.0
102
RTVSPost2010PropOp39
 70
     1
102
RTVSPost2010Prop40
 90
        0
102
RTVSPost2010PropOp40
 70
     1
102
RTVSPost2010Prop41ColorIndex
 90
       18
102
RTVSPost2010Prop41ColorRGB
 90
        0
102
RTVSPost2010PropOp41
 70
     1
102
RTVSPost2010Prop42
 90
       50
102
RTVSPost2010PropOp42
 70
     1
102
RTVSPost2010Prop43
 90
        3
102
RTVSPost2010PropOp43
 70
     1
102
RTVSPost2010Prop44ColorIndex
 90
        5
102
RTVSPost2010Prop44ColorRGB
 90
      255
102
RTVSPost2010PropOp44
 70
     1
102
RTVSPost2010Prop45
280
     0
102
RTVSPost2010PropOp45
 70
     1
102
RTVSPost2010Prop46
 90
       50
102
RTVSPost2010PropOp46
 70
     1
102
RTVSPost2010Prop47
 90
       50
102
RTVSPost2010PropOp47
 70
     1
102
RTVSPost2010Prop48
 90
       50
102
RTVSPost2010PropOp48
 70
     1
102
RTVSPost2010Prop49
280
     0
102
RTVSPost2010PropOp49
 70
     1
102
RTVSPost2010Prop50
 90
       50
102
RTVSPost2010PropOp50
 70
     1
102
RTVSPost2010Prop51ColorIndex
 90
      256
102
RTVSPost2010Prop51ColorRGB
 90
-16777216
102
RTVSPost2010PropOp51
 70
     0
102
RTVSPost2010Prop52
140
1.0
102
RTVSPost2010PropOp52
 70
     0
102
RTVSPost2010Prop53
 90
        2
102
RTVSPost2010PropOp53
 70
     1
102
RTVSPost2010Prop54
  1
strokes_ogs.tif
102
RTVSPost2010PropOp54
 70
     1
102
RTVSPost2010Prop55
280
     0
102
RTVSPost2010PropOp55
 70
     1
102
RTVSPost2010Prop56
140
1.0
102
RTVSPost2010PropOp56
 70
     1
102
RTVSPost2010Prop57
140
1.0
102
RTVSPost2010PropOp57
 70
     1
102
RTVSPropertyOp0
 70
     1
102
RTVSPropertyOp1
 70
     1
102
RTVSPropertyOp2
 70
     1
102
RTVSPropertyOp3
 70
     1
102
RTVSPropertyOp4
 70
     1
102
RTVSPropertyOp5
 70
     1
102
RTVSPropertyOp6
 70
     1
102
RTVSPropertyOp7
 70
     1
102
RTVSPropertyOp8
 70
     1
102
RTVSPropertyOp9
 70
     1
102
RTVSPropertyOp10
 70
     1
102
RTVSPropertyOp11
 70
     1
102
RTVSPropertyOp12
 70
     1
102
RTVSPropertyOp13
 70
     1
102
RTVSPropertyOp14
 70
     1
102
RTVSPropertyOp15
 70
     1
102
RTVSPropertyOp16
 70
     1
102
RTVSPropertyOp17
 70
     1
102
RTVSPropertyOp18
 70
     1
102
RTVSPropertyOp19
 70
     1
102
RTVSPropertyOp20
 70
     1
102
RTVSPropertyOp21
 70
     1
102
RTVSPropertyOp22
 70
     1
102
RTVSPropertyOp23
 70
     1
102
RTVSPropertyOp24
 70
     1
102
RTVSPropertyOp25
 70
     1
102
RTVSPropertyOp26
 70
     1
102
RTVSPropertyOp27
 70
     1
102
RTVSPropertyOp28
 70
     1
102
RTVSPropertyOp29
 70
     1
102
RTVSPropertyOp30
 70
     1
102
RTVSPropertyOp31
 70
     1
102
RTVSPropertyOp32
 70
     1
102
RTVSPropertyOp33
 70
     1
102
RTVSPropertyOp34
 70
     1
102
RTVSPropertyOp35
 70
     1
102
RTVSPropertyOp36
 70
     1
102
RTVSPropertyOp37
 70
     1
102
RTVSPropertyOp38
 70
     1
102
RTVSPropertyOp39
 70
     1
102
RTVSPropertyOp40
 70
     1
102
RTVSPropertyOp41
 70
     1
102
RTVSPropertyOp42
 70
     1
102
RTVSPropertyOp43
 70
     1
102
RTVSPropertyOp44
 70
     1
102
RTVSPropertyOp45
 70
     1
102
RTVSPropertyOp46
 70
     1
102
RTVSPropertyOp47
 70
     1
102
RTVSPropertyOp48
 70
     1
102
RTVSPropertyOp49
 70
     1
102
RTVSPropertyOp50
 70
     1
102
RTVSPropertyOp51
 70
     0
102
RTVSPropertyOp52
 70
     0
102
RTVSPropertyOp53
 70
     1
102
RTVSPropertyOp54
 70
     1
102
RTVSPropertyOp55
 70
     1
102
RTVSPropertyOp56
 70
     1
102
RTVSPropertyOp57
 70
     1
102
RTVSPropertyOp58
 70
     1
102
RTVSPropertyOp59
 70
     1
102
RTVSPropertyOp60
 70
     1
102
RTVSPropertyOp61
 70
     1
102
RTVSPropertyOp62
 70
     1
  0
XRECORD
  5
A97E
102
{ACAD_REACTORS
330
A97D
102
}
330
A97D
100
AcDbXrecord
280
     1
102
RTVSPost2010Prop28
280
     0
102
RTVSPost2010PropOp28
 70
     1
102
RTVSPost2010Prop29
280
     1
102
RTVSPost2010PropOp29
 70
     1
102
RTVSPost2010Prop30
280
     1
102
RTVSPost2010PropOp30
 70
     1
102
RTVSPost2010Prop31
280
     0
102
RTVSPost2010PropOp31
 70
     1
102
RTVSPost2010Prop32
280
     0
102
RTVSPost2010PropOp32
 70
     1
102
RTVSPost2010Prop33
280
     0
102
RTVSPost2010PropOp33
 70
     1
102
RTVSPost2010Prop34
280
     0
102
RTVSPost2010PropOp34
 70
     1
102
RTVSPost2010Prop35
280
     0
102
RTVSPost2010PropOp35
 70
     1
102
RTVSPost2010Prop36
280
     0
102
RTVSPost2010PropOp36
 70
     1
102
RTVSPost2010Prop37
 90
       50
102
RTVSPost2010PropOp37
 70
     1
102
RTVSPost2010Prop38
140
0.0
102
RTVSPost2010PropOp38
 70
     1
102
RTVSPost2010Prop39
140
1.0
102
RTVSPost2010PropOp39
 70
     1
102
RTVSPost2010Prop40
 90
        0
102
RTVSPost2010PropOp40
 70
     1
102
RTVSPost2010Prop41ColorIndex
 90
       18
102
RTVSPost2010Prop41ColorRGB
 90
        0
102
RTVSPost2010PropOp41
 70
     1
102
RTVSPost2010Prop42
 90
       50
102
RTVSPost2010PropOp42
 70
     1
102
RTVSPost2010Prop43
 90
        3
102
RTVSPost2010PropOp43
 70
     1
102
RTVSPost2010Prop44ColorIndex
 90
        5
102
RTVSPost2010Prop44ColorRGB
 90
      255
102
RTVSPost2010PropOp44
 70
     1
102
RTVSPost2010Prop45
280
     0
102
RTVSPost2010PropOp45
 70
     1
102
RTVSPost2010Prop46
 90
       50
102
RTVSPost2010PropOp46
 70
     1
102
RTVSPost2010Prop47
 90
       50
102
RTVSPost2010PropOp47
 70
     1
102
RTVSPost2010Prop48
 90
       50
102
RTVSPost2010PropOp48
 70
     1
102
RTVSPost2010Prop49
280
     0
102
RTVSPost2010PropOp49
 70
     1
102
RTVSPost2010Prop50
 90
       50
102
RTVSPost2010PropOp50
 70
     1
102
RTVSPost2010Prop51ColorIndex
 90
      256
102
RTVSPost2010Prop51ColorRGB
 90
-16777216
102
RTVSPost2010PropOp51
 70
     0
102
RTVSPost2010Prop52
140
1.0
102
RTVSPost2010PropOp52
 70
     0
102
RTVSPost2010Prop53
 90
        2
102
RTVSPost2010PropOp53
 70
     1
102
RTVSPost2010Prop54
  1
strokes_ogs.tif
102
RTVSPost2010PropOp54
 70
     1
102
RTVSPost2010Prop55
280
     0
102
RTVSPost2010PropOp55
 70
     1
102
RTVSPost2010Prop56
140
1.0
102
RTVSPost2010PropOp56
 70
     1
102
RTVSPost2010Prop57
140
1.0
102
RTVSPost2010PropOp57
 70
     1
102
RTVSPropertyOp0
 70
     1
102
RTVSPropertyOp1
 70
     1
102
RTVSPropertyOp2
 70
     1
102
RTVSPropertyOp3
 70
     1
102
RTVSPropertyOp4
 70
     1
102
RTVSPropertyOp5
 70
     1
102
RTVSPropertyOp6
 70
     1
102
RTVSPropertyOp7
 70
     1
102
RTVSPropertyOp8
 70
     1
102
RTVSPropertyOp9
 70
     1
102
RTVSPropertyOp10
 70
     1
102
RTVSPropertyOp11
 70
     1
102
RTVSPropertyOp12
 70
     1
102
RTVSPropertyOp13
 70
     1
102
RTVSPropertyOp14
 70
     1
102
RTVSPropertyOp15
 70
     1
102
RTVSPropertyOp16
 70
     1
102
RTVSPropertyOp17
 70
     1
102
RTVSPropertyOp18
 70
     1
102
RTVSPropertyOp19
 70
     1
102
RTVSPropertyOp20
 70
     1
102
RTVSPropertyOp21
 70
     1
102
RTVSPropertyOp22
 70
     1
102
RTVSPropertyOp23
 70
     1
102
RTVSPropertyOp24
 70
     1
102
RTVSPropertyOp25
 70
     1
102
RTVSPropertyOp26
 70
     1
102
RTVSPropertyOp27
 70
     1
102
RTVSPropertyOp28
 70
     1
102
RTVSPropertyOp29
 70
     1
102
RTVSPropertyOp30
 70
     1
102
RTVSPropertyOp31
 70
     1
102
RTVSPropertyOp32
 70
     1
102
RTVSPropertyOp33
 70
     1
102
RTVSPropertyOp34
 70
     1
102
RTVSPropertyOp35
 70
     1
102
RTVSPropertyOp36
 70
     1
102
RTVSPropertyOp37
 70
     1
102
RTVSPropertyOp38
 70
     1
102
RTVSPropertyOp39
 70
     1
102
RTVSPropertyOp40
 70
     1
102
RTVSPropertyOp41
 70
     1
102
RTVSPropertyOp42
 70
     1
102
RTVSPropertyOp43
 70
     1
102
RTVSPropertyOp44
 70
     1
102
RTVSPropertyOp45
 70
     1
102
RTVSPropertyOp46
 70
     1
102
RTVSPropertyOp47
 70
     1
102
RTVSPropertyOp48
 70
     1
102
RTVSPropertyOp49
 70
     1
102
RTVSPropertyOp50
 70
     1
102
RTVSPropertyOp51
 70
     0
102
RTVSPropertyOp52
 70
     0
102
RTVSPropertyOp53
 70
     1
102
RTVSPropertyOp54
 70
     1
102
RTVSPropertyOp55
 70
     1
102
RTVSPropertyOp56
 70
     1
102
RTVSPropertyOp57
 70
     1
102
RTVSPropertyOp58
 70
     1
102
RTVSPropertyOp59
 70
     1
102
RTVSPropertyOp60
 70
     1
102
RTVSPropertyOp61
 70
     1
102
RTVSPropertyOp62
 70
     1
  0
ENDSEC
  0
EOF
