  0
SECTION
  2
HEADER
  9
$ACADVER
  1
AC1015
  9
$ACADMAINTVER
 70
    20
  9
$DWGCODEPAGE
  3
ANSI_932
  9
$INSBASE
 10
0.0
 20
0.0
 30
0.0
  9
$EXTMIN
 10
9.9999975266385
 20
10.0
 30
0.0
  9
$EXTMAX
 10
397.8018201886127
 20
276.155025248714
 30
0.0
  9
$LIMMIN
 10
0.0000015376081137
 20
-0.0000001931532552
  9
$LIMMAX
 10
495.0000015376081
 20
341.2499998068465
  9
$ORTHOMODE
 70
     1
  9
$REGENMODE
 70
     1
  9
$FILLMODE
 70
     1
  9
$QTEXTMODE
 70
     0
  9
$MIRRTEXT
 70
     1
  9
$LTSCALE
 40
1.0
  9
$ATTMODE
 70
     1
  9
$TEXTSIZE
 40
2.5
  9
$TRACEWID
 40
1.0
  9
$TEXTSTYLE
  7
STANDARD
  9
$CLAYER
  8
0
  9
$CELTYPE
  6
BYLAYER
  9
$CECOLOR
 62
   256
  9
$CELTSCALE
 40
1.0
  9
$DISPSILH
 70
     0
  9
$DIMSCALE
 40
1.0
  9
$DIMASZ
 40
3.0
  9
$DIMEXO
 40
1.0
  9
$DIMDLI
 40
10.0
  9
$DIMRND
 40
0.0
  9
$DIMDLE
 40
0.0
  9
$DIMEXE
 40
1.0
  9
$DIMTP
 40
0.0
  9
$DIMTM
 40
0.0
  9
$DIMTXT
 40
3.2
  9
$DIMCEN
 40
0.0
  9
$DIMTSZ
 40
0.0
  9
$DIMTOL
 70
     0
  9
$DIMLIM
 70
     0
  9
$DIMTIH
 70
     0
  9
$DIMTOH
 70
     0
  9
$DIMSE1
 70
     0
  9
$DIMSE2
 70
     0
  9
$DIMTAD
 70
     3
  9
$DIMZIN
 70
     8
  9
$DIMBLK
  1

  9
$DIMASO
 70
     1
  9
$DIMSHO
 70
     1
  9
$DIMPOST
  1

  9
$DIMAPOST
  1

  9
$DIMALT
 70
     0
  9
$DIMALTD
 70
     2
  9
$DIMALTF
 40
25.4
  9
$DIMLFAC
 40
1.0
  9
$DIMTOFL
 70
     1
  9
$DIMTVP
 40
0.0
  9
$DIMTIX
 70
     0
  9
$DIMSOXD
 70
     0
  9
$DIMSAH
 70
     1
  9
$DIMBLK1
  1
OPEN
  9
$DIMBLK2
  1
OPEN
  9
$DIMSTYLE
  2
STANDARD
  9
$DIMCLRD
 70
     0
  9
$DIMCLRE
 70
     0
  9
$DIMCLRT
 70
     0
  9
$DIMTFAC
 40
1.0
  9
$DIMGAP
 40
1.0
  9
$DIMJUST
 70
     0
  9
$DIMSD1
 70
     0
  9
$DIMSD2
 70
     0
  9
$DIMTOLJ
 70
     1
  9
$DIMTZIN
 70
     0
  9
$DIMALTZ
 70
     0
  9
$DIMALTTZ
 70
     0
  9
$DIMUPT
 70
     0
  9
$DIMDEC
 70
     4
  9
$DIMTDEC
 70
     4
  9
$DIMALTU
 70
     2
  9
$DIMALTTD
 70
     2
  9
$DIMTXSTY
  7
STANDARD
  9
$DIMAUNIT
 70
     0
  9
$DIMADEC
 70
     0
  9
$DIMALTRND
 40
0.0
  9
$DIMAZIN
 70
     0
  9
$DIMDSEP
 70
    46
  9
$DIMATFIT
 70
     3
  9
$DIMFRAC
 70
     0
  9
$DIMLDRBLK
  1
OPEN
  9
$DIMLUNIT
 70
     2
  9
$DIMLWD
 70
    -2
  9
$DIMLWE
 70
    -2
  9
$DIMTMOVE
 70
     0
  9
$LUNITS
 70
     2
  9
$LUPREC
 70
     4
  9
$SKETCHINC
 40
1.0
  9
$FILLETRAD
 40
10.0
  9
$AUNITS
 70
     0
  9
$AUPREC
 70
     0
  9
$MENU
  1
.
  9
$ELEVATION
 40
0.0
  9
$PELEVATION
 40
0.0
  9
$THICKNESS
 40
0.0
  9
$LIMCHECK
 70
     0
  9
$CHAMFERA
 40
10.0
  9
$CHAMFERB
 40
10.0
  9
$CHAMFERC
 40
0.0
  9
$CHAMFERD
 40
0.0
  9
$SKPOLY
 70
     0
  9
$TDCREATE
 40
2452259.692826597
  9
$TDUCREATE
 40
2452259.317826597
  9
$TDUPDATE
 40
2457192.643171343
  9
$TDUUPDATE
 40
2457192.268171342
  9
$TDINDWG
 40
0.0216257523
  9
$TDUSRTIMER
 40
0.0216254282
  9
$USRTIMER
 70
     1
  9
$ANGBASE
 50
0.0
  9
$ANGDIR
 70
     0
  9
$PDMODE
 70
     0
  9
$PDSIZE
 40
0.0
  9
$PLINEWID
 40
0.0
  9
$SPLFRAME
 70
     0
  9
$SPLINETYPE
 70
     6
  9
$SPLINESEGS
 70
     8
  9
$HANDSEED
  5
163D
  9
$SURFTAB1
 70
     6
  9
$SURFTAB2
 70
     6
  9
$SURFTYPE
 70
     6
  9
$SURFU
 70
     6
  9
$SURFV
 70
     6
  9
$UCSBASE
  2

  9
$UCSNAME
  2

  9
$UCSORG
 10
0.0
 20
0.0
 30
0.0
  9
$UCSXDIR
 10
1.0
 20
0.0
 30
0.0
  9
$UCSYDIR
 10
0.0
 20
1.0
 30
0.0
  9
$UCSORTHOREF
  2

  9
$UCSORTHOVIEW
 70
     0
  9
$UCSORGTOP
 10
0.0
 20
0.0
 30
0.0
  9
$UCSORGBOTTOM
 10
0.0
 20
0.0
 30
0.0
  9
$UCSORGLEFT
 10
0.0
 20
0.0
 30
0.0
  9
$UCSORGRIGHT
 10
0.0
 20
0.0
 30
0.0
  9
$UCSORGFRONT
 10
0.0
 20
0.0
 30
0.0
  9
$UCSORGBACK
 10
0.0
 20
0.0
 30
0.0
  9
$PUCSBASE
  2

  9
$PUCSNAME
  2

  9
$PUCSORG
 10
0.0
 20
0.0
 30
0.0
  9
$PUCSXDIR
 10
1.0
 20
0.0
 30
0.0
  9
$PUCSYDIR
 10
0.0
 20
1.0
 30
0.0
  9
$PUCSORTHOREF
  2

  9
$PUCSORTHOVIEW
 70
     0
  9
$PUCSORGTOP
 10
0.0
 20
0.0
 30
0.0
  9
$PUCSORGBOTTOM
 10
0.0
 20
0.0
 30
0.0
  9
$PUCSORGLEFT
 10
0.0
 20
0.0
 30
0.0
  9
$PUCSORGRIGHT
 10
0.0
 20
0.0
 30
0.0
  9
$PUCSORGFRONT
 10
0.0
 20
0.0
 30
0.0
  9
$PUCSORGBACK
 10
0.0
 20
0.0
 30
0.0
  9
$USERI1
 70
     0
  9
$USERI2
 70
     0
  9
$USERI3
 70
     0
  9
$USERI4
 70
     0
  9
$USERI5
 70
     0
  9
$USERR1
 40
0.0
  9
$USERR2
 40
0.0
  9
$USERR3
 40
0.0
  9
$USERR4
 40
0.0
  9
$USERR5
 40
0.0
  9
$WORLDVIEW
 70
     1
  9
$SHADEDGE
 70
     3
  9
$SHADEDIF
 70
    70
  9
$TILEMODE
 70
     1
  9
$MAXACTVP
 70
    48
  9
$PINSBASE
 10
0.0
 20
0.0
 30
0.0
  9
$PLIMCHECK
 70
     0
  9
$PEXTMIN
 10
1.000000000000000E+20
 20
1.000000000000000E+20
 30
1.000000000000000E+20
  9
$PEXTMAX
 10
-1.000000000000000E+20
 20
-1.000000000000000E+20
 30
-1.000000000000000E+20
  9
$PLIMMIN
 10
0.0
 20
0.0
  9
$PLIMMAX
 10
420.0
 20
297.0
  9
$UNITMODE
 70
     0
  9
$VISRETAIN
 70
     1
  9
$PLINEGEN
 70
     0
  9
$PSLTSCALE
 70
     1
  9
$TREEDEPTH
 70
  3020
  9
$CMLSTYLE
  2
STANDARD
  9
$CMLJUST
 70
     0
  9
$CMLSCALE
 40
1.0
  9
$PROXYGRAPHICS
 70
     1
  9
$MEASUREMENT
 70
     0
  9
$CELWEIGHT
370
    -1
  9
$ENDCAPS
280
     0
  9
$JOINSTYLE
280
     0
  9
$LWDISPLAY
290
     0
  9
$INSUNITS
 70
     0
  9
$HYPERLINKBASE
  1

  9
$STYLESHEET
  1

  9
$XEDIT
290
     1
  9
$CEPSNTYPE
380
     0
  9
$PSTYLEMODE
290
     1
  9
$FINGERPRINTGUID
  2
{CC7C0530-3154-494C-958B-5E366DB12C9C}
  9
$VERSIONGUID
  2
{1677862F-8738-45ED-9359-64FCF3653F46}
  9
$EXTNAMES
290
     1
  9
$PSVPSCALE
 40
0.0
  9
$OLESTARTUP
290
     0
  0
ENDSEC
  0
SECTION
  2
CLASSES
  0
CLASS
  1
ACDBDICTIONARYWDFLT
  2
AcDbDictionaryWithDefault
  3
ObjectDBX Classes
 90
        0
280
     0
281
     0
  0
CLASS
  1
ACDBPLACEHOLDER
  2
AcDbPlaceHolder
  3
ObjectDBX Classes
 90
        0
280
     0
281
     0
  0
CLASS
  1
LAYOUT
  2
AcDbLayout
  3
ObjectDBX Classes
 90
        0
280
     0
281
     0
  0
CLASS
  1
DICTIONARYVAR
  2
AcDbDictionaryVar
  3
ObjectDBX Classes
 90
        0
280
     0
281
     0
  0
CLASS
  1
MATERIAL
  2
AcDbMaterial
  3
ObjectDBX Classes
 90
     1153
280
     0
281
     0
  0
CLASS
  1
VISUALSTYLE
  2
AcDbVisualStyle
  3
ObjectDBX Classes
 90
     4095
280
     0
281
     0
  0
CLASS
  1
TABLESTYLE
  2
AcDbTableStyle
  3
ObjectDBX Classes
 90
     4095
280
     0
281
     0
  0
CLASS
  1
SCALE
  2
AcDbScale
  3
ObjectDBX Classes
 90
     1153
280
     0
281
     0
  0
CLASS
  1
MLEADERSTYLE
  2
AcDbMLeaderStyle
  3
ACDB_MLEADERSTYLE_CLASS
 90
     4095
280
     0
281
     0
  0
CLASS
  1
ACDBSECTIONVIEWSTYLE
  2
AcDbSectionViewStyle
  3
ObjectDBX Classes
 90
     1025
280
     0
281
     0
  0
CLASS
  1
ACDBDETAILVIEWSTYLE
  2
AcDbDetailViewStyle
  3
ObjectDBX Classes
 90
     1025
280
     0
281
     0
  0
CLASS
  1
CELLSTYLEMAP
  2
AcDbCellStyleMap
  3
ObjectDBX Classes
 90
     1152
280
     0
281
     0
  0
ENDSEC
  0
SECTION
  2
TABLES
  0
TABLE
  2
VPORT
  5
1158
330
0
100
AcDbSymbolTable
 70
     1
  0
VPORT
  5
1587
330
1158
100
AcDbSymbolTableRecord
100
AcDbViewportTableRecord
  2
*ACTIVE
 70
     0
 10
0.0
 20
0.0
 11
1.0
 21
1.0
 12
284.5223621446097
 22
143.0796438188259
 13
0.0
 23
0.0
 14
10.0
 24
10.0
 15
10.0
 25
10.0
 16
0.0
 26
0.0
 36
1.0
 17
0.0
 27
0.0
 37
0.0
 40
269.1621216633332
 41
1.899603698811096
 42
50.0
 43
0.0
 44
0.0
 50
0.0
 51
0.0
 71
     0
 72
   100
 73
     1
 74
     0
 75
     0
 76
     0
 77
     0
 78
     0
281
     0
 65
     1
110
0.0
120
0.0
130
0.0
111
1.0
121
0.0
131
0.0
112
0.0
122
1.0
132
0.0
 79
     0
146
0.0
1001
ACAD_NAV_VCDISPLAY
1070
     3
  0
ENDTAB
  0
TABLE
  2
LTYPE
  5
1155
330
0
100
AcDbSymbolTable
 70
     4
  0
LTYPE
  5
1163
330
1155
100
AcDbSymbolTableRecord
100
AcDbLinetypeTableRecord
  2
BYBLOCK
 70
     0
  3

 72
    65
 73
     0
 40
0.0
  0
LTYPE
  5
1164
330
1155
100
AcDbSymbolTableRecord
100
AcDbLinetypeTableRecord
  2
BYLAYER
 70
     0
  3

 72
    65
 73
     0
 40
0.0
  0
LTYPE
  5
1165
330
1155
100
AcDbSymbolTableRecord
100
AcDbLinetypeTableRecord
  2
CONTINUOUS
 70
     0
  3
Solid line
 72
    65
 73
     0
 40
0.0
  0
LTYPE
  5
1173
330
1155
100
AcDbSymbolTableRecord
100
AcDbLinetypeTableRecord
  2
DASHED
 70
     0
  3
Dashed __ __ __ __ __ __ __ __ __ __ __ __ __ _
 72
    65
 73
     2
 40
19.04999999999997
 49
12.7
 74
     0
 49
-6.349999999999997
 74
     0
  0
LTYPE
  5
1174
330
1155
100
AcDbSymbolTableRecord
100
AcDbLinetypeTableRecord
  2
CENTER
 70
     0
  3
Center ____ _ ____ _ ____ _ ____ _ ____ _ ____
 72
    65
 73
     4
 40
50.8
 49
31.75
 74
     0
 49
-6.349999999999997
 74
     0
 49
6.349999999999997
 74
     0
 49
-6.349999999999997
 74
     0
  0
LTYPE
  5
1175
330
1155
100
AcDbSymbolTableRecord
100
AcDbLinetypeTableRecord
  2
PHANTOM
 70
     0
  3
Phantom ______  __  __  ______  __  __  ______
 72
    65
 73
     6
 40
63.5
 49
31.75
 74
     0
 49
-6.349999999999997
 74
     0
 49
6.349999999999997
 74
     0
 49
-6.349999999999997
 74
     0
 49
6.349999999999997
 74
     0
 49
-6.349999999999997
 74
     0
  0
ENDTAB
  0
TABLE
  2
LAYER
  5
1152
330
0
100
AcDbSymbolTable
 70
     8
  0
LAYER
  5
1160
102
{ACAD_XDICTIONARY
360
15E1
102
}
330
1152
100
AcDbSymbolTableRecord
100
AcDbLayerTableRecord
  2
0
 70
     0
 62
     7
  6
CONTINUOUS
370
    -3
390
1590
  0
LAYER
  5
1176
102
{ACAD_XDICTIONARY
360
15E3
102
}
330
1152
100
AcDbSymbolTableRecord
100
AcDbLayerTableRecord
  2
4
 70
     0
 62
     1
  6
CENTER
370
    -3
390
1590
  0
LAYER
  5
1177
102
{ACAD_XDICTIONARY
360
15E5
102
}
330
1152
100
AcDbSymbolTableRecord
100
AcDbLayerTableRecord
  2
5
 70
     0
 62
     6
  6
PHANTOM
370
    -3
390
1590
  0
LAYER
  5
1178
102
{ACAD_XDICTIONARY
360
15E7
102
}
330
1152
100
AcDbSymbolTableRecord
100
AcDbLayerTableRecord
  2
1
 70
     0
 62
     7
  6
CONTINUOUS
370
    -3
390
1590
  0
LAYER
  5
1179
102
{ACAD_XDICTIONARY
360
15E9
102
}
330
1152
100
AcDbSymbolTableRecord
100
AcDbLayerTableRecord
  2
2
 70
     0
 62
     4
  6
CONTINUOUS
370
    -3
390
1590
  0
LAYER
  5
117A
102
{ACAD_XDICTIONARY
360
15EB
102
}
330
1152
100
AcDbSymbolTableRecord
100
AcDbLayerTableRecord
  2
3
 70
     0
 62
     2
  6
DASHED
370
    -3
390
1590
  0
LAYER
  5
117B
102
{ACAD_XDICTIONARY
360
15ED
102
}
330
1152
100
AcDbSymbolTableRecord
100
AcDbLayerTableRecord
  2
6
 70
     0
 62
     5
  6
CONTINUOUS
370
    -3
390
1590
  0
LAYER
  5
117C
102
{ACAD_XDICTIONARY
360
15EF
102
}
330
1152
100
AcDbSymbolTableRecord
100
AcDbLayerTableRecord
  2
7
 70
     0
 62
     3
  6
CONTINUOUS
370
    -3
390
1590
  0
ENDTAB
  0
TABLE
  2
STYLE
  5
1153
330
0
100
AcDbSymbolTable
 70
     1
  0
STYLE
  5
1161
330
1153
100
AcDbSymbolTableRecord
100
AcDbTextStyleTableRecord
  2
STANDARD
 70
     0
 40
0.0
 41
1.0
 50
0.0
 71
     0
 42
2.5
  3
simplex.shx
  4

  0
ENDTAB
  0
TABLE
  2
VIEW
  5
1156
330
0
100
AcDbSymbolTable
 70
     0
  0
ENDTAB
  0
TABLE
  2
UCS
  5
1157
330
0
100
AcDbSymbolTable
 70
     0
  0
ENDTAB
  0
TABLE
  2
APPID
  5
1159
330
0
100
AcDbSymbolTable
 70
     7
  0
APPID
  5
1162
330
1159
100
AcDbSymbolTableRecord
100
AcDbRegAppTableRecord
  2
ACAD
 70
     0
  0
APPID
  5
117D
330
1159
100
AcDbSymbolTableRecord
100
AcDbRegAppTableRecord
  2
CONTENTTABDATA
 70
     0
  0
APPID
  5
117E
330
1159
100
AcDbSymbolTableRecord
100
AcDbRegAppTableRecord
  2
CONTENTCURRENTTAB
 70
     0
  0
APPID
  5
117F
330
1159
100
AcDbSymbolTableRecord
100
AcDbRegAppTableRecord
  2
CONTENTBLOCKICON
 70
     0
  0
APPID
  5
1180
330
1159
100
AcDbSymbolTableRecord
100
AcDbRegAppTableRecord
  2
CONTENTBLOCKDESCRIPTION
 70
     0
  0
APPID
  5
15FB
330
1159
100
AcDbSymbolTableRecord
100
AcDbRegAppTableRecord
  2
ACAD_NAV_VCDISPLAY
 70
     0
  0
APPID
  5
1634
330
1159
100
AcDbSymbolTableRecord
100
AcDbRegAppTableRecord
  2
ACAD_MLEADERVER
 70
     0
  0
ENDTAB
  0
TABLE
  2
DIMSTYLE
  5
115A
330
0
100
AcDbSymbolTable
 70
     1
100
AcDbDimStyleTable
 71
     0
  0
DIMSTYLE
105
1181
330
115A
100
AcDbSymbolTableRecord
100
AcDbDimStyleTableRecord
  2
STANDARD
 70
     0
 41
3.0
 42
1.0
 43
10.0
 44
1.0
 73
     0
 74
     0
 77
     3
 78
     8
140
3.2
141
0.0
147
1.0
172
     1
173
     1
284
     8
285
     8
286
     8
340
1161
  0
ENDTAB
  0
TABLE
  2
BLOCK_RECORD
  5
1151
330
0
100
AcDbSymbolTable
 70
     1
  0
BLOCK_RECORD
  5
116E
102
{ACAD_XDICTIONARY
360
158A
102
}
330
1151
100
AcDbSymbolTableRecord
100
AcDbBlockTableRecord
  2
*MODEL_SPACE
340
15DE
  0
BLOCK_RECORD
  5
116A
102
{ACAD_XDICTIONARY
360
1588
102
}
330
1151
100
AcDbSymbolTableRecord
100
AcDbBlockTableRecord
  2
*PAPER_SPACE
340
15DF
  0
BLOCK_RECORD
  5
1189
330
1151
100
AcDbSymbolTableRecord
100
AcDbBlockTableRecord
  2
_OPEN
340
0
  0
ENDTAB
  0
ENDSEC
  0
SECTION
  2
BLOCKS
  0
BLOCK
  5
116F
330
116E
100
AcDbEntity
  8
0
100
AcDbBlockBegin
  2
*MODEL_SPACE
 70
     0
 10
0.0
 20
0.0
 30
0.0
  3
*MODEL_SPACE
  1

  0
ENDBLK
  5
1170
330
116E
100
AcDbEntity
  8
0
100
AcDbBlockEnd
  0
BLOCK
  5
116B
330
116A
100
AcDbEntity
 67
     1
  8
0
100
AcDbBlockBegin
  2
*PAPER_SPACE
 70
     0
 10
0.0
 20
0.0
 30
0.0
  3
*PAPER_SPACE
  1

  0
ENDBLK
  5
116C
330
116A
100
AcDbEntity
 67
     1
  8
0
100
AcDbBlockEnd
  0
BLOCK
  5
118A
330
1189
100
AcDbEntity
  8
0
100
AcDbBlockBegin
  2
_OPEN
 70
     0
 10
0.0
 20
0.0
 30
0.0
  3
_OPEN
  1

  0
LINE
  5
118B
330
1189
100
AcDbEntity
  8
0
  6
ByBlock
 62
     0
100
AcDbLine
 10
-1.0
 20
0.1666666666666666
 30
0.0
 11
0.0
 21
0.0
 31
0.0
  0
LINE
  5
118C
330
1189
100
AcDbEntity
  8
0
  6
ByBlock
 62
     0
100
AcDbLine
 10
0.0
 20
0.0
 30
0.0
 11
-1.0
 21
-0.1666666666666666
 31
0.0
  0
LINE
  5
118D
330
1189
100
AcDbEntity
  8
0
  6
ByBlock
 62
     0
100
AcDbLine
 10
0.0
 20
0.0
 30
0.0
 11
-1.0
 21
0.0
 31
0.0
  0
ENDBLK
  5
118E
330
1189
100
AcDbEntity
  8
0
100
AcDbBlockEnd
  0
ENDSEC
  0
SECTION
  2
ENTITIES
  0
TEXT
  5
118F
330
116E
100
AcDbEntity
  8
4
  6
CENTER
100
AcDbText
 10
23.97950852663849
 20
10.0
 30
0.0
 40
1.399999999999999
  1
4
100
AcDbText
  0
TEXT
  5
1190
330
116E
100
AcDbEntity
  8
7
  6
Continuous
100
AcDbText
 10
9.999997526638502
 20
26.00000076076889
 30
0.0
 40
3.0
  1
CODE No.13202
100
AcDbText
  0
TEXT
  5
1191
330
116E
100
AcDbEntity
  8
7
  6
Continuous
100
AcDbText
 10
9.999997526638502
 20
18.00000076076889
 30
0.0
 40
3.0
  1
TYPE No.THA-436
100
AcDbText
  0
TEXT
  5
1192
330
116E
100
AcDbEntity
  8
1
  6
Continuous
100
AcDbText
 10
9.999997526638502
 20
10.00000076076889
 30
0.0
 40
1.399999999999999
  1
LAYER
100
AcDbText
  0
TEXT
  5
1193
330
116E
100
AcDbEntity
  8
2
  6
Continuous
100
AcDbText
 10
19.9795085266385
 20
10.0
 30
0.0
 40
1.399999999999999
  1
2
100
AcDbText
  0
TEXT
  5
1194
330
116E
100
AcDbEntity
  8
3
  6
DASHED
100
AcDbText
 10
21.97950852663848
 20
10.0
 30
0.0
 40
1.399999999999999
  1
3
100
AcDbText
  0
TEXT
  5
1195
330
116E
100
AcDbEntity
  8
1
  6
Continuous
100
AcDbText
 10
17.9795085266385
 20
10.0
 30
0.0
 40
1.399999999999999
  1
1
100
AcDbText
  0
TEXT
  5
1196
330
116E
100
AcDbEntity
  8
5
  6
PHANTOM
100
AcDbText
 10
25.97950852663849
 20
10.0
 30
0.0
 40
1.399999999999999
  1
5
100
AcDbText
  0
TEXT
  5
1197
330
116E
100
AcDbEntity
  8
6
  6
Continuous
100
AcDbText
 10
27.97950852663849
 20
10.0
 30
0.0
 40
1.399999999999999
  1
6
100
AcDbText
  0
TEXT
  5
1198
330
116E
100
AcDbEntity
  8
7
  6
Continuous
100
AcDbText
 10
29.9795085266385
 20
10.0
 30
0.0
 40
1.399999999999999
  1
7
100
AcDbText
  0
LINE
  5
1199
330
116E
100
AcDbEntity
  8
1
  6
Continuous
100
AcDbLine
 10
120.6876542499989
 20
157.1812422288604
 30
0.0
 11
166.687654249999
 21
157.1812422288948
 31
0.0
  0
LINE
  5
119A
330
116E
100
AcDbEntity
  8
1
  6
Continuous
100
AcDbLine
 10
120.6876542499989
 20
163.8144918095223
 30
0.0
 11
166.687654249999
 21
163.8144918095223
 31
0.0
  0
LINE
  5
119B
330
116E
100
AcDbEntity
  8
1
  6
Continuous
100
AcDbLine
 10
111.3443748715722
 20
154.4978670191575
 30
0.0
 11
183.6876542499989
 21
154.4978670191575
 31
0.0
  0
LINE
  5
119C
330
116E
100
AcDbEntity
  8
1
  6
Continuous
100
AcDbLine
 10
111.3443748715716
 20
166.4978670191574
 30
0.0
 11
183.6876542499989
 21
166.4978670191574
 31
0.0
  0
ARC
  5
119D
330
116E
100
AcDbEntity
  8
1
  6
Continuous
100
AcDbCircle
 10
-128.1054025956564
 20
160.4978670191671
 30
0.0
 40
173.5312499987315
100
AcDbArc
 50
347.4919345120714
 51
12.5080654879286
  0
ARC
  5
119E
330
116E
100
AcDbEntity
  8
1
  6
Continuous
100
AcDbCircle
 10
200.9570974017452
 20
160.4978670191671
 30
0.0
 40
173.5312499987315
100
AcDbArc
 50
167.4919345120714
 51
192.5080654879283
  0
ARC
  5
119F
330
116E
100
AcDbEntity
  8
1
  6
Continuous
100
AcDbCircle
 10
369.6876542499988
 20
160.4978670191674
 30
0.0
 40
261.5
100
AcDbArc
 50
171.3785716406154
 51
188.6214283593844
  0
ARC
  5
11A0
330
116E
100
AcDbEntity
  8
1
  6
Continuous
100
AcDbCircle
 10
369.6876542499988
 20
160.4978670191674
 30
0.0
 40
270.0
100
AcDbArc
 50
171.5244090025626
 51
188.4755909974375
  0
LINE
  5
11A1
330
116E
100
AcDbEntity
  8
4
  6
CENTER
100
AcDbLine
 10
36.42584740304438
 20
115.9978670191671
 30
0.0
 11
36.42584740304438
 21
204.997867019167
 31
0.0
  0
ARC
  5
11A2
330
116E
100
AcDbEntity
  8
1
  6
Continuous
100
AcDbCircle
 10
36.42584740304438
 20
123.9978670191671
 30
0.0
 40
5.0
100
AcDbArc
 50
192.5080654879283
 51
347.4919345120714
  0
LINE
  5
11A3
330
116E
100
AcDbEntity
  8
4
  6
CENTER
100
AcDbLine
 10
29.92584740304435
 20
123.9978670191671
 30
0.0
 11
42.9258474030444
 21
123.9978670191671
 31
0.0
  0
CIRCLE
  5
11A4
330
116E
100
AcDbEntity
  8
1
  6
Continuous
100
AcDbCircle
 10
36.4258474028195
 20
123.9978670191671
 30
0.0
 40
2.75
  0
CIRCLE
  5
11A5
330
116E
100
AcDbEntity
  8
1
  6
Continuous
100
AcDbCircle
 10
36.4258474028195
 20
123.9978670191671
 30
0.0
 40
2.25
  0
LINE
  5
11A6
330
116E
100
AcDbEntity
  8
4
  6
CENTER
100
AcDbLine
 10
112.262422386457
 20
123.9978670191452
 30
0.0
 11
100.6523405828164
 21
123.997867019158
 31
0.0
  0
LINE
  5
11A7
330
116E
100
AcDbEntity
  8
1
  6
Continuous
100
AcDbLine
 10
104.6145511255967
 20
118.9978670191671
 30
0.0
 11
109.1651024430584
 21
118.9978670191671
 31
0.0
  0
ARC
  5
11A8
330
116E
100
AcDbEntity
  8
1
  6
Continuous
100
AcDbCircle
 10
104.6145511255967
 20
120.9978670191671
 30
0.0
 40
2.0
100
AcDbArc
 50
188.4755909974371
 51
270.0
  0
ARC
  5
11A9
330
116E
100
AcDbEntity
  8
1
  6
Continuous
100
AcDbCircle
 10
109.1651024430584
 20
120.9978670191671
 30
0.0
 40
2.0
100
AcDbArc
 50
270.0
 51
8.621428359384406
  0
LINE
  5
11AA
330
116E
100
AcDbEntity
  8
4
  6
CENTER
100
AcDbLine
 10
96.68765424999891
 20
160.4978670191673
 30
0.0
 11
195.034995895362
 21
160.4978670191673
 31
0.0
  0
LINE
  5
11AB
330
116E
100
AcDbEntity
  8
4
  6
CENTER
100
AcDbLine
 10
48.4258474030138
 20
160.4978670191673
 30
0.0
 11
24.4258474030138
 21
160.4978670191673
 31
0.0
  0
ARC
  5
11AC
330
116E
100
AcDbEntity
  8
1
  6
Continuous
100
AcDbCircle
 10
36.42584740304438
 20
196.9978670191671
 30
0.0
 40
5.0
100
AcDbArc
 50
12.50806548792857
 51
167.4919345120714
  0
ARC
  5
11AD
330
116E
100
AcDbEntity
  8
1
  6
Continuous
100
AcDbCircle
 10
111.3443748715722
 20
151.4978670191575
 30
0.0
 40
3.0
100
AcDbArc
 50
90.0
 51
181.9952272762784
  0
ARC
  5
11AE
330
116E
100
AcDbEntity
  8
1
  6
Continuous
100
AcDbCircle
 10
111.3443748715716
 20
169.4978670191574
 30
0.0
 40
3.0
100
AcDbArc
 50
178.0047727237258
 51
270.0
  0
LINE
  5
11AF
330
116E
100
AcDbEntity
  8
1
  6
Continuous
100
AcDbLine
 10
120.6876542499989
 20
163.8144918095223
 30
0.0
 11
120.6876542499989
 21
157.1812422288604
 31
0.0
  0
LINE
  5
11B0
330
116E
100
AcDbEntity
  8
1
  6
Continuous
100
AcDbLine
 10
104.6145511255965
 20
201.9978670191673
 30
0.0
 11
109.1651024430584
 21
201.9978670191673
 31
0.0
  0
ARC
  5
11B1
330
116E
100
AcDbEntity
  8
1
  6
Continuous
100
AcDbCircle
 10
104.6145511255965
 20
199.9978670191673
 30
0.0
 40
2.0
100
AcDbArc
 50
90.0
 51
171.5244090025628
  0
ARC
  5
11B2
330
116E
100
AcDbEntity
  8
1
  6
Continuous
100
AcDbCircle
 10
109.1651024430584
 20
199.9978670191673
 30
0.0
 40
2.0
100
AcDbArc
 50
351.3785716406159
 51
90.0
  0
LINE
  5
11B3
330
116E
100
AcDbEntity
  8
4
  6
CENTER
100
AcDbLine
 10
247.2447372193056
 20
115.9978670191671
 30
0.0
 11
247.2447372193056
 21
204.997867019167
 31
0.0
  0
LINE
  5
11B4
330
116E
100
AcDbEntity
  8
4
  6
CENTER
100
AcDbLine
 10
240.7447372193191
 20
123.9978670191671
 30
0.0
 11
253.744737219319
 21
123.9978670191671
 31
0.0
  0
ARC
  5
11B5
330
116E
100
AcDbEntity
  8
1
  6
Continuous
100
AcDbCircle
 10
247.244737219319
 20
123.9978670191671
 30
0.0
 40
5.0
100
AcDbArc
 50
192.5080654879283
 51
347.4919345120714
  0
CIRCLE
  5
11B6
330
116E
100
AcDbEntity
  8
1
  6
Continuous
100
AcDbCircle
 10
247.2447372193056
 20
123.9978670191671
 30
0.0
 40
2.25
  0
ARC
  5
11B7
330
116E
100
AcDbEntity
  8
1
  6
Continuous
100
AcDbCircle
 10
411.77598721802
 20
160.4978670191671
 30
0.0
 40
173.5312499987315
100
AcDbArc
 50
167.4919345120714
 51
192.5080654879284
  0
LINE
  5
11B8
330
116E
100
AcDbEntity
  8
4
  6
CENTER
100
AcDbLine
 10
259.2447372195
 20
160.4978670191673
 30
0.0
 11
235.2447372194999
 21
160.4978670191673
 31
0.0
  0
LINE
  5
11B9
330
116E
100
AcDbEntity
  8
1
  6
Continuous
100
AcDbLine
 10
166.6876542499989
 20
163.8144918095223
 30
0.0
 11
166.6876542499989
 21
157.181242228895
 31
0.0
  0
LINE
  5
11BA
330
116E
100
AcDbEntity
  8
1
  6
Continuous
100
AcDbLine
 10
189.6876542499988
 20
165.0940610968746
 30
0.0
 11
189.6876542499988
 21
155.9016729414407
 31
0.0
  0
LINE
  5
11BB
330
116E
100
AcDbEntity
  8
1
  6
Continuous
100
AcDbLine
 10
186.6876542499989
 20
168.2478670191574
 30
0.0
 11
186.6876542499989
 21
152.7478670191574
 31
0.0
  0
LINE
  5
11BC
330
116E
100
AcDbEntity
  8
1
  6
Continuous
100
AcDbLine
 10
186.6876542499989
 20
153.0816685320569
 30
0.0
 11
183.6876542499989
 21
153.081668532055
 31
0.0
  0
LINE
  5
11BD
330
116E
100
AcDbEntity
  8
1
  6
Continuous
100
AcDbLine
 10
186.6876542499989
 20
154.9357181538414
 30
0.0
 11
183.6876542499989
 21
154.9357181538439
 31
0.0
  0
LINE
  5
11BE
330
116E
100
AcDbEntity
  8
1
  6
Continuous
100
AcDbLine
 10
183.6876542499989
 20
152.7478670191574
 30
0.0
 11
186.687654249999
 21
152.7478670191574
 31
0.0
  0
LINE
  5
11BF
330
116E
100
AcDbEntity
  8
1
  6
Continuous
100
AcDbLine
 10
183.6876542499989
 20
154.9357181538445
 30
0.0
 11
183.6876542499989
 21
152.7478670191574
 31
0.0
  0
ARC
  5
11C0
330
116E
100
AcDbEntity
  8
1
  6
Continuous
100
AcDbCircle
 10
189.1876542499989
 20
155.9016729414407
 30
0.0
 40
0.5
100
AcDbArc
 50
270.0
 51
0.0
  0
LINE
  5
11C1
330
116E
100
AcDbEntity
  8
1
  6
Continuous
100
AcDbLine
 10
189.1876542499993
 20
155.4016729414406
 30
0.0
 11
186.6876542500244
 21
155.4016729414372
 31
0.0
  0
LINE
  5
11C2
330
116E
100
AcDbEntity
  8
1
  6
Continuous
100
AcDbLine
 10
183.6876542499989
 20
168.2478670191574
 30
0.0
 11
183.6876542499989
 21
166.060015884469
 31
0.0
  0
LINE
  5
11C3
330
116E
100
AcDbEntity
  8
1
  6
Continuous
100
AcDbLine
 10
186.687654249999
 20
167.9140655062379
 30
0.0
 11
183.6876542499989
 21
167.9140655062322
 31
0.0
  0
LINE
  5
11C4
330
116E
100
AcDbEntity
  8
1
  6
Continuous
100
AcDbLine
 10
186.687654249999
 20
166.0600158844725
 30
0.0
 11
183.6876542499989
 21
166.0600158844698
 31
0.0
  0
ARC
  5
11C5
330
116E
100
AcDbEntity
  8
1
  6
Continuous
100
AcDbCircle
 10
189.1876542499989
 20
165.0940610968746
 30
0.0
 40
0.5
100
AcDbArc
 50
0.0
 51
90.0
  0
LINE
  5
11C6
330
116E
100
AcDbEntity
  8
1
  6
Continuous
100
AcDbLine
 10
189.1876542499992
 20
165.5940610968746
 30
0.0
 11
186.6876542500244
 21
165.5940610968763
 31
0.0
  0
LINE
  5
11C7
330
116E
100
AcDbEntity
  8
1
  6
Continuous
100
AcDbLine
 10
183.6876542499989
 20
168.2478670191574
 30
0.0
 11
186.6876542499989
 21
168.2478670191574
 31
0.0
  0
ARC
  5
11C8
330
116E
100
AcDbEntity
  8
1
  6
Continuous
100
AcDbCircle
 10
82.71348722061842
 20
160.4978670191671
 30
0.0
 40
173.5312499987315
100
AcDbArc
 50
347.4919345120714
 51
12.5080654879286
  0
CIRCLE
  5
11C9
330
116E
100
AcDbEntity
  8
1
  6
Continuous
100
AcDbCircle
 10
247.2447372193056
 20
160.4978670191532
 30
0.0
 40
2.75
  0
CIRCLE
  5
11CA
330
116E
100
AcDbEntity
  8
1
  6
Continuous
100
AcDbCircle
 10
247.2447372193056
 20
160.4978670191532
 30
0.0
 40
2.25
  0
ARC
  5
11CB
330
116E
100
AcDbEntity
  8
1
  6
Continuous
100
AcDbCircle
 10
247.2447372193056
 20
160.4978670191532
 30
0.0
 40
3.75
100
AcDbArc
 50
135.0000000000017
 51
225.0000000001433
  0
ARC
  5
11CC
330
116E
100
AcDbEntity
  8
1
  6
Continuous
100
AcDbCircle
 10
247.2447372193056
 20
160.4978670191532
 30
0.0
 40
3.75
100
AcDbArc
 50
314.9999999999579
 51
45.00000000005409
  0
ARC
  5
11CD
330
116E
100
AcDbEntity
  8
1
  6
Continuous
100
AcDbCircle
 10
247.2447372193056
 20
160.4978670191532
 30
0.0
 40
6.0
100
AcDbArc
 50
112.0243128370421
 51
247.9756871629577
  0
ARC
  5
11CE
330
116E
100
AcDbEntity
  8
1
  6
Continuous
100
AcDbCircle
 10
247.2447372193056
 20
160.4978670191532
 30
0.0
 40
6.0
100
AcDbArc
 50
292.024312837042
 51
67.97568716295781
  0
LINE
  5
11CF
330
116E
100
AcDbEntity
  8
1
  6
Continuous
100
AcDbLine
 10
249.8963876487569
 20
157.846216589705
 30
0.0
 11
247.5982906099029
 21
155.5481195508544
 31
0.0
  0
ARC
  5
11D0
330
116E
100
AcDbEntity
  8
1
  6
Continuous
100
AcDbCircle
 10
247.2447372193056
 20
160.4978670191532
 30
0.0
 40
7.75
100
AcDbArc
 50
253.1227305613708
 51
286.8772694386291
  0
LINE
  5
11D1
330
116E
100
AcDbEntity
  8
1
  6
Continuous
100
AcDbLine
 10
244.5930867898576
 20
157.8462165897021
 30
0.0
 11
246.8911838287174
 21
155.5481195508539
 31
0.0
  0
ARC
  5
11D2
330
116E
100
AcDbEntity
  8
1
  6
Continuous
100
AcDbCircle
 10
247.2447372193099
 20
155.901672941448
 30
0.0
 40
0.5
100
AcDbArc
 50
225.0000000001427
 51
314.9999999999585
  0
LINE
  5
11D3
330
116E
100
AcDbEntity
  8
1
  6
Continuous
100
AcDbLine
 10
244.9947372193056
 20
153.0816685320576
 30
0.0
 11
244.9947372193056
 21
154.9357181538313
 31
0.0
  0
LINE
  5
11D4
330
116E
100
AcDbEntity
  8
1
  6
Continuous
100
AcDbLine
 10
249.4947372193056
 20
153.0816685320576
 30
0.0
 11
249.4947372193056
 21
154.9357181538313
 31
0.0
  0
LINE
  5
11D5
330
116E
100
AcDbEntity
  8
1
  6
Continuous
100
AcDbLine
 10
249.896387648754
 20
163.1495174486043
 30
0.0
 11
247.5982906098964
 21
165.4476144874571
 31
0.0
  0
ARC
  5
11D6
330
116E
100
AcDbEntity
  8
1
  6
Continuous
100
AcDbCircle
 10
247.2447372193056
 20
160.4978670191532
 30
0.0
 40
7.75
100
AcDbArc
 50
73.12273056137076
 51
106.8772694386292
  0
ARC
  5
11D7
330
116E
100
AcDbEntity
  8
1
  6
Continuous
100
AcDbCircle
 10
247.2447372193036
 20
165.0940610968637
 30
0.0
 40
0.5
100
AcDbArc
 50
45.00000000005528
 51
135.0000000000022
  0
LINE
  5
11D8
330
116E
100
AcDbEntity
  8
1
  6
Continuous
100
AcDbLine
 10
244.5930867898548
 20
163.1495174486013
 30
0.0
 11
246.8911838287104
 21
165.4476144874568
 31
0.0
  0
LINE
  5
11D9
330
116E
100
AcDbEntity
  8
1
  6
Continuous
100
AcDbLine
 10
244.9947372193056
 20
166.060015884475
 30
0.0
 11
244.9947372193056
 21
167.9140655062488
 31
0.0
  0
LINE
  5
11DA
330
116E
100
AcDbEntity
  8
1
  6
Continuous
100
AcDbLine
 10
249.4947372193056
 20
166.060015884475
 30
0.0
 11
249.4947372193056
 21
167.9140655062488
 31
0.0
  0
ARC
  5
11DB
330
116E
100
AcDbEntity
  8
1
  6
Continuous
100
AcDbCircle
 10
247.244737219319
 20
196.9978670191671
 30
0.0
 40
5.0
100
AcDbArc
 50
12.50806548792857
 51
167.4919345120714
  0
LINE
  5
11DC
330
116E
100
AcDbEntity
  8
1
  6
Continuous
100
AcDbLine
 10
120.687654249999
 20
58.84070878962058
 30
0.0
 11
166.687654249999
 21
58.84070878962058
 31
0.0
  0
LINE
  5
11DD
330
116E
100
AcDbEntity
  8
1
  6
Continuous
100
AcDbLine
 10
110.7702299449589
 20
47.84070878961073
 30
0.0
 11
186.687654249999
 21
47.84070878961073
 31
0.0
  0
LINE
  5
11DE
330
116E
100
AcDbEntity
  8
4
  6
CENTER
100
AcDbLine
 10
96.68765424999891
 20
53.84070878962058
 30
0.0
 11
192.6876542499988
 21
53.84070878962058
 31
0.0
  0
ARC
  5
11DF
330
116E
100
AcDbEntity
  8
1
  6
Continuous
100
AcDbCircle
 10
101.6876542499989
 20
60.84070878962058
 30
0.0
 40
2.0
100
AcDbArc
 50
90.0
 51
180.0
  0
ARC
  5
11E0
330
116E
100
AcDbEntity
  8
1
  6
Continuous
100
AcDbCircle
 10
101.6876542499989
 20
46.84070878962062
 30
0.0
 40
2.0
100
AcDbArc
 50
180.0
 51
270.0
  0
LINE
  5
11E1
330
116E
100
AcDbEntity
  8
1
  6
Continuous
100
AcDbLine
 10
99.68765424999894
 20
60.84070878962058
 30
0.0
 11
99.68765424999894
 21
46.84070878962062
 31
0.0
  0
POLYLINE
  5
11E2
330
116E
100
AcDbEntity
  8
1
  6
Continuous
100
AcDb3dPolyline
 66
     1
 10
0.0
 20
0.0
 30
0.0
 70
     8
  0
VERTEX
  5
11E3
330
11E2
100
AcDbEntity
  8
1
100
AcDbVertex
100
AcDb3dPolylineVertex
 10
110.462
 20
48.84399999999999
 30
0.0
 70
    32
  0
VERTEX
  5
11E4
330
11E2
100
AcDbEntity
  8
1
100
AcDbVertex
100
AcDb3dPolylineVertex
 10
110.4789999999999
 20
48.8498
 30
0.0
 70
    32
  0
VERTEX
  5
11E5
330
11E2
100
AcDbEntity
  8
1
100
AcDbVertex
100
AcDb3dPolylineVertex
 10
110.497
 20
48.8585
 30
0.0
 70
    32
  0
VERTEX
  5
11E6
330
11E2
100
AcDbEntity
  8
1
100
AcDbVertex
100
AcDb3dPolylineVertex
 10
110.514
 20
48.87
 30
0.0
 70
    32
  0
VERTEX
  5
11E7
330
11E2
100
AcDbEntity
  8
1
100
AcDbVertex
100
AcDb3dPolylineVertex
 10
110.532
 20
48.8844
 30
0.0
 70
    32
  0
VERTEX
  5
11E8
330
11E2
100
AcDbEntity
  8
1
100
AcDbVertex
100
AcDb3dPolylineVertex
 10
110.5489999999998
 20
48.9017
 30
0.0
 70
    32
  0
VERTEX
  5
11E9
330
11E2
100
AcDbEntity
  8
1
100
AcDbVertex
100
AcDb3dPolylineVertex
 10
110.566
 20
48.92179999999999
 30
0.0
 70
    32
  0
VERTEX
  5
11EA
330
11E2
100
AcDbEntity
  8
1
100
AcDbVertex
100
AcDb3dPolylineVertex
 10
110.583
 20
48.9447
 30
0.0
 70
    32
  0
VERTEX
  5
11EB
330
11E2
100
AcDbEntity
  8
1
100
AcDbVertex
100
AcDb3dPolylineVertex
 10
110.5999999999998
 20
48.9704
 30
0.0
 70
    32
  0
VERTEX
  5
11EC
330
11E2
100
AcDbEntity
  8
1
100
AcDbVertex
100
AcDb3dPolylineVertex
 10
110.617
 20
48.9989
 30
0.0
 70
    32
  0
VERTEX
  5
11ED
330
11E2
100
AcDbEntity
  8
1
100
AcDbVertex
100
AcDb3dPolylineVertex
 10
110.634
 20
49.0302
 30
0.0
 70
    32
  0
VERTEX
  5
11EE
330
11E2
100
AcDbEntity
  8
1
100
AcDbVertex
100
AcDb3dPolylineVertex
 10
110.651
 20
49.0643
 30
0.0
 70
    32
  0
VERTEX
  5
11EF
330
11E2
100
AcDbEntity
  8
1
100
AcDbVertex
100
AcDb3dPolylineVertex
 10
110.6679999999999
 20
49.1011
 30
0.0
 70
    32
  0
VERTEX
  5
11F0
330
11E2
100
AcDbEntity
  8
1
100
AcDbVertex
100
AcDb3dPolylineVertex
 10
110.684
 20
49.1406
 30
0.0
 70
    32
  0
VERTEX
  5
11F1
330
11E2
100
AcDbEntity
  8
1
100
AcDbVertex
100
AcDb3dPolylineVertex
 10
110.701
 20
49.18289999999998
 30
0.0
 70
    32
  0
VERTEX
  5
11F2
330
11E2
100
AcDbEntity
  8
1
100
AcDbVertex
100
AcDb3dPolylineVertex
 10
110.717
 20
49.2278
 30
0.0
 70
    32
  0
VERTEX
  5
11F3
330
11E2
100
AcDbEntity
  8
1
100
AcDbVertex
100
AcDb3dPolylineVertex
 10
110.7329999999999
 20
49.2753
 30
0.0
 70
    32
  0
VERTEX
  5
11F4
330
11E2
100
AcDbEntity
  8
1
100
AcDbVertex
100
AcDb3dPolylineVertex
 10
110.749
 20
49.32549999999999
 30
0.0
 70
    32
  0
VERTEX
  5
11F5
330
11E2
100
AcDbEntity
  8
1
100
AcDbVertex
100
AcDb3dPolylineVertex
 10
110.7639999999999
 20
49.3783
 30
0.0
 70
    32
  0
VERTEX
  5
11F6
330
11E2
100
AcDbEntity
  8
1
100
AcDbVertex
100
AcDb3dPolylineVertex
 10
110.78
 20
49.4337
 30
0.0
 70
    32
  0
VERTEX
  5
11F7
330
11E2
100
AcDbEntity
  8
1
100
AcDbVertex
100
AcDb3dPolylineVertex
 10
110.7949999999999
 20
49.4916
 30
0.0
 70
    32
  0
VERTEX
  5
11F8
330
11E2
100
AcDbEntity
  8
1
100
AcDbVertex
100
AcDb3dPolylineVertex
 10
110.81
 20
49.5519
 30
0.0
 70
    32
  0
VERTEX
  5
11F9
330
11E2
100
AcDbEntity
  8
1
100
AcDbVertex
100
AcDb3dPolylineVertex
 10
110.8249999999999
 20
49.6148
 30
0.0
 70
    32
  0
VERTEX
  5
11FA
330
11E2
100
AcDbEntity
  8
1
100
AcDbVertex
100
AcDb3dPolylineVertex
 10
110.84
 20
49.6801
 30
0.0
 70
    32
  0
VERTEX
  5
11FB
330
11E2
100
AcDbEntity
  8
1
100
AcDbVertex
100
AcDb3dPolylineVertex
 10
110.854
 20
49.7477
 30
0.0
 70
    32
  0
VERTEX
  5
11FC
330
11E2
100
AcDbEntity
  8
1
100
AcDbVertex
100
AcDb3dPolylineVertex
 10
110.8689999999999
 20
49.8177
 30
0.0
 70
    32
  0
VERTEX
  5
11FD
330
11E2
100
AcDbEntity
  8
1
100
AcDbVertex
100
AcDb3dPolylineVertex
 10
110.8829999999999
 20
49.8901
 30
0.0
 70
    32
  0
VERTEX
  5
11FE
330
11E2
100
AcDbEntity
  8
1
100
AcDbVertex
100
AcDb3dPolylineVertex
 10
110.8959999999999
 20
49.9647
 30
0.0
 70
    32
  0
VERTEX
  5
11FF
330
11E2
100
AcDbEntity
  8
1
100
AcDbVertex
100
AcDb3dPolylineVertex
 10
110.9099999999999
 20
50.0415
 30
0.0
 70
    32
  0
VERTEX
  5
1200
330
11E2
100
AcDbEntity
  8
1
100
AcDbVertex
100
AcDb3dPolylineVertex
 10
110.9229999999999
 20
50.1205
 30
0.0
 70
    32
  0
VERTEX
  5
1201
330
11E2
100
AcDbEntity
  8
1
100
AcDbVertex
100
AcDb3dPolylineVertex
 10
110.936
 20
50.2017
 30
0.0
 70
    32
  0
VERTEX
  5
1202
330
11E2
100
AcDbEntity
  8
1
100
AcDbVertex
100
AcDb3dPolylineVertex
 10
110.948
 20
50.2849
 30
0.0
 70
    32
  0
VERTEX
  5
1203
330
11E2
100
AcDbEntity
  8
1
100
AcDbVertex
100
AcDb3dPolylineVertex
 10
110.9609999999999
 20
50.3702
 30
0.0
 70
    32
  0
VERTEX
  5
1204
330
11E2
100
AcDbEntity
  8
1
100
AcDbVertex
100
AcDb3dPolylineVertex
 10
110.973
 20
50.4575
 30
0.0
 70
    32
  0
VERTEX
  5
1205
330
11E2
100
AcDbEntity
  8
1
100
AcDbVertex
100
AcDb3dPolylineVertex
 10
110.9839999999999
 20
50.5467
 30
0.0
 70
    32
  0
VERTEX
  5
1206
330
11E2
100
AcDbEntity
  8
1
100
AcDbVertex
100
AcDb3dPolylineVertex
 10
110.996
 20
50.6378
 30
0.0
 70
    32
  0
VERTEX
  5
1207
330
11E2
100
AcDbEntity
  8
1
100
AcDbVertex
100
AcDb3dPolylineVertex
 10
111.007
 20
50.7308
 30
0.0
 70
    32
  0
VERTEX
  5
1208
330
11E2
100
AcDbEntity
  8
1
100
AcDbVertex
100
AcDb3dPolylineVertex
 10
111.017
 20
50.8255
 30
0.0
 70
    32
  0
VERTEX
  5
1209
330
11E2
100
AcDbEntity
  8
1
100
AcDbVertex
100
AcDb3dPolylineVertex
 10
111.0279999999999
 20
50.922
 30
0.0
 70
    32
  0
VERTEX
  5
120A
330
11E2
100
AcDbEntity
  8
1
100
AcDbVertex
100
AcDb3dPolylineVertex
 10
111.0379999999999
 20
51.0202
 30
0.0
 70
    32
  0
VERTEX
  5
120B
330
11E2
100
AcDbEntity
  8
1
100
AcDbVertex
100
AcDb3dPolylineVertex
 10
111.0479999999999
 20
51.1199
 30
0.0
 70
    32
  0
VERTEX
  5
120C
330
11E2
100
AcDbEntity
  8
1
100
AcDbVertex
100
AcDb3dPolylineVertex
 10
111.057
 20
51.2213
 30
0.0
 70
    32
  0
VERTEX
  5
120D
330
11E2
100
AcDbEntity
  8
1
100
AcDbVertex
100
AcDb3dPolylineVertex
 10
111.0659999999999
 20
51.3241
 30
0.0
 70
    32
  0
VERTEX
  5
120E
330
11E2
100
AcDbEntity
  8
1
100
AcDbVertex
100
AcDb3dPolylineVertex
 10
111.075
 20
51.4284
 30
0.0
 70
    32
  0
VERTEX
  5
120F
330
11E2
100
AcDbEntity
  8
1
100
AcDbVertex
100
AcDb3dPolylineVertex
 10
111.0829999999999
 20
51.5341
 30
0.0
 70
    32
  0
VERTEX
  5
1210
330
11E2
100
AcDbEntity
  8
1
100
AcDbVertex
100
AcDb3dPolylineVertex
 10
111.091
 20
51.6411
 30
0.0
 70
    32
  0
VERTEX
  5
1211
330
11E2
100
AcDbEntity
  8
1
100
AcDbVertex
100
AcDb3dPolylineVertex
 10
111.098
 20
51.7494
 30
0.0
 70
    32
  0
VERTEX
  5
1212
330
11E2
100
AcDbEntity
  8
1
100
AcDbVertex
100
AcDb3dPolylineVertex
 10
111.105
 20
51.8589
 30
0.0
 70
    32
  0
VERTEX
  5
1213
330
11E2
100
AcDbEntity
  8
1
100
AcDbVertex
100
AcDb3dPolylineVertex
 10
111.1119999999999
 20
51.9695
 30
0.0
 70
    32
  0
VERTEX
  5
1214
330
11E2
100
AcDbEntity
  8
1
100
AcDbVertex
100
AcDb3dPolylineVertex
 10
111.118
 20
52.0812
 30
0.0
 70
    32
  0
VERTEX
  5
1215
330
11E2
100
AcDbEntity
  8
1
100
AcDbVertex
100
AcDb3dPolylineVertex
 10
111.124
 20
52.1939
 30
0.0
 70
    32
  0
VERTEX
  5
1216
330
11E2
100
AcDbEntity
  8
1
100
AcDbVertex
100
AcDb3dPolylineVertex
 10
111.1299999999999
 20
52.3075
 30
0.0
 70
    32
  0
VERTEX
  5
1217
330
11E2
100
AcDbEntity
  8
1
100
AcDbVertex
100
AcDb3dPolylineVertex
 10
111.135
 20
52.422
 30
0.0
 70
    32
  0
VERTEX
  5
1218
330
11E2
100
AcDbEntity
  8
1
100
AcDbVertex
100
AcDb3dPolylineVertex
 10
111.1399999999999
 20
52.5374
 30
0.0
 70
    32
  0
VERTEX
  5
1219
330
11E2
100
AcDbEntity
  8
1
100
AcDbVertex
100
AcDb3dPolylineVertex
 10
111.1439999999999
 20
52.6535
 30
0.0
 70
    32
  0
VERTEX
  5
121A
330
11E2
100
AcDbEntity
  8
1
100
AcDbVertex
100
AcDb3dPolylineVertex
 10
111.148
 20
52.7702
 30
0.0
 70
    32
  0
VERTEX
  5
121B
330
11E2
100
AcDbEntity
  8
1
100
AcDbVertex
100
AcDb3dPolylineVertex
 10
111.152
 20
52.88759999999999
 30
0.0
 70
    32
  0
VERTEX
  5
121C
330
11E2
100
AcDbEntity
  8
1
100
AcDbVertex
100
AcDb3dPolylineVertex
 10
111.155
 20
53.0055
 30
0.0
 70
    32
  0
VERTEX
  5
121D
330
11E2
100
AcDbEntity
  8
1
100
AcDbVertex
100
AcDb3dPolylineVertex
 10
111.1579999999999
 20
53.124
 30
0.0
 70
    32
  0
VERTEX
  5
121E
330
11E2
100
AcDbEntity
  8
1
100
AcDbVertex
100
AcDb3dPolylineVertex
 10
111.1599999999999
 20
53.2428
 30
0.0
 70
    32
  0
VERTEX
  5
121F
330
11E2
100
AcDbEntity
  8
1
100
AcDbVertex
100
AcDb3dPolylineVertex
 10
111.162
 20
53.36199999999999
 30
0.0
 70
    32
  0
VERTEX
  5
1220
330
11E2
100
AcDbEntity
  8
1
100
AcDbVertex
100
AcDb3dPolylineVertex
 10
111.1629999999999
 20
53.4814
 30
0.0
 70
    32
  0
VERTEX
  5
1221
330
11E2
100
AcDbEntity
  8
1
100
AcDbVertex
100
AcDb3dPolylineVertex
 10
111.1639999999999
 20
53.6011
 30
0.0
 70
    32
  0
VERTEX
  5
1222
330
11E2
100
AcDbEntity
  8
1
100
AcDbVertex
100
AcDb3dPolylineVertex
 10
111.165
 20
53.7208
 30
0.0
 70
    32
  0
VERTEX
  5
1223
330
11E2
100
AcDbEntity
  8
1
100
AcDbVertex
100
AcDb3dPolylineVertex
 10
111.165
 20
53.8407
 30
0.0
 70
    32
  0
VERTEX
  5
1224
330
11E2
100
AcDbEntity
  8
1
100
AcDbVertex
100
AcDb3dPolylineVertex
 10
111.165
 20
53.9606
 30
0.0
 70
    32
  0
VERTEX
  5
1225
330
11E2
100
AcDbEntity
  8
1
100
AcDbVertex
100
AcDb3dPolylineVertex
 10
111.1639999999999
 20
54.08039999999999
 30
0.0
 70
    32
  0
VERTEX
  5
1226
330
11E2
100
AcDbEntity
  8
1
100
AcDbVertex
100
AcDb3dPolylineVertex
 10
111.1629999999999
 20
54.2
 30
0.0
 70
    32
  0
VERTEX
  5
1227
330
11E2
100
AcDbEntity
  8
1
100
AcDbVertex
100
AcDb3dPolylineVertex
 10
111.162
 20
54.3195
 30
0.0
 70
    32
  0
VERTEX
  5
1228
330
11E2
100
AcDbEntity
  8
1
100
AcDbVertex
100
AcDb3dPolylineVertex
 10
111.1599999999999
 20
54.4386
 30
0.0
 70
    32
  0
VERTEX
  5
1229
330
11E2
100
AcDbEntity
  8
1
100
AcDbVertex
100
AcDb3dPolylineVertex
 10
111.1579999999999
 20
54.5575
 30
0.0
 70
    32
  0
VERTEX
  5
122A
330
11E2
100
AcDbEntity
  8
1
100
AcDbVertex
100
AcDb3dPolylineVertex
 10
111.155
 20
54.6759
 30
0.0
 70
    32
  0
VERTEX
  5
122B
330
11E2
100
AcDbEntity
  8
1
100
AcDbVertex
100
AcDb3dPolylineVertex
 10
111.152
 20
54.79379999999999
 30
0.0
 70
    32
  0
VERTEX
  5
122C
330
11E2
100
AcDbEntity
  8
1
100
AcDbVertex
100
AcDb3dPolylineVertex
 10
111.148
 20
54.9112
 30
0.0
 70
    32
  0
VERTEX
  5
122D
330
11E2
100
AcDbEntity
  8
1
100
AcDbVertex
100
AcDb3dPolylineVertex
 10
111.1439999999999
 20
55.028
 30
0.0
 70
    32
  0
VERTEX
  5
122E
330
11E2
100
AcDbEntity
  8
1
100
AcDbVertex
100
AcDb3dPolylineVertex
 10
111.1399999999999
 20
55.1441
 30
0.0
 70
    32
  0
VERTEX
  5
122F
330
11E2
100
AcDbEntity
  8
1
100
AcDbVertex
100
AcDb3dPolylineVertex
 10
111.135
 20
55.2594
 30
0.0
 70
    32
  0
VERTEX
  5
1230
330
11E2
100
AcDbEntity
  8
1
100
AcDbVertex
100
AcDb3dPolylineVertex
 10
111.1299999999999
 20
55.3739
 30
0.0
 70
    32
  0
VERTEX
  5
1231
330
11E2
100
AcDbEntity
  8
1
100
AcDbVertex
100
AcDb3dPolylineVertex
 10
111.124
 20
55.4876
 30
0.0
 70
    32
  0
VERTEX
  5
1232
330
11E2
100
AcDbEntity
  8
1
100
AcDbVertex
100
AcDb3dPolylineVertex
 10
111.118
 20
55.6003
 30
0.0
 70
    32
  0
VERTEX
  5
1233
330
11E2
100
AcDbEntity
  8
1
100
AcDbVertex
100
AcDb3dPolylineVertex
 10
111.1119999999999
 20
55.7119
 30
0.0
 70
    32
  0
VERTEX
  5
1234
330
11E2
100
AcDbEntity
  8
1
100
AcDbVertex
100
AcDb3dPolylineVertex
 10
111.105
 20
55.8226
 30
0.0
 70
    32
  0
VERTEX
  5
1235
330
11E2
100
AcDbEntity
  8
1
100
AcDbVertex
100
AcDb3dPolylineVertex
 10
111.098
 20
55.93199999999999
 30
0.0
 70
    32
  0
VERTEX
  5
1236
330
11E2
100
AcDbEntity
  8
1
100
AcDbVertex
100
AcDb3dPolylineVertex
 10
111.091
 20
56.0403
 30
0.0
 70
    32
  0
VERTEX
  5
1237
330
11E2
100
AcDbEntity
  8
1
100
AcDbVertex
100
AcDb3dPolylineVertex
 10
111.0829999999999
 20
56.1473
 30
0.0
 70
    32
  0
VERTEX
  5
1238
330
11E2
100
AcDbEntity
  8
1
100
AcDbVertex
100
AcDb3dPolylineVertex
 10
111.075
 20
56.253
 30
0.0
 70
    32
  0
VERTEX
  5
1239
330
11E2
100
AcDbEntity
  8
1
100
AcDbVertex
100
AcDb3dPolylineVertex
 10
111.0659999999999
 20
56.3573
 30
0.0
 70
    32
  0
VERTEX
  5
123A
330
11E2
100
AcDbEntity
  8
1
100
AcDbVertex
100
AcDb3dPolylineVertex
 10
111.057
 20
56.4601
 30
0.0
 70
    32
  0
VERTEX
  5
123B
330
11E2
100
AcDbEntity
  8
1
100
AcDbVertex
100
AcDb3dPolylineVertex
 10
111.0479999999999
 20
56.5615
 30
0.0
 70
    32
  0
VERTEX
  5
123C
330
11E2
100
AcDbEntity
  8
1
100
AcDbVertex
100
AcDb3dPolylineVertex
 10
111.0379999999999
 20
56.6612
 30
0.0
 70
    32
  0
VERTEX
  5
123D
330
11E2
100
AcDbEntity
  8
1
100
AcDbVertex
100
AcDb3dPolylineVertex
 10
111.0279999999999
 20
56.7594
 30
0.0
 70
    32
  0
VERTEX
  5
123E
330
11E2
100
AcDbEntity
  8
1
100
AcDbVertex
100
AcDb3dPolylineVertex
 10
111.017
 20
56.8559
 30
0.0
 70
    32
  0
VERTEX
  5
123F
330
11E2
100
AcDbEntity
  8
1
100
AcDbVertex
100
AcDb3dPolylineVertex
 10
111.007
 20
56.9506
 30
0.0
 70
    32
  0
VERTEX
  5
1240
330
11E2
100
AcDbEntity
  8
1
100
AcDbVertex
100
AcDb3dPolylineVertex
 10
110.996
 20
57.0436
 30
0.0
 70
    32
  0
VERTEX
  5
1241
330
11E2
100
AcDbEntity
  8
1
100
AcDbVertex
100
AcDb3dPolylineVertex
 10
110.9839999999999
 20
57.1347
 30
0.0
 70
    32
  0
VERTEX
  5
1242
330
11E2
100
AcDbEntity
  8
1
100
AcDbVertex
100
AcDb3dPolylineVertex
 10
110.973
 20
57.2239
 30
0.0
 70
    32
  0
VERTEX
  5
1243
330
11E2
100
AcDbEntity
  8
1
100
AcDbVertex
100
AcDb3dPolylineVertex
 10
110.9609999999999
 20
57.3112
 30
0.0
 70
    32
  0
VERTEX
  5
1244
330
11E2
100
AcDbEntity
  8
1
100
AcDbVertex
100
AcDb3dPolylineVertex
 10
110.948
 20
57.39650000000001
 30
0.0
 70
    32
  0
VERTEX
  5
1245
330
11E2
100
AcDbEntity
  8
1
100
AcDbVertex
100
AcDb3dPolylineVertex
 10
110.936
 20
57.4797
 30
0.0
 70
    32
  0
VERTEX
  5
1246
330
11E2
100
AcDbEntity
  8
1
100
AcDbVertex
100
AcDb3dPolylineVertex
 10
110.9229999999999
 20
57.5609
 30
0.0
 70
    32
  0
VERTEX
  5
1247
330
11E2
100
AcDbEntity
  8
1
100
AcDbVertex
100
AcDb3dPolylineVertex
 10
110.9099999999999
 20
57.63989999999999
 30
0.0
 70
    32
  0
VERTEX
  5
1248
330
11E2
100
AcDbEntity
  8
1
100
AcDbVertex
100
AcDb3dPolylineVertex
 10
110.8959999999999
 20
57.7167
 30
0.0
 70
    32
  0
VERTEX
  5
1249
330
11E2
100
AcDbEntity
  8
1
100
AcDbVertex
100
AcDb3dPolylineVertex
 10
110.8829999999999
 20
57.7913
 30
0.0
 70
    32
  0
VERTEX
  5
124A
330
11E2
100
AcDbEntity
  8
1
100
AcDbVertex
100
AcDb3dPolylineVertex
 10
110.8689999999999
 20
57.8637
 30
0.0
 70
    32
  0
VERTEX
  5
124B
330
11E2
100
AcDbEntity
  8
1
100
AcDbVertex
100
AcDb3dPolylineVertex
 10
110.854
 20
57.9337
 30
0.0
 70
    32
  0
VERTEX
  5
124C
330
11E2
100
AcDbEntity
  8
1
100
AcDbVertex
100
AcDb3dPolylineVertex
 10
110.84
 20
58.00139999999998
 30
0.0
 70
    32
  0
VERTEX
  5
124D
330
11E2
100
AcDbEntity
  8
1
100
AcDbVertex
100
AcDb3dPolylineVertex
 10
110.8249999999999
 20
58.0666
 30
0.0
 70
    32
  0
VERTEX
  5
124E
330
11E2
100
AcDbEntity
  8
1
100
AcDbVertex
100
AcDb3dPolylineVertex
 10
110.81
 20
58.1295
 30
0.0
 70
    32
  0
VERTEX
  5
124F
330
11E2
100
AcDbEntity
  8
1
100
AcDbVertex
100
AcDb3dPolylineVertex
 10
110.7949999999999
 20
58.1899
 30
0.0
 70
    32
  0
VERTEX
  5
1250
330
11E2
100
AcDbEntity
  8
1
100
AcDbVertex
100
AcDb3dPolylineVertex
 10
110.78
 20
58.2477
 30
0.0
 70
    32
  0
VERTEX
  5
1251
330
11E2
100
AcDbEntity
  8
1
100
AcDbVertex
100
AcDb3dPolylineVertex
 10
110.7639999999999
 20
58.3031
 30
0.0
 70
    32
  0
VERTEX
  5
1252
330
11E2
100
AcDbEntity
  8
1
100
AcDbVertex
100
AcDb3dPolylineVertex
 10
110.749
 20
58.35589999999999
 30
0.0
 70
    32
  0
VERTEX
  5
1253
330
11E2
100
AcDbEntity
  8
1
100
AcDbVertex
100
AcDb3dPolylineVertex
 10
110.7329999999999
 20
58.4061
 30
0.0
 70
    32
  0
VERTEX
  5
1254
330
11E2
100
AcDbEntity
  8
1
100
AcDbVertex
100
AcDb3dPolylineVertex
 10
110.717
 20
58.4536
 30
0.0
 70
    32
  0
VERTEX
  5
1255
330
11E2
100
AcDbEntity
  8
1
100
AcDbVertex
100
AcDb3dPolylineVertex
 10
110.701
 20
58.4986
 30
0.0
 70
    32
  0
VERTEX
  5
1256
330
11E2
100
AcDbEntity
  8
1
100
AcDbVertex
100
AcDb3dPolylineVertex
 10
110.684
 20
58.54079999999999
 30
0.0
 70
    32
  0
VERTEX
  5
1257
330
11E2
100
AcDbEntity
  8
1
100
AcDbVertex
100
AcDb3dPolylineVertex
 10
110.6679999999999
 20
58.5803
 30
0.0
 70
    32
  0
VERTEX
  5
1258
330
11E2
100
AcDbEntity
  8
1
100
AcDbVertex
100
AcDb3dPolylineVertex
 10
110.651
 20
58.6171
 30
0.0
 70
    32
  0
VERTEX
  5
1259
330
11E2
100
AcDbEntity
  8
1
100
AcDbVertex
100
AcDb3dPolylineVertex
 10
110.634
 20
58.6512
 30
0.0
 70
    32
  0
VERTEX
  5
125A
330
11E2
100
AcDbEntity
  8
1
100
AcDbVertex
100
AcDb3dPolylineVertex
 10
110.617
 20
58.68249999999999
 30
0.0
 70
    32
  0
VERTEX
  5
125B
330
11E2
100
AcDbEntity
  8
1
100
AcDbVertex
100
AcDb3dPolylineVertex
 10
110.5999999999998
 20
58.71100000000001
 30
0.0
 70
    32
  0
VERTEX
  5
125C
330
11E2
100
AcDbEntity
  8
1
100
AcDbVertex
100
AcDb3dPolylineVertex
 10
110.583
 20
58.7368
 30
0.0
 70
    32
  0
VERTEX
  5
125D
330
11E2
100
AcDbEntity
  8
1
100
AcDbVertex
100
AcDb3dPolylineVertex
 10
110.566
 20
58.7597
 30
0.0
 70
    32
  0
VERTEX
  5
125E
330
11E2
100
AcDbEntity
  8
1
100
AcDbVertex
100
AcDb3dPolylineVertex
 10
110.5489999999998
 20
58.7797
 30
0.0
 70
    32
  0
VERTEX
  5
125F
330
11E2
100
AcDbEntity
  8
1
100
AcDbVertex
100
AcDb3dPolylineVertex
 10
110.532
 20
58.79699999999999
 30
0.0
 70
    32
  0
VERTEX
  5
1260
330
11E2
100
AcDbEntity
  8
1
100
AcDbVertex
100
AcDb3dPolylineVertex
 10
110.514
 20
58.8114
 30
0.0
 70
    32
  0
VERTEX
  5
1261
330
11E2
100
AcDbEntity
  8
1
100
AcDbVertex
100
AcDb3dPolylineVertex
 10
110.497
 20
58.8229
 30
0.0
 70
    32
  0
VERTEX
  5
1262
330
11E2
100
AcDbEntity
  8
1
100
AcDbVertex
100
AcDb3dPolylineVertex
 10
110.4789999999999
 20
58.8316
 30
0.0
 70
    32
  0
VERTEX
  5
1263
330
11E2
100
AcDbEntity
  8
1
100
AcDbVertex
100
AcDb3dPolylineVertex
 10
110.462
 20
58.8374
 30
0.0
 70
    32
  0
SEQEND
  5
1264
330
11E2
100
AcDbEntity
  8
1
  0
LINE
  5
1265
330
116E
100
AcDbEntity
  8
4
  6
CENTER
100
AcDbLine
 10
102.1661597864492
 20
58.09070878962057
 30
0.0
 11
102.1661597864492
 21
49.59070878962062
 31
0.0
  0
POLYLINE
  5
1266
330
116E
100
AcDbEntity
  8
1
  6
Continuous
100
AcDb3dPolyline
 66
     1
 10
0.0
 20
0.0
 30
0.0
 70
     8
  0
VERTEX
  5
1267
330
1266
100
AcDbEntity
  8
1
100
AcDbVertex
100
AcDb3dPolylineVertex
 10
102.166
 20
56.59069999999999
 30
0.0
 70
    32
  0
VERTEX
  5
1268
330
1266
100
AcDbEntity
  8
1
100
AcDbVertex
100
AcDb3dPolylineVertex
 10
102.1479999999999
 20
56.5874
 30
0.0
 70
    32
  0
VERTEX
  5
1269
330
1266
100
AcDbEntity
  8
1
100
AcDbVertex
100
AcDb3dPolylineVertex
 10
102.1309999999999
 20
56.5775
 30
0.0
 70
    32
  0
VERTEX
  5
126A
330
1266
100
AcDbEntity
  8
1
100
AcDbVertex
100
AcDb3dPolylineVertex
 10
102.113
 20
56.56089999999998
 30
0.0
 70
    32
  0
VERTEX
  5
126B
330
1266
100
AcDbEntity
  8
1
100
AcDbVertex
100
AcDb3dPolylineVertex
 10
102.096
 20
56.5379
 30
0.0
 70
    32
  0
VERTEX
  5
126C
330
1266
100
AcDbEntity
  8
1
100
AcDbVertex
100
AcDb3dPolylineVertex
 10
102.0779999999999
 20
56.5083
 30
0.0
 70
    32
  0
VERTEX
  5
126D
330
1266
100
AcDbEntity
  8
1
100
AcDbVertex
100
AcDb3dPolylineVertex
 10
102.061
 20
56.4723
 30
0.0
 70
    32
  0
VERTEX
  5
126E
330
1266
100
AcDbEntity
  8
1
100
AcDbVertex
100
AcDb3dPolylineVertex
 10
102.045
 20
56.43
 30
0.0
 70
    32
  0
VERTEX
  5
126F
330
1266
100
AcDbEntity
  8
1
100
AcDbVertex
100
AcDb3dPolylineVertex
 10
102.0279999999999
 20
56.38139999999999
 30
0.0
 70
    32
  0
VERTEX
  5
1270
330
1266
100
AcDbEntity
  8
1
100
AcDbVertex
100
AcDb3dPolylineVertex
 10
102.0119999999999
 20
56.3267
 30
0.0
 70
    32
  0
VERTEX
  5
1271
330
1266
100
AcDbEntity
  8
1
100
AcDbVertex
100
AcDb3dPolylineVertex
 10
101.996
 20
56.26599999999999
 30
0.0
 70
    32
  0
VERTEX
  5
1272
330
1266
100
AcDbEntity
  8
1
100
AcDbVertex
100
AcDb3dPolylineVertex
 10
101.9809999999999
 20
56.1995
 30
0.0
 70
    32
  0
VERTEX
  5
1273
330
1266
100
AcDbEntity
  8
1
100
AcDbVertex
100
AcDb3dPolylineVertex
 10
101.966
 20
56.12729999999999
 30
0.0
 70
    32
  0
VERTEX
  5
1274
330
1266
100
AcDbEntity
  8
1
100
AcDbVertex
100
AcDb3dPolylineVertex
 10
101.9509999999999
 20
56.0495
 30
0.0
 70
    32
  0
VERTEX
  5
1275
330
1266
100
AcDbEntity
  8
1
100
AcDbVertex
100
AcDb3dPolylineVertex
 10
101.937
 20
55.9665
 30
0.0
 70
    32
  0
VERTEX
  5
1276
330
1266
100
AcDbEntity
  8
1
100
AcDbVertex
100
AcDb3dPolylineVertex
 10
101.9239999999998
 20
55.8783
 30
0.0
 70
    32
  0
VERTEX
  5
1277
330
1266
100
AcDbEntity
  8
1
100
AcDbVertex
100
AcDb3dPolylineVertex
 10
101.9109999999999
 20
55.7853
 30
0.0
 70
    32
  0
VERTEX
  5
1278
330
1266
100
AcDbEntity
  8
1
100
AcDbVertex
100
AcDb3dPolylineVertex
 10
101.899
 20
55.6875
 30
0.0
 70
    32
  0
VERTEX
  5
1279
330
1266
100
AcDbEntity
  8
1
100
AcDbVertex
100
AcDb3dPolylineVertex
 10
101.8869999999999
 20
55.5853
 30
0.0
 70
    32
  0
VERTEX
  5
127A
330
1266
100
AcDbEntity
  8
1
100
AcDbVertex
100
AcDb3dPolylineVertex
 10
101.876
 20
55.4789
 30
0.0
 70
    32
  0
VERTEX
  5
127B
330
1266
100
AcDbEntity
  8
1
100
AcDbVertex
100
AcDb3dPolylineVertex
 10
101.866
 20
55.3685
 30
0.0
 70
    32
  0
VERTEX
  5
127C
330
1266
100
AcDbEntity
  8
1
100
AcDbVertex
100
AcDb3dPolylineVertex
 10
101.857
 20
55.2545
 30
0.0
 70
    32
  0
VERTEX
  5
127D
330
1266
100
AcDbEntity
  8
1
100
AcDbVertex
100
AcDb3dPolylineVertex
 10
101.848
 20
55.137
 30
0.0
 70
    32
  0
VERTEX
  5
127E
330
1266
100
AcDbEntity
  8
1
100
AcDbVertex
100
AcDb3dPolylineVertex
 10
101.8399999999999
 20
55.0165
 30
0.0
 70
    32
  0
VERTEX
  5
127F
330
1266
100
AcDbEntity
  8
1
100
AcDbVertex
100
AcDb3dPolylineVertex
 10
101.8329999999999
 20
54.89309999999999
 30
0.0
 70
    32
  0
VERTEX
  5
1280
330
1266
100
AcDbEntity
  8
1
100
AcDbVertex
100
AcDb3dPolylineVertex
 10
101.8259999999999
 20
54.7672
 30
0.0
 70
    32
  0
VERTEX
  5
1281
330
1266
100
AcDbEntity
  8
1
100
AcDbVertex
100
AcDb3dPolylineVertex
 10
101.821
 20
54.63899999999999
 30
0.0
 70
    32
  0
VERTEX
  5
1282
330
1266
100
AcDbEntity
  8
1
100
AcDbVertex
100
AcDb3dPolylineVertex
 10
101.8159999999999
 20
54.5089
 30
0.0
 70
    32
  0
VERTEX
  5
1283
330
1266
100
AcDbEntity
  8
1
100
AcDbVertex
100
AcDb3dPolylineVertex
 10
101.812
 20
54.3772
 30
0.0
 70
    32
  0
VERTEX
  5
1284
330
1266
100
AcDbEntity
  8
1
100
AcDbVertex
100
AcDb3dPolylineVertex
 10
101.8089999999999
 20
54.2442
 30
0.0
 70
    32
  0
VERTEX
  5
1285
330
1266
100
AcDbEntity
  8
1
100
AcDbVertex
100
AcDb3dPolylineVertex
 10
101.807
 20
54.1103
 30
0.0
 70
    32
  0
VERTEX
  5
1286
330
1266
100
AcDbEntity
  8
1
100
AcDbVertex
100
AcDb3dPolylineVertex
 10
101.8059999999999
 20
53.9756
 30
0.0
 70
    32
  0
VERTEX
  5
1287
330
1266
100
AcDbEntity
  8
1
100
AcDbVertex
100
AcDb3dPolylineVertex
 10
101.805
 20
53.8407
 30
0.0
 70
    32
  0
VERTEX
  5
1288
330
1266
100
AcDbEntity
  8
1
100
AcDbVertex
100
AcDb3dPolylineVertex
 10
101.8059999999999
 20
53.7058
 30
0.0
 70
    32
  0
VERTEX
  5
1289
330
1266
100
AcDbEntity
  8
1
100
AcDbVertex
100
AcDb3dPolylineVertex
 10
101.807
 20
53.5712
 30
0.0
 70
    32
  0
VERTEX
  5
128A
330
1266
100
AcDbEntity
  8
1
100
AcDbVertex
100
AcDb3dPolylineVertex
 10
101.8089999999999
 20
53.4372
 30
0.0
 70
    32
  0
VERTEX
  5
128B
330
1266
100
AcDbEntity
  8
1
100
AcDbVertex
100
AcDb3dPolylineVertex
 10
101.812
 20
53.3042
 30
0.0
 70
    32
  0
VERTEX
  5
128C
330
1266
100
AcDbEntity
  8
1
100
AcDbVertex
100
AcDb3dPolylineVertex
 10
101.8159999999999
 20
53.1725
 30
0.0
 70
    32
  0
VERTEX
  5
128D
330
1266
100
AcDbEntity
  8
1
100
AcDbVertex
100
AcDb3dPolylineVertex
 10
101.821
 20
53.0424
 30
0.0
 70
    32
  0
VERTEX
  5
128E
330
1266
100
AcDbEntity
  8
1
100
AcDbVertex
100
AcDb3dPolylineVertex
 10
101.8259999999999
 20
52.9143
 30
0.0
 70
    32
  0
VERTEX
  5
128F
330
1266
100
AcDbEntity
  8
1
100
AcDbVertex
100
AcDb3dPolylineVertex
 10
101.8329999999999
 20
52.7883
 30
0.0
 70
    32
  0
VERTEX
  5
1290
330
1266
100
AcDbEntity
  8
1
100
AcDbVertex
100
AcDb3dPolylineVertex
 10
101.8399999999999
 20
52.66490000000001
 30
0.0
 70
    32
  0
VERTEX
  5
1291
330
1266
100
AcDbEntity
  8
1
100
AcDbVertex
100
AcDb3dPolylineVertex
 10
101.848
 20
52.5444
 30
0.0
 70
    32
  0
VERTEX
  5
1292
330
1266
100
AcDbEntity
  8
1
100
AcDbVertex
100
AcDb3dPolylineVertex
 10
101.857
 20
52.4269
 30
0.0
 70
    32
  0
VERTEX
  5
1293
330
1266
100
AcDbEntity
  8
1
100
AcDbVertex
100
AcDb3dPolylineVertex
 10
101.866
 20
52.3129
 30
0.0
 70
    32
  0
VERTEX
  5
1294
330
1266
100
AcDbEntity
  8
1
100
AcDbVertex
100
AcDb3dPolylineVertex
 10
101.876
 20
52.2025
 30
0.0
 70
    32
  0
VERTEX
  5
1295
330
1266
100
AcDbEntity
  8
1
100
AcDbVertex
100
AcDb3dPolylineVertex
 10
101.8869999999999
 20
52.0961
 30
0.0
 70
    32
  0
VERTEX
  5
1296
330
1266
100
AcDbEntity
  8
1
100
AcDbVertex
100
AcDb3dPolylineVertex
 10
101.899
 20
51.9939
 30
0.0
 70
    32
  0
VERTEX
  5
1297
330
1266
100
AcDbEntity
  8
1
100
AcDbVertex
100
AcDb3dPolylineVertex
 10
101.9109999999999
 20
51.8962
 30
0.0
 70
    32
  0
VERTEX
  5
1298
330
1266
100
AcDbEntity
  8
1
100
AcDbVertex
100
AcDb3dPolylineVertex
 10
101.9239999999998
 20
51.8031
 30
0.0
 70
    32
  0
VERTEX
  5
1299
330
1266
100
AcDbEntity
  8
1
100
AcDbVertex
100
AcDb3dPolylineVertex
 10
101.937
 20
51.7149
 30
0.0
 70
    32
  0
VERTEX
  5
129A
330
1266
100
AcDbEntity
  8
1
100
AcDbVertex
100
AcDb3dPolylineVertex
 10
101.9509999999999
 20
51.6319
 30
0.0
 70
    32
  0
VERTEX
  5
129B
330
1266
100
AcDbEntity
  8
1
100
AcDbVertex
100
AcDb3dPolylineVertex
 10
101.966
 20
51.5542
 30
0.0
 70
    32
  0
VERTEX
  5
129C
330
1266
100
AcDbEntity
  8
1
100
AcDbVertex
100
AcDb3dPolylineVertex
 10
101.9809999999999
 20
51.482
 30
0.0
 70
    32
  0
VERTEX
  5
129D
330
1266
100
AcDbEntity
  8
1
100
AcDbVertex
100
AcDb3dPolylineVertex
 10
101.996
 20
51.41539999999999
 30
0.0
 70
    32
  0
VERTEX
  5
129E
330
1266
100
AcDbEntity
  8
1
100
AcDbVertex
100
AcDb3dPolylineVertex
 10
102.0119999999999
 20
51.3547
 30
0.0
 70
    32
  0
VERTEX
  5
129F
330
1266
100
AcDbEntity
  8
1
100
AcDbVertex
100
AcDb3dPolylineVertex
 10
102.0279999999999
 20
51.29999999999999
 30
0.0
 70
    32
  0
VERTEX
  5
12A0
330
1266
100
AcDbEntity
  8
1
100
AcDbVertex
100
AcDb3dPolylineVertex
 10
102.045
 20
51.2515
 30
0.0
 70
    32
  0
VERTEX
  5
12A1
330
1266
100
AcDbEntity
  8
1
100
AcDbVertex
100
AcDb3dPolylineVertex
 10
102.061
 20
51.2091
 30
0.0
 70
    32
  0
VERTEX
  5
12A2
330
1266
100
AcDbEntity
  8
1
100
AcDbVertex
100
AcDb3dPolylineVertex
 10
102.0779999999999
 20
51.17309999999999
 30
0.0
 70
    32
  0
VERTEX
  5
12A3
330
1266
100
AcDbEntity
  8
1
100
AcDbVertex
100
AcDb3dPolylineVertex
 10
102.096
 20
51.1435
 30
0.0
 70
    32
  0
VERTEX
  5
12A4
330
1266
100
AcDbEntity
  8
1
100
AcDbVertex
100
AcDb3dPolylineVertex
 10
102.113
 20
51.12049999999999
 30
0.0
 70
    32
  0
VERTEX
  5
12A5
330
1266
100
AcDbEntity
  8
1
100
AcDbVertex
100
AcDb3dPolylineVertex
 10
102.1309999999999
 20
51.104
 30
0.0
 70
    32
  0
VERTEX
  5
12A6
330
1266
100
AcDbEntity
  8
1
100
AcDbVertex
100
AcDb3dPolylineVertex
 10
102.1479999999999
 20
51.09399999999999
 30
0.0
 70
    32
  0
VERTEX
  5
12A7
330
1266
100
AcDbEntity
  8
1
100
AcDbVertex
100
AcDb3dPolylineVertex
 10
102.166
 20
51.0907
 30
0.0
 70
    32
  0
VERTEX
  5
12A8
330
1266
100
AcDbEntity
  8
1
100
AcDbVertex
100
AcDb3dPolylineVertex
 10
102.184
 20
51.09399999999999
 30
0.0
 70
    32
  0
VERTEX
  5
12A9
330
1266
100
AcDbEntity
  8
1
100
AcDbVertex
100
AcDb3dPolylineVertex
 10
102.202
 20
51.104
 30
0.0
 70
    32
  0
VERTEX
  5
12AA
330
1266
100
AcDbEntity
  8
1
100
AcDbVertex
100
AcDb3dPolylineVertex
 10
102.2189999999998
 20
51.12049999999999
 30
0.0
 70
    32
  0
VERTEX
  5
12AB
330
1266
100
AcDbEntity
  8
1
100
AcDbVertex
100
AcDb3dPolylineVertex
 10
102.237
 20
51.1435
 30
0.0
 70
    32
  0
VERTEX
  5
12AC
330
1266
100
AcDbEntity
  8
1
100
AcDbVertex
100
AcDb3dPolylineVertex
 10
102.254
 20
51.17309999999999
 30
0.0
 70
    32
  0
VERTEX
  5
12AD
330
1266
100
AcDbEntity
  8
1
100
AcDbVertex
100
AcDb3dPolylineVertex
 10
102.271
 20
51.2091
 30
0.0
 70
    32
  0
VERTEX
  5
12AE
330
1266
100
AcDbEntity
  8
1
100
AcDbVertex
100
AcDb3dPolylineVertex
 10
102.288
 20
51.2515
 30
0.0
 70
    32
  0
VERTEX
  5
12AF
330
1266
100
AcDbEntity
  8
1
100
AcDbVertex
100
AcDb3dPolylineVertex
 10
102.3039999999999
 20
51.29999999999999
 30
0.0
 70
    32
  0
VERTEX
  5
12B0
330
1266
100
AcDbEntity
  8
1
100
AcDbVertex
100
AcDb3dPolylineVertex
 10
102.3199999999998
 20
51.3547
 30
0.0
 70
    32
  0
VERTEX
  5
12B1
330
1266
100
AcDbEntity
  8
1
100
AcDbVertex
100
AcDb3dPolylineVertex
 10
102.336
 20
51.41539999999999
 30
0.0
 70
    32
  0
VERTEX
  5
12B2
330
1266
100
AcDbEntity
  8
1
100
AcDbVertex
100
AcDb3dPolylineVertex
 10
102.3519999999999
 20
51.482
 30
0.0
 70
    32
  0
VERTEX
  5
12B3
330
1266
100
AcDbEntity
  8
1
100
AcDbVertex
100
AcDb3dPolylineVertex
 10
102.367
 20
51.5542
 30
0.0
 70
    32
  0
VERTEX
  5
12B4
330
1266
100
AcDbEntity
  8
1
100
AcDbVertex
100
AcDb3dPolylineVertex
 10
102.381
 20
51.6319
 30
0.0
 70
    32
  0
VERTEX
  5
12B5
330
1266
100
AcDbEntity
  8
1
100
AcDbVertex
100
AcDb3dPolylineVertex
 10
102.3949999999999
 20
51.7149
 30
0.0
 70
    32
  0
VERTEX
  5
12B6
330
1266
100
AcDbEntity
  8
1
100
AcDbVertex
100
AcDb3dPolylineVertex
 10
102.4079999999998
 20
51.8031
 30
0.0
 70
    32
  0
VERTEX
  5
12B7
330
1266
100
AcDbEntity
  8
1
100
AcDbVertex
100
AcDb3dPolylineVertex
 10
102.421
 20
51.8962
 30
0.0
 70
    32
  0
VERTEX
  5
12B8
330
1266
100
AcDbEntity
  8
1
100
AcDbVertex
100
AcDb3dPolylineVertex
 10
102.434
 20
51.9939
 30
0.0
 70
    32
  0
VERTEX
  5
12B9
330
1266
100
AcDbEntity
  8
1
100
AcDbVertex
100
AcDb3dPolylineVertex
 10
102.4449999999998
 20
52.0961
 30
0.0
 70
    32
  0
VERTEX
  5
12BA
330
1266
100
AcDbEntity
  8
1
100
AcDbVertex
100
AcDb3dPolylineVertex
 10
102.456
 20
52.2025
 30
0.0
 70
    32
  0
VERTEX
  5
12BB
330
1266
100
AcDbEntity
  8
1
100
AcDbVertex
100
AcDb3dPolylineVertex
 10
102.4659999999999
 20
52.3129
 30
0.0
 70
    32
  0
VERTEX
  5
12BC
330
1266
100
AcDbEntity
  8
1
100
AcDbVertex
100
AcDb3dPolylineVertex
 10
102.476
 20
52.4269
 30
0.0
 70
    32
  0
VERTEX
  5
12BD
330
1266
100
AcDbEntity
  8
1
100
AcDbVertex
100
AcDb3dPolylineVertex
 10
102.4839999999999
 20
52.5444
 30
0.0
 70
    32
  0
VERTEX
  5
12BE
330
1266
100
AcDbEntity
  8
1
100
AcDbVertex
100
AcDb3dPolylineVertex
 10
102.492
 20
52.66490000000001
 30
0.0
 70
    32
  0
VERTEX
  5
12BF
330
1266
100
AcDbEntity
  8
1
100
AcDbVertex
100
AcDb3dPolylineVertex
 10
102.4999999999999
 20
52.7883
 30
0.0
 70
    32
  0
VERTEX
  5
12C0
330
1266
100
AcDbEntity
  8
1
100
AcDbVertex
100
AcDb3dPolylineVertex
 10
102.506
 20
52.9143
 30
0.0
 70
    32
  0
VERTEX
  5
12C1
330
1266
100
AcDbEntity
  8
1
100
AcDbVertex
100
AcDb3dPolylineVertex
 10
102.511
 20
53.0424
 30
0.0
 70
    32
  0
VERTEX
  5
12C2
330
1266
100
AcDbEntity
  8
1
100
AcDbVertex
100
AcDb3dPolylineVertex
 10
102.516
 20
53.1725
 30
0.0
 70
    32
  0
VERTEX
  5
12C3
330
1266
100
AcDbEntity
  8
1
100
AcDbVertex
100
AcDb3dPolylineVertex
 10
102.5199999999999
 20
53.3042
 30
0.0
 70
    32
  0
VERTEX
  5
12C4
330
1266
100
AcDbEntity
  8
1
100
AcDbVertex
100
AcDb3dPolylineVertex
 10
102.523
 20
53.4372
 30
0.0
 70
    32
  0
VERTEX
  5
12C5
330
1266
100
AcDbEntity
  8
1
100
AcDbVertex
100
AcDb3dPolylineVertex
 10
102.5249999999999
 20
53.5712
 30
0.0
 70
    32
  0
VERTEX
  5
12C6
330
1266
100
AcDbEntity
  8
1
100
AcDbVertex
100
AcDb3dPolylineVertex
 10
102.527
 20
53.7058
 30
0.0
 70
    32
  0
VERTEX
  5
12C7
330
1266
100
AcDbEntity
  8
1
100
AcDbVertex
100
AcDb3dPolylineVertex
 10
102.527
 20
53.8407
 30
0.0
 70
    32
  0
VERTEX
  5
12C8
330
1266
100
AcDbEntity
  8
1
100
AcDbVertex
100
AcDb3dPolylineVertex
 10
102.527
 20
53.9756
 30
0.0
 70
    32
  0
VERTEX
  5
12C9
330
1266
100
AcDbEntity
  8
1
100
AcDbVertex
100
AcDb3dPolylineVertex
 10
102.5249999999999
 20
54.1103
 30
0.0
 70
    32
  0
VERTEX
  5
12CA
330
1266
100
AcDbEntity
  8
1
100
AcDbVertex
100
AcDb3dPolylineVertex
 10
102.523
 20
54.2442
 30
0.0
 70
    32
  0
VERTEX
  5
12CB
330
1266
100
AcDbEntity
  8
1
100
AcDbVertex
100
AcDb3dPolylineVertex
 10
102.5199999999999
 20
54.3772
 30
0.0
 70
    32
  0
VERTEX
  5
12CC
330
1266
100
AcDbEntity
  8
1
100
AcDbVertex
100
AcDb3dPolylineVertex
 10
102.516
 20
54.5089
 30
0.0
 70
    32
  0
VERTEX
  5
12CD
330
1266
100
AcDbEntity
  8
1
100
AcDbVertex
100
AcDb3dPolylineVertex
 10
102.511
 20
54.63899999999999
 30
0.0
 70
    32
  0
VERTEX
  5
12CE
330
1266
100
AcDbEntity
  8
1
100
AcDbVertex
100
AcDb3dPolylineVertex
 10
102.506
 20
54.7672
 30
0.0
 70
    32
  0
VERTEX
  5
12CF
330
1266
100
AcDbEntity
  8
1
100
AcDbVertex
100
AcDb3dPolylineVertex
 10
102.4999999999999
 20
54.89309999999999
 30
0.0
 70
    32
  0
VERTEX
  5
12D0
330
1266
100
AcDbEntity
  8
1
100
AcDbVertex
100
AcDb3dPolylineVertex
 10
102.492
 20
55.0165
 30
0.0
 70
    32
  0
VERTEX
  5
12D1
330
1266
100
AcDbEntity
  8
1
100
AcDbVertex
100
AcDb3dPolylineVertex
 10
102.4839999999999
 20
55.137
 30
0.0
 70
    32
  0
VERTEX
  5
12D2
330
1266
100
AcDbEntity
  8
1
100
AcDbVertex
100
AcDb3dPolylineVertex
 10
102.476
 20
55.2545
 30
0.0
 70
    32
  0
VERTEX
  5
12D3
330
1266
100
AcDbEntity
  8
1
100
AcDbVertex
100
AcDb3dPolylineVertex
 10
102.4659999999999
 20
55.3685
 30
0.0
 70
    32
  0
VERTEX
  5
12D4
330
1266
100
AcDbEntity
  8
1
100
AcDbVertex
100
AcDb3dPolylineVertex
 10
102.456
 20
55.4789
 30
0.0
 70
    32
  0
VERTEX
  5
12D5
330
1266
100
AcDbEntity
  8
1
100
AcDbVertex
100
AcDb3dPolylineVertex
 10
102.4449999999998
 20
55.5853
 30
0.0
 70
    32
  0
VERTEX
  5
12D6
330
1266
100
AcDbEntity
  8
1
100
AcDbVertex
100
AcDb3dPolylineVertex
 10
102.434
 20
55.6875
 30
0.0
 70
    32
  0
VERTEX
  5
12D7
330
1266
100
AcDbEntity
  8
1
100
AcDbVertex
100
AcDb3dPolylineVertex
 10
102.421
 20
55.7853
 30
0.0
 70
    32
  0
VERTEX
  5
12D8
330
1266
100
AcDbEntity
  8
1
100
AcDbVertex
100
AcDb3dPolylineVertex
 10
102.4079999999998
 20
55.8783
 30
0.0
 70
    32
  0
VERTEX
  5
12D9
330
1266
100
AcDbEntity
  8
1
100
AcDbVertex
100
AcDb3dPolylineVertex
 10
102.3949999999999
 20
55.9665
 30
0.0
 70
    32
  0
VERTEX
  5
12DA
330
1266
100
AcDbEntity
  8
1
100
AcDbVertex
100
AcDb3dPolylineVertex
 10
102.381
 20
56.0495
 30
0.0
 70
    32
  0
VERTEX
  5
12DB
330
1266
100
AcDbEntity
  8
1
100
AcDbVertex
100
AcDb3dPolylineVertex
 10
102.367
 20
56.12729999999999
 30
0.0
 70
    32
  0
VERTEX
  5
12DC
330
1266
100
AcDbEntity
  8
1
100
AcDbVertex
100
AcDb3dPolylineVertex
 10
102.3519999999999
 20
56.1995
 30
0.0
 70
    32
  0
VERTEX
  5
12DD
330
1266
100
AcDbEntity
  8
1
100
AcDbVertex
100
AcDb3dPolylineVertex
 10
102.336
 20
56.26599999999999
 30
0.0
 70
    32
  0
VERTEX
  5
12DE
330
1266
100
AcDbEntity
  8
1
100
AcDbVertex
100
AcDb3dPolylineVertex
 10
102.3199999999998
 20
56.3267
 30
0.0
 70
    32
  0
VERTEX
  5
12DF
330
1266
100
AcDbEntity
  8
1
100
AcDbVertex
100
AcDb3dPolylineVertex
 10
102.3039999999999
 20
56.38139999999999
 30
0.0
 70
    32
  0
VERTEX
  5
12E0
330
1266
100
AcDbEntity
  8
1
100
AcDbVertex
100
AcDb3dPolylineVertex
 10
102.288
 20
56.43
 30
0.0
 70
    32
  0
VERTEX
  5
12E1
330
1266
100
AcDbEntity
  8
1
100
AcDbVertex
100
AcDb3dPolylineVertex
 10
102.271
 20
56.4723
 30
0.0
 70
    32
  0
VERTEX
  5
12E2
330
1266
100
AcDbEntity
  8
1
100
AcDbVertex
100
AcDb3dPolylineVertex
 10
102.254
 20
56.5083
 30
0.0
 70
    32
  0
VERTEX
  5
12E3
330
1266
100
AcDbEntity
  8
1
100
AcDbVertex
100
AcDb3dPolylineVertex
 10
102.237
 20
56.5379
 30
0.0
 70
    32
  0
VERTEX
  5
12E4
330
1266
100
AcDbEntity
  8
1
100
AcDbVertex
100
AcDb3dPolylineVertex
 10
102.2189999999998
 20
56.56089999999998
 30
0.0
 70
    32
  0
VERTEX
  5
12E5
330
1266
100
AcDbEntity
  8
1
100
AcDbVertex
100
AcDb3dPolylineVertex
 10
102.202
 20
56.5775
 30
0.0
 70
    32
  0
VERTEX
  5
12E6
330
1266
100
AcDbEntity
  8
1
100
AcDbVertex
100
AcDb3dPolylineVertex
 10
102.184
 20
56.5874
 30
0.0
 70
    32
  0
VERTEX
  5
12E7
330
1266
100
AcDbEntity
  8
1
100
AcDbVertex
100
AcDb3dPolylineVertex
 10
102.166
 20
56.59069999999999
 30
0.0
 70
    32
  0
SEQEND
  5
12E8
330
1266
100
AcDbEntity
  8
1
  0
POLYLINE
  5
12E9
330
116E
100
AcDbEntity
  8
1
  6
Continuous
100
AcDb3dPolyline
 66
     1
 10
0.0
 20
0.0
 30
0.0
 70
     8
  0
VERTEX
  5
12EA
330
12E9
100
AcDbEntity
  8
1
100
AcDbVertex
100
AcDb3dPolylineVertex
 10
102.19
 20
48.8435
 30
0.0
 70
    32
  0
VERTEX
  5
12EB
330
12E9
100
AcDbEntity
  8
1
100
AcDbVertex
100
AcDb3dPolylineVertex
 10
102.208
 20
48.8489
 30
0.0
 70
    32
  0
VERTEX
  5
12EC
330
12E9
100
AcDbEntity
  8
1
100
AcDbVertex
100
AcDb3dPolylineVertex
 10
102.2249999999998
 20
48.8572
 30
0.0
 70
    32
  0
VERTEX
  5
12ED
330
12E9
100
AcDbEntity
  8
1
100
AcDbVertex
100
AcDb3dPolylineVertex
 10
102.2429999999999
 20
48.8684
 30
0.0
 70
    32
  0
VERTEX
  5
12EE
330
12E9
100
AcDbEntity
  8
1
100
AcDbVertex
100
AcDb3dPolylineVertex
 10
102.26
 20
48.8825
 30
0.0
 70
    32
  0
VERTEX
  5
12EF
330
12E9
100
AcDbEntity
  8
1
100
AcDbVertex
100
AcDb3dPolylineVertex
 10
102.278
 20
48.8994
 30
0.0
 70
    32
  0
VERTEX
  5
12F0
330
12E9
100
AcDbEntity
  8
1
100
AcDbVertex
100
AcDb3dPolylineVertex
 10
102.295
 20
48.91919999999998
 30
0.0
 70
    32
  0
VERTEX
  5
12F1
330
12E9
100
AcDbEntity
  8
1
100
AcDbVertex
100
AcDb3dPolylineVertex
 10
102.312
 20
48.9418
 30
0.0
 70
    32
  0
VERTEX
  5
12F2
330
12E9
100
AcDbEntity
  8
1
100
AcDbVertex
100
AcDb3dPolylineVertex
 10
102.329
 20
48.9673
 30
0.0
 70
    32
  0
VERTEX
  5
12F3
330
12E9
100
AcDbEntity
  8
1
100
AcDbVertex
100
AcDb3dPolylineVertex
 10
102.346
 20
48.9955
 30
0.0
 70
    32
  0
VERTEX
  5
12F4
330
12E9
100
AcDbEntity
  8
1
100
AcDbVertex
100
AcDb3dPolylineVertex
 10
102.363
 20
49.0266
 30
0.0
 70
    32
  0
VERTEX
  5
12F5
330
12E9
100
AcDbEntity
  8
1
100
AcDbVertex
100
AcDb3dPolylineVertex
 10
102.38
 20
49.0604
 30
0.0
 70
    32
  0
VERTEX
  5
12F6
330
12E9
100
AcDbEntity
  8
1
100
AcDbVertex
100
AcDb3dPolylineVertex
 10
102.397
 20
49.097
 30
0.0
 70
    32
  0
VERTEX
  5
12F7
330
12E9
100
AcDbEntity
  8
1
100
AcDbVertex
100
AcDb3dPolylineVertex
 10
102.4129999999999
 20
49.1363
 30
0.0
 70
    32
  0
VERTEX
  5
12F8
330
12E9
100
AcDbEntity
  8
1
100
AcDbVertex
100
AcDb3dPolylineVertex
 10
102.4299999999998
 20
49.1784
 30
0.0
 70
    32
  0
VERTEX
  5
12F9
330
12E9
100
AcDbEntity
  8
1
100
AcDbVertex
100
AcDb3dPolylineVertex
 10
102.4459999999999
 20
49.2231
 30
0.0
 70
    32
  0
VERTEX
  5
12FA
330
12E9
100
AcDbEntity
  8
1
100
AcDbVertex
100
AcDb3dPolylineVertex
 10
102.462
 20
49.2705
 30
0.0
 70
    32
  0
VERTEX
  5
12FB
330
12E9
100
AcDbEntity
  8
1
100
AcDbVertex
100
AcDb3dPolylineVertex
 10
102.478
 20
49.3205
 30
0.0
 70
    32
  0
VERTEX
  5
12FC
330
12E9
100
AcDbEntity
  8
1
100
AcDbVertex
100
AcDb3dPolylineVertex
 10
102.4939999999999
 20
49.37319999999999
 30
0.0
 70
    32
  0
VERTEX
  5
12FD
330
12E9
100
AcDbEntity
  8
1
100
AcDbVertex
100
AcDb3dPolylineVertex
 10
102.509
 20
49.4284
 30
0.0
 70
    32
  0
VERTEX
  5
12FE
330
12E9
100
AcDbEntity
  8
1
100
AcDbVertex
100
AcDb3dPolylineVertex
 10
102.5249999999999
 20
49.4862
 30
0.0
 70
    32
  0
VERTEX
  5
12FF
330
12E9
100
AcDbEntity
  8
1
100
AcDbVertex
100
AcDb3dPolylineVertex
 10
102.54
 20
49.5465
 30
0.0
 70
    32
  0
VERTEX
  5
1300
330
12E9
100
AcDbEntity
  8
1
100
AcDbVertex
100
AcDb3dPolylineVertex
 10
102.555
 20
49.6092
 30
0.0
 70
    32
  0
VERTEX
  5
1301
330
12E9
100
AcDbEntity
  8
1
100
AcDbVertex
100
AcDb3dPolylineVertex
 10
102.57
 20
49.67439999999999
 30
0.0
 70
    32
  0
VERTEX
  5
1302
330
12E9
100
AcDbEntity
  8
1
100
AcDbVertex
100
AcDb3dPolylineVertex
 10
102.584
 20
49.74199999999999
 30
0.0
 70
    32
  0
VERTEX
  5
1303
330
12E9
100
AcDbEntity
  8
1
100
AcDbVertex
100
AcDb3dPolylineVertex
 10
102.598
 20
49.812
 30
0.0
 70
    32
  0
VERTEX
  5
1304
330
12E9
100
AcDbEntity
  8
1
100
AcDbVertex
100
AcDb3dPolylineVertex
 10
102.6119999999999
 20
49.88430000000001
 30
0.0
 70
    32
  0
VERTEX
  5
1305
330
12E9
100
AcDbEntity
  8
1
100
AcDbVertex
100
AcDb3dPolylineVertex
 10
102.626
 20
49.9589
 30
0.0
 70
    32
  0
VERTEX
  5
1306
330
12E9
100
AcDbEntity
  8
1
100
AcDbVertex
100
AcDb3dPolylineVertex
 10
102.6399999999999
 20
50.03569999999999
 30
0.0
 70
    32
  0
VERTEX
  5
1307
330
12E9
100
AcDbEntity
  8
1
100
AcDbVertex
100
AcDb3dPolylineVertex
 10
102.6529999999999
 20
50.1147
 30
0.0
 70
    32
  0
VERTEX
  5
1308
330
12E9
100
AcDbEntity
  8
1
100
AcDbVertex
100
AcDb3dPolylineVertex
 10
102.6659999999999
 20
50.1959
 30
0.0
 70
    32
  0
VERTEX
  5
1309
330
12E9
100
AcDbEntity
  8
1
100
AcDbVertex
100
AcDb3dPolylineVertex
 10
102.678
 20
50.2792
 30
0.0
 70
    32
  0
VERTEX
  5
130A
330
12E9
100
AcDbEntity
  8
1
100
AcDbVertex
100
AcDb3dPolylineVertex
 10
102.6909999999999
 20
50.3645
 30
0.0
 70
    32
  0
VERTEX
  5
130B
330
12E9
100
AcDbEntity
  8
1
100
AcDbVertex
100
AcDb3dPolylineVertex
 10
102.7029999999998
 20
50.4518
 30
0.0
 70
    32
  0
VERTEX
  5
130C
330
12E9
100
AcDbEntity
  8
1
100
AcDbVertex
100
AcDb3dPolylineVertex
 10
102.715
 20
50.5411
 30
0.0
 70
    32
  0
VERTEX
  5
130D
330
12E9
100
AcDbEntity
  8
1
100
AcDbVertex
100
AcDb3dPolylineVertex
 10
102.726
 20
50.6323
 30
0.0
 70
    32
  0
VERTEX
  5
130E
330
12E9
100
AcDbEntity
  8
1
100
AcDbVertex
100
AcDb3dPolylineVertex
 10
102.7369999999999
 20
50.7253
 30
0.0
 70
    32
  0
VERTEX
  5
130F
330
12E9
100
AcDbEntity
  8
1
100
AcDbVertex
100
AcDb3dPolylineVertex
 10
102.7479999999999
 20
50.82019999999999
 30
0.0
 70
    32
  0
VERTEX
  5
1310
330
12E9
100
AcDbEntity
  8
1
100
AcDbVertex
100
AcDb3dPolylineVertex
 10
102.7579999999999
 20
50.9168
 30
0.0
 70
    32
  0
VERTEX
  5
1311
330
12E9
100
AcDbEntity
  8
1
100
AcDbVertex
100
AcDb3dPolylineVertex
 10
102.7679999999999
 20
51.015
 30
0.0
 70
    32
  0
VERTEX
  5
1312
330
12E9
100
AcDbEntity
  8
1
100
AcDbVertex
100
AcDb3dPolylineVertex
 10
102.7779999999999
 20
51.115
 30
0.0
 70
    32
  0
VERTEX
  5
1313
330
12E9
100
AcDbEntity
  8
1
100
AcDbVertex
100
AcDb3dPolylineVertex
 10
102.787
 20
51.2164
 30
0.0
 70
    32
  0
VERTEX
  5
1314
330
12E9
100
AcDbEntity
  8
1
100
AcDbVertex
100
AcDb3dPolylineVertex
 10
102.7959999999999
 20
51.3194
 30
0.0
 70
    32
  0
VERTEX
  5
1315
330
12E9
100
AcDbEntity
  8
1
100
AcDbVertex
100
AcDb3dPolylineVertex
 10
102.805
 20
51.4239
 30
0.0
 70
    32
  0
VERTEX
  5
1316
330
12E9
100
AcDbEntity
  8
1
100
AcDbVertex
100
AcDb3dPolylineVertex
 10
102.8129999999999
 20
51.52969999999999
 30
0.0
 70
    32
  0
VERTEX
  5
1317
330
12E9
100
AcDbEntity
  8
1
100
AcDbVertex
100
AcDb3dPolylineVertex
 10
102.821
 20
51.63689999999999
 30
0.0
 70
    32
  0
VERTEX
  5
1318
330
12E9
100
AcDbEntity
  8
1
100
AcDbVertex
100
AcDb3dPolylineVertex
 10
102.8289999999998
 20
51.7453
 30
0.0
 70
    32
  0
VERTEX
  5
1319
330
12E9
100
AcDbEntity
  8
1
100
AcDbVertex
100
AcDb3dPolylineVertex
 10
102.8359999999999
 20
51.855
 30
0.0
 70
    32
  0
VERTEX
  5
131A
330
12E9
100
AcDbEntity
  8
1
100
AcDbVertex
100
AcDb3dPolylineVertex
 10
102.8429999999999
 20
51.9658
 30
0.0
 70
    32
  0
VERTEX
  5
131B
330
12E9
100
AcDbEntity
  8
1
100
AcDbVertex
100
AcDb3dPolylineVertex
 10
102.8489999999999
 20
52.0777
 30
0.0
 70
    32
  0
VERTEX
  5
131C
330
12E9
100
AcDbEntity
  8
1
100
AcDbVertex
100
AcDb3dPolylineVertex
 10
102.855
 20
52.1906
 30
0.0
 70
    32
  0
VERTEX
  5
131D
330
12E9
100
AcDbEntity
  8
1
100
AcDbVertex
100
AcDb3dPolylineVertex
 10
102.861
 20
52.3044
 30
0.0
 70
    32
  0
VERTEX
  5
131E
330
12E9
100
AcDbEntity
  8
1
100
AcDbVertex
100
AcDb3dPolylineVertex
 10
102.8659999999999
 20
52.4192
 30
0.0
 70
    32
  0
VERTEX
  5
131F
330
12E9
100
AcDbEntity
  8
1
100
AcDbVertex
100
AcDb3dPolylineVertex
 10
102.871
 20
52.5347
 30
0.0
 70
    32
  0
VERTEX
  5
1320
330
12E9
100
AcDbEntity
  8
1
100
AcDbVertex
100
AcDb3dPolylineVertex
 10
102.875
 20
52.651
 30
0.0
 70
    32
  0
VERTEX
  5
1321
330
12E9
100
AcDbEntity
  8
1
100
AcDbVertex
100
AcDb3dPolylineVertex
 10
102.8789999999999
 20
52.768
 30
0.0
 70
    32
  0
VERTEX
  5
1322
330
12E9
100
AcDbEntity
  8
1
100
AcDbVertex
100
AcDb3dPolylineVertex
 10
102.8829999999999
 20
52.88569999999999
 30
0.0
 70
    32
  0
VERTEX
  5
1323
330
12E9
100
AcDbEntity
  8
1
100
AcDbVertex
100
AcDb3dPolylineVertex
 10
102.886
 20
53.0038
 30
0.0
 70
    32
  0
VERTEX
  5
1324
330
12E9
100
AcDbEntity
  8
1
100
AcDbVertex
100
AcDb3dPolylineVertex
 10
102.888
 20
53.1225
 30
0.0
 70
    32
  0
VERTEX
  5
1325
330
12E9
100
AcDbEntity
  8
1
100
AcDbVertex
100
AcDb3dPolylineVertex
 10
102.8909999999999
 20
53.2416
 30
0.0
 70
    32
  0
VERTEX
  5
1326
330
12E9
100
AcDbEntity
  8
1
100
AcDbVertex
100
AcDb3dPolylineVertex
 10
102.8929999999999
 20
53.361
 30
0.0
 70
    32
  0
VERTEX
  5
1327
330
12E9
100
AcDbEntity
  8
1
100
AcDbVertex
100
AcDb3dPolylineVertex
 10
102.8939999999999
 20
53.48069999999999
 30
0.0
 70
    32
  0
VERTEX
  5
1328
330
12E9
100
AcDbEntity
  8
1
100
AcDbVertex
100
AcDb3dPolylineVertex
 10
102.895
 20
53.6006
 30
0.0
 70
    32
  0
VERTEX
  5
1329
330
12E9
100
AcDbEntity
  8
1
100
AcDbVertex
100
AcDb3dPolylineVertex
 10
102.896
 20
53.7206
 30
0.0
 70
    32
  0
VERTEX
  5
132A
330
12E9
100
AcDbEntity
  8
1
100
AcDbVertex
100
AcDb3dPolylineVertex
 10
102.896
 20
53.8407
 30
0.0
 70
    32
  0
VERTEX
  5
132B
330
12E9
100
AcDbEntity
  8
1
100
AcDbVertex
100
AcDb3dPolylineVertex
 10
102.896
 20
53.9608
 30
0.0
 70
    32
  0
VERTEX
  5
132C
330
12E9
100
AcDbEntity
  8
1
100
AcDbVertex
100
AcDb3dPolylineVertex
 10
102.895
 20
54.0809
 30
0.0
 70
    32
  0
VERTEX
  5
132D
330
12E9
100
AcDbEntity
  8
1
100
AcDbVertex
100
AcDb3dPolylineVertex
 10
102.8939999999999
 20
54.2008
 30
0.0
 70
    32
  0
VERTEX
  5
132E
330
12E9
100
AcDbEntity
  8
1
100
AcDbVertex
100
AcDb3dPolylineVertex
 10
102.8929999999999
 20
54.3204
 30
0.0
 70
    32
  0
VERTEX
  5
132F
330
12E9
100
AcDbEntity
  8
1
100
AcDbVertex
100
AcDb3dPolylineVertex
 10
102.8909999999999
 20
54.4399
 30
0.0
 70
    32
  0
VERTEX
  5
1330
330
12E9
100
AcDbEntity
  8
1
100
AcDbVertex
100
AcDb3dPolylineVertex
 10
102.888
 20
54.5589
 30
0.0
 70
    32
  0
VERTEX
  5
1331
330
12E9
100
AcDbEntity
  8
1
100
AcDbVertex
100
AcDb3dPolylineVertex
 10
102.886
 20
54.6776
 30
0.0
 70
    32
  0
VERTEX
  5
1332
330
12E9
100
AcDbEntity
  8
1
100
AcDbVertex
100
AcDb3dPolylineVertex
 10
102.8829999999999
 20
54.7958
 30
0.0
 70
    32
  0
VERTEX
  5
1333
330
12E9
100
AcDbEntity
  8
1
100
AcDbVertex
100
AcDb3dPolylineVertex
 10
102.8789999999999
 20
54.9134
 30
0.0
 70
    32
  0
VERTEX
  5
1334
330
12E9
100
AcDbEntity
  8
1
100
AcDbVertex
100
AcDb3dPolylineVertex
 10
102.875
 20
55.0304
 30
0.0
 70
    32
  0
VERTEX
  5
1335
330
12E9
100
AcDbEntity
  8
1
100
AcDbVertex
100
AcDb3dPolylineVertex
 10
102.871
 20
55.1467
 30
0.0
 70
    32
  0
VERTEX
  5
1336
330
12E9
100
AcDbEntity
  8
1
100
AcDbVertex
100
AcDb3dPolylineVertex
 10
102.8659999999999
 20
55.2623
 30
0.0
 70
    32
  0
VERTEX
  5
1337
330
12E9
100
AcDbEntity
  8
1
100
AcDbVertex
100
AcDb3dPolylineVertex
 10
102.861
 20
55.377
 30
0.0
 70
    32
  0
VERTEX
  5
1338
330
12E9
100
AcDbEntity
  8
1
100
AcDbVertex
100
AcDb3dPolylineVertex
 10
102.855
 20
55.4908
 30
0.0
 70
    32
  0
VERTEX
  5
1339
330
12E9
100
AcDbEntity
  8
1
100
AcDbVertex
100
AcDb3dPolylineVertex
 10
102.8489999999999
 20
55.6037
 30
0.0
 70
    32
  0
VERTEX
  5
133A
330
12E9
100
AcDbEntity
  8
1
100
AcDbVertex
100
AcDb3dPolylineVertex
 10
102.8429999999999
 20
55.7156
 30
0.0
 70
    32
  0
VERTEX
  5
133B
330
12E9
100
AcDbEntity
  8
1
100
AcDbVertex
100
AcDb3dPolylineVertex
 10
102.8359999999999
 20
55.8264
 30
0.0
 70
    32
  0
VERTEX
  5
133C
330
12E9
100
AcDbEntity
  8
1
100
AcDbVertex
100
AcDb3dPolylineVertex
 10
102.8289999999998
 20
55.9361
 30
0.0
 70
    32
  0
VERTEX
  5
133D
330
12E9
100
AcDbEntity
  8
1
100
AcDbVertex
100
AcDb3dPolylineVertex
 10
102.821
 20
56.04449999999999
 30
0.0
 70
    32
  0
VERTEX
  5
133E
330
12E9
100
AcDbEntity
  8
1
100
AcDbVertex
100
AcDb3dPolylineVertex
 10
102.8129999999999
 20
56.15169999999999
 30
0.0
 70
    32
  0
VERTEX
  5
133F
330
12E9
100
AcDbEntity
  8
1
100
AcDbVertex
100
AcDb3dPolylineVertex
 10
102.805
 20
56.25759999999999
 30
0.0
 70
    32
  0
VERTEX
  5
1340
330
12E9
100
AcDbEntity
  8
1
100
AcDbVertex
100
AcDb3dPolylineVertex
 10
102.7959999999999
 20
56.36199999999999
 30
0.0
 70
    32
  0
VERTEX
  5
1341
330
12E9
100
AcDbEntity
  8
1
100
AcDbVertex
100
AcDb3dPolylineVertex
 10
102.787
 20
56.465
 30
0.0
 70
    32
  0
VERTEX
  5
1342
330
12E9
100
AcDbEntity
  8
1
100
AcDbVertex
100
AcDb3dPolylineVertex
 10
102.7779999999999
 20
56.56649999999999
 30
0.0
 70
    32
  0
VERTEX
  5
1343
330
12E9
100
AcDbEntity
  8
1
100
AcDbVertex
100
AcDb3dPolylineVertex
 10
102.7679999999999
 20
56.66640000000001
 30
0.0
 70
    32
  0
VERTEX
  5
1344
330
12E9
100
AcDbEntity
  8
1
100
AcDbVertex
100
AcDb3dPolylineVertex
 10
102.7579999999999
 20
56.7646
 30
0.0
 70
    32
  0
VERTEX
  5
1345
330
12E9
100
AcDbEntity
  8
1
100
AcDbVertex
100
AcDb3dPolylineVertex
 10
102.7479999999999
 20
56.86119999999998
 30
0.0
 70
    32
  0
VERTEX
  5
1346
330
12E9
100
AcDbEntity
  8
1
100
AcDbVertex
100
AcDb3dPolylineVertex
 10
102.7369999999999
 20
56.9561
 30
0.0
 70
    32
  0
VERTEX
  5
1347
330
12E9
100
AcDbEntity
  8
1
100
AcDbVertex
100
AcDb3dPolylineVertex
 10
102.726
 20
57.0491
 30
0.0
 70
    32
  0
VERTEX
  5
1348
330
12E9
100
AcDbEntity
  8
1
100
AcDbVertex
100
AcDb3dPolylineVertex
 10
102.715
 20
57.14030000000001
 30
0.0
 70
    32
  0
VERTEX
  5
1349
330
12E9
100
AcDbEntity
  8
1
100
AcDbVertex
100
AcDb3dPolylineVertex
 10
102.7029999999998
 20
57.2296
 30
0.0
 70
    32
  0
VERTEX
  5
134A
330
12E9
100
AcDbEntity
  8
1
100
AcDbVertex
100
AcDb3dPolylineVertex
 10
102.6909999999999
 20
57.3169
 30
0.0
 70
    32
  0
VERTEX
  5
134B
330
12E9
100
AcDbEntity
  8
1
100
AcDbVertex
100
AcDb3dPolylineVertex
 10
102.678
 20
57.4023
 30
0.0
 70
    32
  0
VERTEX
  5
134C
330
12E9
100
AcDbEntity
  8
1
100
AcDbVertex
100
AcDb3dPolylineVertex
 10
102.6659999999999
 20
57.4855
 30
0.0
 70
    32
  0
VERTEX
  5
134D
330
12E9
100
AcDbEntity
  8
1
100
AcDbVertex
100
AcDb3dPolylineVertex
 10
102.6529999999999
 20
57.56669999999999
 30
0.0
 70
    32
  0
VERTEX
  5
134E
330
12E9
100
AcDbEntity
  8
1
100
AcDbVertex
100
AcDb3dPolylineVertex
 10
102.6399999999999
 20
57.64569999999999
 30
0.0
 70
    32
  0
VERTEX
  5
134F
330
12E9
100
AcDbEntity
  8
1
100
AcDbVertex
100
AcDb3dPolylineVertex
 10
102.626
 20
57.72249999999999
 30
0.0
 70
    32
  0
VERTEX
  5
1350
330
12E9
100
AcDbEntity
  8
1
100
AcDbVertex
100
AcDb3dPolylineVertex
 10
102.6119999999999
 20
57.7971
 30
0.0
 70
    32
  0
VERTEX
  5
1351
330
12E9
100
AcDbEntity
  8
1
100
AcDbVertex
100
AcDb3dPolylineVertex
 10
102.598
 20
57.8694
 30
0.0
 70
    32
  0
VERTEX
  5
1352
330
12E9
100
AcDbEntity
  8
1
100
AcDbVertex
100
AcDb3dPolylineVertex
 10
102.584
 20
57.9394
 30
0.0
 70
    32
  0
VERTEX
  5
1353
330
12E9
100
AcDbEntity
  8
1
100
AcDbVertex
100
AcDb3dPolylineVertex
 10
102.57
 20
58.00699999999999
 30
0.0
 70
    32
  0
VERTEX
  5
1354
330
12E9
100
AcDbEntity
  8
1
100
AcDbVertex
100
AcDb3dPolylineVertex
 10
102.555
 20
58.0722
 30
0.0
 70
    32
  0
VERTEX
  5
1355
330
12E9
100
AcDbEntity
  8
1
100
AcDbVertex
100
AcDb3dPolylineVertex
 10
102.54
 20
58.135
 30
0.0
 70
    32
  0
VERTEX
  5
1356
330
12E9
100
AcDbEntity
  8
1
100
AcDbVertex
100
AcDb3dPolylineVertex
 10
102.5249999999999
 20
58.1952
 30
0.0
 70
    32
  0
VERTEX
  5
1357
330
12E9
100
AcDbEntity
  8
1
100
AcDbVertex
100
AcDb3dPolylineVertex
 10
102.509
 20
58.253
 30
0.0
 70
    32
  0
VERTEX
  5
1358
330
12E9
100
AcDbEntity
  8
1
100
AcDbVertex
100
AcDb3dPolylineVertex
 10
102.4939999999999
 20
58.3082
 30
0.0
 70
    32
  0
VERTEX
  5
1359
330
12E9
100
AcDbEntity
  8
1
100
AcDbVertex
100
AcDb3dPolylineVertex
 10
102.478
 20
58.3609
 30
0.0
 70
    32
  0
VERTEX
  5
135A
330
12E9
100
AcDbEntity
  8
1
100
AcDbVertex
100
AcDb3dPolylineVertex
 10
102.462
 20
58.4109
 30
0.0
 70
    32
  0
VERTEX
  5
135B
330
12E9
100
AcDbEntity
  8
1
100
AcDbVertex
100
AcDb3dPolylineVertex
 10
102.4459999999999
 20
58.4583
 30
0.0
 70
    32
  0
VERTEX
  5
135C
330
12E9
100
AcDbEntity
  8
1
100
AcDbVertex
100
AcDb3dPolylineVertex
 10
102.4299999999998
 20
58.5031
 30
0.0
 70
    32
  0
VERTEX
  5
135D
330
12E9
100
AcDbEntity
  8
1
100
AcDbVertex
100
AcDb3dPolylineVertex
 10
102.4129999999999
 20
58.5451
 30
0.0
 70
    32
  0
VERTEX
  5
135E
330
12E9
100
AcDbEntity
  8
1
100
AcDbVertex
100
AcDb3dPolylineVertex
 10
102.397
 20
58.5844
 30
0.0
 70
    32
  0
VERTEX
  5
135F
330
12E9
100
AcDbEntity
  8
1
100
AcDbVertex
100
AcDb3dPolylineVertex
 10
102.38
 20
58.621
 30
0.0
 70
    32
  0
VERTEX
  5
1360
330
12E9
100
AcDbEntity
  8
1
100
AcDbVertex
100
AcDb3dPolylineVertex
 10
102.363
 20
58.6548
 30
0.0
 70
    32
  0
VERTEX
  5
1361
330
12E9
100
AcDbEntity
  8
1
100
AcDbVertex
100
AcDb3dPolylineVertex
 10
102.346
 20
58.6859
 30
0.0
 70
    32
  0
VERTEX
  5
1362
330
12E9
100
AcDbEntity
  8
1
100
AcDbVertex
100
AcDb3dPolylineVertex
 10
102.329
 20
58.7142
 30
0.0
 70
    32
  0
VERTEX
  5
1363
330
12E9
100
AcDbEntity
  8
1
100
AcDbVertex
100
AcDb3dPolylineVertex
 10
102.312
 20
58.7396
 30
0.0
 70
    32
  0
VERTEX
  5
1364
330
12E9
100
AcDbEntity
  8
1
100
AcDbVertex
100
AcDb3dPolylineVertex
 10
102.295
 20
58.76219999999999
 30
0.0
 70
    32
  0
VERTEX
  5
1365
330
12E9
100
AcDbEntity
  8
1
100
AcDbVertex
100
AcDb3dPolylineVertex
 10
102.278
 20
58.78199999999999
 30
0.0
 70
    32
  0
VERTEX
  5
1366
330
12E9
100
AcDbEntity
  8
1
100
AcDbVertex
100
AcDb3dPolylineVertex
 10
102.26
 20
58.7989
 30
0.0
 70
    32
  0
VERTEX
  5
1367
330
12E9
100
AcDbEntity
  8
1
100
AcDbVertex
100
AcDb3dPolylineVertex
 10
102.2429999999999
 20
58.813
 30
0.0
 70
    32
  0
VERTEX
  5
1368
330
12E9
100
AcDbEntity
  8
1
100
AcDbVertex
100
AcDb3dPolylineVertex
 10
102.2249999999998
 20
58.82419999999999
 30
0.0
 70
    32
  0
VERTEX
  5
1369
330
12E9
100
AcDbEntity
  8
1
100
AcDbVertex
100
AcDb3dPolylineVertex
 10
102.208
 20
58.8325
 30
0.0
 70
    32
  0
VERTEX
  5
136A
330
12E9
100
AcDbEntity
  8
1
100
AcDbVertex
100
AcDb3dPolylineVertex
 10
102.19
 20
58.8379
 30
0.0
 70
    32
  0
SEQEND
  5
136B
330
12E9
100
AcDbEntity
  8
1
  0
ARC
  5
136C
330
116E
100
AcDbEntity
  8
1
  6
Continuous
100
AcDbCircle
 10
107.0399054538845
 20
46.84070878962062
 30
0.0
 40
2.0
100
AcDbArc
 50
270.0
 51
329.700821262973
  0
LINE
  5
136D
330
116E
100
AcDbEntity
  8
1
  6
Continuous
100
AcDbLine
 10
101.6876542499989
 20
44.84070878962063
 30
0.0
 11
107.0399054538845
 21
44.84070878962063
 31
0.0
  0
LINE
  5
136E
330
116E
100
AcDbEntity
  8
1
  6
Continuous
100
AcDbLine
 10
100.5958133545969
 20
46.25933396891063
 30
0.0
 11
102.3284399027803
 21
48.96585051993604
 31
0.0
  0
ARC
  5
136F
330
116E
100
AcDbEntity
  8
1
  6
Continuous
100
AcDbCircle
 10
110.7702299449589
 20
44.84070878963045
 30
0.0
 40
3.0
100
AcDbArc
 50
90.0
 51
107.711342040012
  0
LINE
  5
1370
330
116E
100
AcDbEntity
  8
1
  6
Continuous
100
AcDbLine
 10
108.7667110184593
 20
45.8316782934739
 30
0.0
 11
110.6121064205667
 21
48.98979795523729
 31
0.0
  0
LINE
  5
1371
330
116E
100
AcDbEntity
  8
1
  6
Continuous
100
AcDbLine
 10
110.7702299449589
 20
59.84070878961076
 30
0.0
 11
120.687654249999
 21
59.84070878961076
 31
0.0
  0
ARC
  5
1372
330
116E
100
AcDbEntity
  8
1
  6
Continuous
100
AcDbCircle
 10
107.0399054539539
 20
60.84070878962058
 30
0.0
 40
2.0
100
AcDbArc
 50
30.29917873608751
 51
90.0
  0
LINE
  5
1373
330
116E
100
AcDbEntity
  8
1
  6
Continuous
100
AcDbLine
 10
102.3284399027803
 20
58.71556705930519
 30
0.0
 11
100.5958133545971
 21
61.42208361033066
 31
0.0
  0
LINE
  5
1374
330
116E
100
AcDbEntity
  8
1
  6
Continuous
100
AcDbLine
 10
101.6876542499989
 20
62.84070878962058
 30
0.0
 11
107.0399054539539
 21
62.84070878962058
 31
0.0
  0
LINE
  5
1375
330
116E
100
AcDbEntity
  8
1
  6
Continuous
100
AcDbLine
 10
110.6121064205729
 20
58.69161962399317
 30
0.0
 11
108.766711018545
 21
61.84973928573898
 31
0.0
  0
ARC
  5
1376
330
116E
100
AcDbEntity
  8
1
  6
Continuous
100
AcDbCircle
 10
110.7702299449589
 20
62.84070878961076
 30
0.0
 40
3.0
100
AcDbArc
 50
252.2886579599878
 51
270.0
  0
LINE
  5
1377
330
116E
100
AcDbEntity
  8
1
  6
Continuous
100
AcDbLine
 10
120.687654249999
 20
59.84070878961067
 30
0.0
 11
120.687654249999
 21
58.84070878954396
 31
0.0
  0
LINE
  5
1378
330
116E
100
AcDbEntity
  8
1
  6
Continuous
100
AcDbLine
 10
183.687654249999
 20
56.09070878962057
 30
0.0
 11
183.687654249999
 21
51.59070878962062
 31
0.0
  0
LINE
  5
1379
330
116E
100
AcDbEntity
  8
1
  6
Continuous
100
AcDbLine
 10
189.6876542499988
 20
57.59070878962058
 30
0.0
 11
189.6876542499988
 21
50.09070878962062
 31
0.0
  0
LINE
  5
137A
330
116E
100
AcDbEntity
  8
1
  6
Continuous
100
AcDbLine
 10
186.6876542499989
 20
59.84070878961076
 30
0.0
 11
186.6876542499989
 21
47.84070878961073
 31
0.0
  0
LINE
  5
137B
330
116E
100
AcDbEntity
  8
1
  6
Continuous
100
AcDbLine
 10
183.687654249999
 20
51.59070878962062
 30
0.0
 11
186.6876542499989
 21
51.59070878962062
 31
0.0
  0
LINE
  5
137C
330
116E
100
AcDbEntity
  8
1
  6
Continuous
100
AcDbLine
 10
186.6876542499989
 20
50.09070878962062
 30
0.0
 11
189.687654249999
 21
50.09070878962062
 31
0.0
  0
LINE
  5
137D
330
116E
100
AcDbEntity
  8
1
  6
Continuous
100
AcDbLine
 10
166.687654249999
 20
59.84070878961076
 30
0.0
 11
186.687654249999
 21
59.84070878961076
 31
0.0
  0
LINE
  5
137E
330
116E
100
AcDbEntity
  8
1
  6
Continuous
100
AcDbLine
 10
166.687654249999
 20
59.84070878961067
 30
0.0
 11
166.687654249999
 21
58.84070878954396
 31
0.0
  0
LINE
  5
137F
330
116E
100
AcDbEntity
  8
1
  6
Continuous
100
AcDbLine
 10
183.687654249999
 20
56.09070878962057
 30
0.0
 11
186.6876542499989
 21
56.09070878962057
 31
0.0
  0
LINE
  5
1380
330
116E
100
AcDbEntity
  8
1
  6
Continuous
100
AcDbLine
 10
186.6876542499989
 20
57.59070878962058
 30
0.0
 11
189.687654249999
 21
57.59070878962058
 31
0.0
  0
LINE
  5
1381
330
116E
100
AcDbEntity
  8
1
  6
Continuous
100
AcDbLine
 10
121.1794602529508
 20
161.9978670191671
 30
0.0
 11
123.625090252951
 21
161.9978670191671
 31
0.0
  0
ARC
  5
1382
330
116E
100
AcDbEntity
  8
1
  6
Continuous
100
AcDbCircle
 10
136.1030427529509
 20
160.8448470191673
 30
0.0
 40
1.148609999999999
100
AcDbArc
 50
70.80719999999998
 51
138.9319999999997
  0
ARC
  5
1383
330
116E
100
AcDbEntity
  8
1
  6
Continuous
100
AcDbCircle
 10
128.5303677529508
 20
160.8992970191673
 30
0.0
 40
1.148609999999999
100
AcDbArc
 50
70.80719999999998
 51
138.9319999999997
  0
LINE
  5
1384
330
116E
100
AcDbEntity
  8
1
  6
Continuous
100
AcDbLine
 10
140.136017752951
 20
160.3945470191673
 30
0.0
 11
139.1254677529508
 21
162.1502670191673
 31
0.0
  0
LINE
  5
1385
330
116E
100
AcDbEntity
  8
1
  6
Continuous
100
AcDbLine
 10
140.136017752951
 20
160.3891320191673
 30
0.0
 11
141.153917752951
 21
162.1521570191671
 31
0.0
  0
LINE
  5
1386
330
116E
100
AcDbEntity
  8
1
  6
Continuous
100
AcDbLine
 10
138.038192752951
 20
162.1283145191673
 30
0.0
 11
138.038192752951
 21
158.9761545191671
 31
0.0
  0
LINE
  5
1387
330
116E
100
AcDbEntity
  8
1
  6
Continuous
100
AcDbLine
 10
133.657817752951
 20
162.1283145191673
 30
0.0
 11
133.657817752951
 21
158.9761545191671
 31
0.0
  0
LINE
  5
1388
330
116E
100
AcDbEntity
  8
1
  6
Continuous
100
AcDbLine
 10
132.6033177529508
 20
162.1283145191673
 30
0.0
 11
132.6033177529508
 21
158.9761545191671
 31
0.0
  0
LINE
  5
1389
330
116E
100
AcDbEntity
  8
1
  6
Continuous
100
AcDbLine
 10
130.6578177529509
 20
162.1283145191673
 30
0.0
 11
130.6578177529509
 21
158.9761545191671
 31
0.0
  0
LINE
  5
138A
330
116E
100
AcDbEntity
  8
1
  6
Continuous
100
AcDbLine
 10
149.8409171610541
 20
162.0202995191673
 30
0.0
 11
149.8409171610541
 21
159.0202920191671
 31
0.0
  0
LINE
  5
138B
330
116E
100
AcDbEntity
  8
1
  6
Continuous
100
AcDbLine
 10
147.9233471633721
 20
161.9978670191671
 30
0.0
 11
147.9233471633721
 21
158.9978670191673
 31
0.0
  0
LINE
  5
138C
330
116E
100
AcDbEntity
  8
1
  6
Continuous
100
AcDbLine
 10
153.7806371610541
 20
161.9952270191672
 30
0.0
 11
152.6176871610541
 21
159.0004920191673
 31
0.0
  0
LINE
  5
138D
330
116E
100
AcDbEntity
  8
1
  6
Continuous
100
AcDbLine
 10
151.7203871610542
 20
162.0202995191673
 30
0.0
 11
151.7203871610542
 21
159.0202920191671
 31
0.0
  0
LINE
  5
138E
330
116E
100
AcDbEntity
  8
1
  6
Continuous
100
AcDbLine
 10
153.7806371610541
 20
162.0004995191673
 30
0.0
 11
154.8904121610542
 21
159.0004920191673
 31
0.0
  0
LINE
  5
138F
330
116E
100
AcDbEntity
  8
1
  6
Continuous
100
AcDbLine
 10
149.8409171610541
 20
160.4978670191673
 30
0.0
 11
151.7203871610542
 21
160.4978670191673
 31
0.0
  0
LINE
  5
1390
330
116E
100
AcDbEntity
  8
1
  6
Continuous
100
AcDbLine
 10
146.7473396633721
 20
161.9978670191671
 30
0.0
 11
149.1098021633721
 21
161.9978670191671
 31
0.0
  0
LINE
  5
1391
330
116E
100
AcDbEntity
  8
1
  6
Continuous
100
AcDbLine
 10
152.9773871610542
 20
159.9056670191673
 30
0.0
 11
154.557637161054
 21
159.9056670191673
 31
0.0
  0
ARC
  5
1392
330
116E
100
AcDbEntity
  8
1
  6
Continuous
100
AcDbCircle
 10
125.3824302529509
 20
160.8833970191672
 30
0.0
 40
1.148609999999999
100
AcDbArc
 50
41.0679
 51
138.9319999999997
  0
ARC
  5
1393
330
116E
100
AcDbEntity
  8
1
  6
Continuous
100
AcDbCircle
 10
125.3824302529509
 20
160.2886170191673
 30
0.0
 40
1.148609999999999
100
AcDbArc
 50
221.0679999999999
 51
318.932
  0
ARC
  5
1394
330
116E
100
AcDbEntity
  8
1
  6
Continuous
100
AcDbCircle
 10
125.7237177529509
 20
160.5860070191673
 30
0.0
 40
1.601294999999999
100
AcDbArc
 50
138.9319999999997
 51
221.0679999999999
  0
LINE
  5
1395
330
116E
100
AcDbEntity
  8
1
  6
Continuous
100
AcDbLine
 10
122.3968902529509
 20
161.9978670191671
 30
0.0
 11
122.3968902529509
 21
158.9978670191673
 31
0.0
  0
ARC
  5
1396
330
116E
100
AcDbEntity
  8
1
  6
Continuous
100
AcDbCircle
 10
125.0411352529508
 20
160.5860070191673
 30
0.0
 40
1.601294999999999
100
AcDbArc
 50
318.932
 51
41.0679
  0
ARC
  5
1397
330
116E
100
AcDbEntity
  8
1
  6
Continuous
100
AcDbCircle
 10
128.8716927529509
 20
160.6019070191671
 30
0.0
 40
1.601294999999999
100
AcDbArc
 50
138.9319999999997
 51
221.0679999999999
  0
ARC
  5
1398
330
116E
100
AcDbEntity
  8
1
  6
Continuous
100
AcDbCircle
 10
128.5303677529508
 20
160.3045170191673
 30
0.0
 40
1.148609999999999
100
AcDbArc
 50
221.0679999999999
 51
289.1929999999998
  0
ARC
  5
1399
330
116E
100
AcDbEntity
  8
1
  6
Continuous
100
AcDbCircle
 10
128.6549427529508
 20
159.9466845191671
 30
0.0
 40
0.7697175000000001
100
AcDbArc
 50
289.1929999999998
 51
354.341
  0
ARC
  5
139A
330
116E
100
AcDbEntity
  8
1
  6
Continuous
100
AcDbCircle
 10
128.6549427529508
 20
161.2571295191673
 30
0.0
 40
0.7697175000000001
100
AcDbArc
 50
5.659239999999998
 51
70.80719999999998
  0
LINE
  5
139B
330
116E
100
AcDbEntity
  8
1
  6
Continuous
100
AcDbLine
 10
155.9777883904349
 20
160.4978670191673
 30
0.0
 11
156.917613390435
 21
160.4978670191673
 31
0.0
  0
ARC
  5
139C
330
116E
100
AcDbEntity
  8
1
  6
Continuous
100
AcDbCircle
 10
136.4442927529509
 20
160.5474570191673
 30
0.0
 40
1.601294999999999
100
AcDbArc
 50
138.9319999999997
 51
221.0679999999999
  0
LINE
  5
139D
330
116E
100
AcDbEntity
  8
1
  6
Continuous
100
AcDbLine
 10
130.6578177529509
 20
160.5522345191673
 30
0.0
 11
132.6033177529508
 21
160.5522345191673
 31
0.0
  0
ARC
  5
139E
330
116E
100
AcDbEntity
  8
1
  6
Continuous
100
AcDbCircle
 10
136.1109177529509
 20
160.1819070191673
 30
0.0
 40
1.08
100
AcDbArc
 50
269.5819999999998
 51
11.6541
  0
ARC
  5
139F
330
116E
100
AcDbEntity
  8
1
  6
Continuous
100
AcDbCircle
 10
136.1030427529509
 20
160.2500595191673
 30
0.0
 40
1.148609999999999
100
AcDbArc
 50
221.0679999999999
 51
276.591
  0
LINE
  5
13A0
330
116E
100
AcDbEntity
  8
1
  6
Continuous
100
AcDbLine
 10
137.1686427529508
 20
159.9529620191673
 30
0.0
 11
137.1686427529508
 21
158.9978670191673
 31
0.0
  0
LINE
  5
13A1
330
116E
100
AcDbEntity
  8
1
  6
Continuous
100
AcDbLine
 10
136.1142927529508
 20
160.4000745191673
 30
0.0
 11
137.1686427529508
 21
160.4000745191673
 31
0.0
  0
ARC
  5
13A2
330
116E
100
AcDbEntity
  8
1
  6
Continuous
100
AcDbCircle
 10
136.227617752951
 20
161.2026795191673
 30
0.0
 40
0.7697175000000001
100
AcDbArc
 50
5.659239999999998
 51
70.80719999999998
  0
LINE
  5
13A3
330
116E
100
AcDbEntity
  8
1
  6
Continuous
100
AcDbLine
 10
142.9348677529509
 20
162.0576270191673
 30
0.0
 11
144.070817752951
 21
158.9869470191673
 31
0.0
  0
LINE
  5
13A4
330
116E
100
AcDbEntity
  8
1
  6
Continuous
100
AcDbLine
 10
140.136017752951
 20
160.3891395191672
 30
0.0
 11
140.136017752951
 21
158.9761545191671
 31
0.0
  0
LINE
  5
13A5
330
116E
100
AcDbEntity
  8
1
  6
Continuous
100
AcDbLine
 10
142.9348677529509
 20
162.0522345191673
 30
0.0
 11
141.7446927529509
 21
158.9869545191673
 31
0.0
  0
LINE
  5
13A6
330
116E
100
AcDbEntity
  8
1
  6
Continuous
100
AcDbLine
 10
142.103417752951
 20
159.8890995191671
 30
0.0
 11
143.7392427529509
 21
159.8890995191671
 31
0.0
  0
ARC
  5
13A7
330
116E
100
AcDbEntity
  8
1
  6
Continuous
100
AcDbCircle
 10
161.8331155356371
 20
161.1728670191673
 30
0.0
 40
0.7837950000000001
100
AcDbArc
 50
132.8699999999997
 51
198.208
  0
ARC
  5
13A8
330
116E
100
AcDbEntity
  8
1
  6
Continuous
100
AcDbCircle
 10
162.0430255356373
 20
161.1728670191673
 30
0.0
 40
0.7837950000000001
100
AcDbArc
 50
312.87
 51
47.1304
  0
LINE
  5
13A9
330
116E
100
AcDbEntity
  8
1
  6
Continuous
100
AcDbLine
 10
159.6216065032639
 20
161.9978670191671
 30
0.0
 11
157.973706503264
 21
159.6855532691671
 31
0.0
  0
LINE
  5
13AA
330
116E
100
AcDbEntity
  8
1
  6
Continuous
100
AcDbLine
 10
159.6216065032639
 20
161.9978670191671
 30
0.0
 11
159.6216065032639
 21
158.9978670191673
 31
0.0
  0
ARC
  5
13AB
330
116E
100
AcDbEntity
  8
1
  6
Continuous
100
AcDbCircle
 10
161.9380705356372
 20
159.7098015191673
 30
0.0
 40
0.9380625
100
AcDbArc
 50
47.1304
 51
57.1503
  0
ARC
  5
13AC
330
116E
100
AcDbEntity
  8
1
  6
Continuous
100
AcDbCircle
 10
161.9380705356372
 20
159.9359295191673
 30
0.0
 40
0.9380625
100
AcDbArc
 50
227.13
 51
312.87
  0
ARC
  5
13AD
330
116E
100
AcDbEntity
  8
1
  6
Continuous
100
AcDbCircle
 10
161.9380705356372
 20
161.2859295191671
 30
0.0
 40
0.9380625
100
AcDbArc
 50
302.85
 51
312.87
  0
ARC
  5
13AE
330
116E
100
AcDbEntity
  8
1
  6
Continuous
100
AcDbCircle
 10
161.8331155356371
 20
159.8228670191673
 30
0.0
 40
0.7837950000000001
100
AcDbArc
 50
193.0139999999999
 51
227.13
  0
LINE
  5
13AF
330
116E
100
AcDbEntity
  8
1
  6
Continuous
100
AcDbLine
 10
162.0078505356371
 20
160.4978670191673
 30
0.0
 11
162.446915535637
 21
160.4978670191673
 31
0.0
  0
LINE
  5
13B0
330
116E
100
AcDbEntity
  8
1
  6
Continuous
100
AcDbLine
 10
157.973706503264
 20
159.6855532691671
 30
0.0
 11
159.925206503264
 21
159.6855532691671
 31
0.0
  0
ARC
  5
13B1
330
116E
100
AcDbEntity
  8
1
  6
Continuous
100
AcDbCircle
 10
162.0430255356373
 20
159.8228670191673
 30
0.0
 40
0.7837950000000001
100
AcDbArc
 50
312.87
 51
47.1304
  0
ARC
  5
13B2
330
116E
100
AcDbEntity
  8
1
  6
Continuous
100
AcDbCircle
 10
161.9380705356372
 20
161.0598045191673
 30
0.0
 40
0.9380625
100
AcDbArc
 50
47.1304
 51
132.8699999999997
  0
LINE
  5
13B3
330
116E
100
AcDbEntity
  8
1
  6
Continuous
100
AcDbLine
 10
163.8613054958759
 20
161.0797170191673
 30
0.0
 11
163.8613054958759
 21
159.9160170191673
 31
0.0
  0
ARC
  5
13B4
330
116E
100
AcDbEntity
  8
1
  6
Continuous
100
AcDbCircle
 10
164.8008304958759
 20
159.9160170191673
 30
0.0
 40
0.9395099999999999
100
AcDbArc
 50
135.928
 51
224.072
  0
ARC
  5
13B5
330
116E
100
AcDbEntity
  8
1
  6
Continuous
100
AcDbCircle
 10
164.6992804958759
 20
159.9160170191673
 30
0.0
 40
0.9395099999999999
100
AcDbArc
 50
315.927
 51
44.0725
  0
ARC
  5
13B6
330
116E
100
AcDbEntity
  8
1
  6
Continuous
100
AcDbCircle
 10
164.7500554958758
 20
159.8668770191673
 30
0.0
 40
0.8688599999999999
100
AcDbArc
 50
224.072
 51
315.927
  0
ARC
  5
13B7
330
116E
100
AcDbEntity
  8
1
  6
Continuous
100
AcDbCircle
 10
164.7500554958758
 20
159.9651570191672
 30
0.0
 40
0.8688599999999999
100
AcDbArc
 50
44.0725
 51
135.928
  0
ARC
  5
13B8
330
116E
100
AcDbEntity
  8
1
  6
Continuous
100
AcDbCircle
 10
164.8008304958759
 20
161.0797170191673
 30
0.0
 40
0.9395099999999999
100
AcDbArc
 50
135.928
 51
180.0
  0
ARC
  5
13B9
330
116E
100
AcDbEntity
  8
1
  6
Continuous
100
AcDbCircle
 10
164.7500554958758
 20
161.1288570191673
 30
0.0
 40
0.8688599999999999
100
AcDbArc
 50
44.0725
 51
135.928
  0
ARC
  5
13BA
330
116E
100
AcDbEntity
  8
1
  6
Continuous
100
AcDbCircle
 10
164.6992804958759
 20
161.0797170191673
 30
0.0
 40
0.9395099999999999
100
AcDbArc
 50
19.5807
 51
44.0725
  0
LINE
  5
13BB
330
116E
100
AcDbEntity
  8
4
  6
CENTER
100
AcDbLine
 10
96.68765424999891
 20
267.155025248714
 30
0.0
 11
192.6876542499988
 21
267.155025248714
 31
0.0
  0
LINE
  5
13BC
330
116E
100
AcDbEntity
  8
1
  6
Continuous
100
AcDbLine
 10
110.7702299449589
 20
273.1550252487239
 30
0.0
 11
186.687654249999
 21
273.1550252487239
 31
0.0
  0
LINE
  5
13BD
330
116E
100
AcDbEntity
  8
1
  6
Continuous
100
AcDbLine
 10
120.687654249999
 20
262.1550252487141
 30
0.0
 11
166.687654249999
 21
262.1550252487141
 31
0.0
  0
LINE
  5
13BE
330
116E
100
AcDbEntity
  8
1
  6
Continuous
100
AcDbLine
 10
102.3284399027803
 20
262.2801669790292
 30
0.0
 11
100.5958133545971
 21
259.5736504280038
 31
0.0
  0
LINE
  5
13BF
330
116E
100
AcDbEntity
  8
1
  6
Continuous
100
AcDbLine
 10
99.68765424999894
 20
260.1550252487141
 30
0.0
 11
99.68765424999894
 21
274.155025248714
 31
0.0
  0
LINE
  5
13C0
330
116E
100
AcDbEntity
  8
1
  6
Continuous
100
AcDbLine
 10
120.687654249999
 20
261.1550252487239
 30
0.0
 11
120.687654249999
 21
262.1550252487907
 31
0.0
  0
LINE
  5
13C1
330
116E
100
AcDbEntity
  8
1
  6
Continuous
100
AcDbLine
 10
110.6121064205729
 20
262.3041144143414
 30
0.0
 11
108.766711018545
 21
259.1459947525957
 31
0.0
  0
POLYLINE
  5
13C2
330
116E
100
AcDbEntity
  8
1
  6
Continuous
100
AcDb3dPolyline
 66
     1
 10
0.0
 20
0.0
 30
0.0
 70
     8
  0
VERTEX
  5
13C3
330
13C2
100
AcDbEntity
  8
1
100
AcDbVertex
100
AcDb3dPolylineVertex
 10
102.166
 20
264.4049999999999
 30
0.0
 70
    32
  0
VERTEX
  5
13C4
330
13C2
100
AcDbEntity
  8
1
100
AcDbVertex
100
AcDb3dPolylineVertex
 10
102.1479999999999
 20
264.408
 30
0.0
 70
    32
  0
VERTEX
  5
13C5
330
13C2
100
AcDbEntity
  8
1
100
AcDbVertex
100
AcDb3dPolylineVertex
 10
102.1309999999999
 20
264.4179999999999
 30
0.0
 70
    32
  0
VERTEX
  5
13C6
330
13C2
100
AcDbEntity
  8
1
100
AcDbVertex
100
AcDb3dPolylineVertex
 10
102.113
 20
264.435
 30
0.0
 70
    32
  0
VERTEX
  5
13C7
330
13C2
100
AcDbEntity
  8
1
100
AcDbVertex
100
AcDb3dPolylineVertex
 10
102.096
 20
264.4579999999999
 30
0.0
 70
    32
  0
VERTEX
  5
13C8
330
13C2
100
AcDbEntity
  8
1
100
AcDbVertex
100
AcDb3dPolylineVertex
 10
102.0779999999999
 20
264.487
 30
0.0
 70
    32
  0
VERTEX
  5
13C9
330
13C2
100
AcDbEntity
  8
1
100
AcDbVertex
100
AcDb3dPolylineVertex
 10
102.061
 20
264.5229999999999
 30
0.0
 70
    32
  0
VERTEX
  5
13CA
330
13C2
100
AcDbEntity
  8
1
100
AcDbVertex
100
AcDb3dPolylineVertex
 10
102.045
 20
264.5659999999999
 30
0.0
 70
    32
  0
VERTEX
  5
13CB
330
13C2
100
AcDbEntity
  8
1
100
AcDbVertex
100
AcDb3dPolylineVertex
 10
102.0279999999999
 20
264.6139999999999
 30
0.0
 70
    32
  0
VERTEX
  5
13CC
330
13C2
100
AcDbEntity
  8
1
100
AcDbVertex
100
AcDb3dPolylineVertex
 10
102.0119999999999
 20
264.6689999999999
 30
0.0
 70
    32
  0
VERTEX
  5
13CD
330
13C2
100
AcDbEntity
  8
1
100
AcDbVertex
100
AcDb3dPolylineVertex
 10
101.996
 20
264.73
 30
0.0
 70
    32
  0
VERTEX
  5
13CE
330
13C2
100
AcDbEntity
  8
1
100
AcDbVertex
100
AcDb3dPolylineVertex
 10
101.9809999999999
 20
264.7959999999998
 30
0.0
 70
    32
  0
VERTEX
  5
13CF
330
13C2
100
AcDbEntity
  8
1
100
AcDbVertex
100
AcDb3dPolylineVertex
 10
101.966
 20
264.868
 30
0.0
 70
    32
  0
VERTEX
  5
13D0
330
13C2
100
AcDbEntity
  8
1
100
AcDbVertex
100
AcDb3dPolylineVertex
 10
101.9509999999999
 20
264.9459999999999
 30
0.0
 70
    32
  0
VERTEX
  5
13D1
330
13C2
100
AcDbEntity
  8
1
100
AcDbVertex
100
AcDb3dPolylineVertex
 10
101.937
 20
265.029
 30
0.0
 70
    32
  0
VERTEX
  5
13D2
330
13C2
100
AcDbEntity
  8
1
100
AcDbVertex
100
AcDb3dPolylineVertex
 10
101.9239999999998
 20
265.117
 30
0.0
 70
    32
  0
VERTEX
  5
13D3
330
13C2
100
AcDbEntity
  8
1
100
AcDbVertex
100
AcDb3dPolylineVertex
 10
101.9109999999999
 20
265.2099999999999
 30
0.0
 70
    32
  0
VERTEX
  5
13D4
330
13C2
100
AcDbEntity
  8
1
100
AcDbVertex
100
AcDb3dPolylineVertex
 10
101.899
 20
265.308
 30
0.0
 70
    32
  0
VERTEX
  5
13D5
330
13C2
100
AcDbEntity
  8
1
100
AcDbVertex
100
AcDb3dPolylineVertex
 10
101.8869999999999
 20
265.41
 30
0.0
 70
    32
  0
VERTEX
  5
13D6
330
13C2
100
AcDbEntity
  8
1
100
AcDbVertex
100
AcDb3dPolylineVertex
 10
101.876
 20
265.517
 30
0.0
 70
    32
  0
VERTEX
  5
13D7
330
13C2
100
AcDbEntity
  8
1
100
AcDbVertex
100
AcDb3dPolylineVertex
 10
101.866
 20
265.627
 30
0.0
 70
    32
  0
VERTEX
  5
13D8
330
13C2
100
AcDbEntity
  8
1
100
AcDbVertex
100
AcDb3dPolylineVertex
 10
101.857
 20
265.741
 30
0.0
 70
    32
  0
VERTEX
  5
13D9
330
13C2
100
AcDbEntity
  8
1
100
AcDbVertex
100
AcDb3dPolylineVertex
 10
101.848
 20
265.8589999999999
 30
0.0
 70
    32
  0
VERTEX
  5
13DA
330
13C2
100
AcDbEntity
  8
1
100
AcDbVertex
100
AcDb3dPolylineVertex
 10
101.8399999999999
 20
265.979
 30
0.0
 70
    32
  0
VERTEX
  5
13DB
330
13C2
100
AcDbEntity
  8
1
100
AcDbVertex
100
AcDb3dPolylineVertex
 10
101.8329999999999
 20
266.103
 30
0.0
 70
    32
  0
VERTEX
  5
13DC
330
13C2
100
AcDbEntity
  8
1
100
AcDbVertex
100
AcDb3dPolylineVertex
 10
101.8259999999999
 20
266.229
 30
0.0
 70
    32
  0
VERTEX
  5
13DD
330
13C2
100
AcDbEntity
  8
1
100
AcDbVertex
100
AcDb3dPolylineVertex
 10
101.821
 20
266.357
 30
0.0
 70
    32
  0
VERTEX
  5
13DE
330
13C2
100
AcDbEntity
  8
1
100
AcDbVertex
100
AcDb3dPolylineVertex
 10
101.8159999999999
 20
266.487
 30
0.0
 70
    32
  0
VERTEX
  5
13DF
330
13C2
100
AcDbEntity
  8
1
100
AcDbVertex
100
AcDb3dPolylineVertex
 10
101.812
 20
266.619
 30
0.0
 70
    32
  0
VERTEX
  5
13E0
330
13C2
100
AcDbEntity
  8
1
100
AcDbVertex
100
AcDb3dPolylineVertex
 10
101.8089999999999
 20
266.752
 30
0.0
 70
    32
  0
VERTEX
  5
13E1
330
13C2
100
AcDbEntity
  8
1
100
AcDbVertex
100
AcDb3dPolylineVertex
 10
101.807
 20
266.8849999999998
 30
0.0
 70
    32
  0
VERTEX
  5
13E2
330
13C2
100
AcDbEntity
  8
1
100
AcDbVertex
100
AcDb3dPolylineVertex
 10
101.8059999999999
 20
267.0199999999999
 30
0.0
 70
    32
  0
VERTEX
  5
13E3
330
13C2
100
AcDbEntity
  8
1
100
AcDbVertex
100
AcDb3dPolylineVertex
 10
101.805
 20
267.1549999999999
 30
0.0
 70
    32
  0
VERTEX
  5
13E4
330
13C2
100
AcDbEntity
  8
1
100
AcDbVertex
100
AcDb3dPolylineVertex
 10
101.8059999999999
 20
267.29
 30
0.0
 70
    32
  0
VERTEX
  5
13E5
330
13C2
100
AcDbEntity
  8
1
100
AcDbVertex
100
AcDb3dPolylineVertex
 10
101.807
 20
267.425
 30
0.0
 70
    32
  0
VERTEX
  5
13E6
330
13C2
100
AcDbEntity
  8
1
100
AcDbVertex
100
AcDb3dPolylineVertex
 10
101.8089999999999
 20
267.559
 30
0.0
 70
    32
  0
VERTEX
  5
13E7
330
13C2
100
AcDbEntity
  8
1
100
AcDbVertex
100
AcDb3dPolylineVertex
 10
101.812
 20
267.6919999999999
 30
0.0
 70
    32
  0
VERTEX
  5
13E8
330
13C2
100
AcDbEntity
  8
1
100
AcDbVertex
100
AcDb3dPolylineVertex
 10
101.8159999999999
 20
267.8229999999999
 30
0.0
 70
    32
  0
VERTEX
  5
13E9
330
13C2
100
AcDbEntity
  8
1
100
AcDbVertex
100
AcDb3dPolylineVertex
 10
101.821
 20
267.9529999999999
 30
0.0
 70
    32
  0
VERTEX
  5
13EA
330
13C2
100
AcDbEntity
  8
1
100
AcDbVertex
100
AcDb3dPolylineVertex
 10
101.8259999999999
 20
268.0809999999999
 30
0.0
 70
    32
  0
VERTEX
  5
13EB
330
13C2
100
AcDbEntity
  8
1
100
AcDbVertex
100
AcDb3dPolylineVertex
 10
101.8329999999999
 20
268.2069999999999
 30
0.0
 70
    32
  0
VERTEX
  5
13EC
330
13C2
100
AcDbEntity
  8
1
100
AcDbVertex
100
AcDb3dPolylineVertex
 10
101.8399999999999
 20
268.3309999999999
 30
0.0
 70
    32
  0
VERTEX
  5
13ED
330
13C2
100
AcDbEntity
  8
1
100
AcDbVertex
100
AcDb3dPolylineVertex
 10
101.848
 20
268.4509999999999
 30
0.0
 70
    32
  0
VERTEX
  5
13EE
330
13C2
100
AcDbEntity
  8
1
100
AcDbVertex
100
AcDb3dPolylineVertex
 10
101.857
 20
268.569
 30
0.0
 70
    32
  0
VERTEX
  5
13EF
330
13C2
100
AcDbEntity
  8
1
100
AcDbVertex
100
AcDb3dPolylineVertex
 10
101.866
 20
268.683
 30
0.0
 70
    32
  0
VERTEX
  5
13F0
330
13C2
100
AcDbEntity
  8
1
100
AcDbVertex
100
AcDb3dPolylineVertex
 10
101.876
 20
268.793
 30
0.0
 70
    32
  0
VERTEX
  5
13F1
330
13C2
100
AcDbEntity
  8
1
100
AcDbVertex
100
AcDb3dPolylineVertex
 10
101.8869999999999
 20
268.8999999999999
 30
0.0
 70
    32
  0
VERTEX
  5
13F2
330
13C2
100
AcDbEntity
  8
1
100
AcDbVertex
100
AcDb3dPolylineVertex
 10
101.899
 20
269.002
 30
0.0
 70
    32
  0
VERTEX
  5
13F3
330
13C2
100
AcDbEntity
  8
1
100
AcDbVertex
100
AcDb3dPolylineVertex
 10
101.9109999999999
 20
269.1
 30
0.0
 70
    32
  0
VERTEX
  5
13F4
330
13C2
100
AcDbEntity
  8
1
100
AcDbVertex
100
AcDb3dPolylineVertex
 10
101.9239999999998
 20
269.1929999999999
 30
0.0
 70
    32
  0
VERTEX
  5
13F5
330
13C2
100
AcDbEntity
  8
1
100
AcDbVertex
100
AcDb3dPolylineVertex
 10
101.937
 20
269.281
 30
0.0
 70
    32
  0
VERTEX
  5
13F6
330
13C2
100
AcDbEntity
  8
1
100
AcDbVertex
100
AcDb3dPolylineVertex
 10
101.9509999999999
 20
269.3639999999999
 30
0.0
 70
    32
  0
VERTEX
  5
13F7
330
13C2
100
AcDbEntity
  8
1
100
AcDbVertex
100
AcDb3dPolylineVertex
 10
101.966
 20
269.442
 30
0.0
 70
    32
  0
VERTEX
  5
13F8
330
13C2
100
AcDbEntity
  8
1
100
AcDbVertex
100
AcDb3dPolylineVertex
 10
101.9809999999999
 20
269.514
 30
0.0
 70
    32
  0
VERTEX
  5
13F9
330
13C2
100
AcDbEntity
  8
1
100
AcDbVertex
100
AcDb3dPolylineVertex
 10
101.996
 20
269.5799999999999
 30
0.0
 70
    32
  0
VERTEX
  5
13FA
330
13C2
100
AcDbEntity
  8
1
100
AcDbVertex
100
AcDb3dPolylineVertex
 10
102.0119999999999
 20
269.6409999999999
 30
0.0
 70
    32
  0
VERTEX
  5
13FB
330
13C2
100
AcDbEntity
  8
1
100
AcDbVertex
100
AcDb3dPolylineVertex
 10
102.0279999999999
 20
269.6959999999999
 30
0.0
 70
    32
  0
VERTEX
  5
13FC
330
13C2
100
AcDbEntity
  8
1
100
AcDbVertex
100
AcDb3dPolylineVertex
 10
102.045
 20
269.744
 30
0.0
 70
    32
  0
VERTEX
  5
13FD
330
13C2
100
AcDbEntity
  8
1
100
AcDbVertex
100
AcDb3dPolylineVertex
 10
102.061
 20
269.7869999999999
 30
0.0
 70
    32
  0
VERTEX
  5
13FE
330
13C2
100
AcDbEntity
  8
1
100
AcDbVertex
100
AcDb3dPolylineVertex
 10
102.0779999999999
 20
269.8229999999999
 30
0.0
 70
    32
  0
VERTEX
  5
13FF
330
13C2
100
AcDbEntity
  8
1
100
AcDbVertex
100
AcDb3dPolylineVertex
 10
102.096
 20
269.8519999999999
 30
0.0
 70
    32
  0
VERTEX
  5
1400
330
13C2
100
AcDbEntity
  8
1
100
AcDbVertex
100
AcDb3dPolylineVertex
 10
102.113
 20
269.8749999999999
 30
0.0
 70
    32
  0
VERTEX
  5
1401
330
13C2
100
AcDbEntity
  8
1
100
AcDbVertex
100
AcDb3dPolylineVertex
 10
102.1309999999999
 20
269.892
 30
0.0
 70
    32
  0
VERTEX
  5
1402
330
13C2
100
AcDbEntity
  8
1
100
AcDbVertex
100
AcDb3dPolylineVertex
 10
102.1479999999999
 20
269.9019999999998
 30
0.0
 70
    32
  0
VERTEX
  5
1403
330
13C2
100
AcDbEntity
  8
1
100
AcDbVertex
100
AcDb3dPolylineVertex
 10
102.166
 20
269.9049999999999
 30
0.0
 70
    32
  0
VERTEX
  5
1404
330
13C2
100
AcDbEntity
  8
1
100
AcDbVertex
100
AcDb3dPolylineVertex
 10
102.184
 20
269.9019999999998
 30
0.0
 70
    32
  0
VERTEX
  5
1405
330
13C2
100
AcDbEntity
  8
1
100
AcDbVertex
100
AcDb3dPolylineVertex
 10
102.202
 20
269.892
 30
0.0
 70
    32
  0
VERTEX
  5
1406
330
13C2
100
AcDbEntity
  8
1
100
AcDbVertex
100
AcDb3dPolylineVertex
 10
102.2189999999998
 20
269.8749999999999
 30
0.0
 70
    32
  0
VERTEX
  5
1407
330
13C2
100
AcDbEntity
  8
1
100
AcDbVertex
100
AcDb3dPolylineVertex
 10
102.237
 20
269.8519999999999
 30
0.0
 70
    32
  0
VERTEX
  5
1408
330
13C2
100
AcDbEntity
  8
1
100
AcDbVertex
100
AcDb3dPolylineVertex
 10
102.254
 20
269.8229999999999
 30
0.0
 70
    32
  0
VERTEX
  5
1409
330
13C2
100
AcDbEntity
  8
1
100
AcDbVertex
100
AcDb3dPolylineVertex
 10
102.271
 20
269.7869999999999
 30
0.0
 70
    32
  0
VERTEX
  5
140A
330
13C2
100
AcDbEntity
  8
1
100
AcDbVertex
100
AcDb3dPolylineVertex
 10
102.288
 20
269.744
 30
0.0
 70
    32
  0
VERTEX
  5
140B
330
13C2
100
AcDbEntity
  8
1
100
AcDbVertex
100
AcDb3dPolylineVertex
 10
102.3039999999999
 20
269.6959999999999
 30
0.0
 70
    32
  0
VERTEX
  5
140C
330
13C2
100
AcDbEntity
  8
1
100
AcDbVertex
100
AcDb3dPolylineVertex
 10
102.3199999999998
 20
269.6409999999999
 30
0.0
 70
    32
  0
VERTEX
  5
140D
330
13C2
100
AcDbEntity
  8
1
100
AcDbVertex
100
AcDb3dPolylineVertex
 10
102.336
 20
269.5799999999999
 30
0.0
 70
    32
  0
VERTEX
  5
140E
330
13C2
100
AcDbEntity
  8
1
100
AcDbVertex
100
AcDb3dPolylineVertex
 10
102.3519999999999
 20
269.514
 30
0.0
 70
    32
  0
VERTEX
  5
140F
330
13C2
100
AcDbEntity
  8
1
100
AcDbVertex
100
AcDb3dPolylineVertex
 10
102.367
 20
269.442
 30
0.0
 70
    32
  0
VERTEX
  5
1410
330
13C2
100
AcDbEntity
  8
1
100
AcDbVertex
100
AcDb3dPolylineVertex
 10
102.381
 20
269.3639999999999
 30
0.0
 70
    32
  0
VERTEX
  5
1411
330
13C2
100
AcDbEntity
  8
1
100
AcDbVertex
100
AcDb3dPolylineVertex
 10
102.3949999999999
 20
269.281
 30
0.0
 70
    32
  0
VERTEX
  5
1412
330
13C2
100
AcDbEntity
  8
1
100
AcDbVertex
100
AcDb3dPolylineVertex
 10
102.4079999999998
 20
269.1929999999999
 30
0.0
 70
    32
  0
VERTEX
  5
1413
330
13C2
100
AcDbEntity
  8
1
100
AcDbVertex
100
AcDb3dPolylineVertex
 10
102.421
 20
269.1
 30
0.0
 70
    32
  0
VERTEX
  5
1414
330
13C2
100
AcDbEntity
  8
1
100
AcDbVertex
100
AcDb3dPolylineVertex
 10
102.434
 20
269.002
 30
0.0
 70
    32
  0
VERTEX
  5
1415
330
13C2
100
AcDbEntity
  8
1
100
AcDbVertex
100
AcDb3dPolylineVertex
 10
102.4449999999998
 20
268.8999999999999
 30
0.0
 70
    32
  0
VERTEX
  5
1416
330
13C2
100
AcDbEntity
  8
1
100
AcDbVertex
100
AcDb3dPolylineVertex
 10
102.456
 20
268.793
 30
0.0
 70
    32
  0
VERTEX
  5
1417
330
13C2
100
AcDbEntity
  8
1
100
AcDbVertex
100
AcDb3dPolylineVertex
 10
102.4659999999999
 20
268.683
 30
0.0
 70
    32
  0
VERTEX
  5
1418
330
13C2
100
AcDbEntity
  8
1
100
AcDbVertex
100
AcDb3dPolylineVertex
 10
102.476
 20
268.569
 30
0.0
 70
    32
  0
VERTEX
  5
1419
330
13C2
100
AcDbEntity
  8
1
100
AcDbVertex
100
AcDb3dPolylineVertex
 10
102.4839999999999
 20
268.4509999999999
 30
0.0
 70
    32
  0
VERTEX
  5
141A
330
13C2
100
AcDbEntity
  8
1
100
AcDbVertex
100
AcDb3dPolylineVertex
 10
102.492
 20
268.3309999999999
 30
0.0
 70
    32
  0
VERTEX
  5
141B
330
13C2
100
AcDbEntity
  8
1
100
AcDbVertex
100
AcDb3dPolylineVertex
 10
102.4999999999999
 20
268.2069999999999
 30
0.0
 70
    32
  0
VERTEX
  5
141C
330
13C2
100
AcDbEntity
  8
1
100
AcDbVertex
100
AcDb3dPolylineVertex
 10
102.506
 20
268.0809999999999
 30
0.0
 70
    32
  0
VERTEX
  5
141D
330
13C2
100
AcDbEntity
  8
1
100
AcDbVertex
100
AcDb3dPolylineVertex
 10
102.511
 20
267.9529999999999
 30
0.0
 70
    32
  0
VERTEX
  5
141E
330
13C2
100
AcDbEntity
  8
1
100
AcDbVertex
100
AcDb3dPolylineVertex
 10
102.516
 20
267.8229999999999
 30
0.0
 70
    32
  0
VERTEX
  5
141F
330
13C2
100
AcDbEntity
  8
1
100
AcDbVertex
100
AcDb3dPolylineVertex
 10
102.5199999999999
 20
267.6919999999999
 30
0.0
 70
    32
  0
VERTEX
  5
1420
330
13C2
100
AcDbEntity
  8
1
100
AcDbVertex
100
AcDb3dPolylineVertex
 10
102.523
 20
267.559
 30
0.0
 70
    32
  0
VERTEX
  5
1421
330
13C2
100
AcDbEntity
  8
1
100
AcDbVertex
100
AcDb3dPolylineVertex
 10
102.5249999999999
 20
267.425
 30
0.0
 70
    32
  0
VERTEX
  5
1422
330
13C2
100
AcDbEntity
  8
1
100
AcDbVertex
100
AcDb3dPolylineVertex
 10
102.527
 20
267.29
 30
0.0
 70
    32
  0
VERTEX
  5
1423
330
13C2
100
AcDbEntity
  8
1
100
AcDbVertex
100
AcDb3dPolylineVertex
 10
102.527
 20
267.1549999999999
 30
0.0
 70
    32
  0
VERTEX
  5
1424
330
13C2
100
AcDbEntity
  8
1
100
AcDbVertex
100
AcDb3dPolylineVertex
 10
102.527
 20
267.0199999999999
 30
0.0
 70
    32
  0
VERTEX
  5
1425
330
13C2
100
AcDbEntity
  8
1
100
AcDbVertex
100
AcDb3dPolylineVertex
 10
102.5249999999999
 20
266.8849999999998
 30
0.0
 70
    32
  0
VERTEX
  5
1426
330
13C2
100
AcDbEntity
  8
1
100
AcDbVertex
100
AcDb3dPolylineVertex
 10
102.523
 20
266.752
 30
0.0
 70
    32
  0
VERTEX
  5
1427
330
13C2
100
AcDbEntity
  8
1
100
AcDbVertex
100
AcDb3dPolylineVertex
 10
102.5199999999999
 20
266.619
 30
0.0
 70
    32
  0
VERTEX
  5
1428
330
13C2
100
AcDbEntity
  8
1
100
AcDbVertex
100
AcDb3dPolylineVertex
 10
102.516
 20
266.487
 30
0.0
 70
    32
  0
VERTEX
  5
1429
330
13C2
100
AcDbEntity
  8
1
100
AcDbVertex
100
AcDb3dPolylineVertex
 10
102.511
 20
266.357
 30
0.0
 70
    32
  0
VERTEX
  5
142A
330
13C2
100
AcDbEntity
  8
1
100
AcDbVertex
100
AcDb3dPolylineVertex
 10
102.506
 20
266.229
 30
0.0
 70
    32
  0
VERTEX
  5
142B
330
13C2
100
AcDbEntity
  8
1
100
AcDbVertex
100
AcDb3dPolylineVertex
 10
102.4999999999999
 20
266.103
 30
0.0
 70
    32
  0
VERTEX
  5
142C
330
13C2
100
AcDbEntity
  8
1
100
AcDbVertex
100
AcDb3dPolylineVertex
 10
102.492
 20
265.979
 30
0.0
 70
    32
  0
VERTEX
  5
142D
330
13C2
100
AcDbEntity
  8
1
100
AcDbVertex
100
AcDb3dPolylineVertex
 10
102.4839999999999
 20
265.8589999999999
 30
0.0
 70
    32
  0
VERTEX
  5
142E
330
13C2
100
AcDbEntity
  8
1
100
AcDbVertex
100
AcDb3dPolylineVertex
 10
102.476
 20
265.741
 30
0.0
 70
    32
  0
VERTEX
  5
142F
330
13C2
100
AcDbEntity
  8
1
100
AcDbVertex
100
AcDb3dPolylineVertex
 10
102.4659999999999
 20
265.627
 30
0.0
 70
    32
  0
VERTEX
  5
1430
330
13C2
100
AcDbEntity
  8
1
100
AcDbVertex
100
AcDb3dPolylineVertex
 10
102.456
 20
265.517
 30
0.0
 70
    32
  0
VERTEX
  5
1431
330
13C2
100
AcDbEntity
  8
1
100
AcDbVertex
100
AcDb3dPolylineVertex
 10
102.4449999999998
 20
265.41
 30
0.0
 70
    32
  0
VERTEX
  5
1432
330
13C2
100
AcDbEntity
  8
1
100
AcDbVertex
100
AcDb3dPolylineVertex
 10
102.434
 20
265.308
 30
0.0
 70
    32
  0
VERTEX
  5
1433
330
13C2
100
AcDbEntity
  8
1
100
AcDbVertex
100
AcDb3dPolylineVertex
 10
102.421
 20
265.2099999999999
 30
0.0
 70
    32
  0
VERTEX
  5
1434
330
13C2
100
AcDbEntity
  8
1
100
AcDbVertex
100
AcDb3dPolylineVertex
 10
102.4079999999998
 20
265.117
 30
0.0
 70
    32
  0
VERTEX
  5
1435
330
13C2
100
AcDbEntity
  8
1
100
AcDbVertex
100
AcDb3dPolylineVertex
 10
102.3949999999999
 20
265.029
 30
0.0
 70
    32
  0
VERTEX
  5
1436
330
13C2
100
AcDbEntity
  8
1
100
AcDbVertex
100
AcDb3dPolylineVertex
 10
102.381
 20
264.9459999999999
 30
0.0
 70
    32
  0
VERTEX
  5
1437
330
13C2
100
AcDbEntity
  8
1
100
AcDbVertex
100
AcDb3dPolylineVertex
 10
102.367
 20
264.868
 30
0.0
 70
    32
  0
VERTEX
  5
1438
330
13C2
100
AcDbEntity
  8
1
100
AcDbVertex
100
AcDb3dPolylineVertex
 10
102.3519999999999
 20
264.7959999999998
 30
0.0
 70
    32
  0
VERTEX
  5
1439
330
13C2
100
AcDbEntity
  8
1
100
AcDbVertex
100
AcDb3dPolylineVertex
 10
102.336
 20
264.73
 30
0.0
 70
    32
  0
VERTEX
  5
143A
330
13C2
100
AcDbEntity
  8
1
100
AcDbVertex
100
AcDb3dPolylineVertex
 10
102.3199999999998
 20
264.6689999999999
 30
0.0
 70
    32
  0
VERTEX
  5
143B
330
13C2
100
AcDbEntity
  8
1
100
AcDbVertex
100
AcDb3dPolylineVertex
 10
102.3039999999999
 20
264.6139999999999
 30
0.0
 70
    32
  0
VERTEX
  5
143C
330
13C2
100
AcDbEntity
  8
1
100
AcDbVertex
100
AcDb3dPolylineVertex
 10
102.288
 20
264.5659999999999
 30
0.0
 70
    32
  0
VERTEX
  5
143D
330
13C2
100
AcDbEntity
  8
1
100
AcDbVertex
100
AcDb3dPolylineVertex
 10
102.271
 20
264.5229999999999
 30
0.0
 70
    32
  0
VERTEX
  5
143E
330
13C2
100
AcDbEntity
  8
1
100
AcDbVertex
100
AcDb3dPolylineVertex
 10
102.254
 20
264.487
 30
0.0
 70
    32
  0
VERTEX
  5
143F
330
13C2
100
AcDbEntity
  8
1
100
AcDbVertex
100
AcDb3dPolylineVertex
 10
102.237
 20
264.4579999999999
 30
0.0
 70
    32
  0
VERTEX
  5
1440
330
13C2
100
AcDbEntity
  8
1
100
AcDbVertex
100
AcDb3dPolylineVertex
 10
102.2189999999998
 20
264.435
 30
0.0
 70
    32
  0
VERTEX
  5
1441
330
13C2
100
AcDbEntity
  8
1
100
AcDbVertex
100
AcDb3dPolylineVertex
 10
102.202
 20
264.4179999999999
 30
0.0
 70
    32
  0
VERTEX
  5
1442
330
13C2
100
AcDbEntity
  8
1
100
AcDbVertex
100
AcDb3dPolylineVertex
 10
102.184
 20
264.408
 30
0.0
 70
    32
  0
VERTEX
  5
1443
330
13C2
100
AcDbEntity
  8
1
100
AcDbVertex
100
AcDb3dPolylineVertex
 10
102.166
 20
264.4049999999999
 30
0.0
 70
    32
  0
SEQEND
  5
1444
330
13C2
100
AcDbEntity
  8
1
  0
LINE
  5
1445
330
116E
100
AcDbEntity
  8
1
  6
Continuous
100
AcDbLine
 10
100.5958133545969
 20
274.7364000694239
 30
0.0
 11
102.3284399027803
 21
272.0298835183986
 31
0.0
  0
LINE
  5
1446
330
116E
100
AcDbEntity
  8
1
  6
Continuous
100
AcDbLine
 10
101.6876542499989
 20
276.155025248714
 30
0.0
 11
107.0399054538845
 21
276.155025248714
 31
0.0
  0
ARC
  5
1447
330
116E
100
AcDbEntity
  8
1
  6
Continuous
100
AcDbCircle
 10
101.6876542499989
 20
274.155025248714
 30
0.0
 40
2.0
100
AcDbArc
 50
90.00000000000005
 51
180.0
  0
POLYLINE
  5
1448
330
116E
100
AcDbEntity
  8
1
  6
Continuous
100
AcDb3dPolyline
 66
     1
 10
0.0
 20
0.0
 30
0.0
 70
     8
  0
VERTEX
  5
1449
330
1448
100
AcDbEntity
  8
1
100
AcDbVertex
100
AcDb3dPolylineVertex
 10
110.462
 20
272.1519999999998
 30
0.0
 70
    32
  0
VERTEX
  5
144A
330
1448
100
AcDbEntity
  8
1
100
AcDbVertex
100
AcDb3dPolylineVertex
 10
110.4789999999999
 20
272.1459999999999
 30
0.0
 70
    32
  0
VERTEX
  5
144B
330
1448
100
AcDbEntity
  8
1
100
AcDbVertex
100
AcDb3dPolylineVertex
 10
110.497
 20
272.1369999999998
 30
0.0
 70
    32
  0
VERTEX
  5
144C
330
1448
100
AcDbEntity
  8
1
100
AcDbVertex
100
AcDb3dPolylineVertex
 10
110.514
 20
272.126
 30
0.0
 70
    32
  0
VERTEX
  5
144D
330
1448
100
AcDbEntity
  8
1
100
AcDbVertex
100
AcDb3dPolylineVertex
 10
110.532
 20
272.1109999999999
 30
0.0
 70
    32
  0
VERTEX
  5
144E
330
1448
100
AcDbEntity
  8
1
100
AcDbVertex
100
AcDb3dPolylineVertex
 10
110.5489999999998
 20
272.094
 30
0.0
 70
    32
  0
VERTEX
  5
144F
330
1448
100
AcDbEntity
  8
1
100
AcDbVertex
100
AcDb3dPolylineVertex
 10
110.566
 20
272.074
 30
0.0
 70
    32
  0
VERTEX
  5
1450
330
1448
100
AcDbEntity
  8
1
100
AcDbVertex
100
AcDb3dPolylineVertex
 10
110.583
 20
272.0509999999998
 30
0.0
 70
    32
  0
VERTEX
  5
1451
330
1448
100
AcDbEntity
  8
1
100
AcDbVertex
100
AcDb3dPolylineVertex
 10
110.5999999999998
 20
272.0249999999999
 30
0.0
 70
    32
  0
VERTEX
  5
1452
330
1448
100
AcDbEntity
  8
1
100
AcDbVertex
100
AcDb3dPolylineVertex
 10
110.617
 20
271.9969999999999
 30
0.0
 70
    32
  0
VERTEX
  5
1453
330
1448
100
AcDbEntity
  8
1
100
AcDbVertex
100
AcDb3dPolylineVertex
 10
110.634
 20
271.966
 30
0.0
 70
    32
  0
VERTEX
  5
1454
330
1448
100
AcDbEntity
  8
1
100
AcDbVertex
100
AcDb3dPolylineVertex
 10
110.651
 20
271.9309999999999
 30
0.0
 70
    32
  0
VERTEX
  5
1455
330
1448
100
AcDbEntity
  8
1
100
AcDbVertex
100
AcDb3dPolylineVertex
 10
110.6679999999999
 20
271.8949999999999
 30
0.0
 70
    32
  0
VERTEX
  5
1456
330
1448
100
AcDbEntity
  8
1
100
AcDbVertex
100
AcDb3dPolylineVertex
 10
110.684
 20
271.855
 30
0.0
 70
    32
  0
VERTEX
  5
1457
330
1448
100
AcDbEntity
  8
1
100
AcDbVertex
100
AcDb3dPolylineVertex
 10
110.701
 20
271.8129999999998
 30
0.0
 70
    32
  0
VERTEX
  5
1458
330
1448
100
AcDbEntity
  8
1
100
AcDbVertex
100
AcDb3dPolylineVertex
 10
110.717
 20
271.7679999999999
 30
0.0
 70
    32
  0
VERTEX
  5
1459
330
1448
100
AcDbEntity
  8
1
100
AcDbVertex
100
AcDb3dPolylineVertex
 10
110.7329999999999
 20
271.72
 30
0.0
 70
    32
  0
VERTEX
  5
145A
330
1448
100
AcDbEntity
  8
1
100
AcDbVertex
100
AcDb3dPolylineVertex
 10
110.749
 20
271.67
 30
0.0
 70
    32
  0
VERTEX
  5
145B
330
1448
100
AcDbEntity
  8
1
100
AcDbVertex
100
AcDb3dPolylineVertex
 10
110.7639999999999
 20
271.617
 30
0.0
 70
    32
  0
VERTEX
  5
145C
330
1448
100
AcDbEntity
  8
1
100
AcDbVertex
100
AcDb3dPolylineVertex
 10
110.78
 20
271.562
 30
0.0
 70
    32
  0
VERTEX
  5
145D
330
1448
100
AcDbEntity
  8
1
100
AcDbVertex
100
AcDb3dPolylineVertex
 10
110.7949999999999
 20
271.504
 30
0.0
 70
    32
  0
VERTEX
  5
145E
330
1448
100
AcDbEntity
  8
1
100
AcDbVertex
100
AcDb3dPolylineVertex
 10
110.81
 20
271.444
 30
0.0
 70
    32
  0
VERTEX
  5
145F
330
1448
100
AcDbEntity
  8
1
100
AcDbVertex
100
AcDb3dPolylineVertex
 10
110.8249999999999
 20
271.3809999999999
 30
0.0
 70
    32
  0
VERTEX
  5
1460
330
1448
100
AcDbEntity
  8
1
100
AcDbVertex
100
AcDb3dPolylineVertex
 10
110.84
 20
271.3159999999999
 30
0.0
 70
    32
  0
VERTEX
  5
1461
330
1448
100
AcDbEntity
  8
1
100
AcDbVertex
100
AcDb3dPolylineVertex
 10
110.854
 20
271.2479999999998
 30
0.0
 70
    32
  0
VERTEX
  5
1462
330
1448
100
AcDbEntity
  8
1
100
AcDbVertex
100
AcDb3dPolylineVertex
 10
110.8689999999999
 20
271.178
 30
0.0
 70
    32
  0
VERTEX
  5
1463
330
1448
100
AcDbEntity
  8
1
100
AcDbVertex
100
AcDb3dPolylineVertex
 10
110.8829999999999
 20
271.1059999999998
 30
0.0
 70
    32
  0
VERTEX
  5
1464
330
1448
100
AcDbEntity
  8
1
100
AcDbVertex
100
AcDb3dPolylineVertex
 10
110.8959999999999
 20
271.031
 30
0.0
 70
    32
  0
VERTEX
  5
1465
330
1448
100
AcDbEntity
  8
1
100
AcDbVertex
100
AcDb3dPolylineVertex
 10
110.9099999999999
 20
270.954
 30
0.0
 70
    32
  0
VERTEX
  5
1466
330
1448
100
AcDbEntity
  8
1
100
AcDbVertex
100
AcDb3dPolylineVertex
 10
110.9229999999999
 20
270.875
 30
0.0
 70
    32
  0
VERTEX
  5
1467
330
1448
100
AcDbEntity
  8
1
100
AcDbVertex
100
AcDb3dPolylineVertex
 10
110.936
 20
270.7939999999999
 30
0.0
 70
    32
  0
VERTEX
  5
1468
330
1448
100
AcDbEntity
  8
1
100
AcDbVertex
100
AcDb3dPolylineVertex
 10
110.948
 20
270.711
 30
0.0
 70
    32
  0
VERTEX
  5
1469
330
1448
100
AcDbEntity
  8
1
100
AcDbVertex
100
AcDb3dPolylineVertex
 10
110.9609999999999
 20
270.6259999999999
 30
0.0
 70
    32
  0
VERTEX
  5
146A
330
1448
100
AcDbEntity
  8
1
100
AcDbVertex
100
AcDb3dPolylineVertex
 10
110.973
 20
270.538
 30
0.0
 70
    32
  0
VERTEX
  5
146B
330
1448
100
AcDbEntity
  8
1
100
AcDbVertex
100
AcDb3dPolylineVertex
 10
110.9839999999999
 20
270.449
 30
0.0
 70
    32
  0
VERTEX
  5
146C
330
1448
100
AcDbEntity
  8
1
100
AcDbVertex
100
AcDb3dPolylineVertex
 10
110.996
 20
270.358
 30
0.0
 70
    32
  0
VERTEX
  5
146D
330
1448
100
AcDbEntity
  8
1
100
AcDbVertex
100
AcDb3dPolylineVertex
 10
111.007
 20
270.2649999999998
 30
0.0
 70
    32
  0
VERTEX
  5
146E
330
1448
100
AcDbEntity
  8
1
100
AcDbVertex
100
AcDb3dPolylineVertex
 10
111.017
 20
270.17
 30
0.0
 70
    32
  0
VERTEX
  5
146F
330
1448
100
AcDbEntity
  8
1
100
AcDbVertex
100
AcDb3dPolylineVertex
 10
111.0279999999999
 20
270.074
 30
0.0
 70
    32
  0
VERTEX
  5
1470
330
1448
100
AcDbEntity
  8
1
100
AcDbVertex
100
AcDb3dPolylineVertex
 10
111.0379999999999
 20
269.9759999999999
 30
0.0
 70
    32
  0
VERTEX
  5
1471
330
1448
100
AcDbEntity
  8
1
100
AcDbVertex
100
AcDb3dPolylineVertex
 10
111.0479999999999
 20
269.8759999999999
 30
0.0
 70
    32
  0
VERTEX
  5
1472
330
1448
100
AcDbEntity
  8
1
100
AcDbVertex
100
AcDb3dPolylineVertex
 10
111.057
 20
269.774
 30
0.0
 70
    32
  0
VERTEX
  5
1473
330
1448
100
AcDbEntity
  8
1
100
AcDbVertex
100
AcDb3dPolylineVertex
 10
111.0659999999999
 20
269.672
 30
0.0
 70
    32
  0
VERTEX
  5
1474
330
1448
100
AcDbEntity
  8
1
100
AcDbVertex
100
AcDb3dPolylineVertex
 10
111.075
 20
269.567
 30
0.0
 70
    32
  0
VERTEX
  5
1475
330
1448
100
AcDbEntity
  8
1
100
AcDbVertex
100
AcDb3dPolylineVertex
 10
111.0829999999999
 20
269.462
 30
0.0
 70
    32
  0
VERTEX
  5
1476
330
1448
100
AcDbEntity
  8
1
100
AcDbVertex
100
AcDb3dPolylineVertex
 10
111.091
 20
269.355
 30
0.0
 70
    32
  0
VERTEX
  5
1477
330
1448
100
AcDbEntity
  8
1
100
AcDbVertex
100
AcDb3dPolylineVertex
 10
111.098
 20
269.246
 30
0.0
 70
    32
  0
VERTEX
  5
1478
330
1448
100
AcDbEntity
  8
1
100
AcDbVertex
100
AcDb3dPolylineVertex
 10
111.105
 20
269.137
 30
0.0
 70
    32
  0
VERTEX
  5
1479
330
1448
100
AcDbEntity
  8
1
100
AcDbVertex
100
AcDb3dPolylineVertex
 10
111.1119999999999
 20
269.026
 30
0.0
 70
    32
  0
VERTEX
  5
147A
330
1448
100
AcDbEntity
  8
1
100
AcDbVertex
100
AcDb3dPolylineVertex
 10
111.118
 20
268.915
 30
0.0
 70
    32
  0
VERTEX
  5
147B
330
1448
100
AcDbEntity
  8
1
100
AcDbVertex
100
AcDb3dPolylineVertex
 10
111.124
 20
268.802
 30
0.0
 70
    32
  0
VERTEX
  5
147C
330
1448
100
AcDbEntity
  8
1
100
AcDbVertex
100
AcDb3dPolylineVertex
 10
111.1299999999999
 20
268.6879999999998
 30
0.0
 70
    32
  0
VERTEX
  5
147D
330
1448
100
AcDbEntity
  8
1
100
AcDbVertex
100
AcDb3dPolylineVertex
 10
111.135
 20
268.574
 30
0.0
 70
    32
  0
VERTEX
  5
147E
330
1448
100
AcDbEntity
  8
1
100
AcDbVertex
100
AcDb3dPolylineVertex
 10
111.1399999999999
 20
268.4579999999999
 30
0.0
 70
    32
  0
VERTEX
  5
147F
330
1448
100
AcDbEntity
  8
1
100
AcDbVertex
100
AcDb3dPolylineVertex
 10
111.1439999999999
 20
268.3419999999999
 30
0.0
 70
    32
  0
VERTEX
  5
1480
330
1448
100
AcDbEntity
  8
1
100
AcDbVertex
100
AcDb3dPolylineVertex
 10
111.148
 20
268.2259999999998
 30
0.0
 70
    32
  0
VERTEX
  5
1481
330
1448
100
AcDbEntity
  8
1
100
AcDbVertex
100
AcDb3dPolylineVertex
 10
111.152
 20
268.108
 30
0.0
 70
    32
  0
VERTEX
  5
1482
330
1448
100
AcDbEntity
  8
1
100
AcDbVertex
100
AcDb3dPolylineVertex
 10
111.155
 20
267.9899999999999
 30
0.0
 70
    32
  0
VERTEX
  5
1483
330
1448
100
AcDbEntity
  8
1
100
AcDbVertex
100
AcDb3dPolylineVertex
 10
111.1579999999999
 20
267.872
 30
0.0
 70
    32
  0
VERTEX
  5
1484
330
1448
100
AcDbEntity
  8
1
100
AcDbVertex
100
AcDb3dPolylineVertex
 10
111.1599999999999
 20
267.7529999999998
 30
0.0
 70
    32
  0
VERTEX
  5
1485
330
1448
100
AcDbEntity
  8
1
100
AcDbVertex
100
AcDb3dPolylineVertex
 10
111.162
 20
267.634
 30
0.0
 70
    32
  0
VERTEX
  5
1486
330
1448
100
AcDbEntity
  8
1
100
AcDbVertex
100
AcDb3dPolylineVertex
 10
111.1629999999999
 20
267.514
 30
0.0
 70
    32
  0
VERTEX
  5
1487
330
1448
100
AcDbEntity
  8
1
100
AcDbVertex
100
AcDb3dPolylineVertex
 10
111.1639999999999
 20
267.395
 30
0.0
 70
    32
  0
VERTEX
  5
1488
330
1448
100
AcDbEntity
  8
1
100
AcDbVertex
100
AcDb3dPolylineVertex
 10
111.165
 20
267.2749999999999
 30
0.0
 70
    32
  0
VERTEX
  5
1489
330
1448
100
AcDbEntity
  8
1
100
AcDbVertex
100
AcDb3dPolylineVertex
 10
111.165
 20
267.1549999999999
 30
0.0
 70
    32
  0
VERTEX
  5
148A
330
1448
100
AcDbEntity
  8
1
100
AcDbVertex
100
AcDb3dPolylineVertex
 10
111.165
 20
267.035
 30
0.0
 70
    32
  0
VERTEX
  5
148B
330
1448
100
AcDbEntity
  8
1
100
AcDbVertex
100
AcDb3dPolylineVertex
 10
111.1639999999999
 20
266.915
 30
0.0
 70
    32
  0
VERTEX
  5
148C
330
1448
100
AcDbEntity
  8
1
100
AcDbVertex
100
AcDb3dPolylineVertex
 10
111.1629999999999
 20
266.7959999999998
 30
0.0
 70
    32
  0
VERTEX
  5
148D
330
1448
100
AcDbEntity
  8
1
100
AcDbVertex
100
AcDb3dPolylineVertex
 10
111.162
 20
266.676
 30
0.0
 70
    32
  0
VERTEX
  5
148E
330
1448
100
AcDbEntity
  8
1
100
AcDbVertex
100
AcDb3dPolylineVertex
 10
111.1599999999999
 20
266.557
 30
0.0
 70
    32
  0
VERTEX
  5
148F
330
1448
100
AcDbEntity
  8
1
100
AcDbVertex
100
AcDb3dPolylineVertex
 10
111.1579999999999
 20
266.4379999999998
 30
0.0
 70
    32
  0
VERTEX
  5
1490
330
1448
100
AcDbEntity
  8
1
100
AcDbVertex
100
AcDb3dPolylineVertex
 10
111.155
 20
266.3199999999998
 30
0.0
 70
    32
  0
VERTEX
  5
1491
330
1448
100
AcDbEntity
  8
1
100
AcDbVertex
100
AcDb3dPolylineVertex
 10
111.152
 20
266.202
 30
0.0
 70
    32
  0
VERTEX
  5
1492
330
1448
100
AcDbEntity
  8
1
100
AcDbVertex
100
AcDb3dPolylineVertex
 10
111.148
 20
266.0849999999999
 30
0.0
 70
    32
  0
VERTEX
  5
1493
330
1448
100
AcDbEntity
  8
1
100
AcDbVertex
100
AcDb3dPolylineVertex
 10
111.1439999999999
 20
265.968
 30
0.0
 70
    32
  0
VERTEX
  5
1494
330
1448
100
AcDbEntity
  8
1
100
AcDbVertex
100
AcDb3dPolylineVertex
 10
111.1399999999999
 20
265.8519999999999
 30
0.0
 70
    32
  0
VERTEX
  5
1495
330
1448
100
AcDbEntity
  8
1
100
AcDbVertex
100
AcDb3dPolylineVertex
 10
111.135
 20
265.736
 30
0.0
 70
    32
  0
VERTEX
  5
1496
330
1448
100
AcDbEntity
  8
1
100
AcDbVertex
100
AcDb3dPolylineVertex
 10
111.1299999999999
 20
265.622
 30
0.0
 70
    32
  0
VERTEX
  5
1497
330
1448
100
AcDbEntity
  8
1
100
AcDbVertex
100
AcDb3dPolylineVertex
 10
111.124
 20
265.5079999999999
 30
0.0
 70
    32
  0
VERTEX
  5
1498
330
1448
100
AcDbEntity
  8
1
100
AcDbVertex
100
AcDb3dPolylineVertex
 10
111.118
 20
265.395
 30
0.0
 70
    32
  0
VERTEX
  5
1499
330
1448
100
AcDbEntity
  8
1
100
AcDbVertex
100
AcDb3dPolylineVertex
 10
111.1119999999999
 20
265.2839999999998
 30
0.0
 70
    32
  0
VERTEX
  5
149A
330
1448
100
AcDbEntity
  8
1
100
AcDbVertex
100
AcDb3dPolylineVertex
 10
111.105
 20
265.173
 30
0.0
 70
    32
  0
VERTEX
  5
149B
330
1448
100
AcDbEntity
  8
1
100
AcDbVertex
100
AcDb3dPolylineVertex
 10
111.098
 20
265.064
 30
0.0
 70
    32
  0
VERTEX
  5
149C
330
1448
100
AcDbEntity
  8
1
100
AcDbVertex
100
AcDb3dPolylineVertex
 10
111.091
 20
264.955
 30
0.0
 70
    32
  0
VERTEX
  5
149D
330
1448
100
AcDbEntity
  8
1
100
AcDbVertex
100
AcDb3dPolylineVertex
 10
111.0829999999999
 20
264.848
 30
0.0
 70
    32
  0
VERTEX
  5
149E
330
1448
100
AcDbEntity
  8
1
100
AcDbVertex
100
AcDb3dPolylineVertex
 10
111.075
 20
264.7429999999999
 30
0.0
 70
    32
  0
VERTEX
  5
149F
330
1448
100
AcDbEntity
  8
1
100
AcDbVertex
100
AcDb3dPolylineVertex
 10
111.0659999999999
 20
264.6379999999999
 30
0.0
 70
    32
  0
VERTEX
  5
14A0
330
1448
100
AcDbEntity
  8
1
100
AcDbVertex
100
AcDb3dPolylineVertex
 10
111.057
 20
264.536
 30
0.0
 70
    32
  0
VERTEX
  5
14A1
330
1448
100
AcDbEntity
  8
1
100
AcDbVertex
100
AcDb3dPolylineVertex
 10
111.0479999999999
 20
264.434
 30
0.0
 70
    32
  0
VERTEX
  5
14A2
330
1448
100
AcDbEntity
  8
1
100
AcDbVertex
100
AcDb3dPolylineVertex
 10
111.0379999999999
 20
264.334
 30
0.0
 70
    32
  0
VERTEX
  5
14A3
330
1448
100
AcDbEntity
  8
1
100
AcDbVertex
100
AcDb3dPolylineVertex
 10
111.0279999999999
 20
264.236
 30
0.0
 70
    32
  0
VERTEX
  5
14A4
330
1448
100
AcDbEntity
  8
1
100
AcDbVertex
100
AcDb3dPolylineVertex
 10
111.017
 20
264.1399999999998
 30
0.0
 70
    32
  0
VERTEX
  5
14A5
330
1448
100
AcDbEntity
  8
1
100
AcDbVertex
100
AcDb3dPolylineVertex
 10
111.007
 20
264.045
 30
0.0
 70
    32
  0
VERTEX
  5
14A6
330
1448
100
AcDbEntity
  8
1
100
AcDbVertex
100
AcDb3dPolylineVertex
 10
110.996
 20
263.952
 30
0.0
 70
    32
  0
VERTEX
  5
14A7
330
1448
100
AcDbEntity
  8
1
100
AcDbVertex
100
AcDb3dPolylineVertex
 10
110.9839999999999
 20
263.8609999999999
 30
0.0
 70
    32
  0
VERTEX
  5
14A8
330
1448
100
AcDbEntity
  8
1
100
AcDbVertex
100
AcDb3dPolylineVertex
 10
110.973
 20
263.7719999999998
 30
0.0
 70
    32
  0
VERTEX
  5
14A9
330
1448
100
AcDbEntity
  8
1
100
AcDbVertex
100
AcDb3dPolylineVertex
 10
110.9609999999999
 20
263.6849999999999
 30
0.0
 70
    32
  0
VERTEX
  5
14AA
330
1448
100
AcDbEntity
  8
1
100
AcDbVertex
100
AcDb3dPolylineVertex
 10
110.948
 20
263.599
 30
0.0
 70
    32
  0
VERTEX
  5
14AB
330
1448
100
AcDbEntity
  8
1
100
AcDbVertex
100
AcDb3dPolylineVertex
 10
110.936
 20
263.5159999999999
 30
0.0
 70
    32
  0
VERTEX
  5
14AC
330
1448
100
AcDbEntity
  8
1
100
AcDbVertex
100
AcDb3dPolylineVertex
 10
110.9229999999999
 20
263.4349999999999
 30
0.0
 70
    32
  0
VERTEX
  5
14AD
330
1448
100
AcDbEntity
  8
1
100
AcDbVertex
100
AcDb3dPolylineVertex
 10
110.9099999999999
 20
263.356
 30
0.0
 70
    32
  0
VERTEX
  5
14AE
330
1448
100
AcDbEntity
  8
1
100
AcDbVertex
100
AcDb3dPolylineVertex
 10
110.8959999999999
 20
263.2789999999999
 30
0.0
 70
    32
  0
VERTEX
  5
14AF
330
1448
100
AcDbEntity
  8
1
100
AcDbVertex
100
AcDb3dPolylineVertex
 10
110.8829999999999
 20
263.2039999999999
 30
0.0
 70
    32
  0
VERTEX
  5
14B0
330
1448
100
AcDbEntity
  8
1
100
AcDbVertex
100
AcDb3dPolylineVertex
 10
110.8689999999999
 20
263.132
 30
0.0
 70
    32
  0
VERTEX
  5
14B1
330
1448
100
AcDbEntity
  8
1
100
AcDbVertex
100
AcDb3dPolylineVertex
 10
110.854
 20
263.0619999999999
 30
0.0
 70
    32
  0
VERTEX
  5
14B2
330
1448
100
AcDbEntity
  8
1
100
AcDbVertex
100
AcDb3dPolylineVertex
 10
110.84
 20
262.994
 30
0.0
 70
    32
  0
VERTEX
  5
14B3
330
1448
100
AcDbEntity
  8
1
100
AcDbVertex
100
AcDb3dPolylineVertex
 10
110.8249999999999
 20
262.9289999999999
 30
0.0
 70
    32
  0
VERTEX
  5
14B4
330
1448
100
AcDbEntity
  8
1
100
AcDbVertex
100
AcDb3dPolylineVertex
 10
110.81
 20
262.8659999999998
 30
0.0
 70
    32
  0
VERTEX
  5
14B5
330
1448
100
AcDbEntity
  8
1
100
AcDbVertex
100
AcDb3dPolylineVertex
 10
110.7949999999999
 20
262.806
 30
0.0
 70
    32
  0
VERTEX
  5
14B6
330
1448
100
AcDbEntity
  8
1
100
AcDbVertex
100
AcDb3dPolylineVertex
 10
110.78
 20
262.7479999999998
 30
0.0
 70
    32
  0
VERTEX
  5
14B7
330
1448
100
AcDbEntity
  8
1
100
AcDbVertex
100
AcDb3dPolylineVertex
 10
110.7639999999999
 20
262.6929999999999
 30
0.0
 70
    32
  0
VERTEX
  5
14B8
330
1448
100
AcDbEntity
  8
1
100
AcDbVertex
100
AcDb3dPolylineVertex
 10
110.749
 20
262.6399999999998
 30
0.0
 70
    32
  0
VERTEX
  5
14B9
330
1448
100
AcDbEntity
  8
1
100
AcDbVertex
100
AcDb3dPolylineVertex
 10
110.7329999999999
 20
262.5899999999999
 30
0.0
 70
    32
  0
VERTEX
  5
14BA
330
1448
100
AcDbEntity
  8
1
100
AcDbVertex
100
AcDb3dPolylineVertex
 10
110.717
 20
262.5419999999999
 30
0.0
 70
    32
  0
VERTEX
  5
14BB
330
1448
100
AcDbEntity
  8
1
100
AcDbVertex
100
AcDb3dPolylineVertex
 10
110.701
 20
262.497
 30
0.0
 70
    32
  0
VERTEX
  5
14BC
330
1448
100
AcDbEntity
  8
1
100
AcDbVertex
100
AcDb3dPolylineVertex
 10
110.684
 20
262.4549999999999
 30
0.0
 70
    32
  0
VERTEX
  5
14BD
330
1448
100
AcDbEntity
  8
1
100
AcDbVertex
100
AcDb3dPolylineVertex
 10
110.6679999999999
 20
262.415
 30
0.0
 70
    32
  0
VERTEX
  5
14BE
330
1448
100
AcDbEntity
  8
1
100
AcDbVertex
100
AcDb3dPolylineVertex
 10
110.651
 20
262.379
 30
0.0
 70
    32
  0
VERTEX
  5
14BF
330
1448
100
AcDbEntity
  8
1
100
AcDbVertex
100
AcDb3dPolylineVertex
 10
110.634
 20
262.345
 30
0.0
 70
    32
  0
VERTEX
  5
14C0
330
1448
100
AcDbEntity
  8
1
100
AcDbVertex
100
AcDb3dPolylineVertex
 10
110.617
 20
262.3129999999998
 30
0.0
 70
    32
  0
VERTEX
  5
14C1
330
1448
100
AcDbEntity
  8
1
100
AcDbVertex
100
AcDb3dPolylineVertex
 10
110.5999999999998
 20
262.285
 30
0.0
 70
    32
  0
VERTEX
  5
14C2
330
1448
100
AcDbEntity
  8
1
100
AcDbVertex
100
AcDb3dPolylineVertex
 10
110.583
 20
262.259
 30
0.0
 70
    32
  0
VERTEX
  5
14C3
330
1448
100
AcDbEntity
  8
1
100
AcDbVertex
100
AcDb3dPolylineVertex
 10
110.566
 20
262.236
 30
0.0
 70
    32
  0
VERTEX
  5
14C4
330
1448
100
AcDbEntity
  8
1
100
AcDbVertex
100
AcDb3dPolylineVertex
 10
110.5489999999998
 20
262.216
 30
0.0
 70
    32
  0
VERTEX
  5
14C5
330
1448
100
AcDbEntity
  8
1
100
AcDbVertex
100
AcDb3dPolylineVertex
 10
110.532
 20
262.199
 30
0.0
 70
    32
  0
VERTEX
  5
14C6
330
1448
100
AcDbEntity
  8
1
100
AcDbVertex
100
AcDb3dPolylineVertex
 10
110.514
 20
262.184
 30
0.0
 70
    32
  0
VERTEX
  5
14C7
330
1448
100
AcDbEntity
  8
1
100
AcDbVertex
100
AcDb3dPolylineVertex
 10
110.497
 20
262.1729999999999
 30
0.0
 70
    32
  0
VERTEX
  5
14C8
330
1448
100
AcDbEntity
  8
1
100
AcDbVertex
100
AcDb3dPolylineVertex
 10
110.4789999999999
 20
262.1639999999998
 30
0.0
 70
    32
  0
VERTEX
  5
14C9
330
1448
100
AcDbEntity
  8
1
100
AcDbVertex
100
AcDb3dPolylineVertex
 10
110.462
 20
262.158
 30
0.0
 70
    32
  0
SEQEND
  5
14CA
330
1448
100
AcDbEntity
  8
1
  0
POLYLINE
  5
14CB
330
116E
100
AcDbEntity
  8
1
  6
Continuous
100
AcDb3dPolyline
 66
     1
 10
0.0
 20
0.0
 30
0.0
 70
     8
  0
VERTEX
  5
14CC
330
14CB
100
AcDbEntity
  8
1
100
AcDbVertex
100
AcDb3dPolylineVertex
 10
102.19
 20
272.1519999999998
 30
0.0
 70
    32
  0
VERTEX
  5
14CD
330
14CB
100
AcDbEntity
  8
1
100
AcDbVertex
100
AcDb3dPolylineVertex
 10
102.208
 20
272.147
 30
0.0
 70
    32
  0
VERTEX
  5
14CE
330
14CB
100
AcDbEntity
  8
1
100
AcDbVertex
100
AcDb3dPolylineVertex
 10
102.2249999999998
 20
272.1389999999999
 30
0.0
 70
    32
  0
VERTEX
  5
14CF
330
14CB
100
AcDbEntity
  8
1
100
AcDbVertex
100
AcDb3dPolylineVertex
 10
102.2429999999999
 20
272.127
 30
0.0
 70
    32
  0
VERTEX
  5
14D0
330
14CB
100
AcDbEntity
  8
1
100
AcDbVertex
100
AcDb3dPolylineVertex
 10
102.26
 20
272.113
 30
0.0
 70
    32
  0
VERTEX
  5
14D1
330
14CB
100
AcDbEntity
  8
1
100
AcDbVertex
100
AcDb3dPolylineVertex
 10
102.278
 20
272.096
 30
0.0
 70
    32
  0
VERTEX
  5
14D2
330
14CB
100
AcDbEntity
  8
1
100
AcDbVertex
100
AcDb3dPolylineVertex
 10
102.295
 20
272.0769999999999
 30
0.0
 70
    32
  0
VERTEX
  5
14D3
330
14CB
100
AcDbEntity
  8
1
100
AcDbVertex
100
AcDb3dPolylineVertex
 10
102.312
 20
272.0539999999999
 30
0.0
 70
    32
  0
VERTEX
  5
14D4
330
14CB
100
AcDbEntity
  8
1
100
AcDbVertex
100
AcDb3dPolylineVertex
 10
102.329
 20
272.028
 30
0.0
 70
    32
  0
VERTEX
  5
14D5
330
14CB
100
AcDbEntity
  8
1
100
AcDbVertex
100
AcDb3dPolylineVertex
 10
102.346
 20
272.0
 30
0.0
 70
    32
  0
VERTEX
  5
14D6
330
14CB
100
AcDbEntity
  8
1
100
AcDbVertex
100
AcDb3dPolylineVertex
 10
102.363
 20
271.9689999999999
 30
0.0
 70
    32
  0
VERTEX
  5
14D7
330
14CB
100
AcDbEntity
  8
1
100
AcDbVertex
100
AcDb3dPolylineVertex
 10
102.38
 20
271.9349999999999
 30
0.0
 70
    32
  0
VERTEX
  5
14D8
330
14CB
100
AcDbEntity
  8
1
100
AcDbVertex
100
AcDb3dPolylineVertex
 10
102.397
 20
271.899
 30
0.0
 70
    32
  0
VERTEX
  5
14D9
330
14CB
100
AcDbEntity
  8
1
100
AcDbVertex
100
AcDb3dPolylineVertex
 10
102.4129999999999
 20
271.8589999999999
 30
0.0
 70
    32
  0
VERTEX
  5
14DA
330
14CB
100
AcDbEntity
  8
1
100
AcDbVertex
100
AcDb3dPolylineVertex
 10
102.4299999999998
 20
271.817
 30
0.0
 70
    32
  0
VERTEX
  5
14DB
330
14CB
100
AcDbEntity
  8
1
100
AcDbVertex
100
AcDb3dPolylineVertex
 10
102.4459999999999
 20
271.7729999999999
 30
0.0
 70
    32
  0
VERTEX
  5
14DC
330
14CB
100
AcDbEntity
  8
1
100
AcDbVertex
100
AcDb3dPolylineVertex
 10
102.462
 20
271.725
 30
0.0
 70
    32
  0
VERTEX
  5
14DD
330
14CB
100
AcDbEntity
  8
1
100
AcDbVertex
100
AcDb3dPolylineVertex
 10
102.478
 20
271.675
 30
0.0
 70
    32
  0
VERTEX
  5
14DE
330
14CB
100
AcDbEntity
  8
1
100
AcDbVertex
100
AcDb3dPolylineVertex
 10
102.4939999999999
 20
271.6229999999999
 30
0.0
 70
    32
  0
VERTEX
  5
14DF
330
14CB
100
AcDbEntity
  8
1
100
AcDbVertex
100
AcDb3dPolylineVertex
 10
102.509
 20
271.567
 30
0.0
 70
    32
  0
VERTEX
  5
14E0
330
14CB
100
AcDbEntity
  8
1
100
AcDbVertex
100
AcDb3dPolylineVertex
 10
102.5249999999999
 20
271.51
 30
0.0
 70
    32
  0
VERTEX
  5
14E1
330
14CB
100
AcDbEntity
  8
1
100
AcDbVertex
100
AcDb3dPolylineVertex
 10
102.54
 20
271.449
 30
0.0
 70
    32
  0
VERTEX
  5
14E2
330
14CB
100
AcDbEntity
  8
1
100
AcDbVertex
100
AcDb3dPolylineVertex
 10
102.555
 20
271.387
 30
0.0
 70
    32
  0
VERTEX
  5
14E3
330
14CB
100
AcDbEntity
  8
1
100
AcDbVertex
100
AcDb3dPolylineVertex
 10
102.57
 20
271.3209999999999
 30
0.0
 70
    32
  0
VERTEX
  5
14E4
330
14CB
100
AcDbEntity
  8
1
100
AcDbVertex
100
AcDb3dPolylineVertex
 10
102.584
 20
271.254
 30
0.0
 70
    32
  0
VERTEX
  5
14E5
330
14CB
100
AcDbEntity
  8
1
100
AcDbVertex
100
AcDb3dPolylineVertex
 10
102.598
 20
271.184
 30
0.0
 70
    32
  0
VERTEX
  5
14E6
330
14CB
100
AcDbEntity
  8
1
100
AcDbVertex
100
AcDb3dPolylineVertex
 10
102.6119999999999
 20
271.111
 30
0.0
 70
    32
  0
VERTEX
  5
14E7
330
14CB
100
AcDbEntity
  8
1
100
AcDbVertex
100
AcDb3dPolylineVertex
 10
102.626
 20
271.0369999999999
 30
0.0
 70
    32
  0
VERTEX
  5
14E8
330
14CB
100
AcDbEntity
  8
1
100
AcDbVertex
100
AcDb3dPolylineVertex
 10
102.6399999999999
 20
270.96
 30
0.0
 70
    32
  0
VERTEX
  5
14E9
330
14CB
100
AcDbEntity
  8
1
100
AcDbVertex
100
AcDb3dPolylineVertex
 10
102.6529999999999
 20
270.8809999999999
 30
0.0
 70
    32
  0
VERTEX
  5
14EA
330
14CB
100
AcDbEntity
  8
1
100
AcDbVertex
100
AcDb3dPolylineVertex
 10
102.6659999999999
 20
270.8
 30
0.0
 70
    32
  0
VERTEX
  5
14EB
330
14CB
100
AcDbEntity
  8
1
100
AcDbVertex
100
AcDb3dPolylineVertex
 10
102.678
 20
270.717
 30
0.0
 70
    32
  0
VERTEX
  5
14EC
330
14CB
100
AcDbEntity
  8
1
100
AcDbVertex
100
AcDb3dPolylineVertex
 10
102.6909999999999
 20
270.6309999999999
 30
0.0
 70
    32
  0
VERTEX
  5
14ED
330
14CB
100
AcDbEntity
  8
1
100
AcDbVertex
100
AcDb3dPolylineVertex
 10
102.7029999999998
 20
270.5439999999999
 30
0.0
 70
    32
  0
VERTEX
  5
14EE
330
14CB
100
AcDbEntity
  8
1
100
AcDbVertex
100
AcDb3dPolylineVertex
 10
102.715
 20
270.4549999999999
 30
0.0
 70
    32
  0
VERTEX
  5
14EF
330
14CB
100
AcDbEntity
  8
1
100
AcDbVertex
100
AcDb3dPolylineVertex
 10
102.726
 20
270.3629999999999
 30
0.0
 70
    32
  0
VERTEX
  5
14F0
330
14CB
100
AcDbEntity
  8
1
100
AcDbVertex
100
AcDb3dPolylineVertex
 10
102.7369999999999
 20
270.2699999999999
 30
0.0
 70
    32
  0
VERTEX
  5
14F1
330
14CB
100
AcDbEntity
  8
1
100
AcDbVertex
100
AcDb3dPolylineVertex
 10
102.7479999999999
 20
270.1759999999998
 30
0.0
 70
    32
  0
VERTEX
  5
14F2
330
14CB
100
AcDbEntity
  8
1
100
AcDbVertex
100
AcDb3dPolylineVertex
 10
102.7579999999999
 20
270.079
 30
0.0
 70
    32
  0
VERTEX
  5
14F3
330
14CB
100
AcDbEntity
  8
1
100
AcDbVertex
100
AcDb3dPolylineVertex
 10
102.7679999999999
 20
269.9809999999998
 30
0.0
 70
    32
  0
VERTEX
  5
14F4
330
14CB
100
AcDbEntity
  8
1
100
AcDbVertex
100
AcDb3dPolylineVertex
 10
102.7779999999999
 20
269.8809999999999
 30
0.0
 70
    32
  0
VERTEX
  5
14F5
330
14CB
100
AcDbEntity
  8
1
100
AcDbVertex
100
AcDb3dPolylineVertex
 10
102.787
 20
269.7789999999999
 30
0.0
 70
    32
  0
VERTEX
  5
14F6
330
14CB
100
AcDbEntity
  8
1
100
AcDbVertex
100
AcDb3dPolylineVertex
 10
102.7959999999999
 20
269.6759999999998
 30
0.0
 70
    32
  0
VERTEX
  5
14F7
330
14CB
100
AcDbEntity
  8
1
100
AcDbVertex
100
AcDb3dPolylineVertex
 10
102.805
 20
269.572
 30
0.0
 70
    32
  0
VERTEX
  5
14F8
330
14CB
100
AcDbEntity
  8
1
100
AcDbVertex
100
AcDb3dPolylineVertex
 10
102.8129999999999
 20
269.466
 30
0.0
 70
    32
  0
VERTEX
  5
14F9
330
14CB
100
AcDbEntity
  8
1
100
AcDbVertex
100
AcDb3dPolylineVertex
 10
102.821
 20
269.3589999999999
 30
0.0
 70
    32
  0
VERTEX
  5
14FA
330
14CB
100
AcDbEntity
  8
1
100
AcDbVertex
100
AcDb3dPolylineVertex
 10
102.8289999999998
 20
269.2499999999999
 30
0.0
 70
    32
  0
VERTEX
  5
14FB
330
14CB
100
AcDbEntity
  8
1
100
AcDbVertex
100
AcDb3dPolylineVertex
 10
102.8359999999999
 20
269.1409999999998
 30
0.0
 70
    32
  0
VERTEX
  5
14FC
330
14CB
100
AcDbEntity
  8
1
100
AcDbVertex
100
AcDb3dPolylineVertex
 10
102.8429999999999
 20
269.0299999999999
 30
0.0
 70
    32
  0
VERTEX
  5
14FD
330
14CB
100
AcDbEntity
  8
1
100
AcDbVertex
100
AcDb3dPolylineVertex
 10
102.8489999999999
 20
268.9179999999999
 30
0.0
 70
    32
  0
VERTEX
  5
14FE
330
14CB
100
AcDbEntity
  8
1
100
AcDbVertex
100
AcDb3dPolylineVertex
 10
102.855
 20
268.805
 30
0.0
 70
    32
  0
VERTEX
  5
14FF
330
14CB
100
AcDbEntity
  8
1
100
AcDbVertex
100
AcDb3dPolylineVertex
 10
102.861
 20
268.6909999999999
 30
0.0
 70
    32
  0
VERTEX
  5
1500
330
14CB
100
AcDbEntity
  8
1
100
AcDbVertex
100
AcDb3dPolylineVertex
 10
102.8659999999999
 20
268.577
 30
0.0
 70
    32
  0
VERTEX
  5
1501
330
14CB
100
AcDbEntity
  8
1
100
AcDbVertex
100
AcDb3dPolylineVertex
 10
102.871
 20
268.461
 30
0.0
 70
    32
  0
VERTEX
  5
1502
330
14CB
100
AcDbEntity
  8
1
100
AcDbVertex
100
AcDb3dPolylineVertex
 10
102.875
 20
268.345
 30
0.0
 70
    32
  0
VERTEX
  5
1503
330
14CB
100
AcDbEntity
  8
1
100
AcDbVertex
100
AcDb3dPolylineVertex
 10
102.8789999999999
 20
268.2279999999999
 30
0.0
 70
    32
  0
VERTEX
  5
1504
330
14CB
100
AcDbEntity
  8
1
100
AcDbVertex
100
AcDb3dPolylineVertex
 10
102.8829999999999
 20
268.11
 30
0.0
 70
    32
  0
VERTEX
  5
1505
330
14CB
100
AcDbEntity
  8
1
100
AcDbVertex
100
AcDb3dPolylineVertex
 10
102.886
 20
267.992
 30
0.0
 70
    32
  0
VERTEX
  5
1506
330
14CB
100
AcDbEntity
  8
1
100
AcDbVertex
100
AcDb3dPolylineVertex
 10
102.888
 20
267.8729999999998
 30
0.0
 70
    32
  0
VERTEX
  5
1507
330
14CB
100
AcDbEntity
  8
1
100
AcDbVertex
100
AcDb3dPolylineVertex
 10
102.8909999999999
 20
267.754
 30
0.0
 70
    32
  0
VERTEX
  5
1508
330
14CB
100
AcDbEntity
  8
1
100
AcDbVertex
100
AcDb3dPolylineVertex
 10
102.8929999999999
 20
267.6349999999998
 30
0.0
 70
    32
  0
VERTEX
  5
1509
330
14CB
100
AcDbEntity
  8
1
100
AcDbVertex
100
AcDb3dPolylineVertex
 10
102.8939999999999
 20
267.5149999999998
 30
0.0
 70
    32
  0
VERTEX
  5
150A
330
14CB
100
AcDbEntity
  8
1
100
AcDbVertex
100
AcDb3dPolylineVertex
 10
102.895
 20
267.395
 30
0.0
 70
    32
  0
VERTEX
  5
150B
330
14CB
100
AcDbEntity
  8
1
100
AcDbVertex
100
AcDb3dPolylineVertex
 10
102.896
 20
267.2749999999999
 30
0.0
 70
    32
  0
VERTEX
  5
150C
330
14CB
100
AcDbEntity
  8
1
100
AcDbVertex
100
AcDb3dPolylineVertex
 10
102.896
 20
267.1549999999999
 30
0.0
 70
    32
  0
VERTEX
  5
150D
330
14CB
100
AcDbEntity
  8
1
100
AcDbVertex
100
AcDb3dPolylineVertex
 10
102.896
 20
267.035
 30
0.0
 70
    32
  0
VERTEX
  5
150E
330
14CB
100
AcDbEntity
  8
1
100
AcDbVertex
100
AcDb3dPolylineVertex
 10
102.895
 20
266.915
 30
0.0
 70
    32
  0
VERTEX
  5
150F
330
14CB
100
AcDbEntity
  8
1
100
AcDbVertex
100
AcDb3dPolylineVertex
 10
102.8939999999999
 20
266.795
 30
0.0
 70
    32
  0
VERTEX
  5
1510
330
14CB
100
AcDbEntity
  8
1
100
AcDbVertex
100
AcDb3dPolylineVertex
 10
102.8929999999999
 20
266.6749999999999
 30
0.0
 70
    32
  0
VERTEX
  5
1511
330
14CB
100
AcDbEntity
  8
1
100
AcDbVertex
100
AcDb3dPolylineVertex
 10
102.8909999999999
 20
266.5559999999999
 30
0.0
 70
    32
  0
VERTEX
  5
1512
330
14CB
100
AcDbEntity
  8
1
100
AcDbVertex
100
AcDb3dPolylineVertex
 10
102.888
 20
266.437
 30
0.0
 70
    32
  0
VERTEX
  5
1513
330
14CB
100
AcDbEntity
  8
1
100
AcDbVertex
100
AcDb3dPolylineVertex
 10
102.886
 20
266.318
 30
0.0
 70
    32
  0
VERTEX
  5
1514
330
14CB
100
AcDbEntity
  8
1
100
AcDbVertex
100
AcDb3dPolylineVertex
 10
102.8829999999999
 20
266.1999999999998
 30
0.0
 70
    32
  0
VERTEX
  5
1515
330
14CB
100
AcDbEntity
  8
1
100
AcDbVertex
100
AcDb3dPolylineVertex
 10
102.8789999999999
 20
266.082
 30
0.0
 70
    32
  0
VERTEX
  5
1516
330
14CB
100
AcDbEntity
  8
1
100
AcDbVertex
100
AcDb3dPolylineVertex
 10
102.875
 20
265.9649999999999
 30
0.0
 70
    32
  0
VERTEX
  5
1517
330
14CB
100
AcDbEntity
  8
1
100
AcDbVertex
100
AcDb3dPolylineVertex
 10
102.871
 20
265.849
 30
0.0
 70
    32
  0
VERTEX
  5
1518
330
14CB
100
AcDbEntity
  8
1
100
AcDbVertex
100
AcDb3dPolylineVertex
 10
102.8659999999999
 20
265.7329999999999
 30
0.0
 70
    32
  0
VERTEX
  5
1519
330
14CB
100
AcDbEntity
  8
1
100
AcDbVertex
100
AcDb3dPolylineVertex
 10
102.861
 20
265.619
 30
0.0
 70
    32
  0
VERTEX
  5
151A
330
14CB
100
AcDbEntity
  8
1
100
AcDbVertex
100
AcDb3dPolylineVertex
 10
102.855
 20
265.505
 30
0.0
 70
    32
  0
VERTEX
  5
151B
330
14CB
100
AcDbEntity
  8
1
100
AcDbVertex
100
AcDb3dPolylineVertex
 10
102.8489999999999
 20
265.3919999999998
 30
0.0
 70
    32
  0
VERTEX
  5
151C
330
14CB
100
AcDbEntity
  8
1
100
AcDbVertex
100
AcDb3dPolylineVertex
 10
102.8429999999999
 20
265.2799999999999
 30
0.0
 70
    32
  0
VERTEX
  5
151D
330
14CB
100
AcDbEntity
  8
1
100
AcDbVertex
100
AcDb3dPolylineVertex
 10
102.8359999999999
 20
265.1689999999999
 30
0.0
 70
    32
  0
VERTEX
  5
151E
330
14CB
100
AcDbEntity
  8
1
100
AcDbVertex
100
AcDb3dPolylineVertex
 10
102.8289999999998
 20
265.06
 30
0.0
 70
    32
  0
VERTEX
  5
151F
330
14CB
100
AcDbEntity
  8
1
100
AcDbVertex
100
AcDb3dPolylineVertex
 10
102.821
 20
264.9509999999998
 30
0.0
 70
    32
  0
VERTEX
  5
1520
330
14CB
100
AcDbEntity
  8
1
100
AcDbVertex
100
AcDb3dPolylineVertex
 10
102.8129999999999
 20
264.8439999999999
 30
0.0
 70
    32
  0
VERTEX
  5
1521
330
14CB
100
AcDbEntity
  8
1
100
AcDbVertex
100
AcDb3dPolylineVertex
 10
102.805
 20
264.738
 30
0.0
 70
    32
  0
VERTEX
  5
1522
330
14CB
100
AcDbEntity
  8
1
100
AcDbVertex
100
AcDb3dPolylineVertex
 10
102.7959999999999
 20
264.634
 30
0.0
 70
    32
  0
VERTEX
  5
1523
330
14CB
100
AcDbEntity
  8
1
100
AcDbVertex
100
AcDb3dPolylineVertex
 10
102.787
 20
264.531
 30
0.0
 70
    32
  0
VERTEX
  5
1524
330
14CB
100
AcDbEntity
  8
1
100
AcDbVertex
100
AcDb3dPolylineVertex
 10
102.7779999999999
 20
264.4289999999999
 30
0.0
 70
    32
  0
VERTEX
  5
1525
330
14CB
100
AcDbEntity
  8
1
100
AcDbVertex
100
AcDb3dPolylineVertex
 10
102.7679999999999
 20
264.3289999999999
 30
0.0
 70
    32
  0
VERTEX
  5
1526
330
14CB
100
AcDbEntity
  8
1
100
AcDbVertex
100
AcDb3dPolylineVertex
 10
102.7579999999999
 20
264.231
 30
0.0
 70
    32
  0
VERTEX
  5
1527
330
14CB
100
AcDbEntity
  8
1
100
AcDbVertex
100
AcDb3dPolylineVertex
 10
102.7479999999999
 20
264.135
 30
0.0
 70
    32
  0
VERTEX
  5
1528
330
14CB
100
AcDbEntity
  8
1
100
AcDbVertex
100
AcDb3dPolylineVertex
 10
102.7369999999999
 20
264.04
 30
0.0
 70
    32
  0
VERTEX
  5
1529
330
14CB
100
AcDbEntity
  8
1
100
AcDbVertex
100
AcDb3dPolylineVertex
 10
102.726
 20
263.947
 30
0.0
 70
    32
  0
VERTEX
  5
152A
330
14CB
100
AcDbEntity
  8
1
100
AcDbVertex
100
AcDb3dPolylineVertex
 10
102.715
 20
263.855
 30
0.0
 70
    32
  0
VERTEX
  5
152B
330
14CB
100
AcDbEntity
  8
1
100
AcDbVertex
100
AcDb3dPolylineVertex
 10
102.7029999999998
 20
263.7659999999999
 30
0.0
 70
    32
  0
VERTEX
  5
152C
330
14CB
100
AcDbEntity
  8
1
100
AcDbVertex
100
AcDb3dPolylineVertex
 10
102.6909999999999
 20
263.6789999999999
 30
0.0
 70
    32
  0
VERTEX
  5
152D
330
14CB
100
AcDbEntity
  8
1
100
AcDbVertex
100
AcDb3dPolylineVertex
 10
102.678
 20
263.593
 30
0.0
 70
    32
  0
VERTEX
  5
152E
330
14CB
100
AcDbEntity
  8
1
100
AcDbVertex
100
AcDb3dPolylineVertex
 10
102.6659999999999
 20
263.5099999999998
 30
0.0
 70
    32
  0
VERTEX
  5
152F
330
14CB
100
AcDbEntity
  8
1
100
AcDbVertex
100
AcDb3dPolylineVertex
 10
102.6529999999999
 20
263.4289999999999
 30
0.0
 70
    32
  0
VERTEX
  5
1530
330
14CB
100
AcDbEntity
  8
1
100
AcDbVertex
100
AcDb3dPolylineVertex
 10
102.6399999999999
 20
263.35
 30
0.0
 70
    32
  0
VERTEX
  5
1531
330
14CB
100
AcDbEntity
  8
1
100
AcDbVertex
100
AcDb3dPolylineVertex
 10
102.626
 20
263.2729999999999
 30
0.0
 70
    32
  0
VERTEX
  5
1532
330
14CB
100
AcDbEntity
  8
1
100
AcDbVertex
100
AcDb3dPolylineVertex
 10
102.6119999999999
 20
263.199
 30
0.0
 70
    32
  0
VERTEX
  5
1533
330
14CB
100
AcDbEntity
  8
1
100
AcDbVertex
100
AcDb3dPolylineVertex
 10
102.598
 20
263.1259999999999
 30
0.0
 70
    32
  0
VERTEX
  5
1534
330
14CB
100
AcDbEntity
  8
1
100
AcDbVertex
100
AcDb3dPolylineVertex
 10
102.584
 20
263.056
 30
0.0
 70
    32
  0
VERTEX
  5
1535
330
14CB
100
AcDbEntity
  8
1
100
AcDbVertex
100
AcDb3dPolylineVertex
 10
102.57
 20
262.9889999999999
 30
0.0
 70
    32
  0
VERTEX
  5
1536
330
14CB
100
AcDbEntity
  8
1
100
AcDbVertex
100
AcDb3dPolylineVertex
 10
102.555
 20
262.9239999999999
 30
0.0
 70
    32
  0
VERTEX
  5
1537
330
14CB
100
AcDbEntity
  8
1
100
AcDbVertex
100
AcDb3dPolylineVertex
 10
102.54
 20
262.861
 30
0.0
 70
    32
  0
VERTEX
  5
1538
330
14CB
100
AcDbEntity
  8
1
100
AcDbVertex
100
AcDb3dPolylineVertex
 10
102.5249999999999
 20
262.8
 30
0.0
 70
    32
  0
VERTEX
  5
1539
330
14CB
100
AcDbEntity
  8
1
100
AcDbVertex
100
AcDb3dPolylineVertex
 10
102.509
 20
262.7429999999999
 30
0.0
 70
    32
  0
VERTEX
  5
153A
330
14CB
100
AcDbEntity
  8
1
100
AcDbVertex
100
AcDb3dPolylineVertex
 10
102.4939999999999
 20
262.687
 30
0.0
 70
    32
  0
VERTEX
  5
153B
330
14CB
100
AcDbEntity
  8
1
100
AcDbVertex
100
AcDb3dPolylineVertex
 10
102.478
 20
262.6349999999998
 30
0.0
 70
    32
  0
VERTEX
  5
153C
330
14CB
100
AcDbEntity
  8
1
100
AcDbVertex
100
AcDb3dPolylineVertex
 10
102.462
 20
262.5849999999999
 30
0.0
 70
    32
  0
VERTEX
  5
153D
330
14CB
100
AcDbEntity
  8
1
100
AcDbVertex
100
AcDb3dPolylineVertex
 10
102.4459999999999
 20
262.5369999999999
 30
0.0
 70
    32
  0
VERTEX
  5
153E
330
14CB
100
AcDbEntity
  8
1
100
AcDbVertex
100
AcDb3dPolylineVertex
 10
102.4299999999998
 20
262.4929999999998
 30
0.0
 70
    32
  0
VERTEX
  5
153F
330
14CB
100
AcDbEntity
  8
1
100
AcDbVertex
100
AcDb3dPolylineVertex
 10
102.4129999999999
 20
262.4509999999999
 30
0.0
 70
    32
  0
VERTEX
  5
1540
330
14CB
100
AcDbEntity
  8
1
100
AcDbVertex
100
AcDb3dPolylineVertex
 10
102.397
 20
262.4109999999999
 30
0.0
 70
    32
  0
VERTEX
  5
1541
330
14CB
100
AcDbEntity
  8
1
100
AcDbVertex
100
AcDb3dPolylineVertex
 10
102.38
 20
262.375
 30
0.0
 70
    32
  0
VERTEX
  5
1542
330
14CB
100
AcDbEntity
  8
1
100
AcDbVertex
100
AcDb3dPolylineVertex
 10
102.363
 20
262.341
 30
0.0
 70
    32
  0
VERTEX
  5
1543
330
14CB
100
AcDbEntity
  8
1
100
AcDbVertex
100
AcDb3dPolylineVertex
 10
102.346
 20
262.3099999999999
 30
0.0
 70
    32
  0
VERTEX
  5
1544
330
14CB
100
AcDbEntity
  8
1
100
AcDbVertex
100
AcDb3dPolylineVertex
 10
102.329
 20
262.2819999999999
 30
0.0
 70
    32
  0
VERTEX
  5
1545
330
14CB
100
AcDbEntity
  8
1
100
AcDbVertex
100
AcDb3dPolylineVertex
 10
102.312
 20
262.2559999999999
 30
0.0
 70
    32
  0
VERTEX
  5
1546
330
14CB
100
AcDbEntity
  8
1
100
AcDbVertex
100
AcDb3dPolylineVertex
 10
102.295
 20
262.2339999999999
 30
0.0
 70
    32
  0
VERTEX
  5
1547
330
14CB
100
AcDbEntity
  8
1
100
AcDbVertex
100
AcDb3dPolylineVertex
 10
102.278
 20
262.2139999999999
 30
0.0
 70
    32
  0
VERTEX
  5
1548
330
14CB
100
AcDbEntity
  8
1
100
AcDbVertex
100
AcDb3dPolylineVertex
 10
102.26
 20
262.197
 30
0.0
 70
    32
  0
VERTEX
  5
1549
330
14CB
100
AcDbEntity
  8
1
100
AcDbVertex
100
AcDb3dPolylineVertex
 10
102.2429999999999
 20
262.183
 30
0.0
 70
    32
  0
VERTEX
  5
154A
330
14CB
100
AcDbEntity
  8
1
100
AcDbVertex
100
AcDb3dPolylineVertex
 10
102.2249999999998
 20
262.172
 30
0.0
 70
    32
  0
VERTEX
  5
154B
330
14CB
100
AcDbEntity
  8
1
100
AcDbVertex
100
AcDb3dPolylineVertex
 10
102.208
 20
262.163
 30
0.0
 70
    32
  0
VERTEX
  5
154C
330
14CB
100
AcDbEntity
  8
1
100
AcDbVertex
100
AcDb3dPolylineVertex
 10
102.19
 20
262.158
 30
0.0
 70
    32
  0
SEQEND
  5
154D
330
14CB
100
AcDbEntity
  8
1
  0
LINE
  5
154E
330
116E
100
AcDbEntity
  8
1
  6
Continuous
100
AcDbLine
 10
108.7667110184593
 20
275.1640557448606
 30
0.0
 11
110.6121064205667
 21
272.0059360830972
 31
0.0
  0
ARC
  5
154F
330
116E
100
AcDbEntity
  8
1
  6
Continuous
100
AcDbCircle
 10
107.0399054538845
 20
274.155025248714
 30
0.0
 40
2.0
100
AcDbArc
 50
30.2991787370268
 51
90.00000000000005
  0
ARC
  5
1550
330
116E
100
AcDbEntity
  8
1
  6
Continuous
100
AcDbCircle
 10
110.7702299449589
 20
276.1550252487041
 30
0.0
 40
3.0
100
AcDbArc
 50
252.2886579599878
 51
270.0
  0
LINE
  5
1551
330
116E
100
AcDbEntity
  8
4
  6
CENTER
100
AcDbLine
 10
102.1661597864492
 20
262.9050252487139
 30
0.0
 11
102.1661597864492
 21
271.405025248714
 31
0.0
  0
LINE
  5
1552
330
116E
100
AcDbEntity
  8
1
  6
Continuous
100
AcDbLine
 10
110.7702299449589
 20
261.1550252487239
 30
0.0
 11
120.687654249999
 21
261.1550252487239
 31
0.0
  0
LINE
  5
1553
330
116E
100
AcDbEntity
  8
1
  6
Continuous
100
AcDbLine
 10
101.6876542499989
 20
258.155025248714
 30
0.0
 11
107.0399054539539
 21
258.155025248714
 31
0.0
  0
ARC
  5
1554
330
116E
100
AcDbEntity
  8
1
  6
Continuous
100
AcDbCircle
 10
101.6876542499989
 20
260.1550252487141
 30
0.0
 40
2.0
100
AcDbArc
 50
180.0
 51
270.0
  0
ARC
  5
1555
330
116E
100
AcDbEntity
  8
1
  6
Continuous
100
AcDbCircle
 10
107.0399054539539
 20
260.1550252487141
 30
0.0
 40
2.0
100
AcDbArc
 50
270.0
 51
329.7008212639124
  0
ARC
  5
1556
330
116E
100
AcDbEntity
  8
1
  6
Continuous
100
AcDbCircle
 10
110.7702299449589
 20
258.1550252487239
 30
0.0
 40
3.0
100
AcDbArc
 50
90.00000000000005
 51
107.711342040012
  0
LINE
  5
1557
330
116E
100
AcDbEntity
  8
1
  6
Continuous
100
AcDbLine
 10
166.687654249999
 20
261.1550252487239
 30
0.0
 11
166.687654249999
 21
262.1550252487907
 31
0.0
  0
LINE
  5
1558
330
116E
100
AcDbEntity
  8
1
  6
Continuous
100
AcDbLine
 10
186.6876542499989
 20
261.1550252487239
 30
0.0
 11
186.6876542499989
 21
273.1550252487239
 31
0.0
  0
LINE
  5
1559
330
116E
100
AcDbEntity
  8
1
  6
Continuous
100
AcDbLine
 10
186.6876542499989
 20
263.405025248714
 30
0.0
 11
189.687654249999
 21
263.405025248714
 31
0.0
  0
LINE
  5
155A
330
116E
100
AcDbEntity
  8
1
  6
Continuous
100
AcDbLine
 10
186.6876542499989
 20
270.905025248714
 30
0.0
 11
189.687654249999
 21
270.905025248714
 31
0.0
  0
LINE
  5
155B
330
116E
100
AcDbEntity
  8
1
  6
Continuous
100
AcDbLine
 10
183.687654249999
 20
264.9050252487139
 30
0.0
 11
186.6876542499989
 21
264.9050252487139
 31
0.0
  0
LINE
  5
155C
330
116E
100
AcDbEntity
  8
1
  6
Continuous
100
AcDbLine
 10
183.687654249999
 20
269.405025248714
 30
0.0
 11
186.6876542499989
 21
269.405025248714
 31
0.0
  0
LINE
  5
155D
330
116E
100
AcDbEntity
  8
1
  6
Continuous
100
AcDbLine
 10
183.687654249999
 20
264.9050252487139
 30
0.0
 11
183.687654249999
 21
269.405025248714
 31
0.0
  0
LINE
  5
155E
330
116E
100
AcDbEntity
  8
1
  6
Continuous
100
AcDbLine
 10
189.6876542499988
 20
263.405025248714
 30
0.0
 11
189.6876542499988
 21
270.905025248714
 31
0.0
  0
LINE
  5
155F
330
116E
100
AcDbEntity
  8
1
  6
Continuous
100
AcDbLine
 10
166.687654249999
 20
261.1550252487239
 30
0.0
 11
186.687654249999
 21
261.1550252487239
 31
0.0
  0
LINE
  5
1560
330
116E
100
AcDbEntity
  8
1
  6
Continuous
100
AcDbLine
 10
383.1450995670392
 20
154.4978670191575
 30
0.0
 11
310.8018201886126
 21
154.4978670191575
 31
0.0
  0
LINE
  5
1561
330
116E
100
AcDbEntity
  8
1
  6
Continuous
100
AcDbLine
 10
383.14509956704
 20
166.4978670191574
 30
0.0
 11
310.8018201886126
 21
166.4978670191574
 31
0.0
  0
LINE
  5
1562
330
116E
100
AcDbEntity
  8
4
  6
CENTER
100
AcDbLine
 10
397.8018201886127
 20
160.4978670191673
 30
0.0
 11
299.4544785432495
 21
160.4978670191673
 31
0.0
  0
ARC
  5
1563
330
116E
100
AcDbEntity
  8
1
  6
Continuous
100
AcDbCircle
 10
124.8018201886125
 20
160.4978670191674
 30
0.0
 40
261.5
100
AcDbArc
 50
351.3785716406154
 51
8.621428359384513
  0
ARC
  5
1564
330
116E
100
AcDbEntity
  8
1
  6
Continuous
100
AcDbCircle
 10
124.8018201886125
 20
160.4978670191674
 30
0.0
 40
270.0
100
AcDbArc
 50
351.5244090025625
 51
8.475590997437402
  0
ARC
  5
1565
330
116E
100
AcDbEntity
  8
1
  6
Continuous
100
AcDbCircle
 10
383.1450995670392
 20
151.4978670191575
 30
0.0
 40
3.0
100
AcDbArc
 50
358.0047727237213
 51
90.0
  0
LINE
  5
1566
330
116E
100
AcDbEntity
  8
4
  6
CENTER
100
AcDbLine
 10
382.2270520521545
 20
123.9978670191452
 30
0.0
 11
393.8371338557952
 21
123.997867019158
 31
0.0
  0
ARC
  5
1567
330
116E
100
AcDbEntity
  8
1
  6
Continuous
100
AcDbCircle
 10
385.3243719955531
 20
120.9978670191671
 30
0.0
 40
2.0
100
AcDbArc
 50
171.3785716406156
 51
270.0
  0
LINE
  5
1568
330
116E
100
AcDbEntity
  8
1
  6
Continuous
100
AcDbLine
 10
389.8749233130148
 20
118.9978670191671
 30
0.0
 11
385.3243719955531
 21
118.9978670191671
 31
0.0
  0
ARC
  5
1569
330
116E
100
AcDbEntity
  8
1
  6
Continuous
100
AcDbCircle
 10
389.8749233130148
 20
120.9978670191671
 30
0.0
 40
2.0
100
AcDbArc
 50
270.0
 51
351.5244090025626
  0
ARC
  5
156A
330
116E
100
AcDbEntity
  8
1
  6
Continuous
100
AcDbCircle
 10
383.14509956704
 20
169.4978670191574
 30
0.0
 40
3.0
100
AcDbArc
 50
270.0
 51
1.995227276274192
  0
ARC
  5
156B
330
116E
100
AcDbEntity
  8
1
  6
Continuous
100
AcDbCircle
 10
385.3243719955532
 20
199.9978670191673
 30
0.0
 40
2.0
100
AcDbArc
 50
90.0
 51
188.6214283593839
  0
LINE
  5
156C
330
116E
100
AcDbEntity
  8
1
  6
Continuous
100
AcDbLine
 10
389.874923313015
 20
201.9978670191673
 30
0.0
 11
385.3243719955532
 21
201.9978670191673
 31
0.0
  0
ARC
  5
156D
330
116E
100
AcDbEntity
  8
1
  6
Continuous
100
AcDbCircle
 10
389.874923313015
 20
199.9978670191673
 30
0.0
 40
2.0
100
AcDbArc
 50
8.475590997437116
 51
90.0
  0
LINE
  5
156E
330
116E
100
AcDbEntity
  8
1
  6
Continuous
100
AcDbLine
 10
307.8018201886127
 20
168.2478670191574
 30
0.0
 11
307.8018201886127
 21
152.7478670191574
 31
0.0
  0
LINE
  5
156F
330
116E
100
AcDbEntity
  8
1
  6
Continuous
100
AcDbLine
 10
310.8018201886126
 20
154.9357181538445
 30
0.0
 11
310.8018201886126
 21
152.7478670191574
 31
0.0
  0
LINE
  5
1570
330
116E
100
AcDbEntity
  8
1
  6
Continuous
100
AcDbLine
 10
307.8018201886127
 20
153.0816685320569
 30
0.0
 11
310.8018201886126
 21
153.081668532055
 31
0.0
  0
LINE
  5
1571
330
116E
100
AcDbEntity
  8
1
  6
Continuous
100
AcDbLine
 10
310.8018201886126
 20
152.7478670191574
 30
0.0
 11
307.8018201886126
 21
152.7478670191574
 31
0.0
  0
LINE
  5
1572
330
116E
100
AcDbEntity
  8
1
  6
Continuous
100
AcDbLine
 10
307.8018201886127
 20
154.9357181538414
 30
0.0
 11
310.8018201886126
 21
154.9357181538439
 31
0.0
  0
ARC
  5
1573
330
116E
100
AcDbEntity
  8
1
  6
Continuous
100
AcDbCircle
 10
305.3018201886126
 20
165.0940610968746
 30
0.0
 40
0.5
100
AcDbArc
 50
90.0
 51
180.0
  0
LINE
  5
1574
330
116E
100
AcDbEntity
  8
1
  6
Continuous
100
AcDbLine
 10
305.3018201886122
 20
165.5940610968746
 30
0.0
 11
307.8018201885872
 21
165.5940610968763
 31
0.0
  0
LINE
  5
1575
330
116E
100
AcDbEntity
  8
1
  6
Continuous
100
AcDbLine
 10
305.301820188612
 20
155.4016729414406
 30
0.0
 11
307.8018201885872
 21
155.4016729414372
 31
0.0
  0
ARC
  5
1576
330
116E
100
AcDbEntity
  8
1
  6
Continuous
100
AcDbCircle
 10
305.3018201886126
 20
155.9016729414407
 30
0.0
 40
0.5
100
AcDbArc
 50
180.0
 51
270.0
  0
LINE
  5
1577
330
116E
100
AcDbEntity
  8
1
  6
Continuous
100
AcDbLine
 10
304.8018201886126
 20
165.0940610968746
 30
0.0
 11
304.8018201886126
 21
155.9016729414407
 31
0.0
  0
LINE
  5
1578
330
116E
100
AcDbEntity
  8
1
  6
Continuous
100
AcDbLine
 10
307.8018201886126
 20
167.9140655062379
 30
0.0
 11
310.8018201886126
 21
167.9140655062322
 31
0.0
  0
LINE
  5
1579
330
116E
100
AcDbEntity
  8
1
  6
Continuous
100
AcDbLine
 10
307.8018201886126
 20
166.0600158844725
 30
0.0
 11
310.8018201886126
 21
166.0600158844698
 31
0.0
  0
LINE
  5
157A
330
116E
100
AcDbEntity
  8
1
  6
Continuous
100
AcDbLine
 10
310.8018201886126
 20
168.2478670191574
 30
0.0
 11
307.8018201886127
 21
168.2478670191574
 31
0.0
  0
LINE
  5
157B
330
116E
100
AcDbEntity
  8
1
  6
Continuous
100
AcDbLine
 10
310.8018201886126
 20
168.2478670191574
 30
0.0
 11
310.8018201886126
 21
166.060015884469
 31
0.0
  0
ENDSEC
  0
SECTION
  2
OBJECTS
  0
DICTIONARY
  5
115C
330
0
100
AcDbDictionary
281
     1
  3
ACAD_CIP_PREVIOUS_PRODUCT_INFO
350
15E0
  3
ACAD_COLOR
350
15C3
  3
ACAD_DETAILVIEWSTYLE
350
15DC
  3
ACAD_GROUP
350
115D
  3
ACAD_LAYOUT
350
1169
  3
ACAD_MATERIAL
350
1591
  3
ACAD_MLEADERSTYLE
350
15D8
  3
ACAD_MLINESTYLE
350
1166
  3
ACAD_PLOTSETTINGS
350
1168
  3
ACAD_PLOTSTYLENAME
350
158F
  3
ACAD_SCALELIST
350
15C6
  3
ACAD_SECTIONVIEWSTYLE
350
15DA
  3
ACAD_TABLESTYLE
350
15C4
  3
ACAD_VISUALSTYLE
350
15AA
  3
ACDB_RECOMPOSE_DATA
350
15FE
  3
AcDbVariableDictionary
350
15F1
  3
DWGPROPS
350
15FF
  0
DICTIONARY
  5
15E1
330
1160
100
AcDbDictionary
280
     1
281
     1
  3
ADSK_XREC_LAYER_RECONCILED
360
15E2
  0
DICTIONARY
  5
15E3
330
1176
100
AcDbDictionary
280
     1
281
     1
  3
ADSK_XREC_LAYER_RECONCILED
360
15E4
  0
DICTIONARY
  5
15E5
330
1177
100
AcDbDictionary
280
     1
281
     1
  3
ADSK_XREC_LAYER_RECONCILED
360
15E6
  0
DICTIONARY
  5
15E7
330
1178
100
AcDbDictionary
280
     1
281
     1
  3
ADSK_XREC_LAYER_RECONCILED
360
15E8
  0
DICTIONARY
  5
15E9
330
1179
100
AcDbDictionary
280
     1
281
     1
  3
ADSK_XREC_LAYER_RECONCILED
360
15EA
  0
DICTIONARY
  5
15EB
330
117A
100
AcDbDictionary
280
     1
281
     1
  3
ADSK_XREC_LAYER_RECONCILED
360
15EC
  0
DICTIONARY
  5
15ED
330
117B
100
AcDbDictionary
280
     1
281
     1
  3
ADSK_XREC_LAYER_RECONCILED
360
15EE
  0
DICTIONARY
  5
15EF
330
117C
100
AcDbDictionary
280
     1
281
     1
  3
ADSK_XREC_LAYER_RECONCILED
360
15F0
  0
DICTIONARY
  5
158A
330
116E
100
AcDbDictionary
281
     1
  3
ACAD_LAYOUTSELFREF
350
158B
  0
DICTIONARY
  5
1588
330
116A
100
AcDbDictionary
281
     1
  3
ACAD_LAYOUTSELFREF
350
1589
  0
XRECORD
  5
15E0
102
{ACAD_REACTORS
330
115C
102
}
330
115C
100
AcDbXrecord
280
     1
300
ACDLT
300
2014
300
ACDLT_F_S
  0
DICTIONARY
  5
15C3
102
{ACAD_REACTORS
330
115C
102
}
330
115C
100
AcDbDictionary
281
     1
  0
DICTIONARY
  5
15DC
102
{ACAD_REACTORS
330
115C
102
}
330
115C
100
AcDbDictionary
281
     1
  3
Imperial24
350
15DD
  0
DICTIONARY
  5
115D
102
{ACAD_REACTORS
330
115C
102
}
330
115C
100
AcDbDictionary
281
     1
  0
DICTIONARY
  5
1169
102
{ACAD_REACTORS
330
115C
102
}
330
115C
100
AcDbDictionary
281
     1
  3
Model
350
15DE
  3
レイアウト1
350
15DF
  0
DICTIONARY
  5
1591
102
{ACAD_REACTORS
330
115C
102
}
330
115C
100
AcDbDictionary
281
     1
  3
ByBlock
350
159A
  3
ByLayer
350
1592
  3
Global
350
15A2
  0
DICTIONARY
  5
15D8
102
{ACAD_REACTORS
330
115C
102
}
330
115C
100
AcDbDictionary
281
     1
  3
Standard
350
15D9
  0
DICTIONARY
  5
1166
102
{ACAD_REACTORS
330
115C
102
}
330
115C
100
AcDbDictionary
281
     1
  3
STANDARD
350
1167
  0
DICTIONARY
  5
1168
102
{ACAD_REACTORS
330
115C
102
}
330
115C
100
AcDbDictionary
281
     1
  0
ACDBDICTIONARYWDFLT
  5
158F
102
{ACAD_REACTORS
330
115C
102
}
330
115C
100
AcDbDictionary
281
     1
  3
Normal
350
1590
100
AcDbDictionaryWithDefault
340
1590
  0
DICTIONARY
  5
15C6
102
{ACAD_REACTORS
330
115C
102
}
330
115C
100
AcDbDictionary
281
     1
  3
A0
350
15C7
  3
A1
350
15C8
  3
A2
350
15C9
  3
A3
350
15CA
  3
A4
350
15CB
  3
A5
350
15CC
  3
A6
350
15CD
  3
A7
350
15CE
  3
A8
350
15CF
  3
A9
350
15D0
  3
B0
350
15D1
  3
B1
350
15D2
  3
B2
350
15D3
  3
B3
350
15D4
  3
B4
350
15D5
  3
B5
350
15D6
  3
B6
350
15D7
  0
DICTIONARY
  5
15DA
102
{ACAD_REACTORS
330
115C
102
}
330
115C
100
AcDbDictionary
281
     1
  3
Imperial24
350
15DB
  0
DICTIONARY
  5
15C4
102
{ACAD_REACTORS
330
115C
102
}
330
115C
100
AcDbDictionary
281
     1
  3
Standard
350
15C5
  0
DICTIONARY
  5
15AA
102
{ACAD_REACTORS
330
115C
102
}
330
115C
100
AcDbDictionary
281
     1
  3
2dWireframe
350
15B0
  3
Basic
350
15AF
  3
Brighten
350
15B6
  3
ColorChange
350
15BA
  3
Conceptual
350
15B3
  3
Dim
350
15B5
  3
EdgeColorOff
350
15C2
  3
Facepattern
350
15B9
  3
Flat
350
15AB
  3
FlatWithEdges
350
15AC
  3
Gouraud
350
15AD
  3
GouraudWithEdges
350
15AE
  3
Hidden
350
15B2
  3
JitterOff
350
15C0
  3
Linepattern
350
15B8
  3
OverhangOff
350
15C1
  3
Realistic
350
15B4
  3
Shaded
350
15BF
  3
Shaded with edges
350
15BE
  3
Shades of Gray
350
15BB
  3
Sketchy
350
15BC
  3
Thicken
350
15B7
  3
Wireframe
350
15B1
  3
X-Ray
350
15BD
  0
XRECORD
  5
15FE
102
{ACAD_REACTORS
330
115C
102
}
330
115C
100
AcDbXrecord
280
     1
 90
        1
330
15C5
  0
DICTIONARY
  5
15F1
102
{ACAD_REACTORS
330
115C
102
}
330
115C
100
AcDbDictionary
281
     1
  3
CANNOSCALE
350
15F6
  3
CMLEADERSTYLE
350
15F3
  3
CTABLESTYLE
350
15F2
  3
CVIEWDETAILSTYLE
350
15F4
  3
CVIEWSECTIONSTYLE
350
15F5
  3
DIMASSOC
350
15F9
  3
INDEXCTL
350
15F8
  3
SORTENTS
350
15F7
  3
XCLIPFRAME
350
15FA
  0
XRECORD
  5
15FF
102
{ACAD_REACTORS
330
115C
102
}
330
115C
100
AcDbXrecord
280
     1
  1
DWGPROPS COOKIE
  2

  3

  4

  6

  7

  8
Yoshitsune
  9

300
=
301
=
302
=
303
=
304
=
305
=
306
=
307
=
308
=
309
=
 40
0.0216250347222222
 41
2452259.692826597
 42
2457192.643171343
  1

 90
        0
  0
XRECORD
  5
15E2
102
{ACAD_REACTORS
330
15E1
102
}
330
15E1
100
AcDbXrecord
280
     1
290
     1
  0
XRECORD
  5
15E4
102
{ACAD_REACTORS
330
15E3
102
}
330
15E3
100
AcDbXrecord
280
     1
290
     1
  0
XRECORD
  5
15E6
102
{ACAD_REACTORS
330
15E5
102
}
330
15E5
100
AcDbXrecord
280
     1
290
     1
  0
XRECORD
  5
15E8
102
{ACAD_REACTORS
330
15E7
102
}
330
15E7
100
AcDbXrecord
280
     1
290
     1
  0
XRECORD
  5
15EA
102
{ACAD_REACTORS
330
15E9
102
}
330
15E9
100
AcDbXrecord
280
     1
290
     1
  0
XRECORD
  5
15EC
102
{ACAD_REACTORS
330
15EB
102
}
330
15EB
100
AcDbXrecord
280
     1
290
     1
  0
XRECORD
  5
15EE
102
{ACAD_REACTORS
330
15ED
102
}
330
15ED
100
AcDbXrecord
280
     1
290
     1
  0
XRECORD
  5
15F0
102
{ACAD_REACTORS
330
15EF
102
}
330
15EF
100
AcDbXrecord
280
     1
290
     1
  0
XRECORD
  5
158B
102
{ACAD_REACTORS
330
158A
102
}
330
158A
100
AcDbXrecord
280
     1
340
116E
  0
XRECORD
  5
1589
102
{ACAD_REACTORS
330
1588
102
}
330
1588
100
AcDbXrecord
280
     1
340
116A
  0
ACDBDETAILVIEWSTYLE
  5
15DD
102
{ACAD_XDICTIONARY
360
1637
102
}
102
{ACAD_REACTORS
330
15DC
102
}
330
15DC
100
AcDbModelDocViewStyle
 70
     0
  3
Imperial24
290
     0
100
AcDbDetailViewStyle
 70
     0
 71
     0
 90
        3
 71
     1
340
1161
 40
0.24
340
0
 40
0.24
300

 40
0.36
280
     3
 71
     2
340
1165
 90
       25
 71
     3
340
1161
 40
0.24
 90
        1
 40
0.75
 90
        1
300
%<\AcVar ViewType \f "%tc1">% %<\AcVar ViewDetailId>%\PSCALE %<\AcVar ViewScale \f "%sn">%
 71
     4
340
1165
 90
       25
340
1165
 90
       25
280
     0
  0
LAYOUT
  5
15DE
102
{ACAD_XDICTIONARY
360
1639
102
}
102
{ACAD_REACTORS
330
1169
102
}
330
1169
100
AcDbPlotSettings
  1

  2
Canon LBP9100C
  4

  6

 40
0.0
 41
0.0
 42
0.0
 43
0.0
 44
0.0
 45
0.0
 46
0.0
 47
0.0
 48
0.0
 49
0.0
140
0.0
141
0.0
142
1.0
143
1.0
 70
  1712
 72
     0
 73
     0
 74
     0
  7

 75
     0
147
1.0
148
0.0
149
0.0
100
AcDbLayout
  1
Model
 70
     1
 71
     0
 10
0.0
 20
0.0
 11
12.0
 21
9.0
 12
0.0
 22
0.0
 32
0.0
 14
0.0
 24
0.0
 34
0.0
 15
0.0
 25
0.0
 35
0.0
146
0.0
 13
0.0
 23
0.0
 33
0.0
 16
1.0
 26
0.0
 36
0.0
 17
0.0
 27
1.0
 37
0.0
 76
     0
330
116E
331
1587
  0
LAYOUT
  5
15DF
102
{ACAD_XDICTIONARY
360
163B
102
}
102
{ACAD_REACTORS
330
1169
102
}
330
1169
100
AcDbPlotSettings
  1

  2
Canon LBP9100C
  4

  6

 40
0.0
 41
0.0
 42
0.0
 43
0.0
 44
0.0
 45
0.0
 46
0.0
 47
0.0
 48
0.0
 49
0.0
140
0.0
141
0.0
142
1.0
143
1.0
 70
   688
 72
     0
 73
     0
 74
     5
  7

 75
    16
147
1.0
148
0.0
149
0.0
100
AcDbLayout
  1
レイアウト1
 70
     1
 71
     1
 10
0.0
 20
0.0
 11
420.0
 21
297.0
 12
0.0
 22
0.0
 32
0.0
 14
1.000000000000000E+20
 24
1.000000000000000E+20
 34
1.000000000000000E+20
 15
-1.000000000000000E+20
 25
-1.000000000000000E+20
 35
-1.000000000000000E+20
146
0.0
 13
0.0
 23
0.0
 33
0.0
 16
1.0
 26
0.0
 36
0.0
 17
0.0
 27
1.0
 37
0.0
 76
     0
330
116A
  0
MATERIAL
  5
159A
102
{ACAD_XDICTIONARY
360
159B
102
}
102
{ACAD_REACTORS
330
1591
102
}
330
1591
100
AcDbMaterial
  1
ByBlock
 72
     0
 43
0.0208333333333333
 43
0.0
 43
0.0
 43
0.0
 43
0.0
 43
0.0208333333333333
 43
0.0
 43
0.0
 43
0.0
 43
0.0
 43
1.0
 43
0.0
 43
0.0
 43
0.0
 43
0.0
 43
1.0
 77
     0
 47
0.0208333333333333
 47
0.0
 47
0.0
 47
0.0
 47
0.0
 47
0.0208333333333333
 47
0.0
 47
0.0
 47
0.0
 47
0.0
 47
1.0
 47
0.0
 47
0.0
 47
0.0
 47
0.0
 47
1.0
171
     0
 49
0.0208333333333333
 49
0.0
 49
0.0
 49
0.0
 49
0.0
 49
0.0208333333333333
 49
0.0
 49
0.0
 49
0.0
 49
0.0
 49
1.0
 49
0.0
 49
0.0
 49
0.0
 49
0.0
 49
1.0
175
     0
142
0.0208333333333333
142
0.0
142
0.0
142
0.0
142
0.0
142
0.0208333333333333
142
0.0
142
0.0
142
0.0
142
0.0
142
1.0
142
0.0
142
0.0
142
0.0
142
0.0
142
1.0
179
     0
144
0.0208333333333333
144
0.0
144
0.0
144
0.0
144
0.0
144
0.0208333333333333
144
0.0
144
0.0
144
0.0
144
0.0
144
1.0
144
0.0
144
0.0
144
0.0
144
0.0
144
1.0
147
0.0208333333333333
147
0.0
147
0.0
147
0.0
147
0.0
147
0.0208333333333333
147
0.0
147
0.0
147
0.0
147
0.0
147
1.0
147
0.0
147
0.0
147
0.0
147
0.0
147
1.0
  0
MATERIAL
  5
1592
102
{ACAD_XDICTIONARY
360
1593
102
}
102
{ACAD_REACTORS
330
1591
102
}
330
1591
100
AcDbMaterial
  1
ByLayer
 72
     0
 43
0.0208333333333333
 43
0.0
 43
0.0
 43
0.0
 43
0.0
 43
0.0208333333333333
 43
0.0
 43
0.0
 43
0.0
 43
0.0
 43
1.0
 43
0.0
 43
0.0
 43
0.0
 43
0.0
 43
1.0
 77
     0
 47
0.0208333333333333
 47
0.0
 47
0.0
 47
0.0
 47
0.0
 47
0.0208333333333333
 47
0.0
 47
0.0
 47
0.0
 47
0.0
 47
1.0
 47
0.0
 47
0.0
 47
0.0
 47
0.0
 47
1.0
171
     0
 49
0.0208333333333333
 49
0.0
 49
0.0
 49
0.0
 49
0.0
 49
0.0208333333333333
 49
0.0
 49
0.0
 49
0.0
 49
0.0
 49
1.0
 49
0.0
 49
0.0
 49
0.0
 49
0.0
 49
1.0
175
     0
142
0.0208333333333333
142
0.0
142
0.0
142
0.0
142
0.0
142
0.0208333333333333
142
0.0
142
0.0
142
0.0
142
0.0
142
1.0
142
0.0
142
0.0
142
0.0
142
0.0
142
1.0
179
     0
144
0.0208333333333333
144
0.0
144
0.0
144
0.0
144
0.0
144
0.0208333333333333
144
0.0
144
0.0
144
0.0
144
0.0
144
1.0
144
0.0
144
0.0
144
0.0
144
0.0
144
1.0
147
0.0208333333333333
147
0.0
147
0.0
147
0.0
147
0.0
147
0.0208333333333333
147
0.0
147
0.0
147
0.0
147
0.0
147
1.0
147
0.0
147
0.0
147
0.0
147
0.0
147
1.0
  0
MATERIAL
  5
15A2
102
{ACAD_XDICTIONARY
360
15A3
102
}
102
{ACAD_REACTORS
330
1591
102
}
330
1591
100
AcDbMaterial
  1
Global
 72
     0
 43
0.0208333333333333
 43
0.0
 43
0.0
 43
0.0
 43
0.0
 43
0.0208333333333333
 43
0.0
 43
0.0
 43
0.0
 43
0.0
 43
1.0
 43
0.0
 43
0.0
 43
0.0
 43
0.0
 43
1.0
 77
     0
 47
0.0208333333333333
 47
0.0
 47
0.0
 47
0.0
 47
0.0
 47
0.0208333333333333
 47
0.0
 47
0.0
 47
0.0
 47
0.0
 47
1.0
 47
0.0
 47
0.0
 47
0.0
 47
0.0
 47
1.0
171
     0
 49
0.0208333333333333
 49
0.0
 49
0.0
 49
0.0
 49
0.0
 49
0.0208333333333333
 49
0.0
 49
0.0
 49
0.0
 49
0.0
 49
1.0
 49
0.0
 49
0.0
 49
0.0
 49
0.0
 49
1.0
175
     0
142
0.0208333333333333
142
0.0
142
0.0
142
0.0
142
0.0
142
0.0208333333333333
142
0.0
142
0.0
142
0.0
142
0.0
142
1.0
142
0.0
142
0.0
142
0.0
142
0.0
142
1.0
179
     0
144
0.0208333333333333
144
0.0
144
0.0
144
0.0
144
0.0
144
0.0208333333333333
144
0.0
144
0.0
144
0.0
144
0.0
144
1.0
144
0.0
144
0.0
144
0.0
144
0.0
144
1.0
147
0.0208333333333333
147
0.0
147
0.0
147
0.0
147
0.0
147
0.0208333333333333
147
0.0
147
0.0
147
0.0
147
0.0
147
1.0
147
0.0
147
0.0
147
0.0
147
0.0
147
1.0
  0
MLEADERSTYLE
  5
15D9
102
{ACAD_REACTORS
330
15D8
102
}
330
15D8
100
AcDbMLeaderStyle
170
     2
171
     1
172
     0
 90
        2
 40
0.0
 41
0.0
173
     1
 91
-1056964608
340
1163
 92
       -2
290
     1
 42
0.09
291
     1
 43
0.36
  3
Standard
 44
0.18
300

342
1161
174
     1
178
     6
175
     1
176
     0
 93
-1056964608
 45
0.18
292
     0
297
     0
 46
0.18
 94
-1056964608
 47
1.0
 49
1.0
140
1.0
293
     1
141
0.0
294
     1
177
     0
142
1.0
295
     0
296
     0
143
0.125
1001
ACAD_MLEADERVER
1070
     2
  0
MLINESTYLE
  5
1167
102
{ACAD_REACTORS
330
1166
102
}
330
1166
100
AcDbMlineStyle
  2
STANDARD
 70
     0
  3

 62
   256
 51
90.0
 52
90.0
 71
     2
 49
0.5
 62
   256
  6
BYLAYER
 49
-0.5
 62
   256
  6
BYLAYER
  0
ACDBPLACEHOLDER
  5
1590
102
{ACAD_REACTORS
330
158F
102
}
330
158F
  0
SCALE
  5
15C7
102
{ACAD_REACTORS
330
15C6
102
}
330
15C6
100
AcDbScale
 70
     0
300
1:1
140
1.0
141
1.0
290
     1
  0
SCALE
  5
15C8
102
{ACAD_REACTORS
330
15C6
102
}
330
15C6
100
AcDbScale
 70
     0
300
1/128" = 1'-0"
140
0.0078125
141
12.0
290
     0
  0
SCALE
  5
15C9
102
{ACAD_REACTORS
330
15C6
102
}
330
15C6
100
AcDbScale
 70
     0
300
1/64" = 1'-0"
140
0.015625
141
12.0
290
     0
  0
SCALE
  5
15CA
102
{ACAD_REACTORS
330
15C6
102
}
330
15C6
100
AcDbScale
 70
     0
300
1/32" = 1'-0"
140
0.03125
141
12.0
290
     0
  0
SCALE
  5
15CB
102
{ACAD_REACTORS
330
15C6
102
}
330
15C6
100
AcDbScale
 70
     0
300
1/16" = 1'-0"
140
0.0625
141
12.0
290
     0
  0
SCALE
  5
15CC
102
{ACAD_REACTORS
330
15C6
102
}
330
15C6
100
AcDbScale
 70
     0
300
3/32" = 1'-0"
140
0.09375
141
12.0
290
     0
  0
SCALE
  5
15CD
102
{ACAD_REACTORS
330
15C6
102
}
330
15C6
100
AcDbScale
 70
     0
300
1/8" = 1'-0"
140
0.125
141
12.0
290
     0
  0
SCALE
  5
15CE
102
{ACAD_REACTORS
330
15C6
102
}
330
15C6
100
AcDbScale
 70
     0
300
3/16" = 1'-0"
140
0.1875
141
12.0
290
     0
  0
SCALE
  5
15CF
102
{ACAD_REACTORS
330
15C6
102
}
330
15C6
100
AcDbScale
 70
     0
300
1/4" = 1'-0"
140
0.25
141
12.0
290
     0
  0
SCALE
  5
15D0
102
{ACAD_REACTORS
330
15C6
102
}
330
15C6
100
AcDbScale
 70
     0
300
3/8" = 1'-0"
140
0.375
141
12.0
290
     0
  0
SCALE
  5
15D1
102
{ACAD_REACTORS
330
15C6
102
}
330
15C6
100
AcDbScale
 70
     0
300
1/2" = 1'-0"
140
0.5
141
12.0
290
     0
  0
SCALE
  5
15D2
102
{ACAD_REACTORS
330
15C6
102
}
330
15C6
100
AcDbScale
 70
     0
300
3/4" = 1'-0"
140
0.75
141
12.0
290
     0
  0
SCALE
  5
15D3
102
{ACAD_REACTORS
330
15C6
102
}
330
15C6
100
AcDbScale
 70
     0
300
1" = 1'-0"
140
1.0
141
12.0
290
     0
  0
SCALE
  5
15D4
102
{ACAD_REACTORS
330
15C6
102
}
330
15C6
100
AcDbScale
 70
     0
300
1-1/2" = 1'-0"
140
1.5
141
12.0
290
     0
  0
SCALE
  5
15D5
102
{ACAD_REACTORS
330
15C6
102
}
330
15C6
100
AcDbScale
 70
     0
300
3" = 1'-0"
140
3.0
141
12.0
290
     0
  0
SCALE
  5
15D6
102
{ACAD_REACTORS
330
15C6
102
}
330
15C6
100
AcDbScale
 70
     0
300
6" = 1'-0"
140
6.0
141
12.0
290
     0
  0
SCALE
  5
15D7
102
{ACAD_REACTORS
330
15C6
102
}
330
15C6
100
AcDbScale
 70
     0
300
1'-0" = 1'-0"
140
12.0
141
12.0
290
     0
  0
ACDBSECTIONVIEWSTYLE
  5
15DB
102
{ACAD_XDICTIONARY
360
1635
102
}
102
{ACAD_REACTORS
330
15DA
102
}
330
15DA
100
AcDbModelDocViewStyle
 70
     0
  3
Imperial24
290
     0
100
AcDbSectionViewStyle
 70
     0
 71
     0
 90
       78
 71
     1
340
1161
 40
0.24
340
0
340
0
 40
0.24
300
I, O, Q, S, X, Z
 40
0.48
 90
        3
 40
0.18
 90
        1
 71
     2
340
1165
 90
       25
340
1165
 90
       50
 40
0.24
 40
0.0
 40
0.24
 71
     3
340
1161
 40
0.24
 90
        1
 40
0.75
 90
        1
300
%<\AcVar ViewType \f "%tc1">% %<\AcVar ViewSectionStartId>%-%<\AcVar ViewSectionEndId>%\PSCALE %<\AcVar ViewScale \f "%sn">%
 71
     4
300
ANSI31
 40
1.0
 90
        0
290
     0
290
     0
 90
        6
 40
0.0
 40
1.570796326794896
 40
0.2617993877991494
 40
1.308996938995747
 40
-0.2617993877991494
 40
1.832595714594046
  0
TABLESTYLE
  5
15C5
102
{ACAD_XDICTIONARY
360
15FC
102
}
102
{ACAD_REACTORS
330
15C4
102
}
330
15C4
100
AcDbTableStyle
  3
Standard
 70
     0
 71
     0
 40
0.06
 41
0.06
280
     0
281
     0
  7
STANDARD
140
0.18
170
     2
 62
     0
 63
     7
283
     0
274
    -2
284
     1
 64
     0
275
    -2
285
     1
 65
     0
276
    -2
286
     1
 66
     0
277
    -2
287
     1
 67
     0
278
    -2
288
     1
 68
     0
279
    -2
289
     1
 69
     0
  7
STANDARD
140
0.25
170
     5
 62
     0
 63
     7
283
     0
274
    -2
284
     1
 64
     0
275
    -2
285
     1
 65
     0
276
    -2
286
     1
 66
     0
277
    -2
287
     1
 67
     0
278
    -2
288
     1
 68
     0
279
    -2
289
     1
 69
     0
  7
STANDARD
140
0.18
170
     5
 62
     0
 63
     7
283
     0
274
    -2
284
     1
 64
     0
275
    -2
285
     1
 65
     0
276
    -2
286
     1
 66
     0
277
    -2
287
     1
 67
     0
278
    -2
288
     1
 68
     0
279
    -2
289
     1
 69
     0
  0
VISUALSTYLE
  5
15B0
102
{ACAD_XDICTIONARY
360
160D
102
}
102
{ACAD_REACTORS
330
15AA
102
}
330
15AA
100
AcDbVisualStyle
  2
2dWireframe
 70
     4
 71
     0
 72
     2
 73
     0
 90
        0
 40
-0.6
 41
-30.0
 62
     5
 63
     7
 74
     1
 91
        4
 64
     7
 65
   257
 75
     1
175
     1
 42
1.0
 92
        0
 66
   257
 43
1.0
 76
     1
 77
     6
 78
     2
 67
     7
 79
     5
170
     0
171
     0
290
     0
174
     0
 93
        1
 44
0.0
173
     0
291
     0
 45
0.0
1001
ACAD
1000
AcDbSavedByObjectVersion
1070
     0
  0
VISUALSTYLE
  5
15AF
102
{ACAD_XDICTIONARY
360
160B
102
}
102
{ACAD_REACTORS
330
15AA
102
}
330
15AA
100
AcDbVisualStyle
  2
Basic
 70
     7
 71
     1
 72
     0
 73
     1
 90
        0
 40
-0.6
 41
-30.0
 62
     5
 63
     7
 74
     0
 91
        4
 64
     7
 65
   257
 75
     1
175
     1
 42
1.0
 92
        8
 66
     7
 43
1.0
 76
     1
 77
     6
 78
     2
 67
     7
 79
     5
170
     0
171
     0
290
     0
174
     0
 93
        1
 44
0.0
173
     0
291
     1
 45
0.0
1001
ACAD
1000
AcDbSavedByObjectVersion
1070
     0
  0
VISUALSTYLE
  5
15B6
102
{ACAD_XDICTIONARY
360
1619
102
}
102
{ACAD_REACTORS
330
15AA
102
}
330
15AA
100
AcDbVisualStyle
  2
Brighten
 70
    12
 71
     2
 72
     2
 73
     0
 90
        0
 40
-0.6
 41
-30.0
 62
     5
 63
     7
 74
     1
 91
        4
 64
     7
 65
   257
 75
     1
175
     1
 42
1.0
 92
        8
 66
     7
 43
1.0
 76
     1
 77
     6
 78
     2
 67
     7
 79
     5
170
     0
171
     0
290
     0
174
     0
 93
        1
 44
50.0
173
     0
291
     1
 45
0.0
1001
ACAD
1000
AcDbSavedByObjectVersion
1070
     0
  0
VISUALSTYLE
  5
15BA
102
{ACAD_XDICTIONARY
360
1621
102
}
102
{ACAD_REACTORS
330
15AA
102
}
330
15AA
100
AcDbVisualStyle
  2
ColorChange
 70
    16
 71
     2
 72
     2
 73
     3
 90
        0
 40
-0.6
 41
-30.0
 62
     5
 63
     8
 74
     1
 91
        4
 64
     7
 65
   257
 75
     1
175
     1
 42
1.0
 92
        8
 66
     8
 43
1.0
 76
     1
 77
     6
 78
     2
 67
     7
 79
     5
170
     0
171
     0
290
     0
174
     0
 93
        1
 44
0.0
173
     0
291
     1
 45
0.0
1001
ACAD
1000
AcDbSavedByObjectVersion
1070
     0
  0
VISUALSTYLE
  5
15B3
102
{ACAD_XDICTIONARY
360
1613
102
}
102
{ACAD_REACTORS
330
15AA
102
}
330
15AA
100
AcDbVisualStyle
  2
Conceptual
 70
     9
 71
     3
 72
     2
 73
     0
 90
        0
 40
-0.6
 41
-30.0
 62
     5
 63
     7
 74
     2
 91
        2
 64
     7
 65
   257
 75
     1
175
     1
 42
179.0
 92
        8
 66
     7
 43
1.0
 76
     1
 77
     6
 78
     2
 67
     7
 79
     3
170
     0
171
     0
290
     0
174
     0
 93
        1
 44
0.0
173
     0
291
     0
 45
0.0
1001
ACAD
1000
AcDbSavedByObjectVersion
1070
     0
  0
VISUALSTYLE
  5
15B5
102
{ACAD_XDICTIONARY
360
1617
102
}
102
{ACAD_REACTORS
330
15AA
102
}
330
15AA
100
AcDbVisualStyle
  2
Dim
 70
    11
 71
     2
 72
     2
 73
     0
 90
        0
 40
-0.6
 41
-30.0
 62
     5
 63
     7
 74
     1
 91
        4
 64
     7
 65
   257
 75
     1
175
     1
 42
1.0
 92
        8
 66
     7
 43
1.0
 76
     1
 77
     6
 78
     2
 67
     7
 79
     5
170
     0
171
     0
290
     0
174
     0
 93
        1
 44
-50.0
173
     0
291
     1
 45
0.0
1001
ACAD
1000
AcDbSavedByObjectVersion
1070
     0
  0
VISUALSTYLE
  5
15C2
102
{ACAD_XDICTIONARY
360
1631
102
}
102
{ACAD_REACTORS
330
15AA
102
}
330
15AA
100
AcDbVisualStyle
  2
EdgeColorOff
 70
    22
 71
     2
 72
     2
 73
     0
 90
        0
 40
-0.6
 41
-30.0
 62
     5
 63
     7
 74
     1
 91
        4
 64
     7
 65
   257
 75
     1
175
     1
 42
1.0
 92
        8
 66
     7
 43
1.0
 76
     1
 77
     6
 78
     2
 67
     7
 79
     5
170
     0
171
     0
290
     0
174
     0
 93
        1
 44
0.0
173
     0
291
     1
 45
0.0
1001
ACAD
1000
AcDbSavedByObjectVersion
1070
     0
  0
VISUALSTYLE
  5
15B9
102
{ACAD_XDICTIONARY
360
161F
102
}
102
{ACAD_REACTORS
330
15AA
102
}
330
15AA
100
AcDbVisualStyle
  2
Facepattern
 70
    15
 71
     2
 72
     2
 73
     0
 90
        0
 40
-0.6
 41
-30.0
 62
     5
 63
     7
 74
     1
 91
        4
 64
     7
 65
   257
 75
     1
175
     1
 42
1.0
 92
        8
 66
     7
 43
1.0
 76
     1
 77
     6
 78
     2
 67
     7
 79
     5
170
     0
171
     0
290
     0
174
     0
 93
        1
 44
0.0
173
     0
291
     1
 45
0.0
1001
ACAD
1000
AcDbSavedByObjectVersion
1070
     0
  0
VISUALSTYLE
  5
15AB
102
{ACAD_XDICTIONARY
360
1603
102
}
102
{ACAD_REACTORS
330
15AA
102
}
330
15AA
100
AcDbVisualStyle
  2
Flat
 70
     0
 71
     2
 72
     1
 73
     1
 90
        2
 40
-0.6
 41
30.0
 62
     5
 63
     7
 74
     0
 91
        0
 64
     7
 65
   257
 75
     1
175
     1
 42
1.0
 92
        8
 66
     7
 43
1.0
 76
     1
 77
     6
 78
     2
 67
     7
 79
     5
170
     0
171
     0
290
     0
174
     0
 93
       13
 44
0.0
173
     0
291
     1
 45
0.0
1001
ACAD
1000
AcDbSavedByObjectVersion
1070
     0
  0
VISUALSTYLE
  5
15AC
102
{ACAD_XDICTIONARY
360
1605
102
}
102
{ACAD_REACTORS
330
15AA
102
}
330
15AA
100
AcDbVisualStyle
  2
FlatWithEdges
 70
     1
 71
     2
 72
     1
 73
     1
 90
        2
 40
-0.6
 41
30.0
 62
     5
 63
     7
 74
     1
 91
        0
 64
     7
 65
   257
 75
     1
175
     1
 42
1.0
 92
        0
 66
   257
 43
1.0
 76
     1
 77
     6
 78
     2
 67
     7
 79
     5
170
     0
171
     0
290
     0
174
     0
 93
       13
 44
0.0
173
     0
291
     1
 45
0.0
1001
ACAD
1000
AcDbSavedByObjectVersion
1070
     0
  0
VISUALSTYLE
  5
15AD
102
{ACAD_XDICTIONARY
360
1607
102
}
102
{ACAD_REACTORS
330
15AA
102
}
330
15AA
100
AcDbVisualStyle
  2
Gouraud
 70
     2
 71
     2
 72
     2
 73
     1
 90
        2
 40
-0.6
 41
30.0
 62
     5
 63
     7
 74
     0
 91
        0
 64
     7
 65
   257
 75
     1
175
     1
 42
1.0
 92
        0
 66
     7
 43
1.0
 76
     1
 77
     6
 78
     2
 67
     7
 79
     5
170
     0
171
     0
290
     0
174
     0
 93
       13
 44
0.0
173
     0
291
     1
 45
0.0
1001
ACAD
1000
AcDbSavedByObjectVersion
1070
     0
  0
VISUALSTYLE
  5
15AE
102
{ACAD_XDICTIONARY
360
1609
102
}
102
{ACAD_REACTORS
330
15AA
102
}
330
15AA
100
AcDbVisualStyle
  2
GouraudWithEdges
 70
     3
 71
     2
 72
     2
 73
     1
 90
        2
 40
-0.6
 41
30.0
 62
     5
 63
     7
 74
     1
 91
        0
 64
     7
 65
   257
 75
     1
175
     1
 42
1.0
 92
        0
 66
   257
 43
1.0
 76
     1
 77
     6
 78
     2
 67
     7
 79
     5
170
     0
171
     0
290
     0
174
     0
 93
       13
 44
0.0
173
     0
291
     1
 45
0.0
1001
ACAD
1000
AcDbSavedByObjectVersion
1070
     0
  0
VISUALSTYLE
  5
15B2
102
{ACAD_XDICTIONARY
360
1611
102
}
102
{ACAD_REACTORS
330
15AA
102
}
330
15AA
100
AcDbVisualStyle
  2
Hidden
 70
     6
 71
     1
 72
     2
 73
     2
 90
        0
 40
-0.6
 41
-30.0
 62
     5
 63
     7
 74
     2
 91
        2
 64
     7
 65
   257
 75
     2
175
     1
 42
40.0
 92
        0
 66
   257
 43
1.0
 76
     1
 77
     6
 78
     2
 67
     7
 79
     3
170
     0
171
     0
290
     0
174
     0
 93
        1
 44
0.0
173
     0
291
     0
 45
0.0
1001
ACAD
1000
AcDbSavedByObjectVersion
1070
     0
  0
VISUALSTYLE
  5
15C0
102
{ACAD_XDICTIONARY
360
162D
102
}
102
{ACAD_REACTORS
330
15AA
102
}
330
15AA
100
AcDbVisualStyle
  2
JitterOff
 70
    20
 71
     2
 72
     2
 73
     0
 90
        0
 40
-0.6
 41
-30.0
 62
     5
 63
     7
 74
     1
 91
        4
 64
     7
 65
   257
 75
     1
175
     1
 42
1.0
 92
       10
 66
     7
 43
1.0
 76
     1
 77
     6
 78
     2
 67
     7
 79
     5
170
     0
171
     0
290
     0
174
     0
 93
        1
 44
0.0
173
     0
291
     1
 45
0.0
1001
ACAD
1000
AcDbSavedByObjectVersion
1070
     0
  0
VISUALSTYLE
  5
15B8
102
{ACAD_XDICTIONARY
360
161D
102
}
102
{ACAD_REACTORS
330
15AA
102
}
330
15AA
100
AcDbVisualStyle
  2
Linepattern
 70
    14
 71
     2
 72
     2
 73
     0
 90
        0
 40
-0.6
 41
-30.0
 62
     5
 63
     7
 74
     1
 91
        4
 64
     7
 65
   257
 75
     7
175
     7
 42
1.0
 92
        8
 66
     7
 43
1.0
 76
     1
 77
     6
 78
     2
 67
     7
 79
     5
170
     0
171
     0
290
     0
174
     0
 93
        1
 44
0.0
173
     0
291
     1
 45
0.0
1001
ACAD
1000
AcDbSavedByObjectVersion
1070
     0
  0
VISUALSTYLE
  5
15C1
102
{ACAD_XDICTIONARY
360
162F
102
}
102
{ACAD_REACTORS
330
15AA
102
}
330
15AA
100
AcDbVisualStyle
  2
OverhangOff
 70
    21
 71
     2
 72
     2
 73
     0
 90
        0
 40
-0.6
 41
-30.0
 62
     5
 63
     7
 74
     1
 91
        4
 64
     7
 65
   257
 75
     1
175
     1
 42
1.0
 92
        9
 66
     7
 43
1.0
 76
     1
 77
     6
 78
     2
 67
     7
 79
     5
170
     0
171
     0
290
     0
174
     0
 93
        1
 44
0.0
173
     0
291
     1
 45
0.0
1001
ACAD
1000
AcDbSavedByObjectVersion
1070
     0
  0
VISUALSTYLE
  5
15B4
102
{ACAD_XDICTIONARY
360
1615
102
}
102
{ACAD_REACTORS
330
15AA
102
}
330
15AA
100
AcDbVisualStyle
  2
Realistic
 70
     8
 71
     2
 72
     3
 73
     0
 90
        2
 40
-0.6
 41
30.0
 62
     5
 63
     7
 74
     0
 91
        0
 64
     7
 65
   257
 75
     1
175
     1
 42
1.0
 92
        8
 66
   257
 43
1.0
 76
     1
 77
     6
 78
     2
 67
     7
 79
     3
170
     0
171
     0
290
     0
174
     0
 93
       13
 44
0.0
173
     0
291
     0
 45
0.0
1001
ACAD
1000
AcDbSavedByObjectVersion
1070
     0
  0
VISUALSTYLE
  5
15BF
102
{ACAD_XDICTIONARY
360
162B
102
}
102
{ACAD_REACTORS
330
15AA
102
}
330
15AA
100
AcDbVisualStyle
  2
Shaded
 70
    27
 71
     2
 72
     2
 73
     1
 90
        2
 40
-0.6
 41
30.0
 62
     5
 63
     7
 74
     0
 91
        4
 64
     7
 65
   257
 75
     1
175
     1
 42
1.0
 92
        8
 66
   257
 43
1.0
 76
     1
 77
     6
 78
     2
 67
     8
 79
     3
170
     0
171
     0
290
     0
174
     0
 93
        5
 44
0.0
173
     0
291
     0
 45
0.0
1001
ACAD
1000
AcDbSavedByObjectVersion
1070
     0
  0
VISUALSTYLE
  5
15BE
102
{ACAD_XDICTIONARY
360
1629
102
}
102
{ACAD_REACTORS
330
15AA
102
}
330
15AA
100
AcDbVisualStyle
  2
Shaded with edges
 70
    26
 71
     2
 72
     2
 73
     1
 90
        2
 40
-0.6
 41
30.0
 62
     5
 63
     7
 74
     1
 91
       10
 64
     7
 65
   257
 75
     2
175
     1
 42
1.0
 92
        8
 66
   257
 43
1.0
 76
     1
 77
     6
 78
     2
 67
     7
 79
     3
170
     0
171
     0
290
     0
174
     0
 93
        5
 44
0.0
173
     0
291
     0
 45
0.0
1001
ACAD
1000
AcDbSavedByObjectVersion
1070
     0
  0
VISUALSTYLE
  5
15BB
102
{ACAD_XDICTIONARY
360
1623
102
}
102
{ACAD_REACTORS
330
15AA
102
}
330
15AA
100
AcDbVisualStyle
  2
Shades of Gray
 70
    23
 71
     2
 72
     2
 73
     3
 90
        0
 40
-0.6
 41
-30.0
 62
     5
 63
     7
 74
     2
 91
        2
 64
     7
 65
     7
 75
     1
175
     1
 42
40.0
 92
        8
 66
     7
 43
1.0
 76
     1
 77
     6
 78
     2
 67
     7
 79
     3
170
     0
171
     0
290
     0
174
     0
 93
        1
 44
0.0
173
     0
291
     0
 45
0.0
1001
ACAD
1000
AcDbSavedByObjectVersion
1070
     0
  0
VISUALSTYLE
  5
15BC
102
{ACAD_XDICTIONARY
360
1625
102
}
102
{ACAD_REACTORS
330
15AA
102
}
330
15AA
100
AcDbVisualStyle
  2
Sketchy
 70
    24
 71
     1
 72
     2
 73
     2
 90
        0
 40
-0.6
 41
-30.0
 62
     5
 63
     7
 74
     2
 91
        2
 64
     7
 65
     7
 75
     1
175
     1
 42
40.0
 92
       11
 66
     7
 43
1.0
 76
     1
 77
     6
 78
     2
 67
     7
 79
     6
170
     0
171
     0
290
     0
174
     0
 93
        1
 44
0.0
173
     0
291
     0
 45
0.0
1001
ACAD
1000
AcDbSavedByObjectVersion
1070
     0
  0
VISUALSTYLE
  5
15B7
102
{ACAD_XDICTIONARY
360
161B
102
}
102
{ACAD_REACTORS
330
15AA
102
}
330
15AA
100
AcDbVisualStyle
  2
Thicken
 70
    13
 71
     2
 72
     2
 73
     0
 90
        0
 40
-0.6
 41
-30.0
 62
     5
 63
     7
 74
     1
 91
        4
 64
     7
 65
   257
 75
     1
175
     1
 42
1.0
 92
       12
 66
     7
 43
1.0
 76
     1
 77
     6
 78
     2
 67
     7
 79
     5
170
     0
171
     0
290
     0
174
     0
 93
        1
 44
0.0
173
     0
291
     1
 45
0.0
1001
ACAD
1000
AcDbSavedByObjectVersion
1070
     0
  0
VISUALSTYLE
  5
15B1
102
{ACAD_XDICTIONARY
360
160F
102
}
102
{ACAD_REACTORS
330
15AA
102
}
330
15AA
100
AcDbVisualStyle
  2
Wireframe
 70
     5
 71
     0
 72
     2
 73
     0
 90
        0
 40
-0.6
 41
-30.0
 62
     5
 63
     7
 74
     1
 91
        4
 64
     7
 65
   257
 75
     1
175
     1
 42
1.0
 92
        0
 66
   257
 43
1.0
 76
     1
 77
     6
 78
     2
 67
     7
 79
     3
170
     0
171
     0
290
     0
174
     0
 93
        1
 44
0.0
173
     0
291
     0
 45
0.0
1001
ACAD
1000
AcDbSavedByObjectVersion
1070
     0
  0
VISUALSTYLE
  5
15BD
102
{ACAD_XDICTIONARY
360
1627
102
}
102
{ACAD_REACTORS
330
15AA
102
}
330
15AA
100
AcDbVisualStyle
  2
X-Ray
 70
    25
 71
     2
 72
     2
 73
     1
 90
        1
 40
0.5
 41
-30.0
 62
     5
 63
     7
 74
     1
 91
        0
 64
     7
 65
   257
 75
     1
175
     1
 42
1.0
 92
        8
 66
     7
 43
1.0
 76
     1
 77
     6
 78
     2
 67
     7
 79
     3
170
     0
171
     0
290
     0
174
     0
 93
       13
 44
0.0
173
     0
291
     0
 45
0.0
1001
ACAD
1000
AcDbSavedByObjectVersion
1070
     0
  0
DICTIONARYVAR
  5
15F6
102
{ACAD_REACTORS
330
15F1
102
}
330
15F1
100
DictionaryVariables
280
     0
  1
1:1
  0
DICTIONARYVAR
  5
15F3
102
{ACAD_REACTORS
330
15F1
102
}
330
15F1
100
DictionaryVariables
280
     0
  1
STANDARD
  0
DICTIONARYVAR
  5
15F2
102
{ACAD_REACTORS
330
15F1
102
}
330
15F1
100
DictionaryVariables
280
     0
  1
STANDARD
  0
DICTIONARYVAR
  5
15F4
102
{ACAD_REACTORS
330
15F1
102
}
330
15F1
100
DictionaryVariables
280
     0
  1
Imperial24
  0
DICTIONARYVAR
  5
15F5
102
{ACAD_REACTORS
330
15F1
102
}
330
15F1
100
DictionaryVariables
280
     0
  1
Imperial24
  0
DICTIONARYVAR
  5
15F9
102
{ACAD_REACTORS
330
15F1
102
}
330
15F1
100
DictionaryVariables
280
     0
  1
1
  0
DICTIONARYVAR
  5
15F8
102
{ACAD_REACTORS
330
15F1
102
}
330
15F1
100
DictionaryVariables
280
     0
  1
0
  0
DICTIONARYVAR
  5
15F7
102
{ACAD_REACTORS
330
15F1
102
}
330
15F1
100
DictionaryVariables
280
     0
  1
127
  0
DICTIONARYVAR
  5
15FA
102
{ACAD_REACTORS
330
15F1
102
}
330
15F1
100
DictionaryVariables
280
     0
  1
2
  0
DICTIONARY
  5
1637
330
15DD
100
AcDbDictionary
280
     1
281
     1
  3
ACAD_XREC_ROUNDTRIP
360
1638
  0
DICTIONARY
  5
1639
330
15DE
100
AcDbDictionary
280
     1
281
     1
  3
ACAD_XREC_ROUNDTRIP
360
163A
  0
DICTIONARY
  5
163B
330
15DF
100
AcDbDictionary
280
     1
281
     1
  3
ACAD_XREC_ROUNDTRIP
360
163C
  0
DICTIONARY
  5
159B
330
159A
100
AcDbDictionary
280
     1
281
     1
  3
ACAD_XREC_ROUNDTRIP
360
1601
  3
BUMPTILE
360
159D
  3
DIFFUSETILE
360
159C
  3
OPACITYTILE
360
15A0
  3
REFLECTIONTILE
360
159F
  3
REFRACTIONTILE
360
15A1
  3
SPECULARTILE
360
159E
  0
DICTIONARY
  5
1593
330
1592
100
AcDbDictionary
280
     1
281
     1
  3
ACAD_XREC_ROUNDTRIP
360
1600
  3
BUMPTILE
360
1595
  3
DIFFUSETILE
360
1594
  3
OPACITYTILE
360
1598
  3
REFLECTIONTILE
360
1597
  3
REFRACTIONTILE
360
1599
  3
SPECULARTILE
360
1596
  0
DICTIONARY
  5
15A3
330
15A2
100
AcDbDictionary
280
     1
281
     1
  3
ACAD_XREC_ROUNDTRIP
360
1602
  3
BUMPTILE
360
15A5
  3
DIFFUSETILE
360
15A4
  3
OPACITYTILE
360
15A8
  3
REFLECTIONTILE
360
15A7
  3
REFRACTIONTILE
360
15A9
  3
SPECULARTILE
360
15A6
  0
DICTIONARY
  5
1635
330
15DB
100
AcDbDictionary
280
     1
281
     1
  3
ACAD_XREC_ROUNDTRIP
360
1636
  0
DICTIONARY
  5
15FC
330
15C5
100
AcDbDictionary
280
     1
281
     1
  3
ACAD_ROUNDTRIP_2008_TABLESTYLE_CELLSTYLEMAP
360
15FD
  3
ACAD_XREC_ROUNDTRIP
360
1633
  0
DICTIONARY
  5
160D
330
15B0
100
AcDbDictionary
280
     1
281
     1
  3
ACAD_XREC_ROUNDTRIP
360
160E
  0
DICTIONARY
  5
160B
330
15AF
100
AcDbDictionary
280
     1
281
     1
  3
ACAD_XREC_ROUNDTRIP
360
160C
  0
DICTIONARY
  5
1619
330
15B6
100
AcDbDictionary
280
     1
281
     1
  3
ACAD_XREC_ROUNDTRIP
360
161A
  0
DICTIONARY
  5
1621
330
15BA
100
AcDbDictionary
280
     1
281
     1
  3
ACAD_XREC_ROUNDTRIP
360
1622
  0
DICTIONARY
  5
1613
330
15B3
100
AcDbDictionary
280
     1
281
     1
  3
ACAD_XREC_ROUNDTRIP
360
1614
  0
DICTIONARY
  5
1617
330
15B5
100
AcDbDictionary
280
     1
281
     1
  3
ACAD_XREC_ROUNDTRIP
360
1618
  0
DICTIONARY
  5
1631
330
15C2
100
AcDbDictionary
280
     1
281
     1
  3
ACAD_XREC_ROUNDTRIP
360
1632
  0
DICTIONARY
  5
161F
330
15B9
100
AcDbDictionary
280
     1
281
     1
  3
ACAD_XREC_ROUNDTRIP
360
1620
  0
DICTIONARY
  5
1603
330
15AB
100
AcDbDictionary
280
     1
281
     1
  3
ACAD_XREC_ROUNDTRIP
360
1604
  0
DICTIONARY
  5
1605
330
15AC
100
AcDbDictionary
280
     1
281
     1
  3
ACAD_XREC_ROUNDTRIP
360
1606
  0
DICTIONARY
  5
1607
330
15AD
100
AcDbDictionary
280
     1
281
     1
  3
ACAD_XREC_ROUNDTRIP
360
1608
  0
DICTIONARY
  5
1609
330
15AE
100
AcDbDictionary
280
     1
281
     1
  3
ACAD_XREC_ROUNDTRIP
360
160A
  0
DICTIONARY
  5
1611
330
15B2
100
AcDbDictionary
280
     1
281
     1
  3
ACAD_XREC_ROUNDTRIP
360
1612
  0
DICTIONARY
  5
162D
330
15C0
100
AcDbDictionary
280
     1
281
     1
  3
ACAD_XREC_ROUNDTRIP
360
162E
  0
DICTIONARY
  5
161D
330
15B8
100
AcDbDictionary
280
     1
281
     1
  3
ACAD_XREC_ROUNDTRIP
360
161E
  0
DICTIONARY
  5
162F
330
15C1
100
AcDbDictionary
280
     1
281
     1
  3
ACAD_XREC_ROUNDTRIP
360
1630
  0
DICTIONARY
  5
1615
330
15B4
100
AcDbDictionary
280
     1
281
     1
  3
ACAD_XREC_ROUNDTRIP
360
1616
  0
DICTIONARY
  5
162B
330
15BF
100
AcDbDictionary
280
     1
281
     1
  3
ACAD_XREC_ROUNDTRIP
360
162C
  0
DICTIONARY
  5
1629
330
15BE
100
AcDbDictionary
280
     1
281
     1
  3
ACAD_XREC_ROUNDTRIP
360
162A
  0
DICTIONARY
  5
1623
330
15BB
100
AcDbDictionary
280
     1
281
     1
  3
ACAD_XREC_ROUNDTRIP
360
1624
  0
DICTIONARY
  5
1625
330
15BC
100
AcDbDictionary
280
     1
281
     1
  3
ACAD_XREC_ROUNDTRIP
360
1626
  0
DICTIONARY
  5
161B
330
15B7
100
AcDbDictionary
280
     1
281
     1
  3
ACAD_XREC_ROUNDTRIP
360
161C
  0
DICTIONARY
  5
160F
330
15B1
100
AcDbDictionary
280
     1
281
     1
  3
ACAD_XREC_ROUNDTRIP
360
1610
  0
DICTIONARY
  5
1627
330
15BD
100
AcDbDictionary
280
     1
281
     1
  3
ACAD_XREC_ROUNDTRIP
360
1628
  0
XRECORD
  5
1638
102
{ACAD_REACTORS
330
1637
102
}
330
1637
100
AcDbXrecord
280
     1
102
DISPLAYNAME
  1
Imperial24
102
FLAGS
 90
        0
  0
XRECORD
  5
163A
102
{ACAD_REACTORS
330
1639
102
}
330
1639
100
AcDbXrecord
280
     1
102
SHADEPLOT
 70
     0
102
SHADEPLOTRESLEVEL
 70
     2
102
SHADEPLOTCUSTOMDPI
 70
   300
  0
XRECORD
  5
163C
102
{ACAD_REACTORS
330
163B
102
}
330
163B
100
AcDbXrecord
280
     1
102
SHADEPLOT
 70
     0
102
SHADEPLOTRESLEVEL
 70
     2
102
SHADEPLOTCUSTOMDPI
 70
   300
  0
XRECORD
  5
1601
102
{ACAD_REACTORS
330
159B
102
}
330
159B
100
AcDbXrecord
280
     1
102
MATERIAL
148
0.0
149
0.0
149
0.0
 93
        0
 94
      127
282
     0
 72
     0
 77
     0
171
     0
175
     0
179
     0
273
     0
  0
XRECORD
  5
159D
102
{ACAD_REACTORS
330
159B
102
}
330
159B
100
AcDbXrecord
280
     1
270
     1
271
     1
  0
XRECORD
  5
159C
102
{ACAD_REACTORS
330
159B
102
}
330
159B
100
AcDbXrecord
280
     1
270
     1
271
     1
  0
XRECORD
  5
15A0
102
{ACAD_REACTORS
330
159B
102
}
330
159B
100
AcDbXrecord
280
     1
270
     1
271
     1
  0
XRECORD
  5
159F
102
{ACAD_REACTORS
330
159B
102
}
330
159B
100
AcDbXrecord
280
     1
270
     1
271
     1
  0
XRECORD
  5
15A1
102
{ACAD_REACTORS
330
159B
102
}
330
159B
100
AcDbXrecord
280
     1
270
     1
271
     1
  0
XRECORD
  5
159E
102
{ACAD_REACTORS
330
159B
102
}
330
159B
100
AcDbXrecord
280
     1
270
     1
271
     1
  0
XRECORD
  5
1600
102
{ACAD_REACTORS
330
1593
102
}
330
1593
100
AcDbXrecord
280
     1
102
MATERIAL
148
0.0
149
0.0
149
0.0
 93
        0
 94
      127
282
     0
 72
     0
 77
     0
171
     0
175
     0
179
     0
273
     0
  0
XRECORD
  5
1595
102
{ACAD_REACTORS
330
1593
102
}
330
1593
100
AcDbXrecord
280
     1
270
     1
271
     1
  0
XRECORD
  5
1594
102
{ACAD_REACTORS
330
1593
102
}
330
1593
100
AcDbXrecord
280
     1
270
     1
271
     1
  0
XRECORD
  5
1598
102
{ACAD_REACTORS
330
1593
102
}
330
1593
100
AcDbXrecord
280
     1
270
     1
271
     1
  0
XRECORD
  5
1597
102
{ACAD_REACTORS
330
1593
102
}
330
1593
100
AcDbXrecord
280
     1
270
     1
271
     1
  0
XRECORD
  5
1599
102
{ACAD_REACTORS
330
1593
102
}
330
1593
100
AcDbXrecord
280
     1
270
     1
271
     1
  0
XRECORD
  5
1596
102
{ACAD_REACTORS
330
1593
102
}
330
1593
100
AcDbXrecord
280
     1
270
     1
271
     1
  0
XRECORD
  5
1602
102
{ACAD_REACTORS
330
15A3
102
}
330
15A3
100
AcDbXrecord
280
     1
102
MATERIAL
148
0.0
149
0.0
149
0.0
 93
        0
 94
      127
282
     0
 72
     0
 77
     0
171
     0
175
     0
179
     0
273
     0
  0
XRECORD
  5
15A5
102
{ACAD_REACTORS
330
15A3
102
}
330
15A3
100
AcDbXrecord
280
     1
270
     1
271
     1
  0
XRECORD
  5
15A4
102
{ACAD_REACTORS
330
15A3
102
}
330
15A3
100
AcDbXrecord
280
     1
270
     1
271
     1
  0
XRECORD
  5
15A8
102
{ACAD_REACTORS
330
15A3
102
}
330
15A3
100
AcDbXrecord
280
     1
270
     1
271
     1
  0
XRECORD
  5
15A7
102
{ACAD_REACTORS
330
15A3
102
}
330
15A3
100
AcDbXrecord
280
     1
270
     1
271
     1
  0
XRECORD
  5
15A9
102
{ACAD_REACTORS
330
15A3
102
}
330
15A3
100
AcDbXrecord
280
     1
270
     1
271
     1
  0
XRECORD
  5
15A6
102
{ACAD_REACTORS
330
15A3
102
}
330
15A3
100
AcDbXrecord
280
     1
270
     1
271
     1
  0
XRECORD
  5
1636
102
{ACAD_REACTORS
330
1635
102
}
330
1635
100
AcDbXrecord
280
     1
102
DISPLAYNAME
  1
Imperial24
102
FLAGS
 90
        0
  0
CELLSTYLEMAP
  5
15FD
102
{ACAD_REACTORS
330
15FC
102
}
330
15FC
100
AcDbCellStyleMap
 90
        3
300
CELLSTYLE
  1
TABLEFORMAT_BEGIN
 90
        5
170
     1
 91
        0
 92
    32768
 62
   257
 93
        1
300
CONTENTFORMAT
  1
CONTENTFORMAT_BEGIN
 90
        0
 91
        0
 92
      512
 93
        0
300

 40
0.0
140
1.0
 94
        5
 62
     0
340
1161
144
0.25
309
CONTENTFORMAT_END
171
     0
 94
        0
309
TABLEFORMAT_END
  1
CELLSTYLE_BEGIN
 90
        1
 91
        1
300
_TITLE
309
CELLSTYLE_END
300
CELLSTYLE
  1
TABLEFORMAT_BEGIN
 90
        5
170
     1
 91
        0
 92
        0
 62
   257
 93
        1
300
CONTENTFORMAT
  1
CONTENTFORMAT_BEGIN
 90
        0
 91
        0
 92
      512
 93
        0
300

 40
0.0
140
1.0
 94
        5
 62
     0
340
1161
144
0.18
309
CONTENTFORMAT_END
171
     0
 94
        0
309
TABLEFORMAT_END
  1
CELLSTYLE_BEGIN
 90
        2
 91
        1
300
_HEADER
309
CELLSTYLE_END
300
CELLSTYLE
  1
TABLEFORMAT_BEGIN
 90
        5
170
     1
 91
        0
 92
        0
 62
   257
 93
        1
300
CONTENTFORMAT
  1
CONTENTFORMAT_BEGIN
 90
        0
 91
        0
 92
      512
 93
        0
300

 40
0.0
140
1.0
 94
        2
 62
     0
340
1161
144
0.18
309
CONTENTFORMAT_END
171
     0
 94
        0
309
TABLEFORMAT_END
  1
CELLSTYLE_BEGIN
 90
        3
 91
        2
300
_DATA
309
CELLSTYLE_END
  0
XRECORD
  5
1633
102
{ACAD_REACTORS
330
15FC
102
}
330
15FC
100
AcDbXrecord
280
     1
102
ACAD_ROUNDTRIP_PRE2007_TABLESTYLE
 90
      512
 91
        0
  1

 92
      512
 93
        0
  2

 94
      512
 95
        0
  3

  0
XRECORD
  5
160E
102
{ACAD_REACTORS
330
160D
102
}
330
160D
100
AcDbXrecord
280
     1
102
RTVSPost2010Prop28
280
     1
102
RTVSPost2010PropOp28
 70
     1
102
RTVSPost2010Prop29
280
     1
102
RTVSPost2010PropOp29
 70
     1
102
RTVSPost2010Prop30
280
     0
102
RTVSPost2010PropOp30
 70
     1
102
RTVSPost2010Prop31
280
     0
102
RTVSPost2010PropOp31
 70
     1
102
RTVSPost2010Prop32
280
     0
102
RTVSPost2010PropOp32
 70
     1
102
RTVSPost2010Prop33
280
     0
102
RTVSPost2010PropOp33
 70
     1
102
RTVSPost2010Prop34
280
     0
102
RTVSPost2010PropOp34
 70
     1
102
RTVSPost2010Prop35
280
     0
102
RTVSPost2010PropOp35
 70
     1
102
RTVSPost2010Prop36
280
     0
102
RTVSPost2010PropOp36
 70
     1
102
RTVSPost2010Prop37
 90
       50
102
RTVSPost2010PropOp37
 70
     1
102
RTVSPost2010Prop38
140
0.0
102
RTVSPost2010PropOp38
 70
     1
102
RTVSPost2010Prop39
140
1.0
102
RTVSPost2010PropOp39
 70
     1
102
RTVSPost2010Prop40
 90
        0
102
RTVSPost2010PropOp40
 70
     1
102
RTVSPost2010Prop41ColorIndex
 90
       18
102
RTVSPost2010Prop41ColorRGB
 90
        0
102
RTVSPost2010PropOp41
 70
     1
102
RTVSPost2010Prop42
 90
       50
102
RTVSPost2010PropOp42
 70
     1
102
RTVSPost2010Prop43
 90
        3
102
RTVSPost2010PropOp43
 70
     1
102
RTVSPost2010Prop44ColorIndex
 90
        5
102
RTVSPost2010Prop44ColorRGB
 90
      255
102
RTVSPost2010PropOp44
 70
     1
102
RTVSPost2010Prop45
280
     0
102
RTVSPost2010PropOp45
 70
     1
102
RTVSPost2010Prop46
 90
       50
102
RTVSPost2010PropOp46
 70
     1
102
RTVSPost2010Prop47
 90
       50
102
RTVSPost2010PropOp47
 70
     1
102
RTVSPost2010Prop48
 90
       50
102
RTVSPost2010PropOp48
 70
     1
102
RTVSPost2010Prop49
280
     0
102
RTVSPost2010PropOp49
 70
     1
102
RTVSPost2010Prop50
 90
       50
102
RTVSPost2010PropOp50
 70
     1
102
RTVSPost2010Prop51ColorIndex
 90
      256
102
RTVSPost2010Prop51ColorRGB
 90
-16777216
102
RTVSPost2010PropOp51
 70
     0
102
RTVSPost2010Prop52
140
1.0
102
RTVSPost2010PropOp52
 70
     0
102
RTVSPost2010Prop53
 90
        2
102
RTVSPost2010PropOp53
 70
     1
102
RTVSPost2010Prop54
  1
strokes_ogs.tif
102
RTVSPost2010PropOp54
 70
     1
102
RTVSPost2010Prop55
280
     0
102
RTVSPost2010PropOp55
 70
     1
102
RTVSPost2010Prop56
140
1.0
102
RTVSPost2010PropOp56
 70
     1
102
RTVSPost2010Prop57
140
1.0
102
RTVSPost2010PropOp57
 70
     1
102
RTVSPropertyOp0
 70
     1
102
RTVSPropertyOp1
 70
     1
102
RTVSPropertyOp2
 70
     1
102
RTVSPropertyOp3
 70
     1
102
RTVSPropertyOp4
 70
     1
102
RTVSPropertyOp5
 70
     1
102
RTVSPropertyOp6
 70
     1
102
RTVSPropertyOp7
 70
     1
102
RTVSPropertyOp8
 70
     1
102
RTVSPropertyOp9
 70
     1
102
RTVSPropertyOp10
 70
     1
102
RTVSPropertyOp11
 70
     1
102
RTVSPropertyOp12
 70
     1
102
RTVSPropertyOp13
 70
     1
102
RTVSPropertyOp14
 70
     1
102
RTVSPropertyOp15
 70
     1
102
RTVSPropertyOp16
 70
     1
102
RTVSPropertyOp17
 70
     1
102
RTVSPropertyOp18
 70
     1
102
RTVSPropertyOp19
 70
     1
102
RTVSPropertyOp20
 70
     1
102
RTVSPropertyOp21
 70
     1
102
RTVSPropertyOp22
 70
     1
102
RTVSPropertyOp23
 70
     1
102
RTVSPropertyOp24
 70
     1
102
RTVSPropertyOp25
 70
     1
102
RTVSPropertyOp26
 70
     1
102
RTVSPropertyOp27
 70
     1
102
RTVSPropertyOp28
 70
     1
102
RTVSPropertyOp29
 70
     1
102
RTVSPropertyOp30
 70
     1
102
RTVSPropertyOp31
 70
     1
102
RTVSPropertyOp32
 70
     1
102
RTVSPropertyOp33
 70
     1
102
RTVSPropertyOp34
 70
     1
102
RTVSPropertyOp35
 70
     1
102
RTVSPropertyOp36
 70
     1
102
RTVSPropertyOp37
 70
     1
102
RTVSPropertyOp38
 70
     1
102
RTVSPropertyOp39
 70
     1
102
RTVSPropertyOp40
 70
     1
102
RTVSPropertyOp41
 70
     1
102
RTVSPropertyOp42
 70
     1
102
RTVSPropertyOp43
 70
     1
102
RTVSPropertyOp44
 70
     1
102
RTVSPropertyOp45
 70
     1
102
RTVSPropertyOp46
 70
     1
102
RTVSPropertyOp47
 70
     1
102
RTVSPropertyOp48
 70
     1
102
RTVSPropertyOp49
 70
     1
102
RTVSPropertyOp50
 70
     1
102
RTVSPropertyOp51
 70
     0
102
RTVSPropertyOp52
 70
     0
102
RTVSPropertyOp53
 70
     1
102
RTVSPropertyOp54
 70
     1
102
RTVSPropertyOp55
 70
     1
102
RTVSPropertyOp56
 70
     1
102
RTVSPropertyOp57
 70
     1
102
RTVSPropertyOp58
 70
     1
102
RTVSPropertyOp59
 70
     1
102
RTVSPropertyOp60
 70
     1
102
RTVSPropertyOp61
 70
     1
102
RTVSPropertyOp62
 70
     1
  0
XRECORD
  5
160C
102
{ACAD_REACTORS
330
160B
102
}
330
160B
100
AcDbXrecord
280
     1
102
RTVSPost2010Prop28
280
     0
102
RTVSPost2010PropOp28
 70
     1
102
RTVSPost2010Prop29
280
     1
102
RTVSPost2010PropOp29
 70
     1
102
RTVSPost2010Prop30
280
     1
102
RTVSPost2010PropOp30
 70
     1
102
RTVSPost2010Prop31
280
     0
102
RTVSPost2010PropOp31
 70
     1
102
RTVSPost2010Prop32
280
     0
102
RTVSPost2010PropOp32
 70
     1
102
RTVSPost2010Prop33
280
     0
102
RTVSPost2010PropOp33
 70
     1
102
RTVSPost2010Prop34
280
     0
102
RTVSPost2010PropOp34
 70
     1
102
RTVSPost2010Prop35
280
     0
102
RTVSPost2010PropOp35
 70
     1
102
RTVSPost2010Prop36
280
     0
102
RTVSPost2010PropOp36
 70
     1
102
RTVSPost2010Prop37
 90
       50
102
RTVSPost2010PropOp37
 70
     1
102
RTVSPost2010Prop38
140
0.0
102
RTVSPost2010PropOp38
 70
     1
102
RTVSPost2010Prop39
140
1.0
102
RTVSPost2010PropOp39
 70
     1
102
RTVSPost2010Prop40
 90
        0
102
RTVSPost2010PropOp40
 70
     1
102
RTVSPost2010Prop41ColorIndex
 90
       18
102
RTVSPost2010Prop41ColorRGB
 90
        0
102
RTVSPost2010PropOp41
 70
     1
102
RTVSPost2010Prop42
 90
       50
102
RTVSPost2010PropOp42
 70
     1
102
RTVSPost2010Prop43
 90
        3
102
RTVSPost2010PropOp43
 70
     1
102
RTVSPost2010Prop44ColorIndex
 90
        5
102
RTVSPost2010Prop44ColorRGB
 90
      255
102
RTVSPost2010PropOp44
 70
     1
102
RTVSPost2010Prop45
280
     0
102
RTVSPost2010PropOp45
 70
     1
102
RTVSPost2010Prop46
 90
       50
102
RTVSPost2010PropOp46
 70
     1
102
RTVSPost2010Prop47
 90
       50
102
RTVSPost2010PropOp47
 70
     1
102
RTVSPost2010Prop48
 90
       50
102
RTVSPost2010PropOp48
 70
     1
102
RTVSPost2010Prop49
280
     0
102
RTVSPost2010PropOp49
 70
     1
102
RTVSPost2010Prop50
 90
       50
102
RTVSPost2010PropOp50
 70
     1
102
RTVSPost2010Prop51ColorIndex
 90
      256
102
RTVSPost2010Prop51ColorRGB
 90
-16777216
102
RTVSPost2010PropOp51
 70
     0
102
RTVSPost2010Prop52
140
1.0
102
RTVSPost2010PropOp52
 70
     0
102
RTVSPost2010Prop53
 90
        2
102
RTVSPost2010PropOp53
 70
     1
102
RTVSPost2010Prop54
  1
strokes_ogs.tif
102
RTVSPost2010PropOp54
 70
     1
102
RTVSPost2010Prop55
280
     0
102
RTVSPost2010PropOp55
 70
     1
102
RTVSPost2010Prop56
140
1.0
102
RTVSPost2010PropOp56
 70
     1
102
RTVSPost2010Prop57
140
1.0
102
RTVSPost2010PropOp57
 70
     1
102
RTVSPropertyOp0
 70
     1
102
RTVSPropertyOp1
 70
     1
102
RTVSPropertyOp2
 70
     1
102
RTVSPropertyOp3
 70
     1
102
RTVSPropertyOp4
 70
     1
102
RTVSPropertyOp5
 70
     1
102
RTVSPropertyOp6
 70
     1
102
RTVSPropertyOp7
 70
     1
102
RTVSPropertyOp8
 70
     1
102
RTVSPropertyOp9
 70
     1
102
RTVSPropertyOp10
 70
     1
102
RTVSPropertyOp11
 70
     1
102
RTVSPropertyOp12
 70
     1
102
RTVSPropertyOp13
 70
     1
102
RTVSPropertyOp14
 70
     1
102
RTVSPropertyOp15
 70
     1
102
RTVSPropertyOp16
 70
     1
102
RTVSPropertyOp17
 70
     1
102
RTVSPropertyOp18
 70
     1
102
RTVSPropertyOp19
 70
     1
102
RTVSPropertyOp20
 70
     1
102
RTVSPropertyOp21
 70
     1
102
RTVSPropertyOp22
 70
     1
102
RTVSPropertyOp23
 70
     1
102
RTVSPropertyOp24
 70
     1
102
RTVSPropertyOp25
 70
     1
102
RTVSPropertyOp26
 70
     1
102
RTVSPropertyOp27
 70
     1
102
RTVSPropertyOp28
 70
     1
102
RTVSPropertyOp29
 70
     1
102
RTVSPropertyOp30
 70
     1
102
RTVSPropertyOp31
 70
     1
102
RTVSPropertyOp32
 70
     1
102
RTVSPropertyOp33
 70
     1
102
RTVSPropertyOp34
 70
     1
102
RTVSPropertyOp35
 70
     1
102
RTVSPropertyOp36
 70
     1
102
RTVSPropertyOp37
 70
     1
102
RTVSPropertyOp38
 70
     1
102
RTVSPropertyOp39
 70
     1
102
RTVSPropertyOp40
 70
     1
102
RTVSPropertyOp41
 70
     1
102
RTVSPropertyOp42
 70
     1
102
RTVSPropertyOp43
 70
     1
102
RTVSPropertyOp44
 70
     1
102
RTVSPropertyOp45
 70
     1
102
RTVSPropertyOp46
 70
     1
102
RTVSPropertyOp47
 70
     1
102
RTVSPropertyOp48
 70
     1
102
RTVSPropertyOp49
 70
     1
102
RTVSPropertyOp50
 70
     1
102
RTVSPropertyOp51
 70
     0
102
RTVSPropertyOp52
 70
     0
102
RTVSPropertyOp53
 70
     1
102
RTVSPropertyOp54
 70
     1
102
RTVSPropertyOp55
 70
     1
102
RTVSPropertyOp56
 70
     1
102
RTVSPropertyOp57
 70
     1
102
RTVSPropertyOp58
 70
     1
102
RTVSPropertyOp59
 70
     1
102
RTVSPropertyOp60
 70
     1
102
RTVSPropertyOp61
 70
     1
102
RTVSPropertyOp62
 70
     1
  0
XRECORD
  5
161A
102
{ACAD_REACTORS
330
1619
102
}
330
1619
100
AcDbXrecord
280
     1
102
RTVSPost2010Prop28
280
     0
102
RTVSPost2010PropOp28
 70
     1
102
RTVSPost2010Prop29
280
     1
102
RTVSPost2010PropOp29
 70
     1
102
RTVSPost2010Prop30
280
     1
102
RTVSPost2010PropOp30
 70
     1
102
RTVSPost2010Prop31
280
     0
102
RTVSPost2010PropOp31
 70
     1
102
RTVSPost2010Prop32
280
     0
102
RTVSPost2010PropOp32
 70
     1
102
RTVSPost2010Prop33
280
     0
102
RTVSPost2010PropOp33
 70
     1
102
RTVSPost2010Prop34
280
     0
102
RTVSPost2010PropOp34
 70
     1
102
RTVSPost2010Prop35
280
     0
102
RTVSPost2010PropOp35
 70
     1
102
RTVSPost2010Prop36
280
     0
102
RTVSPost2010PropOp36
 70
     1
102
RTVSPost2010Prop37
 90
       50
102
RTVSPost2010PropOp37
 70
     1
102
RTVSPost2010Prop38
140
0.0
102
RTVSPost2010PropOp38
 70
     1
102
RTVSPost2010Prop39
140
1.0
102
RTVSPost2010PropOp39
 70
     1
102
RTVSPost2010Prop40
 90
        0
102
RTVSPost2010PropOp40
 70
     1
102
RTVSPost2010Prop41ColorIndex
 90
       18
102
RTVSPost2010Prop41ColorRGB
 90
        0
102
RTVSPost2010PropOp41
 70
     1
102
RTVSPost2010Prop42
 90
       50
102
RTVSPost2010PropOp42
 70
     1
102
RTVSPost2010Prop43
 90
        3
102
RTVSPost2010PropOp43
 70
     1
102
RTVSPost2010Prop44ColorIndex
 90
        5
102
RTVSPost2010Prop44ColorRGB
 90
      255
102
RTVSPost2010PropOp44
 70
     1
102
RTVSPost2010Prop45
280
     0
102
RTVSPost2010PropOp45
 70
     1
102
RTVSPost2010Prop46
 90
       50
102
RTVSPost2010PropOp46
 70
     1
102
RTVSPost2010Prop47
 90
       50
102
RTVSPost2010PropOp47
 70
     1
102
RTVSPost2010Prop48
 90
       50
102
RTVSPost2010PropOp48
 70
     1
102
RTVSPost2010Prop49
280
     0
102
RTVSPost2010PropOp49
 70
     1
102
RTVSPost2010Prop50
 90
       50
102
RTVSPost2010PropOp50
 70
     1
102
RTVSPost2010Prop51ColorIndex
 90
      256
102
RTVSPost2010Prop51ColorRGB
 90
-16777216
102
RTVSPost2010PropOp51
 70
     0
102
RTVSPost2010Prop52
140
1.0
102
RTVSPost2010PropOp52
 70
     0
102
RTVSPost2010Prop53
 90
        2
102
RTVSPost2010PropOp53
 70
     1
102
RTVSPost2010Prop54
  1
strokes_ogs.tif
102
RTVSPost2010PropOp54
 70
     1
102
RTVSPost2010Prop55
280
     0
102
RTVSPost2010PropOp55
 70
     1
102
RTVSPost2010Prop56
140
1.0
102
RTVSPost2010PropOp56
 70
     1
102
RTVSPost2010Prop57
140
1.0
102
RTVSPost2010PropOp57
 70
     1
102
RTVSPropertyOp0
 70
     1
102
RTVSPropertyOp1
 70
     1
102
RTVSPropertyOp2
 70
     1
102
RTVSPropertyOp3
 70
     1
102
RTVSPropertyOp4
 70
     1
102
RTVSPropertyOp5
 70
     1
102
RTVSPropertyOp6
 70
     1
102
RTVSPropertyOp7
 70
     1
102
RTVSPropertyOp8
 70
     1
102
RTVSPropertyOp9
 70
     1
102
RTVSPropertyOp10
 70
     1
102
RTVSPropertyOp11
 70
     1
102
RTVSPropertyOp12
 70
     1
102
RTVSPropertyOp13
 70
     1
102
RTVSPropertyOp14
 70
     1
102
RTVSPropertyOp15
 70
     1
102
RTVSPropertyOp16
 70
     1
102
RTVSPropertyOp17
 70
     1
102
RTVSPropertyOp18
 70
     1
102
RTVSPropertyOp19
 70
     1
102
RTVSPropertyOp20
 70
     1
102
RTVSPropertyOp21
 70
     1
102
RTVSPropertyOp22
 70
     1
102
RTVSPropertyOp23
 70
     1
102
RTVSPropertyOp24
 70
     1
102
RTVSPropertyOp25
 70
     1
102
RTVSPropertyOp26
 70
     1
102
RTVSPropertyOp27
 70
     1
102
RTVSPropertyOp28
 70
     1
102
RTVSPropertyOp29
 70
     1
102
RTVSPropertyOp30
 70
     1
102
RTVSPropertyOp31
 70
     1
102
RTVSPropertyOp32
 70
     1
102
RTVSPropertyOp33
 70
     1
102
RTVSPropertyOp34
 70
     1
102
RTVSPropertyOp35
 70
     1
102
RTVSPropertyOp36
 70
     1
102
RTVSPropertyOp37
 70
     1
102
RTVSPropertyOp38
 70
     1
102
RTVSPropertyOp39
 70
     1
102
RTVSPropertyOp40
 70
     1
102
RTVSPropertyOp41
 70
     1
102
RTVSPropertyOp42
 70
     1
102
RTVSPropertyOp43
 70
     1
102
RTVSPropertyOp44
 70
     1
102
RTVSPropertyOp45
 70
     1
102
RTVSPropertyOp46
 70
     1
102
RTVSPropertyOp47
 70
     1
102
RTVSPropertyOp48
 70
     1
102
RTVSPropertyOp49
 70
     1
102
RTVSPropertyOp50
 70
     1
102
RTVSPropertyOp51
 70
     0
102
RTVSPropertyOp52
 70
     0
102
RTVSPropertyOp53
 70
     1
102
RTVSPropertyOp54
 70
     1
102
RTVSPropertyOp55
 70
     1
102
RTVSPropertyOp56
 70
     1
102
RTVSPropertyOp57
 70
     1
102
RTVSPropertyOp58
 70
     1
102
RTVSPropertyOp59
 70
     1
102
RTVSPropertyOp60
 70
     1
102
RTVSPropertyOp61
 70
     1
102
RTVSPropertyOp62
 70
     1
  0
XRECORD
  5
1622
102
{ACAD_REACTORS
330
1621
102
}
330
1621
100
AcDbXrecord
280
     1
102
RTVSPost2010Prop28
280
     0
102
RTVSPost2010PropOp28
 70
     1
102
RTVSPost2010Prop29
280
     1
102
RTVSPost2010PropOp29
 70
     1
102
RTVSPost2010Prop30
280
     1
102
RTVSPost2010PropOp30
 70
     1
102
RTVSPost2010Prop31
280
     0
102
RTVSPost2010PropOp31
 70
     1
102
RTVSPost2010Prop32
280
     0
102
RTVSPost2010PropOp32
 70
     1
102
RTVSPost2010Prop33
280
     0
102
RTVSPost2010PropOp33
 70
     1
102
RTVSPost2010Prop34
280
     0
102
RTVSPost2010PropOp34
 70
     1
102
RTVSPost2010Prop35
280
     0
102
RTVSPost2010PropOp35
 70
     1
102
RTVSPost2010Prop36
280
     0
102
RTVSPost2010PropOp36
 70
     1
102
RTVSPost2010Prop37
 90
       50
102
RTVSPost2010PropOp37
 70
     1
102
RTVSPost2010Prop38
140
0.0
102
RTVSPost2010PropOp38
 70
     1
102
RTVSPost2010Prop39
140
1.0
102
RTVSPost2010PropOp39
 70
     1
102
RTVSPost2010Prop40
 90
        0
102
RTVSPost2010PropOp40
 70
     1
102
RTVSPost2010Prop41ColorIndex
 90
       18
102
RTVSPost2010Prop41ColorRGB
 90
        0
102
RTVSPost2010PropOp41
 70
     1
102
RTVSPost2010Prop42
 90
       50
102
RTVSPost2010PropOp42
 70
     1
102
RTVSPost2010Prop43
 90
        3
102
RTVSPost2010PropOp43
 70
     1
102
RTVSPost2010Prop44ColorIndex
 90
        5
102
RTVSPost2010Prop44ColorRGB
 90
      255
102
RTVSPost2010PropOp44
 70
     1
102
RTVSPost2010Prop45
280
     0
102
RTVSPost2010PropOp45
 70
     1
102
RTVSPost2010Prop46
 90
       50
102
RTVSPost2010PropOp46
 70
     1
102
RTVSPost2010Prop47
 90
       50
102
RTVSPost2010PropOp47
 70
     1
102
RTVSPost2010Prop48
 90
       50
102
RTVSPost2010PropOp48
 70
     1
102
RTVSPost2010Prop49
280
     0
102
RTVSPost2010PropOp49
 70
     1
102
RTVSPost2010Prop50
 90
       50
102
RTVSPost2010PropOp50
 70
     1
102
RTVSPost2010Prop51ColorIndex
 90
      256
102
RTVSPost2010Prop51ColorRGB
 90
-16777216
102
RTVSPost2010PropOp51
 70
     0
102
RTVSPost2010Prop52
140
1.0
102
RTVSPost2010PropOp52
 70
     0
102
RTVSPost2010Prop53
 90
        2
102
RTVSPost2010PropOp53
 70
     1
102
RTVSPost2010Prop54
  1
strokes_ogs.tif
102
RTVSPost2010PropOp54
 70
     1
102
RTVSPost2010Prop55
280
     0
102
RTVSPost2010PropOp55
 70
     1
102
RTVSPost2010Prop56
140
1.0
102
RTVSPost2010PropOp56
 70
     1
102
RTVSPost2010Prop57
140
1.0
102
RTVSPost2010PropOp57
 70
     1
102
RTVSPropertyOp0
 70
     1
102
RTVSPropertyOp1
 70
     1
102
RTVSPropertyOp2
 70
     1
102
RTVSPropertyOp3
 70
     1
102
RTVSPropertyOp4
 70
     1
102
RTVSPropertyOp5
 70
     1
102
RTVSPropertyOp6
 70
     1
102
RTVSPropertyOp7
 70
     1
102
RTVSPropertyOp8
 70
     1
102
RTVSPropertyOp9
 70
     1
102
RTVSPropertyOp10
 70
     1
102
RTVSPropertyOp11
 70
     1
102
RTVSPropertyOp12
 70
     1
102
RTVSPropertyOp13
 70
     1
102
RTVSPropertyOp14
 70
     1
102
RTVSPropertyOp15
 70
     1
102
RTVSPropertyOp16
 70
     1
102
RTVSPropertyOp17
 70
     1
102
RTVSPropertyOp18
 70
     1
102
RTVSPropertyOp19
 70
     1
102
RTVSPropertyOp20
 70
     1
102
RTVSPropertyOp21
 70
     1
102
RTVSPropertyOp22
 70
     1
102
RTVSPropertyOp23
 70
     1
102
RTVSPropertyOp24
 70
     1
102
RTVSPropertyOp25
 70
     1
102
RTVSPropertyOp26
 70
     1
102
RTVSPropertyOp27
 70
     1
102
RTVSPropertyOp28
 70
     1
102
RTVSPropertyOp29
 70
     1
102
RTVSPropertyOp30
 70
     1
102
RTVSPropertyOp31
 70
     1
102
RTVSPropertyOp32
 70
     1
102
RTVSPropertyOp33
 70
     1
102
RTVSPropertyOp34
 70
     1
102
RTVSPropertyOp35
 70
     1
102
RTVSPropertyOp36
 70
     1
102
RTVSPropertyOp37
 70
     1
102
RTVSPropertyOp38
 70
     1
102
RTVSPropertyOp39
 70
     1
102
RTVSPropertyOp40
 70
     1
102
RTVSPropertyOp41
 70
     1
102
RTVSPropertyOp42
 70
     1
102
RTVSPropertyOp43
 70
     1
102
RTVSPropertyOp44
 70
     1
102
RTVSPropertyOp45
 70
     1
102
RTVSPropertyOp46
 70
     1
102
RTVSPropertyOp47
 70
     1
102
RTVSPropertyOp48
 70
     1
102
RTVSPropertyOp49
 70
     1
102
RTVSPropertyOp50
 70
     1
102
RTVSPropertyOp51
 70
     0
102
RTVSPropertyOp52
 70
     0
102
RTVSPropertyOp53
 70
     1
102
RTVSPropertyOp54
 70
     1
102
RTVSPropertyOp55
 70
     1
102
RTVSPropertyOp56
 70
     1
102
RTVSPropertyOp57
 70
     1
102
RTVSPropertyOp58
 70
     1
102
RTVSPropertyOp59
 70
     1
102
RTVSPropertyOp60
 70
     1
102
RTVSPropertyOp61
 70
     1
102
RTVSPropertyOp62
 70
     1
  0
XRECORD
  5
1614
102
{ACAD_REACTORS
330
1613
102
}
330
1613
100
AcDbXrecord
280
     1
102
RTVSPost2010Prop28
280
     0
102
RTVSPost2010PropOp28
 70
     1
102
RTVSPost2010Prop29
280
     1
102
RTVSPost2010PropOp29
 70
     1
102
RTVSPost2010Prop30
280
     1
102
RTVSPost2010PropOp30
 70
     1
102
RTVSPost2010Prop31
280
     0
102
RTVSPost2010PropOp31
 70
     1
102
RTVSPost2010Prop32
280
     0
102
RTVSPost2010PropOp32
 70
     1
102
RTVSPost2010Prop33
280
     0
102
RTVSPost2010PropOp33
 70
     1
102
RTVSPost2010Prop34
280
     0
102
RTVSPost2010PropOp34
 70
     1
102
RTVSPost2010Prop35
280
     0
102
RTVSPost2010PropOp35
 70
     1
102
RTVSPost2010Prop36
280
     0
102
RTVSPost2010PropOp36
 70
     1
102
RTVSPost2010Prop37
 90
       50
102
RTVSPost2010PropOp37
 70
     1
102
RTVSPost2010Prop38
140
0.0
102
RTVSPost2010PropOp38
 70
     1
102
RTVSPost2010Prop39
140
1.0
102
RTVSPost2010PropOp39
 70
     1
102
RTVSPost2010Prop40
 90
        0
102
RTVSPost2010PropOp40
 70
     1
102
RTVSPost2010Prop41ColorIndex
 90
       18
102
RTVSPost2010Prop41ColorRGB
 90
        0
102
RTVSPost2010PropOp41
 70
     1
102
RTVSPost2010Prop42
 90
       50
102
RTVSPost2010PropOp42
 70
     1
102
RTVSPost2010Prop43
 90
        3
102
RTVSPost2010PropOp43
 70
     1
102
RTVSPost2010Prop44ColorIndex
 90
        5
102
RTVSPost2010Prop44ColorRGB
 90
      255
102
RTVSPost2010PropOp44
 70
     1
102
RTVSPost2010Prop45
280
     0
102
RTVSPost2010PropOp45
 70
     1
102
RTVSPost2010Prop46
 90
       50
102
RTVSPost2010PropOp46
 70
     1
102
RTVSPost2010Prop47
 90
       50
102
RTVSPost2010PropOp47
 70
     1
102
RTVSPost2010Prop48
 90
       50
102
RTVSPost2010PropOp48
 70
     1
102
RTVSPost2010Prop49
280
     0
102
RTVSPost2010PropOp49
 70
     1
102
RTVSPost2010Prop50
 90
       50
102
RTVSPost2010PropOp50
 70
     1
102
RTVSPost2010Prop51ColorIndex
 90
      256
102
RTVSPost2010Prop51ColorRGB
 90
-16777216
102
RTVSPost2010PropOp51
 70
     0
102
RTVSPost2010Prop52
140
1.0
102
RTVSPost2010PropOp52
 70
     0
102
RTVSPost2010Prop53
 90
        2
102
RTVSPost2010PropOp53
 70
     1
102
RTVSPost2010Prop54
  1
strokes_ogs.tif
102
RTVSPost2010PropOp54
 70
     1
102
RTVSPost2010Prop55
280
     0
102
RTVSPost2010PropOp55
 70
     1
102
RTVSPost2010Prop56
140
1.0
102
RTVSPost2010PropOp56
 70
     1
102
RTVSPost2010Prop57
140
1.0
102
RTVSPost2010PropOp57
 70
     1
102
RTVSPropertyOp0
 70
     1
102
RTVSPropertyOp1
 70
     1
102
RTVSPropertyOp2
 70
     1
102
RTVSPropertyOp3
 70
     1
102
RTVSPropertyOp4
 70
     1
102
RTVSPropertyOp5
 70
     1
102
RTVSPropertyOp6
 70
     1
102
RTVSPropertyOp7
 70
     1
102
RTVSPropertyOp8
 70
     1
102
RTVSPropertyOp9
 70
     1
102
RTVSPropertyOp10
 70
     1
102
RTVSPropertyOp11
 70
     1
102
RTVSPropertyOp12
 70
     1
102
RTVSPropertyOp13
 70
     1
102
RTVSPropertyOp14
 70
     1
102
RTVSPropertyOp15
 70
     1
102
RTVSPropertyOp16
 70
     1
102
RTVSPropertyOp17
 70
     1
102
RTVSPropertyOp18
 70
     1
102
RTVSPropertyOp19
 70
     1
102
RTVSPropertyOp20
 70
     1
102
RTVSPropertyOp21
 70
     1
102
RTVSPropertyOp22
 70
     1
102
RTVSPropertyOp23
 70
     1
102
RTVSPropertyOp24
 70
     1
102
RTVSPropertyOp25
 70
     1
102
RTVSPropertyOp26
 70
     1
102
RTVSPropertyOp27
 70
     1
102
RTVSPropertyOp28
 70
     1
102
RTVSPropertyOp29
 70
     1
102
RTVSPropertyOp30
 70
     1
102
RTVSPropertyOp31
 70
     1
102
RTVSPropertyOp32
 70
     1
102
RTVSPropertyOp33
 70
     1
102
RTVSPropertyOp34
 70
     1
102
RTVSPropertyOp35
 70
     1
102
RTVSPropertyOp36
 70
     1
102
RTVSPropertyOp37
 70
     1
102
RTVSPropertyOp38
 70
     1
102
RTVSPropertyOp39
 70
     1
102
RTVSPropertyOp40
 70
     1
102
RTVSPropertyOp41
 70
     1
102
RTVSPropertyOp42
 70
     1
102
RTVSPropertyOp43
 70
     1
102
RTVSPropertyOp44
 70
     1
102
RTVSPropertyOp45
 70
     1
102
RTVSPropertyOp46
 70
     1
102
RTVSPropertyOp47
 70
     1
102
RTVSPropertyOp48
 70
     1
102
RTVSPropertyOp49
 70
     1
102
RTVSPropertyOp50
 70
     1
102
RTVSPropertyOp51
 70
     0
102
RTVSPropertyOp52
 70
     0
102
RTVSPropertyOp53
 70
     1
102
RTVSPropertyOp54
 70
     1
102
RTVSPropertyOp55
 70
     1
102
RTVSPropertyOp56
 70
     1
102
RTVSPropertyOp57
 70
     1
102
RTVSPropertyOp58
 70
     1
102
RTVSPropertyOp59
 70
     1
102
RTVSPropertyOp60
 70
     1
102
RTVSPropertyOp61
 70
     1
102
RTVSPropertyOp62
 70
     1
  0
XRECORD
  5
1618
102
{ACAD_REACTORS
330
1617
102
}
330
1617
100
AcDbXrecord
280
     1
102
RTVSPost2010Prop28
280
     0
102
RTVSPost2010PropOp28
 70
     1
102
RTVSPost2010Prop29
280
     1
102
RTVSPost2010PropOp29
 70
     1
102
RTVSPost2010Prop30
280
     1
102
RTVSPost2010PropOp30
 70
     1
102
RTVSPost2010Prop31
280
     0
102
RTVSPost2010PropOp31
 70
     1
102
RTVSPost2010Prop32
280
     0
102
RTVSPost2010PropOp32
 70
     1
102
RTVSPost2010Prop33
280
     0
102
RTVSPost2010PropOp33
 70
     1
102
RTVSPost2010Prop34
280
     0
102
RTVSPost2010PropOp34
 70
     1
102
RTVSPost2010Prop35
280
     0
102
RTVSPost2010PropOp35
 70
     1
102
RTVSPost2010Prop36
280
     0
102
RTVSPost2010PropOp36
 70
     1
102
RTVSPost2010Prop37
 90
       50
102
RTVSPost2010PropOp37
 70
     1
102
RTVSPost2010Prop38
140
0.0
102
RTVSPost2010PropOp38
 70
     1
102
RTVSPost2010Prop39
140
1.0
102
RTVSPost2010PropOp39
 70
     1
102
RTVSPost2010Prop40
 90
        0
102
RTVSPost2010PropOp40
 70
     1
102
RTVSPost2010Prop41ColorIndex
 90
       18
102
RTVSPost2010Prop41ColorRGB
 90
        0
102
RTVSPost2010PropOp41
 70
     1
102
RTVSPost2010Prop42
 90
       50
102
RTVSPost2010PropOp42
 70
     1
102
RTVSPost2010Prop43
 90
        3
102
RTVSPost2010PropOp43
 70
     1
102
RTVSPost2010Prop44ColorIndex
 90
        5
102
RTVSPost2010Prop44ColorRGB
 90
      255
102
RTVSPost2010PropOp44
 70
     1
102
RTVSPost2010Prop45
280
     0
102
RTVSPost2010PropOp45
 70
     1
102
RTVSPost2010Prop46
 90
       50
102
RTVSPost2010PropOp46
 70
     1
102
RTVSPost2010Prop47
 90
       50
102
RTVSPost2010PropOp47
 70
     1
102
RTVSPost2010Prop48
 90
       50
102
RTVSPost2010PropOp48
 70
     1
102
RTVSPost2010Prop49
280
     0
102
RTVSPost2010PropOp49
 70
     1
102
RTVSPost2010Prop50
 90
       50
102
RTVSPost2010PropOp50
 70
     1
102
RTVSPost2010Prop51ColorIndex
 90
      256
102
RTVSPost2010Prop51ColorRGB
 90
-16777216
102
RTVSPost2010PropOp51
 70
     0
102
RTVSPost2010Prop52
140
1.0
102
RTVSPost2010PropOp52
 70
     0
102
RTVSPost2010Prop53
 90
        2
102
RTVSPost2010PropOp53
 70
     1
102
RTVSPost2010Prop54
  1
strokes_ogs.tif
102
RTVSPost2010PropOp54
 70
     1
102
RTVSPost2010Prop55
280
     0
102
RTVSPost2010PropOp55
 70
     1
102
RTVSPost2010Prop56
140
1.0
102
RTVSPost2010PropOp56
 70
     1
102
RTVSPost2010Prop57
140
1.0
102
RTVSPost2010PropOp57
 70
     1
102
RTVSPropertyOp0
 70
     1
102
RTVSPropertyOp1
 70
     1
102
RTVSPropertyOp2
 70
     1
102
RTVSPropertyOp3
 70
     1
102
RTVSPropertyOp4
 70
     1
102
RTVSPropertyOp5
 70
     1
102
RTVSPropertyOp6
 70
     1
102
RTVSPropertyOp7
 70
     1
102
RTVSPropertyOp8
 70
     1
102
RTVSPropertyOp9
 70
     1
102
RTVSPropertyOp10
 70
     1
102
RTVSPropertyOp11
 70
     1
102
RTVSPropertyOp12
 70
     1
102
RTVSPropertyOp13
 70
     1
102
RTVSPropertyOp14
 70
     1
102
RTVSPropertyOp15
 70
     1
102
RTVSPropertyOp16
 70
     1
102
RTVSPropertyOp17
 70
     1
102
RTVSPropertyOp18
 70
     1
102
RTVSPropertyOp19
 70
     1
102
RTVSPropertyOp20
 70
     1
102
RTVSPropertyOp21
 70
     1
102
RTVSPropertyOp22
 70
     1
102
RTVSPropertyOp23
 70
     1
102
RTVSPropertyOp24
 70
     1
102
RTVSPropertyOp25
 70
     1
102
RTVSPropertyOp26
 70
     1
102
RTVSPropertyOp27
 70
     1
102
RTVSPropertyOp28
 70
     1
102
RTVSPropertyOp29
 70
     1
102
RTVSPropertyOp30
 70
     1
102
RTVSPropertyOp31
 70
     1
102
RTVSPropertyOp32
 70
     1
102
RTVSPropertyOp33
 70
     1
102
RTVSPropertyOp34
 70
     1
102
RTVSPropertyOp35
 70
     1
102
RTVSPropertyOp36
 70
     1
102
RTVSPropertyOp37
 70
     1
102
RTVSPropertyOp38
 70
     1
102
RTVSPropertyOp39
 70
     1
102
RTVSPropertyOp40
 70
     1
102
RTVSPropertyOp41
 70
     1
102
RTVSPropertyOp42
 70
     1
102
RTVSPropertyOp43
 70
     1
102
RTVSPropertyOp44
 70
     1
102
RTVSPropertyOp45
 70
     1
102
RTVSPropertyOp46
 70
     1
102
RTVSPropertyOp47
 70
     1
102
RTVSPropertyOp48
 70
     1
102
RTVSPropertyOp49
 70
     1
102
RTVSPropertyOp50
 70
     1
102
RTVSPropertyOp51
 70
     0
102
RTVSPropertyOp52
 70
     0
102
RTVSPropertyOp53
 70
     1
102
RTVSPropertyOp54
 70
     1
102
RTVSPropertyOp55
 70
     1
102
RTVSPropertyOp56
 70
     1
102
RTVSPropertyOp57
 70
     1
102
RTVSPropertyOp58
 70
     1
102
RTVSPropertyOp59
 70
     1
102
RTVSPropertyOp60
 70
     1
102
RTVSPropertyOp61
 70
     1
102
RTVSPropertyOp62
 70
     1
  0
XRECORD
  5
1632
102
{ACAD_REACTORS
330
1631
102
}
330
1631
100
AcDbXrecord
280
     1
102
RTVSPost2010Prop28
280
     0
102
RTVSPost2010PropOp28
 70
     1
102
RTVSPost2010Prop29
280
     1
102
RTVSPost2010PropOp29
 70
     1
102
RTVSPost2010Prop30
280
     1
102
RTVSPost2010PropOp30
 70
     1
102
RTVSPost2010Prop31
280
     0
102
RTVSPost2010PropOp31
 70
     1
102
RTVSPost2010Prop32
280
     0
102
RTVSPost2010PropOp32
 70
     1
102
RTVSPost2010Prop33
280
     0
102
RTVSPost2010PropOp33
 70
     1
102
RTVSPost2010Prop34
280
     0
102
RTVSPost2010PropOp34
 70
     1
102
RTVSPost2010Prop35
280
     0
102
RTVSPost2010PropOp35
 70
     1
102
RTVSPost2010Prop36
280
     0
102
RTVSPost2010PropOp36
 70
     1
102
RTVSPost2010Prop37
 90
       50
102
RTVSPost2010PropOp37
 70
     0
102
RTVSPost2010Prop38
140
0.0
102
RTVSPost2010PropOp38
 70
     0
102
RTVSPost2010Prop39
140
1.0
102
RTVSPost2010PropOp39
 70
     0
102
RTVSPost2010Prop40
 90
        0
102
RTVSPost2010PropOp40
 70
     0
102
RTVSPost2010Prop41ColorIndex
 90
       18
102
RTVSPost2010Prop41ColorRGB
 90
        0
102
RTVSPost2010PropOp41
 70
     0
102
RTVSPost2010Prop42
 90
       50
102
RTVSPost2010PropOp42
 70
     0
102
RTVSPost2010Prop43
 90
        3
102
RTVSPost2010PropOp43
 70
     0
102
RTVSPost2010Prop44ColorIndex
 90
        5
102
RTVSPost2010Prop44ColorRGB
 90
      255
102
RTVSPost2010PropOp44
 70
     0
102
RTVSPost2010Prop45
280
     0
102
RTVSPost2010PropOp45
 70
     1
102
RTVSPost2010Prop46
 90
       50
102
RTVSPost2010PropOp46
 70
     0
102
RTVSPost2010Prop47
 90
       50
102
RTVSPost2010PropOp47
 70
     0
102
RTVSPost2010Prop48
 90
       50
102
RTVSPost2010PropOp48
 70
     0
102
RTVSPost2010Prop49
280
     0
102
RTVSPost2010PropOp49
 70
     1
102
RTVSPost2010Prop50
 90
       50
102
RTVSPost2010PropOp50
 70
     0
102
RTVSPost2010Prop51ColorIndex
 90
      256
102
RTVSPost2010Prop51ColorRGB
 90
-16777216
102
RTVSPost2010PropOp51
 70
     0
102
RTVSPost2010Prop52
140
1.0
102
RTVSPost2010PropOp52
 70
     0
102
RTVSPost2010Prop53
 90
        2
102
RTVSPost2010PropOp53
 70
     0
102
RTVSPost2010Prop54
  1
strokes_ogs.tif
102
RTVSPost2010PropOp54
 70
     0
102
RTVSPost2010Prop55
280
     0
102
RTVSPost2010PropOp55
 70
     1
102
RTVSPost2010Prop56
140
1.0
102
RTVSPost2010PropOp56
 70
     0
102
RTVSPost2010Prop57
140
1.0
102
RTVSPost2010PropOp57
 70
     0
102
RTVSPropertyOp0
 70
     0
102
RTVSPropertyOp1
 70
     0
102
RTVSPropertyOp2
 70
     0
102
RTVSPropertyOp3
 70
     0
102
RTVSPropertyOp4
 70
     0
102
RTVSPropertyOp5
 70
     0
102
RTVSPropertyOp6
 70
     0
102
RTVSPropertyOp7
 70
     0
102
RTVSPropertyOp8
 70
     0
102
RTVSPropertyOp9
 70
     0
102
RTVSPropertyOp10
 70
     0
102
RTVSPropertyOp11
 70
     0
102
RTVSPropertyOp12
 70
     0
102
RTVSPropertyOp13
 70
     0
102
RTVSPropertyOp14
 70
     2
102
RTVSPropertyOp15
 70
     0
102
RTVSPropertyOp16
 70
     0
102
RTVSPropertyOp17
 70
     0
102
RTVSPropertyOp18
 70
     0
102
RTVSPropertyOp19
 70
     0
102
RTVSPropertyOp20
 70
     0
102
RTVSPropertyOp21
 70
     0
102
RTVSPropertyOp22
 70
     0
102
RTVSPropertyOp23
 70
     0
102
RTVSPropertyOp24
 70
     0
102
RTVSPropertyOp25
 70
     0
102
RTVSPropertyOp26
 70
     0
102
RTVSPropertyOp27
 70
     0
102
RTVSPropertyOp28
 70
     1
102
RTVSPropertyOp29
 70
     1
102
RTVSPropertyOp30
 70
     1
102
RTVSPropertyOp31
 70
     1
102
RTVSPropertyOp32
 70
     1
102
RTVSPropertyOp33
 70
     1
102
RTVSPropertyOp34
 70
     1
102
RTVSPropertyOp35
 70
     1
102
RTVSPropertyOp36
 70
     1
102
RTVSPropertyOp37
 70
     0
102
RTVSPropertyOp38
 70
     0
102
RTVSPropertyOp39
 70
     0
102
RTVSPropertyOp40
 70
     0
102
RTVSPropertyOp41
 70
     0
102
RTVSPropertyOp42
 70
     0
102
RTVSPropertyOp43
 70
     0
102
RTVSPropertyOp44
 70
     0
102
RTVSPropertyOp45
 70
     1
102
RTVSPropertyOp46
 70
     0
102
RTVSPropertyOp47
 70
     0
102
RTVSPropertyOp48
 70
     0
102
RTVSPropertyOp49
 70
     1
102
RTVSPropertyOp50
 70
     0
102
RTVSPropertyOp51
 70
     0
102
RTVSPropertyOp52
 70
     0
102
RTVSPropertyOp53
 70
     0
102
RTVSPropertyOp54
 70
     0
102
RTVSPropertyOp55
 70
     1
102
RTVSPropertyOp56
 70
     0
102
RTVSPropertyOp57
 70
     0
102
RTVSPropertyOp58
 70
     0
102
RTVSPropertyOp59
 70
     0
102
RTVSPropertyOp60
 70
     0
102
RTVSPropertyOp61
 70
     0
102
RTVSPropertyOp62
 70
     0
  0
XRECORD
  5
1620
102
{ACAD_REACTORS
330
161F
102
}
330
161F
100
AcDbXrecord
280
     1
102
RTVSPost2010Prop28
280
     0
102
RTVSPost2010PropOp28
 70
     1
102
RTVSPost2010Prop29
280
     1
102
RTVSPost2010PropOp29
 70
     1
102
RTVSPost2010Prop30
280
     1
102
RTVSPost2010PropOp30
 70
     1
102
RTVSPost2010Prop31
280
     0
102
RTVSPost2010PropOp31
 70
     1
102
RTVSPost2010Prop32
280
     0
102
RTVSPost2010PropOp32
 70
     1
102
RTVSPost2010Prop33
280
     0
102
RTVSPost2010PropOp33
 70
     1
102
RTVSPost2010Prop34
280
     0
102
RTVSPost2010PropOp34
 70
     1
102
RTVSPost2010Prop35
280
     0
102
RTVSPost2010PropOp35
 70
     1
102
RTVSPost2010Prop36
280
     0
102
RTVSPost2010PropOp36
 70
     1
102
RTVSPost2010Prop37
 90
       50
102
RTVSPost2010PropOp37
 70
     1
102
RTVSPost2010Prop38
140
0.0
102
RTVSPost2010PropOp38
 70
     1
102
RTVSPost2010Prop39
140
1.0
102
RTVSPost2010PropOp39
 70
     1
102
RTVSPost2010Prop40
 90
        0
102
RTVSPost2010PropOp40
 70
     1
102
RTVSPost2010Prop41ColorIndex
 90
       18
102
RTVSPost2010Prop41ColorRGB
 90
        0
102
RTVSPost2010PropOp41
 70
     1
102
RTVSPost2010Prop42
 90
       50
102
RTVSPost2010PropOp42
 70
     1
102
RTVSPost2010Prop43
 90
        3
102
RTVSPost2010PropOp43
 70
     1
102
RTVSPost2010Prop44ColorIndex
 90
        5
102
RTVSPost2010Prop44ColorRGB
 90
      255
102
RTVSPost2010PropOp44
 70
     1
102
RTVSPost2010Prop45
280
     0
102
RTVSPost2010PropOp45
 70
     1
102
RTVSPost2010Prop46
 90
       50
102
RTVSPost2010PropOp46
 70
     1
102
RTVSPost2010Prop47
 90
       50
102
RTVSPost2010PropOp47
 70
     1
102
RTVSPost2010Prop48
 90
       50
102
RTVSPost2010PropOp48
 70
     1
102
RTVSPost2010Prop49
280
     0
102
RTVSPost2010PropOp49
 70
     1
102
RTVSPost2010Prop50
 90
       50
102
RTVSPost2010PropOp50
 70
     1
102
RTVSPost2010Prop51ColorIndex
 90
      256
102
RTVSPost2010Prop51ColorRGB
 90
-16777216
102
RTVSPost2010PropOp51
 70
     0
102
RTVSPost2010Prop52
140
1.0
102
RTVSPost2010PropOp52
 70
     0
102
RTVSPost2010Prop53
 90
        2
102
RTVSPost2010PropOp53
 70
     1
102
RTVSPost2010Prop54
  1
strokes_ogs.tif
102
RTVSPost2010PropOp54
 70
     1
102
RTVSPost2010Prop55
280
     0
102
RTVSPost2010PropOp55
 70
     1
102
RTVSPost2010Prop56
140
1.0
102
RTVSPost2010PropOp56
 70
     1
102
RTVSPost2010Prop57
140
1.0
102
RTVSPost2010PropOp57
 70
     1
102
RTVSPropertyOp0
 70
     1
102
RTVSPropertyOp1
 70
     1
102
RTVSPropertyOp2
 70
     1
102
RTVSPropertyOp3
 70
     1
102
RTVSPropertyOp4
 70
     1
102
RTVSPropertyOp5
 70
     1
102
RTVSPropertyOp6
 70
     1
102
RTVSPropertyOp7
 70
     1
102
RTVSPropertyOp8
 70
     1
102
RTVSPropertyOp9
 70
     1
102
RTVSPropertyOp10
 70
     1
102
RTVSPropertyOp11
 70
     1
102
RTVSPropertyOp12
 70
     1
102
RTVSPropertyOp13
 70
     1
102
RTVSPropertyOp14
 70
     1
102
RTVSPropertyOp15
 70
     1
102
RTVSPropertyOp16
 70
     1
102
RTVSPropertyOp17
 70
     1
102
RTVSPropertyOp18
 70
     1
102
RTVSPropertyOp19
 70
     1
102
RTVSPropertyOp20
 70
     1
102
RTVSPropertyOp21
 70
     1
102
RTVSPropertyOp22
 70
     1
102
RTVSPropertyOp23
 70
     1
102
RTVSPropertyOp24
 70
     1
102
RTVSPropertyOp25
 70
     1
102
RTVSPropertyOp26
 70
     1
102
RTVSPropertyOp27
 70
     1
102
RTVSPropertyOp28
 70
     1
102
RTVSPropertyOp29
 70
     1
102
RTVSPropertyOp30
 70
     1
102
RTVSPropertyOp31
 70
     1
102
RTVSPropertyOp32
 70
     1
102
RTVSPropertyOp33
 70
     1
102
RTVSPropertyOp34
 70
     1
102
RTVSPropertyOp35
 70
     1
102
RTVSPropertyOp36
 70
     1
102
RTVSPropertyOp37
 70
     1
102
RTVSPropertyOp38
 70
     1
102
RTVSPropertyOp39
 70
     1
102
RTVSPropertyOp40
 70
     1
102
RTVSPropertyOp41
 70
     1
102
RTVSPropertyOp42
 70
     1
102
RTVSPropertyOp43
 70
     1
102
RTVSPropertyOp44
 70
     1
102
RTVSPropertyOp45
 70
     1
102
RTVSPropertyOp46
 70
     1
102
RTVSPropertyOp47
 70
     1
102
RTVSPropertyOp48
 70
     1
102
RTVSPropertyOp49
 70
     1
102
RTVSPropertyOp50
 70
     1
102
RTVSPropertyOp51
 70
     0
102
RTVSPropertyOp52
 70
     0
102
RTVSPropertyOp53
 70
     1
102
RTVSPropertyOp54
 70
     1
102
RTVSPropertyOp55
 70
     1
102
RTVSPropertyOp56
 70
     1
102
RTVSPropertyOp57
 70
     1
102
RTVSPropertyOp58
 70
     1
102
RTVSPropertyOp59
 70
     1
102
RTVSPropertyOp60
 70
     1
102
RTVSPropertyOp61
 70
     1
102
RTVSPropertyOp62
 70
     1
  0
XRECORD
  5
1604
102
{ACAD_REACTORS
330
1603
102
}
330
1603
100
AcDbXrecord
280
     1
102
RTVSPost2010Prop28
280
     0
102
RTVSPost2010PropOp28
 70
     1
102
RTVSPost2010Prop29
280
     1
102
RTVSPost2010PropOp29
 70
     1
102
RTVSPost2010Prop30
280
     1
102
RTVSPost2010PropOp30
 70
     1
102
RTVSPost2010Prop31
280
     0
102
RTVSPost2010PropOp31
 70
     1
102
RTVSPost2010Prop32
280
     0
102
RTVSPost2010PropOp32
 70
     1
102
RTVSPost2010Prop33
280
     0
102
RTVSPost2010PropOp33
 70
     1
102
RTVSPost2010Prop34
280
     0
102
RTVSPost2010PropOp34
 70
     1
102
RTVSPost2010Prop35
280
     0
102
RTVSPost2010PropOp35
 70
     1
102
RTVSPost2010Prop36
280
     0
102
RTVSPost2010PropOp36
 70
     1
102
RTVSPost2010Prop37
 90
       50
102
RTVSPost2010PropOp37
 70
     1
102
RTVSPost2010Prop38
140
0.0
102
RTVSPost2010PropOp38
 70
     1
102
RTVSPost2010Prop39
140
1.0
102
RTVSPost2010PropOp39
 70
     1
102
RTVSPost2010Prop40
 90
        0
102
RTVSPost2010PropOp40
 70
     1
102
RTVSPost2010Prop41ColorIndex
 90
       18
102
RTVSPost2010Prop41ColorRGB
 90
        0
102
RTVSPost2010PropOp41
 70
     1
102
RTVSPost2010Prop42
 90
       50
102
RTVSPost2010PropOp42
 70
     1
102
RTVSPost2010Prop43
 90
        3
102
RTVSPost2010PropOp43
 70
     1
102
RTVSPost2010Prop44ColorIndex
 90
        5
102
RTVSPost2010Prop44ColorRGB
 90
      255
102
RTVSPost2010PropOp44
 70
     1
102
RTVSPost2010Prop45
280
     0
102
RTVSPost2010PropOp45
 70
     1
102
RTVSPost2010Prop46
 90
       50
102
RTVSPost2010PropOp46
 70
     1
102
RTVSPost2010Prop47
 90
       50
102
RTVSPost2010PropOp47
 70
     1
102
RTVSPost2010Prop48
 90
       50
102
RTVSPost2010PropOp48
 70
     1
102
RTVSPost2010Prop49
280
     0
102
RTVSPost2010PropOp49
 70
     1
102
RTVSPost2010Prop50
 90
       50
102
RTVSPost2010PropOp50
 70
     1
102
RTVSPost2010Prop51ColorIndex
 90
      256
102
RTVSPost2010Prop51ColorRGB
 90
-16777216
102
RTVSPost2010PropOp51
 70
     0
102
RTVSPost2010Prop52
140
1.0
102
RTVSPost2010PropOp52
 70
     0
102
RTVSPost2010Prop53
 90
        2
102
RTVSPost2010PropOp53
 70
     1
102
RTVSPost2010Prop54
  1
strokes_ogs.tif
102
RTVSPost2010PropOp54
 70
     1
102
RTVSPost2010Prop55
280
     0
102
RTVSPost2010PropOp55
 70
     1
102
RTVSPost2010Prop56
140
1.0
102
RTVSPost2010PropOp56
 70
     1
102
RTVSPost2010Prop57
140
1.0
102
RTVSPost2010PropOp57
 70
     1
102
RTVSPropertyOp0
 70
     1
102
RTVSPropertyOp1
 70
     1
102
RTVSPropertyOp2
 70
     1
102
RTVSPropertyOp3
 70
     1
102
RTVSPropertyOp4
 70
     1
102
RTVSPropertyOp5
 70
     1
102
RTVSPropertyOp6
 70
     1
102
RTVSPropertyOp7
 70
     1
102
RTVSPropertyOp8
 70
     1
102
RTVSPropertyOp9
 70
     1
102
RTVSPropertyOp10
 70
     1
102
RTVSPropertyOp11
 70
     1
102
RTVSPropertyOp12
 70
     1
102
RTVSPropertyOp13
 70
     1
102
RTVSPropertyOp14
 70
     1
102
RTVSPropertyOp15
 70
     1
102
RTVSPropertyOp16
 70
     1
102
RTVSPropertyOp17
 70
     1
102
RTVSPropertyOp18
 70
     1
102
RTVSPropertyOp19
 70
     1
102
RTVSPropertyOp20
 70
     1
102
RTVSPropertyOp21
 70
     1
102
RTVSPropertyOp22
 70
     1
102
RTVSPropertyOp23
 70
     1
102
RTVSPropertyOp24
 70
     1
102
RTVSPropertyOp25
 70
     1
102
RTVSPropertyOp26
 70
     1
102
RTVSPropertyOp27
 70
     1
102
RTVSPropertyOp28
 70
     1
102
RTVSPropertyOp29
 70
     1
102
RTVSPropertyOp30
 70
     1
102
RTVSPropertyOp31
 70
     1
102
RTVSPropertyOp32
 70
     1
102
RTVSPropertyOp33
 70
     1
102
RTVSPropertyOp34
 70
     1
102
RTVSPropertyOp35
 70
     1
102
RTVSPropertyOp36
 70
     1
102
RTVSPropertyOp37
 70
     1
102
RTVSPropertyOp38
 70
     1
102
RTVSPropertyOp39
 70
     1
102
RTVSPropertyOp40
 70
     1
102
RTVSPropertyOp41
 70
     1
102
RTVSPropertyOp42
 70
     1
102
RTVSPropertyOp43
 70
     1
102
RTVSPropertyOp44
 70
     1
102
RTVSPropertyOp45
 70
     1
102
RTVSPropertyOp46
 70
     1
102
RTVSPropertyOp47
 70
     1
102
RTVSPropertyOp48
 70
     1
102
RTVSPropertyOp49
 70
     1
102
RTVSPropertyOp50
 70
     1
102
RTVSPropertyOp51
 70
     0
102
RTVSPropertyOp52
 70
     0
102
RTVSPropertyOp53
 70
     1
102
RTVSPropertyOp54
 70
     1
102
RTVSPropertyOp55
 70
     1
102
RTVSPropertyOp56
 70
     1
102
RTVSPropertyOp57
 70
     1
102
RTVSPropertyOp58
 70
     1
102
RTVSPropertyOp59
 70
     1
102
RTVSPropertyOp60
 70
     1
102
RTVSPropertyOp61
 70
     1
102
RTVSPropertyOp62
 70
     1
  0
XRECORD
  5
1606
102
{ACAD_REACTORS
330
1605
102
}
330
1605
100
AcDbXrecord
280
     1
102
RTVSPost2010Prop28
280
     0
102
RTVSPost2010PropOp28
 70
     1
102
RTVSPost2010Prop29
280
     1
102
RTVSPost2010PropOp29
 70
     1
102
RTVSPost2010Prop30
280
     1
102
RTVSPost2010PropOp30
 70
     1
102
RTVSPost2010Prop31
280
     0
102
RTVSPost2010PropOp31
 70
     1
102
RTVSPost2010Prop32
280
     0
102
RTVSPost2010PropOp32
 70
     1
102
RTVSPost2010Prop33
280
     0
102
RTVSPost2010PropOp33
 70
     1
102
RTVSPost2010Prop34
280
     0
102
RTVSPost2010PropOp34
 70
     1
102
RTVSPost2010Prop35
280
     0
102
RTVSPost2010PropOp35
 70
     1
102
RTVSPost2010Prop36
280
     0
102
RTVSPost2010PropOp36
 70
     1
102
RTVSPost2010Prop37
 90
       50
102
RTVSPost2010PropOp37
 70
     1
102
RTVSPost2010Prop38
140
0.0
102
RTVSPost2010PropOp38
 70
     1
102
RTVSPost2010Prop39
140
1.0
102
RTVSPost2010PropOp39
 70
     1
102
RTVSPost2010Prop40
 90
        0
102
RTVSPost2010PropOp40
 70
     1
102
RTVSPost2010Prop41ColorIndex
 90
       18
102
RTVSPost2010Prop41ColorRGB
 90
        0
102
RTVSPost2010PropOp41
 70
     1
102
RTVSPost2010Prop42
 90
       50
102
RTVSPost2010PropOp42
 70
     1
102
RTVSPost2010Prop43
 90
        3
102
RTVSPost2010PropOp43
 70
     1
102
RTVSPost2010Prop44ColorIndex
 90
        5
102
RTVSPost2010Prop44ColorRGB
 90
      255
102
RTVSPost2010PropOp44
 70
     1
102
RTVSPost2010Prop45
280
     0
102
RTVSPost2010PropOp45
 70
     1
102
RTVSPost2010Prop46
 90
       50
102
RTVSPost2010PropOp46
 70
     1
102
RTVSPost2010Prop47
 90
       50
102
RTVSPost2010PropOp47
 70
     1
102
RTVSPost2010Prop48
 90
       50
102
RTVSPost2010PropOp48
 70
     1
102
RTVSPost2010Prop49
280
     0
102
RTVSPost2010PropOp49
 70
     1
102
RTVSPost2010Prop50
 90
       50
102
RTVSPost2010PropOp50
 70
     1
102
RTVSPost2010Prop51ColorIndex
 90
      256
102
RTVSPost2010Prop51ColorRGB
 90
-16777216
102
RTVSPost2010PropOp51
 70
     0
102
RTVSPost2010Prop52
140
1.0
102
RTVSPost2010PropOp52
 70
     0
102
RTVSPost2010Prop53
 90
        2
102
RTVSPost2010PropOp53
 70
     1
102
RTVSPost2010Prop54
  1
strokes_ogs.tif
102
RTVSPost2010PropOp54
 70
     1
102
RTVSPost2010Prop55
280
     0
102
RTVSPost2010PropOp55
 70
     1
102
RTVSPost2010Prop56
140
1.0
102
RTVSPost2010PropOp56
 70
     1
102
RTVSPost2010Prop57
140
1.0
102
RTVSPost2010PropOp57
 70
     1
102
RTVSPropertyOp0
 70
     1
102
RTVSPropertyOp1
 70
     1
102
RTVSPropertyOp2
 70
     1
102
RTVSPropertyOp3
 70
     1
102
RTVSPropertyOp4
 70
     1
102
RTVSPropertyOp5
 70
     1
102
RTVSPropertyOp6
 70
     1
102
RTVSPropertyOp7
 70
     1
102
RTVSPropertyOp8
 70
     1
102
RTVSPropertyOp9
 70
     1
102
RTVSPropertyOp10
 70
     1
102
RTVSPropertyOp11
 70
     1
102
RTVSPropertyOp12
 70
     1
102
RTVSPropertyOp13
 70
     1
102
RTVSPropertyOp14
 70
     1
102
RTVSPropertyOp15
 70
     1
102
RTVSPropertyOp16
 70
     1
102
RTVSPropertyOp17
 70
     1
102
RTVSPropertyOp18
 70
     1
102
RTVSPropertyOp19
 70
     1
102
RTVSPropertyOp20
 70
     1
102
RTVSPropertyOp21
 70
     1
102
RTVSPropertyOp22
 70
     1
102
RTVSPropertyOp23
 70
     1
102
RTVSPropertyOp24
 70
     1
102
RTVSPropertyOp25
 70
     1
102
RTVSPropertyOp26
 70
     1
102
RTVSPropertyOp27
 70
     1
102
RTVSPropertyOp28
 70
     1
102
RTVSPropertyOp29
 70
     1
102
RTVSPropertyOp30
 70
     1
102
RTVSPropertyOp31
 70
     1
102
RTVSPropertyOp32
 70
     1
102
RTVSPropertyOp33
 70
     1
102
RTVSPropertyOp34
 70
     1
102
RTVSPropertyOp35
 70
     1
102
RTVSPropertyOp36
 70
     1
102
RTVSPropertyOp37
 70
     1
102
RTVSPropertyOp38
 70
     1
102
RTVSPropertyOp39
 70
     1
102
RTVSPropertyOp40
 70
     1
102
RTVSPropertyOp41
 70
     1
102
RTVSPropertyOp42
 70
     1
102
RTVSPropertyOp43
 70
     1
102
RTVSPropertyOp44
 70
     1
102
RTVSPropertyOp45
 70
     1
102
RTVSPropertyOp46
 70
     1
102
RTVSPropertyOp47
 70
     1
102
RTVSPropertyOp48
 70
     1
102
RTVSPropertyOp49
 70
     1
102
RTVSPropertyOp50
 70
     1
102
RTVSPropertyOp51
 70
     0
102
RTVSPropertyOp52
 70
     0
102
RTVSPropertyOp53
 70
     1
102
RTVSPropertyOp54
 70
     1
102
RTVSPropertyOp55
 70
     1
102
RTVSPropertyOp56
 70
     1
102
RTVSPropertyOp57
 70
     1
102
RTVSPropertyOp58
 70
     1
102
RTVSPropertyOp59
 70
     1
102
RTVSPropertyOp60
 70
     1
102
RTVSPropertyOp61
 70
     1
102
RTVSPropertyOp62
 70
     1
  0
XRECORD
  5
1608
102
{ACAD_REACTORS
330
1607
102
}
330
1607
100
AcDbXrecord
280
     1
102
RTVSPost2010Prop28
280
     0
102
RTVSPost2010PropOp28
 70
     1
102
RTVSPost2010Prop29
280
     1
102
RTVSPost2010PropOp29
 70
     1
102
RTVSPost2010Prop30
280
     1
102
RTVSPost2010PropOp30
 70
     1
102
RTVSPost2010Prop31
280
     0
102
RTVSPost2010PropOp31
 70
     1
102
RTVSPost2010Prop32
280
     0
102
RTVSPost2010PropOp32
 70
     1
102
RTVSPost2010Prop33
280
     0
102
RTVSPost2010PropOp33
 70
     1
102
RTVSPost2010Prop34
280
     0
102
RTVSPost2010PropOp34
 70
     1
102
RTVSPost2010Prop35
280
     0
102
RTVSPost2010PropOp35
 70
     1
102
RTVSPost2010Prop36
280
     0
102
RTVSPost2010PropOp36
 70
     1
102
RTVSPost2010Prop37
 90
       50
102
RTVSPost2010PropOp37
 70
     1
102
RTVSPost2010Prop38
140
0.0
102
RTVSPost2010PropOp38
 70
     1
102
RTVSPost2010Prop39
140
1.0
102
RTVSPost2010PropOp39
 70
     1
102
RTVSPost2010Prop40
 90
        0
102
RTVSPost2010PropOp40
 70
     1
102
RTVSPost2010Prop41ColorIndex
 90
       18
102
RTVSPost2010Prop41ColorRGB
 90
        0
102
RTVSPost2010PropOp41
 70
     1
102
RTVSPost2010Prop42
 90
       50
102
RTVSPost2010PropOp42
 70
     1
102
RTVSPost2010Prop43
 90
        3
102
RTVSPost2010PropOp43
 70
     1
102
RTVSPost2010Prop44ColorIndex
 90
        5
102
RTVSPost2010Prop44ColorRGB
 90
      255
102
RTVSPost2010PropOp44
 70
     1
102
RTVSPost2010Prop45
280
     0
102
RTVSPost2010PropOp45
 70
     1
102
RTVSPost2010Prop46
 90
       50
102
RTVSPost2010PropOp46
 70
     1
102
RTVSPost2010Prop47
 90
       50
102
RTVSPost2010PropOp47
 70
     1
102
RTVSPost2010Prop48
 90
       50
102
RTVSPost2010PropOp48
 70
     1
102
RTVSPost2010Prop49
280
     0
102
RTVSPost2010PropOp49
 70
     1
102
RTVSPost2010Prop50
 90
       50
102
RTVSPost2010PropOp50
 70
     1
102
RTVSPost2010Prop51ColorIndex
 90
      256
102
RTVSPost2010Prop51ColorRGB
 90
-16777216
102
RTVSPost2010PropOp51
 70
     0
102
RTVSPost2010Prop52
140
1.0
102
RTVSPost2010PropOp52
 70
     0
102
RTVSPost2010Prop53
 90
        2
102
RTVSPost2010PropOp53
 70
     1
102
RTVSPost2010Prop54
  1
strokes_ogs.tif
102
RTVSPost2010PropOp54
 70
     1
102
RTVSPost2010Prop55
280
     0
102
RTVSPost2010PropOp55
 70
     1
102
RTVSPost2010Prop56
140
1.0
102
RTVSPost2010PropOp56
 70
     1
102
RTVSPost2010Prop57
140
1.0
102
RTVSPost2010PropOp57
 70
     1
102
RTVSPropertyOp0
 70
     1
102
RTVSPropertyOp1
 70
     1
102
RTVSPropertyOp2
 70
     1
102
RTVSPropertyOp3
 70
     1
102
RTVSPropertyOp4
 70
     1
102
RTVSPropertyOp5
 70
     1
102
RTVSPropertyOp6
 70
     1
102
RTVSPropertyOp7
 70
     1
102
RTVSPropertyOp8
 70
     1
102
RTVSPropertyOp9
 70
     1
102
RTVSPropertyOp10
 70
     1
102
RTVSPropertyOp11
 70
     1
102
RTVSPropertyOp12
 70
     1
102
RTVSPropertyOp13
 70
     1
102
RTVSPropertyOp14
 70
     1
102
RTVSPropertyOp15
 70
     1
102
RTVSPropertyOp16
 70
     1
102
RTVSPropertyOp17
 70
     1
102
RTVSPropertyOp18
 70
     1
102
RTVSPropertyOp19
 70
     1
102
RTVSPropertyOp20
 70
     1
102
RTVSPropertyOp21
 70
     1
102
RTVSPropertyOp22
 70
     1
102
RTVSPropertyOp23
 70
     1
102
RTVSPropertyOp24
 70
     1
102
RTVSPropertyOp25
 70
     1
102
RTVSPropertyOp26
 70
     1
102
RTVSPropertyOp27
 70
     1
102
RTVSPropertyOp28
 70
     1
102
RTVSPropertyOp29
 70
     1
102
RTVSPropertyOp30
 70
     1
102
RTVSPropertyOp31
 70
     1
102
RTVSPropertyOp32
 70
     1
102
RTVSPropertyOp33
 70
     1
102
RTVSPropertyOp34
 70
     1
102
RTVSPropertyOp35
 70
     1
102
RTVSPropertyOp36
 70
     1
102
RTVSPropertyOp37
 70
     1
102
RTVSPropertyOp38
 70
     1
102
RTVSPropertyOp39
 70
     1
102
RTVSPropertyOp40
 70
     1
102
RTVSPropertyOp41
 70
     1
102
RTVSPropertyOp42
 70
     1
102
RTVSPropertyOp43
 70
     1
102
RTVSPropertyOp44
 70
     1
102
RTVSPropertyOp45
 70
     1
102
RTVSPropertyOp46
 70
     1
102
RTVSPropertyOp47
 70
     1
102
RTVSPropertyOp48
 70
     1
102
RTVSPropertyOp49
 70
     1
102
RTVSPropertyOp50
 70
     1
102
RTVSPropertyOp51
 70
     0
102
RTVSPropertyOp52
 70
     0
102
RTVSPropertyOp53
 70
     1
102
RTVSPropertyOp54
 70
     1
102
RTVSPropertyOp55
 70
     1
102
RTVSPropertyOp56
 70
     1
102
RTVSPropertyOp57
 70
     1
102
RTVSPropertyOp58
 70
     1
102
RTVSPropertyOp59
 70
     1
102
RTVSPropertyOp60
 70
     1
102
RTVSPropertyOp61
 70
     1
102
RTVSPropertyOp62
 70
     1
  0
XRECORD
  5
160A
102
{ACAD_REACTORS
330
1609
102
}
330
1609
100
AcDbXrecord
280
     1
102
RTVSPost2010Prop28
280
     0
102
RTVSPost2010PropOp28
 70
     1
102
RTVSPost2010Prop29
280
     1
102
RTVSPost2010PropOp29
 70
     1
102
RTVSPost2010Prop30
280
     1
102
RTVSPost2010PropOp30
 70
     1
102
RTVSPost2010Prop31
280
     0
102
RTVSPost2010PropOp31
 70
     1
102
RTVSPost2010Prop32
280
     0
102
RTVSPost2010PropOp32
 70
     1
102
RTVSPost2010Prop33
280
     0
102
RTVSPost2010PropOp33
 70
     1
102
RTVSPost2010Prop34
280
     0
102
RTVSPost2010PropOp34
 70
     1
102
RTVSPost2010Prop35
280
     0
102
RTVSPost2010PropOp35
 70
     1
102
RTVSPost2010Prop36
280
     0
102
RTVSPost2010PropOp36
 70
     1
102
RTVSPost2010Prop37
 90
       50
102
RTVSPost2010PropOp37
 70
     1
102
RTVSPost2010Prop38
140
0.0
102
RTVSPost2010PropOp38
 70
     1
102
RTVSPost2010Prop39
140
1.0
102
RTVSPost2010PropOp39
 70
     1
102
RTVSPost2010Prop40
 90
        0
102
RTVSPost2010PropOp40
 70
     1
102
RTVSPost2010Prop41ColorIndex
 90
       18
102
RTVSPost2010Prop41ColorRGB
 90
        0
102
RTVSPost2010PropOp41
 70
     1
102
RTVSPost2010Prop42
 90
       50
102
RTVSPost2010PropOp42
 70
     1
102
RTVSPost2010Prop43
 90
        3
102
RTVSPost2010PropOp43
 70
     1
102
RTVSPost2010Prop44ColorIndex
 90
        5
102
RTVSPost2010Prop44ColorRGB
 90
      255
102
RTVSPost2010PropOp44
 70
     1
102
RTVSPost2010Prop45
280
     0
102
RTVSPost2010PropOp45
 70
     1
102
RTVSPost2010Prop46
 90
       50
102
RTVSPost2010PropOp46
 70
     1
102
RTVSPost2010Prop47
 90
       50
102
RTVSPost2010PropOp47
 70
     1
102
RTVSPost2010Prop48
 90
       50
102
RTVSPost2010PropOp48
 70
     1
102
RTVSPost2010Prop49
280
     0
102
RTVSPost2010PropOp49
 70
     1
102
RTVSPost2010Prop50
 90
       50
102
RTVSPost2010PropOp50
 70
     1
102
RTVSPost2010Prop51ColorIndex
 90
      256
102
RTVSPost2010Prop51ColorRGB
 90
-16777216
102
RTVSPost2010PropOp51
 70
     0
102
RTVSPost2010Prop52
140
1.0
102
RTVSPost2010PropOp52
 70
     0
102
RTVSPost2010Prop53
 90
        2
102
RTVSPost2010PropOp53
 70
     1
102
RTVSPost2010Prop54
  1
strokes_ogs.tif
102
RTVSPost2010PropOp54
 70
     1
102
RTVSPost2010Prop55
280
     0
102
RTVSPost2010PropOp55
 70
     1
102
RTVSPost2010Prop56
140
1.0
102
RTVSPost2010PropOp56
 70
     1
102
RTVSPost2010Prop57
140
1.0
102
RTVSPost2010PropOp57
 70
     1
102
RTVSPropertyOp0
 70
     1
102
RTVSPropertyOp1
 70
     1
102
RTVSPropertyOp2
 70
     1
102
RTVSPropertyOp3
 70
     1
102
RTVSPropertyOp4
 70
     1
102
RTVSPropertyOp5
 70
     1
102
RTVSPropertyOp6
 70
     1
102
RTVSPropertyOp7
 70
     1
102
RTVSPropertyOp8
 70
     1
102
RTVSPropertyOp9
 70
     1
102
RTVSPropertyOp10
 70
     1
102
RTVSPropertyOp11
 70
     1
102
RTVSPropertyOp12
 70
     1
102
RTVSPropertyOp13
 70
     1
102
RTVSPropertyOp14
 70
     1
102
RTVSPropertyOp15
 70
     1
102
RTVSPropertyOp16
 70
     1
102
RTVSPropertyOp17
 70
     1
102
RTVSPropertyOp18
 70
     1
102
RTVSPropertyOp19
 70
     1
102
RTVSPropertyOp20
 70
     1
102
RTVSPropertyOp21
 70
     1
102
RTVSPropertyOp22
 70
     1
102
RTVSPropertyOp23
 70
     1
102
RTVSPropertyOp24
 70
     1
102
RTVSPropertyOp25
 70
     1
102
RTVSPropertyOp26
 70
     1
102
RTVSPropertyOp27
 70
     1
102
RTVSPropertyOp28
 70
     1
102
RTVSPropertyOp29
 70
     1
102
RTVSPropertyOp30
 70
     1
102
RTVSPropertyOp31
 70
     1
102
RTVSPropertyOp32
 70
     1
102
RTVSPropertyOp33
 70
     1
102
RTVSPropertyOp34
 70
     1
102
RTVSPropertyOp35
 70
     1
102
RTVSPropertyOp36
 70
     1
102
RTVSPropertyOp37
 70
     1
102
RTVSPropertyOp38
 70
     1
102
RTVSPropertyOp39
 70
     1
102
RTVSPropertyOp40
 70
     1
102
RTVSPropertyOp41
 70
     1
102
RTVSPropertyOp42
 70
     1
102
RTVSPropertyOp43
 70
     1
102
RTVSPropertyOp44
 70
     1
102
RTVSPropertyOp45
 70
     1
102
RTVSPropertyOp46
 70
     1
102
RTVSPropertyOp47
 70
     1
102
RTVSPropertyOp48
 70
     1
102
RTVSPropertyOp49
 70
     1
102
RTVSPropertyOp50
 70
     1
102
RTVSPropertyOp51
 70
     0
102
RTVSPropertyOp52
 70
     0
102
RTVSPropertyOp53
 70
     1
102
RTVSPropertyOp54
 70
     1
102
RTVSPropertyOp55
 70
     1
102
RTVSPropertyOp56
 70
     1
102
RTVSPropertyOp57
 70
     1
102
RTVSPropertyOp58
 70
     1
102
RTVSPropertyOp59
 70
     1
102
RTVSPropertyOp60
 70
     1
102
RTVSPropertyOp61
 70
     1
102
RTVSPropertyOp62
 70
     1
  0
XRECORD
  5
1612
102
{ACAD_REACTORS
330
1611
102
}
330
1611
100
AcDbXrecord
280
     1
102
RTVSPost2010Prop28
280
     0
102
RTVSPost2010PropOp28
 70
     1
102
RTVSPost2010Prop29
280
     1
102
RTVSPost2010PropOp29
 70
     1
102
RTVSPost2010Prop30
280
     1
102
RTVSPost2010PropOp30
 70
     1
102
RTVSPost2010Prop31
280
     0
102
RTVSPost2010PropOp31
 70
     1
102
RTVSPost2010Prop32
280
     0
102
RTVSPost2010PropOp32
 70
     1
102
RTVSPost2010Prop33
280
     0
102
RTVSPost2010PropOp33
 70
     1
102
RTVSPost2010Prop34
280
     0
102
RTVSPost2010PropOp34
 70
     1
102
RTVSPost2010Prop35
280
     0
102
RTVSPost2010PropOp35
 70
     1
102
RTVSPost2010Prop36
280
     0
102
RTVSPost2010PropOp36
 70
     1
102
RTVSPost2010Prop37
 90
       50
102
RTVSPost2010PropOp37
 70
     1
102
RTVSPost2010Prop38
140
0.0
102
RTVSPost2010PropOp38
 70
     1
102
RTVSPost2010Prop39
140
1.0
102
RTVSPost2010PropOp39
 70
     1
102
RTVSPost2010Prop40
 90
        0
102
RTVSPost2010PropOp40
 70
     1
102
RTVSPost2010Prop41ColorIndex
 90
       18
102
RTVSPost2010Prop41ColorRGB
 90
        0
102
RTVSPost2010PropOp41
 70
     1
102
RTVSPost2010Prop42
 90
       50
102
RTVSPost2010PropOp42
 70
     1
102
RTVSPost2010Prop43
 90
        3
102
RTVSPost2010PropOp43
 70
     1
102
RTVSPost2010Prop44ColorIndex
 90
        5
102
RTVSPost2010Prop44ColorRGB
 90
      255
102
RTVSPost2010PropOp44
 70
     1
102
RTVSPost2010Prop45
280
     0
102
RTVSPost2010PropOp45
 70
     1
102
RTVSPost2010Prop46
 90
       50
102
RTVSPost2010PropOp46
 70
     1
102
RTVSPost2010Prop47
 90
       50
102
RTVSPost2010PropOp47
 70
     1
102
RTVSPost2010Prop48
 90
       50
102
RTVSPost2010PropOp48
 70
     1
102
RTVSPost2010Prop49
280
     0
102
RTVSPost2010PropOp49
 70
     1
102
RTVSPost2010Prop50
 90
       50
102
RTVSPost2010PropOp50
 70
     1
102
RTVSPost2010Prop51ColorIndex
 90
      256
102
RTVSPost2010Prop51ColorRGB
 90
-16777216
102
RTVSPost2010PropOp51
 70
     0
102
RTVSPost2010Prop52
140
1.0
102
RTVSPost2010PropOp52
 70
     0
102
RTVSPost2010Prop53
 90
        2
102
RTVSPost2010PropOp53
 70
     1
102
RTVSPost2010Prop54
  1
strokes_ogs.tif
102
RTVSPost2010PropOp54
 70
     1
102
RTVSPost2010Prop55
280
     0
102
RTVSPost2010PropOp55
 70
     1
102
RTVSPost2010Prop56
140
1.0
102
RTVSPost2010PropOp56
 70
     1
102
RTVSPost2010Prop57
140
1.0
102
RTVSPost2010PropOp57
 70
     1
102
RTVSPropertyOp0
 70
     1
102
RTVSPropertyOp1
 70
     1
102
RTVSPropertyOp2
 70
     1
102
RTVSPropertyOp3
 70
     1
102
RTVSPropertyOp4
 70
     1
102
RTVSPropertyOp5
 70
     1
102
RTVSPropertyOp6
 70
     1
102
RTVSPropertyOp7
 70
     1
102
RTVSPropertyOp8
 70
     1
102
RTVSPropertyOp9
 70
     1
102
RTVSPropertyOp10
 70
     1
102
RTVSPropertyOp11
 70
     1
102
RTVSPropertyOp12
 70
     1
102
RTVSPropertyOp13
 70
     1
102
RTVSPropertyOp14
 70
     1
102
RTVSPropertyOp15
 70
     1
102
RTVSPropertyOp16
 70
     1
102
RTVSPropertyOp17
 70
     1
102
RTVSPropertyOp18
 70
     1
102
RTVSPropertyOp19
 70
     1
102
RTVSPropertyOp20
 70
     1
102
RTVSPropertyOp21
 70
     1
102
RTVSPropertyOp22
 70
     1
102
RTVSPropertyOp23
 70
     1
102
RTVSPropertyOp24
 70
     1
102
RTVSPropertyOp25
 70
     1
102
RTVSPropertyOp26
 70
     1
102
RTVSPropertyOp27
 70
     1
102
RTVSPropertyOp28
 70
     1
102
RTVSPropertyOp29
 70
     1
102
RTVSPropertyOp30
 70
     1
102
RTVSPropertyOp31
 70
     1
102
RTVSPropertyOp32
 70
     1
102
RTVSPropertyOp33
 70
     1
102
RTVSPropertyOp34
 70
     1
102
RTVSPropertyOp35
 70
     1
102
RTVSPropertyOp36
 70
     1
102
RTVSPropertyOp37
 70
     1
102
RTVSPropertyOp38
 70
     1
102
RTVSPropertyOp39
 70
     1
102
RTVSPropertyOp40
 70
     1
102
RTVSPropertyOp41
 70
     1
102
RTVSPropertyOp42
 70
     1
102
RTVSPropertyOp43
 70
     1
102
RTVSPropertyOp44
 70
     1
102
RTVSPropertyOp45
 70
     1
102
RTVSPropertyOp46
 70
     1
102
RTVSPropertyOp47
 70
     1
102
RTVSPropertyOp48
 70
     1
102
RTVSPropertyOp49
 70
     1
102
RTVSPropertyOp50
 70
     1
102
RTVSPropertyOp51
 70
     0
102
RTVSPropertyOp52
 70
     0
102
RTVSPropertyOp53
 70
     1
102
RTVSPropertyOp54
 70
     1
102
RTVSPropertyOp55
 70
     1
102
RTVSPropertyOp56
 70
     1
102
RTVSPropertyOp57
 70
     1
102
RTVSPropertyOp58
 70
     1
102
RTVSPropertyOp59
 70
     1
102
RTVSPropertyOp60
 70
     1
102
RTVSPropertyOp61
 70
     1
102
RTVSPropertyOp62
 70
     1
  0
XRECORD
  5
162E
102
{ACAD_REACTORS
330
162D
102
}
330
162D
100
AcDbXrecord
280
     1
102
RTVSPost2010Prop28
280
     0
102
RTVSPost2010PropOp28
 70
     1
102
RTVSPost2010Prop29
280
     1
102
RTVSPost2010PropOp29
 70
     1
102
RTVSPost2010Prop30
280
     1
102
RTVSPost2010PropOp30
 70
     1
102
RTVSPost2010Prop31
280
     0
102
RTVSPost2010PropOp31
 70
     1
102
RTVSPost2010Prop32
280
     0
102
RTVSPost2010PropOp32
 70
     1
102
RTVSPost2010Prop33
280
     0
102
RTVSPost2010PropOp33
 70
     1
102
RTVSPost2010Prop34
280
     0
102
RTVSPost2010PropOp34
 70
     1
102
RTVSPost2010Prop35
280
     0
102
RTVSPost2010PropOp35
 70
     1
102
RTVSPost2010Prop36
280
     0
102
RTVSPost2010PropOp36
 70
     1
102
RTVSPost2010Prop37
 90
       50
102
RTVSPost2010PropOp37
 70
     0
102
RTVSPost2010Prop38
140
0.0
102
RTVSPost2010PropOp38
 70
     0
102
RTVSPost2010Prop39
140
1.0
102
RTVSPost2010PropOp39
 70
     0
102
RTVSPost2010Prop40
 90
        0
102
RTVSPost2010PropOp40
 70
     0
102
RTVSPost2010Prop41ColorIndex
 90
       18
102
RTVSPost2010Prop41ColorRGB
 90
        0
102
RTVSPost2010PropOp41
 70
     0
102
RTVSPost2010Prop42
 90
       50
102
RTVSPost2010PropOp42
 70
     0
102
RTVSPost2010Prop43
 90
        3
102
RTVSPost2010PropOp43
 70
     0
102
RTVSPost2010Prop44ColorIndex
 90
        5
102
RTVSPost2010Prop44ColorRGB
 90
      255
102
RTVSPost2010PropOp44
 70
     0
102
RTVSPost2010Prop45
280
     0
102
RTVSPost2010PropOp45
 70
     1
102
RTVSPost2010Prop46
 90
       50
102
RTVSPost2010PropOp46
 70
     0
102
RTVSPost2010Prop47
 90
       50
102
RTVSPost2010PropOp47
 70
     0
102
RTVSPost2010Prop48
 90
       50
102
RTVSPost2010PropOp48
 70
     0
102
RTVSPost2010Prop49
280
     0
102
RTVSPost2010PropOp49
 70
     1
102
RTVSPost2010Prop50
 90
       50
102
RTVSPost2010PropOp50
 70
     0
102
RTVSPost2010Prop51ColorIndex
 90
      256
102
RTVSPost2010Prop51ColorRGB
 90
-16777216
102
RTVSPost2010PropOp51
 70
     0
102
RTVSPost2010Prop52
140
1.0
102
RTVSPost2010PropOp52
 70
     0
102
RTVSPost2010Prop53
 90
        2
102
RTVSPost2010PropOp53
 70
     0
102
RTVSPost2010Prop54
  1
strokes_ogs.tif
102
RTVSPost2010PropOp54
 70
     0
102
RTVSPost2010Prop55
280
     0
102
RTVSPost2010PropOp55
 70
     1
102
RTVSPost2010Prop56
140
1.0
102
RTVSPost2010PropOp56
 70
     0
102
RTVSPost2010Prop57
140
1.0
102
RTVSPost2010PropOp57
 70
     0
102
RTVSPropertyOp0
 70
     0
102
RTVSPropertyOp1
 70
     0
102
RTVSPropertyOp2
 70
     0
102
RTVSPropertyOp3
 70
     0
102
RTVSPropertyOp4
 70
     0
102
RTVSPropertyOp5
 70
     0
102
RTVSPropertyOp6
 70
     0
102
RTVSPropertyOp7
 70
     0
102
RTVSPropertyOp8
 70
     0
102
RTVSPropertyOp9
 70
     0
102
RTVSPropertyOp10
 70
     0
102
RTVSPropertyOp11
 70
     0
102
RTVSPropertyOp12
 70
     0
102
RTVSPropertyOp13
 70
     0
102
RTVSPropertyOp14
 70
     2
102
RTVSPropertyOp15
 70
     0
102
RTVSPropertyOp16
 70
     0
102
RTVSPropertyOp17
 70
     0
102
RTVSPropertyOp18
 70
     0
102
RTVSPropertyOp19
 70
     0
102
RTVSPropertyOp20
 70
     0
102
RTVSPropertyOp21
 70
     0
102
RTVSPropertyOp22
 70
     0
102
RTVSPropertyOp23
 70
     0
102
RTVSPropertyOp24
 70
     0
102
RTVSPropertyOp25
 70
     0
102
RTVSPropertyOp26
 70
     0
102
RTVSPropertyOp27
 70
     0
102
RTVSPropertyOp28
 70
     1
102
RTVSPropertyOp29
 70
     1
102
RTVSPropertyOp30
 70
     1
102
RTVSPropertyOp31
 70
     1
102
RTVSPropertyOp32
 70
     1
102
RTVSPropertyOp33
 70
     1
102
RTVSPropertyOp34
 70
     1
102
RTVSPropertyOp35
 70
     1
102
RTVSPropertyOp36
 70
     1
102
RTVSPropertyOp37
 70
     0
102
RTVSPropertyOp38
 70
     0
102
RTVSPropertyOp39
 70
     0
102
RTVSPropertyOp40
 70
     0
102
RTVSPropertyOp41
 70
     0
102
RTVSPropertyOp42
 70
     0
102
RTVSPropertyOp43
 70
     0
102
RTVSPropertyOp44
 70
     0
102
RTVSPropertyOp45
 70
     1
102
RTVSPropertyOp46
 70
     0
102
RTVSPropertyOp47
 70
     0
102
RTVSPropertyOp48
 70
     0
102
RTVSPropertyOp49
 70
     1
102
RTVSPropertyOp50
 70
     0
102
RTVSPropertyOp51
 70
     0
102
RTVSPropertyOp52
 70
     0
102
RTVSPropertyOp53
 70
     0
102
RTVSPropertyOp54
 70
     0
102
RTVSPropertyOp55
 70
     1
102
RTVSPropertyOp56
 70
     0
102
RTVSPropertyOp57
 70
     0
102
RTVSPropertyOp58
 70
     0
102
RTVSPropertyOp59
 70
     0
102
RTVSPropertyOp60
 70
     0
102
RTVSPropertyOp61
 70
     0
102
RTVSPropertyOp62
 70
     0
  0
XRECORD
  5
161E
102
{ACAD_REACTORS
330
161D
102
}
330
161D
100
AcDbXrecord
280
     1
102
RTVSPost2010Prop28
280
     0
102
RTVSPost2010PropOp28
 70
     1
102
RTVSPost2010Prop29
280
     1
102
RTVSPost2010PropOp29
 70
     1
102
RTVSPost2010Prop30
280
     1
102
RTVSPost2010PropOp30
 70
     1
102
RTVSPost2010Prop31
280
     0
102
RTVSPost2010PropOp31
 70
     1
102
RTVSPost2010Prop32
280
     0
102
RTVSPost2010PropOp32
 70
     1
102
RTVSPost2010Prop33
280
     0
102
RTVSPost2010PropOp33
 70
     1
102
RTVSPost2010Prop34
280
     0
102
RTVSPost2010PropOp34
 70
     1
102
RTVSPost2010Prop35
280
     0
102
RTVSPost2010PropOp35
 70
     1
102
RTVSPost2010Prop36
280
     0
102
RTVSPost2010PropOp36
 70
     1
102
RTVSPost2010Prop37
 90
       50
102
RTVSPost2010PropOp37
 70
     1
102
RTVSPost2010Prop38
140
0.0
102
RTVSPost2010PropOp38
 70
     1
102
RTVSPost2010Prop39
140
1.0
102
RTVSPost2010PropOp39
 70
     1
102
RTVSPost2010Prop40
 90
        0
102
RTVSPost2010PropOp40
 70
     1
102
RTVSPost2010Prop41ColorIndex
 90
       18
102
RTVSPost2010Prop41ColorRGB
 90
        0
102
RTVSPost2010PropOp41
 70
     1
102
RTVSPost2010Prop42
 90
       50
102
RTVSPost2010PropOp42
 70
     1
102
RTVSPost2010Prop43
 90
        3
102
RTVSPost2010PropOp43
 70
     1
102
RTVSPost2010Prop44ColorIndex
 90
        5
102
RTVSPost2010Prop44ColorRGB
 90
      255
102
RTVSPost2010PropOp44
 70
     1
102
RTVSPost2010Prop45
280
     0
102
RTVSPost2010PropOp45
 70
     1
102
RTVSPost2010Prop46
 90
       50
102
RTVSPost2010PropOp46
 70
     1
102
RTVSPost2010Prop47
 90
       50
102
RTVSPost2010PropOp47
 70
     1
102
RTVSPost2010Prop48
 90
       50
102
RTVSPost2010PropOp48
 70
     1
102
RTVSPost2010Prop49
280
     0
102
RTVSPost2010PropOp49
 70
     1
102
RTVSPost2010Prop50
 90
       50
102
RTVSPost2010PropOp50
 70
     1
102
RTVSPost2010Prop51ColorIndex
 90
      256
102
RTVSPost2010Prop51ColorRGB
 90
-16777216
102
RTVSPost2010PropOp51
 70
     0
102
RTVSPost2010Prop52
140
1.0
102
RTVSPost2010PropOp52
 70
     0
102
RTVSPost2010Prop53
 90
        2
102
RTVSPost2010PropOp53
 70
     1
102
RTVSPost2010Prop54
  1
strokes_ogs.tif
102
RTVSPost2010PropOp54
 70
     1
102
RTVSPost2010Prop55
280
     0
102
RTVSPost2010PropOp55
 70
     1
102
RTVSPost2010Prop56
140
1.0
102
RTVSPost2010PropOp56
 70
     1
102
RTVSPost2010Prop57
140
1.0
102
RTVSPost2010PropOp57
 70
     1
102
RTVSPropertyOp0
 70
     1
102
RTVSPropertyOp1
 70
     1
102
RTVSPropertyOp2
 70
     1
102
RTVSPropertyOp3
 70
     1
102
RTVSPropertyOp4
 70
     1
102
RTVSPropertyOp5
 70
     1
102
RTVSPropertyOp6
 70
     1
102
RTVSPropertyOp7
 70
     1
102
RTVSPropertyOp8
 70
     1
102
RTVSPropertyOp9
 70
     1
102
RTVSPropertyOp10
 70
     1
102
RTVSPropertyOp11
 70
     1
102
RTVSPropertyOp12
 70
     1
102
RTVSPropertyOp13
 70
     1
102
RTVSPropertyOp14
 70
     1
102
RTVSPropertyOp15
 70
     1
102
RTVSPropertyOp16
 70
     1
102
RTVSPropertyOp17
 70
     1
102
RTVSPropertyOp18
 70
     1
102
RTVSPropertyOp19
 70
     1
102
RTVSPropertyOp20
 70
     1
102
RTVSPropertyOp21
 70
     1
102
RTVSPropertyOp22
 70
     1
102
RTVSPropertyOp23
 70
     1
102
RTVSPropertyOp24
 70
     1
102
RTVSPropertyOp25
 70
     1
102
RTVSPropertyOp26
 70
     1
102
RTVSPropertyOp27
 70
     1
102
RTVSPropertyOp28
 70
     1
102
RTVSPropertyOp29
 70
     1
102
RTVSPropertyOp30
 70
     1
102
RTVSPropertyOp31
 70
     1
102
RTVSPropertyOp32
 70
     1
102
RTVSPropertyOp33
 70
     1
102
RTVSPropertyOp34
 70
     1
102
RTVSPropertyOp35
 70
     1
102
RTVSPropertyOp36
 70
     1
102
RTVSPropertyOp37
 70
     1
102
RTVSPropertyOp38
 70
     1
102
RTVSPropertyOp39
 70
     1
102
RTVSPropertyOp40
 70
     1
102
RTVSPropertyOp41
 70
     1
102
RTVSPropertyOp42
 70
     1
102
RTVSPropertyOp43
 70
     1
102
RTVSPropertyOp44
 70
     1
102
RTVSPropertyOp45
 70
     1
102
RTVSPropertyOp46
 70
     1
102
RTVSPropertyOp47
 70
     1
102
RTVSPropertyOp48
 70
     1
102
RTVSPropertyOp49
 70
     1
102
RTVSPropertyOp50
 70
     1
102
RTVSPropertyOp51
 70
     0
102
RTVSPropertyOp52
 70
     0
102
RTVSPropertyOp53
 70
     1
102
RTVSPropertyOp54
 70
     1
102
RTVSPropertyOp55
 70
     1
102
RTVSPropertyOp56
 70
     1
102
RTVSPropertyOp57
 70
     1
102
RTVSPropertyOp58
 70
     1
102
RTVSPropertyOp59
 70
     1
102
RTVSPropertyOp60
 70
     1
102
RTVSPropertyOp61
 70
     1
102
RTVSPropertyOp62
 70
     1
  0
XRECORD
  5
1630
102
{ACAD_REACTORS
330
162F
102
}
330
162F
100
AcDbXrecord
280
     1
102
RTVSPost2010Prop28
280
     0
102
RTVSPost2010PropOp28
 70
     1
102
RTVSPost2010Prop29
280
     1
102
RTVSPost2010PropOp29
 70
     1
102
RTVSPost2010Prop30
280
     1
102
RTVSPost2010PropOp30
 70
     1
102
RTVSPost2010Prop31
280
     0
102
RTVSPost2010PropOp31
 70
     1
102
RTVSPost2010Prop32
280
     0
102
RTVSPost2010PropOp32
 70
     1
102
RTVSPost2010Prop33
280
     0
102
RTVSPost2010PropOp33
 70
     1
102
RTVSPost2010Prop34
280
     0
102
RTVSPost2010PropOp34
 70
     1
102
RTVSPost2010Prop35
280
     0
102
RTVSPost2010PropOp35
 70
     1
102
RTVSPost2010Prop36
280
     0
102
RTVSPost2010PropOp36
 70
     1
102
RTVSPost2010Prop37
 90
       50
102
RTVSPost2010PropOp37
 70
     0
102
RTVSPost2010Prop38
140
0.0
102
RTVSPost2010PropOp38
 70
     0
102
RTVSPost2010Prop39
140
1.0
102
RTVSPost2010PropOp39
 70
     0
102
RTVSPost2010Prop40
 90
        0
102
RTVSPost2010PropOp40
 70
     0
102
RTVSPost2010Prop41ColorIndex
 90
       18
102
RTVSPost2010Prop41ColorRGB
 90
        0
102
RTVSPost2010PropOp41
 70
     0
102
RTVSPost2010Prop42
 90
       50
102
RTVSPost2010PropOp42
 70
     0
102
RTVSPost2010Prop43
 90
        3
102
RTVSPost2010PropOp43
 70
     0
102
RTVSPost2010Prop44ColorIndex
 90
        5
102
RTVSPost2010Prop44ColorRGB
 90
      255
102
RTVSPost2010PropOp44
 70
     0
102
RTVSPost2010Prop45
280
     0
102
RTVSPost2010PropOp45
 70
     1
102
RTVSPost2010Prop46
 90
       50
102
RTVSPost2010PropOp46
 70
     0
102
RTVSPost2010Prop47
 90
       50
102
RTVSPost2010PropOp47
 70
     0
102
RTVSPost2010Prop48
 90
       50
102
RTVSPost2010PropOp48
 70
     0
102
RTVSPost2010Prop49
280
     0
102
RTVSPost2010PropOp49
 70
     1
102
RTVSPost2010Prop50
 90
       50
102
RTVSPost2010PropOp50
 70
     0
102
RTVSPost2010Prop51ColorIndex
 90
      256
102
RTVSPost2010Prop51ColorRGB
 90
-16777216
102
RTVSPost2010PropOp51
 70
     0
102
RTVSPost2010Prop52
140
1.0
102
RTVSPost2010PropOp52
 70
     0
102
RTVSPost2010Prop53
 90
        2
102
RTVSPost2010PropOp53
 70
     0
102
RTVSPost2010Prop54
  1
strokes_ogs.tif
102
RTVSPost2010PropOp54
 70
     0
102
RTVSPost2010Prop55
280
     0
102
RTVSPost2010PropOp55
 70
     1
102
RTVSPost2010Prop56
140
1.0
102
RTVSPost2010PropOp56
 70
     0
102
RTVSPost2010Prop57
140
1.0
102
RTVSPost2010PropOp57
 70
     0
102
RTVSPropertyOp0
 70
     0
102
RTVSPropertyOp1
 70
     0
102
RTVSPropertyOp2
 70
     0
102
RTVSPropertyOp3
 70
     0
102
RTVSPropertyOp4
 70
     0
102
RTVSPropertyOp5
 70
     0
102
RTVSPropertyOp6
 70
     0
102
RTVSPropertyOp7
 70
     0
102
RTVSPropertyOp8
 70
     0
102
RTVSPropertyOp9
 70
     0
102
RTVSPropertyOp10
 70
     0
102
RTVSPropertyOp11
 70
     0
102
RTVSPropertyOp12
 70
     0
102
RTVSPropertyOp13
 70
     0
102
RTVSPropertyOp14
 70
     2
102
RTVSPropertyOp15
 70
     0
102
RTVSPropertyOp16
 70
     0
102
RTVSPropertyOp17
 70
     0
102
RTVSPropertyOp18
 70
     0
102
RTVSPropertyOp19
 70
     0
102
RTVSPropertyOp20
 70
     0
102
RTVSPropertyOp21
 70
     0
102
RTVSPropertyOp22
 70
     0
102
RTVSPropertyOp23
 70
     0
102
RTVSPropertyOp24
 70
     0
102
RTVSPropertyOp25
 70
     0
102
RTVSPropertyOp26
 70
     0
102
RTVSPropertyOp27
 70
     0
102
RTVSPropertyOp28
 70
     1
102
RTVSPropertyOp29
 70
     1
102
RTVSPropertyOp30
 70
     1
102
RTVSPropertyOp31
 70
     1
102
RTVSPropertyOp32
 70
     1
102
RTVSPropertyOp33
 70
     1
102
RTVSPropertyOp34
 70
     1
102
RTVSPropertyOp35
 70
     1
102
RTVSPropertyOp36
 70
     1
102
RTVSPropertyOp37
 70
     0
102
RTVSPropertyOp38
 70
     0
102
RTVSPropertyOp39
 70
     0
102
RTVSPropertyOp40
 70
     0
102
RTVSPropertyOp41
 70
     0
102
RTVSPropertyOp42
 70
     0
102
RTVSPropertyOp43
 70
     0
102
RTVSPropertyOp44
 70
     0
102
RTVSPropertyOp45
 70
     1
102
RTVSPropertyOp46
 70
     0
102
RTVSPropertyOp47
 70
     0
102
RTVSPropertyOp48
 70
     0
102
RTVSPropertyOp49
 70
     1
102
RTVSPropertyOp50
 70
     0
102
RTVSPropertyOp51
 70
     0
102
RTVSPropertyOp52
 70
     0
102
RTVSPropertyOp53
 70
     0
102
RTVSPropertyOp54
 70
     0
102
RTVSPropertyOp55
 70
     1
102
RTVSPropertyOp56
 70
     0
102
RTVSPropertyOp57
 70
     0
102
RTVSPropertyOp58
 70
     0
102
RTVSPropertyOp59
 70
     0
102
RTVSPropertyOp60
 70
     0
102
RTVSPropertyOp61
 70
     0
102
RTVSPropertyOp62
 70
     0
  0
XRECORD
  5
1616
102
{ACAD_REACTORS
330
1615
102
}
330
1615
100
AcDbXrecord
280
     1
102
RTVSPost2010Prop28
280
     0
102
RTVSPost2010PropOp28
 70
     1
102
RTVSPost2010Prop29
280
     1
102
RTVSPost2010PropOp29
 70
     1
102
RTVSPost2010Prop30
280
     1
102
RTVSPost2010PropOp30
 70
     1
102
RTVSPost2010Prop31
280
     0
102
RTVSPost2010PropOp31
 70
     1
102
RTVSPost2010Prop32
280
     0
102
RTVSPost2010PropOp32
 70
     1
102
RTVSPost2010Prop33
280
     0
102
RTVSPost2010PropOp33
 70
     1
102
RTVSPost2010Prop34
280
     0
102
RTVSPost2010PropOp34
 70
     1
102
RTVSPost2010Prop35
280
     0
102
RTVSPost2010PropOp35
 70
     1
102
RTVSPost2010Prop36
280
     0
102
RTVSPost2010PropOp36
 70
     1
102
RTVSPost2010Prop37
 90
       50
102
RTVSPost2010PropOp37
 70
     1
102
RTVSPost2010Prop38
140
0.0
102
RTVSPost2010PropOp38
 70
     1
102
RTVSPost2010Prop39
140
1.0
102
RTVSPost2010PropOp39
 70
     1
102
RTVSPost2010Prop40
 90
        0
102
RTVSPost2010PropOp40
 70
     1
102
RTVSPost2010Prop41ColorIndex
 90
       18
102
RTVSPost2010Prop41ColorRGB
 90
        0
102
RTVSPost2010PropOp41
 70
     1
102
RTVSPost2010Prop42
 90
       50
102
RTVSPost2010PropOp42
 70
     1
102
RTVSPost2010Prop43
 90
        3
102
RTVSPost2010PropOp43
 70
     1
102
RTVSPost2010Prop44ColorIndex
 90
        5
102
RTVSPost2010Prop44ColorRGB
 90
      255
102
RTVSPost2010PropOp44
 70
     1
102
RTVSPost2010Prop45
280
     0
102
RTVSPost2010PropOp45
 70
     1
102
RTVSPost2010Prop46
 90
       50
102
RTVSPost2010PropOp46
 70
     1
102
RTVSPost2010Prop47
 90
       50
102
RTVSPost2010PropOp47
 70
     1
102
RTVSPost2010Prop48
 90
       50
102
RTVSPost2010PropOp48
 70
     1
102
RTVSPost2010Prop49
280
     0
102
RTVSPost2010PropOp49
 70
     1
102
RTVSPost2010Prop50
 90
       50
102
RTVSPost2010PropOp50
 70
     1
102
RTVSPost2010Prop51ColorIndex
 90
      256
102
RTVSPost2010Prop51ColorRGB
 90
-16777216
102
RTVSPost2010PropOp51
 70
     0
102
RTVSPost2010Prop52
140
1.0
102
RTVSPost2010PropOp52
 70
     0
102
RTVSPost2010Prop53
 90
        2
102
RTVSPost2010PropOp53
 70
     1
102
RTVSPost2010Prop54
  1
strokes_ogs.tif
102
RTVSPost2010PropOp54
 70
     1
102
RTVSPost2010Prop55
280
     0
102
RTVSPost2010PropOp55
 70
     1
102
RTVSPost2010Prop56
140
1.0
102
RTVSPost2010PropOp56
 70
     1
102
RTVSPost2010Prop57
140
1.0
102
RTVSPost2010PropOp57
 70
     1
102
RTVSPropertyOp0
 70
     1
102
RTVSPropertyOp1
 70
     1
102
RTVSPropertyOp2
 70
     1
102
RTVSPropertyOp3
 70
     1
102
RTVSPropertyOp4
 70
     1
102
RTVSPropertyOp5
 70
     1
102
RTVSPropertyOp6
 70
     1
102
RTVSPropertyOp7
 70
     1
102
RTVSPropertyOp8
 70
     1
102
RTVSPropertyOp9
 70
     1
102
RTVSPropertyOp10
 70
     1
102
RTVSPropertyOp11
 70
     1
102
RTVSPropertyOp12
 70
     1
102
RTVSPropertyOp13
 70
     1
102
RTVSPropertyOp14
 70
     1
102
RTVSPropertyOp15
 70
     1
102
RTVSPropertyOp16
 70
     1
102
RTVSPropertyOp17
 70
     1
102
RTVSPropertyOp18
 70
     1
102
RTVSPropertyOp19
 70
     1
102
RTVSPropertyOp20
 70
     1
102
RTVSPropertyOp21
 70
     1
102
RTVSPropertyOp22
 70
     1
102
RTVSPropertyOp23
 70
     1
102
RTVSPropertyOp24
 70
     1
102
RTVSPropertyOp25
 70
     1
102
RTVSPropertyOp26
 70
     1
102
RTVSPropertyOp27
 70
     1
102
RTVSPropertyOp28
 70
     1
102
RTVSPropertyOp29
 70
     1
102
RTVSPropertyOp30
 70
     1
102
RTVSPropertyOp31
 70
     1
102
RTVSPropertyOp32
 70
     1
102
RTVSPropertyOp33
 70
     1
102
RTVSPropertyOp34
 70
     1
102
RTVSPropertyOp35
 70
     1
102
RTVSPropertyOp36
 70
     1
102
RTVSPropertyOp37
 70
     1
102
RTVSPropertyOp38
 70
     1
102
RTVSPropertyOp39
 70
     1
102
RTVSPropertyOp40
 70
     1
102
RTVSPropertyOp41
 70
     1
102
RTVSPropertyOp42
 70
     1
102
RTVSPropertyOp43
 70
     1
102
RTVSPropertyOp44
 70
     1
102
RTVSPropertyOp45
 70
     1
102
RTVSPropertyOp46
 70
     1
102
RTVSPropertyOp47
 70
     1
102
RTVSPropertyOp48
 70
     1
102
RTVSPropertyOp49
 70
     1
102
RTVSPropertyOp50
 70
     1
102
RTVSPropertyOp51
 70
     0
102
RTVSPropertyOp52
 70
     0
102
RTVSPropertyOp53
 70
     1
102
RTVSPropertyOp54
 70
     1
102
RTVSPropertyOp55
 70
     1
102
RTVSPropertyOp56
 70
     1
102
RTVSPropertyOp57
 70
     1
102
RTVSPropertyOp58
 70
     1
102
RTVSPropertyOp59
 70
     1
102
RTVSPropertyOp60
 70
     1
102
RTVSPropertyOp61
 70
     1
102
RTVSPropertyOp62
 70
     1
  0
XRECORD
  5
162C
102
{ACAD_REACTORS
330
162B
102
}
330
162B
100
AcDbXrecord
280
     1
102
RTVSPost2010Prop28
280
     0
102
RTVSPost2010PropOp28
 70
     1
102
RTVSPost2010Prop29
280
     1
102
RTVSPost2010PropOp29
 70
     1
102
RTVSPost2010Prop30
280
     1
102
RTVSPost2010PropOp30
 70
     1
102
RTVSPost2010Prop31
280
     0
102
RTVSPost2010PropOp31
 70
     1
102
RTVSPost2010Prop32
280
     0
102
RTVSPost2010PropOp32
 70
     1
102
RTVSPost2010Prop33
280
     0
102
RTVSPost2010PropOp33
 70
     1
102
RTVSPost2010Prop34
280
     0
102
RTVSPost2010PropOp34
 70
     1
102
RTVSPost2010Prop35
280
     0
102
RTVSPost2010PropOp35
 70
     1
102
RTVSPost2010Prop36
280
     0
102
RTVSPost2010PropOp36
 70
     1
102
RTVSPost2010Prop37
 90
       50
102
RTVSPost2010PropOp37
 70
     1
102
RTVSPost2010Prop38
140
0.0
102
RTVSPost2010PropOp38
 70
     1
102
RTVSPost2010Prop39
140
1.0
102
RTVSPost2010PropOp39
 70
     1
102
RTVSPost2010Prop40
 90
        0
102
RTVSPost2010PropOp40
 70
     1
102
RTVSPost2010Prop41ColorIndex
 90
       18
102
RTVSPost2010Prop41ColorRGB
 90
        0
102
RTVSPost2010PropOp41
 70
     1
102
RTVSPost2010Prop42
 90
       50
102
RTVSPost2010PropOp42
 70
     1
102
RTVSPost2010Prop43
 90
        3
102
RTVSPost2010PropOp43
 70
     1
102
RTVSPost2010Prop44ColorIndex
 90
        5
102
RTVSPost2010Prop44ColorRGB
 90
      255
102
RTVSPost2010PropOp44
 70
     1
102
RTVSPost2010Prop45
280
     0
102
RTVSPost2010PropOp45
 70
     1
102
RTVSPost2010Prop46
 90
       50
102
RTVSPost2010PropOp46
 70
     1
102
RTVSPost2010Prop47
 90
       50
102
RTVSPost2010PropOp47
 70
     1
102
RTVSPost2010Prop48
 90
       50
102
RTVSPost2010PropOp48
 70
     1
102
RTVSPost2010Prop49
280
     0
102
RTVSPost2010PropOp49
 70
     1
102
RTVSPost2010Prop50
 90
       50
102
RTVSPost2010PropOp50
 70
     1
102
RTVSPost2010Prop51ColorIndex
 90
      256
102
RTVSPost2010Prop51ColorRGB
 90
-16777216
102
RTVSPost2010PropOp51
 70
     0
102
RTVSPost2010Prop52
140
1.0
102
RTVSPost2010PropOp52
 70
     0
102
RTVSPost2010Prop53
 90
        2
102
RTVSPost2010PropOp53
 70
     1
102
RTVSPost2010Prop54
  1
strokes_ogs.tif
102
RTVSPost2010PropOp54
 70
     1
102
RTVSPost2010Prop55
280
     0
102
RTVSPost2010PropOp55
 70
     1
102
RTVSPost2010Prop56
140
1.0
102
RTVSPost2010PropOp56
 70
     1
102
RTVSPost2010Prop57
140
1.0
102
RTVSPost2010PropOp57
 70
     1
102
RTVSPropertyOp0
 70
     1
102
RTVSPropertyOp1
 70
     1
102
RTVSPropertyOp2
 70
     1
102
RTVSPropertyOp3
 70
     1
102
RTVSPropertyOp4
 70
     1
102
RTVSPropertyOp5
 70
     1
102
RTVSPropertyOp6
 70
     1
102
RTVSPropertyOp7
 70
     1
102
RTVSPropertyOp8
 70
     1
102
RTVSPropertyOp9
 70
     1
102
RTVSPropertyOp10
 70
     1
102
RTVSPropertyOp11
 70
     1
102
RTVSPropertyOp12
 70
     1
102
RTVSPropertyOp13
 70
     1
102
RTVSPropertyOp14
 70
     1
102
RTVSPropertyOp15
 70
     1
102
RTVSPropertyOp16
 70
     1
102
RTVSPropertyOp17
 70
     1
102
RTVSPropertyOp18
 70
     1
102
RTVSPropertyOp19
 70
     1
102
RTVSPropertyOp20
 70
     1
102
RTVSPropertyOp21
 70
     1
102
RTVSPropertyOp22
 70
     1
102
RTVSPropertyOp23
 70
     1
102
RTVSPropertyOp24
 70
     1
102
RTVSPropertyOp25
 70
     1
102
RTVSPropertyOp26
 70
     1
102
RTVSPropertyOp27
 70
     1
102
RTVSPropertyOp28
 70
     1
102
RTVSPropertyOp29
 70
     1
102
RTVSPropertyOp30
 70
     1
102
RTVSPropertyOp31
 70
     1
102
RTVSPropertyOp32
 70
     1
102
RTVSPropertyOp33
 70
     1
102
RTVSPropertyOp34
 70
     1
102
RTVSPropertyOp35
 70
     1
102
RTVSPropertyOp36
 70
     1
102
RTVSPropertyOp37
 70
     1
102
RTVSPropertyOp38
 70
     1
102
RTVSPropertyOp39
 70
     1
102
RTVSPropertyOp40
 70
     1
102
RTVSPropertyOp41
 70
     1
102
RTVSPropertyOp42
 70
     1
102
RTVSPropertyOp43
 70
     1
102
RTVSPropertyOp44
 70
     1
102
RTVSPropertyOp45
 70
     1
102
RTVSPropertyOp46
 70
     1
102
RTVSPropertyOp47
 70
     1
102
RTVSPropertyOp48
 70
     1
102
RTVSPropertyOp49
 70
     1
102
RTVSPropertyOp50
 70
     1
102
RTVSPropertyOp51
 70
     0
102
RTVSPropertyOp52
 70
     0
102
RTVSPropertyOp53
 70
     1
102
RTVSPropertyOp54
 70
     1
102
RTVSPropertyOp55
 70
     1
102
RTVSPropertyOp56
 70
     1
102
RTVSPropertyOp57
 70
     1
102
RTVSPropertyOp58
 70
     1
102
RTVSPropertyOp59
 70
     1
102
RTVSPropertyOp60
 70
     1
102
RTVSPropertyOp61
 70
     1
102
RTVSPropertyOp62
 70
     1
  0
XRECORD
  5
162A
102
{ACAD_REACTORS
330
1629
102
}
330
1629
100
AcDbXrecord
280
     1
102
RTVSPost2010Prop28
280
     0
102
RTVSPost2010PropOp28
 70
     1
102
RTVSPost2010Prop29
280
     1
102
RTVSPost2010PropOp29
 70
     1
102
RTVSPost2010Prop30
280
     1
102
RTVSPost2010PropOp30
 70
     1
102
RTVSPost2010Prop31
280
     0
102
RTVSPost2010PropOp31
 70
     1
102
RTVSPost2010Prop32
280
     0
102
RTVSPost2010PropOp32
 70
     1
102
RTVSPost2010Prop33
280
     0
102
RTVSPost2010PropOp33
 70
     1
102
RTVSPost2010Prop34
280
     0
102
RTVSPost2010PropOp34
 70
     1
102
RTVSPost2010Prop35
280
     0
102
RTVSPost2010PropOp35
 70
     1
102
RTVSPost2010Prop36
280
     0
102
RTVSPost2010PropOp36
 70
     1
102
RTVSPost2010Prop37
 90
       50
102
RTVSPost2010PropOp37
 70
     1
102
RTVSPost2010Prop38
140
0.0
102
RTVSPost2010PropOp38
 70
     1
102
RTVSPost2010Prop39
140
1.0
102
RTVSPost2010PropOp39
 70
     1
102
RTVSPost2010Prop40
 90
        0
102
RTVSPost2010PropOp40
 70
     1
102
RTVSPost2010Prop41ColorIndex
 90
       18
102
RTVSPost2010Prop41ColorRGB
 90
        0
102
RTVSPost2010PropOp41
 70
     1
102
RTVSPost2010Prop42
 90
       50
102
RTVSPost2010PropOp42
 70
     1
102
RTVSPost2010Prop43
 90
        3
102
RTVSPost2010PropOp43
 70
     1
102
RTVSPost2010Prop44ColorIndex
 90
        5
102
RTVSPost2010Prop44ColorRGB
 90
      255
102
RTVSPost2010PropOp44
 70
     1
102
RTVSPost2010Prop45
280
     0
102
RTVSPost2010PropOp45
 70
     1
102
RTVSPost2010Prop46
 90
       50
102
RTVSPost2010PropOp46
 70
     1
102
RTVSPost2010Prop47
 90
       50
102
RTVSPost2010PropOp47
 70
     1
102
RTVSPost2010Prop48
 90
       50
102
RTVSPost2010PropOp48
 70
     1
102
RTVSPost2010Prop49
280
     0
102
RTVSPost2010PropOp49
 70
     1
102
RTVSPost2010Prop50
 90
       50
102
RTVSPost2010PropOp50
 70
     1
102
RTVSPost2010Prop51ColorIndex
 90
      256
102
RTVSPost2010Prop51ColorRGB
 90
-16777216
102
RTVSPost2010PropOp51
 70
     0
102
RTVSPost2010Prop52
140
1.0
102
RTVSPost2010PropOp52
 70
     0
102
RTVSPost2010Prop53
 90
        2
102
RTVSPost2010PropOp53
 70
     1
102
RTVSPost2010Prop54
  1
strokes_ogs.tif
102
RTVSPost2010PropOp54
 70
     1
102
RTVSPost2010Prop55
280
     0
102
RTVSPost2010PropOp55
 70
     1
102
RTVSPost2010Prop56
140
1.0
102
RTVSPost2010PropOp56
 70
     1
102
RTVSPost2010Prop57
140
1.0
102
RTVSPost2010PropOp57
 70
     1
102
RTVSPropertyOp0
 70
     1
102
RTVSPropertyOp1
 70
     1
102
RTVSPropertyOp2
 70
     1
102
RTVSPropertyOp3
 70
     1
102
RTVSPropertyOp4
 70
     1
102
RTVSPropertyOp5
 70
     1
102
RTVSPropertyOp6
 70
     1
102
RTVSPropertyOp7
 70
     1
102
RTVSPropertyOp8
 70
     1
102
RTVSPropertyOp9
 70
     1
102
RTVSPropertyOp10
 70
     1
102
RTVSPropertyOp11
 70
     1
102
RTVSPropertyOp12
 70
     1
102
RTVSPropertyOp13
 70
     1
102
RTVSPropertyOp14
 70
     1
102
RTVSPropertyOp15
 70
     1
102
RTVSPropertyOp16
 70
     1
102
RTVSPropertyOp17
 70
     1
102
RTVSPropertyOp18
 70
     1
102
RTVSPropertyOp19
 70
     1
102
RTVSPropertyOp20
 70
     1
102
RTVSPropertyOp21
 70
     1
102
RTVSPropertyOp22
 70
     1
102
RTVSPropertyOp23
 70
     1
102
RTVSPropertyOp24
 70
     1
102
RTVSPropertyOp25
 70
     1
102
RTVSPropertyOp26
 70
     1
102
RTVSPropertyOp27
 70
     1
102
RTVSPropertyOp28
 70
     1
102
RTVSPropertyOp29
 70
     1
102
RTVSPropertyOp30
 70
     1
102
RTVSPropertyOp31
 70
     1
102
RTVSPropertyOp32
 70
     1
102
RTVSPropertyOp33
 70
     1
102
RTVSPropertyOp34
 70
     1
102
RTVSPropertyOp35
 70
     1
102
RTVSPropertyOp36
 70
     1
102
RTVSPropertyOp37
 70
     1
102
RTVSPropertyOp38
 70
     1
102
RTVSPropertyOp39
 70
     1
102
RTVSPropertyOp40
 70
     1
102
RTVSPropertyOp41
 70
     1
102
RTVSPropertyOp42
 70
     1
102
RTVSPropertyOp43
 70
     1
102
RTVSPropertyOp44
 70
     1
102
RTVSPropertyOp45
 70
     1
102
RTVSPropertyOp46
 70
     1
102
RTVSPropertyOp47
 70
     1
102
RTVSPropertyOp48
 70
     1
102
RTVSPropertyOp49
 70
     1
102
RTVSPropertyOp50
 70
     1
102
RTVSPropertyOp51
 70
     0
102
RTVSPropertyOp52
 70
     0
102
RTVSPropertyOp53
 70
     1
102
RTVSPropertyOp54
 70
     1
102
RTVSPropertyOp55
 70
     1
102
RTVSPropertyOp56
 70
     1
102
RTVSPropertyOp57
 70
     1
102
RTVSPropertyOp58
 70
     1
102
RTVSPropertyOp59
 70
     1
102
RTVSPropertyOp60
 70
     1
102
RTVSPropertyOp61
 70
     1
102
RTVSPropertyOp62
 70
     1
  0
XRECORD
  5
1624
102
{ACAD_REACTORS
330
1623
102
}
330
1623
100
AcDbXrecord
280
     1
102
RTVSPost2010Prop28
280
     0
102
RTVSPost2010PropOp28
 70
     1
102
RTVSPost2010Prop29
280
     1
102
RTVSPost2010PropOp29
 70
     1
102
RTVSPost2010Prop30
280
     1
102
RTVSPost2010PropOp30
 70
     1
102
RTVSPost2010Prop31
280
     0
102
RTVSPost2010PropOp31
 70
     1
102
RTVSPost2010Prop32
280
     0
102
RTVSPost2010PropOp32
 70
     1
102
RTVSPost2010Prop33
280
     0
102
RTVSPost2010PropOp33
 70
     1
102
RTVSPost2010Prop34
280
     0
102
RTVSPost2010PropOp34
 70
     1
102
RTVSPost2010Prop35
280
     0
102
RTVSPost2010PropOp35
 70
     1
102
RTVSPost2010Prop36
280
     0
102
RTVSPost2010PropOp36
 70
     1
102
RTVSPost2010Prop37
 90
       50
102
RTVSPost2010PropOp37
 70
     1
102
RTVSPost2010Prop38
140
0.0
102
RTVSPost2010PropOp38
 70
     1
102
RTVSPost2010Prop39
140
1.0
102
RTVSPost2010PropOp39
 70
     1
102
RTVSPost2010Prop40
 90
        0
102
RTVSPost2010PropOp40
 70
     1
102
RTVSPost2010Prop41ColorIndex
 90
       18
102
RTVSPost2010Prop41ColorRGB
 90
        0
102
RTVSPost2010PropOp41
 70
     1
102
RTVSPost2010Prop42
 90
       50
102
RTVSPost2010PropOp42
 70
     1
102
RTVSPost2010Prop43
 90
        3
102
RTVSPost2010PropOp43
 70
     1
102
RTVSPost2010Prop44ColorIndex
 90
        5
102
RTVSPost2010Prop44ColorRGB
 90
      255
102
RTVSPost2010PropOp44
 70
     1
102
RTVSPost2010Prop45
280
     0
102
RTVSPost2010PropOp45
 70
     1
102
RTVSPost2010Prop46
 90
       50
102
RTVSPost2010PropOp46
 70
     1
102
RTVSPost2010Prop47
 90
       50
102
RTVSPost2010PropOp47
 70
     1
102
RTVSPost2010Prop48
 90
       50
102
RTVSPost2010PropOp48
 70
     1
102
RTVSPost2010Prop49
280
     0
102
RTVSPost2010PropOp49
 70
     1
102
RTVSPost2010Prop50
 90
       50
102
RTVSPost2010PropOp50
 70
     1
102
RTVSPost2010Prop51ColorIndex
 90
      256
102
RTVSPost2010Prop51ColorRGB
 90
-16777216
102
RTVSPost2010PropOp51
 70
     0
102
RTVSPost2010Prop52
140
1.0
102
RTVSPost2010PropOp52
 70
     0
102
RTVSPost2010Prop53
 90
        2
102
RTVSPost2010PropOp53
 70
     1
102
RTVSPost2010Prop54
  1
strokes_ogs.tif
102
RTVSPost2010PropOp54
 70
     1
102
RTVSPost2010Prop55
280
     0
102
RTVSPost2010PropOp55
 70
     1
102
RTVSPost2010Prop56
140
1.0
102
RTVSPost2010PropOp56
 70
     1
102
RTVSPost2010Prop57
140
1.0
102
RTVSPost2010PropOp57
 70
     1
102
RTVSPropertyOp0
 70
     1
102
RTVSPropertyOp1
 70
     1
102
RTVSPropertyOp2
 70
     1
102
RTVSPropertyOp3
 70
     1
102
RTVSPropertyOp4
 70
     1
102
RTVSPropertyOp5
 70
     1
102
RTVSPropertyOp6
 70
     1
102
RTVSPropertyOp7
 70
     1
102
RTVSPropertyOp8
 70
     1
102
RTVSPropertyOp9
 70
     1
102
RTVSPropertyOp10
 70
     1
102
RTVSPropertyOp11
 70
     1
102
RTVSPropertyOp12
 70
     1
102
RTVSPropertyOp13
 70
     1
102
RTVSPropertyOp14
 70
     1
102
RTVSPropertyOp15
 70
     1
102
RTVSPropertyOp16
 70
     1
102
RTVSPropertyOp17
 70
     1
102
RTVSPropertyOp18
 70
     1
102
RTVSPropertyOp19
 70
     1
102
RTVSPropertyOp20
 70
     1
102
RTVSPropertyOp21
 70
     1
102
RTVSPropertyOp22
 70
     1
102
RTVSPropertyOp23
 70
     1
102
RTVSPropertyOp24
 70
     1
102
RTVSPropertyOp25
 70
     1
102
RTVSPropertyOp26
 70
     1
102
RTVSPropertyOp27
 70
     1
102
RTVSPropertyOp28
 70
     1
102
RTVSPropertyOp29
 70
     1
102
RTVSPropertyOp30
 70
     1
102
RTVSPropertyOp31
 70
     1
102
RTVSPropertyOp32
 70
     1
102
RTVSPropertyOp33
 70
     1
102
RTVSPropertyOp34
 70
     1
102
RTVSPropertyOp35
 70
     1
102
RTVSPropertyOp36
 70
     1
102
RTVSPropertyOp37
 70
     1
102
RTVSPropertyOp38
 70
     1
102
RTVSPropertyOp39
 70
     1
102
RTVSPropertyOp40
 70
     1
102
RTVSPropertyOp41
 70
     1
102
RTVSPropertyOp42
 70
     1
102
RTVSPropertyOp43
 70
     1
102
RTVSPropertyOp44
 70
     1
102
RTVSPropertyOp45
 70
     1
102
RTVSPropertyOp46
 70
     1
102
RTVSPropertyOp47
 70
     1
102
RTVSPropertyOp48
 70
     1
102
RTVSPropertyOp49
 70
     1
102
RTVSPropertyOp50
 70
     1
102
RTVSPropertyOp51
 70
     0
102
RTVSPropertyOp52
 70
     0
102
RTVSPropertyOp53
 70
     1
102
RTVSPropertyOp54
 70
     1
102
RTVSPropertyOp55
 70
     1
102
RTVSPropertyOp56
 70
     1
102
RTVSPropertyOp57
 70
     1
102
RTVSPropertyOp58
 70
     1
102
RTVSPropertyOp59
 70
     1
102
RTVSPropertyOp60
 70
     1
102
RTVSPropertyOp61
 70
     1
102
RTVSPropertyOp62
 70
     1
  0
XRECORD
  5
1626
102
{ACAD_REACTORS
330
1625
102
}
330
1625
100
AcDbXrecord
280
     1
102
RTVSPost2010Prop28
280
     0
102
RTVSPost2010PropOp28
 70
     1
102
RTVSPost2010Prop29
280
     1
102
RTVSPost2010PropOp29
 70
     1
102
RTVSPost2010Prop30
280
     1
102
RTVSPost2010PropOp30
 70
     1
102
RTVSPost2010Prop31
280
     0
102
RTVSPost2010PropOp31
 70
     1
102
RTVSPost2010Prop32
280
     0
102
RTVSPost2010PropOp32
 70
     1
102
RTVSPost2010Prop33
280
     0
102
RTVSPost2010PropOp33
 70
     1
102
RTVSPost2010Prop34
280
     0
102
RTVSPost2010PropOp34
 70
     1
102
RTVSPost2010Prop35
280
     0
102
RTVSPost2010PropOp35
 70
     1
102
RTVSPost2010Prop36
280
     0
102
RTVSPost2010PropOp36
 70
     1
102
RTVSPost2010Prop37
 90
       50
102
RTVSPost2010PropOp37
 70
     1
102
RTVSPost2010Prop38
140
0.0
102
RTVSPost2010PropOp38
 70
     1
102
RTVSPost2010Prop39
140
1.0
102
RTVSPost2010PropOp39
 70
     1
102
RTVSPost2010Prop40
 90
        0
102
RTVSPost2010PropOp40
 70
     1
102
RTVSPost2010Prop41ColorIndex
 90
       18
102
RTVSPost2010Prop41ColorRGB
 90
        0
102
RTVSPost2010PropOp41
 70
     1
102
RTVSPost2010Prop42
 90
       50
102
RTVSPost2010PropOp42
 70
     1
102
RTVSPost2010Prop43
 90
        3
102
RTVSPost2010PropOp43
 70
     1
102
RTVSPost2010Prop44ColorIndex
 90
        5
102
RTVSPost2010Prop44ColorRGB
 90
      255
102
RTVSPost2010PropOp44
 70
     1
102
RTVSPost2010Prop45
280
     0
102
RTVSPost2010PropOp45
 70
     1
102
RTVSPost2010Prop46
 90
       50
102
RTVSPost2010PropOp46
 70
     1
102
RTVSPost2010Prop47
 90
       50
102
RTVSPost2010PropOp47
 70
     1
102
RTVSPost2010Prop48
 90
       50
102
RTVSPost2010PropOp48
 70
     1
102
RTVSPost2010Prop49
280
     0
102
RTVSPost2010PropOp49
 70
     1
102
RTVSPost2010Prop50
 90
       50
102
RTVSPost2010PropOp50
 70
     1
102
RTVSPost2010Prop51ColorIndex
 90
      256
102
RTVSPost2010Prop51ColorRGB
 90
-16777216
102
RTVSPost2010PropOp51
 70
     0
102
RTVSPost2010Prop52
140
1.0
102
RTVSPost2010PropOp52
 70
     0
102
RTVSPost2010Prop53
 90
        2
102
RTVSPost2010PropOp53
 70
     1
102
RTVSPost2010Prop54
  1
strokes_ogs.tif
102
RTVSPost2010PropOp54
 70
     1
102
RTVSPost2010Prop55
280
     0
102
RTVSPost2010PropOp55
 70
     1
102
RTVSPost2010Prop56
140
1.0
102
RTVSPost2010PropOp56
 70
     1
102
RTVSPost2010Prop57
140
1.0
102
RTVSPost2010PropOp57
 70
     1
102
RTVSPropertyOp0
 70
     1
102
RTVSPropertyOp1
 70
     1
102
RTVSPropertyOp2
 70
     1
102
RTVSPropertyOp3
 70
     1
102
RTVSPropertyOp4
 70
     1
102
RTVSPropertyOp5
 70
     1
102
RTVSPropertyOp6
 70
     1
102
RTVSPropertyOp7
 70
     1
102
RTVSPropertyOp8
 70
     1
102
RTVSPropertyOp9
 70
     1
102
RTVSPropertyOp10
 70
     1
102
RTVSPropertyOp11
 70
     1
102
RTVSPropertyOp12
 70
     1
102
RTVSPropertyOp13
 70
     1
102
RTVSPropertyOp14
 70
     1
102
RTVSPropertyOp15
 70
     1
102
RTVSPropertyOp16
 70
     1
102
RTVSPropertyOp17
 70
     1
102
RTVSPropertyOp18
 70
     1
102
RTVSPropertyOp19
 70
     1
102
RTVSPropertyOp20
 70
     1
102
RTVSPropertyOp21
 70
     1
102
RTVSPropertyOp22
 70
     1
102
RTVSPropertyOp23
 70
     1
102
RTVSPropertyOp24
 70
     1
102
RTVSPropertyOp25
 70
     1
102
RTVSPropertyOp26
 70
     1
102
RTVSPropertyOp27
 70
     1
102
RTVSPropertyOp28
 70
     1
102
RTVSPropertyOp29
 70
     1
102
RTVSPropertyOp30
 70
     1
102
RTVSPropertyOp31
 70
     1
102
RTVSPropertyOp32
 70
     1
102
RTVSPropertyOp33
 70
     1
102
RTVSPropertyOp34
 70
     1
102
RTVSPropertyOp35
 70
     1
102
RTVSPropertyOp36
 70
     1
102
RTVSPropertyOp37
 70
     1
102
RTVSPropertyOp38
 70
     1
102
RTVSPropertyOp39
 70
     1
102
RTVSPropertyOp40
 70
     1
102
RTVSPropertyOp41
 70
     1
102
RTVSPropertyOp42
 70
     1
102
RTVSPropertyOp43
 70
     1
102
RTVSPropertyOp44
 70
     1
102
RTVSPropertyOp45
 70
     1
102
RTVSPropertyOp46
 70
     1
102
RTVSPropertyOp47
 70
     1
102
RTVSPropertyOp48
 70
     1
102
RTVSPropertyOp49
 70
     1
102
RTVSPropertyOp50
 70
     1
102
RTVSPropertyOp51
 70
     0
102
RTVSPropertyOp52
 70
     0
102
RTVSPropertyOp53
 70
     1
102
RTVSPropertyOp54
 70
     1
102
RTVSPropertyOp55
 70
     1
102
RTVSPropertyOp56
 70
     1
102
RTVSPropertyOp57
 70
     1
102
RTVSPropertyOp58
 70
     1
102
RTVSPropertyOp59
 70
     1
102
RTVSPropertyOp60
 70
     1
102
RTVSPropertyOp61
 70
     1
102
RTVSPropertyOp62
 70
     1
  0
XRECORD
  5
161C
102
{ACAD_REACTORS
330
161B
102
}
330
161B
100
AcDbXrecord
280
     1
102
RTVSPost2010Prop28
280
     0
102
RTVSPost2010PropOp28
 70
     1
102
RTVSPost2010Prop29
280
     1
102
RTVSPost2010PropOp29
 70
     1
102
RTVSPost2010Prop30
280
     1
102
RTVSPost2010PropOp30
 70
     1
102
RTVSPost2010Prop31
280
     0
102
RTVSPost2010PropOp31
 70
     1
102
RTVSPost2010Prop32
280
     0
102
RTVSPost2010PropOp32
 70
     1
102
RTVSPost2010Prop33
280
     0
102
RTVSPost2010PropOp33
 70
     1
102
RTVSPost2010Prop34
280
     0
102
RTVSPost2010PropOp34
 70
     1
102
RTVSPost2010Prop35
280
     0
102
RTVSPost2010PropOp35
 70
     1
102
RTVSPost2010Prop36
280
     0
102
RTVSPost2010PropOp36
 70
     1
102
RTVSPost2010Prop37
 90
       50
102
RTVSPost2010PropOp37
 70
     1
102
RTVSPost2010Prop38
140
0.0
102
RTVSPost2010PropOp38
 70
     1
102
RTVSPost2010Prop39
140
1.0
102
RTVSPost2010PropOp39
 70
     1
102
RTVSPost2010Prop40
 90
        0
102
RTVSPost2010PropOp40
 70
     1
102
RTVSPost2010Prop41ColorIndex
 90
       18
102
RTVSPost2010Prop41ColorRGB
 90
        0
102
RTVSPost2010PropOp41
 70
     1
102
RTVSPost2010Prop42
 90
       50
102
RTVSPost2010PropOp42
 70
     1
102
RTVSPost2010Prop43
 90
        3
102
RTVSPost2010PropOp43
 70
     1
102
RTVSPost2010Prop44ColorIndex
 90
        5
102
RTVSPost2010Prop44ColorRGB
 90
      255
102
RTVSPost2010PropOp44
 70
     1
102
RTVSPost2010Prop45
280
     0
102
RTVSPost2010PropOp45
 70
     1
102
RTVSPost2010Prop46
 90
       50
102
RTVSPost2010PropOp46
 70
     1
102
RTVSPost2010Prop47
 90
       50
102
RTVSPost2010PropOp47
 70
     1
102
RTVSPost2010Prop48
 90
       50
102
RTVSPost2010PropOp48
 70
     1
102
RTVSPost2010Prop49
280
     0
102
RTVSPost2010PropOp49
 70
     1
102
RTVSPost2010Prop50
 90
       50
102
RTVSPost2010PropOp50
 70
     1
102
RTVSPost2010Prop51ColorIndex
 90
      256
102
RTVSPost2010Prop51ColorRGB
 90
-16777216
102
RTVSPost2010PropOp51
 70
     0
102
RTVSPost2010Prop52
140
1.0
102
RTVSPost2010PropOp52
 70
     0
102
RTVSPost2010Prop53
 90
        2
102
RTVSPost2010PropOp53
 70
     1
102
RTVSPost2010Prop54
  1
strokes_ogs.tif
102
RTVSPost2010PropOp54
 70
     1
102
RTVSPost2010Prop55
280
     0
102
RTVSPost2010PropOp55
 70
     1
102
RTVSPost2010Prop56
140
1.0
102
RTVSPost2010PropOp56
 70
     1
102
RTVSPost2010Prop57
140
1.0
102
RTVSPost2010PropOp57
 70
     1
102
RTVSPropertyOp0
 70
     1
102
RTVSPropertyOp1
 70
     1
102
RTVSPropertyOp2
 70
     1
102
RTVSPropertyOp3
 70
     1
102
RTVSPropertyOp4
 70
     1
102
RTVSPropertyOp5
 70
     1
102
RTVSPropertyOp6
 70
     1
102
RTVSPropertyOp7
 70
     1
102
RTVSPropertyOp8
 70
     1
102
RTVSPropertyOp9
 70
     1
102
RTVSPropertyOp10
 70
     1
102
RTVSPropertyOp11
 70
     1
102
RTVSPropertyOp12
 70
     1
102
RTVSPropertyOp13
 70
     1
102
RTVSPropertyOp14
 70
     1
102
RTVSPropertyOp15
 70
     1
102
RTVSPropertyOp16
 70
     1
102
RTVSPropertyOp17
 70
     1
102
RTVSPropertyOp18
 70
     1
102
RTVSPropertyOp19
 70
     1
102
RTVSPropertyOp20
 70
     1
102
RTVSPropertyOp21
 70
     1
102
RTVSPropertyOp22
 70
     1
102
RTVSPropertyOp23
 70
     1
102
RTVSPropertyOp24
 70
     1
102
RTVSPropertyOp25
 70
     1
102
RTVSPropertyOp26
 70
     1
102
RTVSPropertyOp27
 70
     1
102
RTVSPropertyOp28
 70
     1
102
RTVSPropertyOp29
 70
     1
102
RTVSPropertyOp30
 70
     1
102
RTVSPropertyOp31
 70
     1
102
RTVSPropertyOp32
 70
     1
102
RTVSPropertyOp33
 70
     1
102
RTVSPropertyOp34
 70
     1
102
RTVSPropertyOp35
 70
     1
102
RTVSPropertyOp36
 70
     1
102
RTVSPropertyOp37
 70
     1
102
RTVSPropertyOp38
 70
     1
102
RTVSPropertyOp39
 70
     1
102
RTVSPropertyOp40
 70
     1
102
RTVSPropertyOp41
 70
     1
102
RTVSPropertyOp42
 70
     1
102
RTVSPropertyOp43
 70
     1
102
RTVSPropertyOp44
 70
     1
102
RTVSPropertyOp45
 70
     1
102
RTVSPropertyOp46
 70
     1
102
RTVSPropertyOp47
 70
     1
102
RTVSPropertyOp48
 70
     1
102
RTVSPropertyOp49
 70
     1
102
RTVSPropertyOp50
 70
     1
102
RTVSPropertyOp51
 70
     0
102
RTVSPropertyOp52
 70
     0
102
RTVSPropertyOp53
 70
     1
102
RTVSPropertyOp54
 70
     1
102
RTVSPropertyOp55
 70
     1
102
RTVSPropertyOp56
 70
     1
102
RTVSPropertyOp57
 70
     1
102
RTVSPropertyOp58
 70
     1
102
RTVSPropertyOp59
 70
     1
102
RTVSPropertyOp60
 70
     1
102
RTVSPropertyOp61
 70
     1
102
RTVSPropertyOp62
 70
     1
  0
XRECORD
  5
1610
102
{ACAD_REACTORS
330
160F
102
}
330
160F
100
AcDbXrecord
280
     1
102
RTVSPost2010Prop28
280
     0
102
RTVSPost2010PropOp28
 70
     1
102
RTVSPost2010Prop29
280
     1
102
RTVSPost2010PropOp29
 70
     1
102
RTVSPost2010Prop30
280
     1
102
RTVSPost2010PropOp30
 70
     1
102
RTVSPost2010Prop31
280
     0
102
RTVSPost2010PropOp31
 70
     1
102
RTVSPost2010Prop32
280
     0
102
RTVSPost2010PropOp32
 70
     1
102
RTVSPost2010Prop33
280
     0
102
RTVSPost2010PropOp33
 70
     1
102
RTVSPost2010Prop34
280
     0
102
RTVSPost2010PropOp34
 70
     1
102
RTVSPost2010Prop35
280
     0
102
RTVSPost2010PropOp35
 70
     1
102
RTVSPost2010Prop36
280
     0
102
RTVSPost2010PropOp36
 70
     1
102
RTVSPost2010Prop37
 90
       50
102
RTVSPost2010PropOp37
 70
     1
102
RTVSPost2010Prop38
140
0.0
102
RTVSPost2010PropOp38
 70
     1
102
RTVSPost2010Prop39
140
1.0
102
RTVSPost2010PropOp39
 70
     1
102
RTVSPost2010Prop40
 90
        0
102
RTVSPost2010PropOp40
 70
     1
102
RTVSPost2010Prop41ColorIndex
 90
       18
102
RTVSPost2010Prop41ColorRGB
 90
        0
102
RTVSPost2010PropOp41
 70
     1
102
RTVSPost2010Prop42
 90
       50
102
RTVSPost2010PropOp42
 70
     1
102
RTVSPost2010Prop43
 90
        3
102
RTVSPost2010PropOp43
 70
     1
102
RTVSPost2010Prop44ColorIndex
 90
        5
102
RTVSPost2010Prop44ColorRGB
 90
      255
102
RTVSPost2010PropOp44
 70
     1
102
RTVSPost2010Prop45
280
     0
102
RTVSPost2010PropOp45
 70
     1
102
RTVSPost2010Prop46
 90
       50
102
RTVSPost2010PropOp46
 70
     1
102
RTVSPost2010Prop47
 90
       50
102
RTVSPost2010PropOp47
 70
     1
102
RTVSPost2010Prop48
 90
       50
102
RTVSPost2010PropOp48
 70
     1
102
RTVSPost2010Prop49
280
     0
102
RTVSPost2010PropOp49
 70
     1
102
RTVSPost2010Prop50
 90
       50
102
RTVSPost2010PropOp50
 70
     1
102
RTVSPost2010Prop51ColorIndex
 90
      256
102
RTVSPost2010Prop51ColorRGB
 90
-16777216
102
RTVSPost2010PropOp51
 70
     0
102
RTVSPost2010Prop52
140
1.0
102
RTVSPost2010PropOp52
 70
     0
102
RTVSPost2010Prop53
 90
        2
102
RTVSPost2010PropOp53
 70
     1
102
RTVSPost2010Prop54
  1
strokes_ogs.tif
102
RTVSPost2010PropOp54
 70
     1
102
RTVSPost2010Prop55
280
     0
102
RTVSPost2010PropOp55
 70
     1
102
RTVSPost2010Prop56
140
1.0
102
RTVSPost2010PropOp56
 70
     1
102
RTVSPost2010Prop57
140
1.0
102
RTVSPost2010PropOp57
 70
     1
102
RTVSPropertyOp0
 70
     1
102
RTVSPropertyOp1
 70
     1
102
RTVSPropertyOp2
 70
     1
102
RTVSPropertyOp3
 70
     1
102
RTVSPropertyOp4
 70
     1
102
RTVSPropertyOp5
 70
     1
102
RTVSPropertyOp6
 70
     1
102
RTVSPropertyOp7
 70
     1
102
RTVSPropertyOp8
 70
     1
102
RTVSPropertyOp9
 70
     1
102
RTVSPropertyOp10
 70
     1
102
RTVSPropertyOp11
 70
     1
102
RTVSPropertyOp12
 70
     1
102
RTVSPropertyOp13
 70
     1
102
RTVSPropertyOp14
 70
     1
102
RTVSPropertyOp15
 70
     1
102
RTVSPropertyOp16
 70
     1
102
RTVSPropertyOp17
 70
     1
102
RTVSPropertyOp18
 70
     1
102
RTVSPropertyOp19
 70
     1
102
RTVSPropertyOp20
 70
     1
102
RTVSPropertyOp21
 70
     1
102
RTVSPropertyOp22
 70
     1
102
RTVSPropertyOp23
 70
     1
102
RTVSPropertyOp24
 70
     1
102
RTVSPropertyOp25
 70
     1
102
RTVSPropertyOp26
 70
     1
102
RTVSPropertyOp27
 70
     1
102
RTVSPropertyOp28
 70
     1
102
RTVSPropertyOp29
 70
     1
102
RTVSPropertyOp30
 70
     1
102
RTVSPropertyOp31
 70
     1
102
RTVSPropertyOp32
 70
     1
102
RTVSPropertyOp33
 70
     1
102
RTVSPropertyOp34
 70
     1
102
RTVSPropertyOp35
 70
     1
102
RTVSPropertyOp36
 70
     1
102
RTVSPropertyOp37
 70
     1
102
RTVSPropertyOp38
 70
     1
102
RTVSPropertyOp39
 70
     1
102
RTVSPropertyOp40
 70
     1
102
RTVSPropertyOp41
 70
     1
102
RTVSPropertyOp42
 70
     1
102
RTVSPropertyOp43
 70
     1
102
RTVSPropertyOp44
 70
     1
102
RTVSPropertyOp45
 70
     1
102
RTVSPropertyOp46
 70
     1
102
RTVSPropertyOp47
 70
     1
102
RTVSPropertyOp48
 70
     1
102
RTVSPropertyOp49
 70
     1
102
RTVSPropertyOp50
 70
     1
102
RTVSPropertyOp51
 70
     0
102
RTVSPropertyOp52
 70
     0
102
RTVSPropertyOp53
 70
     1
102
RTVSPropertyOp54
 70
     1
102
RTVSPropertyOp55
 70
     1
102
RTVSPropertyOp56
 70
     1
102
RTVSPropertyOp57
 70
     1
102
RTVSPropertyOp58
 70
     1
102
RTVSPropertyOp59
 70
     1
102
RTVSPropertyOp60
 70
     1
102
RTVSPropertyOp61
 70
     1
102
RTVSPropertyOp62
 70
     1
  0
XRECORD
  5
1628
102
{ACAD_REACTORS
330
1627
102
}
330
1627
100
AcDbXrecord
280
     1
102
RTVSPost2010Prop28
280
     0
102
RTVSPost2010PropOp28
 70
     1
102
RTVSPost2010Prop29
280
     1
102
RTVSPost2010PropOp29
 70
     1
102
RTVSPost2010Prop30
280
     1
102
RTVSPost2010PropOp30
 70
     1
102
RTVSPost2010Prop31
280
     0
102
RTVSPost2010PropOp31
 70
     1
102
RTVSPost2010Prop32
280
     0
102
RTVSPost2010PropOp32
 70
     1
102
RTVSPost2010Prop33
280
     0
102
RTVSPost2010PropOp33
 70
     1
102
RTVSPost2010Prop34
280
     0
102
RTVSPost2010PropOp34
 70
     1
102
RTVSPost2010Prop35
280
     0
102
RTVSPost2010PropOp35
 70
     1
102
RTVSPost2010Prop36
280
     0
102
RTVSPost2010PropOp36
 70
     1
102
RTVSPost2010Prop37
 90
       50
102
RTVSPost2010PropOp37
 70
     1
102
RTVSPost2010Prop38
140
0.0
102
RTVSPost2010PropOp38
 70
     1
102
RTVSPost2010Prop39
140
1.0
102
RTVSPost2010PropOp39
 70
     1
102
RTVSPost2010Prop40
 90
        0
102
RTVSPost2010PropOp40
 70
     1
102
RTVSPost2010Prop41ColorIndex
 90
       18
102
RTVSPost2010Prop41ColorRGB
 90
        0
102
RTVSPost2010PropOp41
 70
     1
102
RTVSPost2010Prop42
 90
       50
102
RTVSPost2010PropOp42
 70
     1
102
RTVSPost2010Prop43
 90
        3
102
RTVSPost2010PropOp43
 70
     1
102
RTVSPost2010Prop44ColorIndex
 90
        5
102
RTVSPost2010Prop44ColorRGB
 90
      255
102
RTVSPost2010PropOp44
 70
     1
102
RTVSPost2010Prop45
280
     0
102
RTVSPost2010PropOp45
 70
     1
102
RTVSPost2010Prop46
 90
       50
102
RTVSPost2010PropOp46
 70
     1
102
RTVSPost2010Prop47
 90
       50
102
RTVSPost2010PropOp47
 70
     1
102
RTVSPost2010Prop48
 90
       50
102
RTVSPost2010PropOp48
 70
     1
102
RTVSPost2010Prop49
280
     0
102
RTVSPost2010PropOp49
 70
     1
102
RTVSPost2010Prop50
 90
       50
102
RTVSPost2010PropOp50
 70
     1
102
RTVSPost2010Prop51ColorIndex
 90
      256
102
RTVSPost2010Prop51ColorRGB
 90
-16777216
102
RTVSPost2010PropOp51
 70
     0
102
RTVSPost2010Prop52
140
1.0
102
RTVSPost2010PropOp52
 70
     0
102
RTVSPost2010Prop53
 90
        2
102
RTVSPost2010PropOp53
 70
     1
102
RTVSPost2010Prop54
  1
strokes_ogs.tif
102
RTVSPost2010PropOp54
 70
     1
102
RTVSPost2010Prop55
280
     0
102
RTVSPost2010PropOp55
 70
     1
102
RTVSPost2010Prop56
140
1.0
102
RTVSPost2010PropOp56
 70
     1
102
RTVSPost2010Prop57
140
1.0
102
RTVSPost2010PropOp57
 70
     1
102
RTVSPropertyOp0
 70
     1
102
RTVSPropertyOp1
 70
     1
102
RTVSPropertyOp2
 70
     1
102
RTVSPropertyOp3
 70
     1
102
RTVSPropertyOp4
 70
     1
102
RTVSPropertyOp5
 70
     1
102
RTVSPropertyOp6
 70
     1
102
RTVSPropertyOp7
 70
     1
102
RTVSPropertyOp8
 70
     1
102
RTVSPropertyOp9
 70
     1
102
RTVSPropertyOp10
 70
     1
102
RTVSPropertyOp11
 70
     1
102
RTVSPropertyOp12
 70
     1
102
RTVSPropertyOp13
 70
     1
102
RTVSPropertyOp14
 70
     1
102
RTVSPropertyOp15
 70
     1
102
RTVSPropertyOp16
 70
     1
102
RTVSPropertyOp17
 70
     1
102
RTVSPropertyOp18
 70
     1
102
RTVSPropertyOp19
 70
     1
102
RTVSPropertyOp20
 70
     1
102
RTVSPropertyOp21
 70
     1
102
RTVSPropertyOp22
 70
     1
102
RTVSPropertyOp23
 70
     1
102
RTVSPropertyOp24
 70
     1
102
RTVSPropertyOp25
 70
     1
102
RTVSPropertyOp26
 70
     1
102
RTVSPropertyOp27
 70
     1
102
RTVSPropertyOp28
 70
     1
102
RTVSPropertyOp29
 70
     1
102
RTVSPropertyOp30
 70
     1
102
RTVSPropertyOp31
 70
     1
102
RTVSPropertyOp32
 70
     1
102
RTVSPropertyOp33
 70
     1
102
RTVSPropertyOp34
 70
     1
102
RTVSPropertyOp35
 70
     1
102
RTVSPropertyOp36
 70
     1
102
RTVSPropertyOp37
 70
     1
102
RTVSPropertyOp38
 70
     1
102
RTVSPropertyOp39
 70
     1
102
RTVSPropertyOp40
 70
     1
102
RTVSPropertyOp41
 70
     1
102
RTVSPropertyOp42
 70
     1
102
RTVSPropertyOp43
 70
     1
102
RTVSPropertyOp44
 70
     1
102
RTVSPropertyOp45
 70
     1
102
RTVSPropertyOp46
 70
     1
102
RTVSPropertyOp47
 70
     1
102
RTVSPropertyOp48
 70
     1
102
RTVSPropertyOp49
 70
     1
102
RTVSPropertyOp50
 70
     1
102
RTVSPropertyOp51
 70
     0
102
RTVSPropertyOp52
 70
     0
102
RTVSPropertyOp53
 70
     1
102
RTVSPropertyOp54
 70
     1
102
RTVSPropertyOp55
 70
     1
102
RTVSPropertyOp56
 70
     1
102
RTVSPropertyOp57
 70
     1
102
RTVSPropertyOp58
 70
     1
102
RTVSPropertyOp59
 70
     1
102
RTVSPropertyOp60
 70
     1
102
RTVSPropertyOp61
 70
     1
102
RTVSPropertyOp62
 70
     1
  0
ENDSEC
  0
EOF
