  0
SECTION
  2
HEADER
  9
$ACADVER
  1
AC1015
  9
$ACADMAINTVER
 70
    20
  9
$DWGCODEPAGE
  3
ANSI_932
  9
$INSBASE
 10
0.0
 20
0.0
 30
0.0
  9
$EXTMIN
 10
9.9999975266385
 20
10.0
 30
0.0
  9
$EXTMAX
 10
563.6986235263381
 20
357.6363249207806
 30
0.0
  9
$LIMMIN
 10
0.0000015376081137
 20
-0.0000001931532552
  9
$LIMMAX
 10
612.000001537608
 20
421.9090907159372
  9
$ORTHOMODE
 70
     1
  9
$REGENMODE
 70
     1
  9
$FILLMODE
 70
     1
  9
$QTEXTMODE
 70
     0
  9
$MIRRTEXT
 70
     1
  9
$LTSCALE
 40
1.0
  9
$ATTMODE
 70
     1
  9
$TEXTSIZE
 40
2.5
  9
$TRACEWID
 40
1.0
  9
$TEXTSTYLE
  7
STANDARD
  9
$CLAYER
  8
0
  9
$CELTYPE
  6
BYLAYER
  9
$CECOLOR
 62
   256
  9
$CELTSCALE
 40
1.0
  9
$DISPSILH
 70
     0
  9
$DIMSCALE
 40
1.0
  9
$DIMASZ
 40
3.0
  9
$DIMEXO
 40
1.0
  9
$DIMDLI
 40
10.0
  9
$DIMRND
 40
0.0
  9
$DIMDLE
 40
0.0
  9
$DIMEXE
 40
1.0
  9
$DIMTP
 40
0.0
  9
$DIMTM
 40
0.0
  9
$DIMTXT
 40
3.2
  9
$DIMCEN
 40
0.0
  9
$DIMTSZ
 40
0.0
  9
$DIMTOL
 70
     0
  9
$DIMLIM
 70
     0
  9
$DIMTIH
 70
     0
  9
$DIMTOH
 70
     0
  9
$DIMSE1
 70
     0
  9
$DIMSE2
 70
     0
  9
$DIMTAD
 70
     3
  9
$DIMZIN
 70
     8
  9
$DIMBLK
  1

  9
$DIMASO
 70
     1
  9
$DIMSHO
 70
     1
  9
$DIMPOST
  1

  9
$DIMAPOST
  1

  9
$DIMALT
 70
     0
  9
$DIMALTD
 70
     2
  9
$DIMALTF
 40
25.4
  9
$DIMLFAC
 40
1.0
  9
$DIMTOFL
 70
     1
  9
$DIMTVP
 40
0.0
  9
$DIMTIX
 70
     0
  9
$DIMSOXD
 70
     0
  9
$DIMSAH
 70
     1
  9
$DIMBLK1
  1
OPEN
  9
$DIMBLK2
  1
OPEN
  9
$DIMSTYLE
  2
STANDARD
  9
$DIMCLRD
 70
     0
  9
$DIMCLRE
 70
     0
  9
$DIMCLRT
 70
     0
  9
$DIMTFAC
 40
1.0
  9
$DIMGAP
 40
1.0
  9
$DIMJUST
 70
     0
  9
$DIMSD1
 70
     0
  9
$DIMSD2
 70
     0
  9
$DIMTOLJ
 70
     1
  9
$DIMTZIN
 70
     0
  9
$DIMALTZ
 70
     0
  9
$DIMALTTZ
 70
     0
  9
$DIMUPT
 70
     0
  9
$DIMDEC
 70
     4
  9
$DIMTDEC
 70
     4
  9
$DIMALTU
 70
     2
  9
$DIMALTTD
 70
     2
  9
$DIMTXSTY
  7
STANDARD
  9
$DIMAUNIT
 70
     0
  9
$DIMADEC
 70
     0
  9
$DIMALTRND
 40
0.0
  9
$DIMAZIN
 70
     0
  9
$DIMDSEP
 70
    46
  9
$DIMATFIT
 70
     3
  9
$DIMFRAC
 70
     0
  9
$DIMLDRBLK
  1
OPEN
  9
$DIMLUNIT
 70
     2
  9
$DIMLWD
 70
    -2
  9
$DIMLWE
 70
    -2
  9
$DIMTMOVE
 70
     0
  9
$LUNITS
 70
     2
  9
$LUPREC
 70
     4
  9
$SKETCHINC
 40
1.0
  9
$FILLETRAD
 40
0.0
  9
$AUNITS
 70
     0
  9
$AUPREC
 70
     0
  9
$MENU
  1
.
  9
$ELEVATION
 40
0.0
  9
$PELEVATION
 40
0.0
  9
$THICKNESS
 40
0.0
  9
$LIMCHECK
 70
     0
  9
$CHAMFERA
 40
10.0
  9
$CHAMFERB
 40
10.0
  9
$CHAMFERC
 40
0.0
  9
$CHAMFERD
 40
0.0
  9
$SKPOLY
 70
     0
  9
$TDCREATE
 40
2452262.374013669
  9
$TDUCREATE
 40
2452261.999013669
  9
$TDUPDATE
 40
2457192.643182419
  9
$TDUUPDATE
 40
2457192.268182419
  9
$TDINDWG
 40
0.0907643287
  9
$TDUSRTIMER
 40
0.0907641898
  9
$USRTIMER
 70
     1
  9
$ANGBASE
 50
0.0
  9
$ANGDIR
 70
     0
  9
$PDMODE
 70
     0
  9
$PDSIZE
 40
0.0
  9
$PLINEWID
 40
0.0
  9
$SPLFRAME
 70
     0
  9
$SPLINETYPE
 70
     6
  9
$SPLINESEGS
 70
     8
  9
$HANDSEED
  5
1D08
  9
$SURFTAB1
 70
     6
  9
$SURFTAB2
 70
     6
  9
$SURFTYPE
 70
     6
  9
$SURFU
 70
     6
  9
$SURFV
 70
     6
  9
$UCSBASE
  2

  9
$UCSNAME
  2

  9
$UCSORG
 10
0.0
 20
0.0
 30
0.0
  9
$UCSXDIR
 10
1.0
 20
0.0
 30
0.0
  9
$UCSYDIR
 10
0.0
 20
1.0
 30
0.0
  9
$UCSORTHOREF
  2

  9
$UCSORTHOVIEW
 70
     0
  9
$UCSORGTOP
 10
0.0
 20
0.0
 30
0.0
  9
$UCSORGBOTTOM
 10
0.0
 20
0.0
 30
0.0
  9
$UCSORGLEFT
 10
0.0
 20
0.0
 30
0.0
  9
$UCSORGRIGHT
 10
0.0
 20
0.0
 30
0.0
  9
$UCSORGFRONT
 10
0.0
 20
0.0
 30
0.0
  9
$UCSORGBACK
 10
0.0
 20
0.0
 30
0.0
  9
$PUCSBASE
  2

  9
$PUCSNAME
  2

  9
$PUCSORG
 10
0.0
 20
0.0
 30
0.0
  9
$PUCSXDIR
 10
1.0
 20
0.0
 30
0.0
  9
$PUCSYDIR
 10
0.0
 20
1.0
 30
0.0
  9
$PUCSORTHOREF
  2

  9
$PUCSORTHOVIEW
 70
     0
  9
$PUCSORGTOP
 10
0.0
 20
0.0
 30
0.0
  9
$PUCSORGBOTTOM
 10
0.0
 20
0.0
 30
0.0
  9
$PUCSORGLEFT
 10
0.0
 20
0.0
 30
0.0
  9
$PUCSORGRIGHT
 10
0.0
 20
0.0
 30
0.0
  9
$PUCSORGFRONT
 10
0.0
 20
0.0
 30
0.0
  9
$PUCSORGBACK
 10
0.0
 20
0.0
 30
0.0
  9
$USERI1
 70
     0
  9
$USERI2
 70
     0
  9
$USERI3
 70
     0
  9
$USERI4
 70
     0
  9
$USERI5
 70
     0
  9
$USERR1
 40
0.0
  9
$USERR2
 40
0.0
  9
$USERR3
 40
0.0
  9
$USERR4
 40
0.0
  9
$USERR5
 40
0.0
  9
$WORLDVIEW
 70
     1
  9
$SHADEDGE
 70
     3
  9
$SHADEDIF
 70
    70
  9
$TILEMODE
 70
     1
  9
$MAXACTVP
 70
    48
  9
$PINSBASE
 10
0.0
 20
0.0
 30
0.0
  9
$PLIMCHECK
 70
     0
  9
$PEXTMIN
 10
1.000000000000000E+20
 20
1.000000000000000E+20
 30
1.000000000000000E+20
  9
$PEXTMAX
 10
-1.000000000000000E+20
 20
-1.000000000000000E+20
 30
-1.000000000000000E+20
  9
$PLIMMIN
 10
0.0
 20
0.0
  9
$PLIMMAX
 10
420.0
 20
297.0
  9
$UNITMODE
 70
     0
  9
$VISRETAIN
 70
     1
  9
$PLINEGEN
 70
     0
  9
$PSLTSCALE
 70
     1
  9
$TREEDEPTH
 70
  3020
  9
$CMLSTYLE
  2
STANDARD
  9
$CMLJUST
 70
     0
  9
$CMLSCALE
 40
1.0
  9
$PROXYGRAPHICS
 70
     1
  9
$MEASUREMENT
 70
     0
  9
$CELWEIGHT
370
    -1
  9
$ENDCAPS
280
     0
  9
$JOINSTYLE
280
     0
  9
$LWDISPLAY
290
     0
  9
$INSUNITS
 70
     0
  9
$HYPERLINKBASE
  1

  9
$STYLESHEET
  1

  9
$XEDIT
290
     1
  9
$CEPSNTYPE
380
     0
  9
$PSTYLEMODE
290
     1
  9
$FINGERPRINTGUID
  2
{DB365C61-6A77-4321-997B-5D70C16C504D}
  9
$VERSIONGUID
  2
{4232BC2C-D550-4FBB-861D-16C5B000C36B}
  9
$EXTNAMES
290
     1
  9
$PSVPSCALE
 40
0.0
  9
$OLESTARTUP
290
     0
  0
ENDSEC
  0
SECTION
  2
CLASSES
  0
CLASS
  1
ACDBDICTIONARYWDFLT
  2
AcDbDictionaryWithDefault
  3
ObjectDBX Classes
 90
        0
280
     0
281
     0
  0
CLASS
  1
ACDBPLACEHOLDER
  2
AcDbPlaceHolder
  3
ObjectDBX Classes
 90
        0
280
     0
281
     0
  0
CLASS
  1
LAYOUT
  2
AcDbLayout
  3
ObjectDBX Classes
 90
        0
280
     0
281
     0
  0
CLASS
  1
DICTIONARYVAR
  2
AcDbDictionaryVar
  3
ObjectDBX Classes
 90
        0
280
     0
281
     0
  0
CLASS
  1
MATERIAL
  2
AcDbMaterial
  3
ObjectDBX Classes
 90
     1153
280
     0
281
     0
  0
CLASS
  1
VISUALSTYLE
  2
AcDbVisualStyle
  3
ObjectDBX Classes
 90
     4095
280
     0
281
     0
  0
CLASS
  1
TABLESTYLE
  2
AcDbTableStyle
  3
ObjectDBX Classes
 90
     4095
280
     0
281
     0
  0
CLASS
  1
SCALE
  2
AcDbScale
  3
ObjectDBX Classes
 90
     1153
280
     0
281
     0
  0
CLASS
  1
MLEADERSTYLE
  2
AcDbMLeaderStyle
  3
ACDB_MLEADERSTYLE_CLASS
 90
     4095
280
     0
281
     0
  0
CLASS
  1
ACDBSECTIONVIEWSTYLE
  2
AcDbSectionViewStyle
  3
ObjectDBX Classes
 90
     1025
280
     0
281
     0
  0
CLASS
  1
ACDBDETAILVIEWSTYLE
  2
AcDbDetailViewStyle
  3
ObjectDBX Classes
 90
     1025
280
     0
281
     0
  0
CLASS
  1
CELLSTYLEMAP
  2
AcDbCellStyleMap
  3
ObjectDBX Classes
 90
     1152
280
     0
281
     0
  0
ENDSEC
  0
SECTION
  2
TABLES
  0
TABLE
  2
VPORT
  5
185B
330
0
100
AcDbSymbolTable
 70
     1
  0
VPORT
  5
1C52
330
185B
100
AcDbSymbolTableRecord
100
AcDbViewportTableRecord
  2
*ACTIVE
 70
     0
 10
0.0
 20
0.0
 11
1.0
 21
1.0
 12
392.1509296355302
 22
183.8191272335315
 13
0.0
 23
0.0
 14
10.0
 24
10.0
 15
10.0
 25
10.0
 16
0.0
 26
0.0
 36
1.0
 17
0.0
 27
0.0
 37
0.0
 40
351.5305558494916
 41
1.899603698811096
 42
50.0
 43
0.0
 44
0.0
 50
0.0
 51
0.0
 71
     0
 72
   100
 73
     1
 74
     0
 75
     0
 76
     0
 77
     0
 78
     0
281
     0
 65
     1
110
0.0
120
0.0
130
0.0
111
1.0
121
0.0
131
0.0
112
0.0
122
1.0
132
0.0
 79
     0
146
0.0
1001
ACAD_NAV_VCDISPLAY
1070
     3
  0
ENDTAB
  0
TABLE
  2
LTYPE
  5
1858
330
0
100
AcDbSymbolTable
 70
     4
  0
LTYPE
  5
1866
330
1858
100
AcDbSymbolTableRecord
100
AcDbLinetypeTableRecord
  2
BYBLOCK
 70
     0
  3

 72
    65
 73
     0
 40
0.0
  0
LTYPE
  5
1867
330
1858
100
AcDbSymbolTableRecord
100
AcDbLinetypeTableRecord
  2
BYLAYER
 70
     0
  3

 72
    65
 73
     0
 40
0.0
  0
LTYPE
  5
1868
330
1858
100
AcDbSymbolTableRecord
100
AcDbLinetypeTableRecord
  2
CONTINUOUS
 70
     0
  3
Solid line
 72
    65
 73
     0
 40
0.0
  0
LTYPE
  5
1876
330
1858
100
AcDbSymbolTableRecord
100
AcDbLinetypeTableRecord
  2
DASHED
 70
     0
  3
Dashed __ __ __ __ __ __ __ __ __ __ __ __ __ _
 72
    65
 73
     2
 40
19.04999999999997
 49
12.7
 74
     0
 49
-6.349999999999997
 74
     0
  0
LTYPE
  5
1877
330
1858
100
AcDbSymbolTableRecord
100
AcDbLinetypeTableRecord
  2
CENTER
 70
     0
  3
Center ____ _ ____ _ ____ _ ____ _ ____ _ ____
 72
    65
 73
     4
 40
50.8
 49
31.75
 74
     0
 49
-6.349999999999997
 74
     0
 49
6.349999999999997
 74
     0
 49
-6.349999999999997
 74
     0
  0
LTYPE
  5
1878
330
1858
100
AcDbSymbolTableRecord
100
AcDbLinetypeTableRecord
  2
PHANTOM
 70
     0
  3
Phantom ______  __  __  ______  __  __  ______
 72
    65
 73
     6
 40
63.5
 49
31.75
 74
     0
 49
-6.349999999999997
 74
     0
 49
6.349999999999997
 74
     0
 49
-6.349999999999997
 74
     0
 49
6.349999999999997
 74
     0
 49
-6.349999999999997
 74
     0
  0
ENDTAB
  0
TABLE
  2
LAYER
  5
1855
330
0
100
AcDbSymbolTable
 70
     8
  0
LAYER
  5
1863
102
{ACAD_XDICTIONARY
360
1CAC
102
}
330
1855
100
AcDbSymbolTableRecord
100
AcDbLayerTableRecord
  2
0
 70
     0
 62
     7
  6
CONTINUOUS
370
    -3
390
1C5B
  0
LAYER
  5
1879
102
{ACAD_XDICTIONARY
360
1CAE
102
}
330
1855
100
AcDbSymbolTableRecord
100
AcDbLayerTableRecord
  2
4
 70
     0
 62
     1
  6
CENTER
370
    -3
390
1C5B
  0
LAYER
  5
187A
102
{ACAD_XDICTIONARY
360
1CB0
102
}
330
1855
100
AcDbSymbolTableRecord
100
AcDbLayerTableRecord
  2
5
 70
     0
 62
     6
  6
PHANTOM
370
    -3
390
1C5B
  0
LAYER
  5
187B
102
{ACAD_XDICTIONARY
360
1CB2
102
}
330
1855
100
AcDbSymbolTableRecord
100
AcDbLayerTableRecord
  2
1
 70
     0
 62
     7
  6
CONTINUOUS
370
    -3
390
1C5B
  0
LAYER
  5
187C
102
{ACAD_XDICTIONARY
360
1CB4
102
}
330
1855
100
AcDbSymbolTableRecord
100
AcDbLayerTableRecord
  2
2
 70
     0
 62
     4
  6
CONTINUOUS
370
    -3
390
1C5B
  0
LAYER
  5
187D
102
{ACAD_XDICTIONARY
360
1CB6
102
}
330
1855
100
AcDbSymbolTableRecord
100
AcDbLayerTableRecord
  2
3
 70
     0
 62
     2
  6
DASHED
370
    -3
390
1C5B
  0
LAYER
  5
187E
102
{ACAD_XDICTIONARY
360
1CB8
102
}
330
1855
100
AcDbSymbolTableRecord
100
AcDbLayerTableRecord
  2
6
 70
     0
 62
     5
  6
CONTINUOUS
370
    -3
390
1C5B
  0
LAYER
  5
187F
102
{ACAD_XDICTIONARY
360
1CBA
102
}
330
1855
100
AcDbSymbolTableRecord
100
AcDbLayerTableRecord
  2
7
 70
     0
 62
     3
  6
CONTINUOUS
370
    -3
390
1C5B
  0
ENDTAB
  0
TABLE
  2
STYLE
  5
1856
330
0
100
AcDbSymbolTable
 70
     1
  0
STYLE
  5
1864
330
1856
100
AcDbSymbolTableRecord
100
AcDbTextStyleTableRecord
  2
STANDARD
 70
     0
 40
0.0
 41
1.0
 50
0.0
 71
     0
 42
2.5
  3
simplex.shx
  4

  0
ENDTAB
  0
TABLE
  2
VIEW
  5
1859
330
0
100
AcDbSymbolTable
 70
     0
  0
ENDTAB
  0
TABLE
  2
UCS
  5
185A
330
0
100
AcDbSymbolTable
 70
     0
  0
ENDTAB
  0
TABLE
  2
APPID
  5
185C
330
0
100
AcDbSymbolTable
 70
     7
  0
APPID
  5
1865
330
185C
100
AcDbSymbolTableRecord
100
AcDbRegAppTableRecord
  2
ACAD
 70
     0
  0
APPID
  5
1880
330
185C
100
AcDbSymbolTableRecord
100
AcDbRegAppTableRecord
  2
CONTENTTABDATA
 70
     0
  0
APPID
  5
1881
330
185C
100
AcDbSymbolTableRecord
100
AcDbRegAppTableRecord
  2
CONTENTCURRENTTAB
 70
     0
  0
APPID
  5
1882
330
185C
100
AcDbSymbolTableRecord
100
AcDbRegAppTableRecord
  2
CONTENTBLOCKICON
 70
     0
  0
APPID
  5
1883
330
185C
100
AcDbSymbolTableRecord
100
AcDbRegAppTableRecord
  2
CONTENTBLOCKDESCRIPTION
 70
     0
  0
APPID
  5
1CC6
330
185C
100
AcDbSymbolTableRecord
100
AcDbRegAppTableRecord
  2
ACAD_NAV_VCDISPLAY
 70
     0
  0
APPID
  5
1CFF
330
185C
100
AcDbSymbolTableRecord
100
AcDbRegAppTableRecord
  2
ACAD_MLEADERVER
 70
     0
  0
ENDTAB
  0
TABLE
  2
DIMSTYLE
  5
185D
330
0
100
AcDbSymbolTable
 70
     1
100
AcDbDimStyleTable
 71
     0
  0
DIMSTYLE
105
1884
330
185D
100
AcDbSymbolTableRecord
100
AcDbDimStyleTableRecord
  2
STANDARD
 70
     0
 41
3.0
 42
1.0
 43
10.0
 44
1.0
 73
     0
 74
     0
 77
     3
 78
     8
140
3.2
141
0.0
147
1.0
172
     1
173
     1
284
     8
285
     8
286
     8
340
1864
  0
ENDTAB
  0
TABLE
  2
BLOCK_RECORD
  5
1854
330
0
100
AcDbSymbolTable
 70
     1
  0
BLOCK_RECORD
  5
1871
102
{ACAD_XDICTIONARY
360
1C55
102
}
330
1854
100
AcDbSymbolTableRecord
100
AcDbBlockTableRecord
  2
*MODEL_SPACE
340
1CA9
  0
BLOCK_RECORD
  5
186D
102
{ACAD_XDICTIONARY
360
1C53
102
}
330
1854
100
AcDbSymbolTableRecord
100
AcDbBlockTableRecord
  2
*PAPER_SPACE
340
1CAA
  0
BLOCK_RECORD
  5
188C
330
1854
100
AcDbSymbolTableRecord
100
AcDbBlockTableRecord
  2
_OPEN
340
0
  0
ENDTAB
  0
ENDSEC
  0
SECTION
  2
BLOCKS
  0
BLOCK
  5
1872
330
1871
100
AcDbEntity
  8
0
100
AcDbBlockBegin
  2
*MODEL_SPACE
 70
     0
 10
0.0
 20
0.0
 30
0.0
  3
*MODEL_SPACE
  1

  0
ENDBLK
  5
1873
330
1871
100
AcDbEntity
  8
0
100
AcDbBlockEnd
  0
BLOCK
  5
186E
330
186D
100
AcDbEntity
 67
     1
  8
0
100
AcDbBlockBegin
  2
*PAPER_SPACE
 70
     0
 10
0.0
 20
0.0
 30
0.0
  3
*PAPER_SPACE
  1

  0
ENDBLK
  5
186F
330
186D
100
AcDbEntity
 67
     1
  8
0
100
AcDbBlockEnd
  0
BLOCK
  5
188D
330
188C
100
AcDbEntity
  8
0
100
AcDbBlockBegin
  2
_OPEN
 70
     0
 10
0.0
 20
0.0
 30
0.0
  3
_OPEN
  1

  0
LINE
  5
188E
330
188C
100
AcDbEntity
  8
0
  6
ByBlock
 62
     0
100
AcDbLine
 10
-1.0
 20
0.1666666666666666
 30
0.0
 11
0.0
 21
0.0
 31
0.0
  0
LINE
  5
188F
330
188C
100
AcDbEntity
  8
0
  6
ByBlock
 62
     0
100
AcDbLine
 10
0.0
 20
0.0
 30
0.0
 11
-1.0
 21
-0.1666666666666666
 31
0.0
  0
LINE
  5
1890
330
188C
100
AcDbEntity
  8
0
  6
ByBlock
 62
     0
100
AcDbLine
 10
0.0
 20
0.0
 30
0.0
 11
-1.0
 21
0.0
 31
0.0
  0
ENDBLK
  5
1891
330
188C
100
AcDbEntity
  8
0
100
AcDbBlockEnd
  0
ENDSEC
  0
SECTION
  2
ENTITIES
  0
TEXT
  5
1892
330
1871
100
AcDbEntity
  8
4
  6
CENTER
100
AcDbText
 10
23.97950852663849
 20
10.0
 30
0.0
 40
1.399999999999999
  1
4
100
AcDbText
  0
TEXT
  5
1893
330
1871
100
AcDbEntity
  8
7
  6
Continuous
100
AcDbText
 10
9.999997526638502
 20
26.00000076076889
 30
0.0
 40
3.0
  1
CODE No.13203
100
AcDbText
  0
TEXT
  5
1894
330
1871
100
AcDbEntity
  8
7
  6
Continuous
100
AcDbText
 10
9.999997526638502
 20
18.00000076076889
 30
0.0
 40
3.0
  1
TYPE No.THA-437
100
AcDbText
  0
TEXT
  5
1895
330
1871
100
AcDbEntity
  8
1
  6
Continuous
100
AcDbText
 10
9.999997526638502
 20
10.00000076076889
 30
0.0
 40
1.399999999999999
  1
LAYER
100
AcDbText
  0
TEXT
  5
1896
330
1871
100
AcDbEntity
  8
2
  6
Continuous
100
AcDbText
 10
19.9795085266385
 20
10.0
 30
0.0
 40
1.399999999999999
  1
2
100
AcDbText
  0
TEXT
  5
1897
330
1871
100
AcDbEntity
  8
3
  6
DASHED
100
AcDbText
 10
21.97950852663848
 20
10.0
 30
0.0
 40
1.399999999999999
  1
3
100
AcDbText
  0
TEXT
  5
1898
330
1871
100
AcDbEntity
  8
1
  6
Continuous
100
AcDbText
 10
17.9795085266385
 20
10.0
 30
0.0
 40
1.399999999999999
  1
1
100
AcDbText
  0
TEXT
  5
1899
330
1871
100
AcDbEntity
  8
5
  6
PHANTOM
100
AcDbText
 10
25.97950852663849
 20
10.0
 30
0.0
 40
1.399999999999999
  1
5
100
AcDbText
  0
TEXT
  5
189A
330
1871
100
AcDbEntity
  8
6
  6
Continuous
100
AcDbText
 10
27.97950852663849
 20
10.0
 30
0.0
 40
1.399999999999999
  1
6
100
AcDbText
  0
TEXT
  5
189B
330
1871
100
AcDbEntity
  8
7
  6
Continuous
100
AcDbText
 10
29.9795085266385
 20
10.0
 30
0.0
 40
1.399999999999999
  1
7
100
AcDbText
  0
LINE
  5
18E2
330
1871
100
AcDbEntity
  8
4
  6
CENTER
100
AcDbLine
 10
37.605120066826
 20
155.6257703226167
 30
0.0
 11
37.60512006681361
 21
237.4308217104846
 31
0.0
  0
LINE
  5
18E3
330
1871
100
AcDbEntity
  8
1
  6
Continuous
100
AcDbLine
 10
52.60513773298182
 20
169.4308217104703
 30
0.0
 11
52.60513773298471
 21
214.4308040442375
 31
0.0
  0
LINE
  5
18E4
330
1871
100
AcDbEntity
  8
1
  6
Continuous
100
AcDbLine
 10
22.6051024006642
 20
169.4308217104988
 30
0.0
 11
22.6051024006671
 21
214.4308040442375
 31
0.0
  0
LINE
  5
18E5
330
1871
100
AcDbEntity
  8
1
  6
Continuous
100
AcDbLine
 10
57.60513773306509
 20
214.4308040442375
 30
0.0
 11
57.60513773306223
 21
169.43082171047
 31
0.0
  0
LINE
  5
18E6
330
1871
100
AcDbEntity
  8
1
  6
Continuous
100
AcDbLine
 10
17.60510240066419
 20
169.4308217104992
 30
0.0
 11
17.6051024006671
 21
214.4308040442376
 31
0.0
  0
LINE
  5
18E7
330
1871
100
AcDbEntity
  8
1
  6
Continuous
100
AcDbLine
 10
40.43354719157049
 20
181.6024122518381
 30
0.0
 11
37.95867345741889
 21
179.1275385176936
 31
0.0
  0
LINE
  5
18E8
330
1871
100
AcDbEntity
  8
1
  6
Continuous
100
AcDbLine
 10
34.77669294208399
 20
181.6024122518407
 30
0.0
 11
37.25156667623321
 21
179.1275385176942
 31
0.0
  0
ARC
  5
18E9
330
1871
100
AcDbEntity
  8
1
  6
Continuous
100
AcDbCircle
 10
37.60512006682849
 20
184.4308393765884
 30
0.0
 40
6.0
100
AcDbArc
 50
295.0289994876158
 51
64.97100051238418
  0
ARC
  5
18EA
330
1871
100
AcDbEntity
  8
1
  6
Continuous
100
AcDbCircle
 10
37.60512006682849
 20
184.4308393765884
 30
0.0
 40
6.0
100
AcDbArc
 50
115.0289994876152
 51
244.9710005123848
  0
ARC
  5
18EB
330
1871
100
AcDbEntity
  8
1
  6
Continuous
100
AcDbCircle
 10
37.60512006682849
 20
184.4308393765961
 30
0.0
 40
6.25
100
AcDbArc
 50
113.5781784782019
 51
246.4218215217981
  0
ARC
  5
18EC
330
1871
100
AcDbEntity
  8
1
  6
Continuous
100
AcDbCircle
 10
37.60512006682849
 20
184.4308393765961
 30
0.0
 40
6.25
100
AcDbArc
 50
293.5781784782019
 51
66.42182152179815
  0
ARC
  5
18ED
330
1871
100
AcDbEntity
  8
1
  6
Continuous
100
AcDbCircle
 10
27.60510240066409
 20
169.4308217104986
 30
0.0
 40
10.0
100
AcDbArc
 50
180.0
 51
270.0
  0
ARC
  5
18EE
330
1871
100
AcDbEntity
  8
1
  6
Continuous
100
AcDbCircle
 10
47.60513773306223
 20
169.4308217104707
 30
0.0
 40
10.0
100
AcDbArc
 50
270.0
 51
0.0
  0
ARC
  5
18EF
330
1871
100
AcDbEntity
  8
1
  6
Continuous
100
AcDbCircle
 10
47.60513773298174
 20
169.4308217104707
 30
0.0
 40
5.0
100
AcDbArc
 50
270.0
 51
0.0
  0
LINE
  5
18F0
330
1871
100
AcDbEntity
  8
1
  6
Continuous
100
AcDbLine
 10
26.10512006682721
 20
173.4308217104846
 30
0.0
 11
49.10512006682722
 21
173.4308217104846
 31
0.0
  0
LINE
  5
18F1
330
1871
100
AcDbEntity
  8
1
  6
Continuous
100
AcDbLine
 10
26.10512006682721
 20
168.4308217104845
 30
0.0
 11
49.10512006682722
 21
168.4308217104845
 31
0.0
  0
LINE
  5
18F2
330
1871
100
AcDbEntity
  8
1
  6
Continuous
100
AcDbLine
 10
27.60510240065022
 20
159.4308217104984
 30
0.0
 11
47.60513773304832
 21
159.4308217104704
 31
0.0
  0
LINE
  5
18F3
330
1871
100
AcDbEntity
  8
1
  6
Continuous
100
AcDbLine
 10
27.60510240065721
 20
164.4308217104984
 30
0.0
 11
47.60513773297485
 21
164.4308217104707
 31
0.0
  0
ARC
  5
18F4
330
1871
100
AcDbEntity
  8
1
  6
Continuous
100
AcDbCircle
 10
26.10512006682721
 20
169.4308217104846
 30
0.0
 40
1.0
100
AcDbArc
 50
180.0
 51
270.0
  0
ARC
  5
18F5
330
1871
100
AcDbEntity
  8
1
  6
Continuous
100
AcDbCircle
 10
27.6051024006642
 20
169.4308217104986
 30
0.0
 40
5.0
100
AcDbArc
 50
180.0
 51
270.0
  0
ARC
  5
18F6
330
1871
100
AcDbEntity
  8
1
  6
Continuous
100
AcDbCircle
 10
26.10512006682721
 20
172.4308217104846
 30
0.0
 40
1.0
100
AcDbArc
 50
90.0
 51
180.0
  0
LINE
  5
18F7
330
1871
100
AcDbEntity
  8
1
  6
Continuous
100
AcDbLine
 10
25.10512006682721
 20
172.4308217104846
 30
0.0
 11
25.10512006682721
 21
169.4308217104846
 31
0.0
  0
ARC
  5
18F8
330
1871
100
AcDbEntity
  8
1
  6
Continuous
100
AcDbCircle
 10
49.10512006682722
 20
169.4308217104846
 30
0.0
 40
1.0
100
AcDbArc
 50
270.0
 51
0.0
  0
ARC
  5
18F9
330
1871
100
AcDbEntity
  8
1
  6
Continuous
100
AcDbCircle
 10
37.60512006682849
 20
184.4308393765884
 30
0.0
 40
7.599999999999998
100
AcDbArc
 50
252.7793315003965
 51
287.220668499604
  0
ARC
  5
18FA
330
1871
100
AcDbEntity
  8
1
  6
Continuous
100
AcDbCircle
 10
37.60512006682849
 20
184.4308393765884
 30
0.0
 40
7.9
100
AcDbArc
 50
253.4525007227405
 51
286.54749927726
  0
ARC
  5
18FB
330
1871
100
AcDbEntity
  8
1
  6
Continuous
100
AcDbCircle
 10
37.60512006682849
 20
184.4308393765963
 30
0.0
 40
8.0
100
AcDbArc
 50
251.790043135717
 51
288.2099568642832
  0
ARC
  5
18FC
330
1871
100
AcDbEntity
  8
1
  6
Continuous
100
AcDbCircle
 10
34.85512006682849
 20
178.5412298818935
 30
0.0
 40
0.5
100
AcDbArc
 50
0.0
 51
64.97100051238644
  0
ARC
  5
18FD
330
1871
100
AcDbEntity
  8
1
  6
Continuous
100
AcDbCircle
 10
37.60512006682621
 20
179.4810919082877
 30
0.0
 40
0.5
100
AcDbArc
 50
225.00000000003
 51
314.9999999999148
  0
LINE
  5
18FE
330
1871
100
AcDbEntity
  8
1
  6
Continuous
100
AcDbLine
 10
35.35512006682849
 20
178.5412298818935
 30
0.0
 11
35.35512006682849
 21
176.8580261608805
 31
0.0
  0
LINE
  5
18FF
330
1871
100
AcDbEntity
  8
1
  6
Continuous
100
AcDbLine
 10
35.10512006682849
 20
178.7026197579014
 30
0.0
 11
35.10512006682849
 21
176.8314972998111
 31
0.0
  0
ARC
  5
1900
330
1871
100
AcDbEntity
  8
1
  6
Continuous
100
AcDbCircle
 10
40.35512006682849
 20
178.5412298818935
 30
0.0
 40
0.5
100
AcDbArc
 50
115.0289994876136
 51
180.0
  0
LINE
  5
1901
330
1871
100
AcDbEntity
  8
1
  6
Continuous
100
AcDbLine
 10
39.85512006682849
 20
178.5412298818935
 30
0.0
 11
39.85512006682849
 21
176.8580261608807
 31
0.0
  0
LINE
  5
1902
330
1871
100
AcDbEntity
  8
1
  6
Continuous
100
AcDbLine
 10
40.10512006682851
 20
178.7026197579014
 30
0.0
 11
40.10512006682851
 21
176.8314972998111
 31
0.0
  0
ARC
  5
1903
330
1871
100
AcDbEntity
  8
1
  6
Continuous
100
AcDbCircle
 10
49.10512006682722
 20
172.4308217104846
 30
0.0
 40
1.0
100
AcDbArc
 50
0.0
 51
90.0
  0
LINE
  5
1904
330
1871
100
AcDbEntity
  8
1
  6
Continuous
100
AcDbLine
 10
50.10512006682724
 20
169.4308217104846
 30
0.0
 11
50.10512006682724
 21
172.4308217104846
 31
0.0
  0
ARC
  5
1905
330
1871
100
AcDbEntity
  8
1
  6
Continuous
100
AcDbCircle
 10
37.6051200668181
 20
214.4308040442375
 30
0.0
 40
20.00001766624696
100
AcDbArc
 50
0.0
 51
180.0
  0
LINE
  5
1906
330
1871
100
AcDbEntity
  8
4
  6
CENTER
100
AcDbLine
 10
60.6051377330651
 20
214.4308040442375
 30
0.0
 11
14.60510240057109
 21
214.4308040442375
 31
0.0
  0
CIRCLE
  5
1907
330
1871
100
AcDbEntity
  8
1
  6
Continuous
100
AcDbCircle
 10
37.6051200668181
 20
214.4308040442375
 30
0.0
 40
12.0
  0
CIRCLE
  5
1908
330
1871
100
AcDbEntity
  8
1
  6
Continuous
100
AcDbCircle
 10
37.6051200668181
 20
214.4308040442375
 30
0.0
 40
12.99999999996114
  0
CIRCLE
  5
1909
330
1871
100
AcDbEntity
  8
1
  6
Continuous
100
AcDbCircle
 10
37.6051200668181
 20
214.4308040442375
 30
0.0
 40
12.05
  0
ARC
  5
190A
330
1871
100
AcDbEntity
  8
1
  6
Continuous
100
AcDbCircle
 10
37.6051200668181
 20
214.4308040442375
 30
0.0
 40
15.00001766624698
100
AcDbArc
 50
180.0
 51
0.0
  0
LINE
  5
190B
330
1871
100
AcDbEntity
  8
4
  6
CENTER
100
AcDbLine
 10
29.85512006682849
 20
184.4308393766407
 30
0.0
 11
45.35512006682849
 21
184.4308393766459
 31
0.0
  0
ARC
  5
190C
330
1871
100
AcDbEntity
  8
1
  6
Continuous
100
AcDbCircle
 10
37.60512006682849
 20
184.4308393765884
 30
0.0
 40
4.0
100
AcDbArc
 50
135.00000000003
 51
225.0000000000314
  0
LINE
  5
190D
330
1871
100
AcDbEntity
  8
1
  6
Continuous
100
AcDbLine
 10
39.85512006682849
 20
192.0036525922964
 30
0.0
 11
39.85512006682849
 21
190.3204488712831
 31
0.0
  0
LINE
  5
190E
330
1871
100
AcDbEntity
  8
1
  6
Continuous
100
AcDbLine
 10
35.35512006682849
 20
192.0036525922964
 30
0.0
 11
35.35512006682849
 21
190.3204488712831
 31
0.0
  0
LINE
  5
190F
330
1871
100
AcDbEntity
  8
1
  6
Continuous
100
AcDbLine
 10
35.10512006682849
 20
192.0301814533814
 30
0.0
 11
35.10512006682849
 21
190.1590589952911
 31
0.0
  0
LINE
  5
1910
330
1871
100
AcDbEntity
  8
1
  6
Continuous
100
AcDbLine
 10
40.10512006682851
 20
192.0301814533814
 30
0.0
 11
40.10512006682851
 21
190.1590589952911
 31
0.0
  0
CIRCLE
  5
1911
330
1871
100
AcDbEntity
  8
1
  6
Continuous
100
AcDbCircle
 10
37.60512006682849
 20
184.4308393765884
 30
0.0
 40
2.0
  0
CIRCLE
  5
1912
330
1871
100
AcDbEntity
  8
1
  6
Continuous
100
AcDbCircle
 10
37.60512006682849
 20
184.4308393765884
 30
0.0
 40
1.7
  0
ARC
  5
1913
330
1871
100
AcDbEntity
  8
1
  6
Continuous
100
AcDbCircle
 10
37.60512006682849
 20
184.4308393765884
 30
0.0
 40
4.0
100
AcDbArc
 50
314.9999999999157
 51
44.99999999997768
  0
LINE
  5
1914
330
1871
100
AcDbEntity
  8
1
  6
Continuous
100
AcDbLine
 10
37.95867345742158
 20
189.7341402354896
 30
0.0
 11
40.4335471915759
 21
187.2592665013335
 31
0.0
  0
ARC
  5
1915
330
1871
100
AcDbEntity
  8
1
  6
Continuous
100
AcDbCircle
 10
34.85512006682849
 20
190.3204488712831
 30
0.0
 40
0.5
100
AcDbArc
 50
295.0289994876136
 51
0.0
  0
ARC
  5
1916
330
1871
100
AcDbEntity
  8
1
  6
Continuous
100
AcDbCircle
 10
37.60512006682825
 20
189.3805868448963
 30
0.0
 40
0.5
100
AcDbArc
 50
44.99999999997696
 51
135.00000000003
  0
LINE
  5
1917
330
1871
100
AcDbEntity
  8
1
  6
Continuous
100
AcDbLine
 10
34.7766929420808
 20
187.2592665013329
 30
0.0
 11
37.25156667623483
 21
189.7341402354895
 31
0.0
  0
ARC
  5
1918
330
1871
100
AcDbEntity
  8
1
  6
Continuous
100
AcDbCircle
 10
40.35512006682849
 20
190.3204488712831
 30
0.0
 40
0.5
100
AcDbArc
 50
180.0
 51
244.9710005123864
  0
ARC
  5
1919
330
1871
100
AcDbEntity
  8
1
  6
Continuous
100
AcDbCircle
 10
37.60512006682849
 20
184.4308393765884
 30
0.0
 40
7.599999999999998
100
AcDbArc
 50
72.77933150039601
 51
107.2206684996035
  0
ARC
  5
191A
330
1871
100
AcDbEntity
  8
1
  6
Continuous
100
AcDbCircle
 10
37.60512006682849
 20
184.4308393765884
 30
0.0
 40
7.9
100
AcDbArc
 50
73.45250072274001
 51
106.5474992772595
  0
ARC
  5
191B
330
1871
100
AcDbEntity
  8
1
  6
Continuous
100
AcDbCircle
 10
37.60512006682849
 20
184.4308393765963
 30
0.0
 40
8.0
100
AcDbArc
 50
71.79004313571695
 51
108.2099568642832
  0
ARC
  5
191C
330
1871
100
AcDbEntity
  8
1
  6
Continuous
100
AcDbCircle
 10
37.60512006715531
 20
213.1308040442378
 30
0.0
 40
3.361632603540781
100
AcDbArc
 50
109.1002460667436
 51
250.8997539332561
  0
CIRCLE
  5
191D
330
1871
100
AcDbEntity
  8
1
  6
Continuous
100
AcDbCircle
 10
37.60512006715524
 20
214.4308040442376
 30
0.0
 40
7.099999999999997
  0
CIRCLE
  5
191E
330
1871
100
AcDbEntity
  8
1
  6
Continuous
100
AcDbCircle
 10
37.6051200668181
 20
214.4308040442375
 30
0.0
 40
10.0
  0
CIRCLE
  5
191F
330
1871
100
AcDbEntity
  8
1
  6
Continuous
100
AcDbCircle
 10
37.6051200668181
 20
214.4308040442375
 30
0.0
 40
7.0
  0
LINE
  5
1920
330
1871
100
AcDbEntity
  8
1
  6
Continuous
100
AcDbLine
 10
36.50512006715532
 20
216.6308040442376
 30
0.0
 11
36.50512006715532
 21
209.6308040442376
 31
0.0
  0
LINE
  5
1921
330
1871
100
AcDbEntity
  8
1
  6
Continuous
100
AcDbLine
 10
38.70512006715532
 20
216.6308040442376
 30
0.0
 11
38.70512006715532
 21
209.6308040442376
 31
0.0
  0
LINE
  5
1922
330
1871
100
AcDbEntity
  8
1
  6
Continuous
100
AcDbLine
 10
38.70512006715532
 20
209.6308040442376
 30
0.0
 11
36.50512006715532
 21
209.6308040442376
 31
0.0
  0
LINE
  5
1923
330
1871
100
AcDbEntity
  8
1
  6
Continuous
100
AcDbLine
 10
38.70512006715532
 20
216.6308040442376
 30
0.0
 11
36.50512006715532
 21
216.6308040442376
 31
0.0
  0
LINE
  5
1924
330
1871
100
AcDbEntity
  8
1
  6
Continuous
100
AcDbLine
 10
375.9274001407551
 20
193.6684436837682
 30
0.0
 11
375.9274001408503
 21
175.1932350696018
 31
0.0
  0
LINE
  5
1925
330
1871
100
AcDbEntity
  8
1
  6
Continuous
100
AcDbLine
 10
343.9274001408135
 20
193.668443683739
 30
0.0
 11
343.9274001407921
 21
175.193235069631
 31
0.0
  0
ARC
  5
1926
330
1871
100
AcDbEntity
  8
1
  6
Continuous
100
AcDbCircle
 10
359.9274001408028
 20
184.4308393766849
 30
0.0
 40
11.0
100
AcDbArc
 50
120.2726413189159
 51
239.7273586810972
  0
ARC
  5
1927
330
1871
100
AcDbEntity
  8
2
  6
Continuous
100
AcDbCircle
 10
359.9274001408028
 20
184.4308393766849
 30
0.0
 40
10.188
100
AcDbArc
 50
111.176892062322
 51
248.8231079376916
  0
ARC
  5
1928
330
1871
100
AcDbEntity
  8
1
  6
Continuous
100
AcDbCircle
 10
359.9274001408028
 20
184.4308393766849
 30
0.0
 40
9.25
100
AcDbArc
 50
0.0
 51
240.0000000000364
  0
ARC
  5
1929
330
1871
100
AcDbEntity
  8
1
  6
Continuous
100
AcDbCircle
 10
359.9274001408028
 20
184.4308393766849
 30
0.0
 40
7.0
100
AcDbArc
 50
240.0000000000376
 51
0.0
  0
ARC
  5
192A
330
1871
100
AcDbEntity
  8
2
  6
Continuous
100
AcDbCircle
 10
359.9274001408028
 20
184.4308393766849
 30
0.0
 40
10.188
100
AcDbArc
 50
291.1768920623212
 51
68.82310793769121
  0
ARC
  5
192B
330
1871
100
AcDbEntity
  8
1
  6
Continuous
100
AcDbCircle
 10
359.9274001408028
 20
184.4308393766849
 30
0.0
 40
11.0
100
AcDbArc
 50
300.2726413189162
 51
59.72735868109722
  0
LINE
  5
192C
330
1871
100
AcDbEntity
  8
1
  6
Continuous
100
AcDbLine
 10
364.9355634881231
 20
183.7821484745156
 30
0.0
 11
360.5760910429785
 21
179.4226760293654
 31
0.0
  0
LINE
  5
192D
330
1871
100
AcDbEntity
  8
1
  6
Continuous
100
AcDbLine
 10
359.2787092386442
 20
179.422676029363
 30
0.0
 11
354.9192367934848
 21
183.7821484744983
 31
0.0
  0
CIRCLE
  5
192E
330
1871
100
AcDbEntity
  8
1
  6
Continuous
100
AcDbCircle
 10
359.9274001408028
 20
184.4308393766849
 30
0.0
 40
9.5
  0
LINE
  5
192F
330
1871
100
AcDbEntity
  8
4
  6
CENTER
100
AcDbLine
 10
359.927400140811
 20
156.4308217106145
 30
0.0
 11
359.9274001407871
 21
237.4308217106039
 31
0.0
  0
LINE
  5
1930
330
1871
100
AcDbEntity
  8
1
  6
Continuous
100
AcDbLine
 10
339.9273824746405
 20
169.430821710541
 30
0.0
 11
339.927382474645
 21
214.4308040442356
 31
0.0
  0
LINE
  5
1931
330
1871
100
AcDbEntity
  8
1
  6
Continuous
100
AcDbLine
 10
379.9274178070431
 20
214.4308040442356
 30
0.0
 11
379.9274178070386
 21
169.4308217105113
 31
0.0
  0
LINE
  5
1932
330
1871
100
AcDbEntity
  8
1
  6
Continuous
100
AcDbLine
 10
283.5014829849831
 20
180.4308393767288
 30
0.0
 11
283.1442173950934
 21
179.8120372232446
 31
0.0
  0
LINE
  5
1933
330
1871
100
AcDbEntity
  8
1
  6
Continuous
100
AcDbLine
 10
280.001482984983
 20
180.4308393767271
 30
0.0
 11
280.3587485748692
 21
179.8120372232516
 31
0.0
  0
LINE
  5
1934
330
1871
100
AcDbEntity
  8
1
  6
Continuous
100
AcDbLine
 10
278.7014829849828
 20
176.4308393766701
 30
0.0
 11
278.7014829849828
 21
192.4308393766701
 31
0.0
  0
LINE
  5
1935
330
1871
100
AcDbEntity
  8
1
  6
Continuous
100
AcDbLine
 10
207.2651668952051
 20
176.4201043917061
 30
0.0
 11
207.2651668951972
 21
193.6808393765904
 31
0.0
  0
LINE
  5
1936
330
1871
100
AcDbEntity
  8
1
  6
Continuous
100
AcDbLine
 10
209.2651668951992
 20
176.420104391706
 30
0.0
 11
209.2651668951992
 21
193.6808393765925
 31
0.0
  0
LINE
  5
1937
330
1871
100
AcDbEntity
  8
1
  6
Continuous
100
AcDbLine
 10
260.4663953667513
 20
165.9556307624951
 30
0.0
 11
260.4663953667513
 21
202.9060479907545
 31
0.0
  0
LINE
  5
1938
330
1871
100
AcDbEntity
  8
1
  6
Continuous
100
AcDbLine
 10
255.4663953677061
 20
165.9556307624898
 30
0.0
 11
255.4663953657965
 21
202.9060479907655
 31
0.0
  0
LINE
  5
1939
330
1871
100
AcDbEntity
  8
1
  6
Continuous
100
AcDbLine
 10
252.4663953674102
 20
171.6808393765851
 30
0.0
 11
252.4663953660924
 21
197.1808393765851
 31
0.0
  0
LINE
  5
193A
330
1871
100
AcDbEntity
  8
1
  6
Continuous
100
AcDbLine
 10
195.9651668959941
 20
159.4308393767372
 30
0.0
 11
195.9651668921181
 21
234.4308040443201
 31
0.0
  0
LINE
  5
193B
330
1871
100
AcDbEntity
  8
1
  6
Continuous
100
AcDbLine
 10
197.4651668943711
 20
174.9308393766458
 30
0.0
 11
197.4651668950381
 21
193.9308393769992
 31
0.0
  0
LINE
  5
193C
330
1871
100
AcDbEntity
  8
1
  6
Continuous
100
AcDbLine
 10
170.9651668962504
 20
159.430839375445
 30
0.0
 11
170.9651668923743
 21
234.4308040430281
 31
0.0
  0
LINE
  5
193D
330
1871
100
AcDbEntity
  8
1
  6
Continuous
100
AcDbLine
 10
194.4651668959941
 20
159.4308393766596
 30
0.0
 11
194.4651668921181
 21
234.4308040442427
 31
0.0
  0
LINE
  5
193E
330
1871
100
AcDbEntity
  8
1
  6
Continuous
100
AcDbLine
 10
206.9651668944158
 20
176.2035980407301
 30
0.0
 11
206.965166895038
 21
193.9308393766656
 31
0.0
  0
LINE
  5
193F
330
1871
100
AcDbEntity
  8
1
  6
Continuous
100
AcDbLine
 10
277.5014829849827
 20
176.4308393766697
 30
0.0
 11
277.5014829849827
 21
192.4308393766697
 31
0.0
  0
LINE
  5
1940
330
1871
100
AcDbEntity
  8
1
  6
Continuous
100
AcDbLine
 10
165.9651668957359
 20
164.4308393766461
 30
0.0
 11
165.9651668931515
 21
214.430804044244
 31
0.0
  0
LINE
  5
1941
330
1871
100
AcDbEntity
  8
1
  6
Continuous
100
AcDbLine
 10
375.9274001408135
 20
175.1932350696331
 30
0.0
 11
359.927400140792
 21
165.9556307626347
 31
0.0
  0
LINE
  5
1942
330
1871
100
AcDbEntity
  8
1
  6
Continuous
100
AcDbLine
 10
349.9273824746292
 20
159.43082171054
 30
0.0
 11
369.9274178070272
 21
159.4308217105123
 31
0.0
  0
LINE
  5
1943
330
1871
100
AcDbEntity
  8
1
  6
Continuous
100
AcDbLine
 10
170.9651668962504
 20
159.4308393766484
 30
0.0
 11
195.9651668959941
 21
159.4308393766604
 31
0.0
  0
LINE
  5
1944
330
1871
100
AcDbEntity
  8
1
  6
Continuous
100
AcDbLine
 10
165.9651668957358
 20
164.4308393766459
 30
0.0
 11
170.9651668962503
 21
159.4308393766484
 31
0.0
  0
LINE
  5
1945
330
1871
100
AcDbEntity
  8
1
  6
Continuous
100
AcDbLine
 10
197.9651668957101
 20
164.9308393766613
 30
0.0
 11
197.9651668954774
 21
169.4308393766613
 31
0.0
  0
LINE
  5
1946
330
1871
100
AcDbEntity
  8
1
  6
Continuous
100
AcDbLine
 10
260.4663953667513
 20
165.9556307624949
 30
0.0
 11
255.4663953667513
 21
165.9556307624896
 31
0.0
  0
LINE
  5
1947
330
1871
100
AcDbEntity
  8
1
  6
Continuous
100
AcDbLine
 10
195.9651668957099
 20
164.9308393766601
 30
0.0
 11
197.9651668957357
 21
164.9308393766613
 31
0.0
  0
LINE
  5
1948
330
1871
100
AcDbEntity
  8
1
  6
Continuous
100
AcDbLine
 10
260.4663953667513
 20
175.1932350695233
 30
0.0
 11
255.4663953667513
 21
175.1932350695182
 31
0.0
  0
ARC
  5
1949
330
1871
100
AcDbEntity
  8
1
  6
Continuous
100
AcDbCircle
 10
253.9663953674109
 20
171.6808393766624
 30
0.0
 40
1.50000000000074
100
AcDbArc
 50
180.0
 51
0.0
  0
LINE
  5
194A
330
1871
100
AcDbEntity
  8
4
  6
CENTER
100
AcDbLine
 10
195.9651668955291
 20
168.4308393766604
 30
0.0
 11
199.4651668955291
 21
168.4308393766619
 31
0.0
  0
LINE
  5
194B
330
1871
100
AcDbEntity
  8
1
  6
Continuous
100
AcDbLine
 10
195.9651668954774
 20
169.4308393766604
 30
0.0
 11
197.9651668957336
 21
169.4308393766613
 31
0.0
  0
LINE
  5
194C
330
1871
100
AcDbEntity
  8
1
  6
Continuous
100
AcDbLine
 10
208.6651668951119
 20
176.2035980407301
 30
0.0
 11
206.9651668944207
 21
176.2035980407301
 31
0.0
  0
LINE
  5
194D
330
1871
100
AcDbEntity
  8
1
  6
Continuous
100
AcDbLine
 10
209.2651668951992
 20
176.420104391706
 30
0.0
 11
207.2651668952871
 21
176.4201043917061
 31
0.0
  0
LINE
  5
194E
330
1871
100
AcDbEntity
  8
1
  6
Continuous
100
AcDbLine
 10
208.6651668951783
 20
174.9308393766661
 30
0.0
 11
195.9651668951931
 21
174.9308393766428
 31
0.0
  0
LINE
  5
194F
330
1871
100
AcDbEntity
  8
1
  6
Continuous
100
AcDbLine
 10
206.965166894529
 20
179.4308393766874
 30
0.0
 11
207.2651668952038
 21
179.4308393766884
 31
0.0
  0
LINE
  5
1950
330
1871
100
AcDbEntity
  8
1
  6
Continuous
100
AcDbLine
 10
207.2651668952044
 20
178.264194697702
 30
0.0
 11
206.9651668944588
 21
178.2641946977019
 31
0.0
  0
ARC
  5
1951
330
1871
100
AcDbEntity
  8
1
  6
Continuous
100
AcDbCircle
 10
208.6651668951119
 20
176.5035980407301
 30
0.0
 40
0.3
100
AcDbArc
 50
270.0
 51
343.840504854291
  0
LINE
  5
1952
330
1871
100
AcDbEntity
  8
1
  6
Continuous
100
AcDbLine
 10
209.2651668951992
 20
179.4308393766949
 30
0.0
 11
214.265166895199
 21
179.430839376711
 31
0.0
  0
LINE
  5
1953
330
1871
100
AcDbEntity
  8
1
  6
Continuous
100
AcDbLine
 10
214.265166895199
 20
179.4810919085354
 30
0.0
 11
209.2651668951992
 21
179.4810919085398
 31
0.0
  0
ARC
  5
1954
330
1871
100
AcDbEntity
  8
1
  6
Continuous
100
AcDbCircle
 10
208.6651668951776
 20
175.2308393766661
 30
0.0
 40
0.3
100
AcDbArc
 50
270.0
 51
0.0
  0
LINE
  5
1955
330
1871
100
AcDbEntity
  8
1
  6
Continuous
100
AcDbLine
 10
208.9651668951776
 20
175.2308393766815
 30
0.0
 11
208.9651668951161
 21
176.420104391706
 31
0.0
  0
LINE
  5
1956
330
1871
100
AcDbEntity
  8
1
  6
Continuous
100
AcDbLine
 10
277.5014829849831
 20
176.4308393766697
 30
0.0
 11
278.7014829849831
 21
176.4308393766701
 31
0.0
  0
LINE
  5
1957
330
1871
100
AcDbEntity
  8
1
  6
Continuous
100
AcDbLine
 10
283.1442173950934
 20
179.812037223244
 30
0.0
 11
280.3587485748692
 21
179.8120372232508
 31
0.0
  0
LINE
  5
1958
330
1871
100
AcDbEntity
  8
1
  6
Continuous
100
AcDbLine
 10
343.9274001407554
 20
175.1932350696625
 30
0.0
 11
359.9274001408502
 21
165.9556307626054
 31
0.0
  0
ARC
  5
1959
330
1871
100
AcDbEntity
  8
1
  6
Continuous
100
AcDbCircle
 10
349.927382474643
 20
169.4308217105399
 30
0.0
 40
10.0
100
AcDbArc
 50
180.0
 51
270.0
  0
ARC
  5
195A
330
1871
100
AcDbEntity
  8
1
  6
Continuous
100
AcDbCircle
 10
359.9274001410646
 20
168.4308393768866
 30
0.0
 40
3.5
100
AcDbArc
 50
187.7672494515311
 51
352.2327505539679
  0
ARC
  5
195B
330
1871
100
AcDbEntity
  8
2
  6
Continuous
100
AcDbCircle
 10
359.9274001408028
 20
184.4308393766849
 30
0.0
 40
11.0
100
AcDbArc
 50
239.7273586810972
 51
300.2726413189162
  0
ARC
  5
195C
330
1871
100
AcDbEntity
  8
1
  6
Continuous
100
AcDbCircle
 10
359.9274001408028
 20
184.4308393766849
 30
0.0
 40
10.188
100
AcDbArc
 50
248.8231079376916
 51
291.1768920623212
  0
ARC
  5
195D
330
1871
100
AcDbEntity
  8
1
  6
Continuous
100
AcDbCircle
 10
359.9274001408028
 20
184.4308393766849
 30
0.0
 40
7.2
100
AcDbArc
 50
242.2924427759931
 51
297.707557224048
  0
ARC
  5
195E
330
1871
100
AcDbEntity
  8
1
  6
Continuous
100
AcDbCircle
 10
359.9274001408028
 20
184.4308393766849
 30
0.0
 40
5.000000000007736
100
AcDbArc
 50
261.8698976461216
 51
278.1301023540763
  0
ARC
  5
195F
330
1871
100
AcDbEntity
  8
1
  6
Continuous
100
AcDbCircle
 10
359.9274001408028
 20
184.4308393766849
 30
0.0
 40
5.049999999999998
100
AcDbArc
 50
262.6197565507461
 51
277.3802434494504
  0
LINE
  5
1960
330
1871
100
AcDbEntity
  8
4
  6
CENTER
100
AcDbLine
 10
354.9274001410645
 20
168.4308393768866
 30
0.0
 11
364.9274001410645
 21
168.4308393768866
 31
0.0
  0
LINE
  5
1961
330
1871
100
AcDbEntity
  8
1
  6
Continuous
100
AcDbLine
 10
365.4726683940087
 20
174.9308393766856
 30
0.0
 11
354.3821318875992
 21
174.9308393766843
 31
0.0
  0
ARC
  5
1962
330
1871
100
AcDbEntity
  8
1
  6
Continuous
100
AcDbCircle
 10
355.5896540645952
 20
176.317642782349
 30
0.0
 40
0.3
100
AcDbArc
 50
150.0000000000361
 51
241.8686719043845
  0
ARC
  5
1963
330
1871
100
AcDbEntity
  8
1
  6
Continuous
100
AcDbCircle
 10
356.4402089629035
 20
177.7908470808474
 30
0.0
 40
0.3
100
AcDbArc
 50
62.29244277599425
 51
150.000000000034
  0
LINE
  5
1964
330
1871
100
AcDbEntity
  8
1
  6
Continuous
100
AcDbLine
 10
356.4274001408068
 20
178.3686615501915
 30
0.0
 11
355.302400140808
 21
176.4201043916758
 31
0.0
  0
ARC
  5
1965
330
1871
100
AcDbEntity
  8
1
  6
Continuous
100
AcDbCircle
 10
363.4145913187071
 20
177.7908470808501
 30
0.0
 40
0.3
100
AcDbArc
 50
30.00000000000508
 51
117.7075572240517
  0
ARC
  5
1966
330
1871
100
AcDbEntity
  8
1
  6
Continuous
100
AcDbCircle
 10
364.2651462170163
 20
176.3176427823519
 30
0.0
 40
0.3
100
AcDbArc
 50
298.1313280956527
 51
30.00000000000508
  0
LINE
  5
1967
330
1871
100
AcDbEntity
  8
1
  6
Continuous
100
AcDbLine
 10
363.6743989398425
 20
177.9408470808501
 30
0.0
 11
364.5249538381516
 21
176.4676427823521
 31
0.0
  0
ARC
  5
1968
330
1871
100
AcDbEntity
  8
1
  6
Continuous
100
AcDbCircle
 10
369.9274178070409
 20
169.4308217105123
 30
0.0
 40
10.0
100
AcDbArc
 50
270.0
 51
0.0
  0
LINE
  5
1969
330
1871
100
AcDbEntity
  8
1
  6
Continuous
100
AcDbLine
 10
375.9274001408135
 20
193.6684436836925
 30
0.0
 11
359.927400140792
 21
202.9060479907796
 31
0.0
  0
LINE
  5
196A
330
1871
100
AcDbEntity
  8
1
  6
Continuous
100
AcDbLine
 10
366.9274001408028
 20
184.4308393766855
 30
0.0
 11
369.1774001408028
 21
184.4308393766856
 31
0.0
  0
LINE
  5
196B
330
1871
100
AcDbEntity
  8
4
  6
CENTER
100
AcDbLine
 10
336.9273824744277
 20
214.4308040442545
 30
0.0
 11
382.9274178071644
 21
214.4308040442545
 31
0.0
  0
ARC
  5
196C
330
1871
100
AcDbEntity
  8
1
  6
Continuous
100
AcDbCircle
 10
359.9274001407958
 20
214.4308040442356
 30
0.0
 40
20.00001766624696
100
AcDbArc
 50
0.0
 51
180.0
  0
LINE
  5
196D
330
1871
100
AcDbEntity
  8
4
  6
CENTER
100
AcDbLine
 10
162.9651668947023
 20
184.4308393766457
 30
0.0
 11
218.2762400568616
 21
184.430839376674
 31
0.0
  0
LINE
  5
196E
330
1871
100
AcDbEntity
  8
1
  6
Continuous
100
AcDbLine
 10
163.9651668931517
 20
201.430804044244
 30
0.0
 11
163.9651668931517
 21
227.4308040442438
 31
0.0
  0
LINE
  5
196F
330
1871
100
AcDbEntity
  8
1
  6
Continuous
100
AcDbLine
 10
162.9651668931517
 20
202.4308040442439
 30
0.0
 11
162.9651668931517
 21
226.4308040442438
 31
0.0
  0
LINE
  5
1970
330
1871
100
AcDbEntity
  8
1
  6
Continuous
100
AcDbLine
 10
160.9651668931515
 20
224.430804044244
 30
0.0
 11
162.9651668931517
 21
226.4308040442438
 31
0.0
  0
LINE
  5
1971
330
1871
100
AcDbEntity
  8
4
  6
CENTER
100
AcDbLine
 10
155.2569245258287
 20
214.4308040442438
 30
0.0
 11
200.5651668940096
 21
214.4308040442438
 31
0.0
  0
LINE
  5
1972
330
1871
100
AcDbEntity
  8
1
  6
Continuous
100
AcDbLine
 10
162.9651668931517
 20
202.4308040442439
 30
0.0
 11
160.9651668931514
 21
204.4308040442438
 31
0.0
  0
LINE
  5
1973
330
1871
100
AcDbEntity
  8
1
  6
Continuous
100
AcDbLine
 10
162.9651668931517
 20
202.4308040442439
 30
0.0
 11
163.9651668931517
 21
202.4308040442439
 31
0.0
  0
LINE
  5
1974
330
1871
100
AcDbEntity
  8
1
  6
Continuous
100
AcDbLine
 10
163.9651668931517
 20
201.430804044244
 30
0.0
 11
165.9651668939268
 21
199.4308040434687
 31
0.0
  0
LINE
  5
1975
330
1871
100
AcDbEntity
  8
1
  6
Continuous
100
AcDbLine
 10
160.665166893122
 20
221.1308040442442
 30
0.0
 11
160.6651668930989
 21
207.7308040442444
 31
0.0
  0
LINE
  5
1976
330
1871
100
AcDbEntity
  8
1
  6
Continuous
100
AcDbLine
 10
160.9651668931515
 20
204.4308040442438
 30
0.0
 11
160.9651668931515
 21
224.4308040442438
 31
0.0
  0
ARC
  5
1977
330
1871
100
AcDbEntity
  8
1
  6
Continuous
100
AcDbCircle
 10
160.9651668930989
 20
207.7308040442438
 30
0.0
 40
0.3
100
AcDbArc
 50
180.0
 51
270.0
  0
ARC
  5
1978
330
1871
100
AcDbEntity
  8
1
  6
Continuous
100
AcDbCircle
 10
160.9651668931221
 20
221.1308040442438
 30
0.0
 40
0.3
100
AcDbArc
 50
90.0
 51
180.0
  0
LINE
  5
1979
330
1871
100
AcDbEntity
  8
1
  6
Continuous
100
AcDbLine
 10
214.265166895199
 20
185.1379461576848
 30
0.0
 11
209.2651668951992
 21
185.1379461576757
 31
0.0
  0
LINE
  5
197A
330
1871
100
AcDbEntity
  8
1
  6
Continuous
100
AcDbLine
 10
214.265166895199
 20
183.7237325956546
 30
0.0
 11
209.2651668951992
 21
183.7237325956591
 31
0.0
  0
LINE
  5
197B
330
1871
100
AcDbEntity
  8
2
  6
Continuous
100
AcDbLine
 10
209.2651668951992
 20
182.5115495421974
 30
0.0
 11
214.265166895199
 21
179.4810919085381
 31
0.0
  0
LINE
  5
197C
330
1871
100
AcDbEntity
  8
2
  6
Continuous
100
AcDbLine
 10
214.265166895199
 20
183.7237325956541
 30
0.0
 11
209.2651668951992
 21
180.6932749619812
 31
0.0
  0
LINE
  5
197D
330
1871
100
AcDbEntity
  8
1
  6
Continuous
100
AcDbLine
 10
206.9651668948802
 20
189.4308393766438
 30
0.0
 11
207.2651668951992
 21
189.4308393766429
 31
0.0
  0
LINE
  5
197E
330
1871
100
AcDbEntity
  8
1
  6
Continuous
100
AcDbLine
 10
209.2651668951992
 20
189.4308393766386
 30
0.0
 11
214.265166895199
 21
189.4308393766272
 31
0.0
  0
LINE
  5
197F
330
1871
100
AcDbEntity
  8
1
  6
Continuous
100
AcDbLine
 10
214.265166895199
 20
189.380586844804
 30
0.0
 11
209.2651668951992
 21
189.380586844795
 31
0.0
  0
LINE
  5
1980
330
1871
100
AcDbEntity
  8
2
  6
Continuous
100
AcDbLine
 10
209.2651668951992
 20
186.3501292111384
 30
0.0
 11
214.265166895199
 21
189.380586844804
 31
0.0
  0
LINE
  5
1981
330
1871
100
AcDbEntity
  8
2
  6
Continuous
100
AcDbLine
 10
214.265166895199
 20
185.1379461576848
 30
0.0
 11
209.2651668951992
 21
188.1684037913513
 31
0.0
  0
LINE
  5
1982
330
1871
100
AcDbEntity
  8
1
  6
Continuous
100
AcDbLine
 10
260.4663953667513
 20
202.9060479907545
 30
0.0
 11
255.4663953667513
 21
202.9060479907655
 31
0.0
  0
LINE
  5
1983
330
1871
100
AcDbEntity
  8
1
  6
Continuous
100
AcDbLine
 10
260.4663953667513
 20
193.6684436836062
 30
0.0
 11
255.4663953667513
 21
193.668443683601
 31
0.0
  0
ARC
  5
1984
330
1871
100
AcDbEntity
  8
1
  6
Continuous
100
AcDbCircle
 10
253.9663953660916
 20
197.1808393766625
 30
0.0
 40
1.500000000000647
100
AcDbArc
 50
0.0
 51
180.0
  0
LINE
  5
1985
330
1871
100
AcDbEntity
  8
1
  6
Continuous
100
AcDbLine
 10
209.2651668951992
 20
193.6808393765925
 30
0.0
 11
207.2651668952871
 21
193.6808393765904
 31
0.0
  0
LINE
  5
1986
330
1871
100
AcDbEntity
  8
1
  6
Continuous
100
AcDbLine
 10
206.965166895038
 20
193.9308393766656
 30
0.0
 11
195.9651668942111
 21
193.9308393766775
 31
0.0
  0
LINE
  5
1987
330
1871
100
AcDbEntity
  8
1
  6
Continuous
100
AcDbLine
 10
170.9651668931506
 20
234.4308040442427
 30
0.0
 11
195.9651668921181
 21
234.4308040442427
 31
0.0
  0
LINE
  5
1988
330
1871
100
AcDbEntity
  8
1
  6
Continuous
100
AcDbLine
 10
162.9651668931517
 20
226.4308040442438
 30
0.0
 11
163.9651668931517
 21
226.4308040442438
 31
0.0
  0
LINE
  5
1989
330
1871
100
AcDbEntity
  8
1
  6
Continuous
100
AcDbLine
 10
163.9651668931517
 20
227.4308040442438
 30
0.0
 11
170.9651668931506
 21
234.4308040442427
 31
0.0
  0
LINE
  5
198A
330
1871
100
AcDbEntity
  8
4
  6
CENTER
100
AcDbLine
 10
200.4941470875468
 20
226.9308040441619
 30
0.0
 11
189.9081391799263
 21
226.9308040441621
 31
0.0
  0
CIRCLE
  5
198B
330
1871
100
AcDbEntity
  8
1
  6
Continuous
100
AcDbCircle
 10
359.9274001407905
 20
226.93080404454
 30
0.0
 40
2.066999999999999
  0
CIRCLE
  5
198C
330
1871
100
AcDbEntity
  8
2
  6
Continuous
100
AcDbCircle
 10
359.9274001407905
 20
226.93080404454
 30
0.0
 40
2.5
  0
CIRCLE
  5
198D
330
1871
100
AcDbEntity
  8
1
  6
Continuous
100
AcDbCircle
 10
359.9274001407905
 20
226.93080404454
 30
0.0
 40
3.0
  0
ARC
  5
198E
330
1871
100
AcDbEntity
  8
1
  6
Continuous
100
AcDbCircle
 10
275.858748574299
 20
184.4308393767521
 30
0.0
 40
7.642734410683875
100
AcDbArc
 50
342.4120462272952
 51
17.58795377242275
  0
LINE
  5
198F
330
1871
100
AcDbEntity
  8
1
  6
Continuous
100
AcDbLine
 10
283.5014829849831
 20
180.4308393767287
 30
0.0
 11
283.5014829849831
 21
188.4308393767287
 31
0.0
  0
ARC
  5
1990
330
1871
100
AcDbEntity
  8
1
  6
Continuous
100
AcDbCircle
 10
287.64421739527
 20
184.4308393767231
 30
0.0
 40
7.642734410287003
100
AcDbArc
 50
162.4120462263503
 51
197.5879537733638
  0
LINE
  5
1991
330
1871
100
AcDbEntity
  8
1
  6
Continuous
100
AcDbLine
 10
280.001482984983
 20
180.1808393767268
 30
0.0
 11
280.001482984983
 21
188.6808393767271
 31
0.0
  0
LINE
  5
1992
330
1871
100
AcDbEntity
  8
1
  6
Continuous
100
AcDbLine
 10
278.7014829849828
 20
180.1808393767264
 30
0.0
 11
280.001482984983
 21
180.1808393767268
 31
0.0
  0
ARC
  5
1993
330
1871
100
AcDbEntity
  8
1
  6
Continuous
100
AcDbCircle
 10
281.4775198072296
 20
180.9731586757184
 30
0.0
 40
2.023963177753351
100
AcDbArc
 50
329.9999999999797
 51
34.5650930926538
  0
LINE
  5
1994
330
1871
100
AcDbEntity
  8
1
  6
Continuous
100
AcDbLine
 10
283.1442173950991
 20
182.1214382999788
 30
0.0
 11
280.3587485748749
 21
182.1214382999857
 31
0.0
  0
ARC
  5
1995
330
1871
100
AcDbEntity
  8
1
  6
Continuous
100
AcDbCircle
 10
282.0254461627266
 20
180.9731586757166
 30
0.0
 40
2.023963177743739
100
AcDbArc
 50
145.4349069068578
 51
210.0000000001437
  0
LINE
  5
1996
330
1871
100
AcDbEntity
  8
1
  6
Continuous
100
AcDbLine
 10
278.7014829849828
 20
188.6808393767264
 30
0.0
 11
280.001482984983
 21
188.6808393767271
 31
0.0
  0
LINE
  5
1997
330
1871
100
AcDbEntity
  8
1
  6
Continuous
100
AcDbLine
 10
283.1442173951106
 20
186.74024045349
 30
0.0
 11
280.3587485748863
 21
186.7402404534968
 31
0.0
  0
LINE
  5
1998
330
1871
100
AcDbEntity
  8
1
  6
Continuous
100
AcDbLine
 10
283.5014829849831
 20
188.4308393767288
 30
0.0
 11
283.144217395066
 21
189.0496415302624
 31
0.0
  0
ARC
  5
1999
330
1871
100
AcDbEntity
  8
1
  6
Continuous
100
AcDbCircle
 10
281.4775198072263
 20
187.888520077737
 30
0.0
 40
2.023963177753351
100
AcDbArc
 50
325.434906907399
 51
30.00000000007295
  0
ARC
  5
199A
330
1871
100
AcDbEntity
  8
1
  6
Continuous
100
AcDbCircle
 10
282.0254461627234
 20
187.8885200777395
 30
0.0
 40
2.023963177743739
100
AcDbArc
 50
149.9999999999091
 51
214.565093093195
  0
LINE
  5
199B
330
1871
100
AcDbEntity
  8
1
  6
Continuous
100
AcDbLine
 10
280.0014829849827
 20
188.4308393767271
 30
0.0
 11
280.3587485749034
 21
189.0496415302623
 31
0.0
  0
LINE
  5
199C
330
1871
100
AcDbEntity
  8
1
  6
Continuous
100
AcDbLine
 10
283.144217395066
 20
189.0496415302624
 30
0.0
 11
280.3587485749038
 21
189.0496415302624
 31
0.0
  0
LINE
  5
199D
330
1871
100
AcDbEntity
  8
1
  6
Continuous
100
AcDbLine
 10
277.5014829849827
 20
192.4308393766697
 30
0.0
 11
278.7014829849828
 21
192.4308393766701
 31
0.0
  0
LINE
  5
199E
330
1871
100
AcDbEntity
  8
1
  6
Continuous
100
AcDbLine
 10
343.927400140755
 20
193.6684436837504
 30
0.0
 11
359.9274001408502
 21
202.9060479907215
 31
0.0
  0
ARC
  5
199F
330
1871
100
AcDbEntity
  8
1
  6
Continuous
100
AcDbCircle
 10
359.9274001408028
 20
184.4308393766849
 30
0.0
 40
5.049999999999998
100
AcDbArc
 50
82.61975655073042
 51
97.38024344944784
  0
ARC
  5
19A0
330
1871
100
AcDbEntity
  8
1
  6
Continuous
100
AcDbCircle
 10
359.9274001408028
 20
184.4308393766849
 30
0.0
 40
5.000000000007736
100
AcDbArc
 50
81.86989764610405
 51
98.13010235407228
  0
CIRCLE
  5
19A1
330
1871
100
AcDbEntity
  8
1
  6
Continuous
100
AcDbCircle
 10
359.9274001408028
 20
184.4308393766849
 30
0.0
 40
2.066999999999999
  0
CIRCLE
  5
19A2
330
1871
100
AcDbEntity
  8
2
  6
Continuous
100
AcDbCircle
 10
359.9274001408028
 20
184.4308393766849
 30
0.0
 40
2.5
  0
CIRCLE
  5
19A3
330
1871
100
AcDbEntity
  8
1
  6
Continuous
100
AcDbCircle
 10
359.9274001408028
 20
184.4308393766849
 30
0.0
 40
3.0
  0
LINE
  5
19A4
330
1871
100
AcDbEntity
  8
1
  6
Continuous
100
AcDbLine
 10
359.2787092386274
 20
189.4390027240044
 30
0.0
 11
354.9192367934825
 21
185.0795302788545
 31
0.0
  0
ARC
  5
19A5
330
1871
100
AcDbEntity
  8
1
  6
Continuous
100
AcDbCircle
 10
359.9274001408028
 20
184.4308393766849
 30
0.0
 40
5.000000000007736
100
AcDbArc
 50
171.8698976459923
 51
188.1301023541991
  0
ARC
  5
19A6
330
1871
100
AcDbEntity
  8
1
  6
Continuous
100
AcDbCircle
 10
359.9274001408028
 20
184.4308393766849
 30
0.0
 40
5.049999999999998
100
AcDbArc
 50
172.6197565506169
 51
187.380243449575
  0
LINE
  5
19A7
330
1871
100
AcDbEntity
  8
1
  6
Continuous
100
AcDbLine
 10
364.9355634881212
 20
185.0795302788695
 30
0.0
 11
360.5760910429629
 21
189.4390027240064
 31
0.0
  0
ARC
  5
19A8
330
1871
100
AcDbEntity
  8
1
  6
Continuous
100
AcDbCircle
 10
359.9274001408028
 20
184.4308393766849
 30
0.0
 40
5.049999999999998
100
AcDbArc
 50
352.6197565506242
 51
7.38024344955186
  0
ARC
  5
19A9
330
1871
100
AcDbEntity
  8
1
  6
Continuous
100
AcDbCircle
 10
359.9274001408028
 20
184.4308393766849
 30
0.0
 40
5.000000000007736
100
AcDbArc
 50
351.8698976459988
 51
8.130102354178037
  0
ARC
  5
19AA
330
1871
100
AcDbEntity
  8
2
  6
Continuous
100
AcDbCircle
 10
359.9274001408028
 20
184.4308393766846
 30
0.0
 40
11.0
100
AcDbArc
 50
59.72735868109709
 51
120.2726413189159
  0
ARC
  5
19AB
330
1871
100
AcDbEntity
  8
1
  6
Continuous
100
AcDbCircle
 10
359.9274001408028
 20
184.4308393766846
 30
0.0
 40
10.188
100
AcDbArc
 50
68.82310793769173
 51
111.1768920623214
  0
LINE
  5
19AC
330
1871
100
AcDbEntity
  8
1
  6
Continuous
100
AcDbLine
 10
365.4726683940065
 20
193.9308393766856
 30
0.0
 11
354.3821318875969
 21
193.9308393766843
 31
0.0
  0
LINE
  5
19AD
330
1871
100
AcDbEntity
  8
4
  6
CENTER
100
AcDbLine
 10
364.4274001407905
 20
226.93080404454
 30
0.0
 11
355.4274001407903
 21
226.93080404454
 31
0.0
  0
LINE
  5
19AE
330
1871
100
AcDbEntity
  8
4
  6
CENTER
100
AcDbLine
 10
377.4274001408028
 20
184.4308393766871
 30
0.0
 11
341.9052245014922
 21
184.4308393766858
 31
0.0
  0
LINE
  5
19B1
330
1871
100
AcDbEntity
  8
1
  6
Continuous
100
AcDbLine
 10
214.265166895199
 20
179.4308393767113
 30
0.0
 11
214.265166895199
 21
189.430839376627
 31
0.0
  0
LINE
  5
19B2
330
1871
100
AcDbEntity
  8
4
  6
CENTER
100
AcDbLine
 10
239.6274342146257
 20
226.9308040441619
 30
0.0
 11
229.2623598679869
 21
226.9308040441621
 31
0.0
  0
LINE
  5
19B3
330
1871
100
AcDbEntity
  8
1
  6
Continuous
100
AcDbLine
 10
234.8274342146257
 20
231.4308040441455
 30
0.0
 11
236.288932682721
 21
231.3029394964269
 31
0.0
  0
LINE
  5
19B4
330
1871
100
AcDbEntity
  8
1
  6
Continuous
100
AcDbLine
 10
234.8274342146254
 20
222.4308040441456
 30
0.0
 11
236.2889326827619
 21
222.5586685918681
 31
0.0
  0
LINE
  5
19B5
330
1871
100
AcDbEntity
  8
1
  6
Continuous
100
AcDbLine
 10
233.5274342146257
 20
231.9308040441457
 30
0.0
 11
233.5274342146257
 21
221.9308040441457
 31
0.0
  0
LINE
  5
19B6
330
1871
100
AcDbEntity
  8
1
  6
Continuous
100
AcDbLine
 10
234.8274342146257
 20
231.4308040441455
 30
0.0
 11
234.8274342146257
 21
222.4308040441456
 31
0.0
  0
LINE
  5
19B7
330
1871
100
AcDbEntity
  8
1
  6
Continuous
100
AcDbLine
 10
232.5274342146257
 20
231.9308040441457
 30
0.0
 11
232.5274342146257
 21
221.9308040441457
 31
0.0
  0
LINE
  5
19B8
330
1871
100
AcDbEntity
  8
1
  6
Continuous
100
AcDbLine
 10
234.8274342146257
 20
222.6808040441619
 30
0.0
 11
233.5274342146257
 21
222.6808040441619
 31
0.0
  0
LINE
  5
19B9
330
1871
100
AcDbEntity
  8
1
  6
Continuous
100
AcDbLine
 10
233.5274342146257
 20
221.9308040441457
 30
0.0
 11
232.5274342146257
 21
221.9308040441457
 31
0.0
  0
LINE
  5
19BA
330
1871
100
AcDbEntity
  8
1
  6
Continuous
100
AcDbLine
 10
234.8274342146257
 20
231.1808040441619
 30
0.0
 11
233.5274342146257
 21
231.1808040441619
 31
0.0
  0
LINE
  5
19BB
330
1871
100
AcDbEntity
  8
1
  6
Continuous
100
AcDbLine
 10
233.5274342146257
 20
231.9308040441457
 30
0.0
 11
232.5274342146257
 21
231.9308040441457
 31
0.0
  0
ARC
  5
19BC
330
1871
100
AcDbEntity
  8
1
  6
Continuous
100
AcDbCircle
 10
226.1274342146257
 20
226.9308040441456
 30
0.0
 40
12.0
100
AcDbArc
 50
344.5060324994776
 51
15.49396750052238
  0
ARC
  5
19BD
330
1871
100
AcDbEntity
  8
1
  6
Continuous
100
AcDbCircle
 10
236.1494834943171
 20
224.1525801088211
 30
0.0
 40
1.6
100
AcDbArc
 50
275.0
 51
344.5060324994776
  0
ARC
  5
19BE
330
1871
100
AcDbEntity
  8
1
  6
Continuous
100
AcDbCircle
 10
236.1494834943
 20
229.7090279794661
 30
0.0
 40
1.6
100
AcDbArc
 50
15.49396750052238
 51
85.0
  0
LINE
  5
19BF
330
1871
100
AcDbEntity
  8
1
  6
Continuous
100
AcDbLine
 10
234.8274342146257
 20
226.9308040441621
 30
0.0
 11
233.5274342146257
 21
225.630804044162
 31
0.0
  0
LINE
  5
19C0
330
1871
100
AcDbEntity
  8
1
  6
Continuous
100
AcDbLine
 10
234.8274342146257
 20
228.2308040441621
 30
0.0
 11
233.5274342146257
 21
226.9308040441621
 31
0.0
  0
LINE
  5
19C1
330
1871
100
AcDbEntity
  8
4
  6
CENTER
100
AcDbLine
 10
248.1143810502004
 20
184.4308393766457
 30
0.0
 11
286.6808247683691
 21
184.4308393766604
 31
0.0
  0
LINE
  5
19C2
330
1871
100
AcDbEntity
  8
1
  6
Continuous
100
AcDbLine
 10
280.0014829849827
 20
184.4308393767164
 30
0.0
 11
278.7014829849828
 21
183.1308393767164
 31
0.0
  0
LINE
  5
19C3
330
1871
100
AcDbEntity
  8
1
  6
Continuous
100
AcDbLine
 10
280.0014829849827
 20
185.7308393766571
 30
0.0
 11
278.7014829849828
 21
184.4308393766572
 31
0.0
  0
LINE
  5
19C4
330
1871
100
AcDbEntity
  8
1
  6
Continuous
100
AcDbLine
 10
267.9119001986141
 20
175.4308393766678
 30
0.0
 11
267.9119001986141
 21
193.4308393766676
 31
0.0
  0
LINE
  5
19C5
330
1871
100
AcDbEntity
  8
1
  6
Continuous
100
AcDbLine
 10
269.5119001986142
 20
175.4308393766685
 30
0.0
 11
269.5119001986142
 21
193.4308393766684
 31
0.0
  0
LINE
  5
19C6
330
1871
100
AcDbEntity
  8
1
  6
Continuous
100
AcDbLine
 10
270.5119001986142
 20
175.4308393766697
 30
0.0
 11
270.5119001986142
 21
193.4308393766695
 31
0.0
  0
LINE
  5
19C7
330
1871
100
AcDbEntity
  8
1
  6
Continuous
100
AcDbLine
 10
267.9119001986141
 20
193.4308393766683
 30
0.0
 11
270.5119001986142
 21
193.4308393766695
 31
0.0
  0
LINE
  5
19C8
330
1871
100
AcDbEntity
  8
1
  6
Continuous
100
AcDbLine
 10
267.9119001986141
 20
175.4308393766683
 30
0.0
 11
270.5119001986142
 21
175.4308393766697
 31
0.0
  0
LINE
  5
19C9
330
1871
100
AcDbEntity
  8
1
  6
Continuous
100
AcDbLine
 10
47.51606784405836
 20
172.4905817104844
 30
0.0
 11
48.6520178440584
 21
169.4199017104845
 31
0.0
  0
ARC
  5
19CA
330
1871
100
AcDbEntity
  8
1
  6
Continuous
100
AcDbCircle
 10
33.11156784405838
 20
171.3322517104846
 30
0.0
 40
1.148609999999999
100
AcDbArc
 50
70.80719999999998
 51
138.9319999999997
  0
ARC
  5
19CB
330
1871
100
AcDbEntity
  8
1
  6
Continuous
100
AcDbCircle
 10
33.11156784405838
 20
170.7374717104845
 30
0.0
 40
1.148609999999999
100
AcDbArc
 50
221.0679999999999
 51
289.1929999999998
  0
LINE
  5
19CC
330
1871
100
AcDbEntity
  8
1
  6
Continuous
100
AcDbLine
 10
26.97809034405838
 20
172.4308217104846
 30
0.0
 11
26.97809034405838
 21
169.4308217104846
 31
0.0
  0
ARC
  5
19CD
330
1871
100
AcDbEntity
  8
1
  6
Continuous
100
AcDbCircle
 10
29.96363034405836
 20
170.7215717104846
 30
0.0
 40
1.148609999999999
100
AcDbArc
 50
221.0679999999999
 51
318.932
  0
ARC
  5
19CE
330
1871
100
AcDbEntity
  8
1
  6
Continuous
100
AcDbCircle
 10
29.62233534405839
 20
171.0189617104846
 30
0.0
 40
1.601294999999999
100
AcDbArc
 50
318.932
 51
41.0679
  0
ARC
  5
19CF
330
1871
100
AcDbEntity
  8
1
  6
Continuous
100
AcDbCircle
 10
33.45289284405836
 20
171.0348617104845
 30
0.0
 40
1.601294999999999
100
AcDbArc
 50
138.9319999999997
 51
221.0679999999999
  0
LINE
  5
19D0
330
1871
100
AcDbEntity
  8
1
  6
Continuous
100
AcDbLine
 10
25.76066034405838
 20
172.4308217104846
 30
0.0
 11
28.20629034405837
 21
172.4308217104846
 31
0.0
  0
ARC
  5
19D1
330
1871
100
AcDbEntity
  8
1
  6
Continuous
100
AcDbCircle
 10
30.30491784405839
 20
171.0189617104846
 30
0.0
 40
1.601294999999999
100
AcDbArc
 50
138.9319999999997
 51
221.0679999999999
  0
ARC
  5
19D2
330
1871
100
AcDbEntity
  8
1
  6
Continuous
100
AcDbCircle
 10
29.96363034405836
 20
171.3163517104846
 30
0.0
 40
1.148609999999999
100
AcDbArc
 50
41.0679
 51
138.9319999999997
  0
LINE
  5
19D3
330
1871
100
AcDbEntity
  8
1
  6
Continuous
100
AcDbLine
 10
42.6193928440584
 20
172.5612692104845
 30
0.0
 11
42.6193928440584
 21
169.4091092104845
 31
0.0
  0
ARC
  5
19D4
330
1871
100
AcDbEntity
  8
1
  6
Continuous
100
AcDbCircle
 10
40.69211784405839
 20
170.6148617104846
 30
0.0
 40
1.08
100
AcDbArc
 50
269.5819999999998
 51
11.6541
  0
ARC
  5
19D5
330
1871
100
AcDbEntity
  8
1
  6
Continuous
100
AcDbCircle
 10
40.68424284405838
 20
170.6830142104846
 30
0.0
 40
1.148609999999999
100
AcDbArc
 50
221.0679999999999
 51
276.591
  0
LINE
  5
19D6
330
1871
100
AcDbEntity
  8
1
  6
Continuous
100
AcDbLine
 10
41.7498428440584
 20
170.3859167104845
 30
0.0
 11
41.7498428440584
 21
169.4308217104846
 31
0.0
  0
LINE
  5
19D7
330
1871
100
AcDbEntity
  8
1
  6
Continuous
100
AcDbLine
 10
44.71721784405841
 20
170.8220942104846
 30
0.0
 11
44.71721784405841
 21
169.4091092104845
 31
0.0
  0
LINE
  5
19D8
330
1871
100
AcDbEntity
  8
1
  6
Continuous
100
AcDbLine
 10
47.51606784405836
 20
172.4851892104844
 30
0.0
 11
46.32589284405836
 21
169.4199092104844
 31
0.0
  0
LINE
  5
19D9
330
1871
100
AcDbEntity
  8
1
  6
Continuous
100
AcDbLine
 10
38.23901784405839
 20
172.5612692104845
 30
0.0
 11
38.23901784405839
 21
169.4091092104845
 31
0.0
  0
LINE
  5
19DA
330
1871
100
AcDbEntity
  8
1
  6
Continuous
100
AcDbLine
 10
37.18451784405838
 20
172.5612692104845
 30
0.0
 11
37.18451784405838
 21
169.4091092104845
 31
0.0
  0
LINE
  5
19DB
330
1871
100
AcDbEntity
  8
1
  6
Continuous
100
AcDbLine
 10
35.23901784405839
 20
172.5612692104845
 30
0.0
 11
35.23901784405839
 21
169.4091092104845
 31
0.0
  0
ARC
  5
19DC
330
1871
100
AcDbEntity
  8
1
  6
Continuous
100
AcDbCircle
 10
33.23614284405838
 20
170.3796392104846
 30
0.0
 40
0.7697175000000001
100
AcDbArc
 50
289.1929999999998
 51
354.341
  0
ARC
  5
19DD
330
1871
100
AcDbEntity
  8
1
  6
Continuous
100
AcDbCircle
 10
40.68424284405838
 20
171.2778017104845
 30
0.0
 40
1.148609999999999
100
AcDbArc
 50
70.80719999999998
 51
138.9319999999997
  0
LINE
  5
19DE
330
1871
100
AcDbEntity
  8
1
  6
Continuous
100
AcDbLine
 10
40.6954928440584
 20
170.8330292104846
 30
0.0
 11
41.7498428440584
 21
170.8330292104846
 31
0.0
  0
ARC
  5
19DF
330
1871
100
AcDbEntity
  8
1
  6
Continuous
100
AcDbCircle
 10
41.02549284405839
 20
170.9804117104845
 30
0.0
 40
1.601294999999999
100
AcDbArc
 50
138.9319999999997
 51
221.0679999999999
  0
ARC
  5
19E0
330
1871
100
AcDbEntity
  8
1
  6
Continuous
100
AcDbCircle
 10
33.23614284405838
 20
171.6900842104845
 30
0.0
 40
0.7697175000000001
100
AcDbArc
 50
5.659239999999998
 51
70.80719999999998
  0
LINE
  5
19E1
330
1871
100
AcDbEntity
  8
1
  6
Continuous
100
AcDbLine
 10
35.23901784405839
 20
170.9851892104846
 30
0.0
 11
37.18451784405838
 21
170.9851892104846
 31
0.0
  0
LINE
  5
19E2
330
1871
100
AcDbEntity
  8
1
  6
Continuous
100
AcDbLine
 10
44.71721784405841
 20
170.8275017104845
 30
0.0
 11
43.70666784405838
 21
172.5832217104845
 31
0.0
  0
LINE
  5
19E3
330
1871
100
AcDbEntity
  8
1
  6
Continuous
100
AcDbLine
 10
44.71721784405841
 20
170.8220867104845
 30
0.0
 11
45.7351178440584
 21
172.5851117104845
 31
0.0
  0
ARC
  5
19E4
330
1871
100
AcDbEntity
  8
1
  6
Continuous
100
AcDbCircle
 10
40.80881784405838
 20
171.6356342104846
 30
0.0
 40
0.7697175000000001
100
AcDbArc
 50
5.659239999999998
 51
70.80719999999998
  0
LINE
  5
19E5
330
1871
100
AcDbEntity
  8
1
  6
Continuous
100
AcDbLine
 10
46.68461784405841
 20
170.3220542104846
 30
0.0
 11
48.32044284405836
 21
170.3220542104846
 31
0.0
  0
LINE
  5
19E6
330
1871
100
AcDbEntity
  8
1
  6
Continuous
100
AcDbLine
 10
165.9651668970278
 20
41.22530083101056
 30
0.0
 11
165.9651668970278
 21
71.22531849769156
 31
0.0
  0
LINE
  5
19E7
330
1871
100
AcDbEntity
  8
1
  6
Continuous
100
AcDbLine
 10
163.9651668970278
 20
43.22531849769177
 30
0.0
 11
163.9651668970278
 21
69.22531849769146
 31
0.0
  0
LINE
  5
19E8
330
1871
100
AcDbEntity
  8
4
  6
CENTER
100
AcDbLine
 10
155.0942278305003
 20
56.22531849769157
 30
0.0
 11
218.2737977599463
 21
56.22531849769157
 31
0.0
  0
LINE
  5
19E9
330
1871
100
AcDbEntity
  8
1
  6
Continuous
100
AcDbLine
 10
163.9651668970278
 20
43.22531849769177
 30
0.0
 11
170.9651668970268
 21
36.22531849769278
 31
0.0
  0
LINE
  5
19EA
330
1871
100
AcDbEntity
  8
1
  6
Continuous
100
AcDbLine
 10
170.9651668970265
 20
36.22531849769278
 30
0.0
 11
195.9651668954665
 21
36.22531849769274
 31
0.0
  0
LINE
  5
19EB
330
1871
100
AcDbEntity
  8
1
  6
Continuous
100
AcDbLine
 10
194.4651668959941
 20
36.22531849769278
 30
0.0
 11
194.4651668959984
 21
76.22531849769031
 31
0.0
  0
LINE
  5
19EC
330
1871
100
AcDbEntity
  8
1
  6
Continuous
100
AcDbLine
 10
170.9651668970225
 20
36.22531849769518
 30
0.0
 11
170.9651668970268
 21
76.22531849769036
 31
0.0
  0
LINE
  5
19ED
330
1871
100
AcDbEntity
  8
1
  6
Continuous
100
AcDbLine
 10
163.9651668970278
 20
69.22531849769146
 30
0.0
 11
170.9651668970265
 21
76.22531849769036
 31
0.0
  0
LINE
  5
19EE
330
1871
100
AcDbEntity
  8
1
  6
Continuous
100
AcDbLine
 10
170.9651668970265
 20
76.22531849769036
 30
0.0
 11
195.9651668933993
 21
76.22531849769036
 31
0.0
  0
LINE
  5
19EF
330
1871
100
AcDbEntity
  8
4
  6
CENTER
100
AcDbLine
 10
248.1119387532852
 20
56.22531849766318
 30
0.0
 11
286.6783824714539
 21
56.22531849767796
 31
0.0
  0
LINE
  5
19F0
330
1871
100
AcDbEntity
  8
1
  6
Continuous
100
AcDbLine
 10
270.509457901699
 20
47.22531849768714
 30
0.0
 11
270.509457901699
 21
65.22531849768717
 31
0.0
  0
LINE
  5
19F1
330
1871
100
AcDbEntity
  8
1
  6
Continuous
100
AcDbLine
 10
269.509457901699
 20
47.22531849768617
 30
0.0
 11
269.509457901699
 21
65.22531849768617
 31
0.0
  0
LINE
  5
19F2
330
1871
100
AcDbEntity
  8
1
  6
Continuous
100
AcDbLine
 10
267.9094579016989
 20
47.22531849768535
 30
0.0
 11
267.9094579016989
 21
65.22531849768535
 31
0.0
  0
LINE
  5
19F3
330
1871
100
AcDbEntity
  8
1
  6
Continuous
100
AcDbLine
 10
252.4639530704948
 20
43.47531849760267
 30
0.0
 11
252.4639530691771
 21
68.97531849760267
 31
0.0
  0
LINE
  5
19F4
330
1871
100
AcDbEntity
  8
1
  6
Continuous
100
AcDbLine
 10
255.463953070663
 20
40.22531849766035
 30
0.0
 11
255.4639530690091
 21
72.22531849766598
 31
0.0
  0
LINE
  5
19F5
330
1871
100
AcDbEntity
  8
1
  6
Continuous
100
AcDbLine
 10
260.463953069836
 20
40.22531849765844
 30
0.0
 11
260.463953069836
 21
72.2253184976679
 31
0.0
  0
ARC
  5
19F6
330
1871
100
AcDbEntity
  8
1
  6
Continuous
100
AcDbCircle
 10
253.9639530704956
 20
43.47531849768015
 30
0.0
 40
1.50000000000074
100
AcDbArc
 50
180.0
 51
0.0
  0
LINE
  5
19F7
330
1871
100
AcDbEntity
  8
1
  6
Continuous
100
AcDbLine
 10
260.463953069836
 20
56.22531849766789
 30
0.0
 11
255.4639530698361
 21
56.22531849766257
 31
0.0
  0
LINE
  5
19F8
330
1871
100
AcDbEntity
  8
1
  6
Continuous
100
AcDbLine
 10
267.9094579016989
 20
47.22531849768582
 30
0.0
 11
270.509457901699
 21
47.22531849768714
 31
0.0
  0
ARC
  5
19F9
330
1871
100
AcDbEntity
  8
1
  6
Continuous
100
AcDbCircle
 10
253.9639530691764
 20
68.97531849768018
 30
0.0
 40
1.500000000000647
100
AcDbArc
 50
0.0
 51
180.0
  0
LINE
  5
19FA
330
1871
100
AcDbEntity
  8
1
  6
Continuous
100
AcDbLine
 10
267.9094579016989
 20
65.22531849768585
 30
0.0
 11
270.509457901699
 21
65.22531849768717
 31
0.0
  0
LINE
  5
19FB
330
1871
100
AcDbEntity
  8
1
  6
Continuous
100
AcDbLine
 10
279.9990406880675
 20
51.97531849774458
 30
0.0
 11
279.9990406880675
 21
60.47531849774458
 31
0.0
  0
LINE
  5
19FC
330
1871
100
AcDbEntity
  8
1
  6
Continuous
100
AcDbLine
 10
283.4990406880679
 20
52.22531849769129
 30
0.0
 11
283.4990406880679
 21
60.22531849767571
 31
0.0
  0
LINE
  5
19FD
330
1871
100
AcDbEntity
  8
1
  6
Continuous
100
AcDbLine
 10
277.4990406880675
 20
48.22531849768726
 30
0.0
 11
277.4990406880675
 21
64.22531849768725
 31
0.0
  0
LINE
  5
19FE
330
1871
100
AcDbEntity
  8
1
  6
Continuous
100
AcDbLine
 10
278.6990406880677
 20
48.22531849768785
 30
0.0
 11
278.6990406880677
 21
64.22531849768785
 31
0.0
  0
LINE
  5
19FF
330
1871
100
AcDbEntity
  8
1
  6
Continuous
100
AcDbLine
 10
283.1417750981831
 20
56.22531849767661
 30
0.0
 11
280.3563062779586
 21
56.22531849768352
 31
0.0
  0
LINE
  5
1A00
330
1871
100
AcDbEntity
  8
1
  6
Continuous
100
AcDbLine
 10
278.6990406880677
 20
51.97531849774398
 30
0.0
 11
279.9990406880675
 21
51.97531849774458
 31
0.0
  0
LINE
  5
1A01
330
1871
100
AcDbEntity
  8
1
  6
Continuous
100
AcDbLine
 10
277.4990406880679
 20
48.22531849768726
 30
0.0
 11
278.6990406880679
 21
48.22531849768785
 31
0.0
  0
LINE
  5
1A02
330
1871
100
AcDbEntity
  8
1
  6
Continuous
100
AcDbLine
 10
279.9990406880676
 20
57.52531849767494
 30
0.0
 11
278.6990406880598
 21
56.22531849766708
 31
0.0
  0
LINE
  5
1A03
330
1871
100
AcDbEntity
  8
1
  6
Continuous
100
AcDbLine
 10
279.9990406880608
 20
56.22531849766858
 30
0.0
 11
278.6990406880677
 21
54.92531849767542
 31
0.0
  0
LINE
  5
1A04
330
1871
100
AcDbEntity
  8
1
  6
Continuous
100
AcDbLine
 10
277.4990406880675
 20
64.22531849768725
 30
0.0
 11
278.6990406880677
 21
64.22531849768785
 31
0.0
  0
LINE
  5
1A05
330
1871
100
AcDbEntity
  8
1
  6
Continuous
100
AcDbLine
 10
278.6990406880676
 20
60.47531849774397
 30
0.0
 11
279.9990406880675
 21
60.47531849774458
 31
0.0
  0
LINE
  5
1A06
330
1871
100
AcDbEntity
  8
1
  6
Continuous
100
AcDbLine
 10
255.4639530690091
 20
72.22531849766598
 30
0.0
 11
260.463953069836
 21
72.2253184976679
 31
0.0
  0
LINE
  5
1A07
330
1871
100
AcDbEntity
  8
1
  6
Continuous
100
AcDbLine
 10
255.463953070663
 20
40.22531849766035
 30
0.0
 11
260.463953069836
 21
40.22531849765844
 31
0.0
  0
LINE
  5
1A08
330
1871
100
AcDbEntity
  8
1
  6
Continuous
100
AcDbLine
 10
197.9651668957597
 20
52.72531849769158
 30
0.0
 11
197.9651668953978
 21
59.72531849769158
 31
0.0
  0
LINE
  5
1A09
330
1871
100
AcDbEntity
  8
1
  6
Continuous
100
AcDbLine
 10
195.965166894252
 20
59.72531849769158
 30
0.0
 11
197.9651668953978
 21
59.72531849769158
 31
0.0
  0
LINE
  5
1A0A
330
1871
100
AcDbEntity
  8
1
  6
Continuous
100
AcDbLine
 10
195.9651668946136
 20
52.72531849769158
 30
0.0
 11
197.9651668957597
 21
52.72531849769158
 31
0.0
  0
LINE
  5
1A0B
330
1871
100
AcDbEntity
  8
4
  6
CENTER
100
AcDbLine
 10
359.927400140811
 20
148.050056791993
 30
0.0
 11
359.9274001408055
 21
128.0500567919928
 31
0.0
  0
LINE
  5
1A0C
330
1871
100
AcDbEntity
  8
1
  6
Continuous
100
AcDbLine
 10
355.9274001408343
 20
140.359457868756
 30
0.0
 11
359.9274001408101
 21
142.6688589455006
 31
0.0
  0
LINE
  5
1A0D
330
1871
100
AcDbEntity
  8
1
  6
Continuous
100
AcDbLine
 10
363.9274001407823
 20
140.3594578687581
 30
0.0
 11
359.9274001408101
 21
142.6688589455006
 31
0.0
  0
LINE
  5
1A0E
330
1871
100
AcDbEntity
  8
1
  6
Continuous
100
AcDbLine
 10
363.9274001407823
 20
135.7406557152277
 30
0.0
 11
359.9274001408101
 21
133.4312546384855
 31
0.0
  0
LINE
  5
1A0F
330
1871
100
AcDbEntity
  8
1
  6
Continuous
100
AcDbLine
 10
359.9274001408101
 20
133.4312546384855
 30
0.0
 11
355.9274001408343
 21
135.74065571523
 31
0.0
  0
LINE
  5
1A10
330
1871
100
AcDbEntity
  8
1
  6
Continuous
100
AcDbLine
 10
355.9274001408343
 20
135.74065571523
 30
0.0
 11
355.9274001408343
 21
140.359457868756
 31
0.0
  0
LINE
  5
1A11
330
1871
100
AcDbEntity
  8
1
  6
Continuous
100
AcDbLine
 10
363.9274001407823
 20
140.3594578687581
 30
0.0
 11
363.9274001407823
 21
135.7406557152277
 31
0.0
  0
LINE
  5
1A12
330
1871
100
AcDbEntity
  8
4
  6
CENTER
100
AcDbLine
 10
349.9274001408081
 20
138.0500567919957
 30
0.0
 11
369.9274001408081
 21
138.0500567919902
 31
0.0
  0
CIRCLE
  5
1A13
330
1871
100
AcDbEntity
  8
1
  6
Continuous
100
AcDbCircle
 10
359.9274001408081
 20
138.050056791993
 30
0.0
 40
3.999999999992776
  0
ARC
  5
1A14
330
1871
100
AcDbEntity
  8
1
  6
Continuous
100
AcDbCircle
 10
359.9274001408081
 20
138.050056791993
 30
0.0
 40
4.25
100
AcDbArc
 50
100.2500772039947
 51
139.7499227960049
  0
CIRCLE
  5
1A15
330
1871
100
AcDbEntity
  8
1
  6
Continuous
100
AcDbCircle
 10
359.9274001408081
 20
138.050056791993
 30
0.0
 40
8.0
  0
ARC
  5
1A16
330
1871
100
AcDbEntity
  8
1
  6
Continuous
100
AcDbCircle
 10
359.9274001408081
 20
138.050056791993
 30
0.0
 40
4.25
100
AcDbArc
 50
40.25007720406938
 51
79.74992279593043
  0
ARC
  5
1A17
330
1871
100
AcDbEntity
  8
1
  6
Continuous
100
AcDbCircle
 10
359.9274001408081
 20
138.050056791993
 30
0.0
 40
4.25
100
AcDbArc
 50
340.2500772033184
 51
19.74992279668151
  0
ARC
  5
1A18
330
1871
100
AcDbEntity
  8
1
  6
Continuous
100
AcDbCircle
 10
359.9274001408081
 20
138.050056791993
 30
0.0
 40
4.25
100
AcDbArc
 50
280.2500772040641
 51
319.749922795936
  0
ARC
  5
1A19
330
1871
100
AcDbEntity
  8
1
  6
Continuous
100
AcDbCircle
 10
359.9274001408081
 20
138.050056791993
 30
0.0
 40
4.25
100
AcDbArc
 50
220.250077203991
 51
259.7499227960089
  0
ARC
  5
1A1A
330
1871
100
AcDbEntity
  8
1
  6
Continuous
100
AcDbCircle
 10
359.9274001408081
 20
138.050056791993
 30
0.0
 40
4.25
100
AcDbArc
 50
160.2500772033135
 51
199.7499227966864
  0
CIRCLE
  5
1A1B
330
1871
100
AcDbEntity
  8
1
  6
Continuous
100
AcDbCircle
 10
359.9274001408081
 20
138.050056791993
 30
0.0
 40
9.0
  0
LINE
  5
1A1C
330
1871
100
AcDbEntity
  8
1
  6
Continuous
100
AcDbLine
 10
283.4990406880679
 20
60.22531849767571
 30
0.0
 11
279.9990406880676
 21
60.22531849768441
 31
0.0
  0
LINE
  5
1A1D
330
1871
100
AcDbEntity
  8
1
  6
Continuous
100
AcDbLine
 10
283.4990406880679
 20
52.22531849769129
 30
0.0
 11
279.9990406880676
 21
52.22531849768262
 31
0.0
  0
ARC
  5
1A1E
330
1871
100
AcDbEntity
  8
1
  6
Continuous
100
AcDbCircle
 10
277.7223316814068
 20
58.22531849767661
 30
0.0
 40
5.776709006661117
100
AcDbArc
 50
339.7438420008892
 51
20.25615799913162
  0
ARC
  5
1A1F
330
1871
100
AcDbEntity
  8
1
  6
Continuous
100
AcDbCircle
 10
277.7223316814068
 20
54.22531849767661
 30
0.0
 40
5.776709006661117
100
AcDbArc
 50
339.7438420008683
 51
20.25615799911076
  0
ARC
  5
1A20
330
1871
100
AcDbEntity
  8
1
  6
Continuous
100
AcDbCircle
 10
285.7757496947289
 20
54.22531849767661
 30
0.0
 40
5.776709006661117
100
AcDbArc
 50
159.743842000889
 51
200.2561579991314
  0
ARC
  5
1A21
330
1871
100
AcDbEntity
  8
1
  6
Continuous
100
AcDbCircle
 10
285.7757496947289
 20
58.22531849767661
 30
0.0
 40
5.776709006661117
100
AcDbArc
 50
159.7438420008683
 51
200.2561579991107
  0
LINE
  5
1A22
330
1871
100
AcDbEntity
  8
4
  6
CENTER
100
AcDbLine
 10
366.9274001407872
 20
250.6547648750718
 30
0.0
 11
352.9274001407874
 21
250.6547648750721
 31
0.0
  0
CIRCLE
  5
1A23
330
1871
100
AcDbEntity
  8
1
  6
Continuous
100
AcDbCircle
 10
359.9274001407875
 20
250.6547648750721
 30
0.0
 40
5.0
  0
LINE
  5
1A24
330
1871
100
AcDbEntity
  8
4
  6
CENTER
100
AcDbLine
 10
359.9274001407877
 20
257.654764875072
 30
0.0
 11
359.9274001407871
 21
243.6547648750721
 31
0.0
  0
CIRCLE
  5
1A25
330
1871
100
AcDbEntity
  8
1
  6
Continuous
100
AcDbCircle
 10
359.9274001407875
 20
250.6547648750721
 30
0.0
 40
4.5
  0
LINE
  5
1A26
330
1871
100
AcDbEntity
  8
1
  6
Continuous
100
AcDbLine
 10
360.5560180692624
 20
249.4053071927156
 30
0.0
 11
361.3373710624736
 21
248.6508242571896
 31
0.0
  0
LINE
  5
1A27
330
1871
100
AcDbEntity
  8
1
  6
Continuous
100
AcDbLine
 10
360.5560180692624
 20
251.9042225574288
 30
0.0
 11
361.3373710624732
 21
252.6587054929548
 31
0.0
  0
LINE
  5
1A28
330
1871
100
AcDbEntity
  8
1
  6
Continuous
100
AcDbLine
 10
359.2987822123124
 20
249.4053071927156
 30
0.0
 11
358.5174292191014
 21
248.6508242571896
 31
0.0
  0
LINE
  5
1A29
330
1871
100
AcDbEntity
  8
1
  6
Continuous
100
AcDbLine
 10
358.6779424584307
 20
250.0261469465974
 30
0.0
 11
357.9234595229048
 21
249.2447939533863
 31
0.0
  0
LINE
  5
1A2A
330
1871
100
AcDbEntity
  8
1
  6
Continuous
100
AcDbLine
 10
358.6779424584307
 20
251.2833828035471
 30
0.0
 11
357.9234595229048
 21
252.0647357967582
 31
0.0
  0
LINE
  5
1A2B
330
1871
100
AcDbEntity
  8
1
  6
Continuous
100
AcDbLine
 10
359.2987822123124
 20
251.9042225574288
 30
0.0
 11
358.5174292191014
 21
252.6587054929548
 31
0.0
  0
ARC
  5
1A2C
330
1871
100
AcDbEntity
  8
1
  6
Continuous
100
AcDbCircle
 10
359.9274001407875
 20
250.6547648750721
 30
0.0
 40
2.45
100
AcDbArc
 50
215.1289999999999
 51
234.871
  0
ARC
  5
1A2D
330
1871
100
AcDbEntity
  8
1
  6
Continuous
100
AcDbCircle
 10
359.9274001407875
 20
250.6547648750721
 30
0.0
 40
2.45
100
AcDbArc
 50
125.1291
 51
144.8709
  0
LINE
  5
1A2E
330
1871
100
AcDbEntity
  8
1
  6
Continuous
100
AcDbLine
 10
359.9281072475684
 20
249.6344097898201
 30
0.0
 11
360.5560180692624
 21
249.4053071927156
 31
0.0
  0
LINE
  5
1A2F
330
1871
100
AcDbEntity
  8
1
  6
Continuous
100
AcDbLine
 10
359.9281072475684
 20
249.6344097898201
 30
0.0
 11
359.2987822123124
 21
249.4053071927156
 31
0.0
  0
LINE
  5
1A30
330
1871
100
AcDbEntity
  8
1
  6
Continuous
100
AcDbLine
 10
358.9070450555352
 20
250.6554719818534
 30
0.0
 11
358.6779424584307
 21
250.0261469465974
 31
0.0
  0
LINE
  5
1A31
330
1871
100
AcDbEntity
  8
1
  6
Continuous
100
AcDbLine
 10
358.9070450555352
 20
250.6554719818534
 30
0.0
 11
358.6779424584307
 21
251.2833828035471
 31
0.0
  0
LINE
  5
1A32
330
1871
100
AcDbEntity
  8
1
  6
Continuous
100
AcDbLine
 10
359.9274001407875
 20
251.6758270671056
 30
0.0
 11
359.2987822123124
 21
251.9042225574288
 31
0.0
  0
LINE
  5
1A33
330
1871
100
AcDbEntity
  8
1
  6
Continuous
100
AcDbLine
 10
359.9274001407875
 20
251.6758270671056
 30
0.0
 11
360.5560180692624
 21
251.9042225574288
 31
0.0
  0
ARC
  5
1A34
330
1871
100
AcDbEntity
  8
1
  6
Continuous
100
AcDbCircle
 10
359.9274001407875
 20
250.6547648750721
 30
0.0
 40
2.45
100
AcDbArc
 50
305.129
 51
324.8709999999999
  0
ARC
  5
1A35
330
1871
100
AcDbEntity
  8
1
  6
Continuous
100
AcDbCircle
 10
359.9274001407875
 20
250.6547648750721
 30
0.0
 40
2.45
100
AcDbArc
 50
35.129
 51
54.87089
  0
LINE
  5
1A36
330
1871
100
AcDbEntity
  8
1
  6
Continuous
100
AcDbLine
 10
361.1768578231441
 20
250.0261469465971
 30
0.0
 11
361.9313407586701
 21
249.244793953386
 31
0.0
  0
LINE
  5
1A37
330
1871
100
AcDbEntity
  8
1
  6
Continuous
100
AcDbLine
 10
360.9484623328208
 20
250.6547648750721
 30
0.0
 11
361.1768578231441
 21
250.0261469465971
 31
0.0
  0
LINE
  5
1A38
330
1871
100
AcDbEntity
  8
1
  6
Continuous
100
AcDbLine
 10
361.1768578231441
 20
251.2833828035471
 30
0.0
 11
361.9313407586701
 21
252.0647357967582
 31
0.0
  0
LINE
  5
1A39
330
1871
100
AcDbEntity
  8
1
  6
Continuous
100
AcDbLine
 10
360.9484623328208
 20
250.6547648750721
 30
0.0
 11
361.1768578231441
 21
251.2833828035471
 31
0.0
  0
LINE
  5
1A3A
330
1871
100
AcDbEntity
  8
1
  6
Continuous
100
AcDbLine
 10
195.9651668954665
 20
36.22531849769274
 30
0.0
 11
195.9651668933993
 21
76.22531849769036
 31
0.0
  0
LINE
  5
1A3B
330
1871
100
AcDbEntity
  8
1
  6
Continuous
100
AcDbLine
 10
162.9651668970279
 20
44.2253184976916
 30
0.0
 11
162.9651668970279
 21
68.22531849769157
 31
0.0
  0
LINE
  5
1A3C
330
1871
100
AcDbEntity
  8
1
  6
Continuous
100
AcDbLine
 10
160.965166897028
 20
66.2253184976917
 30
0.0
 11
162.9651668970279
 21
68.22531849769157
 31
0.0
  0
LINE
  5
1A3D
330
1871
100
AcDbEntity
  8
1
  6
Continuous
100
AcDbLine
 10
160.965166897028
 20
46.22531849769157
 30
0.0
 11
160.965166897028
 21
66.22531849769157
 31
0.0
  0
LINE
  5
1A3E
330
1871
100
AcDbEntity
  8
1
  6
Continuous
100
AcDbLine
 10
160.6651668969985
 20
62.92531849769208
 30
0.0
 11
160.6651668969751
 21
49.52531849769221
 31
0.0
  0
ARC
  5
1A3F
330
1871
100
AcDbEntity
  8
1
  6
Continuous
100
AcDbCircle
 10
160.9651668969983
 20
62.92531849769156
 30
0.0
 40
0.3
100
AcDbArc
 50
90.0
 51
180.0
  0
LINE
  5
1A40
330
1871
100
AcDbEntity
  8
1
  6
Continuous
100
AcDbLine
 10
162.9651668970279
 20
68.22531849769157
 30
0.0
 11
163.9651668970278
 21
68.22531849769157
 31
0.0
  0
LINE
  5
1A41
330
1871
100
AcDbEntity
  8
1
  6
Continuous
100
AcDbLine
 10
162.9651668970279
 20
44.2253184976916
 30
0.0
 11
160.9651668970279
 21
46.22531849769157
 31
0.0
  0
LINE
  5
1A42
330
1871
100
AcDbEntity
  8
1
  6
Continuous
100
AcDbLine
 10
162.965166897028
 20
44.2253184976916
 30
0.0
 11
163.9651668970278
 21
44.2253184976916
 31
0.0
  0
LINE
  5
1A43
330
1871
100
AcDbEntity
  8
1
  6
Continuous
100
AcDbLine
 10
197.4651668961474
 20
45.22531849568081
 30
0.0
 11
197.4651668958656
 21
50.68005024459122
 31
0.0
  0
LINE
  5
1A44
330
1871
100
AcDbEntity
  8
1
  6
Continuous
100
AcDbLine
 10
205.4651668960789
 20
45.22531849569783
 30
0.0
 11
205.4651668960806
 21
50.68005024459299
 31
0.0
  0
LINE
  5
1A45
330
1871
100
AcDbEntity
  8
1
  6
Continuous
100
AcDbLine
 10
206.9651668960696
 20
46.7253184957005
 30
0.0
 11
206.9651668959147
 21
65.72531849561783
 31
0.0
  0
LINE
  5
1A46
330
1871
100
AcDbEntity
  8
1
  6
Continuous
100
AcDbLine
 10
197.4651668952923
 20
61.77058675100083
 30
0.0
 11
197.4651668950104
 21
67.22531849570732
 31
0.0
  0
LINE
  5
1A47
330
1871
100
AcDbEntity
  8
1
  6
Continuous
100
AcDbLine
 10
205.4651668959154
 20
67.22531849569785
 30
0.0
 11
205.4651668959134
 21
61.7705867509885
 31
0.0
  0
LINE
  5
1A48
330
1871
100
AcDbEntity
  8
2
  6
Continuous
100
AcDbLine
 10
206.2771668937588
 20
66.41331849777474
 30
0.0
 11
197.4651668950524
 21
66.41331849777852
 31
0.0
  0
LINE
  5
1A49
330
1871
100
AcDbEntity
  8
1
  6
Continuous
100
AcDbLine
 10
205.4651668958371
 20
67.22531849569785
 30
0.0
 11
195.9651668938644
 21
67.22531849570825
 31
0.0
  0
LINE
  5
1A4A
330
1871
100
AcDbEntity
  8
2
  6
Continuous
100
AcDbLine
 10
195.9651668938855
 20
66.81931849705437
 30
0.0
 11
197.4651668950524
 21
66.41331849777852
 31
0.0
  0
LINE
  5
1A4B
330
1871
100
AcDbEntity
  8
1
  6
Continuous
100
AcDbLine
 10
205.465166895837
 20
67.22531849569785
 30
0.0
 11
206.9651668958495
 21
65.72531849568311
 31
0.0
  0
LINE
  5
1A4C
330
1871
100
AcDbEntity
  8
2
  6
Continuous
100
AcDbLine
 10
197.9651668954744
 20
58.24177968070824
 30
0.0
 11
205.4651668960806
 21
50.68005024459299
 31
0.0
  0
LINE
  5
1A4D
330
1871
100
AcDbEntity
  8
2
  6
Continuous
100
AcDbLine
 10
197.9651668956829
 20
54.20885731515515
 30
0.0
 11
205.465166895913
 21
61.77058675099134
 31
0.0
  0
LINE
  5
1A4E
330
1871
100
AcDbEntity
  8
1
  6
Continuous
100
AcDbLine
 10
205.4651668960806
 20
50.68005024458172
 30
0.0
 11
195.9651668947194
 21
50.68005024459218
 31
0.0
  0
LINE
  5
1A4F
330
1871
100
AcDbEntity
  8
1
  6
Continuous
100
AcDbLine
 10
205.465166895913
 20
61.77058675099122
 30
0.0
 11
195.9651668941464
 21
61.7705867510017
 31
0.0
  0
LINE
  5
1A50
330
1871
100
AcDbEntity
  8
2
  6
Continuous
100
AcDbLine
 10
195.9651668942245
 20
60.25824086476972
 30
0.0
 11
196.4937388038085
 21
59.72531849577212
 31
0.0
  0
LINE
  5
1A51
330
1871
100
AcDbEntity
  8
1
  6
Continuous
100
AcDbLine
 10
208.9651668960275
 20
51.88757242147858
 30
0.0
 11
208.9651668959568
 21
60.56306457391023
 31
0.0
  0
ARC
  5
1A52
330
1871
100
AcDbEntity
  8
1
  6
Continuous
100
AcDbCircle
 10
195.9651668959891
 20
56.22531849764742
 30
0.0
 40
11.00000000000314
100
AcDbArc
 50
329.7273586819557
 51
30.27264131973457
  0
LINE
  5
1A53
330
1871
100
AcDbEntity
  8
1
  6
Continuous
100
AcDbLine
 10
208.6651668959564
 20
60.86306457390782
 30
0.0
 11
206.965166895955
 21
60.86306457390588
 31
0.0
  0
ARC
  5
1A54
330
1871
100
AcDbEntity
  8
1
  6
Continuous
100
AcDbCircle
 10
208.6651668959571
 20
60.56306457390782
 30
0.0
 40
0.3
100
AcDbArc
 50
0.0
 51
89.99999999999998
  0
LINE
  5
1A55
330
1871
100
AcDbEntity
  8
1
  6
Continuous
100
AcDbLine
 10
208.6651668960281
 20
51.58757242147622
 30
0.0
 11
206.965166895955
 21
51.58757242147392
 31
0.0
  0
ARC
  5
1A56
330
1871
100
AcDbEntity
  8
1
  6
Continuous
100
AcDbCircle
 10
208.6651668960276
 20
51.8875724214762
 30
0.0
 40
0.3
100
AcDbArc
 50
270.0
 51
0.0
  0
LINE
  5
1A57
330
1871
100
AcDbEntity
  8
2
  6
Continuous
100
AcDbLine
 10
206.2771668982713
 20
46.03731849782574
 30
0.0
 11
197.4651668961053
 21
46.03731849784352
 31
0.0
  0
LINE
  5
1A58
330
1871
100
AcDbEntity
  8
1
  6
Continuous
100
AcDbLine
 10
205.4651668961569
 20
45.22531849569772
 30
0.0
 11
195.9651668950014
 21
45.22531849567845
 31
0.0
  0
LINE
  5
1A59
330
1871
100
AcDbEntity
  8
2
  6
Continuous
100
AcDbLine
 10
197.4651668961053
 20
46.03731849784352
 30
0.0
 11
195.9651668949804
 21
45.63131849644935
 31
0.0
  0
LINE
  5
1A5A
330
1871
100
AcDbEntity
  8
1
  6
Continuous
100
AcDbLine
 10
206.9651668961351
 20
46.7253184957005
 30
0.0
 11
205.4651668961569
 21
45.22531849569783
 31
0.0
  0
LINE
  5
1A5B
330
1871
100
AcDbEntity
  8
2
  6
Continuous
100
AcDbLine
 10
195.9651668942245
 20
52.19239613061343
 30
0.0
 11
196.4937388038085
 21
52.72531849961104
 31
0.0
  0
LINE
  5
1A5C
330
1871
100
AcDbEntity
  8
1
  6
Continuous
100
AcDbLine
 10
214.2651668949299
 20
51.22531849774023
 30
0.0
 11
214.2651668949299
 21
61.22531849765604
 31
0.0
  0
LINE
  5
1A5D
330
1871
100
AcDbEntity
  8
1
  6
Continuous
100
AcDbLine
 10
209.2651668949299
 20
46.97531849769425
 30
0.0
 11
209.2651668949299
 21
65.47531849762171
 31
0.0
  0
LINE
  5
1A5E
330
1871
100
AcDbEntity
  8
2
  6
Continuous
100
AcDbLine
 10
214.2651668949299
 20
56.9324252787138
 30
0.0
 11
209.2651668949299
 21
59.96288291238053
 31
0.0
  0
LINE
  5
1A5F
330
1871
100
AcDbEntity
  8
2
  6
Continuous
100
AcDbLine
 10
209.2651668949299
 20
58.14460833216745
 30
0.0
 11
214.2651668949299
 21
61.17506596583329
 31
0.0
  0
LINE
  5
1A60
330
1871
100
AcDbEntity
  8
1
  6
Continuous
100
AcDbLine
 10
214.2651668949299
 20
61.17506596583331
 30
0.0
 11
209.2651668949299
 21
61.17506596582392
 31
0.0
  0
LINE
  5
1A61
330
1871
100
AcDbEntity
  8
1
  6
Continuous
100
AcDbLine
 10
209.2651668949299
 20
61.22531849766762
 30
0.0
 11
214.2651668949299
 21
61.22531849765613
 31
0.0
  0
LINE
  5
1A62
330
1871
100
AcDbEntity
  8
1
  6
Continuous
100
AcDbLine
 10
214.2651668949299
 20
56.9324252787138
 30
0.0
 11
209.2651668949299
 21
56.9324252787047
 31
0.0
  0
LINE
  5
1A63
330
1871
100
AcDbEntity
  8
2
  6
Continuous
100
AcDbLine
 10
214.2651668949299
 20
55.51821171668311
 30
0.0
 11
209.2651668949299
 21
52.4877540830101
 31
0.0
  0
LINE
  5
1A64
330
1871
100
AcDbEntity
  8
2
  6
Continuous
100
AcDbLine
 10
209.2651668949299
 20
54.30602866322653
 30
0.0
 11
214.2651668949299
 21
51.27557102956709
 31
0.0
  0
LINE
  5
1A65
330
1871
100
AcDbEntity
  8
1
  6
Continuous
100
AcDbLine
 10
214.2651668949299
 20
51.27557102956441
 30
0.0
 11
209.2651668949299
 21
51.27557102956882
 31
0.0
  0
LINE
  5
1A66
330
1871
100
AcDbEntity
  8
1
  6
Continuous
100
AcDbLine
 10
209.2651668949299
 20
51.22531849772393
 30
0.0
 11
214.2651668949299
 21
51.22531849773997
 31
0.0
  0
LINE
  5
1A67
330
1871
100
AcDbEntity
  8
1
  6
Continuous
100
AcDbLine
 10
214.2651668949299
 20
55.51821171668354
 30
0.0
 11
209.2651668949299
 21
55.5182117166881
 31
0.0
  0
LINE
  5
1A68
330
1871
100
AcDbEntity
  8
1
  6
Continuous
100
AcDbLine
 10
209.2651668949299
 20
65.47531849769426
 30
0.0
 11
207.2651668952871
 21
65.47531849769426
 31
0.0
  0
LINE
  5
1A69
330
1871
100
AcDbEntity
  8
1
  6
Continuous
100
AcDbLine
 10
209.2651668949299
 20
60.85031849768678
 30
0.0
 11
208.7516838496343
 21
60.85031849768678
 31
0.0
  0
LINE
  5
1A6A
330
1871
100
AcDbEntity
  8
1
  6
Continuous
100
AcDbLine
 10
209.2651668949299
 20
59.72531849768848
 30
0.0
 11
208.9651668959636
 21
59.72531849768848
 31
0.0
  0
LINE
  5
1A6B
330
1871
100
AcDbEntity
  8
1
  6
Continuous
100
AcDbLine
 10
209.2651668949299
 20
49.22531849769424
 30
0.0
 11
207.2651668952871
 21
49.22531849769424
 31
0.0
  0
LINE
  5
1A6C
330
1871
100
AcDbEntity
  8
1
  6
Continuous
100
AcDbLine
 10
209.2651668949299
 20
46.97531849769425
 30
0.0
 11
207.2651668952871
 21
46.97531849769425
 31
0.0
  0
LINE
  5
1A6D
330
1871
100
AcDbEntity
  8
1
  6
Continuous
100
AcDbLine
 10
207.2651668952871
 20
65.47531849769426
 30
0.0
 11
207.2651668952871
 21
60.86306457390626
 31
0.0
  0
LINE
  5
1A6E
330
1871
100
AcDbEntity
  8
1
  6
Continuous
100
AcDbLine
 10
207.2651668952871
 20
51.58757242147434
 30
0.0
 11
207.2651668952871
 21
46.97531849769425
 31
0.0
  0
ARC
  5
1A6F
330
1871
100
AcDbEntity
  8
1
  6
Continuous
100
AcDbCircle
 10
160.9651668969983
 20
49.52531849769157
 30
0.0
 40
0.3
100
AcDbArc
 50
180.0
 51
270.0
  0
LINE
  5
1A70
330
1871
100
AcDbEntity
  8
4
  6
CENTER
100
AcDbLine
 10
155.0942278305003
 20
337.6363249207818
 30
0.0
 11
218.2737977599463
 21
337.6363249207818
 31
0.0
  0
LINE
  5
1A71
330
1871
100
AcDbEntity
  8
2
  6
Continuous
100
AcDbLine
 10
195.9651668942245
 20
333.6034025537037
 30
0.0
 11
205.4651668960806
 21
343.1815931738801
 31
0.0
  0
LINE
  5
1A72
330
1871
100
AcDbEntity
  8
2
  6
Continuous
100
AcDbLine
 10
206.2771668937588
 20
327.4483249206986
 30
0.0
 11
197.4651668950524
 21
327.4483249206947
 31
0.0
  0
LINE
  5
1A73
330
1871
100
AcDbEntity
  8
2
  6
Continuous
100
AcDbLine
 10
195.9651668946414
 20
341.6692472871963
 30
0.0
 11
205.465166895913
 21
332.0910566674819
 31
0.0
  0
LINE
  5
1A74
330
1871
100
AcDbEntity
  8
2
  6
Continuous
100
AcDbLine
 10
206.2771668982713
 20
347.8243249206474
 30
0.0
 11
197.4651668961053
 21
347.8243249206298
 31
0.0
  0
LINE
  5
1A75
330
1871
100
AcDbEntity
  8
1
  6
Continuous
100
AcDbLine
 10
205.465166895913
 20
332.0910566674819
 30
0.0
 11
195.9651668941464
 21
332.0910566674716
 31
0.0
  0
LINE
  5
1A76
330
1871
100
AcDbEntity
  8
1
  6
Continuous
100
AcDbLine
 10
205.4651668958371
 20
326.6363249227755
 30
0.0
 11
195.9651668938644
 21
326.636324922765
 31
0.0
  0
LINE
  5
1A77
330
1871
100
AcDbEntity
  8
1
  6
Continuous
100
AcDbLine
 10
205.4651668961569
 20
348.6363249227756
 30
0.0
 11
195.9651668950014
 21
348.6363249227949
 31
0.0
  0
LINE
  5
1A78
330
1871
100
AcDbEntity
  8
1
  6
Continuous
100
AcDbLine
 10
205.4651668960806
 20
343.1815931738916
 30
0.0
 11
195.9651668947194
 21
343.1815931738812
 31
0.0
  0
LINE
  5
1A79
330
1871
100
AcDbEntity
  8
1
  6
Continuous
100
AcDbLine
 10
163.9651668970278
 20
324.6363249207818
 30
0.0
 11
170.9651668970265
 21
317.6363249207828
 31
0.0
  0
LINE
  5
1A7A
330
1871
100
AcDbEntity
  8
1
  6
Continuous
100
AcDbLine
 10
194.4651668959941
 20
357.6363249207805
 30
0.0
 11
194.4651668959984
 21
317.636324920783
 31
0.0
  0
LINE
  5
1A7B
330
1871
100
AcDbEntity
  8
1
  6
Continuous
100
AcDbLine
 10
170.9651668970225
 20
357.6363249207779
 30
0.0
 11
170.9651668970268
 21
317.6363249207828
 31
0.0
  0
LINE
  5
1A7C
330
1871
100
AcDbEntity
  8
1
  6
Continuous
100
AcDbLine
 10
195.9651668954665
 20
357.6363249207806
 30
0.0
 11
195.9651668933993
 21
317.6363249207828
 31
0.0
  0
LINE
  5
1A7D
330
1871
100
AcDbEntity
  8
1
  6
Continuous
100
AcDbLine
 10
163.9651668970278
 20
350.6363249207816
 30
0.0
 11
170.9651668970268
 21
357.6363249207805
 31
0.0
  0
LINE
  5
1A7E
330
1871
100
AcDbEntity
  8
1
  6
Continuous
100
AcDbLine
 10
165.9651668970278
 20
352.6363425874627
 30
0.0
 11
165.9651668970278
 21
322.6363249207818
 31
0.0
  0
LINE
  5
1A7F
330
1871
100
AcDbEntity
  8
1
  6
Continuous
100
AcDbLine
 10
163.9651668970278
 20
350.6363249207816
 30
0.0
 11
163.9651668970278
 21
324.6363249207818
 31
0.0
  0
LINE
  5
1A80
330
1871
100
AcDbEntity
  8
1
  6
Continuous
100
AcDbLine
 10
162.9651668970279
 20
349.6363249207817
 30
0.0
 11
162.9651668970279
 21
325.6363249207818
 31
0.0
  0
LINE
  5
1A81
330
1871
100
AcDbEntity
  8
1
  6
Continuous
100
AcDbLine
 10
160.965166897028
 20
347.6363249207817
 30
0.0
 11
160.965166897028
 21
327.6363249207818
 31
0.0
  0
LINE
  5
1A82
330
1871
100
AcDbEntity
  8
1
  6
Continuous
100
AcDbLine
 10
160.6651668969985
 20
330.9363249207811
 30
0.0
 11
160.6651668969751
 21
344.3363249207811
 31
0.0
  0
LINE
  5
1A83
330
1871
100
AcDbEntity
  8
1
  6
Continuous
100
AcDbLine
 10
162.9651668970279
 20
349.6363249207817
 30
0.0
 11
160.9651668970279
 21
347.6363249207817
 31
0.0
  0
ARC
  5
1A84
330
1871
100
AcDbEntity
  8
1
  6
Continuous
100
AcDbCircle
 10
160.9651668969983
 20
344.3363249207816
 30
0.0
 40
0.3
100
AcDbArc
 50
90.00000000000005
 51
180.0
  0
LINE
  5
1A85
330
1871
100
AcDbEntity
  8
1
  6
Continuous
100
AcDbLine
 10
162.965166897028
 20
349.6363249207817
 30
0.0
 11
163.9651668970278
 21
349.6363249207817
 31
0.0
  0
ARC
  5
1A86
330
1871
100
AcDbEntity
  8
1
  6
Continuous
100
AcDbCircle
 10
160.9651668969983
 20
330.9363249207816
 30
0.0
 40
0.3
100
AcDbArc
 50
180.0
 51
270.0
  0
LINE
  5
1A87
330
1871
100
AcDbEntity
  8
1
  6
Continuous
100
AcDbLine
 10
160.965166897028
 20
327.6363249207816
 30
0.0
 11
162.9651668970279
 21
325.6363249207818
 31
0.0
  0
LINE
  5
1A88
330
1871
100
AcDbEntity
  8
1
  6
Continuous
100
AcDbLine
 10
162.9651668970279
 20
325.6363249207818
 30
0.0
 11
163.9651668970278
 21
325.6363249207818
 31
0.0
  0
LINE
  5
1A89
330
1871
100
AcDbEntity
  8
1
  6
Continuous
100
AcDbLine
 10
170.9651668970265
 20
357.6363249207805
 30
0.0
 11
195.9651668954665
 21
357.6363249207806
 31
0.0
  0
LINE
  5
1A8A
330
1871
100
AcDbEntity
  8
2
  6
Continuous
100
AcDbLine
 10
197.4651668961053
 20
347.8243249206298
 30
0.0
 11
195.9651668949804
 21
348.230324922024
 31
0.0
  0
LINE
  5
1A8B
330
1871
100
AcDbEntity
  8
1
  6
Continuous
100
AcDbLine
 10
197.4651668961474
 20
348.6363249227925
 30
0.0
 11
197.4651668958656
 21
343.181593173882
 31
0.0
  0
LINE
  5
1A8C
330
1871
100
AcDbEntity
  8
1
  6
Continuous
100
AcDbLine
 10
197.4651668952923
 20
332.0910566674725
 30
0.0
 11
197.4651668950104
 21
326.6363249227659
 31
0.0
  0
LINE
  5
1A8D
330
1871
100
AcDbEntity
  8
2
  6
Continuous
100
AcDbLine
 10
195.9651668938855
 20
327.0423249214188
 30
0.0
 11
197.4651668950524
 21
327.4483249206947
 31
0.0
  0
LINE
  5
1A8E
330
1871
100
AcDbEntity
  8
1
  6
Continuous
100
AcDbLine
 10
170.9651668970265
 20
317.6363249207828
 30
0.0
 11
195.9651668933993
 21
317.6363249207828
 31
0.0
  0
LINE
  5
1A8F
330
1871
100
AcDbEntity
  8
4
  6
CENTER
100
AcDbLine
 10
248.1119387532852
 20
337.6363249208101
 30
0.0
 11
286.6783824714539
 21
337.6363249207952
 31
0.0
  0
LINE
  5
1A90
330
1871
100
AcDbEntity
  8
2
  6
Continuous
100
AcDbLine
 10
214.2651668949299
 20
338.3434317017902
 30
0.0
 11
209.2651668949299
 21
341.3738893354631
 31
0.0
  0
ARC
  5
1A91
330
1871
100
AcDbEntity
  8
1
  6
Continuous
100
AcDbCircle
 10
195.9651668959891
 20
337.6363249208259
 30
0.0
 40
11.00000000000314
100
AcDbArc
 50
329.7273586802654
 51
30.27264131804427
  0
LINE
  5
1A92
330
1871
100
AcDbEntity
  8
1
  6
Continuous
100
AcDbLine
 10
208.9651668960275
 20
341.9740709969947
 30
0.0
 11
208.9651668959568
 21
333.2985788445632
 31
0.0
  0
LINE
  5
1A93
330
1871
100
AcDbEntity
  8
1
  6
Continuous
100
AcDbLine
 10
206.9651668960696
 20
347.1363249227728
 30
0.0
 11
206.9651668959147
 21
328.1363249228553
 31
0.0
  0
LINE
  5
1A94
330
1871
100
AcDbEntity
  8
1
  6
Continuous
100
AcDbLine
 10
214.2651668949299
 20
342.6363249207331
 30
0.0
 11
214.2651668949299
 21
332.6363249208171
 31
0.0
  0
LINE
  5
1A95
330
1871
100
AcDbEntity
  8
1
  6
Continuous
100
AcDbLine
 10
209.2651668949299
 20
346.8863249207789
 30
0.0
 11
209.2651668949299
 21
328.3863249208516
 31
0.0
  0
LINE
  5
1A96
330
1871
100
AcDbEntity
  8
1
  6
Continuous
100
AcDbLine
 10
208.6651668960281
 20
342.2740709969971
 30
0.0
 11
206.965166895955
 21
342.2740709969992
 31
0.0
  0
LINE
  5
1A97
330
1871
100
AcDbEntity
  8
1
  6
Continuous
100
AcDbLine
 10
209.2651668949299
 20
344.6363249207788
 30
0.0
 11
207.2651668952871
 21
344.6363249207788
 31
0.0
  0
LINE
  5
1A98
330
1871
100
AcDbEntity
  8
1
  6
Continuous
100
AcDbLine
 10
209.2651668949299
 20
346.8863249207789
 30
0.0
 11
207.2651668952871
 21
346.8863249207789
 31
0.0
  0
LINE
  5
1A99
330
1871
100
AcDbEntity
  8
1
  6
Continuous
100
AcDbLine
 10
206.9651668961351
 20
347.1363249227728
 30
0.0
 11
205.4651668961569
 21
348.6363249227754
 31
0.0
  0
LINE
  5
1A9A
330
1871
100
AcDbEntity
  8
1
  6
Continuous
100
AcDbLine
 10
205.4651668960789
 20
348.6363249227754
 30
0.0
 11
205.4651668960806
 21
343.1815931738801
 31
0.0
  0
LINE
  5
1A9B
330
1871
100
AcDbEntity
  8
1
  6
Continuous
100
AcDbLine
 10
207.2651668952871
 20
342.274070996999
 30
0.0
 11
207.2651668952871
 21
346.8863249207789
 31
0.0
  0
ARC
  5
1A9C
330
1871
100
AcDbEntity
  8
1
  6
Continuous
100
AcDbCircle
 10
208.6651668960276
 20
341.9740709969971
 30
0.0
 40
0.3
100
AcDbArc
 50
0.0
 51
90.00000000000005
  0
LINE
  5
1A9D
330
1871
100
AcDbEntity
  8
2
  6
Continuous
100
AcDbLine
 10
209.2651668949299
 20
339.5556147552468
 30
0.0
 11
214.2651668949299
 21
342.5860723889062
 31
0.0
  0
LINE
  5
1A9E
330
1871
100
AcDbEntity
  8
1
  6
Continuous
100
AcDbLine
 10
214.2651668949299
 20
342.5860723889087
 30
0.0
 11
209.2651668949299
 21
342.5860723889044
 31
0.0
  0
LINE
  5
1A9F
330
1871
100
AcDbEntity
  8
1
  6
Continuous
100
AcDbLine
 10
209.2651668949299
 20
342.6363249207494
 30
0.0
 11
214.2651668949299
 21
342.6363249207334
 31
0.0
  0
LINE
  5
1AA0
330
1871
100
AcDbEntity
  8
1
  6
Continuous
100
AcDbLine
 10
205.4651668959154
 20
326.6363249227755
 30
0.0
 11
205.4651668959134
 21
332.0910566674847
 31
0.0
  0
LINE
  5
1AA1
330
1871
100
AcDbEntity
  8
1
  6
Continuous
100
AcDbLine
 10
207.2651668952871
 20
328.3863249207791
 30
0.0
 11
207.2651668952871
 21
332.998578844567
 31
0.0
  0
LINE
  5
1AA2
330
1871
100
AcDbEntity
  8
1
  6
Continuous
100
AcDbLine
 10
208.6651668959564
 20
332.9985788445653
 30
0.0
 11
206.965166895955
 21
332.9985788445674
 31
0.0
  0
ARC
  5
1AA3
330
1871
100
AcDbEntity
  8
1
  6
Continuous
100
AcDbCircle
 10
208.6651668959571
 20
333.2985788445653
 30
0.0
 40
0.3
100
AcDbArc
 50
270.0
 51
0.0
  0
LINE
  5
1AA4
330
1871
100
AcDbEntity
  8
1
  6
Continuous
100
AcDbLine
 10
214.2651668949299
 20
332.68657745264
 30
0.0
 11
209.2651668949299
 21
332.6865774526492
 31
0.0
  0
LINE
  5
1AA5
330
1871
100
AcDbEntity
  8
1
  6
Continuous
100
AcDbLine
 10
209.2651668949299
 20
332.6363249208057
 30
0.0
 11
214.2651668949299
 21
332.6363249208171
 31
0.0
  0
LINE
  5
1AA6
330
1871
100
AcDbEntity
  8
1
  6
Continuous
100
AcDbLine
 10
209.2651668949299
 20
334.1363249207847
 30
0.0
 11
208.9651668959636
 21
334.1363249207847
 31
0.0
  0
LINE
  5
1AA7
330
1871
100
AcDbEntity
  8
1
  6
Continuous
100
AcDbLine
 10
209.2651668949299
 20
333.0113249207865
 30
0.0
 11
208.7516838496343
 21
333.0113249207865
 31
0.0
  0
LINE
  5
1AA8
330
1871
100
AcDbEntity
  8
1
  6
Continuous
100
AcDbLine
 10
214.2651668949299
 20
336.9292181397594
 30
0.0
 11
209.2651668949299
 21
336.9292181397684
 31
0.0
  0
LINE
  5
1AA9
330
1871
100
AcDbEntity
  8
1
  6
Continuous
100
AcDbLine
 10
214.2651668949299
 20
338.3434317017898
 30
0.0
 11
209.2651668949299
 21
338.3434317017852
 31
0.0
  0
LINE
  5
1AAA
330
1871
100
AcDbEntity
  8
2
  6
Continuous
100
AcDbLine
 10
214.2651668949299
 20
336.9292181397594
 30
0.0
 11
209.2651668949299
 21
333.8987605060927
 31
0.0
  0
LINE
  5
1AAB
330
1871
100
AcDbEntity
  8
2
  6
Continuous
100
AcDbLine
 10
209.2651668949299
 20
335.7170350863059
 30
0.0
 11
214.2651668949299
 21
332.68657745264
 31
0.0
  0
LINE
  5
1AAC
330
1871
100
AcDbEntity
  8
1
  6
Continuous
100
AcDbLine
 10
209.2651668949299
 20
328.3863249207791
 30
0.0
 11
207.2651668952871
 21
328.3863249207791
 31
0.0
  0
LINE
  5
1AAD
330
1871
100
AcDbEntity
  8
1
  6
Continuous
100
AcDbLine
 10
205.465166895837
 20
326.6363249227755
 30
0.0
 11
206.9651668958495
 21
328.1363249227902
 31
0.0
  0
LINE
  5
1AAE
330
1871
100
AcDbEntity
  8
1
  6
Continuous
100
AcDbLine
 10
260.463953069836
 20
353.6363249208148
 30
0.0
 11
260.463953069836
 21
321.6363249208052
 31
0.0
  0
LINE
  5
1AAF
330
1871
100
AcDbEntity
  8
1
  6
Continuous
100
AcDbLine
 10
255.463953070663
 20
353.636324920813
 30
0.0
 11
255.4639530690091
 21
321.6363249208074
 31
0.0
  0
LINE
  5
1AB0
330
1871
100
AcDbEntity
  8
1
  6
Continuous
100
AcDbLine
 10
252.4639530704948
 20
350.3863249208706
 30
0.0
 11
252.4639530691771
 21
324.8863249208707
 31
0.0
  0
ARC
  5
1AB1
330
1871
100
AcDbEntity
  8
1
  6
Continuous
100
AcDbCircle
 10
253.9639530704956
 20
350.386324920793
 30
0.0
 40
1.50000000000074
100
AcDbArc
 50
0.0
 51
180.0
  0
LINE
  5
1AB2
330
1871
100
AcDbEntity
  8
1
  6
Continuous
100
AcDbLine
 10
255.463953070663
 20
353.636324920813
 30
0.0
 11
260.463953069836
 21
353.6363249208148
 31
0.0
  0
LINE
  5
1AB3
330
1871
100
AcDbEntity
  8
1
  6
Continuous
100
AcDbLine
 10
260.463953069836
 20
337.6363249208052
 30
0.0
 11
255.4639530698361
 21
337.6363249208107
 31
0.0
  0
ARC
  5
1AB4
330
1871
100
AcDbEntity
  8
1
  6
Continuous
100
AcDbCircle
 10
253.9639530691764
 20
324.8863249207932
 30
0.0
 40
1.500000000000647
100
AcDbArc
 50
180.0
 51
0.0
  0
LINE
  5
1AB5
330
1871
100
AcDbEntity
  8
1
  6
Continuous
100
AcDbLine
 10
255.4639530690091
 20
321.6363249208074
 30
0.0
 11
260.463953069836
 21
321.6363249208052
 31
0.0
  0
LINE
  5
1AB6
330
1871
100
AcDbEntity
  8
1
  6
Continuous
100
AcDbLine
 10
278.6990406880677
 20
345.6363249207855
 30
0.0
 11
278.6990406880677
 21
329.6363249207855
 31
0.0
  0
LINE
  5
1AB7
330
1871
100
AcDbEntity
  8
1
  6
Continuous
100
AcDbLine
 10
277.4990406880675
 20
345.6363249207861
 30
0.0
 11
277.4990406880675
 21
329.636324920786
 31
0.0
  0
LINE
  5
1AB8
330
1871
100
AcDbEntity
  8
1
  6
Continuous
100
AcDbLine
 10
283.4990406880679
 20
341.6363249207818
 30
0.0
 11
283.4990406880679
 21
333.6363249207976
 31
0.0
  0
LINE
  5
1AB9
330
1871
100
AcDbEntity
  8
1
  6
Continuous
100
AcDbLine
 10
279.9990406880675
 20
341.8863249207287
 30
0.0
 11
279.9990406880675
 21
333.3863249207287
 31
0.0
  0
ARC
  5
1ABA
330
1871
100
AcDbEntity
  8
1
  6
Continuous
100
AcDbCircle
 10
285.7757496947289
 20
339.6363249207967
 30
0.0
 40
5.776709006661117
100
AcDbArc
 50
159.7438420008683
 51
200.2561579991107
  0
ARC
  5
1ABB
330
1871
100
AcDbEntity
  8
1
  6
Continuous
100
AcDbCircle
 10
277.7223316814068
 20
339.6363249207967
 30
0.0
 40
5.776709006661117
100
AcDbArc
 50
339.7438420008892
 51
20.25615799913162
  0
LINE
  5
1ABC
330
1871
100
AcDbEntity
  8
1
  6
Continuous
100
AcDbLine
 10
267.9094579016989
 20
346.6363249207879
 30
0.0
 11
267.9094579016989
 21
328.636324920788
 31
0.0
  0
LINE
  5
1ABD
330
1871
100
AcDbEntity
  8
1
  6
Continuous
100
AcDbLine
 10
269.509457901699
 20
346.6363249207871
 30
0.0
 11
269.509457901699
 21
328.6363249207869
 31
0.0
  0
LINE
  5
1ABE
330
1871
100
AcDbEntity
  8
1
  6
Continuous
100
AcDbLine
 10
270.509457901699
 20
346.6363249207862
 30
0.0
 11
270.509457901699
 21
328.6363249207862
 31
0.0
  0
LINE
  5
1ABF
330
1871
100
AcDbEntity
  8
1
  6
Continuous
100
AcDbLine
 10
277.4990406880679
 20
345.6363249207861
 30
0.0
 11
278.6990406880679
 21
345.6363249207855
 31
0.0
  0
LINE
  5
1AC0
330
1871
100
AcDbEntity
  8
1
  6
Continuous
100
AcDbLine
 10
267.9094579016989
 20
346.6363249207875
 30
0.0
 11
270.509457901699
 21
346.6363249207862
 31
0.0
  0
LINE
  5
1AC1
330
1871
100
AcDbEntity
  8
1
  6
Continuous
100
AcDbLine
 10
283.4990406880679
 20
341.6363249207818
 30
0.0
 11
279.9990406880676
 21
341.6363249207906
 31
0.0
  0
LINE
  5
1AC2
330
1871
100
AcDbEntity
  8
1
  6
Continuous
100
AcDbLine
 10
278.6990406880677
 20
341.8863249207292
 30
0.0
 11
279.9990406880675
 21
341.8863249207287
 31
0.0
  0
LINE
  5
1AC3
330
1871
100
AcDbEntity
  8
1
  6
Continuous
100
AcDbLine
 10
277.4990406880675
 20
329.636324920786
 30
0.0
 11
278.6990406880677
 21
329.6363249207855
 31
0.0
  0
LINE
  5
1AC4
330
1871
100
AcDbEntity
  8
1
  6
Continuous
100
AcDbLine
 10
267.9094579016989
 20
328.6363249207874
 30
0.0
 11
270.509457901699
 21
328.6363249207862
 31
0.0
  0
ARC
  5
1AC5
330
1871
100
AcDbEntity
  8
1
  6
Continuous
100
AcDbCircle
 10
285.7757496947289
 20
335.6363249207967
 30
0.0
 40
5.776709006661117
100
AcDbArc
 50
159.743842000889
 51
200.2561579991314
  0
ARC
  5
1AC6
330
1871
100
AcDbEntity
  8
1
  6
Continuous
100
AcDbCircle
 10
277.7223316814068
 20
335.6363249207967
 30
0.0
 40
5.776709006661117
100
AcDbArc
 50
339.7438420008683
 51
20.25615799911076
  0
LINE
  5
1AC7
330
1871
100
AcDbEntity
  8
1
  6
Continuous
100
AcDbLine
 10
279.9990406880608
 20
337.636324920786
 30
0.0
 11
278.6990406880677
 21
336.3363249207929
 31
0.0
  0
LINE
  5
1AC8
330
1871
100
AcDbEntity
  8
1
  6
Continuous
100
AcDbLine
 10
279.9990406880676
 20
338.9363249207921
 30
0.0
 11
278.6990406880598
 21
337.6363249207845
 31
0.0
  0
LINE
  5
1AC9
330
1871
100
AcDbEntity
  8
1
  6
Continuous
100
AcDbLine
 10
283.1417750981831
 20
337.6363249207967
 30
0.0
 11
280.3563062779586
 21
337.6363249207896
 31
0.0
  0
LINE
  5
1ACA
330
1871
100
AcDbEntity
  8
1
  6
Continuous
100
AcDbLine
 10
283.4990406880679
 20
333.6363249207976
 30
0.0
 11
279.9990406880676
 21
333.6363249207888
 31
0.0
  0
LINE
  5
1ACB
330
1871
100
AcDbEntity
  8
1
  6
Continuous
100
AcDbLine
 10
278.6990406880676
 20
333.3863249207291
 30
0.0
 11
279.9990406880675
 21
333.3863249207287
 31
0.0
  0
LINE
  5
1ACC
330
1871
100
AcDbEntity
  8
4
  6
CENTER
100
AcDbLine
 10
239.6274342146257
 20
337.6363249208083
 30
0.0
 11
229.2623598679869
 21
337.6363249208087
 31
0.0
  0
LINE
  5
1ACD
330
1871
100
AcDbEntity
  8
1
  6
Continuous
100
AcDbLine
 10
233.5274342146257
 20
342.6363249207922
 30
0.0
 11
233.5274342146257
 21
332.6363249207922
 31
0.0
  0
LINE
  5
1ACE
330
1871
100
AcDbEntity
  8
1
  6
Continuous
100
AcDbLine
 10
234.8274342146257
 20
342.1363249207922
 30
0.0
 11
234.8274342146257
 21
333.1363249207922
 31
0.0
  0
LINE
  5
1ACF
330
1871
100
AcDbEntity
  8
1
  6
Continuous
100
AcDbLine
 10
232.5274342146257
 20
342.6363249207922
 30
0.0
 11
232.5274342146257
 21
332.6363249207922
 31
0.0
  0
ARC
  5
1AD0
330
1871
100
AcDbEntity
  8
1
  6
Continuous
100
AcDbCircle
 10
226.1274342146257
 20
337.6363249207922
 30
0.0
 40
12.0
100
AcDbArc
 50
344.5060324994776
 51
15.49396750052238
  0
LINE
  5
1AD1
330
1871
100
AcDbEntity
  8
1
  6
Continuous
100
AcDbLine
 10
234.8274342146257
 20
333.3863249208087
 30
0.0
 11
233.5274342146257
 21
333.3863249208087
 31
0.0
  0
LINE
  5
1AD2
330
1871
100
AcDbEntity
  8
1
  6
Continuous
100
AcDbLine
 10
234.8274342146254
 20
333.1363249207922
 30
0.0
 11
236.2889326827619
 21
333.2641894685145
 31
0.0
  0
ARC
  5
1AD3
330
1871
100
AcDbEntity
  8
1
  6
Continuous
100
AcDbCircle
 10
236.1494834943171
 20
334.8581009854679
 30
0.0
 40
1.6
100
AcDbArc
 50
275.0
 51
344.5060324994776
  0
LINE
  5
1AD4
330
1871
100
AcDbEntity
  8
1
  6
Continuous
100
AcDbLine
 10
233.5274342146257
 20
332.6363249207922
 30
0.0
 11
232.5274342146257
 21
332.6363249207922
 31
0.0
  0
LINE
  5
1AD5
330
1871
100
AcDbEntity
  8
1
  6
Continuous
100
AcDbLine
 10
234.8274342146257
 20
341.8863249208087
 30
0.0
 11
233.5274342146257
 21
341.8863249208087
 31
0.0
  0
LINE
  5
1AD6
330
1871
100
AcDbEntity
  8
1
  6
Continuous
100
AcDbLine
 10
234.8274342146257
 20
337.6363249208087
 30
0.0
 11
233.5274342146257
 21
336.3363249208084
 31
0.0
  0
LINE
  5
1AD7
330
1871
100
AcDbEntity
  8
1
  6
Continuous
100
AcDbLine
 10
234.8274342146257
 20
338.9363249208086
 30
0.0
 11
233.5274342146257
 21
337.6363249208087
 31
0.0
  0
LINE
  5
1AD8
330
1871
100
AcDbEntity
  8
1
  6
Continuous
100
AcDbLine
 10
234.8274342146257
 20
342.1363249207922
 30
0.0
 11
236.288932682721
 21
342.0084603730733
 31
0.0
  0
ARC
  5
1AD9
330
1871
100
AcDbEntity
  8
1
  6
Continuous
100
AcDbCircle
 10
236.1494834943
 20
340.4145488561126
 30
0.0
 40
1.6
100
AcDbArc
 50
15.49396750052238
 51
85.0
  0
LINE
  5
1ADA
330
1871
100
AcDbEntity
  8
1
  6
Continuous
100
AcDbLine
 10
233.5274342146257
 20
342.6363249207922
 30
0.0
 11
232.5274342146257
 21
342.6363249207922
 31
0.0
  0
LINE
  5
1ADB
330
1871
100
AcDbEntity
  8
1
  6
Continuous
100
AcDbLine
 10
512.8896333865498
 20
193.9308393766656
 30
0.0
 11
523.8896333873769
 21
193.9308393766775
 31
0.0
  0
LINE
  5
1ADC
330
1871
100
AcDbEntity
  8
4
  6
CENTER
100
AcDbLine
 10
556.8896333868856
 20
184.4308393766457
 30
0.0
 11
501.5785602247263
 21
184.430839376674
 31
0.0
  0
LINE
  5
1ADD
330
1871
100
AcDbEntity
  8
1
  6
Continuous
100
AcDbLine
 10
511.1896333864099
 20
174.9308393766661
 30
0.0
 11
523.8896333863948
 21
174.9308393766428
 31
0.0
  0
LINE
  5
1ADE
330
1871
100
AcDbEntity
  8
1
  6
Continuous
100
AcDbLine
 10
556.8896333884366
 20
202.4308040442439
 30
0.0
 11
558.8896333884365
 21
204.4308040442438
 31
0.0
  0
LINE
  5
1ADF
330
1871
100
AcDbEntity
  8
1
  6
Continuous
100
AcDbLine
 10
556.8896333884366
 20
202.4308040442439
 30
0.0
 11
556.8896333884366
 21
226.4308040442438
 31
0.0
  0
LINE
  5
1AE0
330
1871
100
AcDbEntity
  8
1
  6
Continuous
100
AcDbLine
 10
555.8896333884365
 20
201.430804044244
 30
0.0
 11
555.8896333884365
 21
227.4308040442438
 31
0.0
  0
LINE
  5
1AE1
330
1871
100
AcDbEntity
  8
1
  6
Continuous
100
AcDbLine
 10
553.8896333858522
 20
164.4308393766461
 30
0.0
 11
553.8896333884363
 21
214.430804044244
 31
0.0
  0
LINE
  5
1AE2
330
1871
100
AcDbEntity
  8
1
  6
Continuous
100
AcDbLine
 10
525.3896333855939
 20
159.4308393766596
 30
0.0
 11
525.3896333894698
 21
234.4308040442427
 31
0.0
  0
LINE
  5
1AE3
330
1871
100
AcDbEntity
  8
1
  6
Continuous
100
AcDbLine
 10
548.8896333853375
 20
159.430839375445
 30
0.0
 11
548.8896333892137
 21
234.4308040430281
 31
0.0
  0
LINE
  5
1AE4
330
1871
100
AcDbEntity
  8
1
  6
Continuous
100
AcDbLine
 10
523.8896333855939
 20
159.4308393767372
 30
0.0
 11
523.8896333894698
 21
234.4308040443201
 31
0.0
  0
LINE
  5
1AE5
330
1871
100
AcDbEntity
  8
1
  6
Continuous
100
AcDbLine
 10
553.8896333858522
 20
164.4308393766459
 30
0.0
 11
548.8896333853378
 21
159.4308393766484
 31
0.0
  0
LINE
  5
1AE6
330
1871
100
AcDbEntity
  8
1
  6
Continuous
100
AcDbLine
 10
548.8896333853375
 20
159.4308393766484
 30
0.0
 11
523.8896333855939
 21
159.4308393766604
 31
0.0
  0
LINE
  5
1AE7
330
1871
100
AcDbEntity
  8
1
  6
Continuous
100
AcDbLine
 10
555.8896333884365
 20
201.430804044244
 30
0.0
 11
553.8896333876611
 21
199.4308040434687
 31
0.0
  0
LINE
  5
1AE8
330
1871
100
AcDbEntity
  8
1
  6
Continuous
100
AcDbLine
 10
556.8896333884363
 20
202.4308040442439
 30
0.0
 11
555.8896333884365
 21
202.4308040442439
 31
0.0
  0
LINE
  5
1AE9
330
1871
100
AcDbEntity
  8
1
  6
Continuous
100
AcDbLine
 10
522.3896333872168
 20
174.9308393766458
 30
0.0
 11
522.3896333865496
 21
193.9308393769992
 31
0.0
  0
LINE
  5
1AEA
330
1871
100
AcDbEntity
  8
1
  6
Continuous
100
AcDbLine
 10
523.8896333861108
 20
169.4308393766604
 30
0.0
 11
521.8896333858545
 21
169.4308393766613
 31
0.0
  0
LINE
  5
1AEB
330
1871
100
AcDbEntity
  8
4
  6
CENTER
100
AcDbLine
 10
523.889633386059
 20
168.4308393766604
 30
0.0
 11
520.389633386059
 21
168.4308393766619
 31
0.0
  0
LINE
  5
1AEC
330
1871
100
AcDbEntity
  8
1
  6
Continuous
100
AcDbLine
 10
523.889633385878
 20
164.9308393766601
 30
0.0
 11
521.8896333858525
 21
164.9308393766613
 31
0.0
  0
LINE
  5
1AED
330
1871
100
AcDbEntity
  8
1
  6
Continuous
100
AcDbLine
 10
521.8896333858777
 20
164.9308393766613
 30
0.0
 11
521.8896333861104
 21
169.4308393766613
 31
0.0
  0
LINE
  5
1AEE
330
1871
100
AcDbEntity
  8
1
  6
Continuous
100
AcDbLine
 10
555.8896333884363
 20
227.4308040442438
 30
0.0
 11
548.8896333884373
 21
234.4308040442427
 31
0.0
  0
LINE
  5
1AEF
330
1871
100
AcDbEntity
  8
4
  6
CENTER
100
AcDbLine
 10
563.6986235263381
 20
214.4308040442438
 30
0.0
 11
519.2896333875783
 21
214.4308040442438
 31
0.0
  0
LINE
  5
1AF0
330
1871
100
AcDbEntity
  8
1
  6
Continuous
100
AcDbLine
 10
558.8896333884362
 20
224.430804044244
 30
0.0
 11
556.8896333884366
 21
226.4308040442438
 31
0.0
  0
LINE
  5
1AF1
330
1871
100
AcDbEntity
  8
1
  6
Continuous
100
AcDbLine
 10
558.8896333884362
 20
204.4308040442438
 30
0.0
 11
558.8896333884362
 21
224.4308040442438
 31
0.0
  0
LINE
  5
1AF2
330
1871
100
AcDbEntity
  8
1
  6
Continuous
100
AcDbLine
 10
559.1896333884656
 20
221.1308040442442
 30
0.0
 11
559.1896333884891
 21
207.7308040442444
 31
0.0
  0
ARC
  5
1AF3
330
1871
100
AcDbEntity
  8
1
  6
Continuous
100
AcDbCircle
 10
558.8896333884892
 20
207.7308040442438
 30
0.0
 40
0.3
100
AcDbArc
 50
270.0
 51
0.000000000000007
  0
ARC
  5
1AF4
330
1871
100
AcDbEntity
  8
1
  6
Continuous
100
AcDbCircle
 10
558.889633388466
 20
221.1308040442438
 30
0.0
 40
0.3
100
AcDbArc
 50
0.000000000000007
 51
90.0
  0
LINE
  5
1AF5
330
1871
100
AcDbEntity
  8
1
  6
Continuous
100
AcDbLine
 10
556.8896333884366
 20
226.4308040442438
 30
0.0
 11
555.8896333884365
 21
226.4308040442438
 31
0.0
  0
LINE
  5
1AF6
330
1871
100
AcDbEntity
  8
1
  6
Continuous
100
AcDbLine
 10
548.8896333884373
 20
234.4308040442427
 30
0.0
 11
523.8896333894698
 21
234.4308040442427
 31
0.0
  0
LINE
  5
1AF7
330
1871
100
AcDbEntity
  8
4
  6
CENTER
100
AcDbLine
 10
519.3606531940412
 20
226.9308040441619
 30
0.0
 11
529.9466611016618
 21
226.9308040441621
 31
0.0
  0
LINE
  5
1AF8
330
1871
100
AcDbEntity
  8
4
  6
CENTER
100
AcDbLine
 10
471.7404192313876
 20
184.4308393766457
 30
0.0
 11
433.1739755132188
 21
184.4308393766604
 31
0.0
  0
LINE
  5
1AF9
330
1871
100
AcDbEntity
  8
1
  6
Continuous
100
AcDbLine
 10
505.5896333863889
 20
179.4308393767113
 30
0.0
 11
505.5896333863889
 21
189.430839376627
 31
0.0
  0
LINE
  5
1AFA
330
1871
100
AcDbEntity
  8
2
  6
Continuous
100
AcDbLine
 10
505.5896333863889
 20
183.7237325956541
 30
0.0
 11
510.5896333863884
 21
180.6932749619812
 31
0.0
  0
LINE
  5
1AFB
330
1871
100
AcDbEntity
  8
2
  6
Continuous
100
AcDbLine
 10
510.5896333863888
 20
182.5115495421974
 30
0.0
 11
505.5896333863889
 21
179.4810919085381
 31
0.0
  0
LINE
  5
1AFC
330
1871
100
AcDbEntity
  8
1
  6
Continuous
100
AcDbLine
 10
512.8896333871723
 20
176.2035980407301
 30
0.0
 11
512.8896333865498
 21
193.9308393766656
 31
0.0
  0
LINE
  5
1AFD
330
1871
100
AcDbEntity
  8
1
  6
Continuous
100
AcDbLine
 10
510.5896333863888
 20
176.420104391706
 30
0.0
 11
510.5896333863888
 21
193.6808393765925
 31
0.0
  0
LINE
  5
1AFE
330
1871
100
AcDbEntity
  8
1
  6
Continuous
100
AcDbLine
 10
512.5896333863827
 20
176.4201043917061
 30
0.0
 11
512.5896333863908
 21
193.6808393765904
 31
0.0
  0
LINE
  5
1AFF
330
1871
100
AcDbEntity
  8
1
  6
Continuous
100
AcDbLine
 10
510.5896333863888
 20
176.420104391706
 30
0.0
 11
512.589633386301
 21
176.4201043917061
 31
0.0
  0
LINE
  5
1B00
330
1871
100
AcDbEntity
  8
1
  6
Continuous
100
AcDbLine
 10
511.1896333864762
 20
176.2035980407301
 30
0.0
 11
512.8896333871672
 21
176.2035980407301
 31
0.0
  0
LINE
  5
1B01
330
1871
100
AcDbEntity
  8
1
  6
Continuous
100
AcDbLine
 10
512.5896333863836
 20
178.264194697702
 30
0.0
 11
512.8896333871292
 21
178.2641946977019
 31
0.0
  0
LINE
  5
1B02
330
1871
100
AcDbEntity
  8
1
  6
Continuous
100
AcDbLine
 10
512.8896333870589
 20
179.4308393766874
 30
0.0
 11
512.5896333863843
 21
179.4308393766884
 31
0.0
  0
LINE
  5
1B03
330
1871
100
AcDbEntity
  8
1
  6
Continuous
100
AcDbLine
 10
510.8896333864104
 20
175.2308393766815
 30
0.0
 11
510.8896333864718
 21
176.420104391706
 31
0.0
  0
ARC
  5
1B04
330
1871
100
AcDbEntity
  8
1
  6
Continuous
100
AcDbCircle
 10
511.1896333864104
 20
175.2308393766661
 30
0.0
 40
0.3
100
AcDbArc
 50
180.0
 51
270.0
  0
LINE
  5
1B05
330
1871
100
AcDbEntity
  8
1
  6
Continuous
100
AcDbLine
 10
505.5896333863889
 20
179.4810919085354
 30
0.0
 11
510.5896333863888
 21
179.4810919085398
 31
0.0
  0
LINE
  5
1B06
330
1871
100
AcDbEntity
  8
1
  6
Continuous
100
AcDbLine
 10
510.5896333863888
 20
179.4308393766949
 30
0.0
 11
505.5896333863889
 21
179.430839376711
 31
0.0
  0
ARC
  5
1B07
330
1871
100
AcDbEntity
  8
1
  6
Continuous
100
AcDbCircle
 10
511.1896333864762
 20
176.5035980407301
 30
0.0
 40
0.3
100
AcDbArc
 50
196.1594951457088
 51
270.0
  0
LINE
  5
1B08
330
1871
100
AcDbEntity
  8
1
  6
Continuous
100
AcDbLine
 10
512.8896333867078
 20
189.4308393766438
 30
0.0
 11
512.5896333863887
 21
189.4308393766429
 31
0.0
  0
LINE
  5
1B09
330
1871
100
AcDbEntity
  8
2
  6
Continuous
100
AcDbLine
 10
505.5896333863889
 20
185.1379461576848
 30
0.0
 11
510.5896333863888
 21
188.1684037913513
 31
0.0
  0
LINE
  5
1B0A
330
1871
100
AcDbEntity
  8
2
  6
Continuous
100
AcDbLine
 10
510.5896333863888
 20
186.3501292111384
 30
0.0
 11
505.5896333863889
 21
189.380586844804
 31
0.0
  0
LINE
  5
1B0B
330
1871
100
AcDbEntity
  8
1
  6
Continuous
100
AcDbLine
 10
505.5896333863889
 20
189.380586844804
 30
0.0
 11
510.5896333863888
 21
189.380586844795
 31
0.0
  0
LINE
  5
1B0C
330
1871
100
AcDbEntity
  8
1
  6
Continuous
100
AcDbLine
 10
510.5896333863888
 20
189.4308393766386
 30
0.0
 11
505.5896333863889
 21
189.4308393766272
 31
0.0
  0
LINE
  5
1B0D
330
1871
100
AcDbEntity
  8
1
  6
Continuous
100
AcDbLine
 10
505.5896333863889
 20
183.7237325956546
 30
0.0
 11
510.5896333863888
 21
183.7237325956591
 31
0.0
  0
LINE
  5
1B0E
330
1871
100
AcDbEntity
  8
1
  6
Continuous
100
AcDbLine
 10
505.5896333863889
 20
185.1379461576848
 30
0.0
 11
510.5896333863888
 21
185.1379461576757
 31
0.0
  0
LINE
  5
1B0F
330
1871
100
AcDbEntity
  8
1
  6
Continuous
100
AcDbLine
 10
510.5896333863888
 20
193.6808393765925
 30
0.0
 11
512.5896333863009
 21
193.6808393765904
 31
0.0
  0
LINE
  5
1B10
330
1871
100
AcDbEntity
  8
1
  6
Continuous
100
AcDbLine
 10
459.3884049148369
 20
165.9556307624951
 30
0.0
 11
459.3884049148369
 21
202.9060479907545
 31
0.0
  0
LINE
  5
1B11
330
1871
100
AcDbEntity
  8
1
  6
Continuous
100
AcDbLine
 10
464.388404913882
 20
165.9556307624898
 30
0.0
 11
464.3884049157916
 21
202.9060479907655
 31
0.0
  0
LINE
  5
1B12
330
1871
100
AcDbEntity
  8
1
  6
Continuous
100
AcDbLine
 10
467.3884049141777
 20
171.6808393765851
 30
0.0
 11
467.3884049154955
 21
197.1808393765851
 31
0.0
  0
ARC
  5
1B13
330
1871
100
AcDbEntity
  8
1
  6
Continuous
100
AcDbCircle
 10
465.8884049141767
 20
171.6808393766624
 30
0.0
 40
1.50000000000074
100
AcDbArc
 50
180.0
 51
0.000000000000007
  0
LINE
  5
1B14
330
1871
100
AcDbEntity
  8
1
  6
Continuous
100
AcDbLine
 10
459.3884049148369
 20
165.9556307624949
 30
0.0
 11
464.3884049148367
 21
165.9556307624896
 31
0.0
  0
LINE
  5
1B15
330
1871
100
AcDbEntity
  8
1
  6
Continuous
100
AcDbLine
 10
459.3884049148369
 20
175.1932350695233
 30
0.0
 11
464.3884049148367
 21
175.1932350695182
 31
0.0
  0
ARC
  5
1B16
330
1871
100
AcDbEntity
  8
1
  6
Continuous
100
AcDbCircle
 10
465.8884049154965
 20
197.1808393766625
 30
0.0
 40
1.500000000000647
100
AcDbArc
 50
0.000000000000007
 51
180.0
  0
LINE
  5
1B17
330
1871
100
AcDbEntity
  8
1
  6
Continuous
100
AcDbLine
 10
459.3884049148369
 20
202.9060479907545
 30
0.0
 11
464.3884049148367
 21
202.9060479907655
 31
0.0
  0
LINE
  5
1B18
330
1871
100
AcDbEntity
  8
1
  6
Continuous
100
AcDbLine
 10
459.3884049148369
 20
193.6684436836062
 30
0.0
 11
464.3884049148367
 21
193.668443683601
 31
0.0
  0
LINE
  5
1B19
330
1871
100
AcDbEntity
  8
1
  6
Continuous
100
AcDbLine
 10
441.1533172966051
 20
176.4308393766701
 30
0.0
 11
441.1533172966051
 21
192.4308393766701
 31
0.0
  0
LINE
  5
1B1A
330
1871
100
AcDbEntity
  8
1
  6
Continuous
100
AcDbLine
 10
442.3533172966052
 20
176.4308393766697
 30
0.0
 11
442.3533172966052
 21
192.4308393766697
 31
0.0
  0
ARC
  5
1B1B
330
1871
100
AcDbEntity
  8
1
  6
Continuous
100
AcDbCircle
 10
443.9960517072891
 20
184.4308393767521
 30
0.0
 40
7.642734410683875
100
AcDbArc
 50
162.4120462275771
 51
197.5879537727047
  0
LINE
  5
1B1C
330
1871
100
AcDbEntity
  8
1
  6
Continuous
100
AcDbLine
 10
436.3533172966048
 20
180.4308393767287
 30
0.0
 11
436.3533172966048
 21
188.4308393767287
 31
0.0
  0
ARC
  5
1B1D
330
1871
100
AcDbEntity
  8
1
  6
Continuous
100
AcDbCircle
 10
432.2105828863179
 20
184.4308393767231
 30
0.0
 40
7.642734410287003
100
AcDbArc
 50
342.412046226636
 51
17.5879537736497
  0
LINE
  5
1B1E
330
1871
100
AcDbEntity
  8
1
  6
Continuous
100
AcDbLine
 10
439.8533172966051
 20
180.1808393767268
 30
0.0
 11
439.8533172966051
 21
188.6808393767271
 31
0.0
  0
LINE
  5
1B1F
330
1871
100
AcDbEntity
  8
1
  6
Continuous
100
AcDbLine
 10
451.9429000829737
 20
175.4308393766678
 30
0.0
 11
451.9429000829737
 21
193.4308393766676
 31
0.0
  0
LINE
  5
1B20
330
1871
100
AcDbEntity
  8
1
  6
Continuous
100
AcDbLine
 10
450.3429000829738
 20
175.4308393766685
 30
0.0
 11
450.3429000829738
 21
193.4308393766684
 31
0.0
  0
LINE
  5
1B21
330
1871
100
AcDbEntity
  8
1
  6
Continuous
100
AcDbLine
 10
449.3429000829738
 20
175.4308393766697
 30
0.0
 11
449.3429000829738
 21
193.4308393766695
 31
0.0
  0
LINE
  5
1B22
330
1871
100
AcDbEntity
  8
1
  6
Continuous
100
AcDbLine
 10
442.3533172966048
 20
176.4308393766697
 30
0.0
 11
441.1533172966051
 21
176.4308393766701
 31
0.0
  0
LINE
  5
1B23
330
1871
100
AcDbEntity
  8
1
  6
Continuous
100
AcDbLine
 10
451.9429000829737
 20
175.4308393766683
 30
0.0
 11
449.3429000829738
 21
175.4308393766697
 31
0.0
  0
LINE
  5
1B24
330
1871
100
AcDbEntity
  8
1
  6
Continuous
100
AcDbLine
 10
436.3533172966048
 20
180.4308393767288
 30
0.0
 11
436.7105828864946
 21
179.8120372232446
 31
0.0
  0
LINE
  5
1B25
330
1871
100
AcDbEntity
  8
1
  6
Continuous
100
AcDbLine
 10
439.8533172966049
 20
180.4308393767271
 30
0.0
 11
439.4960517067188
 21
179.8120372232516
 31
0.0
  0
LINE
  5
1B26
330
1871
100
AcDbEntity
  8
1
  6
Continuous
100
AcDbLine
 10
436.7105828864946
 20
179.812037223244
 30
0.0
 11
439.4960517067188
 21
179.8120372232508
 31
0.0
  0
LINE
  5
1B27
330
1871
100
AcDbEntity
  8
1
  6
Continuous
100
AcDbLine
 10
441.1533172966051
 20
180.1808393767264
 30
0.0
 11
439.8533172966051
 21
180.1808393767268
 31
0.0
  0
ARC
  5
1B28
330
1871
100
AcDbEntity
  8
1
  6
Continuous
100
AcDbCircle
 10
438.3772804743585
 20
180.9731586757184
 30
0.0
 40
2.023963177753351
100
AcDbArc
 50
145.434906907346
 51
210.00000000002
  0
LINE
  5
1B29
330
1871
100
AcDbEntity
  8
1
  6
Continuous
100
AcDbLine
 10
436.710582886489
 20
182.1214382999788
 30
0.0
 11
439.4960517067131
 21
182.1214382999857
 31
0.0
  0
ARC
  5
1B2A
330
1871
100
AcDbEntity
  8
1
  6
Continuous
100
AcDbCircle
 10
437.8293541188615
 20
180.9731586757166
 30
0.0
 40
2.023963177743739
100
AcDbArc
 50
329.9999999998563
 51
34.56509309314219
  0
LINE
  5
1B2B
330
1871
100
AcDbEntity
  8
1
  6
Continuous
100
AcDbLine
 10
442.3533172966052
 20
192.4308393766697
 30
0.0
 11
441.1533172966051
 21
192.4308393766701
 31
0.0
  0
LINE
  5
1B2C
330
1871
100
AcDbEntity
  8
1
  6
Continuous
100
AcDbLine
 10
451.9429000829737
 20
193.4308393766683
 30
0.0
 11
449.3429000829738
 21
193.4308393766695
 31
0.0
  0
LINE
  5
1B2D
330
1871
100
AcDbEntity
  8
1
  6
Continuous
100
AcDbLine
 10
441.1533172966052
 20
188.6808393767264
 30
0.0
 11
439.8533172966051
 21
188.6808393767271
 31
0.0
  0
LINE
  5
1B2E
330
1871
100
AcDbEntity
  8
1
  6
Continuous
100
AcDbLine
 10
436.7105828864773
 20
186.74024045349
 30
0.0
 11
439.4960517067016
 21
186.7402404534968
 31
0.0
  0
LINE
  5
1B2F
330
1871
100
AcDbEntity
  8
1
  6
Continuous
100
AcDbLine
 10
436.3533172966048
 20
188.4308393767288
 30
0.0
 11
436.7105828865216
 21
189.0496415302624
 31
0.0
  0
ARC
  5
1B30
330
1871
100
AcDbEntity
  8
1
  6
Continuous
100
AcDbCircle
 10
438.3772804743617
 20
187.888520077737
 30
0.0
 40
2.023963177753351
100
AcDbArc
 50
149.999999999927
 51
214.5650930926009
  0
ARC
  5
1B31
330
1871
100
AcDbEntity
  8
1
  6
Continuous
100
AcDbCircle
 10
437.8293541188646
 20
187.8885200777395
 30
0.0
 40
2.023963177743739
100
AcDbArc
 50
325.4349069068049
 51
30.00000000009088
  0
LINE
  5
1B32
330
1871
100
AcDbEntity
  8
1
  6
Continuous
100
AcDbLine
 10
439.8533172966052
 20
188.4308393767271
 30
0.0
 11
439.4960517066847
 21
189.0496415302623
 31
0.0
  0
LINE
  5
1B33
330
1871
100
AcDbEntity
  8
1
  6
Continuous
100
AcDbLine
 10
436.7105828865216
 20
189.0496415302624
 30
0.0
 11
439.4960517066841
 21
189.0496415302624
 31
0.0
  0
LINE
  5
1B34
330
1871
100
AcDbEntity
  8
1
  6
Continuous
100
AcDbLine
 10
439.8533172966052
 20
184.4308393765992
 30
0.0
 11
441.1533172966058
 21
185.7308393765984
 31
0.0
  0
LINE
  5
1B35
330
1871
100
AcDbEntity
  8
1
  6
Continuous
100
AcDbLine
 10
439.8533172966041
 20
183.1308393766581
 30
0.0
 11
441.1533172966051
 21
184.4308393766572
 31
0.0
  0
LINE
  5
1B36
330
1871
100
AcDbEntity
  8
4
  6
CENTER
100
AcDbLine
 10
480.2273660669623
 20
226.9308040441619
 30
0.0
 11
490.5924404136008
 21
226.9308040441621
 31
0.0
  0
LINE
  5
1B37
330
1871
100
AcDbEntity
  8
1
  6
Continuous
100
AcDbLine
 10
486.3273660669624
 20
231.9308040441457
 30
0.0
 11
486.3273660669624
 21
221.9308040441457
 31
0.0
  0
LINE
  5
1B38
330
1871
100
AcDbEntity
  8
1
  6
Continuous
100
AcDbLine
 10
485.0273660669625
 20
231.4308040441455
 30
0.0
 11
485.0273660669625
 21
222.4308040441456
 31
0.0
  0
LINE
  5
1B39
330
1871
100
AcDbEntity
  8
1
  6
Continuous
100
AcDbLine
 10
487.3273660669624
 20
231.9308040441457
 30
0.0
 11
487.3273660669624
 21
221.9308040441457
 31
0.0
  0
ARC
  5
1B3A
330
1871
100
AcDbEntity
  8
1
  6
Continuous
100
AcDbCircle
 10
493.7273660669623
 20
226.9308040441456
 30
0.0
 40
12.0
100
AcDbArc
 50
164.5060324994775
 51
195.4939675005224
  0
LINE
  5
1B3B
330
1871
100
AcDbEntity
  8
1
  6
Continuous
100
AcDbLine
 10
485.0273660669625
 20
222.6808040441619
 30
0.0
 11
486.3273660669624
 21
222.6808040441619
 31
0.0
  0
LINE
  5
1B3C
330
1871
100
AcDbEntity
  8
1
  6
Continuous
100
AcDbLine
 10
485.0273660669625
 20
222.4308040441456
 30
0.0
 11
483.565867598826
 21
222.5586685918681
 31
0.0
  0
ARC
  5
1B3D
330
1871
100
AcDbEntity
  8
1
  6
Continuous
100
AcDbCircle
 10
483.7053167872708
 20
224.1525801088211
 30
0.0
 40
1.6
100
AcDbArc
 50
195.4939675005224
 51
265.0
  0
LINE
  5
1B3E
330
1871
100
AcDbEntity
  8
1
  6
Continuous
100
AcDbLine
 10
486.3273660669624
 20
221.9308040441457
 30
0.0
 11
487.3273660669624
 21
221.9308040441457
 31
0.0
  0
LINE
  5
1B3F
330
1871
100
AcDbEntity
  8
1
  6
Continuous
100
AcDbLine
 10
485.0273660669625
 20
231.1808040441619
 30
0.0
 11
486.3273660669624
 21
231.1808040441619
 31
0.0
  0
LINE
  5
1B40
330
1871
100
AcDbEntity
  8
1
  6
Continuous
100
AcDbLine
 10
485.0273660669625
 20
226.9308040441621
 30
0.0
 11
486.3273660669624
 21
228.2308040441621
 31
0.0
  0
LINE
  5
1B41
330
1871
100
AcDbEntity
  8
1
  6
Continuous
100
AcDbLine
 10
485.0273660669625
 20
225.630804044162
 30
0.0
 11
486.3273660669624
 21
226.9308040441621
 31
0.0
  0
LINE
  5
1B42
330
1871
100
AcDbEntity
  8
1
  6
Continuous
100
AcDbLine
 10
485.0273660669625
 20
231.4308040441455
 30
0.0
 11
483.5658675988669
 21
231.3029394964269
 31
0.0
  0
ARC
  5
1B43
330
1871
100
AcDbEntity
  8
1
  6
Continuous
100
AcDbCircle
 10
483.705316787288
 20
229.7090279794661
 30
0.0
 40
1.6
100
AcDbArc
 50
95.0
 51
164.5060324994775
  0
LINE
  5
1B44
330
1871
100
AcDbEntity
  8
1
  6
Continuous
100
AcDbLine
 10
486.3273660669624
 20
231.9308040441457
 30
0.0
 11
487.3273660669624
 21
231.9308040441457
 31
0.0
  0
LINE
  5
1B45
330
1871
100
AcDbEntity
  8
1
  6
Continuous
100
AcDbLine
 10
512.5896333863866
 20
184.4308393766856
 30
0.0
 11
510.5896333863888
 21
184.4308393766856
 31
0.0
  0
LINE
  5
1B46
330
1871
100
AcDbEntity
  8
1
  6
Continuous
100
AcDbLine
 10
510.5896333863888
 20
177.4308393766851
 30
0.0
 11
512.5896333863831
 21
177.4308393766851
 31
0.0
  0
LINE
  5
1BC2
330
1871
100
AcDbEntity
  8
1
  6
Continuous
100
AcDbLine
 10
21.03597595328507
 20
342.6841202773683
 30
0.0
 11
26.09970452168985
 21
350.1953176538287
 31
0.0
  0
LINE
  5
1BC3
330
1871
100
AcDbEntity
  8
1
  6
Continuous
100
AcDbLine
 10
20.20680339924047
 20
343.2431130104333
 30
0.0
 11
25.27053196764519
 21
350.7543103868934
 31
0.0
  0
LINE
  5
1BC5
330
1871
100
AcDbEntity
  8
4
  6
CENTER
100
AcDbLine
 10
18.36514550733147
 20
337.6363249207849
 30
0.0
 11
70.48466731795111
 21
337.6363249207818
 31
0.0
  0
LINE
  5
1BC6
330
1871
100
AcDbEntity
  8
1
  6
Continuous
100
AcDbLine
 10
20.86514850733004
 20
342.125127544304
 30
0.0
 11
20.86514850732993
 21
333.1475222972275
 31
0.0
  0
LINE
  5
1BC7
330
1871
100
AcDbEntity
  8
1
  6
Continuous
100
AcDbLine
 10
19.86514850733003
 20
342.125127544304
 30
0.0
 11
19.86514850732993
 21
333.1475222972275
 31
0.0
  0
ARC
  5
1BC8
330
1871
100
AcDbEntity
  8
1
  6
Continuous
100
AcDbCircle
 10
21.86514850732984
 20
333.1475222972275
 30
0.0
 40
2.0
100
AcDbArc
 50
180.0
 51
213.986167109623
  0
ARC
  5
1BC9
330
1871
100
AcDbEntity
  8
1
  6
Continuous
100
AcDbCircle
 10
21.86514850732984
 20
333.1475222972275
 30
0.0
 40
1.0
100
AcDbArc
 50
180.0
 51
213.986167109623
  0
ARC
  5
1BCA
330
1871
100
AcDbEntity
  8
1
  6
Continuous
100
AcDbCircle
 10
21.86514850733004
 20
342.125127544304
 30
0.0
 40
2.0
100
AcDbArc
 50
146.0138328903266
 51
180.0
  0
ARC
  5
1BCB
330
1871
100
AcDbEntity
  8
1
  6
Continuous
100
AcDbCircle
 10
21.86514850733004
 20
342.125127544304
 30
0.0
 40
1.0
100
AcDbArc
 50
146.0138328903266
 51
180.0
  0
LINE
  5
1BCC
330
1871
100
AcDbEntity
  8
1
  6
Continuous
100
AcDbLine
 10
33.49732075153596
 20
350.4340930837153
 30
0.0
 11
40.76811281653839
 21
344.9387269880738
 31
0.0
  0
LINE
  5
1BCD
330
1871
100
AcDbEntity
  8
1
  6
Continuous
100
AcDbLine
 10
34.10028506074425
 20
351.2318612466677
 30
0.0
 11
41.37107712574676
 21
345.7364951510261
 31
0.0
  0
LINE
  5
1BCE
330
1871
100
AcDbEntity
  8
1
  6
Continuous
100
AcDbLine
 10
47.4651485073299
 20
340.7113249207883
 30
0.0
 11
64.81727185602768
 21
340.7113249207839
 31
0.0
  0
LINE
  5
1BCF
330
1871
100
AcDbEntity
  8
1
  6
Continuous
100
AcDbLine
 10
47.4651485073299
 20
334.5613249207882
 30
0.0
 11
64.81727185599257
 21
334.5613249207838
 31
0.0
  0
LINE
  5
1BD3
330
1871
100
AcDbEntity
  8
1
  6
Continuous
100
AcDbLine
 10
40.76811281653822
 20
330.3339228534462
 30
0.0
 11
33.49732075154227
 21
324.8385567578099
 31
0.0
  0
LINE
  5
1BD4
330
1871
100
AcDbEntity
  8
1
  6
Continuous
100
AcDbLine
 10
41.37107712574635
 20
329.5361546904933
 30
0.0
 11
34.10028506075069
 21
324.040788594857
 31
0.0
  0
ARC
  5
1BDC
330
1871
100
AcDbEntity
  8
1
  6
Continuous
100
AcDbCircle
 10
32.89435644233396
 20
325.6363249207625
 30
0.0
 40
1.0
100
AcDbArc
 50
269.9999999999992
 51
307.0824969651712
  0
ARC
  5
1BDD
330
1871
100
AcDbEntity
  8
1
  6
Continuous
100
AcDbCircle
 10
32.89435644233396
 20
325.6363249207625
 30
0.0
 40
2.0
100
AcDbArc
 50
269.9999999999992
 51
307.0824969651712
  0
LINE
  5
1BDE
330
1871
100
AcDbEntity
  8
1
  6
Continuous
100
AcDbLine
 10
33.16514850728961
 20
337.1918858291051
 30
0.0
 11
33.16514850728939
 21
336.3030076457928
 31
0.0
  0
ARC
  5
1BDF
330
1871
100
AcDbEntity
  8
1
  6
Continuous
100
AcDbCircle
 10
25.69857176746078
 20
337.6363249207629
 30
0.0
 40
11.46652856472636
100
AcDbArc
 50
324.4623222080369
 51
35.53767779193231
  0
ARC
  5
1BE0
330
1871
100
AcDbEntity
  8
1
  6
Continuous
100
AcDbCircle
 10
40.63172524710414
 20
337.6363249207593
 30
0.0
 40
11.46652856472636
100
AcDbArc
 50
144.4623222079842
 51
215.5376777919871
  0
LINE
  5
1BE1
330
1871
100
AcDbEntity
  8
1
  6
Continuous
100
AcDbLine
 10
27.16514850733
 20
341.6363249207645
 30
0.0
 11
27.1651485073299
 21
333.6363249207645
 31
0.0
  0
LINE
  5
1BE2
330
1871
100
AcDbEntity
  8
1
  6
Continuous
100
AcDbLine
 10
23.36514850733004
 20
341.636324920765
 30
0.0
 11
23.36514850732993
 21
333.636324920765
 31
0.0
  0
LINE
  5
1BE3
330
1871
100
AcDbEntity
  8
1
  6
Continuous
100
AcDbLine
 10
30.13844393782287
 20
336.3030076457937
 30
0.0
 11
36.191853076741
 21
336.3030076457921
 31
0.0
  0
ARC
  5
1BE4
330
1871
100
AcDbEntity
  8
1
  6
Continuous
100
AcDbCircle
 10
30.85568150640929
 20
334.9696903708253
 30
0.0
 40
0.4444390916560602
100
AcDbArc
 50
195.2575232904416
 51
269.9999999999853
  0
LINE
  5
1BE5
330
1871
100
AcDbEntity
  8
1
  6
Continuous
100
AcDbLine
 10
32.09849468731461
 20
335.414129462481
 30
0.0
 11
30.40074121851189
 21
335.4141294624814
 31
0.0
  0
ARC
  5
1BEB
330
1871
100
AcDbEntity
  8
1
  6
Continuous
100
AcDbCircle
 10
40.63172524710414
 20
337.6363249207593
 30
0.0
 40
10.57765038141422
100
AcDbArc
 50
193.2681189705404
 51
195.2575232904416
  0
ARC
  5
1BEC
330
1871
100
AcDbEntity
  8
1
  6
Continuous
100
AcDbCircle
 10
40.63172524710414
 20
337.6363249207593
 30
0.0
 40
10.57765038141422
100
AcDbArc
 50
192.7289438731062
 51
193.2681189705404
  0
ARC
  5
1BED
330
1871
100
AcDbEntity
  8
1
  6
Continuous
100
AcDbCircle
 10
30.40074121851198
 20
335.3252416441502
 30
0.0
 40
0.088887818331212
100
AcDbArc
 50
89.99999999998534
 51
192.7289438731062
  0
ARC
  5
1BEE
330
1871
100
AcDbEntity
  8
1
  6
Continuous
100
AcDbCircle
 10
33.16514850728829
 20
332.3030558208884
 30
0.0
 40
2.290825457977724
100
AcDbArc
 50
269.9999999999853
 51
324.4623222080369
  0
ARC
  5
1BEF
330
1871
100
AcDbEntity
  8
1
  6
Continuous
100
AcDbCircle
 10
33.16514850728829
 20
332.3030558208884
 30
0.0
 40
2.290825457977724
100
AcDbArc
 50
215.5376777919871
 51
256.5374393917182
  0
LINE
  5
1BF0
330
1871
100
AcDbEntity
  8
1
  6
Continuous
100
AcDbLine
 10
35.92955579605174
 20
335.4141294624801
 30
0.0
 11
34.23180232726356
 21
335.4141294624805
 31
0.0
  0
LINE
  5
1BF1
330
1871
100
AcDbEntity
  8
1
  6
Continuous
100
AcDbLine
 10
30.85568150640912
 20
334.5252512791692
 30
0.0
 11
35.47461550815409
 21
334.525251279168
 31
0.0
  0
LINE
  5
1BF2
330
1871
100
AcDbEntity
  8
1
  6
Continuous
100
AcDbLine
 10
30.97276409816811
 20
333.636373095857
 30
0.0
 11
35.35753291639469
 21
333.6363730958558
 31
0.0
  0
LINE
  5
1BF3
330
1871
100
AcDbEntity
  8
1
  6
Continuous
100
AcDbLine
 10
34.80512767096499
 20
332.7474949125439
 30
0.0
 11
31.5251693435972
 21
332.7474949125448
 31
0.0
  0
ARC
  5
1BF4
330
1871
100
AcDbEntity
  8
1
  6
Continuous
100
AcDbCircle
 10
30.97276409816808
 20
333.5474852775258
 30
0.0
 40
0.088887818331212
100
AcDbArc
 50
89.99999999998534
 51
202.9439535565235
  0
ARC
  5
1BF5
330
1871
100
AcDbEntity
  8
1
  6
Continuous
100
AcDbCircle
 10
40.63172524710414
 20
337.6363249207593
 30
0.0
 40
10.57765038141422
100
AcDbArc
 50
202.9439535565235
 51
206.0143659996213
  0
ARC
  5
1BF6
330
1871
100
AcDbEntity
  8
1
  6
Continuous
100
AcDbCircle
 10
31.52516934359729
 20
333.1919340042008
 30
0.0
 40
0.4444390916560602
100
AcDbArc
 50
206.0143659996213
 51
269.9999999999853
  0
LINE
  5
1BF7
330
1871
100
AcDbEntity
  8
1
  6
Continuous
100
AcDbLine
 10
30.72721287247121
 20
331.8586167292329
 30
0.0
 11
34.55886384193229
 21
331.8586167292319
 31
0.0
  0
ARC
  5
1BF8
330
1871
100
AcDbEntity
  8
1
  6
Continuous
100
AcDbCircle
 10
35.92955579605191
 20
335.3252416441489
 30
0.0
 40
0.088887818331212
100
AcDbArc
 50
347.2710561268637
 51
89.99999999998534
  0
ARC
  5
1BF9
330
1871
100
AcDbEntity
  8
1
  6
Continuous
100
AcDbCircle
 10
25.69857176746078
 20
337.6363249207629
 30
0.0
 40
10.57765038141422
100
AcDbArc
 50
344.7937121239269
 51
347.2710561268605
  0
ARC
  5
1BFA
330
1871
100
AcDbEntity
  8
1
  6
Continuous
100
AcDbCircle
 10
25.69857176746078
 20
337.6363249207629
 30
0.0
 40
10.57765038141422
100
AcDbArc
 50
344.7424767095311
 51
344.7937121239269
  0
ARC
  5
1BFB
330
1871
100
AcDbEntity
  8
1
  6
Continuous
100
AcDbCircle
 10
35.47461550815425
 20
334.9696903708242
 30
0.0
 40
0.4444390916560602
100
AcDbArc
 50
269.9999999999853
 51
344.7424767095311
  0
ARC
  5
1BFC
330
1871
100
AcDbEntity
  8
1
  6
Continuous
100
AcDbCircle
 10
34.8051276709651
 20
333.1919340042001
 30
0.0
 40
0.4444390916560602
100
AcDbArc
 50
269.9999999999853
 51
333.9856340003496
  0
ARC
  5
1BFD
330
1871
100
AcDbEntity
  8
1
  6
Continuous
100
AcDbCircle
 10
25.69857176746078
 20
337.6363249207629
 30
0.0
 40
10.57765038141422
100
AcDbArc
 50
333.9856340003496
 51
337.0560464434482
  0
ARC
  5
1BFE
330
1871
100
AcDbEntity
  8
1
  6
Continuous
100
AcDbCircle
 10
35.35753291639464
 20
333.5474852775248
 30
0.0
 40
0.088887818331212
100
AcDbArc
 50
337.0560464434482
 51
89.99999999998534
  0
LINE
  5
1BFF
330
1871
100
AcDbEntity
  8
1
  6
Continuous
100
AcDbLine
 10
30.24325262697944
 20
340.7473985623544
 30
0.0
 11
35.8083644650404
 21
340.7473985623529
 31
0.0
  0
LINE
  5
1C00
330
1871
100
AcDbEntity
  8
1
  6
Continuous
100
AcDbLine
 10
30.23983067598199
 20
338.96964219573
 30
0.0
 11
36.09046633858332
 21
338.9696421957286
 31
0.0
  0
ARC
  5
1C01
330
1871
100
AcDbEntity
  8
1
  6
Continuous
100
AcDbCircle
 10
30.65567626247096
 20
339.414081287386
 30
0.0
 40
0.4444390916560602
100
AcDbArc
 50
89.99999999998534
 51
169.8958172838582
  0
LINE
  5
1C02
330
1871
100
AcDbEntity
  8
1
  6
Continuous
100
AcDbLine
 10
30.06341594593218
 20
338.0807640124179
 30
0.0
 11
36.26688106863272
 21
338.0807640124164
 31
0.0
  0
LINE
  5
1C03
330
1871
100
AcDbEntity
  8
1
  6
Continuous
100
AcDbLine
 10
30.06341594593195
 20
337.1918858291059
 30
0.0
 11
36.26688106863248
 21
337.1918858291043
 31
0.0
  0
ARC
  5
1C04
330
1871
100
AcDbEntity
  8
1
  6
Continuous
100
AcDbCircle
 10
24.36514850733004
 20
341.636324920765
 30
0.0
 40
1.0
100
AcDbArc
 50
89.9999999999992
 51
180.0
  0
ARC
  5
1C05
330
1871
100
AcDbEntity
  8
1
  6
Continuous
100
AcDbCircle
 10
26.16514850733
 20
341.6363249207644
 30
0.0
 40
1.0
100
AcDbArc
 50
0.0
 51
89.9999999999992
  0
ARC
  5
1C06
330
1871
100
AcDbEntity
  8
1
  6
Continuous
100
AcDbCircle
 10
30.23983067598219
 20
339.0585300140612
 30
0.0
 40
0.088887818331212
100
AcDbArc
 50
172.207075664564
 51
269.9999999999853
  0
ARC
  5
1C07
330
1871
100
AcDbEntity
  8
1
  6
Continuous
100
AcDbCircle
 10
40.63172524710414
 20
337.6363249207593
 30
0.0
 40
10.57765038141422
100
AcDbArc
 50
169.8958172838582
 51
172.207075664564
  0
LINE
  5
1C08
330
1871
100
AcDbEntity
  8
1
  6
Continuous
100
AcDbLine
 10
24.36514850733014
 20
342.6363249207649
 30
0.0
 11
26.16514850733007
 21
342.6363249207644
 31
0.0
  0
LINE
  5
1C09
330
1871
100
AcDbEntity
  8
1
  6
Continuous
100
AcDbLine
 10
33.16514850729078
 20
342.0807158373217
 30
0.0
 11
35.29722151480764
 21
342.0807158373212
 31
0.0
  0
LINE
  5
1C0A
330
1871
100
AcDbEntity
  8
1
  6
Continuous
100
AcDbLine
 10
35.67462075209468
 20
339.8585203790407
 30
0.0
 11
33.16514850729022
 21
339.8585203790414
 31
0.0
  0
LINE
  5
1C0B
330
1871
100
AcDbEntity
  8
1
  6
Continuous
100
AcDbLine
 10
32.72070941563475
 20
342.5251549289778
 30
0.0
 11
30.82179563794028
 21
342.5251549289784
 31
0.0
  0
ARC
  5
1C0C
330
1871
100
AcDbEntity
  8
1
  6
Continuous
100
AcDbCircle
 10
32.72070941563475
 20
342.0807158373218
 30
0.0
 40
0.4444390916560625
100
AcDbArc
 50
269.9999999999853
 51
89.99999999998534
  0
LINE
  5
1C0D
330
1871
100
AcDbEntity
  8
1
  6
Continuous
100
AcDbLine
 10
30.66201428660844
 20
341.6362767456663
 30
0.0
 11
32.72070941563453
 21
341.6362767456657
 31
0.0
  0
LINE
  5
1C0E
330
1871
100
AcDbEntity
  8
1
  6
Continuous
100
AcDbLine
 10
33.16514850729028
 20
339.8585203790414
 30
0.0
 11
33.16514850729017
 21
339.4140812873854
 31
0.0
  0
LINE
  5
1C0F
330
1871
100
AcDbEntity
  8
1
  6
Continuous
100
AcDbLine
 10
32.09849468731575
 20
339.8585203790417
 30
0.0
 11
30.655676262471
 21
339.8585203790422
 31
0.0
  0
ARC
  5
1C10
330
1871
100
AcDbEntity
  8
1
  6
Continuous
100
AcDbCircle
 10
35.67462075209452
 20
339.4140812873847
 30
0.0
 40
0.4444390916560602
100
AcDbArc
 50
10.10418271611198
 51
89.99999999998534
  0
ARC
  5
1C11
330
1871
100
AcDbEntity
  8
1
  6
Continuous
100
AcDbCircle
 10
25.69857176746078
 20
337.6363249207629
 30
0.0
 40
10.57765038141422
100
AcDbArc
 50
7.792924335406337
 51
10.10418271611198
  0
ARC
  5
1C12
330
1871
100
AcDbEntity
  8
1
  6
Continuous
100
AcDbCircle
 10
36.09046633858354
 20
339.0585300140597
 30
0.0
 40
0.088887818331212
100
AcDbArc
 50
269.9999999999853
 51
7.792924335409562
  0
LINE
  5
1C13
330
1871
100
AcDbEntity
  8
1
  6
Continuous
100
AcDbLine
 10
34.82852051014009
 20
342.9777407955544
 30
0.0
 11
31.08105419226743
 21
343.9818713690955
 31
0.0
  0
LINE
  5
1C14
330
1871
100
AcDbEntity
  8
1
  6
Continuous
100
AcDbLine
 10
33.16514850729163
 20
345.2604194786116
 30
0.0
 11
33.16514850729118
 21
343.4234399804323
 31
0.0
  0
ARC
  5
1C15
330
1871
100
AcDbEntity
  8
1
  6
Continuous
100
AcDbCircle
 10
33.16514850729112
 20
342.9695940206339
 30
0.0
 40
2.290825457977727
100
AcDbArc
 50
62.24965455461402
 51
144.4623222079842
  0
ARC
  5
1C16
330
1871
100
AcDbEntity
  8
1
  6
Continuous
100
AcDbCircle
 10
33.16514850729112
 20
342.9695940206339
 30
0.0
 40
2.290825457977727
100
AcDbArc
 50
35.53767779193508
 51
45.6988392796024
  0
LINE
  5
1C17
330
1871
100
AcDbEntity
  8
1
  6
Continuous
100
AcDbLine
 10
41.16514850733003
 20
344.140958825121
 30
0.0
 11
41.16514850732989
 21
331.1316910163988
 31
0.0
  0
LINE
  5
1C18
330
1871
100
AcDbEntity
  8
1
  6
Continuous
100
AcDbLine
 10
42.16514850733003
 20
344.1409588251208
 30
0.0
 11
42.16514850732989
 21
331.1316910163988
 31
0.0
  0
LINE
  5
1C1A
330
1871
100
AcDbEntity
  8
1
  6
Continuous
100
AcDbLine
 10
42.16514850732973
 20
331.6363249207598
 30
0.0
 11
47.16514850732957
 21
331.6363249207583
 31
0.0
  0
ARC
  5
1C1B
330
1871
100
AcDbEntity
  8
1
  6
Continuous
100
AcDbCircle
 10
40.16514850732979
 20
331.1316910163989
 30
0.0
 40
1.0
100
AcDbArc
 50
307.0824969651712
 51
0.0
  0
ARC
  5
1C1C
330
1871
100
AcDbEntity
  8
1
  6
Continuous
100
AcDbCircle
 10
40.16514850732979
 20
331.1316910163989
 30
0.0
 40
2.0
100
AcDbArc
 50
307.0824969651712
 51
0.0
  0
ARC
  5
1C1D
330
1871
100
AcDbEntity
  8
1
  6
Continuous
100
AcDbCircle
 10
47.1651485073299
 20
332.1363249207583
 30
0.0
 40
0.5
100
AcDbArc
 50
269.9999999999992
 51
0.0
  0
LINE
  5
1C1E
330
1871
100
AcDbEntity
  8
1
  6
Continuous
100
AcDbLine
 10
47.4651485073299
 20
334.5613249207882
 30
0.0
 11
47.4651485073299
 21
333.7613249207884
 31
0.0
  0
LINE
  5
1C1F
330
1871
100
AcDbEntity
  8
1
  6
Continuous
100
AcDbLine
 10
47.6651485073299
 20
333.561324920788
 30
0.0
 11
47.6651485073299
 21
332.1363249207585
 31
0.0
  0
LINE
  5
1C20
330
1871
100
AcDbEntity
  8
1
  6
Continuous
100
AcDbLine
 10
47.46514850732947
 20
333.7613249207882
 30
0.0
 11
47.6651485073294
 21
333.5613249207879
 31
0.0
  0
LINE
  5
1C21
330
1871
100
AcDbEntity
  8
1
  6
Continuous
100
AcDbLine
 10
42.1651485073299
 20
343.6363249207598
 30
0.0
 11
47.16514850732997
 21
343.6363249207583
 31
0.0
  0
ARC
  5
1C22
330
1871
100
AcDbEntity
  8
1
  6
Continuous
100
AcDbCircle
 10
40.16514850732998
 20
344.140958825121
 30
0.0
 40
1.0
100
AcDbArc
 50
0.0
 51
52.9175030348283
  0
ARC
  5
1C23
330
1871
100
AcDbEntity
  8
1
  6
Continuous
100
AcDbCircle
 10
40.16514850732998
 20
344.1409588251208
 30
0.0
 40
2.0
100
AcDbArc
 50
0.0
 51
52.9175030348283
  0
LINE
  5
1C24
330
1871
100
AcDbEntity
  8
1
  6
Continuous
100
AcDbLine
 10
47.66514850732998
 20
343.1363249207585
 30
0.0
 11
47.66514850732998
 21
341.7113249207882
 31
0.0
  0
LINE
  5
1C25
330
1871
100
AcDbEntity
  8
1
  6
Continuous
100
AcDbLine
 10
47.46514850732999
 20
341.5113249207882
 30
0.0
 11
47.46514850732999
 21
340.7113249207883
 31
0.0
  0
LINE
  5
1C26
330
1871
100
AcDbEntity
  8
1
  6
Continuous
100
AcDbLine
 10
47.46514850733028
 20
341.5113249207882
 30
0.0
 11
47.66514850733027
 21
341.7113249207882
 31
0.0
  0
ARC
  5
1C27
330
1871
100
AcDbEntity
  8
1
  6
Continuous
100
AcDbCircle
 10
47.16514850732997
 20
343.1363249207584
 30
0.0
 40
0.5
100
AcDbArc
 50
0.0
 51
89.9999999999992
  0
ARC
  5
1C28
330
1871
100
AcDbEntity
  8
1
  6
Continuous
100
AcDbCircle
 10
61.66514850733157
 20
337.6363249208136
 30
0.0
 40
6.0
100
AcDbArc
 50
341.5385417025484
 51
18.46145829608534
  0
ARC
  5
1C29
330
1871
100
AcDbEntity
  8
1
  6
Continuous
100
AcDbCircle
 10
59.66514850733158
 20
337.6363249208131
 30
0.0
 40
6.000000000000013
100
AcDbArc
 50
329.1695025678862
 51
30.83049743146101
  0
LINE
  5
1C2A
330
1871
100
AcDbEntity
  8
1
  6
Continuous
100
AcDbLine
 10
64.81727185599289
 20
334.5613249207838
 30
0.0
 11
67.35636981736198
 21
335.736324920746
 31
0.0
  0
LINE
  5
1C2C
330
1871
100
AcDbEntity
  8
1
  6
Continuous
100
AcDbLine
 10
67.35636981740698
 20
339.5363249207458
 30
0.0
 11
64.81727185602768
 21
340.7113249207835
 31
0.0
  0
LINE
  5
1C2E
330
1871
100
AcDbEntity
  8
1
  6
Continuous
100
AcDbLine
 10
26.92887707573513
 20
350.6363249207643
 30
0.0
 11
32.89435644232797
 21
350.6363249207625
 31
0.0
  0
LINE
  5
1C2F
330
1871
100
AcDbEntity
  8
1
  6
Continuous
100
AcDbLine
 10
26.92887707573541
 20
351.6363249207643
 30
0.0
 11
32.89435644232826
 21
351.6363249207624
 31
0.0
  0
ARC
  5
1C30
330
1871
100
AcDbEntity
  8
1
  6
Continuous
100
AcDbCircle
 10
26.92887707573467
 20
349.6363249207641
 30
0.0
 40
2.0
100
AcDbArc
 50
89.9999999999992
 51
146.0138328903269
  0
ARC
  5
1C31
330
1871
100
AcDbEntity
  8
1
  6
Continuous
100
AcDbCircle
 10
26.92887707573467
 20
349.6363249207643
 30
0.0
 40
1.0
100
AcDbArc
 50
89.9999999999992
 51
146.0138328903266
  0
ARC
  5
1C32
330
1871
100
AcDbEntity
  8
1
  6
Continuous
100
AcDbCircle
 10
32.89435644232749
 20
349.6363249207624
 30
0.0
 40
1.0
100
AcDbArc
 50
52.9175030348283
 51
89.9999999999992
  0
ARC
  5
1C33
330
1871
100
AcDbEntity
  8
1
  6
Continuous
100
AcDbCircle
 10
32.89435644232749
 20
349.6363249207624
 30
0.0
 40
2.0
100
AcDbArc
 50
52.9175030348283
 51
89.9999999999992
  0
LINE
  5
1C34
330
1871
100
AcDbEntity
  8
1
  6
Continuous
100
AcDbLine
 10
24.36514850733014
 20
332.6363249208038
 30
0.0
 11
26.16514850733007
 21
332.6363249208043
 31
0.0
  0
ARC
  5
1C35
330
1871
100
AcDbEntity
  8
1
  6
Continuous
100
AcDbCircle
 10
24.36514850733004
 20
333.6363249208037
 30
0.0
 40
1.0
100
AcDbArc
 50
180.0
 51
270.0000000000008
  0
ARC
  5
1C36
330
1871
100
AcDbEntity
  8
1
  6
Continuous
100
AcDbCircle
 10
26.16514850733
 20
333.6363249208043
 30
0.0
 40
1.0
100
AcDbArc
 50
270.0000000000008
 51
0.0
  0
LINE
  5
1C37
330
1871
100
AcDbEntity
  8
1
  6
Continuous
100
AcDbLine
 10
20.20680339924047
 20
332.0295368311366
 30
0.0
 11
25.27053196764519
 21
324.5183394546764
 31
0.0
  0
LINE
  5
1C38
330
1871
100
AcDbEntity
  8
1
  6
Continuous
100
AcDbLine
 10
21.03597595328507
 20
332.5885295642016
 30
0.0
 11
26.09970452168985
 21
325.0773321877412
 31
0.0
  0
LINE
  5
1C39
330
1871
100
AcDbEntity
  8
1
  6
Continuous
100
AcDbLine
 10
26.92887707573541
 20
323.6363249208057
 30
0.0
 11
32.89435644232826
 21
323.6363249208075
 31
0.0
  0
LINE
  5
1C3A
330
1871
100
AcDbEntity
  8
1
  6
Continuous
100
AcDbLine
 10
26.92887707573513
 20
324.6363249208056
 30
0.0
 11
32.89435644232797
 21
324.6363249208075
 31
0.0
  0
ARC
  5
1C3B
330
1871
100
AcDbEntity
  8
1
  6
Continuous
100
AcDbCircle
 10
26.92887707573467
 20
325.6363249208057
 30
0.0
 40
1.0
100
AcDbArc
 50
213.9861671096733
 51
270.0000000000008
  0
ARC
  5
1C3C
330
1871
100
AcDbEntity
  8
1
  6
Continuous
100
AcDbCircle
 10
26.92887707573467
 20
325.6363249208058
 30
0.0
 40
2.0
100
AcDbArc
 50
213.9861671096729
 51
270.0000000000008
  0
ENDSEC
  0
SECTION
  2
OBJECTS
  0
DICTIONARY
  5
185F
330
0
100
AcDbDictionary
281
     1
  3
ACAD_CIP_PREVIOUS_PRODUCT_INFO
350
1CAB
  3
ACAD_COLOR
350
1C8E
  3
ACAD_DETAILVIEWSTYLE
350
1CA7
  3
ACAD_GROUP
350
1860
  3
ACAD_LAYOUT
350
186C
  3
ACAD_MATERIAL
350
1C5C
  3
ACAD_MLEADERSTYLE
350
1CA3
  3
ACAD_MLINESTYLE
350
1869
  3
ACAD_PLOTSETTINGS
350
186B
  3
ACAD_PLOTSTYLENAME
350
1C5A
  3
ACAD_SCALELIST
350
1C91
  3
ACAD_SECTIONVIEWSTYLE
350
1CA5
  3
ACAD_TABLESTYLE
350
1C8F
  3
ACAD_VISUALSTYLE
350
1C75
  3
ACDB_RECOMPOSE_DATA
350
1CC9
  3
AcDbVariableDictionary
350
1CBC
  3
DWGPROPS
350
1CCA
  0
DICTIONARY
  5
1CAC
330
1863
100
AcDbDictionary
280
     1
281
     1
  3
ADSK_XREC_LAYER_RECONCILED
360
1CAD
  0
DICTIONARY
  5
1CAE
330
1879
100
AcDbDictionary
280
     1
281
     1
  3
ADSK_XREC_LAYER_RECONCILED
360
1CAF
  0
DICTIONARY
  5
1CB0
330
187A
100
AcDbDictionary
280
     1
281
     1
  3
ADSK_XREC_LAYER_RECONCILED
360
1CB1
  0
DICTIONARY
  5
1CB2
330
187B
100
AcDbDictionary
280
     1
281
     1
  3
ADSK_XREC_LAYER_RECONCILED
360
1CB3
  0
DICTIONARY
  5
1CB4
330
187C
100
AcDbDictionary
280
     1
281
     1
  3
ADSK_XREC_LAYER_RECONCILED
360
1CB5
  0
DICTIONARY
  5
1CB6
330
187D
100
AcDbDictionary
280
     1
281
     1
  3
ADSK_XREC_LAYER_RECONCILED
360
1CB7
  0
DICTIONARY
  5
1CB8
330
187E
100
AcDbDictionary
280
     1
281
     1
  3
ADSK_XREC_LAYER_RECONCILED
360
1CB9
  0
DICTIONARY
  5
1CBA
330
187F
100
AcDbDictionary
280
     1
281
     1
  3
ADSK_XREC_LAYER_RECONCILED
360
1CBB
  0
DICTIONARY
  5
1C55
330
1871
100
AcDbDictionary
281
     1
  3
ACAD_LAYOUTSELFREF
350
1C56
  0
DICTIONARY
  5
1C53
330
186D
100
AcDbDictionary
281
     1
  3
ACAD_LAYOUTSELFREF
350
1C54
  0
XRECORD
  5
1CAB
102
{ACAD_REACTORS
330
185F
102
}
330
185F
100
AcDbXrecord
280
     1
300
ACDLT
300
2014
300
ACDLT_F_S
  0
DICTIONARY
  5
1C8E
102
{ACAD_REACTORS
330
185F
102
}
330
185F
100
AcDbDictionary
281
     1
  0
DICTIONARY
  5
1CA7
102
{ACAD_REACTORS
330
185F
102
}
330
185F
100
AcDbDictionary
281
     1
  3
Imperial24
350
1CA8
  0
DICTIONARY
  5
1860
102
{ACAD_REACTORS
330
185F
102
}
330
185F
100
AcDbDictionary
281
     1
  0
DICTIONARY
  5
186C
102
{ACAD_REACTORS
330
185F
102
}
330
185F
100
AcDbDictionary
281
     1
  3
Model
350
1CA9
  3
レイアウト1
350
1CAA
  0
DICTIONARY
  5
1C5C
102
{ACAD_REACTORS
330
185F
102
}
330
185F
100
AcDbDictionary
281
     1
  3
ByBlock
350
1C65
  3
ByLayer
350
1C5D
  3
Global
350
1C6D
  0
DICTIONARY
  5
1CA3
102
{ACAD_REACTORS
330
185F
102
}
330
185F
100
AcDbDictionary
281
     1
  3
Standard
350
1CA4
  0
DICTIONARY
  5
1869
102
{ACAD_REACTORS
330
185F
102
}
330
185F
100
AcDbDictionary
281
     1
  3
STANDARD
350
186A
  0
DICTIONARY
  5
186B
102
{ACAD_REACTORS
330
185F
102
}
330
185F
100
AcDbDictionary
281
     1
  0
ACDBDICTIONARYWDFLT
  5
1C5A
102
{ACAD_REACTORS
330
185F
102
}
330
185F
100
AcDbDictionary
281
     1
  3
Normal
350
1C5B
100
AcDbDictionaryWithDefault
340
1C5B
  0
DICTIONARY
  5
1C91
102
{ACAD_REACTORS
330
185F
102
}
330
185F
100
AcDbDictionary
281
     1
  3
A0
350
1C92
  3
A1
350
1C93
  3
A2
350
1C94
  3
A3
350
1C95
  3
A4
350
1C96
  3
A5
350
1C97
  3
A6
350
1C98
  3
A7
350
1C99
  3
A8
350
1C9A
  3
A9
350
1C9B
  3
B0
350
1C9C
  3
B1
350
1C9D
  3
B2
350
1C9E
  3
B3
350
1C9F
  3
B4
350
1CA0
  3
B5
350
1CA1
  3
B6
350
1CA2
  0
DICTIONARY
  5
1CA5
102
{ACAD_REACTORS
330
185F
102
}
330
185F
100
AcDbDictionary
281
     1
  3
Imperial24
350
1CA6
  0
DICTIONARY
  5
1C8F
102
{ACAD_REACTORS
330
185F
102
}
330
185F
100
AcDbDictionary
281
     1
  3
Standard
350
1C90
  0
DICTIONARY
  5
1C75
102
{ACAD_REACTORS
330
185F
102
}
330
185F
100
AcDbDictionary
281
     1
  3
2dWireframe
350
1C7B
  3
Basic
350
1C7A
  3
Brighten
350
1C81
  3
ColorChange
350
1C85
  3
Conceptual
350
1C7E
  3
Dim
350
1C80
  3
EdgeColorOff
350
1C8D
  3
Facepattern
350
1C84
  3
Flat
350
1C76
  3
FlatWithEdges
350
1C77
  3
Gouraud
350
1C78
  3
GouraudWithEdges
350
1C79
  3
Hidden
350
1C7D
  3
JitterOff
350
1C8B
  3
Linepattern
350
1C83
  3
OverhangOff
350
1C8C
  3
Realistic
350
1C7F
  3
Shaded
350
1C8A
  3
Shaded with edges
350
1C89
  3
Shades of Gray
350
1C86
  3
Sketchy
350
1C87
  3
Thicken
350
1C82
  3
Wireframe
350
1C7C
  3
X-Ray
350
1C88
  0
XRECORD
  5
1CC9
102
{ACAD_REACTORS
330
185F
102
}
330
185F
100
AcDbXrecord
280
     1
 90
        1
330
1C90
  0
DICTIONARY
  5
1CBC
102
{ACAD_REACTORS
330
185F
102
}
330
185F
100
AcDbDictionary
281
     1
  3
CANNOSCALE
350
1CC1
  3
CMLEADERSTYLE
350
1CBE
  3
CTABLESTYLE
350
1CBD
  3
CVIEWDETAILSTYLE
350
1CBF
  3
CVIEWSECTIONSTYLE
350
1CC0
  3
DIMASSOC
350
1CC4
  3
INDEXCTL
350
1CC3
  3
SORTENTS
350
1CC2
  3
XCLIPFRAME
350
1CC5
  0
XRECORD
  5
1CCA
102
{ACAD_REACTORS
330
185F
102
}
330
185F
100
AcDbXrecord
280
     1
  1
DWGPROPS COOKIE
  2

  3

  4

  6

  7

  8
Yoshitsune
  9

300
=
301
=
302
=
303
=
304
=
305
=
306
=
307
=
308
=
309
=
 40
0.0907635995370371
 41
2452262.374013669
 42
2457192.643182419
  1

 90
        0
  0
XRECORD
  5
1CAD
102
{ACAD_REACTORS
330
1CAC
102
}
330
1CAC
100
AcDbXrecord
280
     1
290
     1
  0
XRECORD
  5
1CAF
102
{ACAD_REACTORS
330
1CAE
102
}
330
1CAE
100
AcDbXrecord
280
     1
290
     1
  0
XRECORD
  5
1CB1
102
{ACAD_REACTORS
330
1CB0
102
}
330
1CB0
100
AcDbXrecord
280
     1
290
     1
  0
XRECORD
  5
1CB3
102
{ACAD_REACTORS
330
1CB2
102
}
330
1CB2
100
AcDbXrecord
280
     1
290
     1
  0
XRECORD
  5
1CB5
102
{ACAD_REACTORS
330
1CB4
102
}
330
1CB4
100
AcDbXrecord
280
     1
290
     1
  0
XRECORD
  5
1CB7
102
{ACAD_REACTORS
330
1CB6
102
}
330
1CB6
100
AcDbXrecord
280
     1
290
     1
  0
XRECORD
  5
1CB9
102
{ACAD_REACTORS
330
1CB8
102
}
330
1CB8
100
AcDbXrecord
280
     1
290
     1
  0
XRECORD
  5
1CBB
102
{ACAD_REACTORS
330
1CBA
102
}
330
1CBA
100
AcDbXrecord
280
     1
290
     1
  0
XRECORD
  5
1C56
102
{ACAD_REACTORS
330
1C55
102
}
330
1C55
100
AcDbXrecord
280
     1
340
1871
  0
XRECORD
  5
1C54
102
{ACAD_REACTORS
330
1C53
102
}
330
1C53
100
AcDbXrecord
280
     1
340
186D
  0
ACDBDETAILVIEWSTYLE
  5
1CA8
102
{ACAD_XDICTIONARY
360
1D02
102
}
102
{ACAD_REACTORS
330
1CA7
102
}
330
1CA7
100
AcDbModelDocViewStyle
 70
     0
  3
Imperial24
290
     0
100
AcDbDetailViewStyle
 70
     0
 71
     0
 90
        3
 71
     1
340
1864
 40
0.24
340
0
 40
0.24
300

 40
0.36
280
     3
 71
     2
340
1868
 90
       25
 71
     3
340
1864
 40
0.24
 90
        1
 40
0.75
 90
        1
300
%<\AcVar ViewType \f "%tc1">% %<\AcVar ViewDetailId>%\PSCALE %<\AcVar ViewScale \f "%sn">%
 71
     4
340
1868
 90
       25
340
1868
 90
       25
280
     0
  0
LAYOUT
  5
1CA9
102
{ACAD_XDICTIONARY
360
1D04
102
}
102
{ACAD_REACTORS
330
186C
102
}
330
186C
100
AcDbPlotSettings
  1

  2
Canon LBP9100C
  4

  6

 40
0.0
 41
0.0
 42
0.0
 43
0.0
 44
0.0
 45
0.0
 46
0.0
 47
0.0
 48
0.0
 49
0.0
140
0.0
141
0.0
142
1.0
143
1.0
 70
  1712
 72
     0
 73
     0
 74
     0
  7

 75
     0
147
1.0
148
0.0
149
0.0
100
AcDbLayout
  1
Model
 70
     1
 71
     0
 10
0.0
 20
0.0
 11
12.0
 21
9.0
 12
0.0
 22
0.0
 32
0.0
 14
0.0
 24
0.0
 34
0.0
 15
0.0
 25
0.0
 35
0.0
146
0.0
 13
0.0
 23
0.0
 33
0.0
 16
1.0
 26
0.0
 36
0.0
 17
0.0
 27
1.0
 37
0.0
 76
     0
330
1871
331
1C52
  0
LAYOUT
  5
1CAA
102
{ACAD_XDICTIONARY
360
1D06
102
}
102
{ACAD_REACTORS
330
186C
102
}
330
186C
100
AcDbPlotSettings
  1

  2
Canon LBP9100C
  4

  6

 40
0.0
 41
0.0
 42
0.0
 43
0.0
 44
0.0
 45
0.0
 46
0.0
 47
0.0
 48
0.0
 49
0.0
140
0.0
141
0.0
142
1.0
143
1.0
 70
   688
 72
     0
 73
     0
 74
     5
  7

 75
    16
147
1.0
148
0.0
149
0.0
100
AcDbLayout
  1
レイアウト1
 70
     1
 71
     1
 10
0.0
 20
0.0
 11
420.0
 21
297.0
 12
0.0
 22
0.0
 32
0.0
 14
1.000000000000000E+20
 24
1.000000000000000E+20
 34
1.000000000000000E+20
 15
-1.000000000000000E+20
 25
-1.000000000000000E+20
 35
-1.000000000000000E+20
146
0.0
 13
0.0
 23
0.0
 33
0.0
 16
1.0
 26
0.0
 36
0.0
 17
0.0
 27
1.0
 37
0.0
 76
     0
330
186D
  0
MATERIAL
  5
1C65
102
{ACAD_XDICTIONARY
360
1C66
102
}
102
{ACAD_REACTORS
330
1C5C
102
}
330
1C5C
100
AcDbMaterial
  1
ByBlock
 72
     0
 43
0.0208333333333333
 43
0.0
 43
0.0
 43
0.0
 43
0.0
 43
0.0208333333333333
 43
0.0
 43
0.0
 43
0.0
 43
0.0
 43
1.0
 43
0.0
 43
0.0
 43
0.0
 43
0.0
 43
1.0
 77
     0
 47
0.0208333333333333
 47
0.0
 47
0.0
 47
0.0
 47
0.0
 47
0.0208333333333333
 47
0.0
 47
0.0
 47
0.0
 47
0.0
 47
1.0
 47
0.0
 47
0.0
 47
0.0
 47
0.0
 47
1.0
171
     0
 49
0.0208333333333333
 49
0.0
 49
0.0
 49
0.0
 49
0.0
 49
0.0208333333333333
 49
0.0
 49
0.0
 49
0.0
 49
0.0
 49
1.0
 49
0.0
 49
0.0
 49
0.0
 49
0.0
 49
1.0
175
     0
142
0.0208333333333333
142
0.0
142
0.0
142
0.0
142
0.0
142
0.0208333333333333
142
0.0
142
0.0
142
0.0
142
0.0
142
1.0
142
0.0
142
0.0
142
0.0
142
0.0
142
1.0
179
     0
144
0.0208333333333333
144
0.0
144
0.0
144
0.0
144
0.0
144
0.0208333333333333
144
0.0
144
0.0
144
0.0
144
0.0
144
1.0
144
0.0
144
0.0
144
0.0
144
0.0
144
1.0
147
0.0208333333333333
147
0.0
147
0.0
147
0.0
147
0.0
147
0.0208333333333333
147
0.0
147
0.0
147
0.0
147
0.0
147
1.0
147
0.0
147
0.0
147
0.0
147
0.0
147
1.0
  0
MATERIAL
  5
1C5D
102
{ACAD_XDICTIONARY
360
1C5E
102
}
102
{ACAD_REACTORS
330
1C5C
102
}
330
1C5C
100
AcDbMaterial
  1
ByLayer
 72
     0
 43
0.0208333333333333
 43
0.0
 43
0.0
 43
0.0
 43
0.0
 43
0.0208333333333333
 43
0.0
 43
0.0
 43
0.0
 43
0.0
 43
1.0
 43
0.0
 43
0.0
 43
0.0
 43
0.0
 43
1.0
 77
     0
 47
0.0208333333333333
 47
0.0
 47
0.0
 47
0.0
 47
0.0
 47
0.0208333333333333
 47
0.0
 47
0.0
 47
0.0
 47
0.0
 47
1.0
 47
0.0
 47
0.0
 47
0.0
 47
0.0
 47
1.0
171
     0
 49
0.0208333333333333
 49
0.0
 49
0.0
 49
0.0
 49
0.0
 49
0.0208333333333333
 49
0.0
 49
0.0
 49
0.0
 49
0.0
 49
1.0
 49
0.0
 49
0.0
 49
0.0
 49
0.0
 49
1.0
175
     0
142
0.0208333333333333
142
0.0
142
0.0
142
0.0
142
0.0
142
0.0208333333333333
142
0.0
142
0.0
142
0.0
142
0.0
142
1.0
142
0.0
142
0.0
142
0.0
142
0.0
142
1.0
179
     0
144
0.0208333333333333
144
0.0
144
0.0
144
0.0
144
0.0
144
0.0208333333333333
144
0.0
144
0.0
144
0.0
144
0.0
144
1.0
144
0.0
144
0.0
144
0.0
144
0.0
144
1.0
147
0.0208333333333333
147
0.0
147
0.0
147
0.0
147
0.0
147
0.0208333333333333
147
0.0
147
0.0
147
0.0
147
0.0
147
1.0
147
0.0
147
0.0
147
0.0
147
0.0
147
1.0
  0
MATERIAL
  5
1C6D
102
{ACAD_XDICTIONARY
360
1C6E
102
}
102
{ACAD_REACTORS
330
1C5C
102
}
330
1C5C
100
AcDbMaterial
  1
Global
 72
     0
 43
0.0208333333333333
 43
0.0
 43
0.0
 43
0.0
 43
0.0
 43
0.0208333333333333
 43
0.0
 43
0.0
 43
0.0
 43
0.0
 43
1.0
 43
0.0
 43
0.0
 43
0.0
 43
0.0
 43
1.0
 77
     0
 47
0.0208333333333333
 47
0.0
 47
0.0
 47
0.0
 47
0.0
 47
0.0208333333333333
 47
0.0
 47
0.0
 47
0.0
 47
0.0
 47
1.0
 47
0.0
 47
0.0
 47
0.0
 47
0.0
 47
1.0
171
     0
 49
0.0208333333333333
 49
0.0
 49
0.0
 49
0.0
 49
0.0
 49
0.0208333333333333
 49
0.0
 49
0.0
 49
0.0
 49
0.0
 49
1.0
 49
0.0
 49
0.0
 49
0.0
 49
0.0
 49
1.0
175
     0
142
0.0208333333333333
142
0.0
142
0.0
142
0.0
142
0.0
142
0.0208333333333333
142
0.0
142
0.0
142
0.0
142
0.0
142
1.0
142
0.0
142
0.0
142
0.0
142
0.0
142
1.0
179
     0
144
0.0208333333333333
144
0.0
144
0.0
144
0.0
144
0.0
144
0.0208333333333333
144
0.0
144
0.0
144
0.0
144
0.0
144
1.0
144
0.0
144
0.0
144
0.0
144
0.0
144
1.0
147
0.0208333333333333
147
0.0
147
0.0
147
0.0
147
0.0
147
0.0208333333333333
147
0.0
147
0.0
147
0.0
147
0.0
147
1.0
147
0.0
147
0.0
147
0.0
147
0.0
147
1.0
  0
MLEADERSTYLE
  5
1CA4
102
{ACAD_REACTORS
330
1CA3
102
}
330
1CA3
100
AcDbMLeaderStyle
170
     2
171
     1
172
     0
 90
        2
 40
0.0
 41
0.0
173
     1
 91
-1056964608
340
1866
 92
       -2
290
     1
 42
0.09
291
     1
 43
0.36
  3
Standard
 44
0.18
300

342
1864
174
     1
178
     6
175
     1
176
     0
 93
-1056964608
 45
0.18
292
     0
297
     0
 46
0.18
 94
-1056964608
 47
1.0
 49
1.0
140
1.0
293
     1
141
0.0
294
     1
177
     0
142
1.0
295
     0
296
     0
143
0.125
1001
ACAD_MLEADERVER
1070
     2
  0
MLINESTYLE
  5
186A
102
{ACAD_REACTORS
330
1869
102
}
330
1869
100
AcDbMlineStyle
  2
STANDARD
 70
     0
  3

 62
   256
 51
90.0
 52
90.0
 71
     2
 49
0.5
 62
   256
  6
BYLAYER
 49
-0.5
 62
   256
  6
BYLAYER
  0
ACDBPLACEHOLDER
  5
1C5B
102
{ACAD_REACTORS
330
1C5A
102
}
330
1C5A
  0
SCALE
  5
1C92
102
{ACAD_REACTORS
330
1C91
102
}
330
1C91
100
AcDbScale
 70
     0
300
1:1
140
1.0
141
1.0
290
     1
  0
SCALE
  5
1C93
102
{ACAD_REACTORS
330
1C91
102
}
330
1C91
100
AcDbScale
 70
     0
300
1/128" = 1'-0"
140
0.0078125
141
12.0
290
     0
  0
SCALE
  5
1C94
102
{ACAD_REACTORS
330
1C91
102
}
330
1C91
100
AcDbScale
 70
     0
300
1/64" = 1'-0"
140
0.015625
141
12.0
290
     0
  0
SCALE
  5
1C95
102
{ACAD_REACTORS
330
1C91
102
}
330
1C91
100
AcDbScale
 70
     0
300
1/32" = 1'-0"
140
0.03125
141
12.0
290
     0
  0
SCALE
  5
1C96
102
{ACAD_REACTORS
330
1C91
102
}
330
1C91
100
AcDbScale
 70
     0
300
1/16" = 1'-0"
140
0.0625
141
12.0
290
     0
  0
SCALE
  5
1C97
102
{ACAD_REACTORS
330
1C91
102
}
330
1C91
100
AcDbScale
 70
     0
300
3/32" = 1'-0"
140
0.09375
141
12.0
290
     0
  0
SCALE
  5
1C98
102
{ACAD_REACTORS
330
1C91
102
}
330
1C91
100
AcDbScale
 70
     0
300
1/8" = 1'-0"
140
0.125
141
12.0
290
     0
  0
SCALE
  5
1C99
102
{ACAD_REACTORS
330
1C91
102
}
330
1C91
100
AcDbScale
 70
     0
300
3/16" = 1'-0"
140
0.1875
141
12.0
290
     0
  0
SCALE
  5
1C9A
102
{ACAD_REACTORS
330
1C91
102
}
330
1C91
100
AcDbScale
 70
     0
300
1/4" = 1'-0"
140
0.25
141
12.0
290
     0
  0
SCALE
  5
1C9B
102
{ACAD_REACTORS
330
1C91
102
}
330
1C91
100
AcDbScale
 70
     0
300
3/8" = 1'-0"
140
0.375
141
12.0
290
     0
  0
SCALE
  5
1C9C
102
{ACAD_REACTORS
330
1C91
102
}
330
1C91
100
AcDbScale
 70
     0
300
1/2" = 1'-0"
140
0.5
141
12.0
290
     0
  0
SCALE
  5
1C9D
102
{ACAD_REACTORS
330
1C91
102
}
330
1C91
100
AcDbScale
 70
     0
300
3/4" = 1'-0"
140
0.75
141
12.0
290
     0
  0
SCALE
  5
1C9E
102
{ACAD_REACTORS
330
1C91
102
}
330
1C91
100
AcDbScale
 70
     0
300
1" = 1'-0"
140
1.0
141
12.0
290
     0
  0
SCALE
  5
1C9F
102
{ACAD_REACTORS
330
1C91
102
}
330
1C91
100
AcDbScale
 70
     0
300
1-1/2" = 1'-0"
140
1.5
141
12.0
290
     0
  0
SCALE
  5
1CA0
102
{ACAD_REACTORS
330
1C91
102
}
330
1C91
100
AcDbScale
 70
     0
300
3" = 1'-0"
140
3.0
141
12.0
290
     0
  0
SCALE
  5
1CA1
102
{ACAD_REACTORS
330
1C91
102
}
330
1C91
100
AcDbScale
 70
     0
300
6" = 1'-0"
140
6.0
141
12.0
290
     0
  0
SCALE
  5
1CA2
102
{ACAD_REACTORS
330
1C91
102
}
330
1C91
100
AcDbScale
 70
     0
300
1'-0" = 1'-0"
140
12.0
141
12.0
290
     0
  0
ACDBSECTIONVIEWSTYLE
  5
1CA6
102
{ACAD_XDICTIONARY
360
1D00
102
}
102
{ACAD_REACTORS
330
1CA5
102
}
330
1CA5
100
AcDbModelDocViewStyle
 70
     0
  3
Imperial24
290
     0
100
AcDbSectionViewStyle
 70
     0
 71
     0
 90
       78
 71
     1
340
1864
 40
0.24
340
0
340
0
 40
0.24
300
I, O, Q, S, X, Z
 40
0.48
 90
        3
 40
0.18
 90
        1
 71
     2
340
1868
 90
       25
340
1868
 90
       50
 40
0.24
 40
0.0
 40
0.24
 71
     3
340
1864
 40
0.24
 90
        1
 40
0.75
 90
        1
300
%<\AcVar ViewType \f "%tc1">% %<\AcVar ViewSectionStartId>%-%<\AcVar ViewSectionEndId>%\PSCALE %<\AcVar ViewScale \f "%sn">%
 71
     4
300
ANSI31
 40
1.0
 90
        0
290
     0
290
     0
 90
        6
 40
0.0
 40
1.570796326794896
 40
0.2617993877991494
 40
1.308996938995747
 40
-0.2617993877991494
 40
1.832595714594046
  0
TABLESTYLE
  5
1C90
102
{ACAD_XDICTIONARY
360
1CC7
102
}
102
{ACAD_REACTORS
330
1C8F
102
}
330
1C8F
100
AcDbTableStyle
  3
Standard
 70
     0
 71
     0
 40
0.06
 41
0.06
280
     0
281
     0
  7
STANDARD
140
0.18
170
     2
 62
     0
 63
     7
283
     0
274
    -2
284
     1
 64
     0
275
    -2
285
     1
 65
     0
276
    -2
286
     1
 66
     0
277
    -2
287
     1
 67
     0
278
    -2
288
     1
 68
     0
279
    -2
289
     1
 69
     0
  7
STANDARD
140
0.25
170
     5
 62
     0
 63
     7
283
     0
274
    -2
284
     1
 64
     0
275
    -2
285
     1
 65
     0
276
    -2
286
     1
 66
     0
277
    -2
287
     1
 67
     0
278
    -2
288
     1
 68
     0
279
    -2
289
     1
 69
     0
  7
STANDARD
140
0.18
170
     5
 62
     0
 63
     7
283
     0
274
    -2
284
     1
 64
     0
275
    -2
285
     1
 65
     0
276
    -2
286
     1
 66
     0
277
    -2
287
     1
 67
     0
278
    -2
288
     1
 68
     0
279
    -2
289
     1
 69
     0
  0
VISUALSTYLE
  5
1C7B
102
{ACAD_XDICTIONARY
360
1CD8
102
}
102
{ACAD_REACTORS
330
1C75
102
}
330
1C75
100
AcDbVisualStyle
  2
2dWireframe
 70
     4
 71
     0
 72
     2
 73
     0
 90
        0
 40
-0.6
 41
-30.0
 62
     5
 63
     7
 74
     1
 91
        4
 64
     7
 65
   257
 75
     1
175
     1
 42
1.0
 92
        0
 66
   257
 43
1.0
 76
     1
 77
     6
 78
     2
 67
     7
 79
     5
170
     0
171
     0
290
     0
174
     0
 93
        1
 44
0.0
173
     0
291
     0
 45
0.0
1001
ACAD
1000
AcDbSavedByObjectVersion
1070
     0
  0
VISUALSTYLE
  5
1C7A
102
{ACAD_XDICTIONARY
360
1CD6
102
}
102
{ACAD_REACTORS
330
1C75
102
}
330
1C75
100
AcDbVisualStyle
  2
Basic
 70
     7
 71
     1
 72
     0
 73
     1
 90
        0
 40
-0.6
 41
-30.0
 62
     5
 63
     7
 74
     0
 91
        4
 64
     7
 65
   257
 75
     1
175
     1
 42
1.0
 92
        8
 66
     7
 43
1.0
 76
     1
 77
     6
 78
     2
 67
     7
 79
     5
170
     0
171
     0
290
     0
174
     0
 93
        1
 44
0.0
173
     0
291
     1
 45
0.0
1001
ACAD
1000
AcDbSavedByObjectVersion
1070
     0
  0
VISUALSTYLE
  5
1C81
102
{ACAD_XDICTIONARY
360
1CE4
102
}
102
{ACAD_REACTORS
330
1C75
102
}
330
1C75
100
AcDbVisualStyle
  2
Brighten
 70
    12
 71
     2
 72
     2
 73
     0
 90
        0
 40
-0.6
 41
-30.0
 62
     5
 63
     7
 74
     1
 91
        4
 64
     7
 65
   257
 75
     1
175
     1
 42
1.0
 92
        8
 66
     7
 43
1.0
 76
     1
 77
     6
 78
     2
 67
     7
 79
     5
170
     0
171
     0
290
     0
174
     0
 93
        1
 44
50.0
173
     0
291
     1
 45
0.0
1001
ACAD
1000
AcDbSavedByObjectVersion
1070
     0
  0
VISUALSTYLE
  5
1C85
102
{ACAD_XDICTIONARY
360
1CEC
102
}
102
{ACAD_REACTORS
330
1C75
102
}
330
1C75
100
AcDbVisualStyle
  2
ColorChange
 70
    16
 71
     2
 72
     2
 73
     3
 90
        0
 40
-0.6
 41
-30.0
 62
     5
 63
     8
 74
     1
 91
        4
 64
     7
 65
   257
 75
     1
175
     1
 42
1.0
 92
        8
 66
     8
 43
1.0
 76
     1
 77
     6
 78
     2
 67
     7
 79
     5
170
     0
171
     0
290
     0
174
     0
 93
        1
 44
0.0
173
     0
291
     1
 45
0.0
1001
ACAD
1000
AcDbSavedByObjectVersion
1070
     0
  0
VISUALSTYLE
  5
1C7E
102
{ACAD_XDICTIONARY
360
1CDE
102
}
102
{ACAD_REACTORS
330
1C75
102
}
330
1C75
100
AcDbVisualStyle
  2
Conceptual
 70
     9
 71
     3
 72
     2
 73
     0
 90
        0
 40
-0.6
 41
-30.0
 62
     5
 63
     7
 74
     2
 91
        2
 64
     7
 65
   257
 75
     1
175
     1
 42
179.0
 92
        8
 66
     7
 43
1.0
 76
     1
 77
     6
 78
     2
 67
     7
 79
     3
170
     0
171
     0
290
     0
174
     0
 93
        1
 44
0.0
173
     0
291
     0
 45
0.0
1001
ACAD
1000
AcDbSavedByObjectVersion
1070
     0
  0
VISUALSTYLE
  5
1C80
102
{ACAD_XDICTIONARY
360
1CE2
102
}
102
{ACAD_REACTORS
330
1C75
102
}
330
1C75
100
AcDbVisualStyle
  2
Dim
 70
    11
 71
     2
 72
     2
 73
     0
 90
        0
 40
-0.6
 41
-30.0
 62
     5
 63
     7
 74
     1
 91
        4
 64
     7
 65
   257
 75
     1
175
     1
 42
1.0
 92
        8
 66
     7
 43
1.0
 76
     1
 77
     6
 78
     2
 67
     7
 79
     5
170
     0
171
     0
290
     0
174
     0
 93
        1
 44
-50.0
173
     0
291
     1
 45
0.0
1001
ACAD
1000
AcDbSavedByObjectVersion
1070
     0
  0
VISUALSTYLE
  5
1C8D
102
{ACAD_XDICTIONARY
360
1CFC
102
}
102
{ACAD_REACTORS
330
1C75
102
}
330
1C75
100
AcDbVisualStyle
  2
EdgeColorOff
 70
    22
 71
     2
 72
     2
 73
     0
 90
        0
 40
-0.6
 41
-30.0
 62
     5
 63
     7
 74
     1
 91
        4
 64
     7
 65
   257
 75
     1
175
     1
 42
1.0
 92
        8
 66
     7
 43
1.0
 76
     1
 77
     6
 78
     2
 67
     7
 79
     5
170
     0
171
     0
290
     0
174
     0
 93
        1
 44
0.0
173
     0
291
     1
 45
0.0
1001
ACAD
1000
AcDbSavedByObjectVersion
1070
     0
  0
VISUALSTYLE
  5
1C84
102
{ACAD_XDICTIONARY
360
1CEA
102
}
102
{ACAD_REACTORS
330
1C75
102
}
330
1C75
100
AcDbVisualStyle
  2
Facepattern
 70
    15
 71
     2
 72
     2
 73
     0
 90
        0
 40
-0.6
 41
-30.0
 62
     5
 63
     7
 74
     1
 91
        4
 64
     7
 65
   257
 75
     1
175
     1
 42
1.0
 92
        8
 66
     7
 43
1.0
 76
     1
 77
     6
 78
     2
 67
     7
 79
     5
170
     0
171
     0
290
     0
174
     0
 93
        1
 44
0.0
173
     0
291
     1
 45
0.0
1001
ACAD
1000
AcDbSavedByObjectVersion
1070
     0
  0
VISUALSTYLE
  5
1C76
102
{ACAD_XDICTIONARY
360
1CCE
102
}
102
{ACAD_REACTORS
330
1C75
102
}
330
1C75
100
AcDbVisualStyle
  2
Flat
 70
     0
 71
     2
 72
     1
 73
     1
 90
        2
 40
-0.6
 41
30.0
 62
     5
 63
     7
 74
     0
 91
        0
 64
     7
 65
   257
 75
     1
175
     1
 42
1.0
 92
        8
 66
     7
 43
1.0
 76
     1
 77
     6
 78
     2
 67
     7
 79
     5
170
     0
171
     0
290
     0
174
     0
 93
       13
 44
0.0
173
     0
291
     1
 45
0.0
1001
ACAD
1000
AcDbSavedByObjectVersion
1070
     0
  0
VISUALSTYLE
  5
1C77
102
{ACAD_XDICTIONARY
360
1CD0
102
}
102
{ACAD_REACTORS
330
1C75
102
}
330
1C75
100
AcDbVisualStyle
  2
FlatWithEdges
 70
     1
 71
     2
 72
     1
 73
     1
 90
        2
 40
-0.6
 41
30.0
 62
     5
 63
     7
 74
     1
 91
        0
 64
     7
 65
   257
 75
     1
175
     1
 42
1.0
 92
        0
 66
   257
 43
1.0
 76
     1
 77
     6
 78
     2
 67
     7
 79
     5
170
     0
171
     0
290
     0
174
     0
 93
       13
 44
0.0
173
     0
291
     1
 45
0.0
1001
ACAD
1000
AcDbSavedByObjectVersion
1070
     0
  0
VISUALSTYLE
  5
1C78
102
{ACAD_XDICTIONARY
360
1CD2
102
}
102
{ACAD_REACTORS
330
1C75
102
}
330
1C75
100
AcDbVisualStyle
  2
Gouraud
 70
     2
 71
     2
 72
     2
 73
     1
 90
        2
 40
-0.6
 41
30.0
 62
     5
 63
     7
 74
     0
 91
        0
 64
     7
 65
   257
 75
     1
175
     1
 42
1.0
 92
        0
 66
     7
 43
1.0
 76
     1
 77
     6
 78
     2
 67
     7
 79
     5
170
     0
171
     0
290
     0
174
     0
 93
       13
 44
0.0
173
     0
291
     1
 45
0.0
1001
ACAD
1000
AcDbSavedByObjectVersion
1070
     0
  0
VISUALSTYLE
  5
1C79
102
{ACAD_XDICTIONARY
360
1CD4
102
}
102
{ACAD_REACTORS
330
1C75
102
}
330
1C75
100
AcDbVisualStyle
  2
GouraudWithEdges
 70
     3
 71
     2
 72
     2
 73
     1
 90
        2
 40
-0.6
 41
30.0
 62
     5
 63
     7
 74
     1
 91
        0
 64
     7
 65
   257
 75
     1
175
     1
 42
1.0
 92
        0
 66
   257
 43
1.0
 76
     1
 77
     6
 78
     2
 67
     7
 79
     5
170
     0
171
     0
290
     0
174
     0
 93
       13
 44
0.0
173
     0
291
     1
 45
0.0
1001
ACAD
1000
AcDbSavedByObjectVersion
1070
     0
  0
VISUALSTYLE
  5
1C7D
102
{ACAD_XDICTIONARY
360
1CDC
102
}
102
{ACAD_REACTORS
330
1C75
102
}
330
1C75
100
AcDbVisualStyle
  2
Hidden
 70
     6
 71
     1
 72
     2
 73
     2
 90
        0
 40
-0.6
 41
-30.0
 62
     5
 63
     7
 74
     2
 91
        2
 64
     7
 65
   257
 75
     2
175
     1
 42
40.0
 92
        0
 66
   257
 43
1.0
 76
     1
 77
     6
 78
     2
 67
     7
 79
     3
170
     0
171
     0
290
     0
174
     0
 93
        1
 44
0.0
173
     0
291
     0
 45
0.0
1001
ACAD
1000
AcDbSavedByObjectVersion
1070
     0
  0
VISUALSTYLE
  5
1C8B
102
{ACAD_XDICTIONARY
360
1CF8
102
}
102
{ACAD_REACTORS
330
1C75
102
}
330
1C75
100
AcDbVisualStyle
  2
JitterOff
 70
    20
 71
     2
 72
     2
 73
     0
 90
        0
 40
-0.6
 41
-30.0
 62
     5
 63
     7
 74
     1
 91
        4
 64
     7
 65
   257
 75
     1
175
     1
 42
1.0
 92
       10
 66
     7
 43
1.0
 76
     1
 77
     6
 78
     2
 67
     7
 79
     5
170
     0
171
     0
290
     0
174
     0
 93
        1
 44
0.0
173
     0
291
     1
 45
0.0
1001
ACAD
1000
AcDbSavedByObjectVersion
1070
     0
  0
VISUALSTYLE
  5
1C83
102
{ACAD_XDICTIONARY
360
1CE8
102
}
102
{ACAD_REACTORS
330
1C75
102
}
330
1C75
100
AcDbVisualStyle
  2
Linepattern
 70
    14
 71
     2
 72
     2
 73
     0
 90
        0
 40
-0.6
 41
-30.0
 62
     5
 63
     7
 74
     1
 91
        4
 64
     7
 65
   257
 75
     7
175
     7
 42
1.0
 92
        8
 66
     7
 43
1.0
 76
     1
 77
     6
 78
     2
 67
     7
 79
     5
170
     0
171
     0
290
     0
174
     0
 93
        1
 44
0.0
173
     0
291
     1
 45
0.0
1001
ACAD
1000
AcDbSavedByObjectVersion
1070
     0
  0
VISUALSTYLE
  5
1C8C
102
{ACAD_XDICTIONARY
360
1CFA
102
}
102
{ACAD_REACTORS
330
1C75
102
}
330
1C75
100
AcDbVisualStyle
  2
OverhangOff
 70
    21
 71
     2
 72
     2
 73
     0
 90
        0
 40
-0.6
 41
-30.0
 62
     5
 63
     7
 74
     1
 91
        4
 64
     7
 65
   257
 75
     1
175
     1
 42
1.0
 92
        9
 66
     7
 43
1.0
 76
     1
 77
     6
 78
     2
 67
     7
 79
     5
170
     0
171
     0
290
     0
174
     0
 93
        1
 44
0.0
173
     0
291
     1
 45
0.0
1001
ACAD
1000
AcDbSavedByObjectVersion
1070
     0
  0
VISUALSTYLE
  5
1C7F
102
{ACAD_XDICTIONARY
360
1CE0
102
}
102
{ACAD_REACTORS
330
1C75
102
}
330
1C75
100
AcDbVisualStyle
  2
Realistic
 70
     8
 71
     2
 72
     3
 73
     0
 90
        2
 40
-0.6
 41
30.0
 62
     5
 63
     7
 74
     0
 91
        0
 64
     7
 65
   257
 75
     1
175
     1
 42
1.0
 92
        8
 66
   257
 43
1.0
 76
     1
 77
     6
 78
     2
 67
     7
 79
     3
170
     0
171
     0
290
     0
174
     0
 93
       13
 44
0.0
173
     0
291
     0
 45
0.0
1001
ACAD
1000
AcDbSavedByObjectVersion
1070
     0
  0
VISUALSTYLE
  5
1C8A
102
{ACAD_XDICTIONARY
360
1CF6
102
}
102
{ACAD_REACTORS
330
1C75
102
}
330
1C75
100
AcDbVisualStyle
  2
Shaded
 70
    27
 71
     2
 72
     2
 73
     1
 90
        2
 40
-0.6
 41
30.0
 62
     5
 63
     7
 74
     0
 91
        4
 64
     7
 65
   257
 75
     1
175
     1
 42
1.0
 92
        8
 66
   257
 43
1.0
 76
     1
 77
     6
 78
     2
 67
     8
 79
     3
170
     0
171
     0
290
     0
174
     0
 93
        5
 44
0.0
173
     0
291
     0
 45
0.0
1001
ACAD
1000
AcDbSavedByObjectVersion
1070
     0
  0
VISUALSTYLE
  5
1C89
102
{ACAD_XDICTIONARY
360
1CF4
102
}
102
{ACAD_REACTORS
330
1C75
102
}
330
1C75
100
AcDbVisualStyle
  2
Shaded with edges
 70
    26
 71
     2
 72
     2
 73
     1
 90
        2
 40
-0.6
 41
30.0
 62
     5
 63
     7
 74
     1
 91
       10
 64
     7
 65
   257
 75
     2
175
     1
 42
1.0
 92
        8
 66
   257
 43
1.0
 76
     1
 77
     6
 78
     2
 67
     7
 79
     3
170
     0
171
     0
290
     0
174
     0
 93
        5
 44
0.0
173
     0
291
     0
 45
0.0
1001
ACAD
1000
AcDbSavedByObjectVersion
1070
     0
  0
VISUALSTYLE
  5
1C86
102
{ACAD_XDICTIONARY
360
1CEE
102
}
102
{ACAD_REACTORS
330
1C75
102
}
330
1C75
100
AcDbVisualStyle
  2
Shades of Gray
 70
    23
 71
     2
 72
     2
 73
     3
 90
        0
 40
-0.6
 41
-30.0
 62
     5
 63
     7
 74
     2
 91
        2
 64
     7
 65
     7
 75
     1
175
     1
 42
40.0
 92
        8
 66
     7
 43
1.0
 76
     1
 77
     6
 78
     2
 67
     7
 79
     3
170
     0
171
     0
290
     0
174
     0
 93
        1
 44
0.0
173
     0
291
     0
 45
0.0
1001
ACAD
1000
AcDbSavedByObjectVersion
1070
     0
  0
VISUALSTYLE
  5
1C87
102
{ACAD_XDICTIONARY
360
1CF0
102
}
102
{ACAD_REACTORS
330
1C75
102
}
330
1C75
100
AcDbVisualStyle
  2
Sketchy
 70
    24
 71
     1
 72
     2
 73
     2
 90
        0
 40
-0.6
 41
-30.0
 62
     5
 63
     7
 74
     2
 91
        2
 64
     7
 65
     7
 75
     1
175
     1
 42
40.0
 92
       11
 66
     7
 43
1.0
 76
     1
 77
     6
 78
     2
 67
     7
 79
     6
170
     0
171
     0
290
     0
174
     0
 93
        1
 44
0.0
173
     0
291
     0
 45
0.0
1001
ACAD
1000
AcDbSavedByObjectVersion
1070
     0
  0
VISUALSTYLE
  5
1C82
102
{ACAD_XDICTIONARY
360
1CE6
102
}
102
{ACAD_REACTORS
330
1C75
102
}
330
1C75
100
AcDbVisualStyle
  2
Thicken
 70
    13
 71
     2
 72
     2
 73
     0
 90
        0
 40
-0.6
 41
-30.0
 62
     5
 63
     7
 74
     1
 91
        4
 64
     7
 65
   257
 75
     1
175
     1
 42
1.0
 92
       12
 66
     7
 43
1.0
 76
     1
 77
     6
 78
     2
 67
     7
 79
     5
170
     0
171
     0
290
     0
174
     0
 93
        1
 44
0.0
173
     0
291
     1
 45
0.0
1001
ACAD
1000
AcDbSavedByObjectVersion
1070
     0
  0
VISUALSTYLE
  5
1C7C
102
{ACAD_XDICTIONARY
360
1CDA
102
}
102
{ACAD_REACTORS
330
1C75
102
}
330
1C75
100
AcDbVisualStyle
  2
Wireframe
 70
     5
 71
     0
 72
     2
 73
     0
 90
        0
 40
-0.6
 41
-30.0
 62
     5
 63
     7
 74
     1
 91
        4
 64
     7
 65
   257
 75
     1
175
     1
 42
1.0
 92
        0
 66
   257
 43
1.0
 76
     1
 77
     6
 78
     2
 67
     7
 79
     3
170
     0
171
     0
290
     0
174
     0
 93
        1
 44
0.0
173
     0
291
     0
 45
0.0
1001
ACAD
1000
AcDbSavedByObjectVersion
1070
     0
  0
VISUALSTYLE
  5
1C88
102
{ACAD_XDICTIONARY
360
1CF2
102
}
102
{ACAD_REACTORS
330
1C75
102
}
330
1C75
100
AcDbVisualStyle
  2
X-Ray
 70
    25
 71
     2
 72
     2
 73
     1
 90
        1
 40
0.5
 41
-30.0
 62
     5
 63
     7
 74
     1
 91
        0
 64
     7
 65
   257
 75
     1
175
     1
 42
1.0
 92
        8
 66
     7
 43
1.0
 76
     1
 77
     6
 78
     2
 67
     7
 79
     3
170
     0
171
     0
290
     0
174
     0
 93
       13
 44
0.0
173
     0
291
     0
 45
0.0
1001
ACAD
1000
AcDbSavedByObjectVersion
1070
     0
  0
DICTIONARYVAR
  5
1CC1
102
{ACAD_REACTORS
330
1CBC
102
}
330
1CBC
100
DictionaryVariables
280
     0
  1
1:1
  0
DICTIONARYVAR
  5
1CBE
102
{ACAD_REACTORS
330
1CBC
102
}
330
1CBC
100
DictionaryVariables
280
     0
  1
STANDARD
  0
DICTIONARYVAR
  5
1CBD
102
{ACAD_REACTORS
330
1CBC
102
}
330
1CBC
100
DictionaryVariables
280
     0
  1
STANDARD
  0
DICTIONARYVAR
  5
1CBF
102
{ACAD_REACTORS
330
1CBC
102
}
330
1CBC
100
DictionaryVariables
280
     0
  1
Imperial24
  0
DICTIONARYVAR
  5
1CC0
102
{ACAD_REACTORS
330
1CBC
102
}
330
1CBC
100
DictionaryVariables
280
     0
  1
Imperial24
  0
DICTIONARYVAR
  5
1CC4
102
{ACAD_REACTORS
330
1CBC
102
}
330
1CBC
100
DictionaryVariables
280
     0
  1
1
  0
DICTIONARYVAR
  5
1CC3
102
{ACAD_REACTORS
330
1CBC
102
}
330
1CBC
100
DictionaryVariables
280
     0
  1
0
  0
DICTIONARYVAR
  5
1CC2
102
{ACAD_REACTORS
330
1CBC
102
}
330
1CBC
100
DictionaryVariables
280
     0
  1
127
  0
DICTIONARYVAR
  5
1CC5
102
{ACAD_REACTORS
330
1CBC
102
}
330
1CBC
100
DictionaryVariables
280
     0
  1
2
  0
DICTIONARY
  5
1D02
330
1CA8
100
AcDbDictionary
280
     1
281
     1
  3
ACAD_XREC_ROUNDTRIP
360
1D03
  0
DICTIONARY
  5
1D04
330
1CA9
100
AcDbDictionary
280
     1
281
     1
  3
ACAD_XREC_ROUNDTRIP
360
1D05
  0
DICTIONARY
  5
1D06
330
1CAA
100
AcDbDictionary
280
     1
281
     1
  3
ACAD_XREC_ROUNDTRIP
360
1D07
  0
DICTIONARY
  5
1C66
330
1C65
100
AcDbDictionary
280
     1
281
     1
  3
ACAD_XREC_ROUNDTRIP
360
1CCC
  3
BUMPTILE
360
1C68
  3
DIFFUSETILE
360
1C67
  3
OPACITYTILE
360
1C6B
  3
REFLECTIONTILE
360
1C6A
  3
REFRACTIONTILE
360
1C6C
  3
SPECULARTILE
360
1C69
  0
DICTIONARY
  5
1C5E
330
1C5D
100
AcDbDictionary
280
     1
281
     1
  3
ACAD_XREC_ROUNDTRIP
360
1CCB
  3
BUMPTILE
360
1C60
  3
DIFFUSETILE
360
1C5F
  3
OPACITYTILE
360
1C63
  3
REFLECTIONTILE
360
1C62
  3
REFRACTIONTILE
360
1C64
  3
SPECULARTILE
360
1C61
  0
DICTIONARY
  5
1C6E
330
1C6D
100
AcDbDictionary
280
     1
281
     1
  3
ACAD_XREC_ROUNDTRIP
360
1CCD
  3
BUMPTILE
360
1C70
  3
DIFFUSETILE
360
1C6F
  3
OPACITYTILE
360
1C73
  3
REFLECTIONTILE
360
1C72
  3
REFRACTIONTILE
360
1C74
  3
SPECULARTILE
360
1C71
  0
DICTIONARY
  5
1D00
330
1CA6
100
AcDbDictionary
280
     1
281
     1
  3
ACAD_XREC_ROUNDTRIP
360
1D01
  0
DICTIONARY
  5
1CC7
330
1C90
100
AcDbDictionary
280
     1
281
     1
  3
ACAD_ROUNDTRIP_2008_TABLESTYLE_CELLSTYLEMAP
360
1CC8
  3
ACAD_XREC_ROUNDTRIP
360
1CFE
  0
DICTIONARY
  5
1CD8
330
1C7B
100
AcDbDictionary
280
     1
281
     1
  3
ACAD_XREC_ROUNDTRIP
360
1CD9
  0
DICTIONARY
  5
1CD6
330
1C7A
100
AcDbDictionary
280
     1
281
     1
  3
ACAD_XREC_ROUNDTRIP
360
1CD7
  0
DICTIONARY
  5
1CE4
330
1C81
100
AcDbDictionary
280
     1
281
     1
  3
ACAD_XREC_ROUNDTRIP
360
1CE5
  0
DICTIONARY
  5
1CEC
330
1C85
100
AcDbDictionary
280
     1
281
     1
  3
ACAD_XREC_ROUNDTRIP
360
1CED
  0
DICTIONARY
  5
1CDE
330
1C7E
100
AcDbDictionary
280
     1
281
     1
  3
ACAD_XREC_ROUNDTRIP
360
1CDF
  0
DICTIONARY
  5
1CE2
330
1C80
100
AcDbDictionary
280
     1
281
     1
  3
ACAD_XREC_ROUNDTRIP
360
1CE3
  0
DICTIONARY
  5
1CFC
330
1C8D
100
AcDbDictionary
280
     1
281
     1
  3
ACAD_XREC_ROUNDTRIP
360
1CFD
  0
DICTIONARY
  5
1CEA
330
1C84
100
AcDbDictionary
280
     1
281
     1
  3
ACAD_XREC_ROUNDTRIP
360
1CEB
  0
DICTIONARY
  5
1CCE
330
1C76
100
AcDbDictionary
280
     1
281
     1
  3
ACAD_XREC_ROUNDTRIP
360
1CCF
  0
DICTIONARY
  5
1CD0
330
1C77
100
AcDbDictionary
280
     1
281
     1
  3
ACAD_XREC_ROUNDTRIP
360
1CD1
  0
DICTIONARY
  5
1CD2
330
1C78
100
AcDbDictionary
280
     1
281
     1
  3
ACAD_XREC_ROUNDTRIP
360
1CD3
  0
DICTIONARY
  5
1CD4
330
1C79
100
AcDbDictionary
280
     1
281
     1
  3
ACAD_XREC_ROUNDTRIP
360
1CD5
  0
DICTIONARY
  5
1CDC
330
1C7D
100
AcDbDictionary
280
     1
281
     1
  3
ACAD_XREC_ROUNDTRIP
360
1CDD
  0
DICTIONARY
  5
1CF8
330
1C8B
100
AcDbDictionary
280
     1
281
     1
  3
ACAD_XREC_ROUNDTRIP
360
1CF9
  0
DICTIONARY
  5
1CE8
330
1C83
100
AcDbDictionary
280
     1
281
     1
  3
ACAD_XREC_ROUNDTRIP
360
1CE9
  0
DICTIONARY
  5
1CFA
330
1C8C
100
AcDbDictionary
280
     1
281
     1
  3
ACAD_XREC_ROUNDTRIP
360
1CFB
  0
DICTIONARY
  5
1CE0
330
1C7F
100
AcDbDictionary
280
     1
281
     1
  3
ACAD_XREC_ROUNDTRIP
360
1CE1
  0
DICTIONARY
  5
1CF6
330
1C8A
100
AcDbDictionary
280
     1
281
     1
  3
ACAD_XREC_ROUNDTRIP
360
1CF7
  0
DICTIONARY
  5
1CF4
330
1C89
100
AcDbDictionary
280
     1
281
     1
  3
ACAD_XREC_ROUNDTRIP
360
1CF5
  0
DICTIONARY
  5
1CEE
330
1C86
100
AcDbDictionary
280
     1
281
     1
  3
ACAD_XREC_ROUNDTRIP
360
1CEF
  0
DICTIONARY
  5
1CF0
330
1C87
100
AcDbDictionary
280
     1
281
     1
  3
ACAD_XREC_ROUNDTRIP
360
1CF1
  0
DICTIONARY
  5
1CE6
330
1C82
100
AcDbDictionary
280
     1
281
     1
  3
ACAD_XREC_ROUNDTRIP
360
1CE7
  0
DICTIONARY
  5
1CDA
330
1C7C
100
AcDbDictionary
280
     1
281
     1
  3
ACAD_XREC_ROUNDTRIP
360
1CDB
  0
DICTIONARY
  5
1CF2
330
1C88
100
AcDbDictionary
280
     1
281
     1
  3
ACAD_XREC_ROUNDTRIP
360
1CF3
  0
XRECORD
  5
1D03
102
{ACAD_REACTORS
330
1D02
102
}
330
1D02
100
AcDbXrecord
280
     1
102
DISPLAYNAME
  1
Imperial24
102
FLAGS
 90
        0
  0
XRECORD
  5
1D05
102
{ACAD_REACTORS
330
1D04
102
}
330
1D04
100
AcDbXrecord
280
     1
102
SHADEPLOT
 70
     0
102
SHADEPLOTRESLEVEL
 70
     2
102
SHADEPLOTCUSTOMDPI
 70
   300
  0
XRECORD
  5
1D07
102
{ACAD_REACTORS
330
1D06
102
}
330
1D06
100
AcDbXrecord
280
     1
102
SHADEPLOT
 70
     0
102
SHADEPLOTRESLEVEL
 70
     2
102
SHADEPLOTCUSTOMDPI
 70
   300
  0
XRECORD
  5
1CCC
102
{ACAD_REACTORS
330
1C66
102
}
330
1C66
100
AcDbXrecord
280
     1
102
MATERIAL
148
0.0
149
0.0
149
0.0
 93
        0
 94
      127
282
     0
 72
     0
 77
     0
171
     0
175
     0
179
     0
273
     0
  0
XRECORD
  5
1C68
102
{ACAD_REACTORS
330
1C66
102
}
330
1C66
100
AcDbXrecord
280
     1
270
     1
271
     1
  0
XRECORD
  5
1C67
102
{ACAD_REACTORS
330
1C66
102
}
330
1C66
100
AcDbXrecord
280
     1
270
     1
271
     1
  0
XRECORD
  5
1C6B
102
{ACAD_REACTORS
330
1C66
102
}
330
1C66
100
AcDbXrecord
280
     1
270
     1
271
     1
  0
XRECORD
  5
1C6A
102
{ACAD_REACTORS
330
1C66
102
}
330
1C66
100
AcDbXrecord
280
     1
270
     1
271
     1
  0
XRECORD
  5
1C6C
102
{ACAD_REACTORS
330
1C66
102
}
330
1C66
100
AcDbXrecord
280
     1
270
     1
271
     1
  0
XRECORD
  5
1C69
102
{ACAD_REACTORS
330
1C66
102
}
330
1C66
100
AcDbXrecord
280
     1
270
     1
271
     1
  0
XRECORD
  5
1CCB
102
{ACAD_REACTORS
330
1C5E
102
}
330
1C5E
100
AcDbXrecord
280
     1
102
MATERIAL
148
0.0
149
0.0
149
0.0
 93
        0
 94
      127
282
     0
 72
     0
 77
     0
171
     0
175
     0
179
     0
273
     0
  0
XRECORD
  5
1C60
102
{ACAD_REACTORS
330
1C5E
102
}
330
1C5E
100
AcDbXrecord
280
     1
270
     1
271
     1
  0
XRECORD
  5
1C5F
102
{ACAD_REACTORS
330
1C5E
102
}
330
1C5E
100
AcDbXrecord
280
     1
270
     1
271
     1
  0
XRECORD
  5
1C63
102
{ACAD_REACTORS
330
1C5E
102
}
330
1C5E
100
AcDbXrecord
280
     1
270
     1
271
     1
  0
XRECORD
  5
1C62
102
{ACAD_REACTORS
330
1C5E
102
}
330
1C5E
100
AcDbXrecord
280
     1
270
     1
271
     1
  0
XRECORD
  5
1C64
102
{ACAD_REACTORS
330
1C5E
102
}
330
1C5E
100
AcDbXrecord
280
     1
270
     1
271
     1
  0
XRECORD
  5
1C61
102
{ACAD_REACTORS
330
1C5E
102
}
330
1C5E
100
AcDbXrecord
280
     1
270
     1
271
     1
  0
XRECORD
  5
1CCD
102
{ACAD_REACTORS
330
1C6E
102
}
330
1C6E
100
AcDbXrecord
280
     1
102
MATERIAL
148
0.0
149
0.0
149
0.0
 93
        0
 94
      127
282
     0
 72
     0
 77
     0
171
     0
175
     0
179
     0
273
     0
  0
XRECORD
  5
1C70
102
{ACAD_REACTORS
330
1C6E
102
}
330
1C6E
100
AcDbXrecord
280
     1
270
     1
271
     1
  0
XRECORD
  5
1C6F
102
{ACAD_REACTORS
330
1C6E
102
}
330
1C6E
100
AcDbXrecord
280
     1
270
     1
271
     1
  0
XRECORD
  5
1C73
102
{ACAD_REACTORS
330
1C6E
102
}
330
1C6E
100
AcDbXrecord
280
     1
270
     1
271
     1
  0
XRECORD
  5
1C72
102
{ACAD_REACTORS
330
1C6E
102
}
330
1C6E
100
AcDbXrecord
280
     1
270
     1
271
     1
  0
XRECORD
  5
1C74
102
{ACAD_REACTORS
330
1C6E
102
}
330
1C6E
100
AcDbXrecord
280
     1
270
     1
271
     1
  0
XRECORD
  5
1C71
102
{ACAD_REACTORS
330
1C6E
102
}
330
1C6E
100
AcDbXrecord
280
     1
270
     1
271
     1
  0
XRECORD
  5
1D01
102
{ACAD_REACTORS
330
1D00
102
}
330
1D00
100
AcDbXrecord
280
     1
102
DISPLAYNAME
  1
Imperial24
102
FLAGS
 90
        0
  0
CELLSTYLEMAP
  5
1CC8
102
{ACAD_REACTORS
330
1CC7
102
}
330
1CC7
100
AcDbCellStyleMap
 90
        3
300
CELLSTYLE
  1
TABLEFORMAT_BEGIN
 90
        5
170
     1
 91
        0
 92
    32768
 62
   257
 93
        1
300
CONTENTFORMAT
  1
CONTENTFORMAT_BEGIN
 90
        0
 91
        0
 92
      512
 93
        0
300

 40
0.0
140
1.0
 94
        5
 62
     0
340
1864
144
0.25
309
CONTENTFORMAT_END
171
     0
 94
        0
309
TABLEFORMAT_END
  1
CELLSTYLE_BEGIN
 90
        1
 91
        1
300
_TITLE
309
CELLSTYLE_END
300
CELLSTYLE
  1
TABLEFORMAT_BEGIN
 90
        5
170
     1
 91
        0
 92
        0
 62
   257
 93
        1
300
CONTENTFORMAT
  1
CONTENTFORMAT_BEGIN
 90
        0
 91
        0
 92
      512
 93
        0
300

 40
0.0
140
1.0
 94
        5
 62
     0
340
1864
144
0.18
309
CONTENTFORMAT_END
171
     0
 94
        0
309
TABLEFORMAT_END
  1
CELLSTYLE_BEGIN
 90
        2
 91
        1
300
_HEADER
309
CELLSTYLE_END
300
CELLSTYLE
  1
TABLEFORMAT_BEGIN
 90
        5
170
     1
 91
        0
 92
        0
 62
   257
 93
        1
300
CONTENTFORMAT
  1
CONTENTFORMAT_BEGIN
 90
        0
 91
        0
 92
      512
 93
        0
300

 40
0.0
140
1.0
 94
        2
 62
     0
340
1864
144
0.18
309
CONTENTFORMAT_END
171
     0
 94
        0
309
TABLEFORMAT_END
  1
CELLSTYLE_BEGIN
 90
        3
 91
        2
300
_DATA
309
CELLSTYLE_END
  0
XRECORD
  5
1CFE
102
{ACAD_REACTORS
330
1CC7
102
}
330
1CC7
100
AcDbXrecord
280
     1
102
ACAD_ROUNDTRIP_PRE2007_TABLESTYLE
 90
      512
 91
        0
  1

 92
      512
 93
        0
  2

 94
      512
 95
        0
  3

  0
XRECORD
  5
1CD9
102
{ACAD_REACTORS
330
1CD8
102
}
330
1CD8
100
AcDbXrecord
280
     1
102
RTVSPost2010Prop28
280
     1
102
RTVSPost2010PropOp28
 70
     1
102
RTVSPost2010Prop29
280
     1
102
RTVSPost2010PropOp29
 70
     1
102
RTVSPost2010Prop30
280
     0
102
RTVSPost2010PropOp30
 70
     1
102
RTVSPost2010Prop31
280
     0
102
RTVSPost2010PropOp31
 70
     1
102
RTVSPost2010Prop32
280
     0
102
RTVSPost2010PropOp32
 70
     1
102
RTVSPost2010Prop33
280
     0
102
RTVSPost2010PropOp33
 70
     1
102
RTVSPost2010Prop34
280
     0
102
RTVSPost2010PropOp34
 70
     1
102
RTVSPost2010Prop35
280
     0
102
RTVSPost2010PropOp35
 70
     1
102
RTVSPost2010Prop36
280
     0
102
RTVSPost2010PropOp36
 70
     1
102
RTVSPost2010Prop37
 90
       50
102
RTVSPost2010PropOp37
 70
     1
102
RTVSPost2010Prop38
140
0.0
102
RTVSPost2010PropOp38
 70
     1
102
RTVSPost2010Prop39
140
1.0
102
RTVSPost2010PropOp39
 70
     1
102
RTVSPost2010Prop40
 90
        0
102
RTVSPost2010PropOp40
 70
     1
102
RTVSPost2010Prop41ColorIndex
 90
       18
102
RTVSPost2010Prop41ColorRGB
 90
        0
102
RTVSPost2010PropOp41
 70
     1
102
RTVSPost2010Prop42
 90
       50
102
RTVSPost2010PropOp42
 70
     1
102
RTVSPost2010Prop43
 90
        3
102
RTVSPost2010PropOp43
 70
     1
102
RTVSPost2010Prop44ColorIndex
 90
        5
102
RTVSPost2010Prop44ColorRGB
 90
      255
102
RTVSPost2010PropOp44
 70
     1
102
RTVSPost2010Prop45
280
     0
102
RTVSPost2010PropOp45
 70
     1
102
RTVSPost2010Prop46
 90
       50
102
RTVSPost2010PropOp46
 70
     1
102
RTVSPost2010Prop47
 90
       50
102
RTVSPost2010PropOp47
 70
     1
102
RTVSPost2010Prop48
 90
       50
102
RTVSPost2010PropOp48
 70
     1
102
RTVSPost2010Prop49
280
     0
102
RTVSPost2010PropOp49
 70
     1
102
RTVSPost2010Prop50
 90
       50
102
RTVSPost2010PropOp50
 70
     1
102
RTVSPost2010Prop51ColorIndex
 90
      256
102
RTVSPost2010Prop51ColorRGB
 90
-16777216
102
RTVSPost2010PropOp51
 70
     0
102
RTVSPost2010Prop52
140
1.0
102
RTVSPost2010PropOp52
 70
     0
102
RTVSPost2010Prop53
 90
        2
102
RTVSPost2010PropOp53
 70
     1
102
RTVSPost2010Prop54
  1
strokes_ogs.tif
102
RTVSPost2010PropOp54
 70
     1
102
RTVSPost2010Prop55
280
     0
102
RTVSPost2010PropOp55
 70
     1
102
RTVSPost2010Prop56
140
1.0
102
RTVSPost2010PropOp56
 70
     1
102
RTVSPost2010Prop57
140
1.0
102
RTVSPost2010PropOp57
 70
     1
102
RTVSPropertyOp0
 70
     1
102
RTVSPropertyOp1
 70
     1
102
RTVSPropertyOp2
 70
     1
102
RTVSPropertyOp3
 70
     1
102
RTVSPropertyOp4
 70
     1
102
RTVSPropertyOp5
 70
     1
102
RTVSPropertyOp6
 70
     1
102
RTVSPropertyOp7
 70
     1
102
RTVSPropertyOp8
 70
     1
102
RTVSPropertyOp9
 70
     1
102
RTVSPropertyOp10
 70
     1
102
RTVSPropertyOp11
 70
     1
102
RTVSPropertyOp12
 70
     1
102
RTVSPropertyOp13
 70
     1
102
RTVSPropertyOp14
 70
     1
102
RTVSPropertyOp15
 70
     1
102
RTVSPropertyOp16
 70
     1
102
RTVSPropertyOp17
 70
     1
102
RTVSPropertyOp18
 70
     1
102
RTVSPropertyOp19
 70
     1
102
RTVSPropertyOp20
 70
     1
102
RTVSPropertyOp21
 70
     1
102
RTVSPropertyOp22
 70
     1
102
RTVSPropertyOp23
 70
     1
102
RTVSPropertyOp24
 70
     1
102
RTVSPropertyOp25
 70
     1
102
RTVSPropertyOp26
 70
     1
102
RTVSPropertyOp27
 70
     1
102
RTVSPropertyOp28
 70
     1
102
RTVSPropertyOp29
 70
     1
102
RTVSPropertyOp30
 70
     1
102
RTVSPropertyOp31
 70
     1
102
RTVSPropertyOp32
 70
     1
102
RTVSPropertyOp33
 70
     1
102
RTVSPropertyOp34
 70
     1
102
RTVSPropertyOp35
 70
     1
102
RTVSPropertyOp36
 70
     1
102
RTVSPropertyOp37
 70
     1
102
RTVSPropertyOp38
 70
     1
102
RTVSPropertyOp39
 70
     1
102
RTVSPropertyOp40
 70
     1
102
RTVSPropertyOp41
 70
     1
102
RTVSPropertyOp42
 70
     1
102
RTVSPropertyOp43
 70
     1
102
RTVSPropertyOp44
 70
     1
102
RTVSPropertyOp45
 70
     1
102
RTVSPropertyOp46
 70
     1
102
RTVSPropertyOp47
 70
     1
102
RTVSPropertyOp48
 70
     1
102
RTVSPropertyOp49
 70
     1
102
RTVSPropertyOp50
 70
     1
102
RTVSPropertyOp51
 70
     0
102
RTVSPropertyOp52
 70
     0
102
RTVSPropertyOp53
 70
     1
102
RTVSPropertyOp54
 70
     1
102
RTVSPropertyOp55
 70
     1
102
RTVSPropertyOp56
 70
     1
102
RTVSPropertyOp57
 70
     1
102
RTVSPropertyOp58
 70
     1
102
RTVSPropertyOp59
 70
     1
102
RTVSPropertyOp60
 70
     1
102
RTVSPropertyOp61
 70
     1
102
RTVSPropertyOp62
 70
     1
  0
XRECORD
  5
1CD7
102
{ACAD_REACTORS
330
1CD6
102
}
330
1CD6
100
AcDbXrecord
280
     1
102
RTVSPost2010Prop28
280
     0
102
RTVSPost2010PropOp28
 70
     1
102
RTVSPost2010Prop29
280
     1
102
RTVSPost2010PropOp29
 70
     1
102
RTVSPost2010Prop30
280
     1
102
RTVSPost2010PropOp30
 70
     1
102
RTVSPost2010Prop31
280
     0
102
RTVSPost2010PropOp31
 70
     1
102
RTVSPost2010Prop32
280
     0
102
RTVSPost2010PropOp32
 70
     1
102
RTVSPost2010Prop33
280
     0
102
RTVSPost2010PropOp33
 70
     1
102
RTVSPost2010Prop34
280
     0
102
RTVSPost2010PropOp34
 70
     1
102
RTVSPost2010Prop35
280
     0
102
RTVSPost2010PropOp35
 70
     1
102
RTVSPost2010Prop36
280
     0
102
RTVSPost2010PropOp36
 70
     1
102
RTVSPost2010Prop37
 90
       50
102
RTVSPost2010PropOp37
 70
     1
102
RTVSPost2010Prop38
140
0.0
102
RTVSPost2010PropOp38
 70
     1
102
RTVSPost2010Prop39
140
1.0
102
RTVSPost2010PropOp39
 70
     1
102
RTVSPost2010Prop40
 90
        0
102
RTVSPost2010PropOp40
 70
     1
102
RTVSPost2010Prop41ColorIndex
 90
       18
102
RTVSPost2010Prop41ColorRGB
 90
        0
102
RTVSPost2010PropOp41
 70
     1
102
RTVSPost2010Prop42
 90
       50
102
RTVSPost2010PropOp42
 70
     1
102
RTVSPost2010Prop43
 90
        3
102
RTVSPost2010PropOp43
 70
     1
102
RTVSPost2010Prop44ColorIndex
 90
        5
102
RTVSPost2010Prop44ColorRGB
 90
      255
102
RTVSPost2010PropOp44
 70
     1
102
RTVSPost2010Prop45
280
     0
102
RTVSPost2010PropOp45
 70
     1
102
RTVSPost2010Prop46
 90
       50
102
RTVSPost2010PropOp46
 70
     1
102
RTVSPost2010Prop47
 90
       50
102
RTVSPost2010PropOp47
 70
     1
102
RTVSPost2010Prop48
 90
       50
102
RTVSPost2010PropOp48
 70
     1
102
RTVSPost2010Prop49
280
     0
102
RTVSPost2010PropOp49
 70
     1
102
RTVSPost2010Prop50
 90
       50
102
RTVSPost2010PropOp50
 70
     1
102
RTVSPost2010Prop51ColorIndex
 90
      256
102
RTVSPost2010Prop51ColorRGB
 90
-16777216
102
RTVSPost2010PropOp51
 70
     0
102
RTVSPost2010Prop52
140
1.0
102
RTVSPost2010PropOp52
 70
     0
102
RTVSPost2010Prop53
 90
        2
102
RTVSPost2010PropOp53
 70
     1
102
RTVSPost2010Prop54
  1
strokes_ogs.tif
102
RTVSPost2010PropOp54
 70
     1
102
RTVSPost2010Prop55
280
     0
102
RTVSPost2010PropOp55
 70
     1
102
RTVSPost2010Prop56
140
1.0
102
RTVSPost2010PropOp56
 70
     1
102
RTVSPost2010Prop57
140
1.0
102
RTVSPost2010PropOp57
 70
     1
102
RTVSPropertyOp0
 70
     1
102
RTVSPropertyOp1
 70
     1
102
RTVSPropertyOp2
 70
     1
102
RTVSPropertyOp3
 70
     1
102
RTVSPropertyOp4
 70
     1
102
RTVSPropertyOp5
 70
     1
102
RTVSPropertyOp6
 70
     1
102
RTVSPropertyOp7
 70
     1
102
RTVSPropertyOp8
 70
     1
102
RTVSPropertyOp9
 70
     1
102
RTVSPropertyOp10
 70
     1
102
RTVSPropertyOp11
 70
     1
102
RTVSPropertyOp12
 70
     1
102
RTVSPropertyOp13
 70
     1
102
RTVSPropertyOp14
 70
     1
102
RTVSPropertyOp15
 70
     1
102
RTVSPropertyOp16
 70
     1
102
RTVSPropertyOp17
 70
     1
102
RTVSPropertyOp18
 70
     1
102
RTVSPropertyOp19
 70
     1
102
RTVSPropertyOp20
 70
     1
102
RTVSPropertyOp21
 70
     1
102
RTVSPropertyOp22
 70
     1
102
RTVSPropertyOp23
 70
     1
102
RTVSPropertyOp24
 70
     1
102
RTVSPropertyOp25
 70
     1
102
RTVSPropertyOp26
 70
     1
102
RTVSPropertyOp27
 70
     1
102
RTVSPropertyOp28
 70
     1
102
RTVSPropertyOp29
 70
     1
102
RTVSPropertyOp30
 70
     1
102
RTVSPropertyOp31
 70
     1
102
RTVSPropertyOp32
 70
     1
102
RTVSPropertyOp33
 70
     1
102
RTVSPropertyOp34
 70
     1
102
RTVSPropertyOp35
 70
     1
102
RTVSPropertyOp36
 70
     1
102
RTVSPropertyOp37
 70
     1
102
RTVSPropertyOp38
 70
     1
102
RTVSPropertyOp39
 70
     1
102
RTVSPropertyOp40
 70
     1
102
RTVSPropertyOp41
 70
     1
102
RTVSPropertyOp42
 70
     1
102
RTVSPropertyOp43
 70
     1
102
RTVSPropertyOp44
 70
     1
102
RTVSPropertyOp45
 70
     1
102
RTVSPropertyOp46
 70
     1
102
RTVSPropertyOp47
 70
     1
102
RTVSPropertyOp48
 70
     1
102
RTVSPropertyOp49
 70
     1
102
RTVSPropertyOp50
 70
     1
102
RTVSPropertyOp51
 70
     0
102
RTVSPropertyOp52
 70
     0
102
RTVSPropertyOp53
 70
     1
102
RTVSPropertyOp54
 70
     1
102
RTVSPropertyOp55
 70
     1
102
RTVSPropertyOp56
 70
     1
102
RTVSPropertyOp57
 70
     1
102
RTVSPropertyOp58
 70
     1
102
RTVSPropertyOp59
 70
     1
102
RTVSPropertyOp60
 70
     1
102
RTVSPropertyOp61
 70
     1
102
RTVSPropertyOp62
 70
     1
  0
XRECORD
  5
1CE5
102
{ACAD_REACTORS
330
1CE4
102
}
330
1CE4
100
AcDbXrecord
280
     1
102
RTVSPost2010Prop28
280
     0
102
RTVSPost2010PropOp28
 70
     1
102
RTVSPost2010Prop29
280
     1
102
RTVSPost2010PropOp29
 70
     1
102
RTVSPost2010Prop30
280
     1
102
RTVSPost2010PropOp30
 70
     1
102
RTVSPost2010Prop31
280
     0
102
RTVSPost2010PropOp31
 70
     1
102
RTVSPost2010Prop32
280
     0
102
RTVSPost2010PropOp32
 70
     1
102
RTVSPost2010Prop33
280
     0
102
RTVSPost2010PropOp33
 70
     1
102
RTVSPost2010Prop34
280
     0
102
RTVSPost2010PropOp34
 70
     1
102
RTVSPost2010Prop35
280
     0
102
RTVSPost2010PropOp35
 70
     1
102
RTVSPost2010Prop36
280
     0
102
RTVSPost2010PropOp36
 70
     1
102
RTVSPost2010Prop37
 90
       50
102
RTVSPost2010PropOp37
 70
     1
102
RTVSPost2010Prop38
140
0.0
102
RTVSPost2010PropOp38
 70
     1
102
RTVSPost2010Prop39
140
1.0
102
RTVSPost2010PropOp39
 70
     1
102
RTVSPost2010Prop40
 90
        0
102
RTVSPost2010PropOp40
 70
     1
102
RTVSPost2010Prop41ColorIndex
 90
       18
102
RTVSPost2010Prop41ColorRGB
 90
        0
102
RTVSPost2010PropOp41
 70
     1
102
RTVSPost2010Prop42
 90
       50
102
RTVSPost2010PropOp42
 70
     1
102
RTVSPost2010Prop43
 90
        3
102
RTVSPost2010PropOp43
 70
     1
102
RTVSPost2010Prop44ColorIndex
 90
        5
102
RTVSPost2010Prop44ColorRGB
 90
      255
102
RTVSPost2010PropOp44
 70
     1
102
RTVSPost2010Prop45
280
     0
102
RTVSPost2010PropOp45
 70
     1
102
RTVSPost2010Prop46
 90
       50
102
RTVSPost2010PropOp46
 70
     1
102
RTVSPost2010Prop47
 90
       50
102
RTVSPost2010PropOp47
 70
     1
102
RTVSPost2010Prop48
 90
       50
102
RTVSPost2010PropOp48
 70
     1
102
RTVSPost2010Prop49
280
     0
102
RTVSPost2010PropOp49
 70
     1
102
RTVSPost2010Prop50
 90
       50
102
RTVSPost2010PropOp50
 70
     1
102
RTVSPost2010Prop51ColorIndex
 90
      256
102
RTVSPost2010Prop51ColorRGB
 90
-16777216
102
RTVSPost2010PropOp51
 70
     0
102
RTVSPost2010Prop52
140
1.0
102
RTVSPost2010PropOp52
 70
     0
102
RTVSPost2010Prop53
 90
        2
102
RTVSPost2010PropOp53
 70
     1
102
RTVSPost2010Prop54
  1
strokes_ogs.tif
102
RTVSPost2010PropOp54
 70
     1
102
RTVSPost2010Prop55
280
     0
102
RTVSPost2010PropOp55
 70
     1
102
RTVSPost2010Prop56
140
1.0
102
RTVSPost2010PropOp56
 70
     1
102
RTVSPost2010Prop57
140
1.0
102
RTVSPost2010PropOp57
 70
     1
102
RTVSPropertyOp0
 70
     1
102
RTVSPropertyOp1
 70
     1
102
RTVSPropertyOp2
 70
     1
102
RTVSPropertyOp3
 70
     1
102
RTVSPropertyOp4
 70
     1
102
RTVSPropertyOp5
 70
     1
102
RTVSPropertyOp6
 70
     1
102
RTVSPropertyOp7
 70
     1
102
RTVSPropertyOp8
 70
     1
102
RTVSPropertyOp9
 70
     1
102
RTVSPropertyOp10
 70
     1
102
RTVSPropertyOp11
 70
     1
102
RTVSPropertyOp12
 70
     1
102
RTVSPropertyOp13
 70
     1
102
RTVSPropertyOp14
 70
     1
102
RTVSPropertyOp15
 70
     1
102
RTVSPropertyOp16
 70
     1
102
RTVSPropertyOp17
 70
     1
102
RTVSPropertyOp18
 70
     1
102
RTVSPropertyOp19
 70
     1
102
RTVSPropertyOp20
 70
     1
102
RTVSPropertyOp21
 70
     1
102
RTVSPropertyOp22
 70
     1
102
RTVSPropertyOp23
 70
     1
102
RTVSPropertyOp24
 70
     1
102
RTVSPropertyOp25
 70
     1
102
RTVSPropertyOp26
 70
     1
102
RTVSPropertyOp27
 70
     1
102
RTVSPropertyOp28
 70
     1
102
RTVSPropertyOp29
 70
     1
102
RTVSPropertyOp30
 70
     1
102
RTVSPropertyOp31
 70
     1
102
RTVSPropertyOp32
 70
     1
102
RTVSPropertyOp33
 70
     1
102
RTVSPropertyOp34
 70
     1
102
RTVSPropertyOp35
 70
     1
102
RTVSPropertyOp36
 70
     1
102
RTVSPropertyOp37
 70
     1
102
RTVSPropertyOp38
 70
     1
102
RTVSPropertyOp39
 70
     1
102
RTVSPropertyOp40
 70
     1
102
RTVSPropertyOp41
 70
     1
102
RTVSPropertyOp42
 70
     1
102
RTVSPropertyOp43
 70
     1
102
RTVSPropertyOp44
 70
     1
102
RTVSPropertyOp45
 70
     1
102
RTVSPropertyOp46
 70
     1
102
RTVSPropertyOp47
 70
     1
102
RTVSPropertyOp48
 70
     1
102
RTVSPropertyOp49
 70
     1
102
RTVSPropertyOp50
 70
     1
102
RTVSPropertyOp51
 70
     0
102
RTVSPropertyOp52
 70
     0
102
RTVSPropertyOp53
 70
     1
102
RTVSPropertyOp54
 70
     1
102
RTVSPropertyOp55
 70
     1
102
RTVSPropertyOp56
 70
     1
102
RTVSPropertyOp57
 70
     1
102
RTVSPropertyOp58
 70
     1
102
RTVSPropertyOp59
 70
     1
102
RTVSPropertyOp60
 70
     1
102
RTVSPropertyOp61
 70
     1
102
RTVSPropertyOp62
 70
     1
  0
XRECORD
  5
1CED
102
{ACAD_REACTORS
330
1CEC
102
}
330
1CEC
100
AcDbXrecord
280
     1
102
RTVSPost2010Prop28
280
     0
102
RTVSPost2010PropOp28
 70
     1
102
RTVSPost2010Prop29
280
     1
102
RTVSPost2010PropOp29
 70
     1
102
RTVSPost2010Prop30
280
     1
102
RTVSPost2010PropOp30
 70
     1
102
RTVSPost2010Prop31
280
     0
102
RTVSPost2010PropOp31
 70
     1
102
RTVSPost2010Prop32
280
     0
102
RTVSPost2010PropOp32
 70
     1
102
RTVSPost2010Prop33
280
     0
102
RTVSPost2010PropOp33
 70
     1
102
RTVSPost2010Prop34
280
     0
102
RTVSPost2010PropOp34
 70
     1
102
RTVSPost2010Prop35
280
     0
102
RTVSPost2010PropOp35
 70
     1
102
RTVSPost2010Prop36
280
     0
102
RTVSPost2010PropOp36
 70
     1
102
RTVSPost2010Prop37
 90
       50
102
RTVSPost2010PropOp37
 70
     1
102
RTVSPost2010Prop38
140
0.0
102
RTVSPost2010PropOp38
 70
     1
102
RTVSPost2010Prop39
140
1.0
102
RTVSPost2010PropOp39
 70
     1
102
RTVSPost2010Prop40
 90
        0
102
RTVSPost2010PropOp40
 70
     1
102
RTVSPost2010Prop41ColorIndex
 90
       18
102
RTVSPost2010Prop41ColorRGB
 90
        0
102
RTVSPost2010PropOp41
 70
     1
102
RTVSPost2010Prop42
 90
       50
102
RTVSPost2010PropOp42
 70
     1
102
RTVSPost2010Prop43
 90
        3
102
RTVSPost2010PropOp43
 70
     1
102
RTVSPost2010Prop44ColorIndex
 90
        5
102
RTVSPost2010Prop44ColorRGB
 90
      255
102
RTVSPost2010PropOp44
 70
     1
102
RTVSPost2010Prop45
280
     0
102
RTVSPost2010PropOp45
 70
     1
102
RTVSPost2010Prop46
 90
       50
102
RTVSPost2010PropOp46
 70
     1
102
RTVSPost2010Prop47
 90
       50
102
RTVSPost2010PropOp47
 70
     1
102
RTVSPost2010Prop48
 90
       50
102
RTVSPost2010PropOp48
 70
     1
102
RTVSPost2010Prop49
280
     0
102
RTVSPost2010PropOp49
 70
     1
102
RTVSPost2010Prop50
 90
       50
102
RTVSPost2010PropOp50
 70
     1
102
RTVSPost2010Prop51ColorIndex
 90
      256
102
RTVSPost2010Prop51ColorRGB
 90
-16777216
102
RTVSPost2010PropOp51
 70
     0
102
RTVSPost2010Prop52
140
1.0
102
RTVSPost2010PropOp52
 70
     0
102
RTVSPost2010Prop53
 90
        2
102
RTVSPost2010PropOp53
 70
     1
102
RTVSPost2010Prop54
  1
strokes_ogs.tif
102
RTVSPost2010PropOp54
 70
     1
102
RTVSPost2010Prop55
280
     0
102
RTVSPost2010PropOp55
 70
     1
102
RTVSPost2010Prop56
140
1.0
102
RTVSPost2010PropOp56
 70
     1
102
RTVSPost2010Prop57
140
1.0
102
RTVSPost2010PropOp57
 70
     1
102
RTVSPropertyOp0
 70
     1
102
RTVSPropertyOp1
 70
     1
102
RTVSPropertyOp2
 70
     1
102
RTVSPropertyOp3
 70
     1
102
RTVSPropertyOp4
 70
     1
102
RTVSPropertyOp5
 70
     1
102
RTVSPropertyOp6
 70
     1
102
RTVSPropertyOp7
 70
     1
102
RTVSPropertyOp8
 70
     1
102
RTVSPropertyOp9
 70
     1
102
RTVSPropertyOp10
 70
     1
102
RTVSPropertyOp11
 70
     1
102
RTVSPropertyOp12
 70
     1
102
RTVSPropertyOp13
 70
     1
102
RTVSPropertyOp14
 70
     1
102
RTVSPropertyOp15
 70
     1
102
RTVSPropertyOp16
 70
     1
102
RTVSPropertyOp17
 70
     1
102
RTVSPropertyOp18
 70
     1
102
RTVSPropertyOp19
 70
     1
102
RTVSPropertyOp20
 70
     1
102
RTVSPropertyOp21
 70
     1
102
RTVSPropertyOp22
 70
     1
102
RTVSPropertyOp23
 70
     1
102
RTVSPropertyOp24
 70
     1
102
RTVSPropertyOp25
 70
     1
102
RTVSPropertyOp26
 70
     1
102
RTVSPropertyOp27
 70
     1
102
RTVSPropertyOp28
 70
     1
102
RTVSPropertyOp29
 70
     1
102
RTVSPropertyOp30
 70
     1
102
RTVSPropertyOp31
 70
     1
102
RTVSPropertyOp32
 70
     1
102
RTVSPropertyOp33
 70
     1
102
RTVSPropertyOp34
 70
     1
102
RTVSPropertyOp35
 70
     1
102
RTVSPropertyOp36
 70
     1
102
RTVSPropertyOp37
 70
     1
102
RTVSPropertyOp38
 70
     1
102
RTVSPropertyOp39
 70
     1
102
RTVSPropertyOp40
 70
     1
102
RTVSPropertyOp41
 70
     1
102
RTVSPropertyOp42
 70
     1
102
RTVSPropertyOp43
 70
     1
102
RTVSPropertyOp44
 70
     1
102
RTVSPropertyOp45
 70
     1
102
RTVSPropertyOp46
 70
     1
102
RTVSPropertyOp47
 70
     1
102
RTVSPropertyOp48
 70
     1
102
RTVSPropertyOp49
 70
     1
102
RTVSPropertyOp50
 70
     1
102
RTVSPropertyOp51
 70
     0
102
RTVSPropertyOp52
 70
     0
102
RTVSPropertyOp53
 70
     1
102
RTVSPropertyOp54
 70
     1
102
RTVSPropertyOp55
 70
     1
102
RTVSPropertyOp56
 70
     1
102
RTVSPropertyOp57
 70
     1
102
RTVSPropertyOp58
 70
     1
102
RTVSPropertyOp59
 70
     1
102
RTVSPropertyOp60
 70
     1
102
RTVSPropertyOp61
 70
     1
102
RTVSPropertyOp62
 70
     1
  0
XRECORD
  5
1CDF
102
{ACAD_REACTORS
330
1CDE
102
}
330
1CDE
100
AcDbXrecord
280
     1
102
RTVSPost2010Prop28
280
     0
102
RTVSPost2010PropOp28
 70
     1
102
RTVSPost2010Prop29
280
     1
102
RTVSPost2010PropOp29
 70
     1
102
RTVSPost2010Prop30
280
     1
102
RTVSPost2010PropOp30
 70
     1
102
RTVSPost2010Prop31
280
     0
102
RTVSPost2010PropOp31
 70
     1
102
RTVSPost2010Prop32
280
     0
102
RTVSPost2010PropOp32
 70
     1
102
RTVSPost2010Prop33
280
     0
102
RTVSPost2010PropOp33
 70
     1
102
RTVSPost2010Prop34
280
     0
102
RTVSPost2010PropOp34
 70
     1
102
RTVSPost2010Prop35
280
     0
102
RTVSPost2010PropOp35
 70
     1
102
RTVSPost2010Prop36
280
     0
102
RTVSPost2010PropOp36
 70
     1
102
RTVSPost2010Prop37
 90
       50
102
RTVSPost2010PropOp37
 70
     1
102
RTVSPost2010Prop38
140
0.0
102
RTVSPost2010PropOp38
 70
     1
102
RTVSPost2010Prop39
140
1.0
102
RTVSPost2010PropOp39
 70
     1
102
RTVSPost2010Prop40
 90
        0
102
RTVSPost2010PropOp40
 70
     1
102
RTVSPost2010Prop41ColorIndex
 90
       18
102
RTVSPost2010Prop41ColorRGB
 90
        0
102
RTVSPost2010PropOp41
 70
     1
102
RTVSPost2010Prop42
 90
       50
102
RTVSPost2010PropOp42
 70
     1
102
RTVSPost2010Prop43
 90
        3
102
RTVSPost2010PropOp43
 70
     1
102
RTVSPost2010Prop44ColorIndex
 90
        5
102
RTVSPost2010Prop44ColorRGB
 90
      255
102
RTVSPost2010PropOp44
 70
     1
102
RTVSPost2010Prop45
280
     0
102
RTVSPost2010PropOp45
 70
     1
102
RTVSPost2010Prop46
 90
       50
102
RTVSPost2010PropOp46
 70
     1
102
RTVSPost2010Prop47
 90
       50
102
RTVSPost2010PropOp47
 70
     1
102
RTVSPost2010Prop48
 90
       50
102
RTVSPost2010PropOp48
 70
     1
102
RTVSPost2010Prop49
280
     0
102
RTVSPost2010PropOp49
 70
     1
102
RTVSPost2010Prop50
 90
       50
102
RTVSPost2010PropOp50
 70
     1
102
RTVSPost2010Prop51ColorIndex
 90
      256
102
RTVSPost2010Prop51ColorRGB
 90
-16777216
102
RTVSPost2010PropOp51
 70
     0
102
RTVSPost2010Prop52
140
1.0
102
RTVSPost2010PropOp52
 70
     0
102
RTVSPost2010Prop53
 90
        2
102
RTVSPost2010PropOp53
 70
     1
102
RTVSPost2010Prop54
  1
strokes_ogs.tif
102
RTVSPost2010PropOp54
 70
     1
102
RTVSPost2010Prop55
280
     0
102
RTVSPost2010PropOp55
 70
     1
102
RTVSPost2010Prop56
140
1.0
102
RTVSPost2010PropOp56
 70
     1
102
RTVSPost2010Prop57
140
1.0
102
RTVSPost2010PropOp57
 70
     1
102
RTVSPropertyOp0
 70
     1
102
RTVSPropertyOp1
 70
     1
102
RTVSPropertyOp2
 70
     1
102
RTVSPropertyOp3
 70
     1
102
RTVSPropertyOp4
 70
     1
102
RTVSPropertyOp5
 70
     1
102
RTVSPropertyOp6
 70
     1
102
RTVSPropertyOp7
 70
     1
102
RTVSPropertyOp8
 70
     1
102
RTVSPropertyOp9
 70
     1
102
RTVSPropertyOp10
 70
     1
102
RTVSPropertyOp11
 70
     1
102
RTVSPropertyOp12
 70
     1
102
RTVSPropertyOp13
 70
     1
102
RTVSPropertyOp14
 70
     1
102
RTVSPropertyOp15
 70
     1
102
RTVSPropertyOp16
 70
     1
102
RTVSPropertyOp17
 70
     1
102
RTVSPropertyOp18
 70
     1
102
RTVSPropertyOp19
 70
     1
102
RTVSPropertyOp20
 70
     1
102
RTVSPropertyOp21
 70
     1
102
RTVSPropertyOp22
 70
     1
102
RTVSPropertyOp23
 70
     1
102
RTVSPropertyOp24
 70
     1
102
RTVSPropertyOp25
 70
     1
102
RTVSPropertyOp26
 70
     1
102
RTVSPropertyOp27
 70
     1
102
RTVSPropertyOp28
 70
     1
102
RTVSPropertyOp29
 70
     1
102
RTVSPropertyOp30
 70
     1
102
RTVSPropertyOp31
 70
     1
102
RTVSPropertyOp32
 70
     1
102
RTVSPropertyOp33
 70
     1
102
RTVSPropertyOp34
 70
     1
102
RTVSPropertyOp35
 70
     1
102
RTVSPropertyOp36
 70
     1
102
RTVSPropertyOp37
 70
     1
102
RTVSPropertyOp38
 70
     1
102
RTVSPropertyOp39
 70
     1
102
RTVSPropertyOp40
 70
     1
102
RTVSPropertyOp41
 70
     1
102
RTVSPropertyOp42
 70
     1
102
RTVSPropertyOp43
 70
     1
102
RTVSPropertyOp44
 70
     1
102
RTVSPropertyOp45
 70
     1
102
RTVSPropertyOp46
 70
     1
102
RTVSPropertyOp47
 70
     1
102
RTVSPropertyOp48
 70
     1
102
RTVSPropertyOp49
 70
     1
102
RTVSPropertyOp50
 70
     1
102
RTVSPropertyOp51
 70
     0
102
RTVSPropertyOp52
 70
     0
102
RTVSPropertyOp53
 70
     1
102
RTVSPropertyOp54
 70
     1
102
RTVSPropertyOp55
 70
     1
102
RTVSPropertyOp56
 70
     1
102
RTVSPropertyOp57
 70
     1
102
RTVSPropertyOp58
 70
     1
102
RTVSPropertyOp59
 70
     1
102
RTVSPropertyOp60
 70
     1
102
RTVSPropertyOp61
 70
     1
102
RTVSPropertyOp62
 70
     1
  0
XRECORD
  5
1CE3
102
{ACAD_REACTORS
330
1CE2
102
}
330
1CE2
100
AcDbXrecord
280
     1
102
RTVSPost2010Prop28
280
     0
102
RTVSPost2010PropOp28
 70
     1
102
RTVSPost2010Prop29
280
     1
102
RTVSPost2010PropOp29
 70
     1
102
RTVSPost2010Prop30
280
     1
102
RTVSPost2010PropOp30
 70
     1
102
RTVSPost2010Prop31
280
     0
102
RTVSPost2010PropOp31
 70
     1
102
RTVSPost2010Prop32
280
     0
102
RTVSPost2010PropOp32
 70
     1
102
RTVSPost2010Prop33
280
     0
102
RTVSPost2010PropOp33
 70
     1
102
RTVSPost2010Prop34
280
     0
102
RTVSPost2010PropOp34
 70
     1
102
RTVSPost2010Prop35
280
     0
102
RTVSPost2010PropOp35
 70
     1
102
RTVSPost2010Prop36
280
     0
102
RTVSPost2010PropOp36
 70
     1
102
RTVSPost2010Prop37
 90
       50
102
RTVSPost2010PropOp37
 70
     1
102
RTVSPost2010Prop38
140
0.0
102
RTVSPost2010PropOp38
 70
     1
102
RTVSPost2010Prop39
140
1.0
102
RTVSPost2010PropOp39
 70
     1
102
RTVSPost2010Prop40
 90
        0
102
RTVSPost2010PropOp40
 70
     1
102
RTVSPost2010Prop41ColorIndex
 90
       18
102
RTVSPost2010Prop41ColorRGB
 90
        0
102
RTVSPost2010PropOp41
 70
     1
102
RTVSPost2010Prop42
 90
       50
102
RTVSPost2010PropOp42
 70
     1
102
RTVSPost2010Prop43
 90
        3
102
RTVSPost2010PropOp43
 70
     1
102
RTVSPost2010Prop44ColorIndex
 90
        5
102
RTVSPost2010Prop44ColorRGB
 90
      255
102
RTVSPost2010PropOp44
 70
     1
102
RTVSPost2010Prop45
280
     0
102
RTVSPost2010PropOp45
 70
     1
102
RTVSPost2010Prop46
 90
       50
102
RTVSPost2010PropOp46
 70
     1
102
RTVSPost2010Prop47
 90
       50
102
RTVSPost2010PropOp47
 70
     1
102
RTVSPost2010Prop48
 90
       50
102
RTVSPost2010PropOp48
 70
     1
102
RTVSPost2010Prop49
280
     0
102
RTVSPost2010PropOp49
 70
     1
102
RTVSPost2010Prop50
 90
       50
102
RTVSPost2010PropOp50
 70
     1
102
RTVSPost2010Prop51ColorIndex
 90
      256
102
RTVSPost2010Prop51ColorRGB
 90
-16777216
102
RTVSPost2010PropOp51
 70
     0
102
RTVSPost2010Prop52
140
1.0
102
RTVSPost2010PropOp52
 70
     0
102
RTVSPost2010Prop53
 90
        2
102
RTVSPost2010PropOp53
 70
     1
102
RTVSPost2010Prop54
  1
strokes_ogs.tif
102
RTVSPost2010PropOp54
 70
     1
102
RTVSPost2010Prop55
280
     0
102
RTVSPost2010PropOp55
 70
     1
102
RTVSPost2010Prop56
140
1.0
102
RTVSPost2010PropOp56
 70
     1
102
RTVSPost2010Prop57
140
1.0
102
RTVSPost2010PropOp57
 70
     1
102
RTVSPropertyOp0
 70
     1
102
RTVSPropertyOp1
 70
     1
102
RTVSPropertyOp2
 70
     1
102
RTVSPropertyOp3
 70
     1
102
RTVSPropertyOp4
 70
     1
102
RTVSPropertyOp5
 70
     1
102
RTVSPropertyOp6
 70
     1
102
RTVSPropertyOp7
 70
     1
102
RTVSPropertyOp8
 70
     1
102
RTVSPropertyOp9
 70
     1
102
RTVSPropertyOp10
 70
     1
102
RTVSPropertyOp11
 70
     1
102
RTVSPropertyOp12
 70
     1
102
RTVSPropertyOp13
 70
     1
102
RTVSPropertyOp14
 70
     1
102
RTVSPropertyOp15
 70
     1
102
RTVSPropertyOp16
 70
     1
102
RTVSPropertyOp17
 70
     1
102
RTVSPropertyOp18
 70
     1
102
RTVSPropertyOp19
 70
     1
102
RTVSPropertyOp20
 70
     1
102
RTVSPropertyOp21
 70
     1
102
RTVSPropertyOp22
 70
     1
102
RTVSPropertyOp23
 70
     1
102
RTVSPropertyOp24
 70
     1
102
RTVSPropertyOp25
 70
     1
102
RTVSPropertyOp26
 70
     1
102
RTVSPropertyOp27
 70
     1
102
RTVSPropertyOp28
 70
     1
102
RTVSPropertyOp29
 70
     1
102
RTVSPropertyOp30
 70
     1
102
RTVSPropertyOp31
 70
     1
102
RTVSPropertyOp32
 70
     1
102
RTVSPropertyOp33
 70
     1
102
RTVSPropertyOp34
 70
     1
102
RTVSPropertyOp35
 70
     1
102
RTVSPropertyOp36
 70
     1
102
RTVSPropertyOp37
 70
     1
102
RTVSPropertyOp38
 70
     1
102
RTVSPropertyOp39
 70
     1
102
RTVSPropertyOp40
 70
     1
102
RTVSPropertyOp41
 70
     1
102
RTVSPropertyOp42
 70
     1
102
RTVSPropertyOp43
 70
     1
102
RTVSPropertyOp44
 70
     1
102
RTVSPropertyOp45
 70
     1
102
RTVSPropertyOp46
 70
     1
102
RTVSPropertyOp47
 70
     1
102
RTVSPropertyOp48
 70
     1
102
RTVSPropertyOp49
 70
     1
102
RTVSPropertyOp50
 70
     1
102
RTVSPropertyOp51
 70
     0
102
RTVSPropertyOp52
 70
     0
102
RTVSPropertyOp53
 70
     1
102
RTVSPropertyOp54
 70
     1
102
RTVSPropertyOp55
 70
     1
102
RTVSPropertyOp56
 70
     1
102
RTVSPropertyOp57
 70
     1
102
RTVSPropertyOp58
 70
     1
102
RTVSPropertyOp59
 70
     1
102
RTVSPropertyOp60
 70
     1
102
RTVSPropertyOp61
 70
     1
102
RTVSPropertyOp62
 70
     1
  0
XRECORD
  5
1CFD
102
{ACAD_REACTORS
330
1CFC
102
}
330
1CFC
100
AcDbXrecord
280
     1
102
RTVSPost2010Prop28
280
     0
102
RTVSPost2010PropOp28
 70
     1
102
RTVSPost2010Prop29
280
     1
102
RTVSPost2010PropOp29
 70
     1
102
RTVSPost2010Prop30
280
     1
102
RTVSPost2010PropOp30
 70
     1
102
RTVSPost2010Prop31
280
     0
102
RTVSPost2010PropOp31
 70
     1
102
RTVSPost2010Prop32
280
     0
102
RTVSPost2010PropOp32
 70
     1
102
RTVSPost2010Prop33
280
     0
102
RTVSPost2010PropOp33
 70
     1
102
RTVSPost2010Prop34
280
     0
102
RTVSPost2010PropOp34
 70
     1
102
RTVSPost2010Prop35
280
     0
102
RTVSPost2010PropOp35
 70
     1
102
RTVSPost2010Prop36
280
     0
102
RTVSPost2010PropOp36
 70
     1
102
RTVSPost2010Prop37
 90
       50
102
RTVSPost2010PropOp37
 70
     0
102
RTVSPost2010Prop38
140
0.0
102
RTVSPost2010PropOp38
 70
     0
102
RTVSPost2010Prop39
140
1.0
102
RTVSPost2010PropOp39
 70
     0
102
RTVSPost2010Prop40
 90
        0
102
RTVSPost2010PropOp40
 70
     0
102
RTVSPost2010Prop41ColorIndex
 90
       18
102
RTVSPost2010Prop41ColorRGB
 90
        0
102
RTVSPost2010PropOp41
 70
     0
102
RTVSPost2010Prop42
 90
       50
102
RTVSPost2010PropOp42
 70
     0
102
RTVSPost2010Prop43
 90
        3
102
RTVSPost2010PropOp43
 70
     0
102
RTVSPost2010Prop44ColorIndex
 90
        5
102
RTVSPost2010Prop44ColorRGB
 90
      255
102
RTVSPost2010PropOp44
 70
     0
102
RTVSPost2010Prop45
280
     0
102
RTVSPost2010PropOp45
 70
     1
102
RTVSPost2010Prop46
 90
       50
102
RTVSPost2010PropOp46
 70
     0
102
RTVSPost2010Prop47
 90
       50
102
RTVSPost2010PropOp47
 70
     0
102
RTVSPost2010Prop48
 90
       50
102
RTVSPost2010PropOp48
 70
     0
102
RTVSPost2010Prop49
280
     0
102
RTVSPost2010PropOp49
 70
     1
102
RTVSPost2010Prop50
 90
       50
102
RTVSPost2010PropOp50
 70
     0
102
RTVSPost2010Prop51ColorIndex
 90
      256
102
RTVSPost2010Prop51ColorRGB
 90
-16777216
102
RTVSPost2010PropOp51
 70
     0
102
RTVSPost2010Prop52
140
1.0
102
RTVSPost2010PropOp52
 70
     0
102
RTVSPost2010Prop53
 90
        2
102
RTVSPost2010PropOp53
 70
     0
102
RTVSPost2010Prop54
  1
strokes_ogs.tif
102
RTVSPost2010PropOp54
 70
     0
102
RTVSPost2010Prop55
280
     0
102
RTVSPost2010PropOp55
 70
     1
102
RTVSPost2010Prop56
140
1.0
102
RTVSPost2010PropOp56
 70
     0
102
RTVSPost2010Prop57
140
1.0
102
RTVSPost2010PropOp57
 70
     0
102
RTVSPropertyOp0
 70
     0
102
RTVSPropertyOp1
 70
     0
102
RTVSPropertyOp2
 70
     0
102
RTVSPropertyOp3
 70
     0
102
RTVSPropertyOp4
 70
     0
102
RTVSPropertyOp5
 70
     0
102
RTVSPropertyOp6
 70
     0
102
RTVSPropertyOp7
 70
     0
102
RTVSPropertyOp8
 70
     0
102
RTVSPropertyOp9
 70
     0
102
RTVSPropertyOp10
 70
     0
102
RTVSPropertyOp11
 70
     0
102
RTVSPropertyOp12
 70
     0
102
RTVSPropertyOp13
 70
     0
102
RTVSPropertyOp14
 70
     2
102
RTVSPropertyOp15
 70
     0
102
RTVSPropertyOp16
 70
     0
102
RTVSPropertyOp17
 70
     0
102
RTVSPropertyOp18
 70
     0
102
RTVSPropertyOp19
 70
     0
102
RTVSPropertyOp20
 70
     0
102
RTVSPropertyOp21
 70
     0
102
RTVSPropertyOp22
 70
     0
102
RTVSPropertyOp23
 70
     0
102
RTVSPropertyOp24
 70
     0
102
RTVSPropertyOp25
 70
     0
102
RTVSPropertyOp26
 70
     0
102
RTVSPropertyOp27
 70
     0
102
RTVSPropertyOp28
 70
     1
102
RTVSPropertyOp29
 70
     1
102
RTVSPropertyOp30
 70
     1
102
RTVSPropertyOp31
 70
     1
102
RTVSPropertyOp32
 70
     1
102
RTVSPropertyOp33
 70
     1
102
RTVSPropertyOp34
 70
     1
102
RTVSPropertyOp35
 70
     1
102
RTVSPropertyOp36
 70
     1
102
RTVSPropertyOp37
 70
     0
102
RTVSPropertyOp38
 70
     0
102
RTVSPropertyOp39
 70
     0
102
RTVSPropertyOp40
 70
     0
102
RTVSPropertyOp41
 70
     0
102
RTVSPropertyOp42
 70
     0
102
RTVSPropertyOp43
 70
     0
102
RTVSPropertyOp44
 70
     0
102
RTVSPropertyOp45
 70
     1
102
RTVSPropertyOp46
 70
     0
102
RTVSPropertyOp47
 70
     0
102
RTVSPropertyOp48
 70
     0
102
RTVSPropertyOp49
 70
     1
102
RTVSPropertyOp50
 70
     0
102
RTVSPropertyOp51
 70
     0
102
RTVSPropertyOp52
 70
     0
102
RTVSPropertyOp53
 70
     0
102
RTVSPropertyOp54
 70
     0
102
RTVSPropertyOp55
 70
     1
102
RTVSPropertyOp56
 70
     0
102
RTVSPropertyOp57
 70
     0
102
RTVSPropertyOp58
 70
     0
102
RTVSPropertyOp59
 70
     0
102
RTVSPropertyOp60
 70
     0
102
RTVSPropertyOp61
 70
     0
102
RTVSPropertyOp62
 70
     0
  0
XRECORD
  5
1CEB
102
{ACAD_REACTORS
330
1CEA
102
}
330
1CEA
100
AcDbXrecord
280
     1
102
RTVSPost2010Prop28
280
     0
102
RTVSPost2010PropOp28
 70
     1
102
RTVSPost2010Prop29
280
     1
102
RTVSPost2010PropOp29
 70
     1
102
RTVSPost2010Prop30
280
     1
102
RTVSPost2010PropOp30
 70
     1
102
RTVSPost2010Prop31
280
     0
102
RTVSPost2010PropOp31
 70
     1
102
RTVSPost2010Prop32
280
     0
102
RTVSPost2010PropOp32
 70
     1
102
RTVSPost2010Prop33
280
     0
102
RTVSPost2010PropOp33
 70
     1
102
RTVSPost2010Prop34
280
     0
102
RTVSPost2010PropOp34
 70
     1
102
RTVSPost2010Prop35
280
     0
102
RTVSPost2010PropOp35
 70
     1
102
RTVSPost2010Prop36
280
     0
102
RTVSPost2010PropOp36
 70
     1
102
RTVSPost2010Prop37
 90
       50
102
RTVSPost2010PropOp37
 70
     1
102
RTVSPost2010Prop38
140
0.0
102
RTVSPost2010PropOp38
 70
     1
102
RTVSPost2010Prop39
140
1.0
102
RTVSPost2010PropOp39
 70
     1
102
RTVSPost2010Prop40
 90
        0
102
RTVSPost2010PropOp40
 70
     1
102
RTVSPost2010Prop41ColorIndex
 90
       18
102
RTVSPost2010Prop41ColorRGB
 90
        0
102
RTVSPost2010PropOp41
 70
     1
102
RTVSPost2010Prop42
 90
       50
102
RTVSPost2010PropOp42
 70
     1
102
RTVSPost2010Prop43
 90
        3
102
RTVSPost2010PropOp43
 70
     1
102
RTVSPost2010Prop44ColorIndex
 90
        5
102
RTVSPost2010Prop44ColorRGB
 90
      255
102
RTVSPost2010PropOp44
 70
     1
102
RTVSPost2010Prop45
280
     0
102
RTVSPost2010PropOp45
 70
     1
102
RTVSPost2010Prop46
 90
       50
102
RTVSPost2010PropOp46
 70
     1
102
RTVSPost2010Prop47
 90
       50
102
RTVSPost2010PropOp47
 70
     1
102
RTVSPost2010Prop48
 90
       50
102
RTVSPost2010PropOp48
 70
     1
102
RTVSPost2010Prop49
280
     0
102
RTVSPost2010PropOp49
 70
     1
102
RTVSPost2010Prop50
 90
       50
102
RTVSPost2010PropOp50
 70
     1
102
RTVSPost2010Prop51ColorIndex
 90
      256
102
RTVSPost2010Prop51ColorRGB
 90
-16777216
102
RTVSPost2010PropOp51
 70
     0
102
RTVSPost2010Prop52
140
1.0
102
RTVSPost2010PropOp52
 70
     0
102
RTVSPost2010Prop53
 90
        2
102
RTVSPost2010PropOp53
 70
     1
102
RTVSPost2010Prop54
  1
strokes_ogs.tif
102
RTVSPost2010PropOp54
 70
     1
102
RTVSPost2010Prop55
280
     0
102
RTVSPost2010PropOp55
 70
     1
102
RTVSPost2010Prop56
140
1.0
102
RTVSPost2010PropOp56
 70
     1
102
RTVSPost2010Prop57
140
1.0
102
RTVSPost2010PropOp57
 70
     1
102
RTVSPropertyOp0
 70
     1
102
RTVSPropertyOp1
 70
     1
102
RTVSPropertyOp2
 70
     1
102
RTVSPropertyOp3
 70
     1
102
RTVSPropertyOp4
 70
     1
102
RTVSPropertyOp5
 70
     1
102
RTVSPropertyOp6
 70
     1
102
RTVSPropertyOp7
 70
     1
102
RTVSPropertyOp8
 70
     1
102
RTVSPropertyOp9
 70
     1
102
RTVSPropertyOp10
 70
     1
102
RTVSPropertyOp11
 70
     1
102
RTVSPropertyOp12
 70
     1
102
RTVSPropertyOp13
 70
     1
102
RTVSPropertyOp14
 70
     1
102
RTVSPropertyOp15
 70
     1
102
RTVSPropertyOp16
 70
     1
102
RTVSPropertyOp17
 70
     1
102
RTVSPropertyOp18
 70
     1
102
RTVSPropertyOp19
 70
     1
102
RTVSPropertyOp20
 70
     1
102
RTVSPropertyOp21
 70
     1
102
RTVSPropertyOp22
 70
     1
102
RTVSPropertyOp23
 70
     1
102
RTVSPropertyOp24
 70
     1
102
RTVSPropertyOp25
 70
     1
102
RTVSPropertyOp26
 70
     1
102
RTVSPropertyOp27
 70
     1
102
RTVSPropertyOp28
 70
     1
102
RTVSPropertyOp29
 70
     1
102
RTVSPropertyOp30
 70
     1
102
RTVSPropertyOp31
 70
     1
102
RTVSPropertyOp32
 70
     1
102
RTVSPropertyOp33
 70
     1
102
RTVSPropertyOp34
 70
     1
102
RTVSPropertyOp35
 70
     1
102
RTVSPropertyOp36
 70
     1
102
RTVSPropertyOp37
 70
     1
102
RTVSPropertyOp38
 70
     1
102
RTVSPropertyOp39
 70
     1
102
RTVSPropertyOp40
 70
     1
102
RTVSPropertyOp41
 70
     1
102
RTVSPropertyOp42
 70
     1
102
RTVSPropertyOp43
 70
     1
102
RTVSPropertyOp44
 70
     1
102
RTVSPropertyOp45
 70
     1
102
RTVSPropertyOp46
 70
     1
102
RTVSPropertyOp47
 70
     1
102
RTVSPropertyOp48
 70
     1
102
RTVSPropertyOp49
 70
     1
102
RTVSPropertyOp50
 70
     1
102
RTVSPropertyOp51
 70
     0
102
RTVSPropertyOp52
 70
     0
102
RTVSPropertyOp53
 70
     1
102
RTVSPropertyOp54
 70
     1
102
RTVSPropertyOp55
 70
     1
102
RTVSPropertyOp56
 70
     1
102
RTVSPropertyOp57
 70
     1
102
RTVSPropertyOp58
 70
     1
102
RTVSPropertyOp59
 70
     1
102
RTVSPropertyOp60
 70
     1
102
RTVSPropertyOp61
 70
     1
102
RTVSPropertyOp62
 70
     1
  0
XRECORD
  5
1CCF
102
{ACAD_REACTORS
330
1CCE
102
}
330
1CCE
100
AcDbXrecord
280
     1
102
RTVSPost2010Prop28
280
     0
102
RTVSPost2010PropOp28
 70
     1
102
RTVSPost2010Prop29
280
     1
102
RTVSPost2010PropOp29
 70
     1
102
RTVSPost2010Prop30
280
     1
102
RTVSPost2010PropOp30
 70
     1
102
RTVSPost2010Prop31
280
     0
102
RTVSPost2010PropOp31
 70
     1
102
RTVSPost2010Prop32
280
     0
102
RTVSPost2010PropOp32
 70
     1
102
RTVSPost2010Prop33
280
     0
102
RTVSPost2010PropOp33
 70
     1
102
RTVSPost2010Prop34
280
     0
102
RTVSPost2010PropOp34
 70
     1
102
RTVSPost2010Prop35
280
     0
102
RTVSPost2010PropOp35
 70
     1
102
RTVSPost2010Prop36
280
     0
102
RTVSPost2010PropOp36
 70
     1
102
RTVSPost2010Prop37
 90
       50
102
RTVSPost2010PropOp37
 70
     1
102
RTVSPost2010Prop38
140
0.0
102
RTVSPost2010PropOp38
 70
     1
102
RTVSPost2010Prop39
140
1.0
102
RTVSPost2010PropOp39
 70
     1
102
RTVSPost2010Prop40
 90
        0
102
RTVSPost2010PropOp40
 70
     1
102
RTVSPost2010Prop41ColorIndex
 90
       18
102
RTVSPost2010Prop41ColorRGB
 90
        0
102
RTVSPost2010PropOp41
 70
     1
102
RTVSPost2010Prop42
 90
       50
102
RTVSPost2010PropOp42
 70
     1
102
RTVSPost2010Prop43
 90
        3
102
RTVSPost2010PropOp43
 70
     1
102
RTVSPost2010Prop44ColorIndex
 90
        5
102
RTVSPost2010Prop44ColorRGB
 90
      255
102
RTVSPost2010PropOp44
 70
     1
102
RTVSPost2010Prop45
280
     0
102
RTVSPost2010PropOp45
 70
     1
102
RTVSPost2010Prop46
 90
       50
102
RTVSPost2010PropOp46
 70
     1
102
RTVSPost2010Prop47
 90
       50
102
RTVSPost2010PropOp47
 70
     1
102
RTVSPost2010Prop48
 90
       50
102
RTVSPost2010PropOp48
 70
     1
102
RTVSPost2010Prop49
280
     0
102
RTVSPost2010PropOp49
 70
     1
102
RTVSPost2010Prop50
 90
       50
102
RTVSPost2010PropOp50
 70
     1
102
RTVSPost2010Prop51ColorIndex
 90
      256
102
RTVSPost2010Prop51ColorRGB
 90
-16777216
102
RTVSPost2010PropOp51
 70
     0
102
RTVSPost2010Prop52
140
1.0
102
RTVSPost2010PropOp52
 70
     0
102
RTVSPost2010Prop53
 90
        2
102
RTVSPost2010PropOp53
 70
     1
102
RTVSPost2010Prop54
  1
strokes_ogs.tif
102
RTVSPost2010PropOp54
 70
     1
102
RTVSPost2010Prop55
280
     0
102
RTVSPost2010PropOp55
 70
     1
102
RTVSPost2010Prop56
140
1.0
102
RTVSPost2010PropOp56
 70
     1
102
RTVSPost2010Prop57
140
1.0
102
RTVSPost2010PropOp57
 70
     1
102
RTVSPropertyOp0
 70
     1
102
RTVSPropertyOp1
 70
     1
102
RTVSPropertyOp2
 70
     1
102
RTVSPropertyOp3
 70
     1
102
RTVSPropertyOp4
 70
     1
102
RTVSPropertyOp5
 70
     1
102
RTVSPropertyOp6
 70
     1
102
RTVSPropertyOp7
 70
     1
102
RTVSPropertyOp8
 70
     1
102
RTVSPropertyOp9
 70
     1
102
RTVSPropertyOp10
 70
     1
102
RTVSPropertyOp11
 70
     1
102
RTVSPropertyOp12
 70
     1
102
RTVSPropertyOp13
 70
     1
102
RTVSPropertyOp14
 70
     1
102
RTVSPropertyOp15
 70
     1
102
RTVSPropertyOp16
 70
     1
102
RTVSPropertyOp17
 70
     1
102
RTVSPropertyOp18
 70
     1
102
RTVSPropertyOp19
 70
     1
102
RTVSPropertyOp20
 70
     1
102
RTVSPropertyOp21
 70
     1
102
RTVSPropertyOp22
 70
     1
102
RTVSPropertyOp23
 70
     1
102
RTVSPropertyOp24
 70
     1
102
RTVSPropertyOp25
 70
     1
102
RTVSPropertyOp26
 70
     1
102
RTVSPropertyOp27
 70
     1
102
RTVSPropertyOp28
 70
     1
102
RTVSPropertyOp29
 70
     1
102
RTVSPropertyOp30
 70
     1
102
RTVSPropertyOp31
 70
     1
102
RTVSPropertyOp32
 70
     1
102
RTVSPropertyOp33
 70
     1
102
RTVSPropertyOp34
 70
     1
102
RTVSPropertyOp35
 70
     1
102
RTVSPropertyOp36
 70
     1
102
RTVSPropertyOp37
 70
     1
102
RTVSPropertyOp38
 70
     1
102
RTVSPropertyOp39
 70
     1
102
RTVSPropertyOp40
 70
     1
102
RTVSPropertyOp41
 70
     1
102
RTVSPropertyOp42
 70
     1
102
RTVSPropertyOp43
 70
     1
102
RTVSPropertyOp44
 70
     1
102
RTVSPropertyOp45
 70
     1
102
RTVSPropertyOp46
 70
     1
102
RTVSPropertyOp47
 70
     1
102
RTVSPropertyOp48
 70
     1
102
RTVSPropertyOp49
 70
     1
102
RTVSPropertyOp50
 70
     1
102
RTVSPropertyOp51
 70
     0
102
RTVSPropertyOp52
 70
     0
102
RTVSPropertyOp53
 70
     1
102
RTVSPropertyOp54
 70
     1
102
RTVSPropertyOp55
 70
     1
102
RTVSPropertyOp56
 70
     1
102
RTVSPropertyOp57
 70
     1
102
RTVSPropertyOp58
 70
     1
102
RTVSPropertyOp59
 70
     1
102
RTVSPropertyOp60
 70
     1
102
RTVSPropertyOp61
 70
     1
102
RTVSPropertyOp62
 70
     1
  0
XRECORD
  5
1CD1
102
{ACAD_REACTORS
330
1CD0
102
}
330
1CD0
100
AcDbXrecord
280
     1
102
RTVSPost2010Prop28
280
     0
102
RTVSPost2010PropOp28
 70
     1
102
RTVSPost2010Prop29
280
     1
102
RTVSPost2010PropOp29
 70
     1
102
RTVSPost2010Prop30
280
     1
102
RTVSPost2010PropOp30
 70
     1
102
RTVSPost2010Prop31
280
     0
102
RTVSPost2010PropOp31
 70
     1
102
RTVSPost2010Prop32
280
     0
102
RTVSPost2010PropOp32
 70
     1
102
RTVSPost2010Prop33
280
     0
102
RTVSPost2010PropOp33
 70
     1
102
RTVSPost2010Prop34
280
     0
102
RTVSPost2010PropOp34
 70
     1
102
RTVSPost2010Prop35
280
     0
102
RTVSPost2010PropOp35
 70
     1
102
RTVSPost2010Prop36
280
     0
102
RTVSPost2010PropOp36
 70
     1
102
RTVSPost2010Prop37
 90
       50
102
RTVSPost2010PropOp37
 70
     1
102
RTVSPost2010Prop38
140
0.0
102
RTVSPost2010PropOp38
 70
     1
102
RTVSPost2010Prop39
140
1.0
102
RTVSPost2010PropOp39
 70
     1
102
RTVSPost2010Prop40
 90
        0
102
RTVSPost2010PropOp40
 70
     1
102
RTVSPost2010Prop41ColorIndex
 90
       18
102
RTVSPost2010Prop41ColorRGB
 90
        0
102
RTVSPost2010PropOp41
 70
     1
102
RTVSPost2010Prop42
 90
       50
102
RTVSPost2010PropOp42
 70
     1
102
RTVSPost2010Prop43
 90
        3
102
RTVSPost2010PropOp43
 70
     1
102
RTVSPost2010Prop44ColorIndex
 90
        5
102
RTVSPost2010Prop44ColorRGB
 90
      255
102
RTVSPost2010PropOp44
 70
     1
102
RTVSPost2010Prop45
280
     0
102
RTVSPost2010PropOp45
 70
     1
102
RTVSPost2010Prop46
 90
       50
102
RTVSPost2010PropOp46
 70
     1
102
RTVSPost2010Prop47
 90
       50
102
RTVSPost2010PropOp47
 70
     1
102
RTVSPost2010Prop48
 90
       50
102
RTVSPost2010PropOp48
 70
     1
102
RTVSPost2010Prop49
280
     0
102
RTVSPost2010PropOp49
 70
     1
102
RTVSPost2010Prop50
 90
       50
102
RTVSPost2010PropOp50
 70
     1
102
RTVSPost2010Prop51ColorIndex
 90
      256
102
RTVSPost2010Prop51ColorRGB
 90
-16777216
102
RTVSPost2010PropOp51
 70
     0
102
RTVSPost2010Prop52
140
1.0
102
RTVSPost2010PropOp52
 70
     0
102
RTVSPost2010Prop53
 90
        2
102
RTVSPost2010PropOp53
 70
     1
102
RTVSPost2010Prop54
  1
strokes_ogs.tif
102
RTVSPost2010PropOp54
 70
     1
102
RTVSPost2010Prop55
280
     0
102
RTVSPost2010PropOp55
 70
     1
102
RTVSPost2010Prop56
140
1.0
102
RTVSPost2010PropOp56
 70
     1
102
RTVSPost2010Prop57
140
1.0
102
RTVSPost2010PropOp57
 70
     1
102
RTVSPropertyOp0
 70
     1
102
RTVSPropertyOp1
 70
     1
102
RTVSPropertyOp2
 70
     1
102
RTVSPropertyOp3
 70
     1
102
RTVSPropertyOp4
 70
     1
102
RTVSPropertyOp5
 70
     1
102
RTVSPropertyOp6
 70
     1
102
RTVSPropertyOp7
 70
     1
102
RTVSPropertyOp8
 70
     1
102
RTVSPropertyOp9
 70
     1
102
RTVSPropertyOp10
 70
     1
102
RTVSPropertyOp11
 70
     1
102
RTVSPropertyOp12
 70
     1
102
RTVSPropertyOp13
 70
     1
102
RTVSPropertyOp14
 70
     1
102
RTVSPropertyOp15
 70
     1
102
RTVSPropertyOp16
 70
     1
102
RTVSPropertyOp17
 70
     1
102
RTVSPropertyOp18
 70
     1
102
RTVSPropertyOp19
 70
     1
102
RTVSPropertyOp20
 70
     1
102
RTVSPropertyOp21
 70
     1
102
RTVSPropertyOp22
 70
     1
102
RTVSPropertyOp23
 70
     1
102
RTVSPropertyOp24
 70
     1
102
RTVSPropertyOp25
 70
     1
102
RTVSPropertyOp26
 70
     1
102
RTVSPropertyOp27
 70
     1
102
RTVSPropertyOp28
 70
     1
102
RTVSPropertyOp29
 70
     1
102
RTVSPropertyOp30
 70
     1
102
RTVSPropertyOp31
 70
     1
102
RTVSPropertyOp32
 70
     1
102
RTVSPropertyOp33
 70
     1
102
RTVSPropertyOp34
 70
     1
102
RTVSPropertyOp35
 70
     1
102
RTVSPropertyOp36
 70
     1
102
RTVSPropertyOp37
 70
     1
102
RTVSPropertyOp38
 70
     1
102
RTVSPropertyOp39
 70
     1
102
RTVSPropertyOp40
 70
     1
102
RTVSPropertyOp41
 70
     1
102
RTVSPropertyOp42
 70
     1
102
RTVSPropertyOp43
 70
     1
102
RTVSPropertyOp44
 70
     1
102
RTVSPropertyOp45
 70
     1
102
RTVSPropertyOp46
 70
     1
102
RTVSPropertyOp47
 70
     1
102
RTVSPropertyOp48
 70
     1
102
RTVSPropertyOp49
 70
     1
102
RTVSPropertyOp50
 70
     1
102
RTVSPropertyOp51
 70
     0
102
RTVSPropertyOp52
 70
     0
102
RTVSPropertyOp53
 70
     1
102
RTVSPropertyOp54
 70
     1
102
RTVSPropertyOp55
 70
     1
102
RTVSPropertyOp56
 70
     1
102
RTVSPropertyOp57
 70
     1
102
RTVSPropertyOp58
 70
     1
102
RTVSPropertyOp59
 70
     1
102
RTVSPropertyOp60
 70
     1
102
RTVSPropertyOp61
 70
     1
102
RTVSPropertyOp62
 70
     1
  0
XRECORD
  5
1CD3
102
{ACAD_REACTORS
330
1CD2
102
}
330
1CD2
100
AcDbXrecord
280
     1
102
RTVSPost2010Prop28
280
     0
102
RTVSPost2010PropOp28
 70
     1
102
RTVSPost2010Prop29
280
     1
102
RTVSPost2010PropOp29
 70
     1
102
RTVSPost2010Prop30
280
     1
102
RTVSPost2010PropOp30
 70
     1
102
RTVSPost2010Prop31
280
     0
102
RTVSPost2010PropOp31
 70
     1
102
RTVSPost2010Prop32
280
     0
102
RTVSPost2010PropOp32
 70
     1
102
RTVSPost2010Prop33
280
     0
102
RTVSPost2010PropOp33
 70
     1
102
RTVSPost2010Prop34
280
     0
102
RTVSPost2010PropOp34
 70
     1
102
RTVSPost2010Prop35
280
     0
102
RTVSPost2010PropOp35
 70
     1
102
RTVSPost2010Prop36
280
     0
102
RTVSPost2010PropOp36
 70
     1
102
RTVSPost2010Prop37
 90
       50
102
RTVSPost2010PropOp37
 70
     1
102
RTVSPost2010Prop38
140
0.0
102
RTVSPost2010PropOp38
 70
     1
102
RTVSPost2010Prop39
140
1.0
102
RTVSPost2010PropOp39
 70
     1
102
RTVSPost2010Prop40
 90
        0
102
RTVSPost2010PropOp40
 70
     1
102
RTVSPost2010Prop41ColorIndex
 90
       18
102
RTVSPost2010Prop41ColorRGB
 90
        0
102
RTVSPost2010PropOp41
 70
     1
102
RTVSPost2010Prop42
 90
       50
102
RTVSPost2010PropOp42
 70
     1
102
RTVSPost2010Prop43
 90
        3
102
RTVSPost2010PropOp43
 70
     1
102
RTVSPost2010Prop44ColorIndex
 90
        5
102
RTVSPost2010Prop44ColorRGB
 90
      255
102
RTVSPost2010PropOp44
 70
     1
102
RTVSPost2010Prop45
280
     0
102
RTVSPost2010PropOp45
 70
     1
102
RTVSPost2010Prop46
 90
       50
102
RTVSPost2010PropOp46
 70
     1
102
RTVSPost2010Prop47
 90
       50
102
RTVSPost2010PropOp47
 70
     1
102
RTVSPost2010Prop48
 90
       50
102
RTVSPost2010PropOp48
 70
     1
102
RTVSPost2010Prop49
280
     0
102
RTVSPost2010PropOp49
 70
     1
102
RTVSPost2010Prop50
 90
       50
102
RTVSPost2010PropOp50
 70
     1
102
RTVSPost2010Prop51ColorIndex
 90
      256
102
RTVSPost2010Prop51ColorRGB
 90
-16777216
102
RTVSPost2010PropOp51
 70
     0
102
RTVSPost2010Prop52
140
1.0
102
RTVSPost2010PropOp52
 70
     0
102
RTVSPost2010Prop53
 90
        2
102
RTVSPost2010PropOp53
 70
     1
102
RTVSPost2010Prop54
  1
strokes_ogs.tif
102
RTVSPost2010PropOp54
 70
     1
102
RTVSPost2010Prop55
280
     0
102
RTVSPost2010PropOp55
 70
     1
102
RTVSPost2010Prop56
140
1.0
102
RTVSPost2010PropOp56
 70
     1
102
RTVSPost2010Prop57
140
1.0
102
RTVSPost2010PropOp57
 70
     1
102
RTVSPropertyOp0
 70
     1
102
RTVSPropertyOp1
 70
     1
102
RTVSPropertyOp2
 70
     1
102
RTVSPropertyOp3
 70
     1
102
RTVSPropertyOp4
 70
     1
102
RTVSPropertyOp5
 70
     1
102
RTVSPropertyOp6
 70
     1
102
RTVSPropertyOp7
 70
     1
102
RTVSPropertyOp8
 70
     1
102
RTVSPropertyOp9
 70
     1
102
RTVSPropertyOp10
 70
     1
102
RTVSPropertyOp11
 70
     1
102
RTVSPropertyOp12
 70
     1
102
RTVSPropertyOp13
 70
     1
102
RTVSPropertyOp14
 70
     1
102
RTVSPropertyOp15
 70
     1
102
RTVSPropertyOp16
 70
     1
102
RTVSPropertyOp17
 70
     1
102
RTVSPropertyOp18
 70
     1
102
RTVSPropertyOp19
 70
     1
102
RTVSPropertyOp20
 70
     1
102
RTVSPropertyOp21
 70
     1
102
RTVSPropertyOp22
 70
     1
102
RTVSPropertyOp23
 70
     1
102
RTVSPropertyOp24
 70
     1
102
RTVSPropertyOp25
 70
     1
102
RTVSPropertyOp26
 70
     1
102
RTVSPropertyOp27
 70
     1
102
RTVSPropertyOp28
 70
     1
102
RTVSPropertyOp29
 70
     1
102
RTVSPropertyOp30
 70
     1
102
RTVSPropertyOp31
 70
     1
102
RTVSPropertyOp32
 70
     1
102
RTVSPropertyOp33
 70
     1
102
RTVSPropertyOp34
 70
     1
102
RTVSPropertyOp35
 70
     1
102
RTVSPropertyOp36
 70
     1
102
RTVSPropertyOp37
 70
     1
102
RTVSPropertyOp38
 70
     1
102
RTVSPropertyOp39
 70
     1
102
RTVSPropertyOp40
 70
     1
102
RTVSPropertyOp41
 70
     1
102
RTVSPropertyOp42
 70
     1
102
RTVSPropertyOp43
 70
     1
102
RTVSPropertyOp44
 70
     1
102
RTVSPropertyOp45
 70
     1
102
RTVSPropertyOp46
 70
     1
102
RTVSPropertyOp47
 70
     1
102
RTVSPropertyOp48
 70
     1
102
RTVSPropertyOp49
 70
     1
102
RTVSPropertyOp50
 70
     1
102
RTVSPropertyOp51
 70
     0
102
RTVSPropertyOp52
 70
     0
102
RTVSPropertyOp53
 70
     1
102
RTVSPropertyOp54
 70
     1
102
RTVSPropertyOp55
 70
     1
102
RTVSPropertyOp56
 70
     1
102
RTVSPropertyOp57
 70
     1
102
RTVSPropertyOp58
 70
     1
102
RTVSPropertyOp59
 70
     1
102
RTVSPropertyOp60
 70
     1
102
RTVSPropertyOp61
 70
     1
102
RTVSPropertyOp62
 70
     1
  0
XRECORD
  5
1CD5
102
{ACAD_REACTORS
330
1CD4
102
}
330
1CD4
100
AcDbXrecord
280
     1
102
RTVSPost2010Prop28
280
     0
102
RTVSPost2010PropOp28
 70
     1
102
RTVSPost2010Prop29
280
     1
102
RTVSPost2010PropOp29
 70
     1
102
RTVSPost2010Prop30
280
     1
102
RTVSPost2010PropOp30
 70
     1
102
RTVSPost2010Prop31
280
     0
102
RTVSPost2010PropOp31
 70
     1
102
RTVSPost2010Prop32
280
     0
102
RTVSPost2010PropOp32
 70
     1
102
RTVSPost2010Prop33
280
     0
102
RTVSPost2010PropOp33
 70
     1
102
RTVSPost2010Prop34
280
     0
102
RTVSPost2010PropOp34
 70
     1
102
RTVSPost2010Prop35
280
     0
102
RTVSPost2010PropOp35
 70
     1
102
RTVSPost2010Prop36
280
     0
102
RTVSPost2010PropOp36
 70
     1
102
RTVSPost2010Prop37
 90
       50
102
RTVSPost2010PropOp37
 70
     1
102
RTVSPost2010Prop38
140
0.0
102
RTVSPost2010PropOp38
 70
     1
102
RTVSPost2010Prop39
140
1.0
102
RTVSPost2010PropOp39
 70
     1
102
RTVSPost2010Prop40
 90
        0
102
RTVSPost2010PropOp40
 70
     1
102
RTVSPost2010Prop41ColorIndex
 90
       18
102
RTVSPost2010Prop41ColorRGB
 90
        0
102
RTVSPost2010PropOp41
 70
     1
102
RTVSPost2010Prop42
 90
       50
102
RTVSPost2010PropOp42
 70
     1
102
RTVSPost2010Prop43
 90
        3
102
RTVSPost2010PropOp43
 70
     1
102
RTVSPost2010Prop44ColorIndex
 90
        5
102
RTVSPost2010Prop44ColorRGB
 90
      255
102
RTVSPost2010PropOp44
 70
     1
102
RTVSPost2010Prop45
280
     0
102
RTVSPost2010PropOp45
 70
     1
102
RTVSPost2010Prop46
 90
       50
102
RTVSPost2010PropOp46
 70
     1
102
RTVSPost2010Prop47
 90
       50
102
RTVSPost2010PropOp47
 70
     1
102
RTVSPost2010Prop48
 90
       50
102
RTVSPost2010PropOp48
 70
     1
102
RTVSPost2010Prop49
280
     0
102
RTVSPost2010PropOp49
 70
     1
102
RTVSPost2010Prop50
 90
       50
102
RTVSPost2010PropOp50
 70
     1
102
RTVSPost2010Prop51ColorIndex
 90
      256
102
RTVSPost2010Prop51ColorRGB
 90
-16777216
102
RTVSPost2010PropOp51
 70
     0
102
RTVSPost2010Prop52
140
1.0
102
RTVSPost2010PropOp52
 70
     0
102
RTVSPost2010Prop53
 90
        2
102
RTVSPost2010PropOp53
 70
     1
102
RTVSPost2010Prop54
  1
strokes_ogs.tif
102
RTVSPost2010PropOp54
 70
     1
102
RTVSPost2010Prop55
280
     0
102
RTVSPost2010PropOp55
 70
     1
102
RTVSPost2010Prop56
140
1.0
102
RTVSPost2010PropOp56
 70
     1
102
RTVSPost2010Prop57
140
1.0
102
RTVSPost2010PropOp57
 70
     1
102
RTVSPropertyOp0
 70
     1
102
RTVSPropertyOp1
 70
     1
102
RTVSPropertyOp2
 70
     1
102
RTVSPropertyOp3
 70
     1
102
RTVSPropertyOp4
 70
     1
102
RTVSPropertyOp5
 70
     1
102
RTVSPropertyOp6
 70
     1
102
RTVSPropertyOp7
 70
     1
102
RTVSPropertyOp8
 70
     1
102
RTVSPropertyOp9
 70
     1
102
RTVSPropertyOp10
 70
     1
102
RTVSPropertyOp11
 70
     1
102
RTVSPropertyOp12
 70
     1
102
RTVSPropertyOp13
 70
     1
102
RTVSPropertyOp14
 70
     1
102
RTVSPropertyOp15
 70
     1
102
RTVSPropertyOp16
 70
     1
102
RTVSPropertyOp17
 70
     1
102
RTVSPropertyOp18
 70
     1
102
RTVSPropertyOp19
 70
     1
102
RTVSPropertyOp20
 70
     1
102
RTVSPropertyOp21
 70
     1
102
RTVSPropertyOp22
 70
     1
102
RTVSPropertyOp23
 70
     1
102
RTVSPropertyOp24
 70
     1
102
RTVSPropertyOp25
 70
     1
102
RTVSPropertyOp26
 70
     1
102
RTVSPropertyOp27
 70
     1
102
RTVSPropertyOp28
 70
     1
102
RTVSPropertyOp29
 70
     1
102
RTVSPropertyOp30
 70
     1
102
RTVSPropertyOp31
 70
     1
102
RTVSPropertyOp32
 70
     1
102
RTVSPropertyOp33
 70
     1
102
RTVSPropertyOp34
 70
     1
102
RTVSPropertyOp35
 70
     1
102
RTVSPropertyOp36
 70
     1
102
RTVSPropertyOp37
 70
     1
102
RTVSPropertyOp38
 70
     1
102
RTVSPropertyOp39
 70
     1
102
RTVSPropertyOp40
 70
     1
102
RTVSPropertyOp41
 70
     1
102
RTVSPropertyOp42
 70
     1
102
RTVSPropertyOp43
 70
     1
102
RTVSPropertyOp44
 70
     1
102
RTVSPropertyOp45
 70
     1
102
RTVSPropertyOp46
 70
     1
102
RTVSPropertyOp47
 70
     1
102
RTVSPropertyOp48
 70
     1
102
RTVSPropertyOp49
 70
     1
102
RTVSPropertyOp50
 70
     1
102
RTVSPropertyOp51
 70
     0
102
RTVSPropertyOp52
 70
     0
102
RTVSPropertyOp53
 70
     1
102
RTVSPropertyOp54
 70
     1
102
RTVSPropertyOp55
 70
     1
102
RTVSPropertyOp56
 70
     1
102
RTVSPropertyOp57
 70
     1
102
RTVSPropertyOp58
 70
     1
102
RTVSPropertyOp59
 70
     1
102
RTVSPropertyOp60
 70
     1
102
RTVSPropertyOp61
 70
     1
102
RTVSPropertyOp62
 70
     1
  0
XRECORD
  5
1CDD
102
{ACAD_REACTORS
330
1CDC
102
}
330
1CDC
100
AcDbXrecord
280
     1
102
RTVSPost2010Prop28
280
     0
102
RTVSPost2010PropOp28
 70
     1
102
RTVSPost2010Prop29
280
     1
102
RTVSPost2010PropOp29
 70
     1
102
RTVSPost2010Prop30
280
     1
102
RTVSPost2010PropOp30
 70
     1
102
RTVSPost2010Prop31
280
     0
102
RTVSPost2010PropOp31
 70
     1
102
RTVSPost2010Prop32
280
     0
102
RTVSPost2010PropOp32
 70
     1
102
RTVSPost2010Prop33
280
     0
102
RTVSPost2010PropOp33
 70
     1
102
RTVSPost2010Prop34
280
     0
102
RTVSPost2010PropOp34
 70
     1
102
RTVSPost2010Prop35
280
     0
102
RTVSPost2010PropOp35
 70
     1
102
RTVSPost2010Prop36
280
     0
102
RTVSPost2010PropOp36
 70
     1
102
RTVSPost2010Prop37
 90
       50
102
RTVSPost2010PropOp37
 70
     1
102
RTVSPost2010Prop38
140
0.0
102
RTVSPost2010PropOp38
 70
     1
102
RTVSPost2010Prop39
140
1.0
102
RTVSPost2010PropOp39
 70
     1
102
RTVSPost2010Prop40
 90
        0
102
RTVSPost2010PropOp40
 70
     1
102
RTVSPost2010Prop41ColorIndex
 90
       18
102
RTVSPost2010Prop41ColorRGB
 90
        0
102
RTVSPost2010PropOp41
 70
     1
102
RTVSPost2010Prop42
 90
       50
102
RTVSPost2010PropOp42
 70
     1
102
RTVSPost2010Prop43
 90
        3
102
RTVSPost2010PropOp43
 70
     1
102
RTVSPost2010Prop44ColorIndex
 90
        5
102
RTVSPost2010Prop44ColorRGB
 90
      255
102
RTVSPost2010PropOp44
 70
     1
102
RTVSPost2010Prop45
280
     0
102
RTVSPost2010PropOp45
 70
     1
102
RTVSPost2010Prop46
 90
       50
102
RTVSPost2010PropOp46
 70
     1
102
RTVSPost2010Prop47
 90
       50
102
RTVSPost2010PropOp47
 70
     1
102
RTVSPost2010Prop48
 90
       50
102
RTVSPost2010PropOp48
 70
     1
102
RTVSPost2010Prop49
280
     0
102
RTVSPost2010PropOp49
 70
     1
102
RTVSPost2010Prop50
 90
       50
102
RTVSPost2010PropOp50
 70
     1
102
RTVSPost2010Prop51ColorIndex
 90
      256
102
RTVSPost2010Prop51ColorRGB
 90
-16777216
102
RTVSPost2010PropOp51
 70
     0
102
RTVSPost2010Prop52
140
1.0
102
RTVSPost2010PropOp52
 70
     0
102
RTVSPost2010Prop53
 90
        2
102
RTVSPost2010PropOp53
 70
     1
102
RTVSPost2010Prop54
  1
strokes_ogs.tif
102
RTVSPost2010PropOp54
 70
     1
102
RTVSPost2010Prop55
280
     0
102
RTVSPost2010PropOp55
 70
     1
102
RTVSPost2010Prop56
140
1.0
102
RTVSPost2010PropOp56
 70
     1
102
RTVSPost2010Prop57
140
1.0
102
RTVSPost2010PropOp57
 70
     1
102
RTVSPropertyOp0
 70
     1
102
RTVSPropertyOp1
 70
     1
102
RTVSPropertyOp2
 70
     1
102
RTVSPropertyOp3
 70
     1
102
RTVSPropertyOp4
 70
     1
102
RTVSPropertyOp5
 70
     1
102
RTVSPropertyOp6
 70
     1
102
RTVSPropertyOp7
 70
     1
102
RTVSPropertyOp8
 70
     1
102
RTVSPropertyOp9
 70
     1
102
RTVSPropertyOp10
 70
     1
102
RTVSPropertyOp11
 70
     1
102
RTVSPropertyOp12
 70
     1
102
RTVSPropertyOp13
 70
     1
102
RTVSPropertyOp14
 70
     1
102
RTVSPropertyOp15
 70
     1
102
RTVSPropertyOp16
 70
     1
102
RTVSPropertyOp17
 70
     1
102
RTVSPropertyOp18
 70
     1
102
RTVSPropertyOp19
 70
     1
102
RTVSPropertyOp20
 70
     1
102
RTVSPropertyOp21
 70
     1
102
RTVSPropertyOp22
 70
     1
102
RTVSPropertyOp23
 70
     1
102
RTVSPropertyOp24
 70
     1
102
RTVSPropertyOp25
 70
     1
102
RTVSPropertyOp26
 70
     1
102
RTVSPropertyOp27
 70
     1
102
RTVSPropertyOp28
 70
     1
102
RTVSPropertyOp29
 70
     1
102
RTVSPropertyOp30
 70
     1
102
RTVSPropertyOp31
 70
     1
102
RTVSPropertyOp32
 70
     1
102
RTVSPropertyOp33
 70
     1
102
RTVSPropertyOp34
 70
     1
102
RTVSPropertyOp35
 70
     1
102
RTVSPropertyOp36
 70
     1
102
RTVSPropertyOp37
 70
     1
102
RTVSPropertyOp38
 70
     1
102
RTVSPropertyOp39
 70
     1
102
RTVSPropertyOp40
 70
     1
102
RTVSPropertyOp41
 70
     1
102
RTVSPropertyOp42
 70
     1
102
RTVSPropertyOp43
 70
     1
102
RTVSPropertyOp44
 70
     1
102
RTVSPropertyOp45
 70
     1
102
RTVSPropertyOp46
 70
     1
102
RTVSPropertyOp47
 70
     1
102
RTVSPropertyOp48
 70
     1
102
RTVSPropertyOp49
 70
     1
102
RTVSPropertyOp50
 70
     1
102
RTVSPropertyOp51
 70
     0
102
RTVSPropertyOp52
 70
     0
102
RTVSPropertyOp53
 70
     1
102
RTVSPropertyOp54
 70
     1
102
RTVSPropertyOp55
 70
     1
102
RTVSPropertyOp56
 70
     1
102
RTVSPropertyOp57
 70
     1
102
RTVSPropertyOp58
 70
     1
102
RTVSPropertyOp59
 70
     1
102
RTVSPropertyOp60
 70
     1
102
RTVSPropertyOp61
 70
     1
102
RTVSPropertyOp62
 70
     1
  0
XRECORD
  5
1CF9
102
{ACAD_REACTORS
330
1CF8
102
}
330
1CF8
100
AcDbXrecord
280
     1
102
RTVSPost2010Prop28
280
     0
102
RTVSPost2010PropOp28
 70
     1
102
RTVSPost2010Prop29
280
     1
102
RTVSPost2010PropOp29
 70
     1
102
RTVSPost2010Prop30
280
     1
102
RTVSPost2010PropOp30
 70
     1
102
RTVSPost2010Prop31
280
     0
102
RTVSPost2010PropOp31
 70
     1
102
RTVSPost2010Prop32
280
     0
102
RTVSPost2010PropOp32
 70
     1
102
RTVSPost2010Prop33
280
     0
102
RTVSPost2010PropOp33
 70
     1
102
RTVSPost2010Prop34
280
     0
102
RTVSPost2010PropOp34
 70
     1
102
RTVSPost2010Prop35
280
     0
102
RTVSPost2010PropOp35
 70
     1
102
RTVSPost2010Prop36
280
     0
102
RTVSPost2010PropOp36
 70
     1
102
RTVSPost2010Prop37
 90
       50
102
RTVSPost2010PropOp37
 70
     0
102
RTVSPost2010Prop38
140
0.0
102
RTVSPost2010PropOp38
 70
     0
102
RTVSPost2010Prop39
140
1.0
102
RTVSPost2010PropOp39
 70
     0
102
RTVSPost2010Prop40
 90
        0
102
RTVSPost2010PropOp40
 70
     0
102
RTVSPost2010Prop41ColorIndex
 90
       18
102
RTVSPost2010Prop41ColorRGB
 90
        0
102
RTVSPost2010PropOp41
 70
     0
102
RTVSPost2010Prop42
 90
       50
102
RTVSPost2010PropOp42
 70
     0
102
RTVSPost2010Prop43
 90
        3
102
RTVSPost2010PropOp43
 70
     0
102
RTVSPost2010Prop44ColorIndex
 90
        5
102
RTVSPost2010Prop44ColorRGB
 90
      255
102
RTVSPost2010PropOp44
 70
     0
102
RTVSPost2010Prop45
280
     0
102
RTVSPost2010PropOp45
 70
     1
102
RTVSPost2010Prop46
 90
       50
102
RTVSPost2010PropOp46
 70
     0
102
RTVSPost2010Prop47
 90
       50
102
RTVSPost2010PropOp47
 70
     0
102
RTVSPost2010Prop48
 90
       50
102
RTVSPost2010PropOp48
 70
     0
102
RTVSPost2010Prop49
280
     0
102
RTVSPost2010PropOp49
 70
     1
102
RTVSPost2010Prop50
 90
       50
102
RTVSPost2010PropOp50
 70
     0
102
RTVSPost2010Prop51ColorIndex
 90
      256
102
RTVSPost2010Prop51ColorRGB
 90
-16777216
102
RTVSPost2010PropOp51
 70
     0
102
RTVSPost2010Prop52
140
1.0
102
RTVSPost2010PropOp52
 70
     0
102
RTVSPost2010Prop53
 90
        2
102
RTVSPost2010PropOp53
 70
     0
102
RTVSPost2010Prop54
  1
strokes_ogs.tif
102
RTVSPost2010PropOp54
 70
     0
102
RTVSPost2010Prop55
280
     0
102
RTVSPost2010PropOp55
 70
     1
102
RTVSPost2010Prop56
140
1.0
102
RTVSPost2010PropOp56
 70
     0
102
RTVSPost2010Prop57
140
1.0
102
RTVSPost2010PropOp57
 70
     0
102
RTVSPropertyOp0
 70
     0
102
RTVSPropertyOp1
 70
     0
102
RTVSPropertyOp2
 70
     0
102
RTVSPropertyOp3
 70
     0
102
RTVSPropertyOp4
 70
     0
102
RTVSPropertyOp5
 70
     0
102
RTVSPropertyOp6
 70
     0
102
RTVSPropertyOp7
 70
     0
102
RTVSPropertyOp8
 70
     0
102
RTVSPropertyOp9
 70
     0
102
RTVSPropertyOp10
 70
     0
102
RTVSPropertyOp11
 70
     0
102
RTVSPropertyOp12
 70
     0
102
RTVSPropertyOp13
 70
     0
102
RTVSPropertyOp14
 70
     2
102
RTVSPropertyOp15
 70
     0
102
RTVSPropertyOp16
 70
     0
102
RTVSPropertyOp17
 70
     0
102
RTVSPropertyOp18
 70
     0
102
RTVSPropertyOp19
 70
     0
102
RTVSPropertyOp20
 70
     0
102
RTVSPropertyOp21
 70
     0
102
RTVSPropertyOp22
 70
     0
102
RTVSPropertyOp23
 70
     0
102
RTVSPropertyOp24
 70
     0
102
RTVSPropertyOp25
 70
     0
102
RTVSPropertyOp26
 70
     0
102
RTVSPropertyOp27
 70
     0
102
RTVSPropertyOp28
 70
     1
102
RTVSPropertyOp29
 70
     1
102
RTVSPropertyOp30
 70
     1
102
RTVSPropertyOp31
 70
     1
102
RTVSPropertyOp32
 70
     1
102
RTVSPropertyOp33
 70
     1
102
RTVSPropertyOp34
 70
     1
102
RTVSPropertyOp35
 70
     1
102
RTVSPropertyOp36
 70
     1
102
RTVSPropertyOp37
 70
     0
102
RTVSPropertyOp38
 70
     0
102
RTVSPropertyOp39
 70
     0
102
RTVSPropertyOp40
 70
     0
102
RTVSPropertyOp41
 70
     0
102
RTVSPropertyOp42
 70
     0
102
RTVSPropertyOp43
 70
     0
102
RTVSPropertyOp44
 70
     0
102
RTVSPropertyOp45
 70
     1
102
RTVSPropertyOp46
 70
     0
102
RTVSPropertyOp47
 70
     0
102
RTVSPropertyOp48
 70
     0
102
RTVSPropertyOp49
 70
     1
102
RTVSPropertyOp50
 70
     0
102
RTVSPropertyOp51
 70
     0
102
RTVSPropertyOp52
 70
     0
102
RTVSPropertyOp53
 70
     0
102
RTVSPropertyOp54
 70
     0
102
RTVSPropertyOp55
 70
     1
102
RTVSPropertyOp56
 70
     0
102
RTVSPropertyOp57
 70
     0
102
RTVSPropertyOp58
 70
     0
102
RTVSPropertyOp59
 70
     0
102
RTVSPropertyOp60
 70
     0
102
RTVSPropertyOp61
 70
     0
102
RTVSPropertyOp62
 70
     0
  0
XRECORD
  5
1CE9
102
{ACAD_REACTORS
330
1CE8
102
}
330
1CE8
100
AcDbXrecord
280
     1
102
RTVSPost2010Prop28
280
     0
102
RTVSPost2010PropOp28
 70
     1
102
RTVSPost2010Prop29
280
     1
102
RTVSPost2010PropOp29
 70
     1
102
RTVSPost2010Prop30
280
     1
102
RTVSPost2010PropOp30
 70
     1
102
RTVSPost2010Prop31
280
     0
102
RTVSPost2010PropOp31
 70
     1
102
RTVSPost2010Prop32
280
     0
102
RTVSPost2010PropOp32
 70
     1
102
RTVSPost2010Prop33
280
     0
102
RTVSPost2010PropOp33
 70
     1
102
RTVSPost2010Prop34
280
     0
102
RTVSPost2010PropOp34
 70
     1
102
RTVSPost2010Prop35
280
     0
102
RTVSPost2010PropOp35
 70
     1
102
RTVSPost2010Prop36
280
     0
102
RTVSPost2010PropOp36
 70
     1
102
RTVSPost2010Prop37
 90
       50
102
RTVSPost2010PropOp37
 70
     1
102
RTVSPost2010Prop38
140
0.0
102
RTVSPost2010PropOp38
 70
     1
102
RTVSPost2010Prop39
140
1.0
102
RTVSPost2010PropOp39
 70
     1
102
RTVSPost2010Prop40
 90
        0
102
RTVSPost2010PropOp40
 70
     1
102
RTVSPost2010Prop41ColorIndex
 90
       18
102
RTVSPost2010Prop41ColorRGB
 90
        0
102
RTVSPost2010PropOp41
 70
     1
102
RTVSPost2010Prop42
 90
       50
102
RTVSPost2010PropOp42
 70
     1
102
RTVSPost2010Prop43
 90
        3
102
RTVSPost2010PropOp43
 70
     1
102
RTVSPost2010Prop44ColorIndex
 90
        5
102
RTVSPost2010Prop44ColorRGB
 90
      255
102
RTVSPost2010PropOp44
 70
     1
102
RTVSPost2010Prop45
280
     0
102
RTVSPost2010PropOp45
 70
     1
102
RTVSPost2010Prop46
 90
       50
102
RTVSPost2010PropOp46
 70
     1
102
RTVSPost2010Prop47
 90
       50
102
RTVSPost2010PropOp47
 70
     1
102
RTVSPost2010Prop48
 90
       50
102
RTVSPost2010PropOp48
 70
     1
102
RTVSPost2010Prop49
280
     0
102
RTVSPost2010PropOp49
 70
     1
102
RTVSPost2010Prop50
 90
       50
102
RTVSPost2010PropOp50
 70
     1
102
RTVSPost2010Prop51ColorIndex
 90
      256
102
RTVSPost2010Prop51ColorRGB
 90
-16777216
102
RTVSPost2010PropOp51
 70
     0
102
RTVSPost2010Prop52
140
1.0
102
RTVSPost2010PropOp52
 70
     0
102
RTVSPost2010Prop53
 90
        2
102
RTVSPost2010PropOp53
 70
     1
102
RTVSPost2010Prop54
  1
strokes_ogs.tif
102
RTVSPost2010PropOp54
 70
     1
102
RTVSPost2010Prop55
280
     0
102
RTVSPost2010PropOp55
 70
     1
102
RTVSPost2010Prop56
140
1.0
102
RTVSPost2010PropOp56
 70
     1
102
RTVSPost2010Prop57
140
1.0
102
RTVSPost2010PropOp57
 70
     1
102
RTVSPropertyOp0
 70
     1
102
RTVSPropertyOp1
 70
     1
102
RTVSPropertyOp2
 70
     1
102
RTVSPropertyOp3
 70
     1
102
RTVSPropertyOp4
 70
     1
102
RTVSPropertyOp5
 70
     1
102
RTVSPropertyOp6
 70
     1
102
RTVSPropertyOp7
 70
     1
102
RTVSPropertyOp8
 70
     1
102
RTVSPropertyOp9
 70
     1
102
RTVSPropertyOp10
 70
     1
102
RTVSPropertyOp11
 70
     1
102
RTVSPropertyOp12
 70
     1
102
RTVSPropertyOp13
 70
     1
102
RTVSPropertyOp14
 70
     1
102
RTVSPropertyOp15
 70
     1
102
RTVSPropertyOp16
 70
     1
102
RTVSPropertyOp17
 70
     1
102
RTVSPropertyOp18
 70
     1
102
RTVSPropertyOp19
 70
     1
102
RTVSPropertyOp20
 70
     1
102
RTVSPropertyOp21
 70
     1
102
RTVSPropertyOp22
 70
     1
102
RTVSPropertyOp23
 70
     1
102
RTVSPropertyOp24
 70
     1
102
RTVSPropertyOp25
 70
     1
102
RTVSPropertyOp26
 70
     1
102
RTVSPropertyOp27
 70
     1
102
RTVSPropertyOp28
 70
     1
102
RTVSPropertyOp29
 70
     1
102
RTVSPropertyOp30
 70
     1
102
RTVSPropertyOp31
 70
     1
102
RTVSPropertyOp32
 70
     1
102
RTVSPropertyOp33
 70
     1
102
RTVSPropertyOp34
 70
     1
102
RTVSPropertyOp35
 70
     1
102
RTVSPropertyOp36
 70
     1
102
RTVSPropertyOp37
 70
     1
102
RTVSPropertyOp38
 70
     1
102
RTVSPropertyOp39
 70
     1
102
RTVSPropertyOp40
 70
     1
102
RTVSPropertyOp41
 70
     1
102
RTVSPropertyOp42
 70
     1
102
RTVSPropertyOp43
 70
     1
102
RTVSPropertyOp44
 70
     1
102
RTVSPropertyOp45
 70
     1
102
RTVSPropertyOp46
 70
     1
102
RTVSPropertyOp47
 70
     1
102
RTVSPropertyOp48
 70
     1
102
RTVSPropertyOp49
 70
     1
102
RTVSPropertyOp50
 70
     1
102
RTVSPropertyOp51
 70
     0
102
RTVSPropertyOp52
 70
     0
102
RTVSPropertyOp53
 70
     1
102
RTVSPropertyOp54
 70
     1
102
RTVSPropertyOp55
 70
     1
102
RTVSPropertyOp56
 70
     1
102
RTVSPropertyOp57
 70
     1
102
RTVSPropertyOp58
 70
     1
102
RTVSPropertyOp59
 70
     1
102
RTVSPropertyOp60
 70
     1
102
RTVSPropertyOp61
 70
     1
102
RTVSPropertyOp62
 70
     1
  0
XRECORD
  5
1CFB
102
{ACAD_REACTORS
330
1CFA
102
}
330
1CFA
100
AcDbXrecord
280
     1
102
RTVSPost2010Prop28
280
     0
102
RTVSPost2010PropOp28
 70
     1
102
RTVSPost2010Prop29
280
     1
102
RTVSPost2010PropOp29
 70
     1
102
RTVSPost2010Prop30
280
     1
102
RTVSPost2010PropOp30
 70
     1
102
RTVSPost2010Prop31
280
     0
102
RTVSPost2010PropOp31
 70
     1
102
RTVSPost2010Prop32
280
     0
102
RTVSPost2010PropOp32
 70
     1
102
RTVSPost2010Prop33
280
     0
102
RTVSPost2010PropOp33
 70
     1
102
RTVSPost2010Prop34
280
     0
102
RTVSPost2010PropOp34
 70
     1
102
RTVSPost2010Prop35
280
     0
102
RTVSPost2010PropOp35
 70
     1
102
RTVSPost2010Prop36
280
     0
102
RTVSPost2010PropOp36
 70
     1
102
RTVSPost2010Prop37
 90
       50
102
RTVSPost2010PropOp37
 70
     0
102
RTVSPost2010Prop38
140
0.0
102
RTVSPost2010PropOp38
 70
     0
102
RTVSPost2010Prop39
140
1.0
102
RTVSPost2010PropOp39
 70
     0
102
RTVSPost2010Prop40
 90
        0
102
RTVSPost2010PropOp40
 70
     0
102
RTVSPost2010Prop41ColorIndex
 90
       18
102
RTVSPost2010Prop41ColorRGB
 90
        0
102
RTVSPost2010PropOp41
 70
     0
102
RTVSPost2010Prop42
 90
       50
102
RTVSPost2010PropOp42
 70
     0
102
RTVSPost2010Prop43
 90
        3
102
RTVSPost2010PropOp43
 70
     0
102
RTVSPost2010Prop44ColorIndex
 90
        5
102
RTVSPost2010Prop44ColorRGB
 90
      255
102
RTVSPost2010PropOp44
 70
     0
102
RTVSPost2010Prop45
280
     0
102
RTVSPost2010PropOp45
 70
     1
102
RTVSPost2010Prop46
 90
       50
102
RTVSPost2010PropOp46
 70
     0
102
RTVSPost2010Prop47
 90
       50
102
RTVSPost2010PropOp47
 70
     0
102
RTVSPost2010Prop48
 90
       50
102
RTVSPost2010PropOp48
 70
     0
102
RTVSPost2010Prop49
280
     0
102
RTVSPost2010PropOp49
 70
     1
102
RTVSPost2010Prop50
 90
       50
102
RTVSPost2010PropOp50
 70
     0
102
RTVSPost2010Prop51ColorIndex
 90
      256
102
RTVSPost2010Prop51ColorRGB
 90
-16777216
102
RTVSPost2010PropOp51
 70
     0
102
RTVSPost2010Prop52
140
1.0
102
RTVSPost2010PropOp52
 70
     0
102
RTVSPost2010Prop53
 90
        2
102
RTVSPost2010PropOp53
 70
     0
102
RTVSPost2010Prop54
  1
strokes_ogs.tif
102
RTVSPost2010PropOp54
 70
     0
102
RTVSPost2010Prop55
280
     0
102
RTVSPost2010PropOp55
 70
     1
102
RTVSPost2010Prop56
140
1.0
102
RTVSPost2010PropOp56
 70
     0
102
RTVSPost2010Prop57
140
1.0
102
RTVSPost2010PropOp57
 70
     0
102
RTVSPropertyOp0
 70
     0
102
RTVSPropertyOp1
 70
     0
102
RTVSPropertyOp2
 70
     0
102
RTVSPropertyOp3
 70
     0
102
RTVSPropertyOp4
 70
     0
102
RTVSPropertyOp5
 70
     0
102
RTVSPropertyOp6
 70
     0
102
RTVSPropertyOp7
 70
     0
102
RTVSPropertyOp8
 70
     0
102
RTVSPropertyOp9
 70
     0
102
RTVSPropertyOp10
 70
     0
102
RTVSPropertyOp11
 70
     0
102
RTVSPropertyOp12
 70
     0
102
RTVSPropertyOp13
 70
     0
102
RTVSPropertyOp14
 70
     2
102
RTVSPropertyOp15
 70
     0
102
RTVSPropertyOp16
 70
     0
102
RTVSPropertyOp17
 70
     0
102
RTVSPropertyOp18
 70
     0
102
RTVSPropertyOp19
 70
     0
102
RTVSPropertyOp20
 70
     0
102
RTVSPropertyOp21
 70
     0
102
RTVSPropertyOp22
 70
     0
102
RTVSPropertyOp23
 70
     0
102
RTVSPropertyOp24
 70
     0
102
RTVSPropertyOp25
 70
     0
102
RTVSPropertyOp26
 70
     0
102
RTVSPropertyOp27
 70
     0
102
RTVSPropertyOp28
 70
     1
102
RTVSPropertyOp29
 70
     1
102
RTVSPropertyOp30
 70
     1
102
RTVSPropertyOp31
 70
     1
102
RTVSPropertyOp32
 70
     1
102
RTVSPropertyOp33
 70
     1
102
RTVSPropertyOp34
 70
     1
102
RTVSPropertyOp35
 70
     1
102
RTVSPropertyOp36
 70
     1
102
RTVSPropertyOp37
 70
     0
102
RTVSPropertyOp38
 70
     0
102
RTVSPropertyOp39
 70
     0
102
RTVSPropertyOp40
 70
     0
102
RTVSPropertyOp41
 70
     0
102
RTVSPropertyOp42
 70
     0
102
RTVSPropertyOp43
 70
     0
102
RTVSPropertyOp44
 70
     0
102
RTVSPropertyOp45
 70
     1
102
RTVSPropertyOp46
 70
     0
102
RTVSPropertyOp47
 70
     0
102
RTVSPropertyOp48
 70
     0
102
RTVSPropertyOp49
 70
     1
102
RTVSPropertyOp50
 70
     0
102
RTVSPropertyOp51
 70
     0
102
RTVSPropertyOp52
 70
     0
102
RTVSPropertyOp53
 70
     0
102
RTVSPropertyOp54
 70
     0
102
RTVSPropertyOp55
 70
     1
102
RTVSPropertyOp56
 70
     0
102
RTVSPropertyOp57
 70
     0
102
RTVSPropertyOp58
 70
     0
102
RTVSPropertyOp59
 70
     0
102
RTVSPropertyOp60
 70
     0
102
RTVSPropertyOp61
 70
     0
102
RTVSPropertyOp62
 70
     0
  0
XRECORD
  5
1CE1
102
{ACAD_REACTORS
330
1CE0
102
}
330
1CE0
100
AcDbXrecord
280
     1
102
RTVSPost2010Prop28
280
     0
102
RTVSPost2010PropOp28
 70
     1
102
RTVSPost2010Prop29
280
     1
102
RTVSPost2010PropOp29
 70
     1
102
RTVSPost2010Prop30
280
     1
102
RTVSPost2010PropOp30
 70
     1
102
RTVSPost2010Prop31
280
     0
102
RTVSPost2010PropOp31
 70
     1
102
RTVSPost2010Prop32
280
     0
102
RTVSPost2010PropOp32
 70
     1
102
RTVSPost2010Prop33
280
     0
102
RTVSPost2010PropOp33
 70
     1
102
RTVSPost2010Prop34
280
     0
102
RTVSPost2010PropOp34
 70
     1
102
RTVSPost2010Prop35
280
     0
102
RTVSPost2010PropOp35
 70
     1
102
RTVSPost2010Prop36
280
     0
102
RTVSPost2010PropOp36
 70
     1
102
RTVSPost2010Prop37
 90
       50
102
RTVSPost2010PropOp37
 70
     1
102
RTVSPost2010Prop38
140
0.0
102
RTVSPost2010PropOp38
 70
     1
102
RTVSPost2010Prop39
140
1.0
102
RTVSPost2010PropOp39
 70
     1
102
RTVSPost2010Prop40
 90
        0
102
RTVSPost2010PropOp40
 70
     1
102
RTVSPost2010Prop41ColorIndex
 90
       18
102
RTVSPost2010Prop41ColorRGB
 90
        0
102
RTVSPost2010PropOp41
 70
     1
102
RTVSPost2010Prop42
 90
       50
102
RTVSPost2010PropOp42
 70
     1
102
RTVSPost2010Prop43
 90
        3
102
RTVSPost2010PropOp43
 70
     1
102
RTVSPost2010Prop44ColorIndex
 90
        5
102
RTVSPost2010Prop44ColorRGB
 90
      255
102
RTVSPost2010PropOp44
 70
     1
102
RTVSPost2010Prop45
280
     0
102
RTVSPost2010PropOp45
 70
     1
102
RTVSPost2010Prop46
 90
       50
102
RTVSPost2010PropOp46
 70
     1
102
RTVSPost2010Prop47
 90
       50
102
RTVSPost2010PropOp47
 70
     1
102
RTVSPost2010Prop48
 90
       50
102
RTVSPost2010PropOp48
 70
     1
102
RTVSPost2010Prop49
280
     0
102
RTVSPost2010PropOp49
 70
     1
102
RTVSPost2010Prop50
 90
       50
102
RTVSPost2010PropOp50
 70
     1
102
RTVSPost2010Prop51ColorIndex
 90
      256
102
RTVSPost2010Prop51ColorRGB
 90
-16777216
102
RTVSPost2010PropOp51
 70
     0
102
RTVSPost2010Prop52
140
1.0
102
RTVSPost2010PropOp52
 70
     0
102
RTVSPost2010Prop53
 90
        2
102
RTVSPost2010PropOp53
 70
     1
102
RTVSPost2010Prop54
  1
strokes_ogs.tif
102
RTVSPost2010PropOp54
 70
     1
102
RTVSPost2010Prop55
280
     0
102
RTVSPost2010PropOp55
 70
     1
102
RTVSPost2010Prop56
140
1.0
102
RTVSPost2010PropOp56
 70
     1
102
RTVSPost2010Prop57
140
1.0
102
RTVSPost2010PropOp57
 70
     1
102
RTVSPropertyOp0
 70
     1
102
RTVSPropertyOp1
 70
     1
102
RTVSPropertyOp2
 70
     1
102
RTVSPropertyOp3
 70
     1
102
RTVSPropertyOp4
 70
     1
102
RTVSPropertyOp5
 70
     1
102
RTVSPropertyOp6
 70
     1
102
RTVSPropertyOp7
 70
     1
102
RTVSPropertyOp8
 70
     1
102
RTVSPropertyOp9
 70
     1
102
RTVSPropertyOp10
 70
     1
102
RTVSPropertyOp11
 70
     1
102
RTVSPropertyOp12
 70
     1
102
RTVSPropertyOp13
 70
     1
102
RTVSPropertyOp14
 70
     1
102
RTVSPropertyOp15
 70
     1
102
RTVSPropertyOp16
 70
     1
102
RTVSPropertyOp17
 70
     1
102
RTVSPropertyOp18
 70
     1
102
RTVSPropertyOp19
 70
     1
102
RTVSPropertyOp20
 70
     1
102
RTVSPropertyOp21
 70
     1
102
RTVSPropertyOp22
 70
     1
102
RTVSPropertyOp23
 70
     1
102
RTVSPropertyOp24
 70
     1
102
RTVSPropertyOp25
 70
     1
102
RTVSPropertyOp26
 70
     1
102
RTVSPropertyOp27
 70
     1
102
RTVSPropertyOp28
 70
     1
102
RTVSPropertyOp29
 70
     1
102
RTVSPropertyOp30
 70
     1
102
RTVSPropertyOp31
 70
     1
102
RTVSPropertyOp32
 70
     1
102
RTVSPropertyOp33
 70
     1
102
RTVSPropertyOp34
 70
     1
102
RTVSPropertyOp35
 70
     1
102
RTVSPropertyOp36
 70
     1
102
RTVSPropertyOp37
 70
     1
102
RTVSPropertyOp38
 70
     1
102
RTVSPropertyOp39
 70
     1
102
RTVSPropertyOp40
 70
     1
102
RTVSPropertyOp41
 70
     1
102
RTVSPropertyOp42
 70
     1
102
RTVSPropertyOp43
 70
     1
102
RTVSPropertyOp44
 70
     1
102
RTVSPropertyOp45
 70
     1
102
RTVSPropertyOp46
 70
     1
102
RTVSPropertyOp47
 70
     1
102
RTVSPropertyOp48
 70
     1
102
RTVSPropertyOp49
 70
     1
102
RTVSPropertyOp50
 70
     1
102
RTVSPropertyOp51
 70
     0
102
RTVSPropertyOp52
 70
     0
102
RTVSPropertyOp53
 70
     1
102
RTVSPropertyOp54
 70
     1
102
RTVSPropertyOp55
 70
     1
102
RTVSPropertyOp56
 70
     1
102
RTVSPropertyOp57
 70
     1
102
RTVSPropertyOp58
 70
     1
102
RTVSPropertyOp59
 70
     1
102
RTVSPropertyOp60
 70
     1
102
RTVSPropertyOp61
 70
     1
102
RTVSPropertyOp62
 70
     1
  0
XRECORD
  5
1CF7
102
{ACAD_REACTORS
330
1CF6
102
}
330
1CF6
100
AcDbXrecord
280
     1
102
RTVSPost2010Prop28
280
     0
102
RTVSPost2010PropOp28
 70
     1
102
RTVSPost2010Prop29
280
     1
102
RTVSPost2010PropOp29
 70
     1
102
RTVSPost2010Prop30
280
     1
102
RTVSPost2010PropOp30
 70
     1
102
RTVSPost2010Prop31
280
     0
102
RTVSPost2010PropOp31
 70
     1
102
RTVSPost2010Prop32
280
     0
102
RTVSPost2010PropOp32
 70
     1
102
RTVSPost2010Prop33
280
     0
102
RTVSPost2010PropOp33
 70
     1
102
RTVSPost2010Prop34
280
     0
102
RTVSPost2010PropOp34
 70
     1
102
RTVSPost2010Prop35
280
     0
102
RTVSPost2010PropOp35
 70
     1
102
RTVSPost2010Prop36
280
     0
102
RTVSPost2010PropOp36
 70
     1
102
RTVSPost2010Prop37
 90
       50
102
RTVSPost2010PropOp37
 70
     1
102
RTVSPost2010Prop38
140
0.0
102
RTVSPost2010PropOp38
 70
     1
102
RTVSPost2010Prop39
140
1.0
102
RTVSPost2010PropOp39
 70
     1
102
RTVSPost2010Prop40
 90
        0
102
RTVSPost2010PropOp40
 70
     1
102
RTVSPost2010Prop41ColorIndex
 90
       18
102
RTVSPost2010Prop41ColorRGB
 90
        0
102
RTVSPost2010PropOp41
 70
     1
102
RTVSPost2010Prop42
 90
       50
102
RTVSPost2010PropOp42
 70
     1
102
RTVSPost2010Prop43
 90
        3
102
RTVSPost2010PropOp43
 70
     1
102
RTVSPost2010Prop44ColorIndex
 90
        5
102
RTVSPost2010Prop44ColorRGB
 90
      255
102
RTVSPost2010PropOp44
 70
     1
102
RTVSPost2010Prop45
280
     0
102
RTVSPost2010PropOp45
 70
     1
102
RTVSPost2010Prop46
 90
       50
102
RTVSPost2010PropOp46
 70
     1
102
RTVSPost2010Prop47
 90
       50
102
RTVSPost2010PropOp47
 70
     1
102
RTVSPost2010Prop48
 90
       50
102
RTVSPost2010PropOp48
 70
     1
102
RTVSPost2010Prop49
280
     0
102
RTVSPost2010PropOp49
 70
     1
102
RTVSPost2010Prop50
 90
       50
102
RTVSPost2010PropOp50
 70
     1
102
RTVSPost2010Prop51ColorIndex
 90
      256
102
RTVSPost2010Prop51ColorRGB
 90
-16777216
102
RTVSPost2010PropOp51
 70
     0
102
RTVSPost2010Prop52
140
1.0
102
RTVSPost2010PropOp52
 70
     0
102
RTVSPost2010Prop53
 90
        2
102
RTVSPost2010PropOp53
 70
     1
102
RTVSPost2010Prop54
  1
strokes_ogs.tif
102
RTVSPost2010PropOp54
 70
     1
102
RTVSPost2010Prop55
280
     0
102
RTVSPost2010PropOp55
 70
     1
102
RTVSPost2010Prop56
140
1.0
102
RTVSPost2010PropOp56
 70
     1
102
RTVSPost2010Prop57
140
1.0
102
RTVSPost2010PropOp57
 70
     1
102
RTVSPropertyOp0
 70
     1
102
RTVSPropertyOp1
 70
     1
102
RTVSPropertyOp2
 70
     1
102
RTVSPropertyOp3
 70
     1
102
RTVSPropertyOp4
 70
     1
102
RTVSPropertyOp5
 70
     1
102
RTVSPropertyOp6
 70
     1
102
RTVSPropertyOp7
 70
     1
102
RTVSPropertyOp8
 70
     1
102
RTVSPropertyOp9
 70
     1
102
RTVSPropertyOp10
 70
     1
102
RTVSPropertyOp11
 70
     1
102
RTVSPropertyOp12
 70
     1
102
RTVSPropertyOp13
 70
     1
102
RTVSPropertyOp14
 70
     1
102
RTVSPropertyOp15
 70
     1
102
RTVSPropertyOp16
 70
     1
102
RTVSPropertyOp17
 70
     1
102
RTVSPropertyOp18
 70
     1
102
RTVSPropertyOp19
 70
     1
102
RTVSPropertyOp20
 70
     1
102
RTVSPropertyOp21
 70
     1
102
RTVSPropertyOp22
 70
     1
102
RTVSPropertyOp23
 70
     1
102
RTVSPropertyOp24
 70
     1
102
RTVSPropertyOp25
 70
     1
102
RTVSPropertyOp26
 70
     1
102
RTVSPropertyOp27
 70
     1
102
RTVSPropertyOp28
 70
     1
102
RTVSPropertyOp29
 70
     1
102
RTVSPropertyOp30
 70
     1
102
RTVSPropertyOp31
 70
     1
102
RTVSPropertyOp32
 70
     1
102
RTVSPropertyOp33
 70
     1
102
RTVSPropertyOp34
 70
     1
102
RTVSPropertyOp35
 70
     1
102
RTVSPropertyOp36
 70
     1
102
RTVSPropertyOp37
 70
     1
102
RTVSPropertyOp38
 70
     1
102
RTVSPropertyOp39
 70
     1
102
RTVSPropertyOp40
 70
     1
102
RTVSPropertyOp41
 70
     1
102
RTVSPropertyOp42
 70
     1
102
RTVSPropertyOp43
 70
     1
102
RTVSPropertyOp44
 70
     1
102
RTVSPropertyOp45
 70
     1
102
RTVSPropertyOp46
 70
     1
102
RTVSPropertyOp47
 70
     1
102
RTVSPropertyOp48
 70
     1
102
RTVSPropertyOp49
 70
     1
102
RTVSPropertyOp50
 70
     1
102
RTVSPropertyOp51
 70
     0
102
RTVSPropertyOp52
 70
     0
102
RTVSPropertyOp53
 70
     1
102
RTVSPropertyOp54
 70
     1
102
RTVSPropertyOp55
 70
     1
102
RTVSPropertyOp56
 70
     1
102
RTVSPropertyOp57
 70
     1
102
RTVSPropertyOp58
 70
     1
102
RTVSPropertyOp59
 70
     1
102
RTVSPropertyOp60
 70
     1
102
RTVSPropertyOp61
 70
     1
102
RTVSPropertyOp62
 70
     1
  0
XRECORD
  5
1CF5
102
{ACAD_REACTORS
330
1CF4
102
}
330
1CF4
100
AcDbXrecord
280
     1
102
RTVSPost2010Prop28
280
     0
102
RTVSPost2010PropOp28
 70
     1
102
RTVSPost2010Prop29
280
     1
102
RTVSPost2010PropOp29
 70
     1
102
RTVSPost2010Prop30
280
     1
102
RTVSPost2010PropOp30
 70
     1
102
RTVSPost2010Prop31
280
     0
102
RTVSPost2010PropOp31
 70
     1
102
RTVSPost2010Prop32
280
     0
102
RTVSPost2010PropOp32
 70
     1
102
RTVSPost2010Prop33
280
     0
102
RTVSPost2010PropOp33
 70
     1
102
RTVSPost2010Prop34
280
     0
102
RTVSPost2010PropOp34
 70
     1
102
RTVSPost2010Prop35
280
     0
102
RTVSPost2010PropOp35
 70
     1
102
RTVSPost2010Prop36
280
     0
102
RTVSPost2010PropOp36
 70
     1
102
RTVSPost2010Prop37
 90
       50
102
RTVSPost2010PropOp37
 70
     1
102
RTVSPost2010Prop38
140
0.0
102
RTVSPost2010PropOp38
 70
     1
102
RTVSPost2010Prop39
140
1.0
102
RTVSPost2010PropOp39
 70
     1
102
RTVSPost2010Prop40
 90
        0
102
RTVSPost2010PropOp40
 70
     1
102
RTVSPost2010Prop41ColorIndex
 90
       18
102
RTVSPost2010Prop41ColorRGB
 90
        0
102
RTVSPost2010PropOp41
 70
     1
102
RTVSPost2010Prop42
 90
       50
102
RTVSPost2010PropOp42
 70
     1
102
RTVSPost2010Prop43
 90
        3
102
RTVSPost2010PropOp43
 70
     1
102
RTVSPost2010Prop44ColorIndex
 90
        5
102
RTVSPost2010Prop44ColorRGB
 90
      255
102
RTVSPost2010PropOp44
 70
     1
102
RTVSPost2010Prop45
280
     0
102
RTVSPost2010PropOp45
 70
     1
102
RTVSPost2010Prop46
 90
       50
102
RTVSPost2010PropOp46
 70
     1
102
RTVSPost2010Prop47
 90
       50
102
RTVSPost2010PropOp47
 70
     1
102
RTVSPost2010Prop48
 90
       50
102
RTVSPost2010PropOp48
 70
     1
102
RTVSPost2010Prop49
280
     0
102
RTVSPost2010PropOp49
 70
     1
102
RTVSPost2010Prop50
 90
       50
102
RTVSPost2010PropOp50
 70
     1
102
RTVSPost2010Prop51ColorIndex
 90
      256
102
RTVSPost2010Prop51ColorRGB
 90
-16777216
102
RTVSPost2010PropOp51
 70
     0
102
RTVSPost2010Prop52
140
1.0
102
RTVSPost2010PropOp52
 70
     0
102
RTVSPost2010Prop53
 90
        2
102
RTVSPost2010PropOp53
 70
     1
102
RTVSPost2010Prop54
  1
strokes_ogs.tif
102
RTVSPost2010PropOp54
 70
     1
102
RTVSPost2010Prop55
280
     0
102
RTVSPost2010PropOp55
 70
     1
102
RTVSPost2010Prop56
140
1.0
102
RTVSPost2010PropOp56
 70
     1
102
RTVSPost2010Prop57
140
1.0
102
RTVSPost2010PropOp57
 70
     1
102
RTVSPropertyOp0
 70
     1
102
RTVSPropertyOp1
 70
     1
102
RTVSPropertyOp2
 70
     1
102
RTVSPropertyOp3
 70
     1
102
RTVSPropertyOp4
 70
     1
102
RTVSPropertyOp5
 70
     1
102
RTVSPropertyOp6
 70
     1
102
RTVSPropertyOp7
 70
     1
102
RTVSPropertyOp8
 70
     1
102
RTVSPropertyOp9
 70
     1
102
RTVSPropertyOp10
 70
     1
102
RTVSPropertyOp11
 70
     1
102
RTVSPropertyOp12
 70
     1
102
RTVSPropertyOp13
 70
     1
102
RTVSPropertyOp14
 70
     1
102
RTVSPropertyOp15
 70
     1
102
RTVSPropertyOp16
 70
     1
102
RTVSPropertyOp17
 70
     1
102
RTVSPropertyOp18
 70
     1
102
RTVSPropertyOp19
 70
     1
102
RTVSPropertyOp20
 70
     1
102
RTVSPropertyOp21
 70
     1
102
RTVSPropertyOp22
 70
     1
102
RTVSPropertyOp23
 70
     1
102
RTVSPropertyOp24
 70
     1
102
RTVSPropertyOp25
 70
     1
102
RTVSPropertyOp26
 70
     1
102
RTVSPropertyOp27
 70
     1
102
RTVSPropertyOp28
 70
     1
102
RTVSPropertyOp29
 70
     1
102
RTVSPropertyOp30
 70
     1
102
RTVSPropertyOp31
 70
     1
102
RTVSPropertyOp32
 70
     1
102
RTVSPropertyOp33
 70
     1
102
RTVSPropertyOp34
 70
     1
102
RTVSPropertyOp35
 70
     1
102
RTVSPropertyOp36
 70
     1
102
RTVSPropertyOp37
 70
     1
102
RTVSPropertyOp38
 70
     1
102
RTVSPropertyOp39
 70
     1
102
RTVSPropertyOp40
 70
     1
102
RTVSPropertyOp41
 70
     1
102
RTVSPropertyOp42
 70
     1
102
RTVSPropertyOp43
 70
     1
102
RTVSPropertyOp44
 70
     1
102
RTVSPropertyOp45
 70
     1
102
RTVSPropertyOp46
 70
     1
102
RTVSPropertyOp47
 70
     1
102
RTVSPropertyOp48
 70
     1
102
RTVSPropertyOp49
 70
     1
102
RTVSPropertyOp50
 70
     1
102
RTVSPropertyOp51
 70
     0
102
RTVSPropertyOp52
 70
     0
102
RTVSPropertyOp53
 70
     1
102
RTVSPropertyOp54
 70
     1
102
RTVSPropertyOp55
 70
     1
102
RTVSPropertyOp56
 70
     1
102
RTVSPropertyOp57
 70
     1
102
RTVSPropertyOp58
 70
     1
102
RTVSPropertyOp59
 70
     1
102
RTVSPropertyOp60
 70
     1
102
RTVSPropertyOp61
 70
     1
102
RTVSPropertyOp62
 70
     1
  0
XRECORD
  5
1CEF
102
{ACAD_REACTORS
330
1CEE
102
}
330
1CEE
100
AcDbXrecord
280
     1
102
RTVSPost2010Prop28
280
     0
102
RTVSPost2010PropOp28
 70
     1
102
RTVSPost2010Prop29
280
     1
102
RTVSPost2010PropOp29
 70
     1
102
RTVSPost2010Prop30
280
     1
102
RTVSPost2010PropOp30
 70
     1
102
RTVSPost2010Prop31
280
     0
102
RTVSPost2010PropOp31
 70
     1
102
RTVSPost2010Prop32
280
     0
102
RTVSPost2010PropOp32
 70
     1
102
RTVSPost2010Prop33
280
     0
102
RTVSPost2010PropOp33
 70
     1
102
RTVSPost2010Prop34
280
     0
102
RTVSPost2010PropOp34
 70
     1
102
RTVSPost2010Prop35
280
     0
102
RTVSPost2010PropOp35
 70
     1
102
RTVSPost2010Prop36
280
     0
102
RTVSPost2010PropOp36
 70
     1
102
RTVSPost2010Prop37
 90
       50
102
RTVSPost2010PropOp37
 70
     1
102
RTVSPost2010Prop38
140
0.0
102
RTVSPost2010PropOp38
 70
     1
102
RTVSPost2010Prop39
140
1.0
102
RTVSPost2010PropOp39
 70
     1
102
RTVSPost2010Prop40
 90
        0
102
RTVSPost2010PropOp40
 70
     1
102
RTVSPost2010Prop41ColorIndex
 90
       18
102
RTVSPost2010Prop41ColorRGB
 90
        0
102
RTVSPost2010PropOp41
 70
     1
102
RTVSPost2010Prop42
 90
       50
102
RTVSPost2010PropOp42
 70
     1
102
RTVSPost2010Prop43
 90
        3
102
RTVSPost2010PropOp43
 70
     1
102
RTVSPost2010Prop44ColorIndex
 90
        5
102
RTVSPost2010Prop44ColorRGB
 90
      255
102
RTVSPost2010PropOp44
 70
     1
102
RTVSPost2010Prop45
280
     0
102
RTVSPost2010PropOp45
 70
     1
102
RTVSPost2010Prop46
 90
       50
102
RTVSPost2010PropOp46
 70
     1
102
RTVSPost2010Prop47
 90
       50
102
RTVSPost2010PropOp47
 70
     1
102
RTVSPost2010Prop48
 90
       50
102
RTVSPost2010PropOp48
 70
     1
102
RTVSPost2010Prop49
280
     0
102
RTVSPost2010PropOp49
 70
     1
102
RTVSPost2010Prop50
 90
       50
102
RTVSPost2010PropOp50
 70
     1
102
RTVSPost2010Prop51ColorIndex
 90
      256
102
RTVSPost2010Prop51ColorRGB
 90
-16777216
102
RTVSPost2010PropOp51
 70
     0
102
RTVSPost2010Prop52
140
1.0
102
RTVSPost2010PropOp52
 70
     0
102
RTVSPost2010Prop53
 90
        2
102
RTVSPost2010PropOp53
 70
     1
102
RTVSPost2010Prop54
  1
strokes_ogs.tif
102
RTVSPost2010PropOp54
 70
     1
102
RTVSPost2010Prop55
280
     0
102
RTVSPost2010PropOp55
 70
     1
102
RTVSPost2010Prop56
140
1.0
102
RTVSPost2010PropOp56
 70
     1
102
RTVSPost2010Prop57
140
1.0
102
RTVSPost2010PropOp57
 70
     1
102
RTVSPropertyOp0
 70
     1
102
RTVSPropertyOp1
 70
     1
102
RTVSPropertyOp2
 70
     1
102
RTVSPropertyOp3
 70
     1
102
RTVSPropertyOp4
 70
     1
102
RTVSPropertyOp5
 70
     1
102
RTVSPropertyOp6
 70
     1
102
RTVSPropertyOp7
 70
     1
102
RTVSPropertyOp8
 70
     1
102
RTVSPropertyOp9
 70
     1
102
RTVSPropertyOp10
 70
     1
102
RTVSPropertyOp11
 70
     1
102
RTVSPropertyOp12
 70
     1
102
RTVSPropertyOp13
 70
     1
102
RTVSPropertyOp14
 70
     1
102
RTVSPropertyOp15
 70
     1
102
RTVSPropertyOp16
 70
     1
102
RTVSPropertyOp17
 70
     1
102
RTVSPropertyOp18
 70
     1
102
RTVSPropertyOp19
 70
     1
102
RTVSPropertyOp20
 70
     1
102
RTVSPropertyOp21
 70
     1
102
RTVSPropertyOp22
 70
     1
102
RTVSPropertyOp23
 70
     1
102
RTVSPropertyOp24
 70
     1
102
RTVSPropertyOp25
 70
     1
102
RTVSPropertyOp26
 70
     1
102
RTVSPropertyOp27
 70
     1
102
RTVSPropertyOp28
 70
     1
102
RTVSPropertyOp29
 70
     1
102
RTVSPropertyOp30
 70
     1
102
RTVSPropertyOp31
 70
     1
102
RTVSPropertyOp32
 70
     1
102
RTVSPropertyOp33
 70
     1
102
RTVSPropertyOp34
 70
     1
102
RTVSPropertyOp35
 70
     1
102
RTVSPropertyOp36
 70
     1
102
RTVSPropertyOp37
 70
     1
102
RTVSPropertyOp38
 70
     1
102
RTVSPropertyOp39
 70
     1
102
RTVSPropertyOp40
 70
     1
102
RTVSPropertyOp41
 70
     1
102
RTVSPropertyOp42
 70
     1
102
RTVSPropertyOp43
 70
     1
102
RTVSPropertyOp44
 70
     1
102
RTVSPropertyOp45
 70
     1
102
RTVSPropertyOp46
 70
     1
102
RTVSPropertyOp47
 70
     1
102
RTVSPropertyOp48
 70
     1
102
RTVSPropertyOp49
 70
     1
102
RTVSPropertyOp50
 70
     1
102
RTVSPropertyOp51
 70
     0
102
RTVSPropertyOp52
 70
     0
102
RTVSPropertyOp53
 70
     1
102
RTVSPropertyOp54
 70
     1
102
RTVSPropertyOp55
 70
     1
102
RTVSPropertyOp56
 70
     1
102
RTVSPropertyOp57
 70
     1
102
RTVSPropertyOp58
 70
     1
102
RTVSPropertyOp59
 70
     1
102
RTVSPropertyOp60
 70
     1
102
RTVSPropertyOp61
 70
     1
102
RTVSPropertyOp62
 70
     1
  0
XRECORD
  5
1CF1
102
{ACAD_REACTORS
330
1CF0
102
}
330
1CF0
100
AcDbXrecord
280
     1
102
RTVSPost2010Prop28
280
     0
102
RTVSPost2010PropOp28
 70
     1
102
RTVSPost2010Prop29
280
     1
102
RTVSPost2010PropOp29
 70
     1
102
RTVSPost2010Prop30
280
     1
102
RTVSPost2010PropOp30
 70
     1
102
RTVSPost2010Prop31
280
     0
102
RTVSPost2010PropOp31
 70
     1
102
RTVSPost2010Prop32
280
     0
102
RTVSPost2010PropOp32
 70
     1
102
RTVSPost2010Prop33
280
     0
102
RTVSPost2010PropOp33
 70
     1
102
RTVSPost2010Prop34
280
     0
102
RTVSPost2010PropOp34
 70
     1
102
RTVSPost2010Prop35
280
     0
102
RTVSPost2010PropOp35
 70
     1
102
RTVSPost2010Prop36
280
     0
102
RTVSPost2010PropOp36
 70
     1
102
RTVSPost2010Prop37
 90
       50
102
RTVSPost2010PropOp37
 70
     1
102
RTVSPost2010Prop38
140
0.0
102
RTVSPost2010PropOp38
 70
     1
102
RTVSPost2010Prop39
140
1.0
102
RTVSPost2010PropOp39
 70
     1
102
RTVSPost2010Prop40
 90
        0
102
RTVSPost2010PropOp40
 70
     1
102
RTVSPost2010Prop41ColorIndex
 90
       18
102
RTVSPost2010Prop41ColorRGB
 90
        0
102
RTVSPost2010PropOp41
 70
     1
102
RTVSPost2010Prop42
 90
       50
102
RTVSPost2010PropOp42
 70
     1
102
RTVSPost2010Prop43
 90
        3
102
RTVSPost2010PropOp43
 70
     1
102
RTVSPost2010Prop44ColorIndex
 90
        5
102
RTVSPost2010Prop44ColorRGB
 90
      255
102
RTVSPost2010PropOp44
 70
     1
102
RTVSPost2010Prop45
280
     0
102
RTVSPost2010PropOp45
 70
     1
102
RTVSPost2010Prop46
 90
       50
102
RTVSPost2010PropOp46
 70
     1
102
RTVSPost2010Prop47
 90
       50
102
RTVSPost2010PropOp47
 70
     1
102
RTVSPost2010Prop48
 90
       50
102
RTVSPost2010PropOp48
 70
     1
102
RTVSPost2010Prop49
280
     0
102
RTVSPost2010PropOp49
 70
     1
102
RTVSPost2010Prop50
 90
       50
102
RTVSPost2010PropOp50
 70
     1
102
RTVSPost2010Prop51ColorIndex
 90
      256
102
RTVSPost2010Prop51ColorRGB
 90
-16777216
102
RTVSPost2010PropOp51
 70
     0
102
RTVSPost2010Prop52
140
1.0
102
RTVSPost2010PropOp52
 70
     0
102
RTVSPost2010Prop53
 90
        2
102
RTVSPost2010PropOp53
 70
     1
102
RTVSPost2010Prop54
  1
strokes_ogs.tif
102
RTVSPost2010PropOp54
 70
     1
102
RTVSPost2010Prop55
280
     0
102
RTVSPost2010PropOp55
 70
     1
102
RTVSPost2010Prop56
140
1.0
102
RTVSPost2010PropOp56
 70
     1
102
RTVSPost2010Prop57
140
1.0
102
RTVSPost2010PropOp57
 70
     1
102
RTVSPropertyOp0
 70
     1
102
RTVSPropertyOp1
 70
     1
102
RTVSPropertyOp2
 70
     1
102
RTVSPropertyOp3
 70
     1
102
RTVSPropertyOp4
 70
     1
102
RTVSPropertyOp5
 70
     1
102
RTVSPropertyOp6
 70
     1
102
RTVSPropertyOp7
 70
     1
102
RTVSPropertyOp8
 70
     1
102
RTVSPropertyOp9
 70
     1
102
RTVSPropertyOp10
 70
     1
102
RTVSPropertyOp11
 70
     1
102
RTVSPropertyOp12
 70
     1
102
RTVSPropertyOp13
 70
     1
102
RTVSPropertyOp14
 70
     1
102
RTVSPropertyOp15
 70
     1
102
RTVSPropertyOp16
 70
     1
102
RTVSPropertyOp17
 70
     1
102
RTVSPropertyOp18
 70
     1
102
RTVSPropertyOp19
 70
     1
102
RTVSPropertyOp20
 70
     1
102
RTVSPropertyOp21
 70
     1
102
RTVSPropertyOp22
 70
     1
102
RTVSPropertyOp23
 70
     1
102
RTVSPropertyOp24
 70
     1
102
RTVSPropertyOp25
 70
     1
102
RTVSPropertyOp26
 70
     1
102
RTVSPropertyOp27
 70
     1
102
RTVSPropertyOp28
 70
     1
102
RTVSPropertyOp29
 70
     1
102
RTVSPropertyOp30
 70
     1
102
RTVSPropertyOp31
 70
     1
102
RTVSPropertyOp32
 70
     1
102
RTVSPropertyOp33
 70
     1
102
RTVSPropertyOp34
 70
     1
102
RTVSPropertyOp35
 70
     1
102
RTVSPropertyOp36
 70
     1
102
RTVSPropertyOp37
 70
     1
102
RTVSPropertyOp38
 70
     1
102
RTVSPropertyOp39
 70
     1
102
RTVSPropertyOp40
 70
     1
102
RTVSPropertyOp41
 70
     1
102
RTVSPropertyOp42
 70
     1
102
RTVSPropertyOp43
 70
     1
102
RTVSPropertyOp44
 70
     1
102
RTVSPropertyOp45
 70
     1
102
RTVSPropertyOp46
 70
     1
102
RTVSPropertyOp47
 70
     1
102
RTVSPropertyOp48
 70
     1
102
RTVSPropertyOp49
 70
     1
102
RTVSPropertyOp50
 70
     1
102
RTVSPropertyOp51
 70
     0
102
RTVSPropertyOp52
 70
     0
102
RTVSPropertyOp53
 70
     1
102
RTVSPropertyOp54
 70
     1
102
RTVSPropertyOp55
 70
     1
102
RTVSPropertyOp56
 70
     1
102
RTVSPropertyOp57
 70
     1
102
RTVSPropertyOp58
 70
     1
102
RTVSPropertyOp59
 70
     1
102
RTVSPropertyOp60
 70
     1
102
RTVSPropertyOp61
 70
     1
102
RTVSPropertyOp62
 70
     1
  0
XRECORD
  5
1CE7
102
{ACAD_REACTORS
330
1CE6
102
}
330
1CE6
100
AcDbXrecord
280
     1
102
RTVSPost2010Prop28
280
     0
102
RTVSPost2010PropOp28
 70
     1
102
RTVSPost2010Prop29
280
     1
102
RTVSPost2010PropOp29
 70
     1
102
RTVSPost2010Prop30
280
     1
102
RTVSPost2010PropOp30
 70
     1
102
RTVSPost2010Prop31
280
     0
102
RTVSPost2010PropOp31
 70
     1
102
RTVSPost2010Prop32
280
     0
102
RTVSPost2010PropOp32
 70
     1
102
RTVSPost2010Prop33
280
     0
102
RTVSPost2010PropOp33
 70
     1
102
RTVSPost2010Prop34
280
     0
102
RTVSPost2010PropOp34
 70
     1
102
RTVSPost2010Prop35
280
     0
102
RTVSPost2010PropOp35
 70
     1
102
RTVSPost2010Prop36
280
     0
102
RTVSPost2010PropOp36
 70
     1
102
RTVSPost2010Prop37
 90
       50
102
RTVSPost2010PropOp37
 70
     1
102
RTVSPost2010Prop38
140
0.0
102
RTVSPost2010PropOp38
 70
     1
102
RTVSPost2010Prop39
140
1.0
102
RTVSPost2010PropOp39
 70
     1
102
RTVSPost2010Prop40
 90
        0
102
RTVSPost2010PropOp40
 70
     1
102
RTVSPost2010Prop41ColorIndex
 90
       18
102
RTVSPost2010Prop41ColorRGB
 90
        0
102
RTVSPost2010PropOp41
 70
     1
102
RTVSPost2010Prop42
 90
       50
102
RTVSPost2010PropOp42
 70
     1
102
RTVSPost2010Prop43
 90
        3
102
RTVSPost2010PropOp43
 70
     1
102
RTVSPost2010Prop44ColorIndex
 90
        5
102
RTVSPost2010Prop44ColorRGB
 90
      255
102
RTVSPost2010PropOp44
 70
     1
102
RTVSPost2010Prop45
280
     0
102
RTVSPost2010PropOp45
 70
     1
102
RTVSPost2010Prop46
 90
       50
102
RTVSPost2010PropOp46
 70
     1
102
RTVSPost2010Prop47
 90
       50
102
RTVSPost2010PropOp47
 70
     1
102
RTVSPost2010Prop48
 90
       50
102
RTVSPost2010PropOp48
 70
     1
102
RTVSPost2010Prop49
280
     0
102
RTVSPost2010PropOp49
 70
     1
102
RTVSPost2010Prop50
 90
       50
102
RTVSPost2010PropOp50
 70
     1
102
RTVSPost2010Prop51ColorIndex
 90
      256
102
RTVSPost2010Prop51ColorRGB
 90
-16777216
102
RTVSPost2010PropOp51
 70
     0
102
RTVSPost2010Prop52
140
1.0
102
RTVSPost2010PropOp52
 70
     0
102
RTVSPost2010Prop53
 90
        2
102
RTVSPost2010PropOp53
 70
     1
102
RTVSPost2010Prop54
  1
strokes_ogs.tif
102
RTVSPost2010PropOp54
 70
     1
102
RTVSPost2010Prop55
280
     0
102
RTVSPost2010PropOp55
 70
     1
102
RTVSPost2010Prop56
140
1.0
102
RTVSPost2010PropOp56
 70
     1
102
RTVSPost2010Prop57
140
1.0
102
RTVSPost2010PropOp57
 70
     1
102
RTVSPropertyOp0
 70
     1
102
RTVSPropertyOp1
 70
     1
102
RTVSPropertyOp2
 70
     1
102
RTVSPropertyOp3
 70
     1
102
RTVSPropertyOp4
 70
     1
102
RTVSPropertyOp5
 70
     1
102
RTVSPropertyOp6
 70
     1
102
RTVSPropertyOp7
 70
     1
102
RTVSPropertyOp8
 70
     1
102
RTVSPropertyOp9
 70
     1
102
RTVSPropertyOp10
 70
     1
102
RTVSPropertyOp11
 70
     1
102
RTVSPropertyOp12
 70
     1
102
RTVSPropertyOp13
 70
     1
102
RTVSPropertyOp14
 70
     1
102
RTVSPropertyOp15
 70
     1
102
RTVSPropertyOp16
 70
     1
102
RTVSPropertyOp17
 70
     1
102
RTVSPropertyOp18
 70
     1
102
RTVSPropertyOp19
 70
     1
102
RTVSPropertyOp20
 70
     1
102
RTVSPropertyOp21
 70
     1
102
RTVSPropertyOp22
 70
     1
102
RTVSPropertyOp23
 70
     1
102
RTVSPropertyOp24
 70
     1
102
RTVSPropertyOp25
 70
     1
102
RTVSPropertyOp26
 70
     1
102
RTVSPropertyOp27
 70
     1
102
RTVSPropertyOp28
 70
     1
102
RTVSPropertyOp29
 70
     1
102
RTVSPropertyOp30
 70
     1
102
RTVSPropertyOp31
 70
     1
102
RTVSPropertyOp32
 70
     1
102
RTVSPropertyOp33
 70
     1
102
RTVSPropertyOp34
 70
     1
102
RTVSPropertyOp35
 70
     1
102
RTVSPropertyOp36
 70
     1
102
RTVSPropertyOp37
 70
     1
102
RTVSPropertyOp38
 70
     1
102
RTVSPropertyOp39
 70
     1
102
RTVSPropertyOp40
 70
     1
102
RTVSPropertyOp41
 70
     1
102
RTVSPropertyOp42
 70
     1
102
RTVSPropertyOp43
 70
     1
102
RTVSPropertyOp44
 70
     1
102
RTVSPropertyOp45
 70
     1
102
RTVSPropertyOp46
 70
     1
102
RTVSPropertyOp47
 70
     1
102
RTVSPropertyOp48
 70
     1
102
RTVSPropertyOp49
 70
     1
102
RTVSPropertyOp50
 70
     1
102
RTVSPropertyOp51
 70
     0
102
RTVSPropertyOp52
 70
     0
102
RTVSPropertyOp53
 70
     1
102
RTVSPropertyOp54
 70
     1
102
RTVSPropertyOp55
 70
     1
102
RTVSPropertyOp56
 70
     1
102
RTVSPropertyOp57
 70
     1
102
RTVSPropertyOp58
 70
     1
102
RTVSPropertyOp59
 70
     1
102
RTVSPropertyOp60
 70
     1
102
RTVSPropertyOp61
 70
     1
102
RTVSPropertyOp62
 70
     1
  0
XRECORD
  5
1CDB
102
{ACAD_REACTORS
330
1CDA
102
}
330
1CDA
100
AcDbXrecord
280
     1
102
RTVSPost2010Prop28
280
     0
102
RTVSPost2010PropOp28
 70
     1
102
RTVSPost2010Prop29
280
     1
102
RTVSPost2010PropOp29
 70
     1
102
RTVSPost2010Prop30
280
     1
102
RTVSPost2010PropOp30
 70
     1
102
RTVSPost2010Prop31
280
     0
102
RTVSPost2010PropOp31
 70
     1
102
RTVSPost2010Prop32
280
     0
102
RTVSPost2010PropOp32
 70
     1
102
RTVSPost2010Prop33
280
     0
102
RTVSPost2010PropOp33
 70
     1
102
RTVSPost2010Prop34
280
     0
102
RTVSPost2010PropOp34
 70
     1
102
RTVSPost2010Prop35
280
     0
102
RTVSPost2010PropOp35
 70
     1
102
RTVSPost2010Prop36
280
     0
102
RTVSPost2010PropOp36
 70
     1
102
RTVSPost2010Prop37
 90
       50
102
RTVSPost2010PropOp37
 70
     1
102
RTVSPost2010Prop38
140
0.0
102
RTVSPost2010PropOp38
 70
     1
102
RTVSPost2010Prop39
140
1.0
102
RTVSPost2010PropOp39
 70
     1
102
RTVSPost2010Prop40
 90
        0
102
RTVSPost2010PropOp40
 70
     1
102
RTVSPost2010Prop41ColorIndex
 90
       18
102
RTVSPost2010Prop41ColorRGB
 90
        0
102
RTVSPost2010PropOp41
 70
     1
102
RTVSPost2010Prop42
 90
       50
102
RTVSPost2010PropOp42
 70
     1
102
RTVSPost2010Prop43
 90
        3
102
RTVSPost2010PropOp43
 70
     1
102
RTVSPost2010Prop44ColorIndex
 90
        5
102
RTVSPost2010Prop44ColorRGB
 90
      255
102
RTVSPost2010PropOp44
 70
     1
102
RTVSPost2010Prop45
280
     0
102
RTVSPost2010PropOp45
 70
     1
102
RTVSPost2010Prop46
 90
       50
102
RTVSPost2010PropOp46
 70
     1
102
RTVSPost2010Prop47
 90
       50
102
RTVSPost2010PropOp47
 70
     1
102
RTVSPost2010Prop48
 90
       50
102
RTVSPost2010PropOp48
 70
     1
102
RTVSPost2010Prop49
280
     0
102
RTVSPost2010PropOp49
 70
     1
102
RTVSPost2010Prop50
 90
       50
102
RTVSPost2010PropOp50
 70
     1
102
RTVSPost2010Prop51ColorIndex
 90
      256
102
RTVSPost2010Prop51ColorRGB
 90
-16777216
102
RTVSPost2010PropOp51
 70
     0
102
RTVSPost2010Prop52
140
1.0
102
RTVSPost2010PropOp52
 70
     0
102
RTVSPost2010Prop53
 90
        2
102
RTVSPost2010PropOp53
 70
     1
102
RTVSPost2010Prop54
  1
strokes_ogs.tif
102
RTVSPost2010PropOp54
 70
     1
102
RTVSPost2010Prop55
280
     0
102
RTVSPost2010PropOp55
 70
     1
102
RTVSPost2010Prop56
140
1.0
102
RTVSPost2010PropOp56
 70
     1
102
RTVSPost2010Prop57
140
1.0
102
RTVSPost2010PropOp57
 70
     1
102
RTVSPropertyOp0
 70
     1
102
RTVSPropertyOp1
 70
     1
102
RTVSPropertyOp2
 70
     1
102
RTVSPropertyOp3
 70
     1
102
RTVSPropertyOp4
 70
     1
102
RTVSPropertyOp5
 70
     1
102
RTVSPropertyOp6
 70
     1
102
RTVSPropertyOp7
 70
     1
102
RTVSPropertyOp8
 70
     1
102
RTVSPropertyOp9
 70
     1
102
RTVSPropertyOp10
 70
     1
102
RTVSPropertyOp11
 70
     1
102
RTVSPropertyOp12
 70
     1
102
RTVSPropertyOp13
 70
     1
102
RTVSPropertyOp14
 70
     1
102
RTVSPropertyOp15
 70
     1
102
RTVSPropertyOp16
 70
     1
102
RTVSPropertyOp17
 70
     1
102
RTVSPropertyOp18
 70
     1
102
RTVSPropertyOp19
 70
     1
102
RTVSPropertyOp20
 70
     1
102
RTVSPropertyOp21
 70
     1
102
RTVSPropertyOp22
 70
     1
102
RTVSPropertyOp23
 70
     1
102
RTVSPropertyOp24
 70
     1
102
RTVSPropertyOp25
 70
     1
102
RTVSPropertyOp26
 70
     1
102
RTVSPropertyOp27
 70
     1
102
RTVSPropertyOp28
 70
     1
102
RTVSPropertyOp29
 70
     1
102
RTVSPropertyOp30
 70
     1
102
RTVSPropertyOp31
 70
     1
102
RTVSPropertyOp32
 70
     1
102
RTVSPropertyOp33
 70
     1
102
RTVSPropertyOp34
 70
     1
102
RTVSPropertyOp35
 70
     1
102
RTVSPropertyOp36
 70
     1
102
RTVSPropertyOp37
 70
     1
102
RTVSPropertyOp38
 70
     1
102
RTVSPropertyOp39
 70
     1
102
RTVSPropertyOp40
 70
     1
102
RTVSPropertyOp41
 70
     1
102
RTVSPropertyOp42
 70
     1
102
RTVSPropertyOp43
 70
     1
102
RTVSPropertyOp44
 70
     1
102
RTVSPropertyOp45
 70
     1
102
RTVSPropertyOp46
 70
     1
102
RTVSPropertyOp47
 70
     1
102
RTVSPropertyOp48
 70
     1
102
RTVSPropertyOp49
 70
     1
102
RTVSPropertyOp50
 70
     1
102
RTVSPropertyOp51
 70
     0
102
RTVSPropertyOp52
 70
     0
102
RTVSPropertyOp53
 70
     1
102
RTVSPropertyOp54
 70
     1
102
RTVSPropertyOp55
 70
     1
102
RTVSPropertyOp56
 70
     1
102
RTVSPropertyOp57
 70
     1
102
RTVSPropertyOp58
 70
     1
102
RTVSPropertyOp59
 70
     1
102
RTVSPropertyOp60
 70
     1
102
RTVSPropertyOp61
 70
     1
102
RTVSPropertyOp62
 70
     1
  0
XRECORD
  5
1CF3
102
{ACAD_REACTORS
330
1CF2
102
}
330
1CF2
100
AcDbXrecord
280
     1
102
RTVSPost2010Prop28
280
     0
102
RTVSPost2010PropOp28
 70
     1
102
RTVSPost2010Prop29
280
     1
102
RTVSPost2010PropOp29
 70
     1
102
RTVSPost2010Prop30
280
     1
102
RTVSPost2010PropOp30
 70
     1
102
RTVSPost2010Prop31
280
     0
102
RTVSPost2010PropOp31
 70
     1
102
RTVSPost2010Prop32
280
     0
102
RTVSPost2010PropOp32
 70
     1
102
RTVSPost2010Prop33
280
     0
102
RTVSPost2010PropOp33
 70
     1
102
RTVSPost2010Prop34
280
     0
102
RTVSPost2010PropOp34
 70
     1
102
RTVSPost2010Prop35
280
     0
102
RTVSPost2010PropOp35
 70
     1
102
RTVSPost2010Prop36
280
     0
102
RTVSPost2010PropOp36
 70
     1
102
RTVSPost2010Prop37
 90
       50
102
RTVSPost2010PropOp37
 70
     1
102
RTVSPost2010Prop38
140
0.0
102
RTVSPost2010PropOp38
 70
     1
102
RTVSPost2010Prop39
140
1.0
102
RTVSPost2010PropOp39
 70
     1
102
RTVSPost2010Prop40
 90
        0
102
RTVSPost2010PropOp40
 70
     1
102
RTVSPost2010Prop41ColorIndex
 90
       18
102
RTVSPost2010Prop41ColorRGB
 90
        0
102
RTVSPost2010PropOp41
 70
     1
102
RTVSPost2010Prop42
 90
       50
102
RTVSPost2010PropOp42
 70
     1
102
RTVSPost2010Prop43
 90
        3
102
RTVSPost2010PropOp43
 70
     1
102
RTVSPost2010Prop44ColorIndex
 90
        5
102
RTVSPost2010Prop44ColorRGB
 90
      255
102
RTVSPost2010PropOp44
 70
     1
102
RTVSPost2010Prop45
280
     0
102
RTVSPost2010PropOp45
 70
     1
102
RTVSPost2010Prop46
 90
       50
102
RTVSPost2010PropOp46
 70
     1
102
RTVSPost2010Prop47
 90
       50
102
RTVSPost2010PropOp47
 70
     1
102
RTVSPost2010Prop48
 90
       50
102
RTVSPost2010PropOp48
 70
     1
102
RTVSPost2010Prop49
280
     0
102
RTVSPost2010PropOp49
 70
     1
102
RTVSPost2010Prop50
 90
       50
102
RTVSPost2010PropOp50
 70
     1
102
RTVSPost2010Prop51ColorIndex
 90
      256
102
RTVSPost2010Prop51ColorRGB
 90
-16777216
102
RTVSPost2010PropOp51
 70
     0
102
RTVSPost2010Prop52
140
1.0
102
RTVSPost2010PropOp52
 70
     0
102
RTVSPost2010Prop53
 90
        2
102
RTVSPost2010PropOp53
 70
     1
102
RTVSPost2010Prop54
  1
strokes_ogs.tif
102
RTVSPost2010PropOp54
 70
     1
102
RTVSPost2010Prop55
280
     0
102
RTVSPost2010PropOp55
 70
     1
102
RTVSPost2010Prop56
140
1.0
102
RTVSPost2010PropOp56
 70
     1
102
RTVSPost2010Prop57
140
1.0
102
RTVSPost2010PropOp57
 70
     1
102
RTVSPropertyOp0
 70
     1
102
RTVSPropertyOp1
 70
     1
102
RTVSPropertyOp2
 70
     1
102
RTVSPropertyOp3
 70
     1
102
RTVSPropertyOp4
 70
     1
102
RTVSPropertyOp5
 70
     1
102
RTVSPropertyOp6
 70
     1
102
RTVSPropertyOp7
 70
     1
102
RTVSPropertyOp8
 70
     1
102
RTVSPropertyOp9
 70
     1
102
RTVSPropertyOp10
 70
     1
102
RTVSPropertyOp11
 70
     1
102
RTVSPropertyOp12
 70
     1
102
RTVSPropertyOp13
 70
     1
102
RTVSPropertyOp14
 70
     1
102
RTVSPropertyOp15
 70
     1
102
RTVSPropertyOp16
 70
     1
102
RTVSPropertyOp17
 70
     1
102
RTVSPropertyOp18
 70
     1
102
RTVSPropertyOp19
 70
     1
102
RTVSPropertyOp20
 70
     1
102
RTVSPropertyOp21
 70
     1
102
RTVSPropertyOp22
 70
     1
102
RTVSPropertyOp23
 70
     1
102
RTVSPropertyOp24
 70
     1
102
RTVSPropertyOp25
 70
     1
102
RTVSPropertyOp26
 70
     1
102
RTVSPropertyOp27
 70
     1
102
RTVSPropertyOp28
 70
     1
102
RTVSPropertyOp29
 70
     1
102
RTVSPropertyOp30
 70
     1
102
RTVSPropertyOp31
 70
     1
102
RTVSPropertyOp32
 70
     1
102
RTVSPropertyOp33
 70
     1
102
RTVSPropertyOp34
 70
     1
102
RTVSPropertyOp35
 70
     1
102
RTVSPropertyOp36
 70
     1
102
RTVSPropertyOp37
 70
     1
102
RTVSPropertyOp38
 70
     1
102
RTVSPropertyOp39
 70
     1
102
RTVSPropertyOp40
 70
     1
102
RTVSPropertyOp41
 70
     1
102
RTVSPropertyOp42
 70
     1
102
RTVSPropertyOp43
 70
     1
102
RTVSPropertyOp44
 70
     1
102
RTVSPropertyOp45
 70
     1
102
RTVSPropertyOp46
 70
     1
102
RTVSPropertyOp47
 70
     1
102
RTVSPropertyOp48
 70
     1
102
RTVSPropertyOp49
 70
     1
102
RTVSPropertyOp50
 70
     1
102
RTVSPropertyOp51
 70
     0
102
RTVSPropertyOp52
 70
     0
102
RTVSPropertyOp53
 70
     1
102
RTVSPropertyOp54
 70
     1
102
RTVSPropertyOp55
 70
     1
102
RTVSPropertyOp56
 70
     1
102
RTVSPropertyOp57
 70
     1
102
RTVSPropertyOp58
 70
     1
102
RTVSPropertyOp59
 70
     1
102
RTVSPropertyOp60
 70
     1
102
RTVSPropertyOp61
 70
     1
102
RTVSPropertyOp62
 70
     1
  0
ENDSEC
  0
EOF
