  0
SECTION
  2
HEADER
  9
$ACADVER
  1
AC1015
  9
$ACADMAINTVER
 70
    20
  9
$DWGCODEPAGE
  3
ANSI_932
  9
$INSBASE
 10
0.0
 20
0.0
 30
0.0
  9
$EXTMIN
 10
9.9999975266385
 20
10.0
 30
0.0
  9
$EXTMAX
 10
334.5857998951308
 20
252.7994562969892
 30
0.0
  9
$LIMMIN
 10
0.0000015376081137
 20
-0.0000001931532552
  9
$LIMMAX
 10
396.0000015376081
 20
272.9999998068465
  9
$ORTHOMODE
 70
     0
  9
$REGENMODE
 70
     1
  9
$FILLMODE
 70
     1
  9
$QTEXTMODE
 70
     0
  9
$MIRRTEXT
 70
     1
  9
$LTSCALE
 40
1.0
  9
$ATTMODE
 70
     1
  9
$TEXTSIZE
 40
2.5
  9
$TRACEWID
 40
1.0
  9
$TEXTSTYLE
  7
STANDARD
  9
$CLAYER
  8
0
  9
$CELTYPE
  6
ByLayer
  9
$CECOLOR
 62
   256
  9
$CELTSCALE
 40
1.0
  9
$DISPSILH
 70
     0
  9
$DIMSCALE
 40
1.0
  9
$DIMASZ
 40
3.0
  9
$DIMEXO
 40
1.0
  9
$DIMDLI
 40
10.0
  9
$DIMRND
 40
0.0
  9
$DIMDLE
 40
0.0
  9
$DIMEXE
 40
1.0
  9
$DIMTP
 40
0.0
  9
$DIMTM
 40
0.0
  9
$DIMTXT
 40
2.5
  9
$DIMCEN
 40
0.0
  9
$DIMTSZ
 40
0.0
  9
$DIMTOL
 70
     0
  9
$DIMLIM
 70
     0
  9
$DIMTIH
 70
     0
  9
$DIMTOH
 70
     0
  9
$DIMSE1
 70
     0
  9
$DIMSE2
 70
     0
  9
$DIMTAD
 70
     3
  9
$DIMZIN
 70
     8
  9
$DIMBLK
  1

  9
$DIMASO
 70
     1
  9
$DIMSHO
 70
     1
  9
$DIMPOST
  1

  9
$DIMAPOST
  1

  9
$DIMALT
 70
     0
  9
$DIMALTD
 70
     2
  9
$DIMALTF
 40
25.4
  9
$DIMLFAC
 40
1.0
  9
$DIMTOFL
 70
     1
  9
$DIMTVP
 40
0.0
  9
$DIMTIX
 70
     0
  9
$DIMSOXD
 70
     0
  9
$DIMSAH
 70
     1
  9
$DIMBLK1
  1
OPEN
  9
$DIMBLK2
  1
OPEN
  9
$DIMSTYLE
  2
STANDARD
  9
$DIMCLRD
 70
     0
  9
$DIMCLRE
 70
     0
  9
$DIMCLRT
 70
     0
  9
$DIMTFAC
 40
1.0
  9
$DIMGAP
 40
1.0
  9
$DIMJUST
 70
     0
  9
$DIMSD1
 70
     0
  9
$DIMSD2
 70
     0
  9
$DIMTOLJ
 70
     1
  9
$DIMTZIN
 70
     0
  9
$DIMALTZ
 70
     0
  9
$DIMALTTZ
 70
     0
  9
$DIMUPT
 70
     0
  9
$DIMDEC
 70
     4
  9
$DIMTDEC
 70
     4
  9
$DIMALTU
 70
     2
  9
$DIMALTTD
 70
     2
  9
$DIMTXSTY
  7
STANDARD
  9
$DIMAUNIT
 70
     0
  9
$DIMADEC
 70
     0
  9
$DIMALTRND
 40
0.0
  9
$DIMAZIN
 70
     0
  9
$DIMDSEP
 70
    46
  9
$DIMATFIT
 70
     3
  9
$DIMFRAC
 70
     0
  9
$DIMLDRBLK
  1
OPEN
  9
$DIMLUNIT
 70
     2
  9
$DIMLWD
 70
    -2
  9
$DIMLWE
 70
    -2
  9
$DIMTMOVE
 70
     0
  9
$LUNITS
 70
     2
  9
$LUPREC
 70
     4
  9
$SKETCHINC
 40
1.0
  9
$FILLETRAD
 40
0.0
  9
$AUNITS
 70
     0
  9
$AUPREC
 70
     0
  9
$MENU
  1
.
  9
$ELEVATION
 40
0.0
  9
$PELEVATION
 40
0.0
  9
$THICKNESS
 40
0.0
  9
$LIMCHECK
 70
     0
  9
$CHAMFERA
 40
10.0
  9
$CHAMFERB
 40
10.0
  9
$CHAMFERC
 40
0.0
  9
$CHAMFERD
 40
0.0
  9
$SKPOLY
 70
     0
  9
$TDCREATE
 40
2456308.390694063
  9
$TDUCREATE
 40
2456308.015694063
  9
$TDUPDATE
 40
2457192.643507176
  9
$TDUUPDATE
 40
2457192.268507176
  9
$TDINDWG
 40
0.0839019792
  9
$TDUSRTIMER
 40
0.0839019444
  9
$USRTIMER
 70
     1
  9
$ANGBASE
 50
0.0
  9
$ANGDIR
 70
     0
  9
$PDMODE
 70
     0
  9
$PDSIZE
 40
0.0
  9
$PLINEWID
 40
0.0
  9
$SPLFRAME
 70
     0
  9
$SPLINETYPE
 70
     6
  9
$SPLINESEGS
 70
     8
  9
$HANDSEED
  5
D93
  9
$SURFTAB1
 70
     6
  9
$SURFTAB2
 70
     6
  9
$SURFTYPE
 70
     6
  9
$SURFU
 70
     6
  9
$SURFV
 70
     6
  9
$UCSBASE
  2

  9
$UCSNAME
  2

  9
$UCSORG
 10
0.0
 20
0.0
 30
0.0
  9
$UCSXDIR
 10
1.0
 20
0.0
 30
0.0
  9
$UCSYDIR
 10
0.0
 20
1.0
 30
0.0
  9
$UCSORTHOREF
  2

  9
$UCSORTHOVIEW
 70
     0
  9
$UCSORGTOP
 10
0.0
 20
0.0
 30
0.0
  9
$UCSORGBOTTOM
 10
0.0
 20
0.0
 30
0.0
  9
$UCSORGLEFT
 10
0.0
 20
0.0
 30
0.0
  9
$UCSORGRIGHT
 10
0.0
 20
0.0
 30
0.0
  9
$UCSORGFRONT
 10
0.0
 20
0.0
 30
0.0
  9
$UCSORGBACK
 10
0.0
 20
0.0
 30
0.0
  9
$PUCSBASE
  2

  9
$PUCSNAME
  2

  9
$PUCSORG
 10
0.0
 20
0.0
 30
0.0
  9
$PUCSXDIR
 10
1.0
 20
0.0
 30
0.0
  9
$PUCSYDIR
 10
0.0
 20
1.0
 30
0.0
  9
$PUCSORTHOREF
  2

  9
$PUCSORTHOVIEW
 70
     0
  9
$PUCSORGTOP
 10
0.0
 20
0.0
 30
0.0
  9
$PUCSORGBOTTOM
 10
0.0
 20
0.0
 30
0.0
  9
$PUCSORGLEFT
 10
0.0
 20
0.0
 30
0.0
  9
$PUCSORGRIGHT
 10
0.0
 20
0.0
 30
0.0
  9
$PUCSORGFRONT
 10
0.0
 20
0.0
 30
0.0
  9
$PUCSORGBACK
 10
0.0
 20
0.0
 30
0.0
  9
$USERI1
 70
     0
  9
$USERI2
 70
     0
  9
$USERI3
 70
     0
  9
$USERI4
 70
     0
  9
$USERI5
 70
     0
  9
$USERR1
 40
0.0
  9
$USERR2
 40
0.0
  9
$USERR3
 40
0.0
  9
$USERR4
 40
0.0
  9
$USERR5
 40
0.0
  9
$WORLDVIEW
 70
     1
  9
$SHADEDGE
 70
     3
  9
$SHADEDIF
 70
    70
  9
$TILEMODE
 70
     1
  9
$MAXACTVP
 70
    48
  9
$PINSBASE
 10
0.0
 20
0.0
 30
0.0
  9
$PLIMCHECK
 70
     0
  9
$PEXTMIN
 10
1.000000000000000E+20
 20
1.000000000000000E+20
 30
1.000000000000000E+20
  9
$PEXTMAX
 10
-1.000000000000000E+20
 20
-1.000000000000000E+20
 30
-1.000000000000000E+20
  9
$PLIMMIN
 10
0.0
 20
0.0
  9
$PLIMMAX
 10
420.0
 20
297.0
  9
$UNITMODE
 70
     0
  9
$VISRETAIN
 70
     1
  9
$PLINEGEN
 70
     0
  9
$PSLTSCALE
 70
     1
  9
$TREEDEPTH
 70
  3020
  9
$CMLSTYLE
  2
Standard
  9
$CMLJUST
 70
     0
  9
$CMLSCALE
 40
1.0
  9
$PROXYGRAPHICS
 70
     1
  9
$MEASUREMENT
 70
     0
  9
$CELWEIGHT
370
    -1
  9
$ENDCAPS
280
     0
  9
$JOINSTYLE
280
     0
  9
$LWDISPLAY
290
     0
  9
$INSUNITS
 70
     0
  9
$HYPERLINKBASE
  1

  9
$STYLESHEET
  1

  9
$XEDIT
290
     1
  9
$CEPSNTYPE
380
     0
  9
$PSTYLEMODE
290
     1
  9
$FINGERPRINTGUID
  2
{CE69435D-6CD2-4CA7-A052-916B9D89ADF0}
  9
$VERSIONGUID
  2
{FFF2C4FA-7BDC-4634-9668-C6A3217B1982}
  9
$EXTNAMES
290
     1
  9
$PSVPSCALE
 40
0.0
  9
$OLESTARTUP
290
     0
  0
ENDSEC
  0
SECTION
  2
CLASSES
  0
CLASS
  1
ACDBDICTIONARYWDFLT
  2
AcDbDictionaryWithDefault
  3
ObjectDBX Classes
 90
        0
280
     0
281
     0
  0
CLASS
  1
MATERIAL
  2
AcDbMaterial
  3
ObjectDBX Classes
 90
     1153
280
     0
281
     0
  0
CLASS
  1
VISUALSTYLE
  2
AcDbVisualStyle
  3
ObjectDBX Classes
 90
     4095
280
     0
281
     0
  0
CLASS
  1
SCALE
  2
AcDbScale
  3
ObjectDBX Classes
 90
     1153
280
     0
281
     0
  0
CLASS
  1
TABLESTYLE
  2
AcDbTableStyle
  3
ObjectDBX Classes
 90
     4095
280
     0
281
     0
  0
CLASS
  1
MLEADERSTYLE
  2
AcDbMLeaderStyle
  3
ACDB_MLEADERSTYLE_CLASS
 90
     4095
280
     0
281
     0
  0
CLASS
  1
ACDBSECTIONVIEWSTYLE
  2
AcDbSectionViewStyle
  3
ObjectDBX Classes
 90
     1025
280
     0
281
     0
  0
CLASS
  1
ACDBDETAILVIEWSTYLE
  2
AcDbDetailViewStyle
  3
ObjectDBX Classes
 90
     1025
280
     0
281
     0
  0
CLASS
  1
DICTIONARYVAR
  2
AcDbDictionaryVar
  3
ObjectDBX Classes
 90
        0
280
     0
281
     0
  0
CLASS
  1
CELLSTYLEMAP
  2
AcDbCellStyleMap
  3
ObjectDBX Classes
 90
     1152
280
     0
281
     0
  0
CLASS
  1
ACDBPLACEHOLDER
  2
AcDbPlaceHolder
  3
ObjectDBX Classes
 90
        0
280
     0
281
     0
  0
CLASS
  1
LAYOUT
  2
AcDbLayout
  3
ObjectDBX Classes
 90
        0
280
     0
281
     0
  0
ENDSEC
  0
SECTION
  2
TABLES
  0
TABLE
  2
VPORT
  5
CB6
330
0
100
AcDbSymbolTable
 70
     1
  0
VPORT
  5
D21
330
CB6
100
AcDbSymbolTableRecord
100
AcDbViewportTableRecord
  2
*ACTIVE
 70
     0
 10
0.0
 20
0.0
 11
1.0
 21
1.0
 12
272.8634325045297
 22
131.3970799043071
 13
0.0
 23
0.0
 14
10.0
 24
10.0
 15
10.0
 25
10.0
 16
0.0
 26
0.0
 36
1.0
 17
0.0
 27
0.0
 37
0.0
 40
244.6948059224098
 41
1.899603698811096
 42
50.0
 43
0.0
 44
0.0
 50
0.0
 51
0.0
 71
     0
 72
   100
 73
     1
 74
     0
 75
     0
 76
     0
 77
     0
 78
     0
281
     0
 65
     1
110
0.0
120
0.0
130
0.0
111
1.0
121
0.0
131
0.0
112
0.0
122
1.0
132
0.0
 79
     0
146
0.0
1001
ACAD_NAV_VCDISPLAY
1070
     3
  0
ENDTAB
  0
TABLE
  2
LTYPE
  5
CB3
330
0
100
AcDbSymbolTable
 70
     4
  0
LTYPE
  5
D08
330
CB3
100
AcDbSymbolTableRecord
100
AcDbLinetypeTableRecord
  2
ByBlock
 70
     0
  3

 72
    65
 73
     0
 40
0.0
  0
LTYPE
  5
D09
330
CB3
100
AcDbSymbolTableRecord
100
AcDbLinetypeTableRecord
  2
ByLayer
 70
     0
  3

 72
    65
 73
     0
 40
0.0
  0
LTYPE
  5
D0A
330
CB3
100
AcDbSymbolTableRecord
100
AcDbLinetypeTableRecord
  2
CONTINUOUS
 70
     0
  3
Solid line
 72
    65
 73
     0
 40
0.0
  0
LTYPE
  5
D22
330
CB3
100
AcDbSymbolTableRecord
100
AcDbLinetypeTableRecord
  2
DASHED
 70
     0
  3
Dashed __ __ __ __ __ __ __ __ __ __ __ __ __ _
 72
    65
 73
     2
 40
19.04999999999999
 49
12.7
 74
     0
 49
-6.349999999999998
 74
     0
  0
LTYPE
  5
D23
330
CB3
100
AcDbSymbolTableRecord
100
AcDbLinetypeTableRecord
  2
CENTER
 70
     0
  3
Center ____ _ ____ _ ____ _ ____ _ ____ _ ____
 72
    65
 73
     4
 40
50.8
 49
31.75
 74
     0
 49
-6.349999999999998
 74
     0
 49
6.349999999999998
 74
     0
 49
-6.349999999999998
 74
     0
  0
LTYPE
  5
D24
330
CB3
100
AcDbSymbolTableRecord
100
AcDbLinetypeTableRecord
  2
PHANTOM
 70
     0
  3
Phantom ______  __  __  ______  __  __  ______
 72
    65
 73
     6
 40
63.5
 49
31.75
 74
     0
 49
-6.349999999999998
 74
     0
 49
6.349999999999998
 74
     0
 49
-6.349999999999998
 74
     0
 49
6.349999999999998
 74
     0
 49
-6.349999999999998
 74
     0
  0
ENDTAB
  0
TABLE
  2
LAYER
  5
CB0
330
0
100
AcDbSymbolTable
 70
     8
  0
LAYER
  5
D02
102
{ACAD_XDICTIONARY
360
D37
102
}
330
CB0
100
AcDbSymbolTableRecord
100
AcDbLayerTableRecord
  2
0
 70
     0
 62
     7
  6
CONTINUOUS
370
    -3
390
CBD
  0
LAYER
  5
D25
102
{ACAD_XDICTIONARY
360
D39
102
}
330
CB0
100
AcDbSymbolTableRecord
100
AcDbLayerTableRecord
  2
4
 70
     0
 62
     1
  6
CENTER
370
    -3
390
CBD
  0
LAYER
  5
D26
102
{ACAD_XDICTIONARY
360
D3B
102
}
330
CB0
100
AcDbSymbolTableRecord
100
AcDbLayerTableRecord
  2
5
 70
     0
 62
     6
  6
PHANTOM
370
    -3
390
CBD
  0
LAYER
  5
D27
102
{ACAD_XDICTIONARY
360
D3D
102
}
330
CB0
100
AcDbSymbolTableRecord
100
AcDbLayerTableRecord
  2
1
 70
     0
 62
     7
  6
CONTINUOUS
370
    -3
390
CBD
  0
LAYER
  5
D28
102
{ACAD_XDICTIONARY
360
D3F
102
}
330
CB0
100
AcDbSymbolTableRecord
100
AcDbLayerTableRecord
  2
2
 70
     0
 62
     4
  6
CONTINUOUS
370
    -3
390
CBD
  0
LAYER
  5
D29
102
{ACAD_XDICTIONARY
360
D41
102
}
330
CB0
100
AcDbSymbolTableRecord
100
AcDbLayerTableRecord
  2
3
 70
     0
 62
     2
  6
DASHED
370
    -3
390
CBD
  0
LAYER
  5
D2A
102
{ACAD_XDICTIONARY
360
D43
102
}
330
CB0
100
AcDbSymbolTableRecord
100
AcDbLayerTableRecord
  2
6
 70
     0
 62
     5
  6
CONTINUOUS
370
    -3
390
CBD
  0
LAYER
  5
D2B
102
{ACAD_XDICTIONARY
360
D45
102
}
330
CB0
100
AcDbSymbolTableRecord
100
AcDbLayerTableRecord
  2
7
 70
     0
 62
     3
  6
CONTINUOUS
370
    -3
390
CBD
  0
ENDTAB
  0
TABLE
  2
STYLE
  5
CB1
330
0
100
AcDbSymbolTable
 70
     2
  0
STYLE
  5
D03
330
CB1
100
AcDbSymbolTableRecord
100
AcDbTextStyleTableRecord
  2
STANDARD
 70
     0
 40
0.0
 41
1.0
 50
0.0
 71
     0
 42
2.5
  3
simplex.shx
  4

  0
STYLE
  5
D07
330
CB1
100
AcDbSymbolTableRecord
100
AcDbTextStyleTableRecord
  2
Annotative
 70
     0
 40
0.0
 41
1.0
 50
0.0
 71
     0
 42
0.2
  3
txt
  4

1001
AcadAnnotative
1000
AnnotativeData
1002
{
1070
     1
1070
     1
1002
}
  0
ENDTAB
  0
TABLE
  2
VIEW
  5
CB4
330
0
100
AcDbSymbolTable
 70
     0
  0
ENDTAB
  0
TABLE
  2
UCS
  5
CB5
330
0
100
AcDbSymbolTable
 70
     0
  0
ENDTAB
  0
TABLE
  2
APPID
  5
CB7
330
0
100
AcDbSymbolTable
 70
     6
  0
APPID
  5
D04
330
CB7
100
AcDbSymbolTableRecord
100
AcDbRegAppTableRecord
  2
ACAD
 70
     0
  0
APPID
  5
D0B
330
CB7
100
AcDbSymbolTableRecord
100
AcDbRegAppTableRecord
  2
AcadAnnotative
 70
     0
  0
APPID
  5
D2C
330
CB7
100
AcDbSymbolTableRecord
100
AcDbRegAppTableRecord
  2
CONTENTTABDATA
 70
     0
  0
APPID
  5
D2D
330
CB7
100
AcDbSymbolTableRecord
100
AcDbRegAppTableRecord
  2
CONTENTCURRENTTAB
 70
     0
  0
APPID
  5
D51
330
CB7
100
AcDbSymbolTableRecord
100
AcDbRegAppTableRecord
  2
ACAD_NAV_VCDISPLAY
 70
     0
  0
APPID
  5
D8A
330
CB7
100
AcDbSymbolTableRecord
100
AcDbRegAppTableRecord
  2
ACAD_MLEADERVER
 70
     0
  0
ENDTAB
  0
TABLE
  2
DIMSTYLE
  5
CB8
330
0
100
AcDbSymbolTable
 70
     2
100
AcDbDimStyleTable
 71
     0
  0
DIMSTYLE
105
D05
330
CB8
100
AcDbSymbolTableRecord
100
AcDbDimStyleTableRecord
  2
STANDARD
 70
     0
 41
3.0
 42
1.0
 43
10.0
 44
1.0
 73
     0
 74
     0
 77
     3
 78
     8
140
2.5
141
0.0
147
1.0
172
     1
173
     1
279
     2
284
     8
285
     8
286
     8
340
D03
  0
DIMSTYLE
105
D06
330
CB8
100
AcDbSymbolTableRecord
100
AcDbDimStyleTableRecord
  2
Annotative
 70
     0
340
D03
1001
AcadAnnotative
1000
AnnotativeData
1002
{
1070
     1
1070
     1
1002
}
  0
ENDTAB
  0
TABLE
  2
BLOCK_RECORD
  5
CAF
330
0
100
AcDbSymbolTable
 70
     3
  0
BLOCK_RECORD
  5
D1D
330
CAF
100
AcDbSymbolTableRecord
100
AcDbBlockTableRecord
  2
*Model_Space
340
D20
  0
BLOCK_RECORD
  5
D19
330
CAF
100
AcDbSymbolTableRecord
100
AcDbBlockTableRecord
  2
*Paper_Space
340
D1C
  0
BLOCK_RECORD
  5
D30
330
CAF
100
AcDbSymbolTableRecord
100
AcDbBlockTableRecord
  2
$MODEL_SPACE
340
0
  0
BLOCK_RECORD
  5
D32
330
CAF
100
AcDbSymbolTableRecord
100
AcDbBlockTableRecord
  2
$PAPER_SPACE
340
0
  0
BLOCK_RECORD
  5
D34
330
CAF
100
AcDbSymbolTableRecord
100
AcDbBlockTableRecord
  2
_OPEN
340
0
  0
ENDTAB
  0
ENDSEC
  0
SECTION
  2
BLOCKS
  0
BLOCK
  5
D1E
330
D1D
100
AcDbEntity
  8
0
100
AcDbBlockBegin
  2
*Model_Space
 70
     0
 10
0.0
 20
0.0
 30
0.0
  3
*Model_Space
  1

  0
ENDBLK
  5
D1F
330
D1D
100
AcDbEntity
  8
0
100
AcDbBlockEnd
  0
BLOCK
  5
D1A
330
D19
100
AcDbEntity
 67
     1
  8
0
100
AcDbBlockBegin
  2
*Paper_Space
 70
     0
 10
0.0
 20
0.0
 30
0.0
  3
*Paper_Space
  1

  0
ENDBLK
  5
D1B
330
D19
100
AcDbEntity
 67
     1
  8
0
100
AcDbBlockEnd
  0
BLOCK
  5
D31
330
D30
100
AcDbEntity
  8
0
100
AcDbBlockBegin
  2
$MODEL_SPACE
 70
     0
 10
0.0
 20
0.0
 30
0.0
  3
$MODEL_SPACE
  1

  0
ENDBLK
  5
1A
330
D30
100
AcDbEntity
  8
0
100
AcDbBlockEnd
  0
BLOCK
  5
D33
330
D32
100
AcDbEntity
  8
0
100
AcDbBlockBegin
  2
$PAPER_SPACE
 70
     0
 10
0.0
 20
0.0
 30
0.0
  3
$PAPER_SPACE
  1

  0
ENDBLK
  5
17
330
D32
100
AcDbEntity
  8
0
100
AcDbBlockEnd
  0
BLOCK
  5
D35
330
D34
100
AcDbEntity
  8
0
100
AcDbBlockBegin
  2
_OPEN
 70
     0
 10
0.0
 20
0.0
 30
0.0
  3
_OPEN
  1

  0
LINE
  5
30
330
D34
100
AcDbEntity
  8
0
  6
ByBlock
 62
     0
100
AcDbLine
 10
-1.0
 20
0.1666666666666666
 30
0.0
 11
0.0
 21
0.0
 31
0.0
  0
LINE
  5
31
330
D34
100
AcDbEntity
  8
0
  6
ByBlock
 62
     0
100
AcDbLine
 10
0.0
 20
0.0
 30
0.0
 11
-1.0
 21
-0.1666666666666666
 31
0.0
  0
LINE
  5
32
330
D34
100
AcDbEntity
  8
0
  6
ByBlock
 62
     0
100
AcDbLine
 10
0.0
 20
0.0
 30
0.0
 11
-1.0
 21
0.0
 31
0.0
  0
ENDBLK
  5
33
330
D34
100
AcDbEntity
  8
0
100
AcDbBlockEnd
  0
ENDSEC
  0
SECTION
  2
ENTITIES
  0
TEXT
  5
63
330
D1D
100
AcDbEntity
  8
4
  6
CENTER
100
AcDbText
 10
23.97950852663849
 20
10.0
 30
0.0
 40
1.399999999999999
  1
4
100
AcDbText
  0
TEXT
  5
64
330
D1D
100
AcDbEntity
  8
7
  6
Continuous
100
AcDbText
 10
9.999997526638502
 20
26.0000007607689
 30
0.0
 40
3.0
  1
CODE No.13630
100
AcDbText
  0
TEXT
  5
65
330
D1D
100
AcDbEntity
  8
7
  6
Continuous
100
AcDbText
 10
9.999997526638502
 20
18.00000076076889
 30
0.0
 40
3.0
  1
TYPE No.THA-457-2
100
AcDbText
  0
TEXT
  5
66
330
D1D
100
AcDbEntity
  8
1
  6
Continuous
100
AcDbText
 10
9.999997526638502
 20
10.00000076076889
 30
0.0
 40
1.399999999999999
  1
LAYER
100
AcDbText
  0
TEXT
  5
67
330
D1D
100
AcDbEntity
  8
2
  6
Continuous
100
AcDbText
 10
19.9795085266385
 20
10.0
 30
0.0
 40
1.399999999999999
  1
2
100
AcDbText
  0
TEXT
  5
68
330
D1D
100
AcDbEntity
  8
3
  6
DASHED
100
AcDbText
 10
21.9795085266385
 20
10.0
 30
0.0
 40
1.399999999999999
  1
3
100
AcDbText
  0
TEXT
  5
69
330
D1D
100
AcDbEntity
  8
1
  6
Continuous
100
AcDbText
 10
17.9795085266385
 20
10.0
 30
0.0
 40
1.399999999999999
  1
1
100
AcDbText
  0
TEXT
  5
6A
330
D1D
100
AcDbEntity
  8
5
  6
PHANTOM
100
AcDbText
 10
25.9795085266385
 20
10.0
 30
0.0
 40
1.399999999999999
  1
5
100
AcDbText
  0
TEXT
  5
6B
330
D1D
100
AcDbEntity
  8
6
  6
Continuous
100
AcDbText
 10
27.9795085266385
 20
10.0
 30
0.0
 40
1.399999999999999
  1
6
100
AcDbText
  0
TEXT
  5
6C
330
D1D
100
AcDbEntity
  8
7
  6
Continuous
100
AcDbText
 10
29.9795085266385
 20
10.0
 30
0.0
 40
1.399999999999999
  1
7
100
AcDbText
  0
ARC
  5
1F6
330
D1D
100
AcDbEntity
  8
2
  6
Continuous
100
AcDbCircle
 10
223.7830851847526
 20
142.7994562960633
 30
0.0
 40
15.0
100
AcDbArc
 50
156.4435356908866
 51
203.5564643090902
  0
CIRCLE
  5
1F8
330
D1D
100
AcDbEntity
  8
1
  6
Continuous
100
AcDbCircle
 10
39.25577503589659
 20
142.7994562967753
 30
0.0
 40
17.50000000054408
  0
LINE
  5
1F9
330
D1D
100
AcDbEntity
  8
1
  6
Continuous
100
AcDbLine
 10
37.25577503589642
 20
124.4078821392574
 30
0.0
 11
37.25577503589636
 21
128.4380496804303
 31
0.0
  0
ARC
  5
1FA
330
D1D
100
AcDbEntity
  8
1
  6
Continuous
100
AcDbCircle
 10
39.25577503589641
 20
126.299456297007
 30
0.0
 40
2.0
100
AcDbArc
 50
0.0
 51
180.0
  0
LINE
  5
1FB
330
D1D
100
AcDbEntity
  8
1
  6
Continuous
100
AcDbLine
 10
41.2557750358964
 20
124.4078821392574
 30
0.0
 11
41.25577503589635
 21
128.4380496804302
 31
0.0
  0
LINE
  5
210
330
D1D
100
AcDbEntity
  8
2
  6
Continuous
100
AcDbLine
 10
121.4803704777371
 20
157.2579562964653
 30
0.0
 11
120.4803704777132
 21
157.4745562967648
 31
0.0
  0
LINE
  5
211
330
D1D
100
AcDbEntity
  8
1
  6
Continuous
100
AcDbLine
 10
121.4803704777898
 20
148.79424570015
 30
0.0
 11
121.4803704777972
 21
157.7994562968415
 31
0.0
  0
LINE
  5
212
330
D1D
100
AcDbEntity
  8
1
  6
Continuous
100
AcDbLine
 10
121.4803704777726
 20
127.799456296935
 30
0.0
 11
121.48037047778
 21
136.8046668922594
 31
0.0
  0
LINE
  5
213
330
D1D
100
AcDbEntity
  8
2
  6
Continuous
100
AcDbLine
 10
121.480370477773
 20
128.3409562964653
 30
0.0
 11
120.4803704775464
 21
128.1243562967103
 31
0.0
  0
LINE
  5
214
330
D1D
100
AcDbEntity
  8
4
  6
CENTER
100
AcDbLine
 10
39.25577503589641
 20
119.7994562970069
 30
0.0
 11
39.25577503589641
 21
165.799456297007
 31
0.0
  0
LINE
  5
218
330
D1D
100
AcDbEntity
  8
1
  6
Continuous
100
AcDbLine
 10
125.980370475146
 20
148.7942457001677
 30
0.0
 11
120.4803704752471
 21
148.7942457001634
 31
0.0
  0
LINE
  5
219
330
D1D
100
AcDbEntity
  8
2
  6
Continuous
100
AcDbLine
 10
125.98037047511
 20
143.7231247544448
 30
0.0
 11
120.4803704752471
 21
147.7075769258179
 31
0.0
  0
LINE
  5
21A
330
D1D
100
AcDbEntity
  8
2
  6
Continuous
100
AcDbLine
 10
120.4803704752471
 20
137.8913356665306
 30
0.0
 11
125.9803704750969
 21
141.8757878378471
 31
0.0
  0
LINE
  5
21B
330
D1D
100
AcDbEntity
  8
1
  6
Continuous
100
AcDbLine
 10
125.9803704750608
 20
136.8046668922061
 30
0.0
 11
120.480370475247
 21
136.8046668922711
 31
0.0
  0
ARC
  5
21C
330
D1D
100
AcDbEntity
  8
1
  6
Continuous
100
AcDbCircle
 10
119.9803704752505
 20
126.7994562964289
 30
0.0
 40
0.5
100
AcDbArc
 50
270.0000000021235
 51
0.0
  0
ARC
  5
21D
330
D1D
100
AcDbEntity
  8
1
  6
Continuous
100
AcDbCircle
 10
119.9803704752505
 20
158.799456296398
 30
0.0
 40
0.5
100
AcDbArc
 50
0.0
 51
89.99999999787652
  0
LINE
  5
21E
330
D1D
100
AcDbEntity
  8
1
  6
Continuous
100
AcDbLine
 10
120.4803704752471
 20
126.7994562964289
 30
0.0
 11
120.4803704752471
 21
158.799456296398
 31
0.0
  0
ARC
  5
21F
330
D1D
100
AcDbEntity
  8
1
  6
Continuous
100
AcDbCircle
 10
116.9803704743454
 20
161.7994562969892
 30
0.0
 40
1.0
100
AcDbArc
 50
90.0
 51
180.0
  0
ARC
  5
220
330
D1D
100
AcDbEntity
  8
1
  6
Continuous
100
AcDbCircle
 10
116.9803704744033
 20
123.7994562954722
 30
0.0
 40
1.0
100
AcDbArc
 50
180.0
 51
270.0
  0
CIRCLE
  5
222
330
D1D
100
AcDbEntity
  8
1
  6
Continuous
100
AcDbCircle
 10
39.25577503589654
 20
142.799456297007
 30
0.0
 40
18.50000000069144
  0
ARC
  5
22D
330
D1D
100
AcDbEntity
  8
1
  6
Continuous
100
AcDbCircle
 10
39.25577503589659
 20
142.7994562967753
 30
0.0
 40
10.5
100
AcDbArc
 50
141.7122201767357
 51
128.2877798209886
  0
ARC
  5
22E
330
D1D
100
AcDbEntity
  8
1
  6
Continuous
100
AcDbCircle
 10
39.25577503589659
 20
142.7994562967753
 30
0.0
 40
14.5
100
AcDbArc
 50
277.9281417662015
 51
262.0718582337967
  0
LINE
  5
230
330
D1D
100
AcDbEntity
  8
1
  6
Continuous
100
AcDbLine
 10
119.9803704749609
 20
162.799456296987
 30
0.0
 11
116.9803704743461
 21
162.799456296989
 31
0.0
  0
LINE
  5
231
330
D1D
100
AcDbEntity
  8
1
  6
Continuous
100
AcDbLine
 10
115.9803704744032
 20
123.7994562954706
 30
0.0
 11
115.9803704743454
 21
161.7994562969877
 31
0.0
  0
LINE
  5
232
330
D1D
100
AcDbEntity
  8
1
  6
Continuous
100
AcDbLine
 10
119.9803704746909
 20
122.7994562954336
 30
0.0
 11
116.9803704743904
 21
122.7994562954722
 31
0.0
  0
LINE
  5
23A
330
D1D
100
AcDbEntity
  8
1
  6
Continuous
100
AcDbLine
 10
137.8803704750936
 20
155.1403183002021
 30
0.0
 11
136.280370476507
 21
155.1403183002217
 31
0.0
  0
LINE
  5
23B
330
D1D
100
AcDbEntity
  8
1
  6
Continuous
100
AcDbLine
 10
137.9803704747216
 20
154.9238119492414
 30
0.0
 11
136.380370474735
 21
154.9238119492603
 31
0.0
  0
LINE
  5
23C
330
D1D
100
AcDbEntity
  8
1
  6
Continuous
100
AcDbLine
 10
137.9803704746995
 20
149.7994562961192
 30
0.0
 11
136.3803704746788
 21
149.7994562961342
 31
0.0
  0
LINE
  5
23D
330
D1D
100
AcDbEntity
  8
1
  6
Continuous
100
AcDbLine
 10
137.9803704746941
 20
148.5494562961743
 30
0.0
 11
136.3803704747814
 21
148.5494562961924
 31
0.0
  0
LINE
  5
23E
330
D1D
100
AcDbEntity
  8
1
  6
Continuous
100
AcDbLine
 10
137.9803704746167
 20
130.6751006431069
 30
0.0
 11
137.8803704749342
 21
130.6751006431078
 31
0.0
  0
LINE
  5
23F
330
D1D
100
AcDbEntity
  8
1
  6
Continuous
100
AcDbLine
 10
137.8803704749579
 20
130.4585942923216
 30
0.0
 11
136.2803704763521
 21
130.45859429234
 31
0.0
  0
LINE
  5
241
330
D1D
100
AcDbEntity
  8
1
  6
Continuous
100
AcDbLine
 10
120.4803704752472
 20
127.7994562969487
 30
0.0
 11
125.9803704749969
 21
127.7994562969465
 31
0.0
  0
LINE
  5
243
330
D1D
100
AcDbEntity
  8
2
  6
Continuous
100
AcDbLine
 10
125.9803704750007
 20
128.3409562961856
 30
0.0
 11
121.480370477773
 21
128.3409562962056
 31
0.0
  0
LINE
  5
249
330
D1D
100
AcDbEntity
  8
1
  6
Continuous
100
AcDbLine
 10
120.4803704752471
 20
157.7994562969483
 30
0.0
 11
125.98037047521
 21
157.799456296947
 31
0.0
  0
LINE
  5
24B
330
D1D
100
AcDbEntity
  8
2
  6
Continuous
100
AcDbLine
 10
121.4803704777967
 20
157.2579562962057
 30
0.0
 11
125.9803704752061
 21
157.257956296185
 31
0.0
  0
LINE
  5
24C
330
D1D
100
AcDbEntity
  8
1
  6
Continuous
100
AcDbLine
 10
131.9803704751973
 20
157.7994562969454
 30
0.0
 11
135.5303704765137
 21
157.7994562969447
 31
0.0
  0
LINE
  5
24D
330
D1D
100
AcDbEntity
  8
2
  6
Continuous
100
AcDbLine
 10
131.9803704751937
 20
157.2579562961577
 30
0.0
 11
136.071870477326
 21
157.2579562961392
 31
0.0
  0
LINE
  5
24E
330
D1D
100
AcDbEntity
  8
1
  6
Continuous
100
AcDbLine
 10
135.530370476526
 20
148.7942457001755
 30
0.0
 11
131.980370475137
 21
148.7942457001725
 31
0.0
  0
LINE
  5
24F
330
D1D
100
AcDbEntity
  8
2
  6
Continuous
100
AcDbLine
 10
131.9803704751197
 20
146.222462933964
 30
0.0
 11
135.530370476526
 21
148.7942457001755
 31
0.0
  0
LINE
  5
250
330
D1D
100
AcDbEntity
  8
2
  6
Continuous
100
AcDbLine
 10
135.5303704764574
 20
136.8046668920936
 30
0.0
 11
131.980370475074
 21
139.376449658319
 31
0.0
  0
LINE
  5
251
330
D1D
100
AcDbEntity
  8
1
  6
Continuous
100
AcDbLine
 10
135.5303704764602
 20
136.8046668920936
 30
0.0
 11
131.9803704750567
 21
136.8046668921353
 31
0.0
  0
LINE
  5
252
330
D1D
100
AcDbEntity
  8
1
  6
Continuous
100
AcDbLine
 10
131.9803704749964
 20
127.7994562969456
 30
0.0
 11
135.5303704763449
 21
127.7994562969446
 31
0.0
  0
LINE
  5
253
330
D1D
100
AcDbEntity
  8
2
  6
Continuous
100
AcDbLine
 10
136.071870477152
 20
128.3409562961393
 30
0.0
 11
131.9803704750001
 21
128.340956296158
 31
0.0
  0
ARC
  5
256
330
D1D
100
AcDbEntity
  8
1
  6
Continuous
100
AcDbCircle
 10
126.980370474988
 20
126.5494562961772
 30
0.0
 40
1.0
100
AcDbArc
 50
179.9999999995928
 51
359.9999999996164
  0
ARC
  5
25A
330
D1D
100
AcDbEntity
  8
1
  6
Continuous
100
AcDbCircle
 10
126.9803704752122
 20
159.049456296177
 30
0.0
 40
0.9999999999933491
100
AcDbArc
 50
359.9999999996172
 51
179.9999999995928
  0
LINE
  5
25B
330
D1D
100
AcDbEntity
  8
1
  6
Continuous
100
AcDbLine
 10
131.6803704751647
 20
153.1917611430498
 30
0.0
 11
128.2803704751647
 21
153.1917611430924
 31
0.0
  0
LINE
  5
25C
330
D1D
100
AcDbEntity
  8
1
  6
Continuous
100
AcDbLine
 10
131.6803704750255
 20
132.4071514522556
 30
0.0
 11
128.2803704750255
 21
132.4071514522981
 31
0.0
  0
ARC
  5
25D
330
D1D
100
AcDbEntity
  8
1
  6
Continuous
100
AcDbCircle
 10
128.2803704749597
 20
122.3148466041529
 30
0.0
 40
0.3
100
AcDbArc
 50
180.0
 51
270.0
  0
LINE
  5
25E
330
D1D
100
AcDbEntity
  8
1
  6
Continuous
100
AcDbLine
 10
131.680370474956
 20
122.0148466041102
 30
0.0
 11
128.2803704749559
 21
122.0148466041528
 31
0.0
  0
ARC
  5
25F
330
D1D
100
AcDbEntity
  8
1
  6
Continuous
100
AcDbCircle
 10
131.6803704749597
 20
122.3148466041102
 30
0.0
 40
0.3
100
AcDbArc
 50
270.0
 51
0.0
  0
LINE
  5
260
330
D1D
100
AcDbEntity
  8
1
  6
Continuous
100
AcDbLine
 10
131.9803704749597
 20
122.3148466041083
 30
0.0
 11
131.9803704752339
 21
163.2840659882263
 31
0.0
  0
ARC
  5
261
330
D1D
100
AcDbEntity
  8
1
  6
Continuous
100
AcDbCircle
 10
131.6803704752339
 20
163.2840659882283
 30
0.0
 40
0.3
100
AcDbArc
 50
0.0
 51
90.0
  0
LINE
  5
262
330
D1D
100
AcDbEntity
  8
1
  6
Continuous
100
AcDbLine
 10
131.6803704752343
 20
163.5840659882284
 30
0.0
 11
128.2803704752343
 21
163.5840659882312
 31
0.0
  0
ARC
  5
263
330
D1D
100
AcDbEntity
  8
1
  6
Continuous
100
AcDbCircle
 10
128.2803704752339
 20
163.2840659882312
 30
0.0
 40
0.3
100
AcDbArc
 50
90.0
 51
180.0
  0
LINE
  5
264
330
D1D
100
AcDbEntity
  8
1
  6
Continuous
100
AcDbLine
 10
127.9803704749597
 20
122.3148466041548
 30
0.0
 11
127.9803704752339
 21
163.2840659882331
 31
0.0
  0
ARC
  5
267
330
D1D
100
AcDbEntity
  8
1
  6
Continuous
100
AcDbCircle
 10
223.7830851847526
 20
142.7994562960633
 30
0.0
 40
20.0
100
AcDbArc
 50
334.1580672368432
 51
25.84193276317693
  0
LINE
  5
268
330
D1D
100
AcDbEntity
  8
1
  6
Continuous
100
AcDbLine
 10
213.8237930412237
 20
148.5494562960497
 30
0.0
 11
211.6587295317611
 21
149.7994562960467
 31
0.0
  0
ARC
  5
269
330
D1D
100
AcDbEntity
  8
1
  6
Continuous
100
AcDbCircle
 10
223.7830851847526
 20
142.7994562960633
 30
0.0
 40
11.5
100
AcDbArc
 50
150.0000000000779
 51
299.9999999998034
  0
ARC
  5
26A
330
D1D
100
AcDbEntity
  8
1
  6
Continuous
100
AcDbCircle
 10
223.7830851847525
 20
142.7994562960633
 30
0.0
 40
12.0
100
AcDbArc
 50
150.0000000000779
 51
299.9999999997527
  0
LINE
  5
26B
330
D1D
100
AcDbEntity
  8
1
  6
Continuous
100
AcDbLine
 10
217.7830851846723
 20
132.4071514506964
 30
0.0
 11
216.6580851846573
 21
130.4585942921901
 31
0.0
  0
LINE
  5
26C
330
D1D
100
AcDbEntity
  8
1
  6
Continuous
100
AcDbLine
 10
229.5330851847184
 20
132.8401641525226
 30
0.0
 11
230.9080851846588
 21
130.4585942920812
 31
0.0
  0
CIRCLE
  5
26D
330
D1D
100
AcDbEntity
  8
1
  6
Continuous
100
AcDbCircle
 10
223.7830851847526
 20
142.7994562960633
 30
0.0
 40
2.458499999999999
  0
CIRCLE
  5
26E
330
D1D
100
AcDbEntity
  8
2
  6
Continuous
100
AcDbCircle
 10
223.7830851847526
 20
142.7994562960633
 30
0.0
 40
3.0
  0
CIRCLE
  5
26F
330
D1D
100
AcDbEntity
  8
1
  6
Continuous
100
AcDbCircle
 10
223.7830851847526
 20
142.7994562960633
 30
0.0
 40
3.5
  0
ARC
  5
270
330
D1D
100
AcDbEntity
  8
1
  6
Continuous
100
AcDbCircle
 10
223.7830851847526
 20
142.7994562960633
 30
0.0
 40
11.5
100
AcDbArc
 50
330.0000000000779
 51
119.9999999998035
  0
ARC
  5
271
330
D1D
100
AcDbEntity
  8
1
  6
Continuous
100
AcDbCircle
 10
223.7830851847526
 20
142.7994562960633
 30
0.0
 40
14.0
100
AcDbArc
 50
299.9999999995835
 51
330.0000000000779
  0
ARC
  5
272
330
D1D
100
AcDbEntity
  8
1
  6
Continuous
100
AcDbCircle
 10
223.7830851847526
 20
142.7994562960633
 30
0.0
 40
14.0
100
AcDbArc
 50
119.9999999999227
 51
150.0000000000779
  0
LINE
  5
273
330
D1D
100
AcDbEntity
  8
1
  6
Continuous
100
AcDbLine
 10
218.0330851847869
 20
152.758748439604
 30
0.0
 11
216.6580851848463
 21
155.1403183000454
 31
0.0
  0
LINE
  5
274
330
D1D
100
AcDbEntity
  8
1
  6
Continuous
100
AcDbLine
 10
229.7830851848329
 20
153.1917611414302
 30
0.0
 11
230.9080851848479
 21
155.1403182999364
 31
0.0
  0
ARC
  5
275
330
D1D
100
AcDbEntity
  8
1
  6
Continuous
100
AcDbCircle
 10
223.7830851847527
 20
142.7994562960633
 30
0.0
 40
12.0
100
AcDbArc
 50
330.0000000000779
 51
119.9999999997528
  0
ARC
  5
276
330
D1D
100
AcDbEntity
  8
1
  6
Continuous
100
AcDbCircle
 10
223.7830851847527
 20
142.7994562960633
 30
0.0
 40
14.25
100
AcDbArc
 50
15.22275703401104
 51
164.7772429656328
  0
ARC
  5
277
330
D1D
100
AcDbEntity
  8
1
  6
Continuous
100
AcDbCircle
 10
223.7830851847527
 20
142.7994562960633
 30
0.0
 40
14.25
100
AcDbArc
 50
195.222757034011
 51
344.7772429656317
  0
ARC
  5
278
330
D1D
100
AcDbEntity
  8
1
  6
Continuous
100
AcDbCircle
 10
223.7830851847526
 20
142.7994562960633
 30
0.0
 40
14.4585
100
AcDbArc
 50
161.9890947384527
 51
198.0109052615249
  0
ARC
  5
279
330
D1D
100
AcDbEntity
  8
2
  6
Continuous
100
AcDbCircle
 10
223.7830851847526
 20
142.7994562960633
 30
0.0
 40
14.4585
100
AcDbArc
 50
198.0109052615249
 51
341.9890947384545
  0
ARC
  5
27A
330
D1D
100
AcDbEntity
  8
2
  6
Continuous
100
AcDbCircle
 10
223.7830851847526
 20
142.7994562960633
 30
0.0
 40
14.4585
100
AcDbArc
 50
18.01090526152336
 51
161.9890947384527
  0
ARC
  5
27B
330
D1D
100
AcDbEntity
  8
1
  6
Continuous
100
AcDbCircle
 10
223.7830851847526
 20
142.7994562960633
 30
0.0
 40
14.4585
100
AcDbArc
 50
341.9890947384545
 51
18.01090526152336
  0
LINE
  5
27C
330
D1D
100
AcDbEntity
  8
1
  6
Continuous
100
AcDbLine
 10
241.7830851847544
 20
132.4071514506596
 30
0.0
 11
241.7830851847508
 21
153.1917611414669
 31
0.0
  0
LINE
  5
27D
330
D1D
100
AcDbEntity
  8
1
  6
Continuous
100
AcDbLine
 10
205.7830851847527
 20
132.4071514506434
 30
0.0
 11
205.7830851847527
 21
153.191761141483
 31
0.0
  0
LINE
  5
27E
330
D1D
100
AcDbEntity
  8
1
  6
Continuous
100
AcDbLine
 10
205.7830851847544
 20
153.1917611414832
 30
0.0
 11
223.7830851847508
 21
163.5840659868833
 31
0.0
  0
LINE
  5
27F
330
D1D
100
AcDbEntity
  8
1
  6
Continuous
100
AcDbLine
 10
241.7830851847545
 20
132.4071514506975
 30
0.0
 11
223.7830851847509
 21
122.0148466051891
 31
0.0
  0
LINE
  5
280
330
D1D
100
AcDbEntity
  8
1
  6
Continuous
100
AcDbLine
 10
205.7830851847544
 20
132.4071514506684
 30
0.0
 11
223.7830851847509
 21
122.0148466052183
 31
0.0
  0
LINE
  5
281
330
D1D
100
AcDbEntity
  8
1
  6
Continuous
100
AcDbLine
 10
241.7830851847545
 20
153.1917611414538
 30
0.0
 11
223.7830851847509
 21
163.5840659869123
 31
0.0
  0
ARC
  5
282
330
D1D
100
AcDbEntity
  8
1
  6
Continuous
100
AcDbCircle
 10
223.7830851847527
 20
142.7994562960633
 30
0.0
 40
5.25
100
AcDbArc
 50
265.367593544098
 51
274.6324064559051
  0
ARC
  5
283
330
D1D
100
AcDbEntity
  8
1
  6
Continuous
100
AcDbCircle
 10
223.7830851847527
 20
142.7994562960633
 30
0.0
 40
5.25
100
AcDbArc
 50
355.3675935442777
 51
4.63240645588151
  0
ARC
  5
284
330
D1D
100
AcDbEntity
  8
1
  6
Continuous
100
AcDbCircle
 10
223.7830851847527
 20
142.7994562960633
 30
0.0
 40
5.25
100
AcDbArc
 50
175.3675935442639
 51
184.6324064557287
  0
ARC
  5
285
330
D1D
100
AcDbEntity
  8
1
  6
Continuous
100
AcDbCircle
 10
223.7830851847527
 20
142.7994562960633
 30
0.0
 40
5.25
100
AcDbArc
 50
85.36759354425331
 51
94.63240645588717
  0
LINE
  5
286
330
D1D
100
AcDbEntity
  8
1
  6
Continuous
100
AcDbLine
 10
210.0330851847516
 20
136.8046668919251
 30
0.0
 11
210.0330851847539
 21
148.794245700207
 31
0.0
  0
LINE
  5
287
330
D1D
100
AcDbEntity
  8
1
  6
Continuous
100
AcDbLine
 10
237.5330851847514
 20
136.8046668919198
 30
0.0
 11
237.5330851847539
 21
148.7942457002016
 31
0.0
  0
LINE
  5
288
330
D1D
100
AcDbEntity
  8
1
  6
Continuous
100
AcDbLine
 10
233.7423773282814
 20
137.0494562960768
 30
0.0
 11
235.9074408377441
 21
135.7994562960798
 31
0.0
  0
LINE
  5
289
330
D1D
100
AcDbEntity
  8
1
  6
Continuous
100
AcDbLine
 10
218.1262309352684
 20
142.7994562960637
 30
0.0
 11
223.7830851847459
 21
148.4563105455559
 31
0.0
  0
LINE
  5
28A
330
D1D
100
AcDbEntity
  8
1
  6
Continuous
100
AcDbLine
 10
229.4399394342438
 20
142.799456296071
 30
0.0
 11
223.7830851847529
 21
137.1426020465622
 31
0.0
  0
LINE
  5
28B
330
D1D
100
AcDbEntity
  8
1
  6
Continuous
100
AcDbLine
 10
218.1262309352682
 20
142.7994562960636
 30
0.0
 11
223.7830851847528
 21
137.1426020465622
 31
0.0
  0
LINE
  5
28C
330
D1D
100
AcDbEntity
  8
1
  6
Continuous
100
AcDbLine
 10
229.4399394342438
 20
142.799456296071
 30
0.0
 11
223.7830851847456
 21
148.4563105455559
 31
0.0
  0
LINE
  5
28D
330
D1D
100
AcDbEntity
  8
1
  6
Continuous
100
AcDbLine
 10
139.8803704753473
 20
137.5494562958091
 30
0.0
 11
140.5803704760013
 21
137.549456295813
 31
0.0
  0
LINE
  5
28E
330
D1D
100
AcDbEntity
  8
1
  6
Continuous
100
AcDbLine
 10
137.9803704746342
 20
137.5494562957989
 30
0.0
 11
138.8803704753473
 21
137.5494562958037
 31
0.0
  0
LINE
  5
28F
330
D1D
100
AcDbEntity
  8
1
  6
Continuous
100
AcDbLine
 10
139.8803704752462
 20
148.0494562958089
 30
0.0
 11
140.5803704754863
 21
148.0494562958128
 31
0.0
  0
LINE
  5
290
330
D1D
100
AcDbEntity
  8
1
  6
Continuous
100
AcDbLine
 10
137.9803704747042
 20
148.0494562957988
 30
0.0
 11
138.8803704752462
 21
148.0494562958035
 31
0.0
  0
LINE
  5
291
330
D1D
100
AcDbEntity
  8
1
  6
Continuous
100
AcDbLine
 10
147.5337884883377
 20
148.5729589878528
 30
0.0
 11
144.4269524631377
 21
148.572958987853
 31
0.0
  0
LINE
  5
292
330
D1D
100
AcDbEntity
  8
1
  6
Continuous
100
AcDbLine
 10
147.9803704757326
 20
147.7994562959428
 30
0.0
 11
147.5337884883377
 21
148.5729589878518
 31
0.0
  0
ARC
  5
293
330
D1D
100
AcDbEntity
  8
1
  6
Continuous
100
AcDbCircle
 10
145.4504165037767
 20
147.1215571722439
 30
0.0
 40
2.529953971967146
100
AcDbArc
 50
325.4349069035826
 51
30.00000000012708
  0
LINE
  5
294
330
D1D
100
AcDbEntity
  8
1
  6
Continuous
100
AcDbLine
 10
147.9803704757438
 20
147.7994562959234
 30
0.0
 11
147.9803704757438
 21
137.7994562959914
 31
0.0
  0
ARC
  5
295
330
D1D
100
AcDbEntity
  8
1
  6
Continuous
100
AcDbCircle
 10
138.4269524635779
 20
142.7994562959536
 30
0.0
 40
9.553418012165982
100
AcDbArc
 50
342.412046225153
 51
17.58795377489198
  0
ARC
  5
296
330
D1D
100
AcDbEntity
  8
1
  6
Continuous
100
AcDbCircle
 10
145.4504165037714
 20
138.4773554196722
 30
0.0
 40
2.52995397197231
100
AcDbArc
 50
329.9999999998728
 51
34.56509309628865
  0
LINE
  5
297
330
D1D
100
AcDbEntity
  8
1
  6
Continuous
100
AcDbLine
 10
147.9803704757326
 20
137.7994562959719
 30
0.0
 11
147.5337884883377
 21
137.0259536040629
 31
0.0
  0
LINE
  5
298
330
D1D
100
AcDbEntity
  8
1
  6
Continuous
100
AcDbLine
 10
147.5337884883378
 20
137.0259536040618
 30
0.0
 11
144.4269524631378
 21
137.0259536040608
 31
0.0
  0
LINE
  5
299
330
D1D
100
AcDbEntity
  8
1
  6
Continuous
100
AcDbLine
 10
143.9803704757438
 20
137.7994562959738
 30
0.0
 11
144.4269524631376
 21
137.0259536040606
 31
0.0
  0
ARC
  5
29A
330
D1D
100
AcDbEntity
  8
1
  6
Continuous
100
AcDbCircle
 10
146.5103244477881
 20
138.4773554196696
 30
0.0
 40
2.529953972044376
100
AcDbArc
 50
145.4349069047927
 51
209.9999999999341
  0
LINE
  5
29B
330
D1D
100
AcDbEntity
  8
1
  6
Continuous
100
AcDbLine
 10
147.5337884883367
 20
139.9127049500054
 30
0.0
 11
144.4269524631367
 21
139.9127049500043
 31
0.0
  0
ARC
  5
29C
330
D1D
100
AcDbEntity
  8
1
  6
Continuous
100
AcDbCircle
 10
153.5337884882505
 20
142.7994562959596
 30
0.0
 40
9.553418012506648
100
AcDbArc
 50
162.4120462258007
 51
197.5879537742445
  0
LINE
  5
29D
330
D1D
100
AcDbEntity
  8
1
  6
Continuous
100
AcDbLine
 10
147.5337884883344
 20
145.686207641909
 30
0.0
 11
144.4269524631344
 21
145.6862076419078
 31
0.0
  0
ARC
  5
29E
330
D1D
100
AcDbEntity
  8
1
  6
Continuous
100
AcDbCircle
 10
146.5103244477969
 20
147.1215571722418
 30
0.0
 40
2.529953972053024
100
AcDbArc
 50
150.0000000000648
 51
214.5650930950557
  0
LINE
  5
29F
330
D1D
100
AcDbEntity
  8
1
  6
Continuous
100
AcDbLine
 10
143.9803704757438
 20
147.7994562959398
 30
0.0
 11
144.4269524631377
 21
148.5729589878532
 31
0.0
  0
LINE
  5
2A0
330
D1D
100
AcDbEntity
  8
1
  6
Continuous
100
AcDbLine
 10
142.4803704753304
 20
150.7994562960944
 30
0.0
 11
140.8803704753304
 21
150.7994562961052
 31
0.0
  0
LINE
  5
2A1
330
D1D
100
AcDbEntity
  8
1
  6
Continuous
100
AcDbLine
 10
143.9803704757439
 20
148.5494562960843
 30
0.0
 11
142.4803704754467
 21
148.5494562960944
 31
0.0
  0
LINE
  5
2A2
330
D1D
100
AcDbEntity
  8
1
  6
Continuous
100
AcDbLine
 10
143.9803704757439
 20
144.0581057428623
 30
0.0
 11
142.4803704757438
 21
142.7994562960964
 31
0.0
  0
LINE
  5
2A3
330
D1D
100
AcDbEntity
  8
1
  6
Continuous
100
AcDbLine
 10
143.9803704757438
 20
148.5494562960843
 30
0.0
 11
143.9803704757438
 21
137.0494562960843
 31
0.0
  0
LINE
  5
2A4
330
D1D
100
AcDbEntity
  8
1
  6
Continuous
100
AcDbLine
 10
143.9803704757439
 20
137.0494562960843
 30
0.0
 11
142.480370476041
 21
137.0494562960944
 31
0.0
  0
LINE
  5
2A5
330
D1D
100
AcDbEntity
  8
1
  6
Continuous
100
AcDbLine
 10
142.4803704761573
 20
134.7994562960943
 30
0.0
 11
142.4803704753303
 21
150.7994562960944
 31
0.0
  0
LINE
  5
2A6
330
D1D
100
AcDbEntity
  8
1
  6
Continuous
100
AcDbLine
 10
142.4803704761573
 20
134.7994562960943
 30
0.0
 11
140.8803704761573
 21
134.7994562961052
 31
0.0
  0
LINE
  5
2A7
330
D1D
100
AcDbEntity
  8
1
  6
Continuous
100
AcDbLine
 10
137.980370474392
 20
148.0323064282524
 30
0.0
 11
138.8803704752464
 21
148.0323064282573
 31
0.0
  0
LINE
  5
2A8
330
D1D
100
AcDbEntity
  8
1
  6
Continuous
100
AcDbLine
 10
139.8803704752463
 20
148.0323064282627
 30
0.0
 11
140.5803704754731
 21
148.0323064282664
 31
0.0
  0
LINE
  5
2A9
330
D1D
100
AcDbEntity
  8
1
  6
Continuous
100
AcDbLine
 10
137.9803704743222
 20
137.5666061639973
 30
0.0
 11
138.8803704753472
 21
137.5666061639803
 31
0.0
  0
LINE
  5
2AA
330
D1D
100
AcDbEntity
  8
1
  6
Continuous
100
AcDbLine
 10
139.8803704753472
 20
137.5666061639613
 30
0.0
 11
140.5803704754025
 21
137.5666061639481
 31
0.0
  0
LINE
  5
2AB
330
D1D
100
AcDbEntity
  8
2
  6
Continuous
100
AcDbLine
 10
138.8803704753214
 20
140.2381872837613
 30
0.0
 11
137.9803704743335
 21
139.2764180798781
 31
0.0
  0
LINE
  5
2AC
330
D1D
100
AcDbEntity
  8
2
  6
Continuous
100
AcDbLine
 10
138.8803704753264
 20
139.7038710594527
 30
0.0
 11
137.9803704743428
 21
140.6656402634468
 31
0.0
  0
LINE
  5
2AD
330
D1D
100
AcDbEntity
  8
1
  6
Continuous
100
AcDbLine
 10
137.9803704743599
 20
143.2234604128391
 30
0.0
 11
138.8803704752927
 21
143.2234604128439
 31
0.0
  0
LINE
  5
2AE
330
D1D
100
AcDbEntity
  8
1
  6
Continuous
100
AcDbLine
 10
137.9803704743542
 20
142.3754521794104
 30
0.0
 11
138.8803704753008
 21
142.3754521793935
 31
0.0
  0
LINE
  5
2AF
330
D1D
100
AcDbEntity
  8
2
  6
Continuous
100
AcDbLine
 10
138.8803704752721
 20
145.3607253085659
 30
0.0
 11
137.9803704743806
 21
146.3224945123722
 31
0.0
  0
LINE
  5
2B0
330
D1D
100
AcDbEntity
  8
2
  6
Continuous
100
AcDbLine
 10
138.880370475267
 20
145.8950415326764
 30
0.0
 11
137.9803704743713
 21
144.9332723288025
 31
0.0
  0
LINE
  5
2B1
330
D1D
100
AcDbEntity
  8
2
  6
Continuous
100
AcDbLine
 10
140.58037047549
 20
147.71171669398
 30
0.0
 11
139.8803704752567
 21
146.9636739803509
 31
0.0
  0
LINE
  5
2B2
330
D1D
100
AcDbEntity
  8
2
  6
Continuous
100
AcDbLine
 10
140.5803704757053
 20
143.544050147157
 30
0.0
 11
139.8803704752823
 21
144.2920928609397
 31
0.0
  0
LINE
  5
2B3
330
D1D
100
AcDbEntity
  8
1
  6
Continuous
100
AcDbLine
 10
139.8803704752927
 20
143.2234604128493
 30
0.0
 11
140.5803704757218
 21
143.2234604128533
 31
0.0
  0
LINE
  5
2B4
330
D1D
100
AcDbEntity
  8
1
  6
Continuous
100
AcDbLine
 10
139.8803704753008
 20
142.3754521793744
 30
0.0
 11
140.5803704757161
 21
142.3754521793613
 31
0.0
  0
LINE
  5
2B5
330
D1D
100
AcDbEntity
  8
2
  6
Continuous
100
AcDbLine
 10
140.5803704756951
 20
142.0548624450572
 30
0.0
 11
139.8803704753111
 21
141.3068197313366
 31
0.0
  0
LINE
  5
2B6
330
D1D
100
AcDbEntity
  8
2
  6
Continuous
100
AcDbLine
 10
140.5803704754237
 20
137.8871958982344
 30
0.0
 11
139.8803704753367
 21
138.6352386117273
 31
0.0
  0
LINE
  5
2B7
330
D1D
100
AcDbEntity
  8
1
  6
Continuous
100
AcDbLine
 10
139.8803704752101
 20
151.799456296112
 30
0.0
 11
138.8803704752101
 21
151.7994562961185
 31
0.0
  0
LINE
  5
2B8
330
D1D
100
AcDbEntity
  8
1
  6
Continuous
100
AcDbLine
 10
138.8803704753834
 20
133.7994562961186
 30
0.0
 11
138.8803704752101
 21
151.7994562961185
 31
0.0
  0
LINE
  5
2B9
330
D1D
100
AcDbEntity
  8
1
  6
Continuous
100
AcDbLine
 10
139.8803704753834
 20
133.7994562961119
 30
0.0
 11
139.8803704752101
 21
151.7994562961119
 31
0.0
  0
LINE
  5
2BA
330
D1D
100
AcDbEntity
  8
1
  6
Continuous
100
AcDbLine
 10
139.8803704753834
 20
133.7994562961119
 30
0.0
 11
138.8803704753834
 21
133.7994562961186
 31
0.0
  0
ARC
  5
2BB
330
D1D
100
AcDbEntity
  8
1
  6
Continuous
100
AcDbCircle
 10
121.2803704770016
 20
142.7994562962129
 30
0.0
 40
15.4596248332329
100
AcDbArc
 50
14.00624760675263
 51
22.81585621846479
  0
ARC
  5
2BC
330
D1D
100
AcDbEntity
  8
1
  6
Continuous
100
AcDbCircle
 10
121.2803704770016
 20
142.7994562962129
 30
0.0
 40
15.4596248332329
100
AcDbArc
 50
337.1841437816617
 51
345.993752392618
  0
LINE
  5
2BD
330
D1D
100
AcDbEntity
  8
1
  6
Continuous
100
AcDbLine
 10
136.3803704747217
 20
154.9238119492603
 30
0.0
 11
136.3803704746243
 21
132.4071514500668
 31
0.0
  0
LINE
  5
2BE
330
D1D
100
AcDbEntity
  8
1
  6
Continuous
100
AcDbLine
 10
137.9803704747216
 20
154.9238119492414
 30
0.0
 11
137.9803704746167
 21
130.6751006431069
 31
0.0
  0
LINE
  5
2BF
330
D1D
100
AcDbEntity
  8
1
  6
Continuous
100
AcDbLine
 10
136.2803704765351
 20
157.0494562969689
 30
0.0
 11
136.2803704763784
 21
128.5494562952916
 31
0.0
  0
LINE
  5
2C0
330
D1D
100
AcDbEntity
  8
1
  6
Continuous
100
AcDbLine
 10
119.9803704746928
 20
122.7994562954338
 30
0.0
 11
119.9803704749629
 21
162.7994562969872
 31
0.0
  0
LINE
  5
2C1
330
D1D
100
AcDbEntity
  8
1
  6
Continuous
100
AcDbLine
 10
136.3803704747384
 20
153.1917611421925
 30
0.0
 11
136.2803704765398
 21
153.1917611421921
 31
0.0
  0
LINE
  5
2C2
330
D1D
100
AcDbEntity
  8
1
  6
Continuous
100
AcDbLine
 10
137.8803704750941
 20
157.04945629697
 30
0.0
 11
136.2803704764988
 21
157.0494562969689
 31
0.0
  0
LINE
  5
2C3
330
D1D
100
AcDbEntity
  8
1
  6
Continuous
100
AcDbLine
 10
137.8803704750939
 20
157.04945629697
 30
0.0
 11
137.8803704750936
 21
154.9238119492426
 31
0.0
  0
LINE
  5
2C5
330
D1D
100
AcDbEntity
  8
1
  6
Continuous
100
AcDbLine
 10
137.880370474967
 20
131.2994562961189
 30
0.0
 11
137.9803704746194
 21
131.2994562961184
 31
0.0
  0
LINE
  5
2C6
330
D1D
100
AcDbEntity
  8
4
  6
CENTER
100
AcDbLine
 10
112.9803704743743
 20
142.7994562962585
 30
0.0
 11
150.9803704757438
 21
142.7994562960497
 31
0.0
  0
ARC
  5
2C7
330
D1D
100
AcDbEntity
  8
1
  6
Continuous
100
AcDbCircle
 10
140.580370475488
 20
147.7494562958129
 30
0.0
 40
0.3
100
AcDbArc
 50
0.0
 51
90.0
  0
LINE
  5
2C8
330
D1D
100
AcDbEntity
  8
1
  6
Continuous
100
AcDbLine
 10
140.8803704761573
 20
134.7994562961052
 30
0.0
 11
140.8803704753303
 21
150.7994562961052
 31
0.0
  0
ARC
  5
2C9
330
D1D
100
AcDbEntity
  8
1
  6
Continuous
100
AcDbCircle
 10
140.5803704759997
 20
137.849456295813
 30
0.0
 40
0.3
100
AcDbArc
 50
270.0
 51
0.0
  0
LINE
  5
2CA
330
D1D
100
AcDbEntity
  8
1
  6
Continuous
100
AcDbLine
 10
136.380370474394
 20
151.2994562961214
 30
0.0
 11
136.2803704765036
 21
151.2994562961219
 31
0.0
  0
LINE
  5
2CB
330
D1D
100
AcDbEntity
  8
1
  6
Continuous
100
AcDbLine
 10
136.3803704743204
 20
134.2994562961214
 30
0.0
 11
136.28037047641
 21
134.2994562961219
 31
0.0
  0
LINE
  5
2CC
330
D1D
100
AcDbEntity
  8
1
  6
Continuous
100
AcDbLine
 10
135.5303704763449
 20
127.7994562953513
 30
0.0
 11
135.5303704764573
 21
136.8046668920936
 31
0.0
  0
LINE
  5
2CD
330
D1D
100
AcDbEntity
  8
1
  6
Continuous
100
AcDbLine
 10
136.2803704763362
 20
128.549456295316
 30
0.0
 11
135.5303704763449
 21
127.7994562953513
 31
0.0
  0
LINE
  5
2CE
330
D1D
100
AcDbEntity
  8
1
  6
Continuous
100
AcDbLine
 10
135.5303704765162
 20
157.7994562969424
 30
0.0
 11
135.530370476526
 21
148.7942457001755
 31
0.0
  0
LINE
  5
2CF
330
D1D
100
AcDbEntity
  8
1
  6
Continuous
100
AcDbLine
 10
136.280370476499
 20
157.0494562969692
 30
0.0
 11
135.5303704765163
 21
157.7994562969424
 31
0.0
  0
LINE
  5
2D0
330
D1D
100
AcDbEntity
  8
1
  6
Continuous
100
AcDbLine
 10
137.8803704749375
 20
128.5494562952729
 30
0.0
 11
136.2803704763423
 21
128.5494562952917
 31
0.0
  0
LINE
  5
2D1
330
D1D
100
AcDbEntity
  8
1
  6
Continuous
100
AcDbLine
 10
137.8803704749788
 20
132.4071514500446
 30
0.0
 11
136.2803704764254
 21
132.4071514500685
 31
0.0
  0
LINE
  5
2D2
330
D1D
100
AcDbEntity
  8
1
  6
Continuous
100
AcDbLine
 10
137.8803704749372
 20
128.5494562952729
 30
0.0
 11
137.8803704749791
 21
132.4071514500444
 31
0.0
  0
CIRCLE
  5
2D3
330
D1D
100
AcDbEntity
  8
1
  6
Continuous
100
AcDbCircle
 10
39.25577503589641
 20
142.799456297007
 30
0.0
 40
20.0
  0
LINE
  5
2EA
330
D1D
100
AcDbEntity
  8
4
  6
CENTER
100
AcDbLine
 10
62.25577503589643
 20
142.799456297007
 30
0.0
 11
16.25577503589641
 21
142.799456297007
 31
0.0
  0
LINE
  5
3A0
330
D1D
100
AcDbEntity
  8
1
  6
Continuous
100
AcDbLine
 10
57.25577503589852
 20
153.1917611421658
 30
0.0
 11
55.80560947144576
 21
154.0290146211756
 31
0.0
  0
LINE
  5
3A1
330
D1D
100
AcDbEntity
  8
1
  6
Continuous
100
AcDbLine
 10
21.25577503589841
 20
153.1917611421952
 30
0.0
 11
22.7059406003724
 21
154.0290146212129
 31
0.0
  0
LINE
  5
3A2
330
D1D
100
AcDbEntity
  8
1
  6
Continuous
100
AcDbLine
 10
21.2557750358967
 20
132.4071514513555
 30
0.0
 11
21.2557750358967
 21
134.0816584099251
 31
0.0
  0
LINE
  5
3A3
330
D1D
100
AcDbEntity
  8
1
  6
Continuous
100
AcDbLine
 10
21.25577503589841
 20
132.4071514513804
 30
0.0
 11
22.70594060086585
 21
131.5698979720738
 31
0.0
  0
LINE
  5
3A4
330
D1D
100
AcDbEntity
  8
1
  6
Continuous
100
AcDbLine
 10
57.25577503589852
 20
132.4071514514095
 30
0.0
 11
55.80560947095197
 21
131.5698979721106
 31
0.0
  0
LINE
  5
3A5
330
D1D
100
AcDbEntity
  8
1
  6
Continuous
100
AcDbLine
 10
57.25577503589841
 20
132.4071514513715
 30
0.0
 11
57.25577503589811
 21
134.081658409929
 31
0.0
  0
LINE
  5
3A6
330
D1D
100
AcDbEntity
  8
1
  6
Continuous
100
AcDbLine
 10
40.70594060020243
 20
162.7468125086983
 30
0.0
 11
39.25577503589489
 21
163.5840659876243
 31
0.0
  0
LINE
  5
3A7
330
D1D
100
AcDbEntity
  8
1
  6
Continuous
100
AcDbLine
 10
57.25577503589509
 20
151.5172541840911
 30
0.0
 11
57.25577503589478
 21
153.1917611421789
 31
0.0
  0
LINE
  5
3A8
330
D1D
100
AcDbEntity
  8
1
  6
Continuous
100
AcDbLine
 10
37.80560947163559
 20
162.7468125087016
 30
0.0
 11
39.25577503589478
 21
163.5840659875952
 31
0.0
  0
LINE
  5
3A9
330
D1D
100
AcDbEntity
  8
1
  6
Continuous
100
AcDbLine
 10
21.2557750358967
 20
151.5172541840888
 30
0.0
 11
21.2557750358967
 21
153.191761142195
 31
0.0
  0
LINE
  5
3AA
330
D1D
100
AcDbEntity
  8
1
  6
Continuous
100
AcDbLine
 10
37.80560947067613
 20
122.8521000853821
 30
0.0
 11
39.25577503589489
 21
122.0148466059304
 31
0.0
  0
LINE
  5
3AB
330
D1D
100
AcDbEntity
  8
1
  6
Continuous
100
AcDbLine
 10
40.70594060116252
 20
122.8521000853854
 30
0.0
 11
39.25577503589489
 21
122.0148466059012
 31
0.0
  0
LINE
  5
3AD
330
D1D
100
AcDbEntity
  8
4
  6
CENTER
100
AcDbLine
 10
246.7830851847526
 20
142.7994562960633
 30
0.0
 11
200.7830851847526
 21
142.7994562960633
 31
0.0
  0
LINE
  5
3AE
330
D1D
100
AcDbEntity
  8
4
  6
CENTER
100
AcDbLine
 10
223.7830851847526
 20
119.7994562960633
 30
0.0
 11
223.7830851847526
 21
165.7994562960633
 31
0.0
  0
LINE
  5
3AF
330
D1D
100
AcDbEntity
  8
1
  6
Continuous
100
AcDbLine
 10
143.9803704757438
 20
142.7994562960881
 30
0.0
 11
142.4803704757437
 21
141.5408068493222
 31
0.0
  0
LINE
  5
3D6
330
D1D
100
AcDbEntity
  8
1
  6
Continuous
100
AcDbLine
 10
43.58077241244204
 20
130.9213881448618
 30
0.0
 11
43.80854639541531
 21
129.9476741146248
 31
0.0
  0
LINE
  5
3D7
330
D1D
100
AcDbEntity
  8
1
  6
Continuous
100
AcDbLine
 10
41.94246639656904
 20
131.5071959241275
 30
0.0
 11
42.14141016947904
 21
129.5171151782228
 31
0.0
  0
LINE
  5
3D8
330
D1D
100
AcDbEntity
  8
1
  6
Continuous
100
AcDbLine
 10
45.23741560552752
 20
130.5391508059012
 30
0.0
 11
44.92276885254802
 21
132.6033691618024
 31
0.0
  0
LINE
  5
3D9
330
D1D
100
AcDbEntity
  8
1
  6
Continuous
100
AcDbLine
 10
44.92276885254802
 20
132.6033691618024
 30
0.0
 11
46.32172257617371
 21
131.0532309488828
 31
0.0
  0
ARC
  5
3DA
330
D1D
100
AcDbEntity
  8
1
  6
Continuous
100
AcDbCircle
 10
33.37308026804669
 20
131.3586572045658
 30
0.0
 40
0.4742035672174262
100
AcDbArc
 50
181.5301330041649
 51
297.5193665879991
  0
ARC
  5
3DB
330
D1D
100
AcDbEntity
  8
1
  6
Continuous
100
AcDbCircle
 10
35.30723026634285
 20
130.5270093601385
 30
0.0
 40
0.4742035672174262
100
AcDbArc
 50
190.6307309218716
 51
306.6199645057059
  0
LINE
  5
3DC
330
D1D
100
AcDbEntity
  8
1
  6
Continuous
100
AcDbLine
 10
32.70033651239407
 20
133.4791841216885
 30
0.0
 11
31.44691621265457
 21
131.9206792124242
 31
0.0
  0
LINE
  5
3DD
330
D1D
100
AcDbEntity
  8
1
  6
Continuous
100
AcDbLine
 10
38.80978198539867
 20
131.3882156087728
 30
0.0
 11
38.65921279476287
 21
129.3938914328096
 31
0.0
  0
LINE
  5
3DE
330
D1D
100
AcDbEntity
  8
1
  6
Continuous
100
AcDbLine
 10
38.01282852636632
 20
131.3827848954385
 30
0.0
 11
37.75616625379529
 21
129.399322146144
 31
0.0
  0
LINE
  5
3DF
330
D1D
100
AcDbEntity
  8
1
  6
Continuous
100
AcDbLine
 10
36.87233744552196
 20
131.5303657021668
 30
0.0
 11
36.615675172951
 21
129.5469029528723
 31
0.0
  0
ARC
  5
3E0
330
D1D
100
AcDbEntity
  8
1
  6
Continuous
100
AcDbCircle
 10
40.26197543452735
 20
129.9117654028671
 30
0.0
 40
0.5207118820758546
100
AcDbArc
 50
214.8882680994076
 51
325.1117319005923
  0
LINE
  5
3E1
330
D1D
100
AcDbEntity
  8
1
  6
Continuous
100
AcDbLine
 10
33.16788798517336
 20
133.1031580317667
 30
0.0
 11
32.23278503961472
 21
133.8552102116104
 31
0.0
  0
ARC
  5
3E2
330
D1D
100
AcDbEntity
  8
1
  6
Continuous
100
AcDbCircle
 10
35.69049890083926
 20
131.5062706678183
 30
0.0
 40
0.4742035672174262
100
AcDbArc
 50
10.6307309218717
 51
126.6199645057058
  0
ARC
  5
3E3
330
D1D
100
AcDbEntity
  8
1
  6
Continuous
100
AcDbCircle
 10
34.36479724044761
 20
131.3851481562227
 30
0.0
 40
1.466274292452125
100
AcDbArc
 50
117.5193665879984
 51
181.5301330041654
  0
ARC
  5
3E4
330
D1D
100
AcDbEntity
  8
1
  6
Continuous
100
AcDbCircle
 10
32.91469557078613
 20
132.2384797964472
 30
0.0
 40
1.466274292452125
100
AcDbArc
 50
297.5193665879984
 51
1.530133004165625
  0
ARC
  5
3E5
330
D1D
100
AcDbEntity
  8
1
  6
Continuous
100
AcDbCircle
 10
36.2822736297349
 20
130.7100251063813
 30
0.0
 40
1.466274292452125
100
AcDbArc
 50
126.6199645057052
 51
190.6307309218723
  0
ARC
  5
3E6
330
D1D
100
AcDbEntity
  8
1
  6
Continuous
100
AcDbCircle
 10
33.90641254318705
 20
132.2649707481042
 30
0.0
 40
0.4742035672174262
100
AcDbArc
 50
1.530133004164935
 51
117.5193665879991
  0
LINE
  5
3E7
330
D1D
100
AcDbEntity
  8
1
  6
Continuous
100
AcDbLine
 10
36.74400630923646
 20
130.5386343275196
 30
0.0
 11
37.88449739008082
 21
130.3910535207912
 31
0.0
  0
LINE
  5
3E8
330
D1D
100
AcDbEntity
  8
1
  6
Continuous
100
AcDbLine
 10
43.58077241244204
 20
130.9213881448618
 30
0.0
 11
43.9372268476111
 21
132.0317665648829
 31
0.0
  0
ARC
  5
3E9
330
D1D
100
AcDbEntity
  8
1
  6
Continuous
100
AcDbCircle
 10
39.44423251341378
 20
130.4875175158439
 30
0.0
 40
1.520805338277071
100
AcDbArc
 50
324.9406618563479
 51
356.3633132383586
  0
LINE
  5
3EA
330
D1D
100
AcDbEntity
  8
1
  6
Continuous
100
AcDbLine
 10
40.96197543452739
 20
130.3910535207912
 30
0.0
 11
40.96197543452739
 21
129.4879616735523
 31
0.0
  0
LINE
  5
3EB
330
D1D
100
AcDbEntity
  8
1
  6
Continuous
100
AcDbLine
 10
40.96197543452739
 20
130.3910535207912
 30
0.0
 11
40.27285689006196
 21
130.3910535207912
 31
0.0
  0
ARC
  5
3EC
330
D1D
100
AcDbEntity
  8
1
  6
Continuous
100
AcDbCircle
 10
39.44423251341378
 20
130.2945895257385
 30
0.0
 40
1.520805338277071
100
AcDbArc
 50
25.72010630391773
 51
35.0593381436521
  0
LINE
  5
3ED
330
D1D
100
AcDbEntity
  8
1
  6
Continuous
100
AcDbLine
 10
42.76877001132663
 20
131.758437785315
 30
0.0
 11
43.58077241244204
 21
130.9213881448618
 31
0.0
  0
ARC
  5
3EE
330
D1D
100
AcDbEntity
  8
1
  6
Continuous
100
AcDbCircle
 10
41.07824972697949
 20
130.3910535207912
 30
0.0
 40
1.466274292452125
100
AcDbArc
 50
147.9946167919164
 51
212.0053832080834
  0
ARC
  5
3EF
330
D1D
100
AcDbEntity
  8
1
  6
Continuous
100
AcDbCircle
 10
40.26197543452735
 20
130.8703416387154
 30
0.0
 40
0.5207118820758546
100
AcDbArc
 50
34.88826809940761
 51
145.1117319005923
  0
LINE
  5
3F0
330
D1D
100
AcDbEntity
  8
1
  6
Continuous
100
AcDbLine
 10
45.11942307316019
 20
131.3132326893642
 30
0.0
 11
45.79711492981409
 21
131.6345327787276
 31
0.0
  0
ARC
  5
3F7
330
D1D
100
AcDbEntity
  8
1
  6
Continuous
100
AcDbCircle
 10
223.7830851847526
 20
142.7994562960633
 30
0.0
 40
20.0
100
AcDbArc
 50
274.1580672370555
 51
325.8419327633882
  0
ARC
  5
3F8
330
D1D
100
AcDbEntity
  8
1
  6
Continuous
100
AcDbCircle
 10
223.7830851847526
 20
142.7994562960633
 30
0.0
 40
20.0
100
AcDbArc
 50
214.1580672367401
 51
265.8419327630748
  0
ARC
  5
3F9
330
D1D
100
AcDbEntity
  8
1
  6
Continuous
100
AcDbCircle
 10
223.7830851847526
 20
142.7994562960633
 30
0.0
 40
20.0
100
AcDbArc
 50
154.1580672368324
 51
205.8419327631675
  0
ARC
  5
3FA
330
D1D
100
AcDbEntity
  8
1
  6
Continuous
100
AcDbCircle
 10
223.7830851847526
 20
142.7994562960633
 30
0.0
 40
20.0
100
AcDbArc
 50
94.1580672368069
 51
145.8419327631401
  0
ARC
  5
3FC
330
D1D
100
AcDbEntity
  8
1
  6
Continuous
100
AcDbCircle
 10
223.7830851847526
 20
142.7994562960633
 30
0.0
 40
20.0
100
AcDbArc
 50
34.15806723672981
 51
85.84193276306452
  0
ARC
  5
400
330
D1D
100
AcDbEntity
  8
1
  6
Continuous
100
AcDbCircle
 10
223.7830851847526
 20
142.7994562960633
 30
0.0
 40
15.0
100
AcDbArc
 50
203.5564643090902
 51
336.4435356908876
  0
ARC
  5
401
330
D1D
100
AcDbEntity
  8
1
  6
Continuous
100
AcDbCircle
 10
223.7830851847526
 20
142.7994562960633
 30
0.0
 40
15.0
100
AcDbArc
 50
23.55646430908908
 51
156.4435356908866
  0
ARC
  5
403
330
D1D
100
AcDbEntity
  8
2
  6
Continuous
100
AcDbCircle
 10
223.7830851847526
 20
142.7994562960633
 30
0.0
 40
15.0
100
AcDbArc
 50
336.4435356909097
 51
23.55646430911335
  0
LINE
  5
406
330
D1D
100
AcDbEntity
  8
4
  6
CENTER
100
AcDbLine
 10
212.7830851847547
 20
184.0836531131593
 30
0.0
 11
234.7830851847504
 21
184.0836531130385
 31
0.0
  0
LINE
  5
408
330
D1D
100
AcDbEntity
  8
4
  6
CENTER
100
AcDbLine
 10
223.7830851847526
 20
195.0836531130967
 30
0.0
 11
223.7830851847526
 21
173.0836531131011
 31
0.0
  0
CIRCLE
  5
409
330
D1D
100
AcDbEntity
  8
1
  6
Continuous
100
AcDbCircle
 10
223.7830851847526
 20
184.0836531130989
 30
0.0
 40
7.999999999997809
  0
ARC
  5
40B
330
D1D
100
AcDbEntity
  8
1
  6
Continuous
100
AcDbCircle
 10
223.7830851847526
 20
184.0836531130989
 30
0.0
 40
5.749999999991415
100
AcDbArc
 50
210.4125355330292
 51
269.5831905106881
  0
ARC
  5
44B
330
D1D
100
AcDbEntity
  8
1
  6
Continuous
100
AcDbCircle
 10
223.7830851847525
 20
184.0836531130989
 30
0.0
 40
3.1
100
AcDbArc
 50
25.88778452830009
 51
64.11221547169994
  0
LINE
  5
44C
330
D1D
100
AcDbEntity
  8
1
  6
Continuous
100
AcDbLine
 10
225.2678147722519
 20
184.0866177203936
 30
0.0
 11
226.5720029274437
 21
185.4371440899813
 31
0.0
  0
LINE
  5
44D
330
D1D
100
AcDbEntity
  8
1
  6
Continuous
100
AcDbLine
 10
226.5720029274437
 20
182.7301621362163
 30
0.0
 11
225.2678147722519
 21
184.080688505804
 31
0.0
  0
ARC
  5
44E
330
D1D
100
AcDbEntity
  8
1
  6
Continuous
100
AcDbCircle
 10
223.7830851847525
 20
184.0836531130989
 30
0.0
 40
3.1
100
AcDbArc
 50
295.8877845283
 51
334.1122154716984
  0
CIRCLE
  5
44F
330
D1D
100
AcDbEntity
  8
1
  6
Continuous
100
AcDbCircle
 10
223.7830851847526
 20
184.0836531130989
 30
0.0
 40
4.049999999999998
  0
CIRCLE
  5
450
330
D1D
100
AcDbEntity
  8
1
  6
Continuous
100
AcDbCircle
 10
223.7830851847526
 20
184.0836531130989
 30
0.0
 40
5.0
  0
LINE
  5
451
330
D1D
100
AcDbEntity
  8
1
  6
Continuous
100
AcDbLine
 10
228.7830851847526
 20
181.1966531130989
 30
0.0
 11
223.7830851847526
 21
178.3096531130989
 31
0.0
  0
LINE
  5
452
330
D1D
100
AcDbEntity
  8
1
  6
Continuous
100
AcDbLine
 10
223.7830851847526
 20
189.8566531130989
 30
0.0
 11
228.7830851847526
 21
186.9706531130989
 31
0.0
  0
LINE
  5
453
330
D1D
100
AcDbEntity
  8
1
  6
Continuous
100
AcDbLine
 10
220.9941674420614
 20
185.4371440899814
 30
0.0
 11
222.2983555972533
 21
184.0866177203937
 31
0.0
  0
LINE
  5
454
330
D1D
100
AcDbEntity
  8
1
  6
Continuous
100
AcDbLine
 10
218.7830851847526
 20
181.1966531130989
 30
0.0
 11
218.7830851847526
 21
186.9706531130989
 31
0.0
  0
LINE
  5
455
330
D1D
100
AcDbEntity
  8
1
  6
Continuous
100
AcDbLine
 10
222.2983555972532
 20
184.080688505804
 30
0.0
 11
220.9941674420615
 21
182.7301621362164
 31
0.0
  0
ARC
  5
456
330
D1D
100
AcDbEntity
  8
1
  6
Continuous
100
AcDbCircle
 10
223.7830851847525
 20
184.0836531130989
 30
0.0
 40
3.1
100
AcDbArc
 50
205.8877845283001
 51
244.1122154716999
  0
LINE
  5
457
330
D1D
100
AcDbEntity
  8
1
  6
Continuous
100
AcDbLine
 10
218.7830851847526
 20
181.1966531130989
 30
0.0
 11
223.7830851847526
 21
178.3096531130989
 31
0.0
  0
LINE
  5
458
330
D1D
100
AcDbEntity
  8
1
  6
Continuous
100
AcDbLine
 10
223.7801205774577
 20
182.5989235255993
 30
0.0
 11
222.4295942078701
 21
181.2947353704077
 31
0.0
  0
LINE
  5
459
330
D1D
100
AcDbEntity
  8
1
  6
Continuous
100
AcDbLine
 10
222.2992619686617
 20
184.0836531130989
 30
0.0
 11
222.2983555972532
 21
184.0866177203936
 31
0.0
  0
LINE
  5
45A
330
D1D
100
AcDbEntity
  8
1
  6
Continuous
100
AcDbLine
 10
222.2992619686617
 20
184.0836531130989
 30
0.0
 11
222.2983555972532
 21
184.080688505804
 31
0.0
  0
LINE
  5
45B
330
D1D
100
AcDbEntity
  8
1
  6
Continuous
100
AcDbLine
 10
223.7830851847526
 20
182.599829897008
 30
0.0
 11
223.7801205774577
 21
182.5989235255993
 31
0.0
  0
LINE
  5
45C
330
D1D
100
AcDbEntity
  8
1
  6
Continuous
100
AcDbLine
 10
223.7830851847526
 20
182.599829897008
 30
0.0
 11
223.7860497920475
 21
182.5989235255993
 31
0.0
  0
LINE
  5
45D
330
D1D
100
AcDbEntity
  8
1
  6
Continuous
100
AcDbLine
 10
225.2669084008434
 20
184.0836531130989
 30
0.0
 11
225.2678147722519
 21
184.080688505804
 31
0.0
  0
LINE
  5
45E
330
D1D
100
AcDbEntity
  8
1
  6
Continuous
100
AcDbLine
 10
225.2669084008434
 20
184.0836531130989
 30
0.0
 11
225.2678147722519
 21
184.0866177203936
 31
0.0
  0
LINE
  5
45F
330
D1D
100
AcDbEntity
  8
1
  6
Continuous
100
AcDbLine
 10
225.1365761616352
 20
181.2947353704077
 30
0.0
 11
223.7860497920475
 21
182.5989235255995
 31
0.0
  0
ARC
  5
460
330
D1D
100
AcDbEntity
  8
1
  6
Continuous
100
AcDbCircle
 10
223.7830851847525
 20
184.0836531130989
 30
0.0
 40
3.1
100
AcDbArc
 50
115.8877845283
 51
154.1122154716984
  0
LINE
  5
461
330
D1D
100
AcDbEntity
  8
1
  6
Continuous
100
AcDbLine
 10
223.7830851847526
 20
189.8566531130989
 30
0.0
 11
218.7830851847526
 21
186.9706531130989
 31
0.0
  0
LINE
  5
462
330
D1D
100
AcDbEntity
  8
1
  6
Continuous
100
AcDbLine
 10
222.42959420787
 20
186.87257085579
 30
0.0
 11
223.7801205774577
 21
185.5683827005981
 31
0.0
  0
LINE
  5
463
330
D1D
100
AcDbEntity
  8
1
  6
Continuous
100
AcDbLine
 10
223.7860497920473
 20
185.5683827005981
 30
0.0
 11
225.1365761616352
 21
186.87257085579
 31
0.0
  0
LINE
  5
464
330
D1D
100
AcDbEntity
  8
1
  6
Continuous
100
AcDbLine
 10
223.7830851847526
 20
185.5674763291897
 30
0.0
 11
223.7860497920473
 21
185.5683827005981
 31
0.0
  0
LINE
  5
465
330
D1D
100
AcDbEntity
  8
1
  6
Continuous
100
AcDbLine
 10
223.7830851847526
 20
185.5674763291897
 30
0.0
 11
223.7801205774577
 21
185.5683827005981
 31
0.0
  0
LINE
  5
466
330
D1D
100
AcDbEntity
  8
1
  6
Continuous
100
AcDbLine
 10
228.7830851847526
 20
181.1966531130989
 30
0.0
 11
228.7830851847526
 21
186.9706531130989
 31
0.0
  0
LINE
  5
47B
330
D1D
100
AcDbEntity
  8
1
  6
Continuous
100
AcDbLine
 10
144.4266622338274
 20
232.7994562960881
 30
0.0
 11
147.5340787176602
 21
232.7994562960881
 31
0.0
  0
LINE
  5
47C
330
D1D
100
AcDbEntity
  8
1
  6
Continuous
100
AcDbLine
 10
147.9803704757438
 20
237.7994562960882
 30
0.0
 11
143.9803704757438
 21
237.7994562960882
 31
0.0
  0
LINE
  5
47D
330
D1D
100
AcDbEntity
  8
1
  6
Continuous
100
AcDbLine
 10
147.9803704757438
 20
227.7994562960881
 30
0.0
 11
143.9803704757438
 21
227.7994562960881
 31
0.0
  0
ARC
  5
47E
330
D1D
100
AcDbEntity
  8
1
  6
Continuous
100
AcDbCircle
 10
151.2056622456687
 20
235.2994562960881
 30
0.0
 40
7.225291769924895
100
AcDbArc
 50
159.7567340180139
 51
200.2432659819859
  0
ARC
  5
480
330
D1D
100
AcDbEntity
  8
1
  6
Continuous
100
AcDbCircle
 10
151.2056622456687
 20
230.2994562960881
 30
0.0
 40
7.225291769924895
100
AcDbArc
 50
159.7567340180139
 51
200.2432659819859
  0
ARC
  5
481
330
D1D
100
AcDbEntity
  8
1
  6
Continuous
100
AcDbCircle
 10
140.7550787058189
 20
235.2994562960881
 30
0.0
 40
7.225291769924895
100
AcDbArc
 50
339.756734018014
 51
20.24326598198597
  0
LINE
  5
482
330
D1D
100
AcDbEntity
  8
1
  6
Continuous
100
AcDbLine
 10
147.9803704757438
 20
237.7994562960882
 30
0.0
 11
147.9803704757438
 21
227.7994562960881
 31
0.0
  0
ARC
  5
483
330
D1D
100
AcDbEntity
  8
1
  6
Continuous
100
AcDbCircle
 10
140.7550787058189
 20
230.2994562960881
 30
0.0
 40
7.225291769924895
100
AcDbArc
 50
339.756734018014
 51
20.24326598198597
  0
ARC
  5
485
330
D1D
100
AcDbEntity
  8
1
  6
Continuous
100
AcDbCircle
 10
223.7830851847526
 20
184.0836531130989
 30
0.0
 40
5.749999999991415
100
AcDbArc
 50
150.4081542061993
 51
209.5918457938005
  0
ARC
  5
486
330
D1D
100
AcDbEntity
  8
1
  6
Continuous
100
AcDbCircle
 10
223.7830851847526
 20
184.0836531130989
 30
0.0
 40
5.749999999991415
100
AcDbArc
 50
90.39947607188095
 51
149.5876084022451
  0
ARC
  5
487
330
D1D
100
AcDbEntity
  8
1
  6
Continuous
100
AcDbCircle
 10
223.7830851847526
 20
184.0836531130989
 30
0.0
 40
5.749999999991415
100
AcDbArc
 50
30.41239159775487
 51
89.60052392811901
  0
ARC
  5
488
330
D1D
100
AcDbEntity
  8
1
  6
Continuous
100
AcDbCircle
 10
223.7830851847526
 20
184.0836531130989
 30
0.0
 40
5.749999999991415
100
AcDbArc
 50
330.4081542062003
 51
29.59184579379961
  0
ARC
  5
489
330
D1D
100
AcDbEntity
  8
1
  6
Continuous
100
AcDbCircle
 10
223.7830851847526
 20
184.0836531130989
 30
0.0
 40
5.749999999991415
100
AcDbArc
 50
270.4168094893121
 51
329.5874644669703
  0
LINE
  5
48D
330
D1D
100
AcDbEntity
  8
1
  6
Continuous
100
AcDbLine
 10
125.980370474988
 20
126.5494562961772
 30
0.0
 11
125.9803704752188
 21
159.049456296177
 31
0.0
  0
LINE
  5
48F
330
D1D
100
AcDbEntity
  8
1
  6
Continuous
100
AcDbLine
 10
125.980370474988
 20
216.5494562961772
 30
0.0
 11
125.9803704752188
 21
249.049456296177
 31
0.0
  0
LINE
  5
490
330
D1D
100
AcDbEntity
  8
1
  6
Continuous
100
AcDbLine
 10
127.9803704749597
 20
215.0994562960944
 30
0.0
 11
127.9803704752343
 21
250.499456296054
 31
0.0
  0
LINE
  5
491
330
D1D
100
AcDbEntity
  8
1
  6
Continuous
100
AcDbLine
 10
131.9803704749597
 20
215.0994562960477
 30
0.0
 11
131.9803704752343
 21
250.4994562960471
 31
0.0
  0
LINE
  5
492
330
D1D
100
AcDbEntity
  8
1
  6
Continuous
100
AcDbLine
 10
115.9803704744032
 20
213.7994562954706
 30
0.0
 11
115.9803704743454
 21
251.7994562969877
 31
0.0
  0
LINE
  5
493
330
D1D
100
AcDbEntity
  8
1
  6
Continuous
100
AcDbLine
 10
120.4803704752471
 20
216.7994562964289
 30
0.0
 11
120.4803704752471
 21
248.7994562963979
 31
0.0
  0
LINE
  5
495
330
D1D
100
AcDbEntity
  8
1
  6
Continuous
100
AcDbLine
 10
135.5303704765175
 20
246.5494562960498
 30
0.0
 11
135.5303704765478
 21
219.0494562962583
 31
0.0
  0
LINE
  5
496
330
D1D
100
AcDbEntity
  8
1
  6
Continuous
100
AcDbLine
 10
137.8803704750947
 20
239.924456296145
 30
0.0
 11
137.8803704750928
 21
225.6744562961434
 31
0.0
  0
LINE
  5
497
330
D1D
100
AcDbEntity
  8
1
  6
Continuous
100
AcDbLine
 10
119.9803704746928
 20
212.7994562954337
 30
0.0
 11
119.9803704749629
 21
252.7994562969872
 31
0.0
  0
LINE
  5
498
330
D1D
100
AcDbEntity
  8
1
  6
Continuous
100
AcDbLine
 10
136.2803704765324
 20
246.5494562960496
 30
0.0
 11
136.2803704764959
 21
239.924456296145
 31
0.0
  0
LINE
  5
49F
330
D1D
100
AcDbEntity
  8
4
  6
CENTER
100
AcDbLine
 10
112.9803704743743
 20
232.7994562962584
 30
0.0
 11
150.9803704757438
 21
232.7994562960497
 31
0.0
  0
LINE
  5
4A0
330
D1D
100
AcDbEntity
  8
1
  6
Continuous
100
AcDbLine
 10
121.4803704777736
 20
219.0494562960504
 30
0.0
 11
121.4803704777962
 21
246.5494562960504
 31
0.0
  0
LINE
  5
4A1
330
D1D
100
AcDbEntity
  8
1
  6
Continuous
100
AcDbLine
 10
119.9803704746909
 20
212.7994562954337
 30
0.0
 11
116.9803704743904
 21
212.7994562954722
 31
0.0
  0
ARC
  5
4A2
330
D1D
100
AcDbEntity
  8
1
  6
Continuous
100
AcDbCircle
 10
116.9803704744033
 20
213.7994562954722
 30
0.0
 40
1.0
100
AcDbArc
 50
180.0
 51
270.0
  0
ARC
  5
4A3
330
D1D
100
AcDbEntity
  8
1
  6
Continuous
100
AcDbCircle
 10
131.6803704749597
 20
215.0994562960497
 30
0.0
 40
0.3
100
AcDbArc
 50
270.0
 51
0.0
  0
LINE
  5
4A4
330
D1D
100
AcDbEntity
  8
1
  6
Continuous
100
AcDbLine
 10
131.680370474956
 20
214.7994562960497
 30
0.0
 11
128.2803704749559
 21
214.7994562960924
 31
0.0
  0
ARC
  5
4A5
330
D1D
100
AcDbEntity
  8
1
  6
Continuous
100
AcDbCircle
 10
128.2803704749597
 20
215.0994562960924
 30
0.0
 40
0.3
100
AcDbArc
 50
180.0
 51
270.0
  0
ARC
  5
4A9
330
D1D
100
AcDbEntity
  8
1
  6
Continuous
100
AcDbCircle
 10
119.9803704752505
 20
216.7994562964289
 30
0.0
 40
0.5
100
AcDbArc
 50
270.0000000021235
 51
0.0
  0
ARC
  5
4AA
330
D1D
100
AcDbEntity
  8
1
  6
Continuous
100
AcDbCircle
 10
126.980370474988
 20
216.5494562961772
 30
0.0
 40
1.0
100
AcDbArc
 50
179.9999999995928
 51
359.9999999996164
  0
LINE
  5
4B0
330
D1D
100
AcDbEntity
  8
1
  6
Continuous
100
AcDbLine
 10
131.6803704751075
 20
232.7994562961557
 30
0.0
 11
128.2803704751076
 21
232.7994562961984
 31
0.0
  0
LINE
  5
4B2
330
D1D
100
AcDbEntity
  8
1
  6
Continuous
100
AcDbLine
 10
140.8803704761573
 20
224.7994562961052
 30
0.0
 11
140.8803704753303
 21
240.7994562961052
 31
0.0
  0
LINE
  5
4B3
330
D1D
100
AcDbEntity
  8
1
  6
Continuous
100
AcDbLine
 10
137.9803704747216
 20
244.9238119492413
 30
0.0
 11
137.9803704746167
 21
220.6751006430581
 31
0.0
  0
LINE
  5
4B4
330
D1D
100
AcDbEntity
  8
1
  6
Continuous
100
AcDbLine
 10
136.3803704747217
 20
244.9238119492604
 30
0.0
 11
136.3803704747001
 21
239.924456296145
 31
0.0
  0
LINE
  5
4B5
330
D1D
100
AcDbEntity
  8
1
  6
Continuous
100
AcDbLine
 10
139.8803704753834
 20
223.7994562961119
 30
0.0
 11
139.8803704752101
 21
241.7994562961119
 31
0.0
  0
LINE
  5
4B6
330
D1D
100
AcDbEntity
  8
1
  6
Continuous
100
AcDbLine
 10
138.8803704753834
 20
223.7994562961185
 30
0.0
 11
138.8803704752101
 21
241.7994562961185
 31
0.0
  0
LINE
  5
4B7
330
D1D
100
AcDbEntity
  8
1
  6
Continuous
100
AcDbLine
 10
142.4803704761573
 20
224.7994562960943
 30
0.0
 11
142.4803704753303
 21
240.7994562960944
 31
0.0
  0
LINE
  5
4C0
330
D1D
100
AcDbEntity
  8
1
  6
Continuous
100
AcDbLine
 10
139.8803704753834
 20
223.7994562961119
 30
0.0
 11
138.8803704753834
 21
223.7994562961185
 31
0.0
  0
LINE
  5
4C1
330
D1D
100
AcDbEntity
  8
1
  6
Continuous
100
AcDbLine
 10
142.4803704761573
 20
224.7994562960943
 30
0.0
 11
140.8803704761573
 21
224.7994562961052
 31
0.0
  0
LINE
  5
4C2
330
D1D
100
AcDbEntity
  8
2
  6
Continuous
100
AcDbLine
 10
138.8803704752721
 20
235.3607253085659
 30
0.0
 11
137.9803704743806
 21
236.3224945123722
 31
0.0
  0
LINE
  5
4C3
330
D1D
100
AcDbEntity
  8
2
  6
Continuous
100
AcDbLine
 10
138.880370475267
 20
235.8950415326765
 30
0.0
 11
137.9803704743713
 21
234.9332723288025
 31
0.0
  0
LINE
  5
4C4
330
D1D
100
AcDbEntity
  8
1
  6
Continuous
100
AcDbLine
 10
143.9803704757438
 20
238.5494562960843
 30
0.0
 11
143.9803704757438
 21
227.0494562960843
 31
0.0
  0
LINE
  5
4C8
330
D1D
100
AcDbEntity
  8
2
  6
Continuous
100
AcDbLine
 10
140.5803704754237
 20
227.8871958982344
 30
0.0
 11
139.8803704753367
 21
228.6352386117273
 31
0.0
  0
LINE
  5
4C9
330
D1D
100
AcDbEntity
  8
2
  6
Continuous
100
AcDbLine
 10
140.5803704756951
 20
232.0548624450573
 30
0.0
 11
139.8803704753111
 21
231.3068197313365
 31
0.0
  0
LINE
  5
4CA
330
D1D
100
AcDbEntity
  8
2
  6
Continuous
100
AcDbLine
 10
140.5803704757053
 20
233.5440501471571
 30
0.0
 11
139.8803704752823
 21
234.2920928609397
 31
0.0
  0
LINE
  5
4CB
330
D1D
100
AcDbEntity
  8
1
  6
Continuous
100
AcDbLine
 10
139.8803704753008
 20
232.3754521793744
 30
0.0
 11
140.5803704757161
 21
232.3754521793613
 31
0.0
  0
LINE
  5
4CC
330
D1D
100
AcDbEntity
  8
1
  6
Continuous
100
AcDbLine
 10
139.8803704752927
 20
233.2234604128494
 30
0.0
 11
140.5803704757218
 21
233.2234604128533
 31
0.0
  0
LINE
  5
4CD
330
D1D
100
AcDbEntity
  8
1
  6
Continuous
100
AcDbLine
 10
139.8803704753472
 20
227.5666061639613
 30
0.0
 11
140.5803704754025
 21
227.5666061639481
 31
0.0
  0
LINE
  5
4CE
330
D1D
100
AcDbEntity
  8
1
  6
Continuous
100
AcDbLine
 10
139.8803704753473
 20
227.5494562958091
 30
0.0
 11
140.5803704760013
 21
227.549456295813
 31
0.0
  0
LINE
  5
4CF
330
D1D
100
AcDbEntity
  8
2
  6
Continuous
100
AcDbLine
 10
138.8803704753214
 20
230.2381872837613
 30
0.0
 11
137.9803704743335
 21
229.2764180798781
 31
0.0
  0
LINE
  5
4D0
330
D1D
100
AcDbEntity
  8
2
  6
Continuous
100
AcDbLine
 10
138.8803704753264
 20
229.7038710594526
 30
0.0
 11
137.9803704743428
 21
230.665640263447
 31
0.0
  0
LINE
  5
4D2
330
D1D
100
AcDbEntity
  8
1
  6
Continuous
100
AcDbLine
 10
137.9803704743542
 20
232.3754521794104
 30
0.0
 11
138.8803704753008
 21
232.3754521793935
 31
0.0
  0
LINE
  5
4D3
330
D1D
100
AcDbEntity
  8
1
  6
Continuous
100
AcDbLine
 10
137.9803704743599
 20
233.2234604128391
 30
0.0
 11
138.8803704752927
 21
233.2234604128439
 31
0.0
  0
LINE
  5
4D4
330
D1D
100
AcDbEntity
  8
1
  6
Continuous
100
AcDbLine
 10
137.9803704743222
 20
227.5666061639973
 30
0.0
 11
138.8803704753472
 21
227.5666061639803
 31
0.0
  0
LINE
  5
4D5
330
D1D
100
AcDbEntity
  8
1
  6
Continuous
100
AcDbLine
 10
137.9803704746342
 20
227.5494562957989
 30
0.0
 11
138.8803704753473
 21
227.5494562958038
 31
0.0
  0
LINE
  5
4D6
330
D1D
100
AcDbEntity
  8
1
  6
Continuous
100
AcDbLine
 10
143.9803704757438
 20
232.7994562960881
 30
0.0
 11
142.4803704757437
 21
231.5408068493222
 31
0.0
  0
ARC
  5
4D7
330
D1D
100
AcDbEntity
  8
1
  6
Continuous
100
AcDbCircle
 10
140.5803704759997
 20
227.849456295813
 30
0.0
 40
0.3
100
AcDbArc
 50
270.0
 51
0.0
  0
LINE
  5
4D8
330
D1D
100
AcDbEntity
  8
1
  6
Continuous
100
AcDbLine
 10
143.9803704757439
 20
227.0494562960843
 30
0.0
 11
142.480370476041
 21
227.0494562960944
 31
0.0
  0
LINE
  5
4D9
330
D1D
100
AcDbEntity
  8
1
  6
Continuous
100
AcDbLine
 10
143.9803704757439
 20
234.0581057428623
 30
0.0
 11
142.4803704757438
 21
232.7994562960964
 31
0.0
  0
LINE
  5
4E0
330
D1D
100
AcDbEntity
  8
2
  6
Continuous
100
AcDbLine
 10
140.58037047549
 20
237.71171669398
 30
0.0
 11
139.8803704752567
 21
236.9636739803508
 31
0.0
  0
LINE
  5
4E1
330
D1D
100
AcDbEntity
  8
1
  6
Continuous
100
AcDbLine
 10
139.8803704752463
 20
238.0323064282627
 30
0.0
 11
140.5803704754731
 21
238.0323064282665
 31
0.0
  0
LINE
  5
4E2
330
D1D
100
AcDbEntity
  8
1
  6
Continuous
100
AcDbLine
 10
139.8803704752462
 20
238.049456295809
 30
0.0
 11
140.5803704754863
 21
238.0494562958129
 31
0.0
  0
LINE
  5
4E5
330
D1D
100
AcDbEntity
  8
1
  6
Continuous
100
AcDbLine
 10
137.9803704747216
 20
244.9238119492413
 30
0.0
 11
136.380370474735
 21
244.9238119492604
 31
0.0
  0
LINE
  5
4EA
330
D1D
100
AcDbEntity
  8
1
  6
Continuous
100
AcDbLine
 10
139.8803704752101
 20
241.799456296112
 30
0.0
 11
138.8803704752101
 21
241.7994562961185
 31
0.0
  0
LINE
  5
4EB
330
D1D
100
AcDbEntity
  8
1
  6
Continuous
100
AcDbLine
 10
137.980370474392
 20
238.0323064282524
 30
0.0
 11
138.8803704752464
 21
238.0323064282573
 31
0.0
  0
LINE
  5
4EC
330
D1D
100
AcDbEntity
  8
1
  6
Continuous
100
AcDbLine
 10
137.9803704747042
 20
238.0494562957988
 30
0.0
 11
138.8803704752462
 21
238.0494562958035
 31
0.0
  0
ARC
  5
4ED
330
D1D
100
AcDbEntity
  8
1
  6
Continuous
100
AcDbCircle
 10
140.580370475488
 20
237.7494562958128
 30
0.0
 40
0.3
100
AcDbArc
 50
0.0
 51
90.0
  0
LINE
  5
4EE
330
D1D
100
AcDbEntity
  8
1
  6
Continuous
100
AcDbLine
 10
143.9803704757439
 20
238.5494562960843
 30
0.0
 11
142.4803704754467
 21
238.5494562960944
 31
0.0
  0
LINE
  5
4EF
330
D1D
100
AcDbEntity
  8
1
  6
Continuous
100
AcDbLine
 10
142.4803704753304
 20
240.7994562960944
 30
0.0
 11
140.8803704753304
 21
240.7994562961052
 31
0.0
  0
LINE
  5
4F8
330
D1D
100
AcDbEntity
  8
1
  6
Continuous
100
AcDbLine
 10
119.9803704749609
 20
252.7994562969869
 30
0.0
 11
116.9803704743461
 21
252.7994562969889
 31
0.0
  0
ARC
  5
4F9
330
D1D
100
AcDbEntity
  8
1
  6
Continuous
100
AcDbCircle
 10
116.9803704743454
 20
251.7994562969892
 30
0.0
 40
1.0
100
AcDbArc
 50
90.0
 51
180.0
  0
ARC
  5
4FD
330
D1D
100
AcDbEntity
  8
1
  6
Continuous
100
AcDbCircle
 10
119.9803704752505
 20
248.7994562963979
 30
0.0
 40
0.5
100
AcDbArc
 50
0.0
 51
89.99999999787652
  0
ARC
  5
4FE
330
D1D
100
AcDbEntity
  8
1
  6
Continuous
100
AcDbCircle
 10
126.9803704752122
 20
249.049456296177
 30
0.0
 40
0.9999999999933491
100
AcDbArc
 50
359.9999999996172
 51
179.9999999995928
  0
ARC
  5
4FF
330
D1D
100
AcDbEntity
  8
1
  6
Continuous
100
AcDbCircle
 10
128.2803704752344
 20
250.4994562960521
 30
0.0
 40
0.3
100
AcDbArc
 50
90.0
 51
180.0
  0
LINE
  5
500
330
D1D
100
AcDbEntity
  8
1
  6
Continuous
100
AcDbLine
 10
131.6803704752347
 20
250.7994562960492
 30
0.0
 11
128.2803704752347
 21
250.799456296052
 31
0.0
  0
ARC
  5
501
330
D1D
100
AcDbEntity
  8
1
  6
Continuous
100
AcDbCircle
 10
131.6803704752343
 20
250.4994562960491
 30
0.0
 40
0.3
100
AcDbArc
 50
0.0
 51
90.0
  0
LINE
  5
536
330
D1D
100
AcDbEntity
  8
1
  6
Continuous
100
AcDbLine
 10
125.9803704752011
 20
246.5494562960496
 30
0.0
 11
120.4803704752471
 21
246.5494562960506
 31
0.0
  0
LINE
  5
537
330
D1D
100
AcDbEntity
  8
1
  6
Continuous
100
AcDbLine
 10
125.9803704750058
 20
219.0494562960496
 30
0.0
 11
120.4803704752471
 21
219.0494562960506
 31
0.0
  0
LINE
  5
53A
330
D1D
100
AcDbEntity
  8
1
  6
Continuous
100
AcDbLine
 10
136.2803704765324
 20
246.5494562960496
 30
0.0
 11
131.9803704751888
 21
246.5494562960504
 31
0.0
  0
LINE
  5
53B
330
D1D
100
AcDbEntity
  8
1
  6
Continuous
100
AcDbLine
 10
136.2803704765324
 20
219.0494562962585
 30
0.0
 11
131.9803704751888
 21
219.0494562962577
 31
0.0
  0
LINE
  5
53D
330
D1D
100
AcDbEntity
  8
1
  6
Continuous
100
AcDbLine
 10
137.8803704750947
 20
239.924456296145
 30
0.0
 11
136.2803704764959
 21
239.924456296145
 31
0.0
  0
LINE
  5
53E
330
D1D
100
AcDbEntity
  8
1
  6
Continuous
100
AcDbLine
 10
137.8803704750928
 20
225.6744562961434
 30
0.0
 11
136.2803704764176
 21
225.6744562961433
 31
0.0
  0
LINE
  5
540
330
D1D
100
AcDbEntity
  8
1
  6
Continuous
100
AcDbLine
 10
136.3803704746384
 20
225.6744562961434
 30
0.0
 11
136.3803704746168
 21
220.6751006430581
 31
0.0
  0
LINE
  5
541
330
D1D
100
AcDbEntity
  8
1
  6
Continuous
100
AcDbLine
 10
137.9803704746167
 20
220.6751006430581
 30
0.0
 11
136.3803704746168
 21
220.6751006430581
 31
0.0
  0
LINE
  5
542
330
D1D
100
AcDbEntity
  8
1
  6
Continuous
100
AcDbLine
 10
137.9803704746389
 20
225.799456296066
 30
0.0
 11
137.8803704750928
 21
225.799456296066
 31
0.0
  0
LINE
  5
544
330
D1D
100
AcDbEntity
  8
1
  6
Continuous
100
AcDbLine
 10
137.9803704747189
 20
244.2994562960496
 30
0.0
 11
136.380370474719
 21
244.2994562960496
 31
0.0
  0
LINE
  5
546
330
D1D
100
AcDbEntity
  8
1
  6
Continuous
100
AcDbLine
 10
136.2803704764176
 20
225.6744562961434
 30
0.0
 11
136.2803704763811
 21
219.0494562962585
 31
0.0
  0
LINE
  5
551
330
D1D
100
AcDbEntity
  8
4
  6
CENTER
100
AcDbLine
 10
334.5857998951308
 20
142.7994562962585
 30
0.0
 11
296.5857998937614
 21
142.7994562960497
 31
0.0
  0
LINE
  5
552
330
D1D
100
AcDbEntity
  8
1
  6
Continuous
100
AcDbLine
 10
311.28579989297
 20
157.0494562969689
 30
0.0
 11
311.2857998931268
 21
128.5494562952916
 31
0.0
  0
LINE
  5
553
330
D1D
100
AcDbEntity
  8
1
  6
Continuous
100
AcDbLine
 10
327.5857998948122
 20
122.7994562954338
 30
0.0
 11
327.5857998945422
 21
162.7994562969872
 31
0.0
  0
LINE
  5
554
330
D1D
100
AcDbEntity
  8
1
  6
Continuous
100
AcDbLine
 10
309.6857998944112
 20
128.5494562951294
 30
0.0
 11
309.6857998944116
 21
130.6751006428567
 31
0.0
  0
LINE
  5
555
330
D1D
100
AcDbEntity
  8
1
  6
Continuous
100
AcDbLine
 10
312.035799892989
 20
157.7994562969424
 30
0.0
 11
312.035799892979
 21
148.7942457001755
 31
0.0
  0
LINE
  5
556
330
D1D
100
AcDbEntity
  8
1
  6
Continuous
100
AcDbLine
 10
326.0857998917152
 20
148.79424570015
 30
0.0
 11
326.085799891708
 21
157.7994562968415
 31
0.0
  0
LINE
  5
557
330
D1D
100
AcDbEntity
  8
1
  6
Continuous
100
AcDbLine
 10
327.0857998942581
 20
126.7994562964289
 30
0.0
 11
327.0857998942581
 21
158.799456296398
 31
0.0
  0
LINE
  5
558
330
D1D
100
AcDbEntity
  8
1
  6
Continuous
100
AcDbLine
 10
331.585799895102
 20
123.7994562954706
 30
0.0
 11
331.5857998951598
 21
161.7994562969877
 31
0.0
  0
LINE
  5
559
330
D1D
100
AcDbEntity
  8
1
  6
Continuous
100
AcDbLine
 10
315.5857998945455
 20
122.3148466041083
 30
0.0
 11
315.5857998942713
 21
163.2840659882263
 31
0.0
  0
LINE
  5
55A
330
D1D
100
AcDbEntity
  8
1
  6
Continuous
100
AcDbLine
 10
319.5857998945455
 20
122.3148466041548
 30
0.0
 11
319.5857998942713
 21
163.2840659882331
 31
0.0
  0
LINE
  5
55B
330
D1D
100
AcDbEntity
  8
1
  6
Continuous
100
AcDbLine
 10
321.5857998945172
 20
126.5494562961772
 30
0.0
 11
321.5857998942863
 21
159.049456296177
 31
0.0
  0
LINE
  5
55C
330
D1D
100
AcDbEntity
  8
1
  6
Continuous
100
AcDbLine
 10
327.5857998948143
 20
122.7994562954336
 30
0.0
 11
330.5857998951148
 21
122.7994562954722
 31
0.0
  0
ARC
  5
55D
330
D1D
100
AcDbEntity
  8
1
  6
Continuous
100
AcDbCircle
 10
330.5857998951019
 20
123.7994562954722
 30
0.0
 40
1.0
100
AcDbArc
 50
270.0
 51
0.000000000000007
  0
LINE
  5
55E
330
D1D
100
AcDbEntity
  8
1
  6
Continuous
100
AcDbLine
 10
305.0857998933479
 20
134.7994562960943
 30
0.0
 11
305.0857998941749
 21
150.7994562960944
 31
0.0
  0
LINE
  5
55F
330
D1D
100
AcDbEntity
  8
1
  6
Continuous
100
AcDbLine
 10
308.6857998941218
 20
133.7994562961186
 30
0.0
 11
308.6857998942949
 21
151.7994562961185
 31
0.0
  0
LINE
  5
560
330
D1D
100
AcDbEntity
  8
1
  6
Continuous
100
AcDbLine
 10
307.6857998941218
 20
133.7994562961119
 30
0.0
 11
307.6857998942949
 21
151.7994562961119
 31
0.0
  0
LINE
  5
561
330
D1D
100
AcDbEntity
  8
1
  6
Continuous
100
AcDbLine
 10
311.1857998947834
 20
130.675100642839
 30
0.0
 11
311.1857998948809
 21
153.1917611420324
 31
0.0
  0
LINE
  5
562
330
D1D
100
AcDbEntity
  8
1
  6
Continuous
100
AcDbLine
 10
309.5857998947835
 20
130.6751006428579
 30
0.0
 11
309.5857998948885
 21
154.9238119489924
 31
0.0
  0
LINE
  5
563
330
D1D
100
AcDbEntity
  8
1
  6
Continuous
100
AcDbLine
 10
306.6857998933479
 20
134.7994562961052
 30
0.0
 11
306.6857998941749
 21
150.7994562961052
 31
0.0
  0
LINE
  5
564
330
D1D
100
AcDbEntity
  8
1
  6
Continuous
100
AcDbLine
 10
312.0357998931603
 20
127.7994562953513
 30
0.0
 11
312.035799893048
 21
136.8046668920936
 31
0.0
  0
LINE
  5
565
330
D1D
100
AcDbEntity
  8
1
  6
Continuous
100
AcDbLine
 10
326.0857998917326
 20
127.799456296935
 30
0.0
 11
326.0857998917252
 21
136.8046668922594
 31
0.0
  0
LINE
  5
566
330
D1D
100
AcDbEntity
  8
1
  6
Continuous
100
AcDbLine
 10
315.5857998945088
 20
127.7994562969456
 30
0.0
 11
312.0357998931603
 21
127.7994562969446
 31
0.0
  0
LINE
  5
567
330
D1D
100
AcDbEntity
  8
2
  6
Continuous
100
AcDbLine
 10
311.4942998923532
 20
128.3409562961393
 30
0.0
 11
315.5857998945051
 21
128.340956296158
 31
0.0
  0
ARC
  5
568
330
D1D
100
AcDbEntity
  8
1
  6
Continuous
100
AcDbCircle
 10
319.2857998945455
 20
122.3148466041529
 30
0.0
 40
0.3
100
AcDbArc
 50
270.0
 51
0.000000000000007
  0
LINE
  5
569
330
D1D
100
AcDbEntity
  8
1
  6
Continuous
100
AcDbLine
 10
315.8857998945492
 20
122.0148466041102
 30
0.0
 11
319.2857998945493
 21
122.0148466041528
 31
0.0
  0
ARC
  5
56A
330
D1D
100
AcDbEntity
  8
1
  6
Continuous
100
AcDbCircle
 10
315.8857998945454
 20
122.3148466041102
 30
0.0
 40
0.3
100
AcDbArc
 50
180.0
 51
270.0
  0
LINE
  5
56B
330
D1D
100
AcDbEntity
  8
1
  6
Continuous
100
AcDbLine
 10
327.085799894258
 20
127.7994562969487
 30
0.0
 11
321.5857998945082
 21
127.7994562969465
 31
0.0
  0
LINE
  5
56C
330
D1D
100
AcDbEntity
  8
2
  6
Continuous
100
AcDbLine
 10
321.5857998945044
 20
128.3409562961856
 30
0.0
 11
326.0857998917323
 21
128.3409562962056
 31
0.0
  0
ARC
  5
56D
330
D1D
100
AcDbEntity
  8
1
  6
Continuous
100
AcDbCircle
 10
327.5857998942548
 20
126.7994562964289
 30
0.0
 40
0.5
100
AcDbArc
 50
180.0
 51
269.9999999978765
  0
LINE
  5
56E
330
D1D
100
AcDbEntity
  8
2
  6
Continuous
100
AcDbLine
 10
326.0857998917323
 20
128.3409562964653
 30
0.0
 11
327.0857998919588
 21
128.1243562967103
 31
0.0
  0
LINE
  5
56F
330
D1D
100
AcDbEntity
  8
1
  6
Continuous
100
AcDbLine
 10
315.8857998944797
 20
132.4071514522556
 30
0.0
 11
319.2857998944797
 21
132.4071514522981
 31
0.0
  0
ARC
  5
570
330
D1D
100
AcDbEntity
  8
1
  6
Continuous
100
AcDbCircle
 10
320.5857998945171
 20
126.5494562961772
 30
0.0
 40
1.0
100
AcDbArc
 50
180.0000000003834
 51
0.000000000407118
  0
LINE
  5
571
330
D1D
100
AcDbEntity
  8
1
  6
Continuous
100
AcDbLine
 10
307.6857998941218
 20
133.7994562961119
 30
0.0
 11
308.6857998941218
 21
133.7994562961186
 31
0.0
  0
LINE
  5
572
330
D1D
100
AcDbEntity
  8
1
  6
Continuous
100
AcDbLine
 10
309.6857998945381
 20
154.2994562959804
 30
0.0
 11
309.5857998948857
 21
154.2994562959808
 31
0.0
  0
LINE
  5
573
330
D1D
100
AcDbEntity
  8
1
  6
Continuous
100
AcDbLine
 10
311.1857998951848
 20
151.2994562959779
 30
0.0
 11
311.2857998930952
 21
151.2994562959774
 31
0.0
  0
LINE
  5
574
330
D1D
100
AcDbEntity
  8
1
  6
Continuous
100
AcDbLine
 10
311.2857998931689
 20
128.549456295316
 30
0.0
 11
312.0357998931603
 21
127.7994562953513
 31
0.0
  0
LINE
  5
575
330
D1D
100
AcDbEntity
  8
1
  6
Continuous
100
AcDbLine
 10
309.6857998945677
 20
157.0494562968264
 30
0.0
 11
311.2857998931628
 21
157.0494562968075
 31
0.0
  0
LINE
  5
576
330
D1D
100
AcDbEntity
  8
1
  6
Continuous
100
AcDbLine
 10
309.6857998945264
 20
153.1917611420547
 30
0.0
 11
311.2857998930798
 21
153.1917611420308
 31
0.0
  0
LINE
  5
577
330
D1D
100
AcDbEntity
  8
1
  6
Continuous
100
AcDbLine
 10
309.685799894568
 20
157.0494562968264
 30
0.0
 11
309.6857998945262
 21
153.1917611420548
 31
0.0
  0
LINE
  5
578
330
D1D
100
AcDbEntity
  8
1
  6
Continuous
100
AcDbLine
 10
309.5857998948885
 20
154.9238119489924
 30
0.0
 11
309.685799894571
 21
154.9238119489914
 31
0.0
  0
LINE
  5
579
330
D1D
100
AcDbEntity
  8
1
  6
Continuous
100
AcDbLine
 10
309.6857998945473
 20
155.1403182997777
 30
0.0
 11
311.2857998931532
 21
155.1403182997593
 31
0.0
  0
LINE
  5
57A
330
D1D
100
AcDbEntity
  8
1
  6
Continuous
100
AcDbLine
 10
305.0857998933479
 20
134.7994562960943
 30
0.0
 11
306.6857998933479
 21
134.7994562961052
 31
0.0
  0
LINE
  5
57B
330
D1D
100
AcDbEntity
  8
1
  6
Continuous
100
AcDbLine
 10
312.035799892979
 20
148.7942457001755
 30
0.0
 11
315.5857998943682
 21
148.7942457001725
 31
0.0
  0
LINE
  5
57C
330
D1D
100
AcDbEntity
  8
1
  6
Continuous
100
AcDbLine
 10
312.035799893045
 20
136.8046668920936
 30
0.0
 11
315.5857998944485
 21
136.8046668921353
 31
0.0
  0
LINE
  5
57D
330
D1D
100
AcDbEntity
  8
2
  6
Continuous
100
AcDbLine
 10
312.0357998930477
 20
136.8046668920936
 30
0.0
 11
315.5857998944312
 21
139.376449658319
 31
0.0
  0
LINE
  5
57E
330
D1D
100
AcDbEntity
  8
2
  6
Continuous
100
AcDbLine
 10
315.5857998943854
 20
146.222462933964
 30
0.0
 11
312.035799892979
 21
148.7942457001755
 31
0.0
  0
LINE
  5
57F
330
D1D
100
AcDbEntity
  8
2
  6
Continuous
100
AcDbLine
 10
321.5857998943952
 20
143.7231247544448
 30
0.0
 11
327.0857998942581
 21
147.7075769258179
 31
0.0
  0
LINE
  5
580
330
D1D
100
AcDbEntity
  8
2
  6
Continuous
100
AcDbLine
 10
327.0857998942581
 20
137.8913356665306
 30
0.0
 11
321.5857998944083
 21
141.8757878378471
 31
0.0
  0
LINE
  5
581
330
D1D
100
AcDbEntity
  8
1
  6
Continuous
100
AcDbLine
 10
321.5857998944442
 20
136.8046668922061
 30
0.0
 11
327.0857998942582
 21
136.8046668922711
 31
0.0
  0
LINE
  5
582
330
D1D
100
AcDbEntity
  8
1
  6
Continuous
100
AcDbLine
 10
321.5857998943592
 20
148.7942457001677
 30
0.0
 11
327.0857998942581
 21
148.7942457001634
 31
0.0
  0
LINE
  5
583
330
D1D
100
AcDbEntity
  8
1
  6
Continuous
100
AcDbLine
 10
315.8857998943405
 20
153.1917611430498
 30
0.0
 11
319.2857998943404
 21
153.1917611430924
 31
0.0
  0
LINE
  5
584
330
D1D
100
AcDbEntity
  8
1
  6
Continuous
100
AcDbLine
 10
299.5857998937614
 20
147.7994562959234
 30
0.0
 11
299.5857998937614
 21
137.7994562959914
 31
0.0
  0
ARC
  5
585
330
D1D
100
AcDbEntity
  8
1
  6
Continuous
100
AcDbCircle
 10
309.1392179059273
 20
142.7994562959536
 30
0.0
 40
9.553418012165982
100
AcDbArc
 50
162.412046225108
 51
197.5879537748468
  0
ARC
  5
586
330
D1D
100
AcDbEntity
  8
1
  6
Continuous
100
AcDbCircle
 10
294.0323818812548
 20
142.7994562959596
 30
0.0
 40
9.553418012506648
100
AcDbArc
 50
342.4120462257552
 51
17.5879537741993
  0
LINE
  5
587
330
D1D
100
AcDbEntity
  8
1
  6
Continuous
100
AcDbLine
 10
303.5857998937614
 20
148.5494562960843
 30
0.0
 11
303.5857998937614
 21
137.0494562960843
 31
0.0
  0
LINE
  5
588
330
D1D
100
AcDbEntity
  8
2
  6
Continuous
100
AcDbLine
 10
308.6857998942382
 20
145.8950415326764
 30
0.0
 11
309.5857998951339
 21
144.9332723288025
 31
0.0
  0
LINE
  5
589
330
D1D
100
AcDbEntity
  8
2
  6
Continuous
100
AcDbLine
 10
308.6857998942332
 20
145.3607253085659
 30
0.0
 11
309.5857998951245
 21
146.3224945123722
 31
0.0
  0
ARC
  5
58A
330
D1D
100
AcDbEntity
  8
1
  6
Continuous
100
AcDbCircle
 10
306.9857998935054
 20
137.849456295813
 30
0.0
 40
0.3
100
AcDbArc
 50
180.0
 51
270.0
  0
LINE
  5
58B
330
D1D
100
AcDbEntity
  8
1
  6
Continuous
100
AcDbLine
 10
309.585799894871
 20
137.5494562957989
 30
0.0
 11
308.6857998941579
 21
137.5494562958037
 31
0.0
  0
LINE
  5
58C
330
D1D
100
AcDbEntity
  8
1
  6
Continuous
100
AcDbLine
 10
309.5857998951831
 20
137.5666061639973
 30
0.0
 11
308.6857998941579
 21
137.5666061639803
 31
0.0
  0
LINE
  5
58D
330
D1D
100
AcDbEntity
  8
1
  6
Continuous
100
AcDbLine
 10
309.5857998951453
 20
143.2234604128391
 30
0.0
 11
308.6857998942125
 21
143.2234604128439
 31
0.0
  0
LINE
  5
58E
330
D1D
100
AcDbEntity
  8
1
  6
Continuous
100
AcDbLine
 10
309.585799895151
 20
142.3754521794104
 30
0.0
 11
308.6857998942044
 21
142.3754521793935
 31
0.0
  0
ARC
  5
58F
330
D1D
100
AcDbEntity
  8
1
  6
Continuous
100
AcDbCircle
 10
326.2857998925036
 20
142.7994562962129
 30
0.0
 40
15.4596248332329
100
AcDbArc
 50
194.006247607382
 51
202.8158562183382
  0
LINE
  5
590
330
D1D
100
AcDbEntity
  8
2
  6
Continuous
100
AcDbLine
 10
308.6857998941788
 20
139.7038710594527
 30
0.0
 11
309.5857998951623
 21
140.6656402634468
 31
0.0
  0
LINE
  5
591
330
D1D
100
AcDbEntity
  8
2
  6
Continuous
100
AcDbLine
 10
308.6857998941837
 20
140.2381872837613
 30
0.0
 11
309.5857998951716
 21
139.2764180798781
 31
0.0
  0
LINE
  5
592
330
D1D
100
AcDbEntity
  8
1
  6
Continuous
100
AcDbLine
 10
307.6857998941579
 20
137.5494562958091
 30
0.0
 11
306.9857998935038
 21
137.549456295813
 31
0.0
  0
LINE
  5
593
330
D1D
100
AcDbEntity
  8
1
  6
Continuous
100
AcDbLine
 10
307.685799894158
 20
137.5666061639613
 30
0.0
 11
306.9857998941027
 21
137.5666061639481
 31
0.0
  0
LINE
  5
594
330
D1D
100
AcDbEntity
  8
1
  6
Continuous
100
AcDbLine
 10
307.6857998942124
 20
143.2234604128493
 30
0.0
 11
306.9857998937834
 21
143.2234604128533
 31
0.0
  0
LINE
  5
595
330
D1D
100
AcDbEntity
  8
1
  6
Continuous
100
AcDbLine
 10
307.6857998942044
 20
142.3754521793744
 30
0.0
 11
306.9857998937891
 21
142.3754521793613
 31
0.0
  0
LINE
  5
596
330
D1D
100
AcDbEntity
  8
2
  6
Continuous
100
AcDbLine
 10
306.9857998937999
 20
143.544050147157
 30
0.0
 11
307.6857998942228
 21
144.2920928609397
 31
0.0
  0
LINE
  5
597
330
D1D
100
AcDbEntity
  8
2
  6
Continuous
100
AcDbLine
 10
306.98579989381
 20
142.0548624450572
 30
0.0
 11
307.6857998941941
 21
141.3068197313366
 31
0.0
  0
LINE
  5
598
330
D1D
100
AcDbEntity
  8
2
  6
Continuous
100
AcDbLine
 10
306.9857998940815
 20
137.8871958982344
 30
0.0
 11
307.6857998941684
 21
138.6352386117273
 31
0.0
  0
ARC
  5
599
330
D1D
100
AcDbEntity
  8
1
  6
Continuous
100
AcDbCircle
 10
302.1157538657337
 20
138.4773554196722
 30
0.0
 40
2.52995397197231
100
AcDbArc
 50
145.4349069037113
 51
210.0000000001271
  0
LINE
  5
59A
330
D1D
100
AcDbEntity
  8
1
  6
Continuous
100
AcDbLine
 10
299.5857998937725
 20
137.7994562959719
 30
0.0
 11
300.0323818811675
 21
137.0259536040629
 31
0.0
  0
LINE
  5
59B
330
D1D
100
AcDbEntity
  8
1
  6
Continuous
100
AcDbLine
 10
300.0323818811674
 20
137.0259536040618
 30
0.0
 11
303.1392179063674
 21
137.0259536040608
 31
0.0
  0
LINE
  5
59C
330
D1D
100
AcDbEntity
  8
1
  6
Continuous
100
AcDbLine
 10
303.5857998937614
 20
137.7994562959738
 30
0.0
 11
303.1392179063676
 21
137.0259536040606
 31
0.0
  0
ARC
  5
59D
330
D1D
100
AcDbEntity
  8
1
  6
Continuous
100
AcDbCircle
 10
301.0558459217169
 20
138.4773554196696
 30
0.0
 40
2.529953972044376
100
AcDbArc
 50
330.0000000000658
 51
34.56509309520729
  0
LINE
  5
59E
330
D1D
100
AcDbEntity
  8
1
  6
Continuous
100
AcDbLine
 10
300.0323818811685
 20
139.9127049500054
 30
0.0
 11
303.1392179063685
 21
139.9127049500043
 31
0.0
  0
LINE
  5
59F
330
D1D
100
AcDbEntity
  8
1
  6
Continuous
100
AcDbLine
 10
303.5857998937613
 20
141.5408068493304
 30
0.0
 11
305.0857998937614
 21
142.7994562960964
 31
0.0
  0
LINE
  5
5A0
330
D1D
100
AcDbEntity
  8
1
  6
Continuous
100
AcDbLine
 10
303.5857998937613
 20
137.0494562960843
 30
0.0
 11
305.0857998934642
 21
137.0494562960944
 31
0.0
  0
LINE
  5
5A1
330
D1D
100
AcDbEntity
  8
1
  6
Continuous
100
AcDbLine
 10
303.5857998937614
 20
142.7994562961046
 30
0.0
 11
305.0857998937615
 21
144.0581057428705
 31
0.0
  0
ARC
  5
5A2
330
D1D
100
AcDbEntity
  8
1
  6
Continuous
100
AcDbCircle
 10
306.9857998940172
 20
147.7494562958129
 30
0.0
 40
0.3
100
AcDbArc
 50
90.0
 51
180.0
  0
LINE
  5
5A3
330
D1D
100
AcDbEntity
  8
1
  6
Continuous
100
AcDbLine
 10
309.5857998948011
 20
148.0494562957988
 30
0.0
 11
308.6857998942589
 21
148.0494562958035
 31
0.0
  0
LINE
  5
5A4
330
D1D
100
AcDbEntity
  8
1
  6
Continuous
100
AcDbLine
 10
309.5857998951132
 20
148.0323064282524
 30
0.0
 11
308.6857998942588
 21
148.0323064282573
 31
0.0
  0
LINE
  5
5A5
330
D1D
100
AcDbEntity
  8
1
  6
Continuous
100
AcDbLine
 10
307.6857998942949
 20
151.799456296112
 30
0.0
 11
308.6857998942949
 21
151.7994562961185
 31
0.0
  0
ARC
  5
5A6
330
D1D
100
AcDbEntity
  8
1
  6
Continuous
100
AcDbCircle
 10
326.2857998925036
 20
142.7994562962129
 30
0.0
 40
15.4596248332329
100
AcDbArc
 50
157.1841437815352
 51
165.9937523932473
  0
LINE
  5
5A7
330
D1D
100
AcDbEntity
  8
1
  6
Continuous
100
AcDbLine
 10
311.1857998947668
 20
132.4071514499068
 30
0.0
 11
311.2857998929654
 21
132.4071514499073
 31
0.0
  0
LINE
  5
5A8
330
D1D
100
AcDbEntity
  8
1
  6
Continuous
100
AcDbLine
 10
311.1857998951112
 20
134.2994562959779
 30
0.0
 11
311.2857998930016
 21
134.2994562959774
 31
0.0
  0
LINE
  5
5A9
330
D1D
100
AcDbEntity
  8
1
  6
Continuous
100
AcDbLine
 10
309.6857998944116
 20
130.4585942918973
 30
0.0
 11
311.2857998929982
 21
130.4585942918776
 31
0.0
  0
LINE
  5
5AA
330
D1D
100
AcDbEntity
  8
1
  6
Continuous
100
AcDbLine
 10
309.5857998947835
 20
130.6751006428579
 30
0.0
 11
311.18579989477
 21
130.675100642839
 31
0.0
  0
LINE
  5
5AB
330
D1D
100
AcDbEntity
  8
1
  6
Continuous
100
AcDbLine
 10
309.5857998948057
 20
135.79945629598
 30
0.0
 11
311.1857998948264
 21
135.7994562959651
 31
0.0
  0
LINE
  5
5AC
330
D1D
100
AcDbEntity
  8
1
  6
Continuous
100
AcDbLine
 10
309.5857998948109
 20
137.0494562959251
 30
0.0
 11
311.1857998947237
 21
137.0494562959069
 31
0.0
  0
LINE
  5
5AD
330
D1D
100
AcDbEntity
  8
1
  6
Continuous
100
AcDbLine
 10
307.6857998942589
 20
148.0494562958089
 30
0.0
 11
306.9857998940189
 21
148.0494562958128
 31
0.0
  0
LINE
  5
5AE
330
D1D
100
AcDbEntity
  8
1
  6
Continuous
100
AcDbLine
 10
307.6857998942589
 20
148.0323064282627
 30
0.0
 11
306.9857998940321
 21
148.0323064282664
 31
0.0
  0
LINE
  5
5AF
330
D1D
100
AcDbEntity
  8
2
  6
Continuous
100
AcDbLine
 10
306.9857998940152
 20
147.71171669398
 30
0.0
 11
307.6857998942484
 21
146.9636739803509
 31
0.0
  0
LINE
  5
5B0
330
D1D
100
AcDbEntity
  8
1
  6
Continuous
100
AcDbLine
 10
300.0323818811675
 20
148.5729589878528
 30
0.0
 11
303.1392179063674
 21
148.572958987853
 31
0.0
  0
LINE
  5
5B1
330
D1D
100
AcDbEntity
  8
1
  6
Continuous
100
AcDbLine
 10
299.5857998937725
 20
147.7994562959428
 30
0.0
 11
300.0323818811675
 21
148.5729589878518
 31
0.0
  0
ARC
  5
5B2
330
D1D
100
AcDbEntity
  8
1
  6
Continuous
100
AcDbCircle
 10
302.1157538657285
 20
147.1215571722439
 30
0.0
 40
2.529953971967146
100
AcDbArc
 50
149.9999999998729
 51
214.5650930964174
  0
LINE
  5
5B3
330
D1D
100
AcDbEntity
  8
1
  6
Continuous
100
AcDbLine
 10
300.0323818811708
 20
145.686207641909
 30
0.0
 11
303.1392179063708
 21
145.6862076419078
 31
0.0
  0
ARC
  5
5B4
330
D1D
100
AcDbEntity
  8
1
  6
Continuous
100
AcDbCircle
 10
301.0558459217083
 20
147.1215571722418
 30
0.0
 40
2.529953972053024
100
AcDbArc
 50
325.4349069049443
 51
29.99999999993521
  0
LINE
  5
5B5
330
D1D
100
AcDbEntity
  8
1
  6
Continuous
100
AcDbLine
 10
303.5857998937614
 20
147.7994562959398
 30
0.0
 11
303.1392179063674
 21
148.5729589878532
 31
0.0
  0
LINE
  5
5B6
330
D1D
100
AcDbEntity
  8
1
  6
Continuous
100
AcDbLine
 10
305.0857998941748
 20
150.7994562960944
 30
0.0
 11
306.6857998941748
 21
150.7994562961052
 31
0.0
  0
LINE
  5
5B7
330
D1D
100
AcDbEntity
  8
1
  6
Continuous
100
AcDbLine
 10
303.5857998937613
 20
148.5494562960843
 30
0.0
 11
305.0857998940585
 21
148.5494562960944
 31
0.0
  0
LINE
  5
5B8
330
D1D
100
AcDbEntity
  8
1
  6
Continuous
100
AcDbLine
 10
327.5857998945443
 20
162.799456296987
 30
0.0
 11
330.5857998951591
 21
162.799456296989
 31
0.0
  0
ARC
  5
5B9
330
D1D
100
AcDbEntity
  8
1
  6
Continuous
100
AcDbCircle
 10
330.5857998951598
 20
161.7994562969892
 30
0.0
 40
1.0
100
AcDbArc
 50
0.000000000000007
 51
90.0
  0
LINE
  5
5BA
330
D1D
100
AcDbEntity
  8
1
  6
Continuous
100
AcDbLine
 10
315.5857998943079
 20
157.7994562969454
 30
0.0
 11
312.0357998929915
 21
157.7994562969447
 31
0.0
  0
LINE
  5
5BB
330
D1D
100
AcDbEntity
  8
2
  6
Continuous
100
AcDbLine
 10
315.5857998943115
 20
157.2579562961577
 30
0.0
 11
311.4942998921791
 21
157.2579562961392
 31
0.0
  0
LINE
  5
5BC
330
D1D
100
AcDbEntity
  8
2
  6
Continuous
100
AcDbLine
 10
326.0857998917085
 20
157.2579562962057
 30
0.0
 11
321.5857998942991
 21
157.257956296185
 31
0.0
  0
LINE
  5
5BD
330
D1D
100
AcDbEntity
  8
1
  6
Continuous
100
AcDbLine
 10
327.0857998942581
 20
157.7994562969483
 30
0.0
 11
321.5857998942952
 21
157.799456296947
 31
0.0
  0
ARC
  5
5BE
330
D1D
100
AcDbEntity
  8
1
  6
Continuous
100
AcDbCircle
 10
327.5857998942548
 20
158.799456296398
 30
0.0
 40
0.5
100
AcDbArc
 50
90.00000000212347
 51
180.0
  0
LINE
  5
5BF
330
D1D
100
AcDbEntity
  8
2
  6
Continuous
100
AcDbLine
 10
326.0857998917681
 20
157.2579562964653
 30
0.0
 11
327.0857998917918
 21
157.4745562967648
 31
0.0
  0
ARC
  5
5C0
330
D1D
100
AcDbEntity
  8
1
  6
Continuous
100
AcDbCircle
 10
315.8857998942713
 20
163.2840659882283
 30
0.0
 40
0.3
100
AcDbArc
 50
90.0
 51
180.0
  0
LINE
  5
5C1
330
D1D
100
AcDbEntity
  8
1
  6
Continuous
100
AcDbLine
 10
315.8857998942709
 20
163.5840659882284
 30
0.0
 11
319.2857998942709
 21
163.5840659882312
 31
0.0
  0
ARC
  5
5C2
330
D1D
100
AcDbEntity
  8
1
  6
Continuous
100
AcDbCircle
 10
319.2857998942712
 20
163.2840659882312
 30
0.0
 40
0.3
100
AcDbArc
 50
0.000000000000007
 51
90.0
  0
ARC
  5
5C3
330
D1D
100
AcDbEntity
  8
1
  6
Continuous
100
AcDbCircle
 10
320.5857998942931
 20
159.049456296177
 30
0.0
 40
0.9999999999933491
100
AcDbArc
 50
0.000000000407118
 51
180.0000000003826
  0
LINE
  5
5C4
330
D1D
100
AcDbEntity
  8
1
  6
Continuous
100
AcDbLine
 10
309.685799894411
 20
128.5494562951294
 30
0.0
 11
311.2857998930063
 21
128.5494562951304
 31
0.0
  0
LINE
  5
5C5
330
D1D
100
AcDbEntity
  8
1
  6
Continuous
100
AcDbLine
 10
311.2857998930062
 20
157.0494562969692
 30
0.0
 11
312.0357998929889
 21
157.7994562969424
 31
0.0
  0
LINE
  5
5C8
330
D1D
100
AcDbEntity
  8
4
  6
CENTER
100
AcDbLine
 10
112.9803704743743
 20
52.79945629625853
 30
0.0
 11
150.9803704757438
 21
52.79945629646738
 31
0.0
  0
LINE
  5
5C9
330
D1D
100
AcDbEntity
  8
1
  6
Continuous
100
AcDbLine
 10
131.9803704749597
 20
35.09945629604777
 30
0.0
 11
131.9803704752343
 21
70.49945629604718
 31
0.0
  0
LINE
  5
5CA
330
D1D
100
AcDbEntity
  8
1
  6
Continuous
100
AcDbLine
 10
127.9803704749597
 20
35.09945629609445
 30
0.0
 11
127.9803704752343
 21
70.49945629605409
 31
0.0
  0
LINE
  5
5CB
330
D1D
100
AcDbEntity
  8
1
  6
Continuous
100
AcDbLine
 10
119.9803704746928
 20
32.7994562954338
 30
0.0
 11
119.9803704749629
 21
72.79945629698722
 31
0.0
  0
LINE
  5
5CC
330
D1D
100
AcDbEntity
  8
1
  6
Continuous
100
AcDbLine
 10
120.4803704752471
 20
36.7994562964289
 30
0.0
 11
120.4803704752471
 21
68.799456296398
 31
0.0
  0
LINE
  5
5CD
330
D1D
100
AcDbEntity
  8
1
  6
Continuous
100
AcDbLine
 10
115.9803704744032
 20
33.79945629547069
 30
0.0
 11
115.9803704743454
 21
71.79945629698773
 31
0.0
  0
LINE
  5
5CE
330
D1D
100
AcDbEntity
  8
1
  6
Continuous
100
AcDbLine
 10
125.980370474988
 20
36.54945629617722
 30
0.0
 11
125.9803704752188
 21
69.0494562961771
 31
0.0
  0
LINE
  5
5CF
330
D1D
100
AcDbEntity
  8
1
  6
Continuous
100
AcDbLine
 10
121.4803704777736
 20
39.04945629605045
 30
0.0
 11
121.4803704777962
 21
66.54945629605046
 31
0.0
  0
LINE
  5
5D0
330
D1D
100
AcDbEntity
  8
1
  6
Continuous
100
AcDbLine
 10
138.8803704753834
 20
43.79945629611862
 30
0.0
 11
138.8803704752101
 21
61.79945629611859
 31
0.0
  0
LINE
  5
5D1
330
D1D
100
AcDbEntity
  8
1
  6
Continuous
100
AcDbLine
 10
139.8803704753834
 20
43.7994562961119
 30
0.0
 11
139.8803704752101
 21
61.7994562961119
 31
0.0
  0
LINE
  5
5D2
330
D1D
100
AcDbEntity
  8
1
  6
Continuous
100
AcDbLine
 10
136.3803704747217
 20
64.92381194926038
 30
0.0
 11
136.3803704747001
 21
59.92445629614508
 31
0.0
  0
LINE
  5
5D3
330
D1D
100
AcDbEntity
  8
1
  6
Continuous
100
AcDbLine
 10
137.9803704747216
 20
64.92381194924141
 30
0.0
 11
137.9803704746167
 21
40.67510064305817
 31
0.0
  0
LINE
  5
5D4
330
D1D
100
AcDbEntity
  8
1
  6
Continuous
100
AcDbLine
 10
136.2803704765324
 20
66.5494562960497
 30
0.0
 11
136.2803704764959
 21
59.92445629614508
 31
0.0
  0
LINE
  5
5D5
330
D1D
100
AcDbEntity
  8
1
  6
Continuous
100
AcDbLine
 10
135.5303704765175
 20
66.54945629604984
 30
0.0
 11
135.5303704765478
 21
39.0494562962584
 31
0.0
  0
LINE
  5
5D6
330
D1D
100
AcDbEntity
  8
1
  6
Continuous
100
AcDbLine
 10
119.9803704746909
 20
32.79945629543368
 30
0.0
 11
116.9803704743904
 21
32.79945629547222
 31
0.0
  0
ARC
  5
5D7
330
D1D
100
AcDbEntity
  8
1
  6
Continuous
100
AcDbCircle
 10
116.9803704744033
 20
33.79945629547222
 30
0.0
 40
1.0
100
AcDbArc
 50
180.0
 51
270.0
  0
LINE
  5
5D8
330
D1D
100
AcDbEntity
  8
1
  6
Continuous
100
AcDbLine
 10
136.2803704764176
 20
45.67445629614339
 30
0.0
 11
136.2803704763811
 21
39.04945629625855
 31
0.0
  0
LINE
  5
5D9
330
D1D
100
AcDbEntity
  8
1
  6
Continuous
100
AcDbLine
 10
136.2803704765324
 20
39.04945629625855
 30
0.0
 11
131.9803704751888
 21
39.0494562962577
 31
0.0
  0
LINE
  5
5DA
330
D1D
100
AcDbEntity
  8
1
  6
Continuous
100
AcDbLine
 10
125.9803704750058
 20
39.04945629604964
 30
0.0
 11
120.4803704752471
 21
39.04945629605066
 31
0.0
  0
ARC
  5
5DB
330
D1D
100
AcDbEntity
  8
1
  6
Continuous
100
AcDbCircle
 10
119.9803704752505
 20
36.7994562964289
 30
0.0
 40
0.5
100
AcDbArc
 50
270.0000000021235
 51
0.0
  0
ARC
  5
5DC
330
D1D
100
AcDbEntity
  8
1
  6
Continuous
100
AcDbCircle
 10
131.6803704749597
 20
35.09945629604976
 30
0.0
 40
0.3
100
AcDbArc
 50
270.0
 51
0.0
  0
LINE
  5
5DD
330
D1D
100
AcDbEntity
  8
1
  6
Continuous
100
AcDbLine
 10
131.680370474956
 20
34.79945629604975
 30
0.0
 11
128.2803704749559
 21
34.79945629609245
 31
0.0
  0
ARC
  5
5DE
330
D1D
100
AcDbEntity
  8
1
  6
Continuous
100
AcDbCircle
 10
128.2803704749597
 20
35.09945629609245
 30
0.0
 40
0.3
100
AcDbArc
 50
180.0
 51
270.0
  0
ARC
  5
5DF
330
D1D
100
AcDbEntity
  8
1
  6
Continuous
100
AcDbCircle
 10
126.980370474988
 20
36.54945629617722
 30
0.0
 40
1.0
100
AcDbArc
 50
179.9999999995928
 51
359.9999999996164
  0
LINE
  5
5E0
330
D1D
100
AcDbEntity
  8
1
  6
Continuous
100
AcDbLine
 10
131.6803704751075
 20
52.79945629615578
 30
0.0
 11
128.2803704751076
 21
52.7994562961984
 31
0.0
  0
LINE
  5
5E1
330
D1D
100
AcDbEntity
  8
1
  6
Continuous
100
AcDbLine
 10
142.4803704761573
 20
44.79945629609439
 30
0.0
 11
142.4803704753303
 21
60.7994562960944
 31
0.0
  0
LINE
  5
5E2
330
D1D
100
AcDbEntity
  8
1
  6
Continuous
100
AcDbLine
 10
140.8803704761573
 20
44.7994562961052
 30
0.0
 11
140.8803704753303
 21
60.79945629610524
 31
0.0
  0
LINE
  5
5E3
330
D1D
100
AcDbEntity
  8
1
  6
Continuous
100
AcDbLine
 10
143.9803704757438
 20
58.54945629608431
 30
0.0
 11
143.9803704757438
 21
47.0494562960843
 31
0.0
  0
LINE
  5
5E4
330
D1D
100
AcDbEntity
  8
1
  6
Continuous
100
AcDbLine
 10
137.8803704750947
 20
59.92445629614508
 30
0.0
 11
137.8803704750928
 21
45.67445629614339
 31
0.0
  0
ARC
  5
5E5
330
D1D
100
AcDbEntity
  8
1
  6
Continuous
100
AcDbCircle
 10
140.7550787058189
 20
50.29945629608818
 30
0.0
 40
7.225291769924895
100
AcDbArc
 50
339.756734018014
 51
20.24326598198596
  0
LINE
  5
5E6
330
D1D
100
AcDbEntity
  8
1
  6
Continuous
100
AcDbLine
 10
147.9803704757438
 20
57.79945629608818
 30
0.0
 11
147.9803704757438
 21
47.79945629608818
 31
0.0
  0
ARC
  5
5E7
330
D1D
100
AcDbEntity
  8
1
  6
Continuous
100
AcDbCircle
 10
151.2056622456687
 20
50.29945629608818
 30
0.0
 40
7.225291769924895
100
AcDbArc
 50
159.7567340180139
 51
200.2432659819859
  0
ARC
  5
5E8
330
D1D
100
AcDbEntity
  8
1
  6
Continuous
100
AcDbCircle
 10
140.5803704759997
 20
47.849456295813
 30
0.0
 40
0.3
100
AcDbArc
 50
270.0
 51
0.0
  0
LINE
  5
5E9
330
D1D
100
AcDbEntity
  8
2
  6
Continuous
100
AcDbLine
 10
138.8803704753214
 20
50.23818728376133
 30
0.0
 11
137.9803704743335
 21
49.27641807987811
 31
0.0
  0
LINE
  5
5EA
330
D1D
100
AcDbEntity
  8
1
  6
Continuous
100
AcDbLine
 10
137.9803704746389
 20
45.79945629606603
 30
0.0
 11
137.8803704750928
 21
45.79945629606603
 31
0.0
  0
LINE
  5
5EB
330
D1D
100
AcDbEntity
  8
1
  6
Continuous
100
AcDbLine
 10
137.9803704746167
 20
40.67510064305817
 30
0.0
 11
136.3803704746168
 21
40.6751006430582
 31
0.0
  0
LINE
  5
5EC
330
D1D
100
AcDbEntity
  8
1
  6
Continuous
100
AcDbLine
 10
136.3803704746384
 20
45.67445629614339
 30
0.0
 11
136.3803704746168
 21
40.6751006430582
 31
0.0
  0
LINE
  5
5ED
330
D1D
100
AcDbEntity
  8
1
  6
Continuous
100
AcDbLine
 10
137.8803704750928
 20
45.67445629614339
 30
0.0
 11
136.2803704764176
 21
45.67445629614336
 31
0.0
  0
LINE
  5
5EE
330
D1D
100
AcDbEntity
  8
1
  6
Continuous
100
AcDbLine
 10
137.9803704746342
 20
47.5494562957989
 30
0.0
 11
138.8803704753473
 21
47.54945629580379
 31
0.0
  0
LINE
  5
5EF
330
D1D
100
AcDbEntity
  8
1
  6
Continuous
100
AcDbLine
 10
137.9803704743222
 20
47.5666061639973
 30
0.0
 11
138.8803704753472
 21
47.56660616398031
 31
0.0
  0
LINE
  5
5F0
330
D1D
100
AcDbEntity
  8
1
  6
Continuous
100
AcDbLine
 10
139.8803704753834
 20
43.7994562961119
 30
0.0
 11
138.8803704753834
 21
43.79945629611862
 31
0.0
  0
LINE
  5
5F1
330
D1D
100
AcDbEntity
  8
2
  6
Continuous
100
AcDbLine
 10
138.8803704753264
 20
49.7038710594527
 30
0.0
 11
137.9803704743428
 21
50.66564026344689
 31
0.0
  0
LINE
  5
5F2
330
D1D
100
AcDbEntity
  8
1
  6
Continuous
100
AcDbLine
 10
139.8803704753473
 20
47.54945629580919
 30
0.0
 11
140.5803704760013
 21
47.54945629581299
 31
0.0
  0
LINE
  5
5F3
330
D1D
100
AcDbEntity
  8
1
  6
Continuous
100
AcDbLine
 10
139.8803704753472
 20
47.56660616396128
 30
0.0
 11
140.5803704754025
 21
47.56660616394809
 31
0.0
  0
LINE
  5
5F4
330
D1D
100
AcDbEntity
  8
2
  6
Continuous
100
AcDbLine
 10
140.5803704754237
 20
47.8871958982344
 30
0.0
 11
139.8803704753367
 21
48.63523861172732
 31
0.0
  0
LINE
  5
5F5
330
D1D
100
AcDbEntity
  8
1
  6
Continuous
100
AcDbLine
 10
143.9803704757439
 20
47.0494562960843
 30
0.0
 11
142.480370476041
 21
47.04945629609439
 31
0.0
  0
LINE
  5
5F6
330
D1D
100
AcDbEntity
  8
1
  6
Continuous
100
AcDbLine
 10
142.4803704761573
 20
44.79945629609439
 30
0.0
 11
140.8803704761573
 21
44.7994562961052
 31
0.0
  0
LINE
  5
5F7
330
D1D
100
AcDbEntity
  8
1
  6
Continuous
100
AcDbLine
 10
147.9803704757438
 20
47.79945629608818
 30
0.0
 11
143.9803704757438
 21
47.79945629608818
 31
0.0
  0
ARC
  5
5F8
330
D1D
100
AcDbEntity
  8
1
  6
Continuous
100
AcDbCircle
 10
140.580370475488
 20
57.7494562958129
 30
0.0
 40
0.3
100
AcDbArc
 50
0.0
 51
90.00000000000005
  0
LINE
  5
5F9
330
D1D
100
AcDbEntity
  8
1
  6
Continuous
100
AcDbLine
 10
137.8803704750947
 20
59.92445629614508
 30
0.0
 11
136.2803704764959
 21
59.92445629614504
 31
0.0
  0
LINE
  5
5FA
330
D1D
100
AcDbEntity
  8
1
  6
Continuous
100
AcDbLine
 10
137.9803704747042
 20
58.04945629579882
 30
0.0
 11
138.8803704752462
 21
58.04945629580359
 31
0.0
  0
LINE
  5
5FB
330
D1D
100
AcDbEntity
  8
1
  6
Continuous
100
AcDbLine
 10
137.980370474392
 20
58.03230642825241
 30
0.0
 11
138.8803704752464
 21
58.03230642825729
 31
0.0
  0
LINE
  5
5FC
330
D1D
100
AcDbEntity
  8
1
  6
Continuous
100
AcDbLine
 10
137.9803704743599
 20
53.22346041283918
 30
0.0
 11
138.8803704752927
 21
53.22346041284399
 31
0.0
  0
LINE
  5
5FD
330
D1D
100
AcDbEntity
  8
1
  6
Continuous
100
AcDbLine
 10
137.9803704743542
 20
52.37545217941049
 30
0.0
 11
138.8803704753008
 21
52.3754521793935
 31
0.0
  0
LINE
  5
5FE
330
D1D
100
AcDbEntity
  8
2
  6
Continuous
100
AcDbLine
 10
138.8803704752721
 20
55.36072530856593
 30
0.0
 11
137.9803704743806
 21
56.32249451237222
 31
0.0
  0
LINE
  5
5FF
330
D1D
100
AcDbEntity
  8
2
  6
Continuous
100
AcDbLine
 10
138.880370475267
 20
55.89504153267649
 30
0.0
 11
137.9803704743713
 21
54.9332723288025
 31
0.0
  0
LINE
  5
600
330
D1D
100
AcDbEntity
  8
1
  6
Continuous
100
AcDbLine
 10
139.8803704752462
 20
58.04945629580897
 30
0.0
 11
140.5803704754863
 21
58.04945629581292
 31
0.0
  0
LINE
  5
601
330
D1D
100
AcDbEntity
  8
1
  6
Continuous
100
AcDbLine
 10
139.8803704752463
 20
58.03230642826273
 30
0.0
 11
140.5803704754731
 21
58.03230642826649
 31
0.0
  0
LINE
  5
602
330
D1D
100
AcDbEntity
  8
1
  6
Continuous
100
AcDbLine
 10
139.8803704752927
 20
53.22346041284939
 30
0.0
 11
140.5803704757218
 21
53.22346041285332
 31
0.0
  0
LINE
  5
603
330
D1D
100
AcDbEntity
  8
1
  6
Continuous
100
AcDbLine
 10
139.8803704753008
 20
52.37545217937449
 30
0.0
 11
140.5803704757161
 21
52.3754521793613
 31
0.0
  0
LINE
  5
604
330
D1D
100
AcDbEntity
  8
2
  6
Continuous
100
AcDbLine
 10
140.5803704756951
 20
52.05486244505729
 30
0.0
 11
139.8803704753111
 21
51.30681973133661
 31
0.0
  0
LINE
  5
605
330
D1D
100
AcDbEntity
  8
2
  6
Continuous
100
AcDbLine
 10
140.5803704757053
 20
53.54405014715709
 30
0.0
 11
139.8803704752823
 21
54.2920928609397
 31
0.0
  0
LINE
  5
606
330
D1D
100
AcDbEntity
  8
2
  6
Continuous
100
AcDbLine
 10
140.58037047549
 20
57.71171669397999
 30
0.0
 11
139.8803704752567
 21
56.96367398035089
 31
0.0
  0
LINE
  5
607
330
D1D
100
AcDbEntity
  8
1
  6
Continuous
100
AcDbLine
 10
143.9803704757439
 20
58.54945629608431
 30
0.0
 11
142.4803704754467
 21
58.54945629609439
 31
0.0
  0
LINE
  5
608
330
D1D
100
AcDbEntity
  8
1
  6
Continuous
100
AcDbLine
 10
143.9803704757439
 20
54.05810574286235
 30
0.0
 11
142.4803704757438
 21
52.79945629609642
 31
0.0
  0
LINE
  5
609
330
D1D
100
AcDbEntity
  8
1
  6
Continuous
100
AcDbLine
 10
143.9803704757438
 20
52.79945629608818
 30
0.0
 11
142.4803704757437
 21
51.54080684932225
 31
0.0
  0
ARC
  5
60A
330
D1D
100
AcDbEntity
  8
1
  6
Continuous
100
AcDbCircle
 10
140.7550787058189
 20
55.29945629608818
 30
0.0
 40
7.225291769924895
100
AcDbArc
 50
339.756734018014
 51
20.24326598198596
  0
ARC
  5
60B
330
D1D
100
AcDbEntity
  8
1
  6
Continuous
100
AcDbCircle
 10
151.2056622456687
 20
55.29945629608818
 30
0.0
 40
7.225291769924895
100
AcDbArc
 50
159.7567340180139
 51
200.2432659819859
  0
LINE
  5
60C
330
D1D
100
AcDbEntity
  8
1
  6
Continuous
100
AcDbLine
 10
147.9803704757438
 20
57.79945629608818
 30
0.0
 11
143.9803704757438
 21
57.79945629608818
 31
0.0
  0
LINE
  5
60D
330
D1D
100
AcDbEntity
  8
1
  6
Continuous
100
AcDbLine
 10
144.4266622338274
 20
52.79945629608818
 30
0.0
 11
147.5340787176602
 21
52.79945629608818
 31
0.0
  0
LINE
  5
60E
330
D1D
100
AcDbEntity
  8
1
  6
Continuous
100
AcDbLine
 10
142.4803704753304
 20
60.7994562960944
 30
0.0
 11
140.8803704753304
 21
60.79945629610524
 31
0.0
  0
LINE
  5
60F
330
D1D
100
AcDbEntity
  8
1
  6
Continuous
100
AcDbLine
 10
119.9803704749609
 20
72.79945629698706
 30
0.0
 11
116.9803704743461
 21
72.79945629698898
 31
0.0
  0
ARC
  5
610
330
D1D
100
AcDbEntity
  8
1
  6
Continuous
100
AcDbCircle
 10
116.9803704743454
 20
71.79945629698924
 30
0.0
 40
1.0
100
AcDbArc
 50
90.00000000000005
 51
180.0
  0
LINE
  5
611
330
D1D
100
AcDbEntity
  8
1
  6
Continuous
100
AcDbLine
 10
136.2803704765324
 20
66.5494562960497
 30
0.0
 11
131.9803704751888
 21
66.54945629605052
 31
0.0
  0
LINE
  5
612
330
D1D
100
AcDbEntity
  8
1
  6
Continuous
100
AcDbLine
 10
125.9803704752011
 20
66.54945629604957
 30
0.0
 11
120.4803704752471
 21
66.54945629605065
 31
0.0
  0
ARC
  5
613
330
D1D
100
AcDbEntity
  8
1
  6
Continuous
100
AcDbCircle
 10
119.9803704752505
 20
68.799456296398
 30
0.0
 40
0.5
100
AcDbArc
 50
0.0
 51
89.99999999787652
  0
ARC
  5
614
330
D1D
100
AcDbEntity
  8
1
  6
Continuous
100
AcDbCircle
 10
128.2803704752344
 20
70.49945629605208
 30
0.0
 40
0.3
100
AcDbArc
 50
90.00000000000005
 51
180.0
  0
ARC
  5
615
330
D1D
100
AcDbEntity
  8
1
  6
Continuous
100
AcDbCircle
 10
131.6803704752343
 20
70.4994562960492
 30
0.0
 40
0.3
100
AcDbArc
 50
0.0
 51
90.00000000000005
  0
LINE
  5
616
330
D1D
100
AcDbEntity
  8
1
  6
Continuous
100
AcDbLine
 10
131.6803704752347
 20
70.7994562960493
 30
0.0
 11
128.2803704752347
 21
70.7994562960521
 31
0.0
  0
ARC
  5
617
330
D1D
100
AcDbEntity
  8
1
  6
Continuous
100
AcDbCircle
 10
126.9803704752122
 20
69.0494562961771
 30
0.0
 40
0.9999999999933491
100
AcDbArc
 50
359.9999999996172
 51
179.9999999995928
  0
LINE
  5
618
330
D1D
100
AcDbEntity
  8
1
  6
Continuous
100
AcDbLine
 10
137.9803704747189
 20
64.29945629604969
 30
0.0
 11
136.380370474719
 21
64.29945629604969
 31
0.0
  0
LINE
  5
619
330
D1D
100
AcDbEntity
  8
1
  6
Continuous
100
AcDbLine
 10
139.8803704752101
 20
61.799456296112
 30
0.0
 11
138.8803704752101
 21
61.79945629611859
 31
0.0
  0
LINE
  5
61A
330
D1D
100
AcDbEntity
  8
1
  6
Continuous
100
AcDbLine
 10
137.9803704747216
 20
64.92381194924141
 30
0.0
 11
136.380370474735
 21
64.92381194926038
 31
0.0
  0
ARC
  5
BEF
330
D1D
100
AcDbEntity
  8
1
  6
Continuous
100
AcDbCircle
 10
31.85577503589637
 20
142.799456297007
 30
0.0
 40
2.199999999999988
100
AcDbArc
 50
90.0
 51
270.0
  0
LINE
  5
BF2
330
D1D
100
AcDbEntity
  8
1
  6
Continuous
100
AcDbLine
 10
41.45577503589641
 20
150.199456297007
 30
0.0
 11
41.45577503589641
 21
147.1217820598343
 31
0.0
  0
ARC
  5
BF4
330
D1D
100
AcDbEntity
  8
1
  6
Continuous
100
AcDbCircle
 10
39.25577503589641
 20
150.199456297007
 30
0.0
 40
2.199999999999988
100
AcDbArc
 50
0.0
 51
180.0
  0
LINE
  5
BF7
330
D1D
100
AcDbEntity
  8
1
  6
Continuous
100
AcDbLine
 10
37.0557750358964
 20
150.199456297007
 30
0.0
 11
37.0557750358964
 21
147.1217820598343
 31
0.0
  0
ARC
  5
BF9
330
D1D
100
AcDbEntity
  8
1
  6
Continuous
100
AcDbCircle
 10
39.25577503589641
 20
142.799456297007
 30
0.0
 40
4.849999999999997
100
AcDbArc
 50
116.9754221194564
 51
153.0245778805445
  0
LINE
  5
BFD
330
D1D
100
AcDbEntity
  8
1
  6
Continuous
100
AcDbLine
 10
31.85577503589637
 20
144.999456297007
 30
0.0
 11
34.93344927306918
 21
144.999456297007
 31
0.0
  0
LINE
  5
BFE
330
D1D
100
AcDbEntity
  8
1
  6
Continuous
100
AcDbLine
 10
31.85577503589637
 20
140.5994562970071
 30
0.0
 11
34.93344927306918
 21
140.5994562970071
 31
0.0
  0
ARC
  5
C01
330
D1D
100
AcDbEntity
  8
1
  6
Continuous
100
AcDbCircle
 10
39.25577503589641
 20
142.799456297007
 30
0.0
 40
4.849999999999997
100
AcDbArc
 50
206.9754221194554
 51
243.024577880544
  0
LINE
  5
C04
330
D1D
100
AcDbEntity
  8
1
  6
Continuous
100
AcDbLine
 10
37.0557750358964
 20
135.399456297007
 30
0.0
 11
37.0557750358964
 21
138.4771305341798
 31
0.0
  0
ARC
  5
C07
330
D1D
100
AcDbEntity
  8
1
  6
Continuous
100
AcDbCircle
 10
39.25577503589639
 20
135.399456297007
 30
0.0
 40
2.199999999999988
100
AcDbArc
 50
180.0
 51
0.0
  0
LINE
  5
C09
330
D1D
100
AcDbEntity
  8
1
  6
Continuous
100
AcDbLine
 10
41.45577503589641
 20
135.399456297007
 30
0.0
 11
41.45577503589641
 21
138.4771305341798
 31
0.0
  0
ARC
  5
C0C
330
D1D
100
AcDbEntity
  8
1
  6
Continuous
100
AcDbCircle
 10
39.25577503589641
 20
142.799456297007
 30
0.0
 40
4.849999999999997
100
AcDbArc
 50
296.9754221194559
 51
333.024577880543
  0
ARC
  5
C0F
330
D1D
100
AcDbEntity
  8
1
  6
Continuous
100
AcDbCircle
 10
39.25577503589641
 20
142.799456297007
 30
0.0
 40
4.849999999999997
100
AcDbArc
 50
26.97542211945549
 51
63.02457788054354
  0
LINE
  5
C12
330
D1D
100
AcDbEntity
  8
1
  6
Continuous
100
AcDbLine
 10
46.65577503589645
 20
144.9994562970069
 30
0.0
 11
43.57810079872364
 21
144.9994562970069
 31
0.0
  0
ARC
  5
C13
330
D1D
100
AcDbEntity
  8
1
  6
Continuous
100
AcDbCircle
 10
46.65577503589645
 20
142.799456297007
 30
0.0
 40
2.199999999999988
100
AcDbArc
 50
270.0
 51
90.0
  0
LINE
  5
C15
330
D1D
100
AcDbEntity
  8
1
  6
Continuous
100
AcDbLine
 10
46.65577503589645
 20
140.5994562970069
 30
0.0
 11
43.57810079872364
 21
140.5994562970069
 31
0.0
  0
ARC
  5
C18
330
D1D
100
AcDbEntity
  8
1
  6
Continuous
100
AcDbCircle
 10
39.25577503589646
 20
142.799456297007
 30
0.0
 40
4.75
100
AcDbArc
 50
206.2382825443298
 51
243.7617174556706
  0
ARC
  5
C19
330
D1D
100
AcDbEntity
  8
1
  6
Continuous
100
AcDbCircle
 10
39.25577503589646
 20
142.799456297007
 30
0.0
 40
4.75
100
AcDbArc
 50
116.238282544329
 51
153.7617174556699
  0
ARC
  5
C1A
330
D1D
100
AcDbEntity
  8
1
  6
Continuous
100
AcDbCircle
 10
39.25577503589646
 20
142.799456297007
 30
0.0
 40
4.75
100
AcDbArc
 50
26.2382825443299
 51
63.7617174556709
  0
ARC
  5
C1B
330
D1D
100
AcDbEntity
  8
1
  6
Continuous
100
AcDbCircle
 10
39.25577503589646
 20
142.799456297007
 30
0.0
 40
4.75
100
AcDbArc
 50
296.2382825443291
 51
333.76171745567
  0
ARC
  5
C1E
330
D1D
100
AcDbEntity
  8
1
  6
Continuous
100
AcDbCircle
 10
31.85577503621261
 20
142.7994562970065
 30
0.0
 40
1.499999999999491
100
AcDbArc
 50
90.0
 51
270.0
  0
ARC
  5
C1F
330
D1D
100
AcDbEntity
  8
1
  6
Continuous
100
AcDbCircle
 10
31.85577503621261
 20
142.7994562970065
 30
0.0
 40
2.099999999999492
100
AcDbArc
 50
90.0
 51
270.0
  0
ARC
  5
C21
330
D1D
100
AcDbEntity
  8
1
  6
Continuous
100
AcDbCircle
 10
39.25577503589647
 20
142.799456297007
 30
0.0
 40
5.0
100
AcDbArc
 50
155.165412510299
 51
204.8345874897009
  0
LINE
  5
C22
330
D1D
100
AcDbEntity
  8
1
  6
Continuous
100
AcDbLine
 10
34.99519995734195
 20
144.899456297007
 30
0.0
 11
31.85577503621261
 21
144.899456297007
 31
0.0
  0
LINE
  5
C24
330
D1D
100
AcDbEntity
  8
1
  6
Continuous
100
AcDbLine
 10
31.85577503621261
 20
144.299456297006
 30
0.0
 11
34.4860790288241
 21
144.299456297006
 31
0.0
  0
LINE
  5
C25
330
D1D
100
AcDbEntity
  8
1
  6
Continuous
100
AcDbLine
 10
31.85577503621261
 20
141.2994562969678
 30
0.0
 11
34.4860790288241
 21
141.2994562969678
 31
0.0
  0
LINE
  5
C27
330
D1D
100
AcDbEntity
  8
1
  6
Continuous
100
AcDbLine
 10
34.99519995734195
 20
140.6994562970068
 30
0.0
 11
31.85577503621261
 21
140.6994562970068
 31
0.0
  0
ARC
  5
C2A
330
D1D
100
AcDbEntity
  8
1
  6
Continuous
100
AcDbCircle
 10
46.65577503558028
 20
142.7994562970065
 30
0.0
 40
1.499999999999491
100
AcDbArc
 50
270.0
 51
90.0
  0
ARC
  5
C2B
330
D1D
100
AcDbEntity
  8
1
  6
Continuous
100
AcDbCircle
 10
46.65577503558028
 20
142.7994562970065
 30
0.0
 40
2.099999999999492
100
AcDbArc
 50
270.0
 51
90.0
  0
ARC
  5
C2D
330
D1D
100
AcDbEntity
  8
1
  6
Continuous
100
AcDbCircle
 10
39.25577503589641
 20
142.799456297007
 30
0.0
 40
5.0
100
AcDbArc
 50
335.165412510299
 51
24.83458748970095
  0
LINE
  5
C2E
330
D1D
100
AcDbEntity
  8
1
  6
Continuous
100
AcDbLine
 10
43.51635011445094
 20
144.899456297007
 30
0.0
 11
46.65577503558028
 21
144.899456297007
 31
0.0
  0
LINE
  5
C30
330
D1D
100
AcDbEntity
  8
1
  6
Continuous
100
AcDbLine
 10
46.65577503558028
 20
144.299456297006
 30
0.0
 11
44.02547104296878
 21
144.299456297006
 31
0.0
  0
LINE
  5
C31
330
D1D
100
AcDbEntity
  8
1
  6
Continuous
100
AcDbLine
 10
46.65577503558028
 20
141.2994562969678
 30
0.0
 11
44.02547104296878
 21
141.2994562969678
 31
0.0
  0
LINE
  5
C33
330
D1D
100
AcDbEntity
  8
1
  6
Continuous
100
AcDbLine
 10
43.51635011445094
 20
140.6994562970068
 30
0.0
 11
46.65577503558028
 21
140.6994562970068
 31
0.0
  0
LINE
  5
C40
330
D1D
100
AcDbEntity
  8
1
  6
Continuous
100
AcDbLine
 10
37.25577503589642
 20
138.2168806020511
 30
0.0
 11
37.25577503589642
 21
134.7591438735799
 31
0.0
  0
LINE
  5
C41
330
D1D
100
AcDbEntity
  8
1
  6
Continuous
100
AcDbLine
 10
41.2557750358964
 20
138.2168806020511
 30
0.0
 11
41.2557750358964
 21
134.7591438735832
 31
0.0
  0
ARC
  5
C44
330
D1D
100
AcDbEntity
  8
1
  6
Continuous
100
AcDbCircle
 10
39.25577503589646
 20
142.799456297007
 30
0.0
 40
5.0
100
AcDbArc
 50
293.5781784782015
 51
294.8345874897018
  0
ARC
  5
C45
330
D1D
100
AcDbEntity
  8
1
  6
Continuous
100
AcDbCircle
 10
39.25577503589646
 20
142.799456297007
 30
0.0
 40
5.0
100
AcDbArc
 50
245.165412510298
 51
246.4218215217984
  0
LINE
  5
C46
330
D1D
100
AcDbEntity
  8
1
  6
Continuous
100
AcDbLine
 10
37.25577503589646
 20
147.3820319919628
 30
0.0
 11
37.25577503589646
 21
150.8397687202914
 31
0.0
  0
ARC
  5
C47
330
D1D
100
AcDbEntity
  8
1
  6
Continuous
100
AcDbCircle
 10
39.25577503589646
 20
142.799456297007
 30
0.0
 40
5.0
100
AcDbArc
 50
113.5781784782015
 51
114.8345874897018
  0
ARC
  5
C4A
330
D1D
100
AcDbEntity
  8
1
  6
Continuous
100
AcDbCircle
 10
39.25577503589646
 20
142.799456297007
 30
0.0
 40
5.0
100
AcDbArc
 50
65.16541251029815
 51
66.42182152179845
  0
LINE
  5
C4B
330
D1D
100
AcDbEntity
  8
1
  6
Continuous
100
AcDbLine
 10
41.25577503589645
 20
150.839768720295
 30
0.0
 11
41.25577503589645
 21
147.3820319919628
 31
0.0
  0
LINE
  5
C4C
330
D1D
100
AcDbEntity
  8
1
  6
Continuous
100
AcDbLine
 10
37.15577503589646
 20
150.1994562965518
 30
0.0
 11
37.15577503589646
 21
147.0600313755614
 31
0.0
  0
LINE
  5
C4D
330
D1D
100
AcDbEntity
  8
1
  6
Continuous
100
AcDbLine
 10
37.15577503589641
 20
138.5388812184525
 30
0.0
 11
37.15577503589641
 21
135.3994562973231
 31
0.0
  0
LINE
  5
C4E
330
D1D
100
AcDbEntity
  8
1
  6
Continuous
100
AcDbLine
 10
41.35577503589646
 20
150.1994562965518
 30
0.0
 11
41.35577503589646
 21
147.0600313755614
 31
0.0
  0
LINE
  5
C4F
330
D1D
100
AcDbEntity
  8
1
  6
Continuous
100
AcDbLine
 10
41.35577503589646
 20
138.5388812184525
 30
0.0
 11
41.35577503589646
 21
135.3994562973231
 31
0.0
  0
ARC
  5
C50
330
D1D
100
AcDbEntity
  8
1
  6
Continuous
100
AcDbCircle
 10
39.25577503589592
 20
135.3994562973231
 30
0.0
 40
2.099999999999492
100
AcDbArc
 50
180.0
 51
0.0
  0
ARC
  5
C51
330
D1D
100
AcDbEntity
  8
1
  6
Continuous
100
AcDbCircle
 10
39.25577503589702
 20
150.1994562965518
 30
0.0
 40
2.099999999999424
100
AcDbArc
 50
0.0
 51
180.0
  0
CIRCLE
  5
C52
330
D1D
100
AcDbEntity
  8
1
  6
Continuous
100
AcDbCircle
 10
39.25577503589646
 20
142.799456297007
 30
0.0
 40
2.0
  0
CIRCLE
  5
C85
330
D1D
100
AcDbEntity
  8
1
  6
Continuous
100
AcDbCircle
 10
33.42214409110741
 20
148.6330872417961
 30
0.0
 40
2.5
  0
ENDSEC
  0
SECTION
  2
OBJECTS
  0
DICTIONARY
  5
CBA
330
0
100
AcDbDictionary
281
     1
  3
ACAD_CIP_PREVIOUS_PRODUCT_INFO
350
D36
  3
ACAD_COLOR
350
D10
  3
ACAD_DETAILVIEWSTYLE
350
D17
  3
ACAD_GROUP
350
CBB
  3
ACAD_LAYOUT
350
D0F
  3
ACAD_MATERIAL
350
CBE
  3
ACAD_MLEADERSTYLE
350
D13
  3
ACAD_MLINESTYLE
350
D0C
  3
ACAD_PLOTSETTINGS
350
D0E
  3
ACAD_PLOTSTYLENAME
350
CBC
  3
ACAD_SCALELIST
350
CF0
  3
ACAD_SECTIONVIEWSTYLE
350
D15
  3
ACAD_TABLESTYLE
350
D11
  3
ACAD_VISUALSTYLE
350
CD7
  3
ACDB_RECOMPOSE_DATA
350
D54
  3
AcDbVariableDictionary
350
D47
  3
DWGPROPS
350
D55
  0
DICTIONARY
  5
D37
330
D02
100
AcDbDictionary
280
     1
281
     1
  3
ADSK_XREC_LAYER_RECONCILED
360
D38
  0
DICTIONARY
  5
D39
330
D25
100
AcDbDictionary
280
     1
281
     1
  3
ADSK_XREC_LAYER_RECONCILED
360
D3A
  0
DICTIONARY
  5
D3B
330
D26
100
AcDbDictionary
280
     1
281
     1
  3
ADSK_XREC_LAYER_RECONCILED
360
D3C
  0
DICTIONARY
  5
D3D
330
D27
100
AcDbDictionary
280
     1
281
     1
  3
ADSK_XREC_LAYER_RECONCILED
360
D3E
  0
DICTIONARY
  5
D3F
330
D28
100
AcDbDictionary
280
     1
281
     1
  3
ADSK_XREC_LAYER_RECONCILED
360
D40
  0
DICTIONARY
  5
D41
330
D29
100
AcDbDictionary
280
     1
281
     1
  3
ADSK_XREC_LAYER_RECONCILED
360
D42
  0
DICTIONARY
  5
D43
330
D2A
100
AcDbDictionary
280
     1
281
     1
  3
ADSK_XREC_LAYER_RECONCILED
360
D44
  0
DICTIONARY
  5
D45
330
D2B
100
AcDbDictionary
280
     1
281
     1
  3
ADSK_XREC_LAYER_RECONCILED
360
D46
  0
XRECORD
  5
D36
102
{ACAD_REACTORS
330
CBA
102
}
330
CBA
100
AcDbXrecord
280
     1
300
ACDLT
300
2014
300
ACDLT_F_S
  0
DICTIONARY
  5
D10
102
{ACAD_REACTORS
330
CBA
102
}
330
CBA
100
AcDbDictionary
281
     1
  0
DICTIONARY
  5
D17
102
{ACAD_REACTORS
330
CBA
102
}
330
CBA
100
AcDbDictionary
281
     1
  3
Imperial24
350
D18
  0
DICTIONARY
  5
CBB
102
{ACAD_REACTORS
330
CBA
102
}
330
CBA
100
AcDbDictionary
281
     1
  0
DICTIONARY
  5
D0F
102
{ACAD_REACTORS
330
CBA
102
}
330
CBA
100
AcDbDictionary
281
     1
  3
Model
350
D20
  3
レイアウト1
350
D1C
  0
DICTIONARY
  5
CBE
102
{ACAD_REACTORS
330
CBA
102
}
330
CBA
100
AcDbDictionary
281
     1
  3
ByBlock
350
CC7
  3
ByLayer
350
CBF
  3
Global
350
CCF
  0
DICTIONARY
  5
D13
102
{ACAD_REACTORS
330
CBA
102
}
330
CBA
100
AcDbDictionary
281
     1
  3
Standard
350
D14
  0
DICTIONARY
  5
D0C
102
{ACAD_REACTORS
330
CBA
102
}
330
CBA
100
AcDbDictionary
281
     1
  3
Standard
350
D0D
  0
DICTIONARY
  5
D0E
102
{ACAD_REACTORS
330
CBA
102
}
330
CBA
100
AcDbDictionary
281
     1
  0
ACDBDICTIONARYWDFLT
  5
CBC
102
{ACAD_REACTORS
330
CBA
102
}
330
CBA
100
AcDbDictionary
281
     1
  3
Normal
350
CBD
100
AcDbDictionaryWithDefault
340
CBD
  0
DICTIONARY
  5
CF0
102
{ACAD_REACTORS
330
CBA
102
}
330
CBA
100
AcDbDictionary
281
     1
  3
A0
350
CF1
  3
A1
350
CF2
  3
A2
350
CF3
  3
A3
350
CF4
  3
A4
350
CF5
  3
A5
350
CF6
  3
A6
350
CF7
  3
A7
350
CF8
  3
A8
350
CF9
  3
A9
350
CFA
  3
B0
350
CFB
  3
B1
350
CFC
  3
B2
350
CFD
  3
B3
350
CFE
  3
B4
350
CFF
  3
B5
350
D00
  3
B6
350
D01
  0
DICTIONARY
  5
D15
102
{ACAD_REACTORS
330
CBA
102
}
330
CBA
100
AcDbDictionary
281
     1
  3
Imperial24
350
D16
  0
DICTIONARY
  5
D11
102
{ACAD_REACTORS
330
CBA
102
}
330
CBA
100
AcDbDictionary
281
     1
  3
Standard
350
D12
  0
DICTIONARY
  5
CD7
102
{ACAD_REACTORS
330
CBA
102
}
330
CBA
100
AcDbDictionary
281
     1
  3
2dWireframe
350
CDD
  3
Basic
350
CDC
  3
Brighten
350
CE3
  3
ColorChange
350
CE7
  3
Conceptual
350
CE0
  3
Dim
350
CE2
  3
EdgeColorOff
350
CEF
  3
Facepattern
350
CE6
  3
Flat
350
CD8
  3
FlatWithEdges
350
CD9
  3
Gouraud
350
CDA
  3
GouraudWithEdges
350
CDB
  3
Hidden
350
CDF
  3
JitterOff
350
CED
  3
Linepattern
350
CE5
  3
OverhangOff
350
CEE
  3
Realistic
350
CE1
  3
Shaded
350
CEC
  3
Shaded with edges
350
CEB
  3
Shades of Gray
350
CE8
  3
Sketchy
350
CE9
  3
Thicken
350
CE4
  3
Wireframe
350
CDE
  3
X-Ray
350
CEA
  0
XRECORD
  5
D54
102
{ACAD_REACTORS
330
CBA
102
}
330
CBA
100
AcDbXrecord
280
     1
 90
        1
330
D12
  0
DICTIONARY
  5
D47
102
{ACAD_REACTORS
330
CBA
102
}
330
CBA
100
AcDbDictionary
281
     1
  3
CANNOSCALE
350
D4C
  3
CMLEADERSTYLE
350
D49
  3
CTABLESTYLE
350
D48
  3
CVIEWDETAILSTYLE
350
D4A
  3
CVIEWSECTIONSTYLE
350
D4B
  3
DIMASSOC
350
D4F
  3
INDEXCTL
350
D4E
  3
SORTENTS
350
D4D
  3
XCLIPFRAME
350
D50
  0
XRECORD
  5
D55
102
{ACAD_REACTORS
330
CBA
102
}
330
CBA
100
AcDbXrecord
280
     1
  1
DWGPROPS COOKIE
  2

  3

  4

  6

  7

  8
Yoshitsune
  9

300
=
301
=
302
=
303
=
304
=
305
=
306
=
307
=
308
=
309
=
 40
0.0839012847222223
 41
2456308.390694063
 42
2457192.643507176
  1

 90
        0
  0
XRECORD
  5
D38
102
{ACAD_REACTORS
330
D37
102
}
330
D37
100
AcDbXrecord
280
     1
290
     1
  0
XRECORD
  5
D3A
102
{ACAD_REACTORS
330
D39
102
}
330
D39
100
AcDbXrecord
280
     1
290
     1
  0
XRECORD
  5
D3C
102
{ACAD_REACTORS
330
D3B
102
}
330
D3B
100
AcDbXrecord
280
     1
290
     1
  0
XRECORD
  5
D3E
102
{ACAD_REACTORS
330
D3D
102
}
330
D3D
100
AcDbXrecord
280
     1
290
     1
  0
XRECORD
  5
D40
102
{ACAD_REACTORS
330
D3F
102
}
330
D3F
100
AcDbXrecord
280
     1
290
     1
  0
XRECORD
  5
D42
102
{ACAD_REACTORS
330
D41
102
}
330
D41
100
AcDbXrecord
280
     1
290
     1
  0
XRECORD
  5
D44
102
{ACAD_REACTORS
330
D43
102
}
330
D43
100
AcDbXrecord
280
     1
290
     1
  0
XRECORD
  5
D46
102
{ACAD_REACTORS
330
D45
102
}
330
D45
100
AcDbXrecord
280
     1
290
     1
  0
ACDBDETAILVIEWSTYLE
  5
D18
102
{ACAD_XDICTIONARY
360
D8D
102
}
102
{ACAD_REACTORS
330
D17
102
}
330
D17
100
AcDbModelDocViewStyle
 70
     0
  3
Imperial24
290
     0
100
AcDbDetailViewStyle
 70
     0
 71
     0
 90
        3
 71
     1
340
D03
 40
0.24
340
0
 40
0.24
300

 40
0.36
280
     3
 71
     2
340
D0A
 90
       25
 71
     3
340
D03
 40
0.24
 90
        1
 40
0.75
 90
        1
300
%<\AcVar ViewType \f "%tc1">% %<\AcVar ViewDetailId>%\PSCALE %<\AcVar ViewScale \f "%sn">%
 71
     4
340
D0A
 90
       25
340
D0A
 90
       25
280
     0
  0
LAYOUT
  5
D20
102
{ACAD_XDICTIONARY
360
D91
102
}
102
{ACAD_REACTORS
330
D0F
102
}
330
D0F
100
AcDbPlotSettings
  1

  2
Canon LBP9100C
  4

  6

 40
0.0
 41
0.0
 42
0.0
 43
0.0
 44
0.0
 45
0.0
 46
0.0
 47
0.0
 48
0.0
 49
0.0
140
0.0
141
0.0
142
1.0
143
1.0
 70
  1712
 72
     0
 73
     0
 74
     0
  7

 75
     0
147
1.0
148
0.0
149
0.0
100
AcDbLayout
  1
Model
 70
     1
 71
     0
 10
0.0
 20
0.0
 11
12.0
 21
9.0
 12
0.0
 22
0.0
 32
0.0
 14
0.0
 24
0.0
 34
0.0
 15
0.0
 25
0.0
 35
0.0
146
0.0
 13
0.0
 23
0.0
 33
0.0
 16
1.0
 26
0.0
 36
0.0
 17
0.0
 27
1.0
 37
0.0
 76
     0
330
D1D
331
D21
  0
LAYOUT
  5
D1C
102
{ACAD_XDICTIONARY
360
D8F
102
}
102
{ACAD_REACTORS
330
D0F
102
}
330
D0F
100
AcDbPlotSettings
  1

  2
Canon LBP9100C
  4

  6

 40
0.0
 41
0.0
 42
0.0
 43
0.0
 44
0.0
 45
0.0
 46
0.0
 47
0.0
 48
0.0
 49
0.0
140
0.0
141
0.0
142
1.0
143
1.0
 70
   688
 72
     0
 73
     0
 74
     5
  7

 75
    16
147
1.0
148
0.0
149
0.0
100
AcDbLayout
  1
レイアウト1
 70
     1
 71
     1
 10
0.0
 20
0.0
 11
420.0
 21
297.0
 12
0.0
 22
0.0
 32
0.0
 14
1.000000000000000E+20
 24
1.000000000000000E+20
 34
1.000000000000000E+20
 15
-1.000000000000000E+20
 25
-1.000000000000000E+20
 35
-1.000000000000000E+20
146
0.0
 13
0.0
 23
0.0
 33
0.0
 16
1.0
 26
0.0
 36
0.0
 17
0.0
 27
1.0
 37
0.0
 76
     0
330
D19
  0
MATERIAL
  5
CC7
102
{ACAD_XDICTIONARY
360
CC8
102
}
102
{ACAD_REACTORS
330
CBE
102
}
330
CBE
100
AcDbMaterial
  1
ByBlock
 72
     0
 43
0.0208333333333333
 43
0.0
 43
0.0
 43
0.0
 43
0.0
 43
0.0208333333333333
 43
0.0
 43
0.0
 43
0.0
 43
0.0
 43
1.0
 43
0.0
 43
0.0
 43
0.0
 43
0.0
 43
1.0
 77
     0
 47
0.0208333333333333
 47
0.0
 47
0.0
 47
0.0
 47
0.0
 47
0.0208333333333333
 47
0.0
 47
0.0
 47
0.0
 47
0.0
 47
1.0
 47
0.0
 47
0.0
 47
0.0
 47
0.0
 47
1.0
171
     0
 49
0.0208333333333333
 49
0.0
 49
0.0
 49
0.0
 49
0.0
 49
0.0208333333333333
 49
0.0
 49
0.0
 49
0.0
 49
0.0
 49
1.0
 49
0.0
 49
0.0
 49
0.0
 49
0.0
 49
1.0
175
     0
142
0.0208333333333333
142
0.0
142
0.0
142
0.0
142
0.0
142
0.0208333333333333
142
0.0
142
0.0
142
0.0
142
0.0
142
1.0
142
0.0
142
0.0
142
0.0
142
0.0
142
1.0
179
     0
144
0.0208333333333333
144
0.0
144
0.0
144
0.0
144
0.0
144
0.0208333333333333
144
0.0
144
0.0
144
0.0
144
0.0
144
1.0
144
0.0
144
0.0
144
0.0
144
0.0
144
1.0
147
0.0208333333333333
147
0.0
147
0.0
147
0.0
147
0.0
147
0.0208333333333333
147
0.0
147
0.0
147
0.0
147
0.0
147
1.0
147
0.0
147
0.0
147
0.0
147
0.0
147
1.0
  0
MATERIAL
  5
CBF
102
{ACAD_XDICTIONARY
360
CC0
102
}
102
{ACAD_REACTORS
330
CBE
102
}
330
CBE
100
AcDbMaterial
  1
ByLayer
 72
     0
 43
0.0208333333333333
 43
0.0
 43
0.0
 43
0.0
 43
0.0
 43
0.0208333333333333
 43
0.0
 43
0.0
 43
0.0
 43
0.0
 43
1.0
 43
0.0
 43
0.0
 43
0.0
 43
0.0
 43
1.0
 77
     0
 47
0.0208333333333333
 47
0.0
 47
0.0
 47
0.0
 47
0.0
 47
0.0208333333333333
 47
0.0
 47
0.0
 47
0.0
 47
0.0
 47
1.0
 47
0.0
 47
0.0
 47
0.0
 47
0.0
 47
1.0
171
     0
 49
0.0208333333333333
 49
0.0
 49
0.0
 49
0.0
 49
0.0
 49
0.0208333333333333
 49
0.0
 49
0.0
 49
0.0
 49
0.0
 49
1.0
 49
0.0
 49
0.0
 49
0.0
 49
0.0
 49
1.0
175
     0
142
0.0208333333333333
142
0.0
142
0.0
142
0.0
142
0.0
142
0.0208333333333333
142
0.0
142
0.0
142
0.0
142
0.0
142
1.0
142
0.0
142
0.0
142
0.0
142
0.0
142
1.0
179
     0
144
0.0208333333333333
144
0.0
144
0.0
144
0.0
144
0.0
144
0.0208333333333333
144
0.0
144
0.0
144
0.0
144
0.0
144
1.0
144
0.0
144
0.0
144
0.0
144
0.0
144
1.0
147
0.0208333333333333
147
0.0
147
0.0
147
0.0
147
0.0
147
0.0208333333333333
147
0.0
147
0.0
147
0.0
147
0.0
147
1.0
147
0.0
147
0.0
147
0.0
147
0.0
147
1.0
  0
MATERIAL
  5
CCF
102
{ACAD_XDICTIONARY
360
CD0
102
}
102
{ACAD_REACTORS
330
CBE
102
}
330
CBE
100
AcDbMaterial
  1
Global
 72
     0
 43
0.0208333333333333
 43
0.0
 43
0.0
 43
0.0
 43
0.0
 43
0.0208333333333333
 43
0.0
 43
0.0
 43
0.0
 43
0.0
 43
1.0
 43
0.0
 43
0.0
 43
0.0
 43
0.0
 43
1.0
 77
     0
 47
0.0208333333333333
 47
0.0
 47
0.0
 47
0.0
 47
0.0
 47
0.0208333333333333
 47
0.0
 47
0.0
 47
0.0
 47
0.0
 47
1.0
 47
0.0
 47
0.0
 47
0.0
 47
0.0
 47
1.0
171
     0
 49
0.0208333333333333
 49
0.0
 49
0.0
 49
0.0
 49
0.0
 49
0.0208333333333333
 49
0.0
 49
0.0
 49
0.0
 49
0.0
 49
1.0
 49
0.0
 49
0.0
 49
0.0
 49
0.0
 49
1.0
175
     0
142
0.0208333333333333
142
0.0
142
0.0
142
0.0
142
0.0
142
0.0208333333333333
142
0.0
142
0.0
142
0.0
142
0.0
142
1.0
142
0.0
142
0.0
142
0.0
142
0.0
142
1.0
179
     0
144
0.0208333333333333
144
0.0
144
0.0
144
0.0
144
0.0
144
0.0208333333333333
144
0.0
144
0.0
144
0.0
144
0.0
144
1.0
144
0.0
144
0.0
144
0.0
144
0.0
144
1.0
147
0.0208333333333333
147
0.0
147
0.0
147
0.0
147
0.0
147
0.0208333333333333
147
0.0
147
0.0
147
0.0
147
0.0
147
1.0
147
0.0
147
0.0
147
0.0
147
0.0
147
1.0
  0
MLEADERSTYLE
  5
D14
102
{ACAD_REACTORS
330
D13
102
}
330
D13
100
AcDbMLeaderStyle
170
     2
171
     1
172
     0
 90
        2
 40
0.0
 41
0.0
173
     1
 91
-1056964608
340
D08
 92
       -2
290
     1
 42
0.09
291
     1
 43
0.36
  3
Standard
 44
0.18
300

342
D03
174
     1
178
     6
175
     1
176
     0
 93
-1056964608
 45
0.18
292
     0
297
     0
 46
0.18
 94
-1056964608
 47
1.0
 49
1.0
140
1.0
293
     1
141
0.0
294
     1
177
     0
142
1.0
295
     0
296
     0
143
0.125
1001
ACAD_MLEADERVER
1070
     2
  0
MLINESTYLE
  5
D0D
102
{ACAD_REACTORS
330
D0C
102
}
330
D0C
100
AcDbMlineStyle
  2
STANDARD
 70
     0
  3

 62
   256
 51
90.0
 52
90.0
 71
     2
 49
0.5
 62
   256
  6
BYLAYER
 49
-0.5
 62
   256
  6
BYLAYER
  0
ACDBPLACEHOLDER
  5
CBD
102
{ACAD_REACTORS
330
CBC
102
}
330
CBC
  0
SCALE
  5
CF1
102
{ACAD_REACTORS
330
CF0
102
}
330
CF0
100
AcDbScale
 70
     0
300
1:1
140
1.0
141
1.0
290
     1
  0
SCALE
  5
CF2
102
{ACAD_REACTORS
330
CF0
102
}
330
CF0
100
AcDbScale
 70
     0
300
1/128" = 1'-0"
140
0.0078125
141
12.0
290
     0
  0
SCALE
  5
CF3
102
{ACAD_REACTORS
330
CF0
102
}
330
CF0
100
AcDbScale
 70
     0
300
1/64" = 1'-0"
140
0.015625
141
12.0
290
     0
  0
SCALE
  5
CF4
102
{ACAD_REACTORS
330
CF0
102
}
330
CF0
100
AcDbScale
 70
     0
300
1/32" = 1'-0"
140
0.03125
141
12.0
290
     0
  0
SCALE
  5
CF5
102
{ACAD_REACTORS
330
CF0
102
}
330
CF0
100
AcDbScale
 70
     0
300
1/16" = 1'-0"
140
0.0625
141
12.0
290
     0
  0
SCALE
  5
CF6
102
{ACAD_REACTORS
330
CF0
102
}
330
CF0
100
AcDbScale
 70
     0
300
3/32" = 1'-0"
140
0.09375
141
12.0
290
     0
  0
SCALE
  5
CF7
102
{ACAD_REACTORS
330
CF0
102
}
330
CF0
100
AcDbScale
 70
     0
300
1/8" = 1'-0"
140
0.125
141
12.0
290
     0
  0
SCALE
  5
CF8
102
{ACAD_REACTORS
330
CF0
102
}
330
CF0
100
AcDbScale
 70
     0
300
3/16" = 1'-0"
140
0.1875
141
12.0
290
     0
  0
SCALE
  5
CF9
102
{ACAD_REACTORS
330
CF0
102
}
330
CF0
100
AcDbScale
 70
     0
300
1/4" = 1'-0"
140
0.25
141
12.0
290
     0
  0
SCALE
  5
CFA
102
{ACAD_REACTORS
330
CF0
102
}
330
CF0
100
AcDbScale
 70
     0
300
3/8" = 1'-0"
140
0.375
141
12.0
290
     0
  0
SCALE
  5
CFB
102
{ACAD_REACTORS
330
CF0
102
}
330
CF0
100
AcDbScale
 70
     0
300
1/2" = 1'-0"
140
0.5
141
12.0
290
     0
  0
SCALE
  5
CFC
102
{ACAD_REACTORS
330
CF0
102
}
330
CF0
100
AcDbScale
 70
     0
300
3/4" = 1'-0"
140
0.75
141
12.0
290
     0
  0
SCALE
  5
CFD
102
{ACAD_REACTORS
330
CF0
102
}
330
CF0
100
AcDbScale
 70
     0
300
1" = 1'-0"
140
1.0
141
12.0
290
     0
  0
SCALE
  5
CFE
102
{ACAD_REACTORS
330
CF0
102
}
330
CF0
100
AcDbScale
 70
     0
300
1-1/2" = 1'-0"
140
1.5
141
12.0
290
     0
  0
SCALE
  5
CFF
102
{ACAD_REACTORS
330
CF0
102
}
330
CF0
100
AcDbScale
 70
     0
300
3" = 1'-0"
140
3.0
141
12.0
290
     0
  0
SCALE
  5
D00
102
{ACAD_REACTORS
330
CF0
102
}
330
CF0
100
AcDbScale
 70
     0
300
6" = 1'-0"
140
6.0
141
12.0
290
     0
  0
SCALE
  5
D01
102
{ACAD_REACTORS
330
CF0
102
}
330
CF0
100
AcDbScale
 70
     0
300
1'-0" = 1'-0"
140
12.0
141
12.0
290
     0
  0
ACDBSECTIONVIEWSTYLE
  5
D16
102
{ACAD_XDICTIONARY
360
D8B
102
}
102
{ACAD_REACTORS
330
D15
102
}
330
D15
100
AcDbModelDocViewStyle
 70
     0
  3
Imperial24
290
     0
100
AcDbSectionViewStyle
 70
     0
 71
     0
 90
       78
 71
     1
340
D03
 40
0.24
340
0
340
0
 40
0.24
300
I, O, Q, S, X, Z
 40
0.48
 90
        3
 40
0.18
 90
        1
 71
     2
340
D0A
 90
       25
340
D0A
 90
       50
 40
0.24
 40
0.0
 40
0.24
 71
     3
340
D03
 40
0.24
 90
        1
 40
0.75
 90
        1
300
%<\AcVar ViewType \f "%tc1">% %<\AcVar ViewSectionStartId>%-%<\AcVar ViewSectionEndId>%\PSCALE %<\AcVar ViewScale \f "%sn">%
 71
     4
300
ANSI31
 40
1.0
 90
        0
290
     0
290
     0
 90
        6
 40
0.0
 40
1.570796326794896
 40
0.2617993877991494
 40
1.308996938995747
 40
-0.2617993877991494
 40
1.832595714594046
  0
TABLESTYLE
  5
D12
102
{ACAD_XDICTIONARY
360
D52
102
}
102
{ACAD_REACTORS
330
D11
102
}
330
D11
100
AcDbTableStyle
  3
Standard
 70
     0
 71
     0
 40
0.06
 41
0.06
280
     0
281
     0
  7
STANDARD
140
0.18
170
     2
 62
     0
 63
     7
283
     0
274
    -2
284
     1
 64
     0
275
    -2
285
     1
 65
     0
276
    -2
286
     1
 66
     0
277
    -2
287
     1
 67
     0
278
    -2
288
     1
 68
     0
279
    -2
289
     1
 69
     0
  7
STANDARD
140
0.25
170
     5
 62
     0
 63
     7
283
     0
274
    -2
284
     1
 64
     0
275
    -2
285
     1
 65
     0
276
    -2
286
     1
 66
     0
277
    -2
287
     1
 67
     0
278
    -2
288
     1
 68
     0
279
    -2
289
     1
 69
     0
  7
STANDARD
140
0.18
170
     5
 62
     0
 63
     7
283
     0
274
    -2
284
     1
 64
     0
275
    -2
285
     1
 65
     0
276
    -2
286
     1
 66
     0
277
    -2
287
     1
 67
     0
278
    -2
288
     1
 68
     0
279
    -2
289
     1
 69
     0
  0
VISUALSTYLE
  5
CDD
102
{ACAD_XDICTIONARY
360
D63
102
}
102
{ACAD_REACTORS
330
CD7
102
}
330
CD7
100
AcDbVisualStyle
  2
2dWireframe
 70
     4
 71
     0
 72
     2
 73
     0
 90
        0
 40
-0.6
 41
-30.0
 62
     5
 63
     7
 74
     1
 91
        4
 64
     7
 65
   257
 75
     1
175
     1
 42
1.0
 92
        0
 66
   257
 43
1.0
 76
     1
 77
     6
 78
     2
 67
     7
 79
     5
170
     0
171
     0
290
     0
174
     0
 93
        1
 44
0.0
173
     0
291
     0
 45
0.0
1001
ACAD
1000
AcDbSavedByObjectVersion
1070
     0
  0
VISUALSTYLE
  5
CDC
102
{ACAD_XDICTIONARY
360
D61
102
}
102
{ACAD_REACTORS
330
CD7
102
}
330
CD7
100
AcDbVisualStyle
  2
Basic
 70
     7
 71
     1
 72
     0
 73
     1
 90
        0
 40
-0.6
 41
-30.0
 62
     5
 63
     7
 74
     0
 91
        4
 64
     7
 65
   257
 75
     1
175
     1
 42
1.0
 92
        8
 66
     7
 43
1.0
 76
     1
 77
     6
 78
     2
 67
     7
 79
     5
170
     0
171
     0
290
     0
174
     0
 93
        1
 44
0.0
173
     0
291
     1
 45
0.0
1001
ACAD
1000
AcDbSavedByObjectVersion
1070
     0
  0
VISUALSTYLE
  5
CE3
102
{ACAD_XDICTIONARY
360
D6F
102
}
102
{ACAD_REACTORS
330
CD7
102
}
330
CD7
100
AcDbVisualStyle
  2
Brighten
 70
    12
 71
     2
 72
     2
 73
     0
 90
        0
 40
-0.6
 41
-30.0
 62
     5
 63
     7
 74
     1
 91
        4
 64
     7
 65
   257
 75
     1
175
     1
 42
1.0
 92
        8
 66
     7
 43
1.0
 76
     1
 77
     6
 78
     2
 67
     7
 79
     5
170
     0
171
     0
290
     0
174
     0
 93
        1
 44
50.0
173
     0
291
     1
 45
0.0
1001
ACAD
1000
AcDbSavedByObjectVersion
1070
     0
  0
VISUALSTYLE
  5
CE7
102
{ACAD_XDICTIONARY
360
D77
102
}
102
{ACAD_REACTORS
330
CD7
102
}
330
CD7
100
AcDbVisualStyle
  2
ColorChange
 70
    16
 71
     2
 72
     2
 73
     3
 90
        0
 40
-0.6
 41
-30.0
 62
     5
 63
     8
 74
     1
 91
        4
 64
     7
 65
   257
 75
     1
175
     1
 42
1.0
 92
        8
 66
     8
 43
1.0
 76
     1
 77
     6
 78
     2
 67
     7
 79
     5
170
     0
171
     0
290
     0
174
     0
 93
        1
 44
0.0
173
     0
291
     1
 45
0.0
1001
ACAD
1000
AcDbSavedByObjectVersion
1070
     0
  0
VISUALSTYLE
  5
CE0
102
{ACAD_XDICTIONARY
360
D69
102
}
102
{ACAD_REACTORS
330
CD7
102
}
330
CD7
100
AcDbVisualStyle
  2
Conceptual
 70
     9
 71
     3
 72
     2
 73
     0
 90
        0
 40
-0.6
 41
-30.0
 62
     5
 63
     7
 74
     2
 91
        2
 64
     7
 65
   257
 75
     1
175
     1
 42
179.0
 92
        8
 66
     7
 43
1.0
 76
     1
 77
     6
 78
     2
 67
     7
 79
     3
170
     0
171
     0
290
     0
174
     0
 93
        1
 44
0.0
173
     0
291
     0
 45
0.0
1001
ACAD
1000
AcDbSavedByObjectVersion
1070
     0
  0
VISUALSTYLE
  5
CE2
102
{ACAD_XDICTIONARY
360
D6D
102
}
102
{ACAD_REACTORS
330
CD7
102
}
330
CD7
100
AcDbVisualStyle
  2
Dim
 70
    11
 71
     2
 72
     2
 73
     0
 90
        0
 40
-0.6
 41
-30.0
 62
     5
 63
     7
 74
     1
 91
        4
 64
     7
 65
   257
 75
     1
175
     1
 42
1.0
 92
        8
 66
     7
 43
1.0
 76
     1
 77
     6
 78
     2
 67
     7
 79
     5
170
     0
171
     0
290
     0
174
     0
 93
        1
 44
-50.0
173
     0
291
     1
 45
0.0
1001
ACAD
1000
AcDbSavedByObjectVersion
1070
     0
  0
VISUALSTYLE
  5
CEF
102
{ACAD_XDICTIONARY
360
D87
102
}
102
{ACAD_REACTORS
330
CD7
102
}
330
CD7
100
AcDbVisualStyle
  2
EdgeColorOff
 70
    22
 71
     2
 72
     2
 73
     0
 90
        0
 40
-0.6
 41
-30.0
 62
     5
 63
     7
 74
     1
 91
        4
 64
     7
 65
   257
 75
     1
175
     1
 42
1.0
 92
        8
 66
     7
 43
1.0
 76
     1
 77
     6
 78
     2
 67
     7
 79
     5
170
     0
171
     0
290
     0
174
     0
 93
        1
 44
0.0
173
     0
291
     1
 45
0.0
1001
ACAD
1000
AcDbSavedByObjectVersion
1070
     0
  0
VISUALSTYLE
  5
CE6
102
{ACAD_XDICTIONARY
360
D75
102
}
102
{ACAD_REACTORS
330
CD7
102
}
330
CD7
100
AcDbVisualStyle
  2
Facepattern
 70
    15
 71
     2
 72
     2
 73
     0
 90
        0
 40
-0.6
 41
-30.0
 62
     5
 63
     7
 74
     1
 91
        4
 64
     7
 65
   257
 75
     1
175
     1
 42
1.0
 92
        8
 66
     7
 43
1.0
 76
     1
 77
     6
 78
     2
 67
     7
 79
     5
170
     0
171
     0
290
     0
174
     0
 93
        1
 44
0.0
173
     0
291
     1
 45
0.0
1001
ACAD
1000
AcDbSavedByObjectVersion
1070
     0
  0
VISUALSTYLE
  5
CD8
102
{ACAD_XDICTIONARY
360
D59
102
}
102
{ACAD_REACTORS
330
CD7
102
}
330
CD7
100
AcDbVisualStyle
  2
Flat
 70
     0
 71
     2
 72
     1
 73
     1
 90
        2
 40
-0.6
 41
30.0
 62
     5
 63
     7
 74
     0
 91
        0
 64
     7
 65
   257
 75
     1
175
     1
 42
1.0
 92
        8
 66
     7
 43
1.0
 76
     1
 77
     6
 78
     2
 67
     7
 79
     5
170
     0
171
     0
290
     0
174
     0
 93
       13
 44
0.0
173
     0
291
     1
 45
0.0
1001
ACAD
1000
AcDbSavedByObjectVersion
1070
     0
  0
VISUALSTYLE
  5
CD9
102
{ACAD_XDICTIONARY
360
D5B
102
}
102
{ACAD_REACTORS
330
CD7
102
}
330
CD7
100
AcDbVisualStyle
  2
FlatWithEdges
 70
     1
 71
     2
 72
     1
 73
     1
 90
        2
 40
-0.6
 41
30.0
 62
     5
 63
     7
 74
     1
 91
        0
 64
     7
 65
   257
 75
     1
175
     1
 42
1.0
 92
        0
 66
   257
 43
1.0
 76
     1
 77
     6
 78
     2
 67
     7
 79
     5
170
     0
171
     0
290
     0
174
     0
 93
       13
 44
0.0
173
     0
291
     1
 45
0.0
1001
ACAD
1000
AcDbSavedByObjectVersion
1070
     0
  0
VISUALSTYLE
  5
CDA
102
{ACAD_XDICTIONARY
360
D5D
102
}
102
{ACAD_REACTORS
330
CD7
102
}
330
CD7
100
AcDbVisualStyle
  2
Gouraud
 70
     2
 71
     2
 72
     2
 73
     1
 90
        2
 40
-0.6
 41
30.0
 62
     5
 63
     7
 74
     0
 91
        0
 64
     7
 65
   257
 75
     1
175
     1
 42
1.0
 92
        0
 66
     7
 43
1.0
 76
     1
 77
     6
 78
     2
 67
     7
 79
     5
170
     0
171
     0
290
     0
174
     0
 93
       13
 44
0.0
173
     0
291
     1
 45
0.0
1001
ACAD
1000
AcDbSavedByObjectVersion
1070
     0
  0
VISUALSTYLE
  5
CDB
102
{ACAD_XDICTIONARY
360
D5F
102
}
102
{ACAD_REACTORS
330
CD7
102
}
330
CD7
100
AcDbVisualStyle
  2
GouraudWithEdges
 70
     3
 71
     2
 72
     2
 73
     1
 90
        2
 40
-0.6
 41
30.0
 62
     5
 63
     7
 74
     1
 91
        0
 64
     7
 65
   257
 75
     1
175
     1
 42
1.0
 92
        0
 66
   257
 43
1.0
 76
     1
 77
     6
 78
     2
 67
     7
 79
     5
170
     0
171
     0
290
     0
174
     0
 93
       13
 44
0.0
173
     0
291
     1
 45
0.0
1001
ACAD
1000
AcDbSavedByObjectVersion
1070
     0
  0
VISUALSTYLE
  5
CDF
102
{ACAD_XDICTIONARY
360
D67
102
}
102
{ACAD_REACTORS
330
CD7
102
}
330
CD7
100
AcDbVisualStyle
  2
Hidden
 70
     6
 71
     1
 72
     2
 73
     2
 90
        0
 40
-0.6
 41
-30.0
 62
     5
 63
     7
 74
     2
 91
        2
 64
     7
 65
   257
 75
     2
175
     1
 42
40.0
 92
        0
 66
   257
 43
1.0
 76
     1
 77
     6
 78
     2
 67
     7
 79
     3
170
     0
171
     0
290
     0
174
     0
 93
        1
 44
0.0
173
     0
291
     0
 45
0.0
1001
ACAD
1000
AcDbSavedByObjectVersion
1070
     0
  0
VISUALSTYLE
  5
CED
102
{ACAD_XDICTIONARY
360
D83
102
}
102
{ACAD_REACTORS
330
CD7
102
}
330
CD7
100
AcDbVisualStyle
  2
JitterOff
 70
    20
 71
     2
 72
     2
 73
     0
 90
        0
 40
-0.6
 41
-30.0
 62
     5
 63
     7
 74
     1
 91
        4
 64
     7
 65
   257
 75
     1
175
     1
 42
1.0
 92
       10
 66
     7
 43
1.0
 76
     1
 77
     6
 78
     2
 67
     7
 79
     5
170
     0
171
     0
290
     0
174
     0
 93
        1
 44
0.0
173
     0
291
     1
 45
0.0
1001
ACAD
1000
AcDbSavedByObjectVersion
1070
     0
  0
VISUALSTYLE
  5
CE5
102
{ACAD_XDICTIONARY
360
D73
102
}
102
{ACAD_REACTORS
330
CD7
102
}
330
CD7
100
AcDbVisualStyle
  2
Linepattern
 70
    14
 71
     2
 72
     2
 73
     0
 90
        0
 40
-0.6
 41
-30.0
 62
     5
 63
     7
 74
     1
 91
        4
 64
     7
 65
   257
 75
     7
175
     7
 42
1.0
 92
        8
 66
     7
 43
1.0
 76
     1
 77
     6
 78
     2
 67
     7
 79
     5
170
     0
171
     0
290
     0
174
     0
 93
        1
 44
0.0
173
     0
291
     1
 45
0.0
1001
ACAD
1000
AcDbSavedByObjectVersion
1070
     0
  0
VISUALSTYLE
  5
CEE
102
{ACAD_XDICTIONARY
360
D85
102
}
102
{ACAD_REACTORS
330
CD7
102
}
330
CD7
100
AcDbVisualStyle
  2
OverhangOff
 70
    21
 71
     2
 72
     2
 73
     0
 90
        0
 40
-0.6
 41
-30.0
 62
     5
 63
     7
 74
     1
 91
        4
 64
     7
 65
   257
 75
     1
175
     1
 42
1.0
 92
        9
 66
     7
 43
1.0
 76
     1
 77
     6
 78
     2
 67
     7
 79
     5
170
     0
171
     0
290
     0
174
     0
 93
        1
 44
0.0
173
     0
291
     1
 45
0.0
1001
ACAD
1000
AcDbSavedByObjectVersion
1070
     0
  0
VISUALSTYLE
  5
CE1
102
{ACAD_XDICTIONARY
360
D6B
102
}
102
{ACAD_REACTORS
330
CD7
102
}
330
CD7
100
AcDbVisualStyle
  2
Realistic
 70
     8
 71
     2
 72
     3
 73
     0
 90
        2
 40
-0.6
 41
30.0
 62
     5
 63
     7
 74
     0
 91
        0
 64
     7
 65
   257
 75
     1
175
     1
 42
1.0
 92
        8
 66
   257
 43
1.0
 76
     1
 77
     6
 78
     2
 67
     7
 79
     3
170
     0
171
     0
290
     0
174
     0
 93
       13
 44
0.0
173
     0
291
     0
 45
0.0
1001
ACAD
1000
AcDbSavedByObjectVersion
1070
     0
  0
VISUALSTYLE
  5
CEC
102
{ACAD_XDICTIONARY
360
D81
102
}
102
{ACAD_REACTORS
330
CD7
102
}
330
CD7
100
AcDbVisualStyle
  2
Shaded
 70
    27
 71
     2
 72
     2
 73
     1
 90
        2
 40
-0.6
 41
30.0
 62
     5
 63
     7
 74
     0
 91
        4
 64
     7
 65
   257
 75
     1
175
     1
 42
1.0
 92
        8
 66
   257
 43
1.0
 76
     1
 77
     6
 78
     2
 67
     8
 79
     3
170
     0
171
     0
290
     0
174
     0
 93
        5
 44
0.0
173
     0
291
     0
 45
0.0
1001
ACAD
1000
AcDbSavedByObjectVersion
1070
     0
  0
VISUALSTYLE
  5
CEB
102
{ACAD_XDICTIONARY
360
D7F
102
}
102
{ACAD_REACTORS
330
CD7
102
}
330
CD7
100
AcDbVisualStyle
  2
Shaded with edges
 70
    26
 71
     2
 72
     2
 73
     1
 90
        2
 40
-0.6
 41
30.0
 62
     5
 63
     7
 74
     1
 91
       10
 64
     7
 65
   257
 75
     2
175
     1
 42
1.0
 92
        8
 66
   257
 43
1.0
 76
     1
 77
     6
 78
     2
 67
     7
 79
     3
170
     0
171
     0
290
     0
174
     0
 93
        5
 44
0.0
173
     0
291
     0
 45
0.0
1001
ACAD
1000
AcDbSavedByObjectVersion
1070
     0
  0
VISUALSTYLE
  5
CE8
102
{ACAD_XDICTIONARY
360
D79
102
}
102
{ACAD_REACTORS
330
CD7
102
}
330
CD7
100
AcDbVisualStyle
  2
Shades of Gray
 70
    23
 71
     2
 72
     2
 73
     3
 90
        0
 40
-0.6
 41
-30.0
 62
     5
 63
     7
 74
     2
 91
        2
 64
     7
 65
     7
 75
     1
175
     1
 42
40.0
 92
        8
 66
     7
 43
1.0
 76
     1
 77
     6
 78
     2
 67
     7
 79
     3
170
     0
171
     0
290
     0
174
     0
 93
        1
 44
0.0
173
     0
291
     0
 45
0.0
1001
ACAD
1000
AcDbSavedByObjectVersion
1070
     0
  0
VISUALSTYLE
  5
CE9
102
{ACAD_XDICTIONARY
360
D7B
102
}
102
{ACAD_REACTORS
330
CD7
102
}
330
CD7
100
AcDbVisualStyle
  2
Sketchy
 70
    24
 71
     1
 72
     2
 73
     2
 90
        0
 40
-0.6
 41
-30.0
 62
     5
 63
     7
 74
     2
 91
        2
 64
     7
 65
     7
 75
     1
175
     1
 42
40.0
 92
       11
 66
     7
 43
1.0
 76
     1
 77
     6
 78
     2
 67
     7
 79
     6
170
     0
171
     0
290
     0
174
     0
 93
        1
 44
0.0
173
     0
291
     0
 45
0.0
1001
ACAD
1000
AcDbSavedByObjectVersion
1070
     0
  0
VISUALSTYLE
  5
CE4
102
{ACAD_XDICTIONARY
360
D71
102
}
102
{ACAD_REACTORS
330
CD7
102
}
330
CD7
100
AcDbVisualStyle
  2
Thicken
 70
    13
 71
     2
 72
     2
 73
     0
 90
        0
 40
-0.6
 41
-30.0
 62
     5
 63
     7
 74
     1
 91
        4
 64
     7
 65
   257
 75
     1
175
     1
 42
1.0
 92
       12
 66
     7
 43
1.0
 76
     1
 77
     6
 78
     2
 67
     7
 79
     5
170
     0
171
     0
290
     0
174
     0
 93
        1
 44
0.0
173
     0
291
     1
 45
0.0
1001
ACAD
1000
AcDbSavedByObjectVersion
1070
     0
  0
VISUALSTYLE
  5
CDE
102
{ACAD_XDICTIONARY
360
D65
102
}
102
{ACAD_REACTORS
330
CD7
102
}
330
CD7
100
AcDbVisualStyle
  2
Wireframe
 70
     5
 71
     0
 72
     2
 73
     0
 90
        0
 40
-0.6
 41
-30.0
 62
     5
 63
     7
 74
     1
 91
        4
 64
     7
 65
   257
 75
     1
175
     1
 42
1.0
 92
        0
 66
   257
 43
1.0
 76
     1
 77
     6
 78
     2
 67
     7
 79
     3
170
     0
171
     0
290
     0
174
     0
 93
        1
 44
0.0
173
     0
291
     0
 45
0.0
1001
ACAD
1000
AcDbSavedByObjectVersion
1070
     0
  0
VISUALSTYLE
  5
CEA
102
{ACAD_XDICTIONARY
360
D7D
102
}
102
{ACAD_REACTORS
330
CD7
102
}
330
CD7
100
AcDbVisualStyle
  2
X-Ray
 70
    25
 71
     2
 72
     2
 73
     1
 90
        1
 40
0.5
 41
-30.0
 62
     5
 63
     7
 74
     1
 91
        0
 64
     7
 65
   257
 75
     1
175
     1
 42
1.0
 92
        8
 66
     7
 43
1.0
 76
     1
 77
     6
 78
     2
 67
     7
 79
     3
170
     0
171
     0
290
     0
174
     0
 93
       13
 44
0.0
173
     0
291
     0
 45
0.0
1001
ACAD
1000
AcDbSavedByObjectVersion
1070
     0
  0
DICTIONARYVAR
  5
D4C
102
{ACAD_REACTORS
330
D47
102
}
330
D47
100
DictionaryVariables
280
     0
  1
1:1
  0
DICTIONARYVAR
  5
D49
102
{ACAD_REACTORS
330
D47
102
}
330
D47
100
DictionaryVariables
280
     0
  1
STANDARD
  0
DICTIONARYVAR
  5
D48
102
{ACAD_REACTORS
330
D47
102
}
330
D47
100
DictionaryVariables
280
     0
  1
STANDARD
  0
DICTIONARYVAR
  5
D4A
102
{ACAD_REACTORS
330
D47
102
}
330
D47
100
DictionaryVariables
280
     0
  1
Imperial24
  0
DICTIONARYVAR
  5
D4B
102
{ACAD_REACTORS
330
D47
102
}
330
D47
100
DictionaryVariables
280
     0
  1
Imperial24
  0
DICTIONARYVAR
  5
D4F
102
{ACAD_REACTORS
330
D47
102
}
330
D47
100
DictionaryVariables
280
     0
  1
1
  0
DICTIONARYVAR
  5
D4E
102
{ACAD_REACTORS
330
D47
102
}
330
D47
100
DictionaryVariables
280
     0
  1
0
  0
DICTIONARYVAR
  5
D4D
102
{ACAD_REACTORS
330
D47
102
}
330
D47
100
DictionaryVariables
280
     0
  1
127
  0
DICTIONARYVAR
  5
D50
102
{ACAD_REACTORS
330
D47
102
}
330
D47
100
DictionaryVariables
280
     0
  1
2
  0
DICTIONARY
  5
D8D
330
D18
100
AcDbDictionary
280
     1
281
     1
  3
ACAD_XREC_ROUNDTRIP
360
D8E
  0
DICTIONARY
  5
D91
330
D20
100
AcDbDictionary
280
     1
281
     1
  3
ACAD_XREC_ROUNDTRIP
360
D92
  0
DICTIONARY
  5
D8F
330
D1C
100
AcDbDictionary
280
     1
281
     1
  3
ACAD_XREC_ROUNDTRIP
360
D90
  0
DICTIONARY
  5
CC8
330
CC7
100
AcDbDictionary
280
     1
281
     1
  3
ACAD_XREC_ROUNDTRIP
360
D57
  3
BUMPTILE
360
CCA
  3
DIFFUSETILE
360
CC9
  3
OPACITYTILE
360
CCD
  3
REFLECTIONTILE
360
CCC
  3
REFRACTIONTILE
360
CCE
  3
SPECULARTILE
360
CCB
  0
DICTIONARY
  5
CC0
330
CBF
100
AcDbDictionary
280
     1
281
     1
  3
ACAD_XREC_ROUNDTRIP
360
D56
  3
BUMPTILE
360
CC2
  3
DIFFUSETILE
360
CC1
  3
OPACITYTILE
360
CC5
  3
REFLECTIONTILE
360
CC4
  3
REFRACTIONTILE
360
CC6
  3
SPECULARTILE
360
CC3
  0
DICTIONARY
  5
CD0
330
CCF
100
AcDbDictionary
280
     1
281
     1
  3
ACAD_XREC_ROUNDTRIP
360
D58
  3
BUMPTILE
360
CD2
  3
DIFFUSETILE
360
CD1
  3
OPACITYTILE
360
CD5
  3
REFLECTIONTILE
360
CD4
  3
REFRACTIONTILE
360
CD6
  3
SPECULARTILE
360
CD3
  0
DICTIONARY
  5
D8B
330
D16
100
AcDbDictionary
280
     1
281
     1
  3
ACAD_XREC_ROUNDTRIP
360
D8C
  0
DICTIONARY
  5
D52
330
D12
100
AcDbDictionary
280
     1
281
     1
  3
ACAD_ROUNDTRIP_2008_TABLESTYLE_CELLSTYLEMAP
360
D53
  3
ACAD_XREC_ROUNDTRIP
360
D89
  0
DICTIONARY
  5
D63
330
CDD
100
AcDbDictionary
280
     1
281
     1
  3
ACAD_XREC_ROUNDTRIP
360
D64
  0
DICTIONARY
  5
D61
330
CDC
100
AcDbDictionary
280
     1
281
     1
  3
ACAD_XREC_ROUNDTRIP
360
D62
  0
DICTIONARY
  5
D6F
330
CE3
100
AcDbDictionary
280
     1
281
     1
  3
ACAD_XREC_ROUNDTRIP
360
D70
  0
DICTIONARY
  5
D77
330
CE7
100
AcDbDictionary
280
     1
281
     1
  3
ACAD_XREC_ROUNDTRIP
360
D78
  0
DICTIONARY
  5
D69
330
CE0
100
AcDbDictionary
280
     1
281
     1
  3
ACAD_XREC_ROUNDTRIP
360
D6A
  0
DICTIONARY
  5
D6D
330
CE2
100
AcDbDictionary
280
     1
281
     1
  3
ACAD_XREC_ROUNDTRIP
360
D6E
  0
DICTIONARY
  5
D87
330
CEF
100
AcDbDictionary
280
     1
281
     1
  3
ACAD_XREC_ROUNDTRIP
360
D88
  0
DICTIONARY
  5
D75
330
CE6
100
AcDbDictionary
280
     1
281
     1
  3
ACAD_XREC_ROUNDTRIP
360
D76
  0
DICTIONARY
  5
D59
330
CD8
100
AcDbDictionary
280
     1
281
     1
  3
ACAD_XREC_ROUNDTRIP
360
D5A
  0
DICTIONARY
  5
D5B
330
CD9
100
AcDbDictionary
280
     1
281
     1
  3
ACAD_XREC_ROUNDTRIP
360
D5C
  0
DICTIONARY
  5
D5D
330
CDA
100
AcDbDictionary
280
     1
281
     1
  3
ACAD_XREC_ROUNDTRIP
360
D5E
  0
DICTIONARY
  5
D5F
330
CDB
100
AcDbDictionary
280
     1
281
     1
  3
ACAD_XREC_ROUNDTRIP
360
D60
  0
DICTIONARY
  5
D67
330
CDF
100
AcDbDictionary
280
     1
281
     1
  3
ACAD_XREC_ROUNDTRIP
360
D68
  0
DICTIONARY
  5
D83
330
CED
100
AcDbDictionary
280
     1
281
     1
  3
ACAD_XREC_ROUNDTRIP
360
D84
  0
DICTIONARY
  5
D73
330
CE5
100
AcDbDictionary
280
     1
281
     1
  3
ACAD_XREC_ROUNDTRIP
360
D74
  0
DICTIONARY
  5
D85
330
CEE
100
AcDbDictionary
280
     1
281
     1
  3
ACAD_XREC_ROUNDTRIP
360
D86
  0
DICTIONARY
  5
D6B
330
CE1
100
AcDbDictionary
280
     1
281
     1
  3
ACAD_XREC_ROUNDTRIP
360
D6C
  0
DICTIONARY
  5
D81
330
CEC
100
AcDbDictionary
280
     1
281
     1
  3
ACAD_XREC_ROUNDTRIP
360
D82
  0
DICTIONARY
  5
D7F
330
CEB
100
AcDbDictionary
280
     1
281
     1
  3
ACAD_XREC_ROUNDTRIP
360
D80
  0
DICTIONARY
  5
D79
330
CE8
100
AcDbDictionary
280
     1
281
     1
  3
ACAD_XREC_ROUNDTRIP
360
D7A
  0
DICTIONARY
  5
D7B
330
CE9
100
AcDbDictionary
280
     1
281
     1
  3
ACAD_XREC_ROUNDTRIP
360
D7C
  0
DICTIONARY
  5
D71
330
CE4
100
AcDbDictionary
280
     1
281
     1
  3
ACAD_XREC_ROUNDTRIP
360
D72
  0
DICTIONARY
  5
D65
330
CDE
100
AcDbDictionary
280
     1
281
     1
  3
ACAD_XREC_ROUNDTRIP
360
D66
  0
DICTIONARY
  5
D7D
330
CEA
100
AcDbDictionary
280
     1
281
     1
  3
ACAD_XREC_ROUNDTRIP
360
D7E
  0
XRECORD
  5
D8E
102
{ACAD_REACTORS
330
D8D
102
}
330
D8D
100
AcDbXrecord
280
     1
102
DISPLAYNAME
  1
Imperial24
102
FLAGS
 90
        0
  0
XRECORD
  5
D92
102
{ACAD_REACTORS
330
D91
102
}
330
D91
100
AcDbXrecord
280
     1
102
SHADEPLOT
 70
     0
102
SHADEPLOTRESLEVEL
 70
     2
102
SHADEPLOTCUSTOMDPI
 70
   300
  0
XRECORD
  5
D90
102
{ACAD_REACTORS
330
D8F
102
}
330
D8F
100
AcDbXrecord
280
     1
102
SHADEPLOT
 70
     0
102
SHADEPLOTRESLEVEL
 70
     2
102
SHADEPLOTCUSTOMDPI
 70
   300
  0
XRECORD
  5
D57
102
{ACAD_REACTORS
330
CC8
102
}
330
CC8
100
AcDbXrecord
280
     1
102
MATERIAL
148
0.0
149
0.0
149
0.0
 93
        0
 94
      127
282
     0
 72
     0
 77
     0
171
     0
175
     0
179
     0
273
     0
  0
XRECORD
  5
CCA
102
{ACAD_REACTORS
330
CC8
102
}
330
CC8
100
AcDbXrecord
280
     1
270
     1
271
     1
  0
XRECORD
  5
CC9
102
{ACAD_REACTORS
330
CC8
102
}
330
CC8
100
AcDbXrecord
280
     1
270
     1
271
     1
  0
XRECORD
  5
CCD
102
{ACAD_REACTORS
330
CC8
102
}
330
CC8
100
AcDbXrecord
280
     1
270
     1
271
     1
  0
XRECORD
  5
CCC
102
{ACAD_REACTORS
330
CC8
102
}
330
CC8
100
AcDbXrecord
280
     1
270
     1
271
     1
  0
XRECORD
  5
CCE
102
{ACAD_REACTORS
330
CC8
102
}
330
CC8
100
AcDbXrecord
280
     1
270
     1
271
     1
  0
XRECORD
  5
CCB
102
{ACAD_REACTORS
330
CC8
102
}
330
CC8
100
AcDbXrecord
280
     1
270
     1
271
     1
  0
XRECORD
  5
D56
102
{ACAD_REACTORS
330
CC0
102
}
330
CC0
100
AcDbXrecord
280
     1
102
MATERIAL
148
0.0
149
0.0
149
0.0
 93
        0
 94
      127
282
     0
 72
     0
 77
     0
171
     0
175
     0
179
     0
273
     0
  0
XRECORD
  5
CC2
102
{ACAD_REACTORS
330
CC0
102
}
330
CC0
100
AcDbXrecord
280
     1
270
     1
271
     1
  0
XRECORD
  5
CC1
102
{ACAD_REACTORS
330
CC0
102
}
330
CC0
100
AcDbXrecord
280
     1
270
     1
271
     1
  0
XRECORD
  5
CC5
102
{ACAD_REACTORS
330
CC0
102
}
330
CC0
100
AcDbXrecord
280
     1
270
     1
271
     1
  0
XRECORD
  5
CC4
102
{ACAD_REACTORS
330
CC0
102
}
330
CC0
100
AcDbXrecord
280
     1
270
     1
271
     1
  0
XRECORD
  5
CC6
102
{ACAD_REACTORS
330
CC0
102
}
330
CC0
100
AcDbXrecord
280
     1
270
     1
271
     1
  0
XRECORD
  5
CC3
102
{ACAD_REACTORS
330
CC0
102
}
330
CC0
100
AcDbXrecord
280
     1
270
     1
271
     1
  0
XRECORD
  5
D58
102
{ACAD_REACTORS
330
CD0
102
}
330
CD0
100
AcDbXrecord
280
     1
102
MATERIAL
148
0.0
149
0.0
149
0.0
 93
        0
 94
      127
282
     0
 72
     0
 77
     0
171
     0
175
     0
179
     0
273
     0
  0
XRECORD
  5
CD2
102
{ACAD_REACTORS
330
CD0
102
}
330
CD0
100
AcDbXrecord
280
     1
270
     1
271
     1
  0
XRECORD
  5
CD1
102
{ACAD_REACTORS
330
CD0
102
}
330
CD0
100
AcDbXrecord
280
     1
270
     1
271
     1
  0
XRECORD
  5
CD5
102
{ACAD_REACTORS
330
CD0
102
}
330
CD0
100
AcDbXrecord
280
     1
270
     1
271
     1
  0
XRECORD
  5
CD4
102
{ACAD_REACTORS
330
CD0
102
}
330
CD0
100
AcDbXrecord
280
     1
270
     1
271
     1
  0
XRECORD
  5
CD6
102
{ACAD_REACTORS
330
CD0
102
}
330
CD0
100
AcDbXrecord
280
     1
270
     1
271
     1
  0
XRECORD
  5
CD3
102
{ACAD_REACTORS
330
CD0
102
}
330
CD0
100
AcDbXrecord
280
     1
270
     1
271
     1
  0
XRECORD
  5
D8C
102
{ACAD_REACTORS
330
D8B
102
}
330
D8B
100
AcDbXrecord
280
     1
102
DISPLAYNAME
  1
Imperial24
102
FLAGS
 90
        0
  0
CELLSTYLEMAP
  5
D53
102
{ACAD_REACTORS
330
D52
102
}
330
D52
100
AcDbCellStyleMap
 90
        3
300
CELLSTYLE
  1
TABLEFORMAT_BEGIN
 90
        5
170
     1
 91
        0
 92
    32768
 62
   257
 93
        1
300
CONTENTFORMAT
  1
CONTENTFORMAT_BEGIN
 90
        0
 91
        0
 92
      512
 93
        0
300

 40
0.0
140
1.0
 94
        5
 62
     0
340
D03
144
0.25
309
CONTENTFORMAT_END
171
     0
 94
        0
309
TABLEFORMAT_END
  1
CELLSTYLE_BEGIN
 90
        1
 91
        1
300
_TITLE
309
CELLSTYLE_END
300
CELLSTYLE
  1
TABLEFORMAT_BEGIN
 90
        5
170
     1
 91
        0
 92
        0
 62
   257
 93
        1
300
CONTENTFORMAT
  1
CONTENTFORMAT_BEGIN
 90
        0
 91
        0
 92
      512
 93
        0
300

 40
0.0
140
1.0
 94
        5
 62
     0
340
D03
144
0.18
309
CONTENTFORMAT_END
171
     0
 94
        0
309
TABLEFORMAT_END
  1
CELLSTYLE_BEGIN
 90
        2
 91
        1
300
_HEADER
309
CELLSTYLE_END
300
CELLSTYLE
  1
TABLEFORMAT_BEGIN
 90
        5
170
     1
 91
        0
 92
        0
 62
   257
 93
        1
300
CONTENTFORMAT
  1
CONTENTFORMAT_BEGIN
 90
        0
 91
        0
 92
      512
 93
        0
300

 40
0.0
140
1.0
 94
        2
 62
     0
340
D03
144
0.18
309
CONTENTFORMAT_END
171
     0
 94
        0
309
TABLEFORMAT_END
  1
CELLSTYLE_BEGIN
 90
        3
 91
        2
300
_DATA
309
CELLSTYLE_END
  0
XRECORD
  5
D89
102
{ACAD_REACTORS
330
D52
102
}
330
D52
100
AcDbXrecord
280
     1
102
ACAD_ROUNDTRIP_PRE2007_TABLESTYLE
 90
      512
 91
        0
  1

 92
      512
 93
        0
  2

 94
      512
 95
        0
  3

  0
XRECORD
  5
D64
102
{ACAD_REACTORS
330
D63
102
}
330
D63
100
AcDbXrecord
280
     1
102
RTVSPost2010Prop28
280
     1
102
RTVSPost2010PropOp28
 70
     1
102
RTVSPost2010Prop29
280
     1
102
RTVSPost2010PropOp29
 70
     1
102
RTVSPost2010Prop30
280
     0
102
RTVSPost2010PropOp30
 70
     1
102
RTVSPost2010Prop31
280
     0
102
RTVSPost2010PropOp31
 70
     1
102
RTVSPost2010Prop32
280
     0
102
RTVSPost2010PropOp32
 70
     1
102
RTVSPost2010Prop33
280
     0
102
RTVSPost2010PropOp33
 70
     1
102
RTVSPost2010Prop34
280
     0
102
RTVSPost2010PropOp34
 70
     1
102
RTVSPost2010Prop35
280
     0
102
RTVSPost2010PropOp35
 70
     1
102
RTVSPost2010Prop36
280
     0
102
RTVSPost2010PropOp36
 70
     1
102
RTVSPost2010Prop37
 90
       50
102
RTVSPost2010PropOp37
 70
     1
102
RTVSPost2010Prop38
140
0.0
102
RTVSPost2010PropOp38
 70
     1
102
RTVSPost2010Prop39
140
1.0
102
RTVSPost2010PropOp39
 70
     1
102
RTVSPost2010Prop40
 90
        0
102
RTVSPost2010PropOp40
 70
     1
102
RTVSPost2010Prop41ColorIndex
 90
       18
102
RTVSPost2010Prop41ColorRGB
 90
        0
102
RTVSPost2010PropOp41
 70
     1
102
RTVSPost2010Prop42
 90
       50
102
RTVSPost2010PropOp42
 70
     1
102
RTVSPost2010Prop43
 90
        3
102
RTVSPost2010PropOp43
 70
     1
102
RTVSPost2010Prop44ColorIndex
 90
        5
102
RTVSPost2010Prop44ColorRGB
 90
      255
102
RTVSPost2010PropOp44
 70
     1
102
RTVSPost2010Prop45
280
     0
102
RTVSPost2010PropOp45
 70
     1
102
RTVSPost2010Prop46
 90
       50
102
RTVSPost2010PropOp46
 70
     1
102
RTVSPost2010Prop47
 90
       50
102
RTVSPost2010PropOp47
 70
     1
102
RTVSPost2010Prop48
 90
       50
102
RTVSPost2010PropOp48
 70
     1
102
RTVSPost2010Prop49
280
     0
102
RTVSPost2010PropOp49
 70
     1
102
RTVSPost2010Prop50
 90
       50
102
RTVSPost2010PropOp50
 70
     1
102
RTVSPost2010Prop51ColorIndex
 90
      256
102
RTVSPost2010Prop51ColorRGB
 90
-16777216
102
RTVSPost2010PropOp51
 70
     0
102
RTVSPost2010Prop52
140
1.0
102
RTVSPost2010PropOp52
 70
     0
102
RTVSPost2010Prop53
 90
        2
102
RTVSPost2010PropOp53
 70
     1
102
RTVSPost2010Prop54
  1
strokes_ogs.tif
102
RTVSPost2010PropOp54
 70
     1
102
RTVSPost2010Prop55
280
     0
102
RTVSPost2010PropOp55
 70
     1
102
RTVSPost2010Prop56
140
1.0
102
RTVSPost2010PropOp56
 70
     1
102
RTVSPost2010Prop57
140
1.0
102
RTVSPost2010PropOp57
 70
     1
102
RTVSPropertyOp0
 70
     1
102
RTVSPropertyOp1
 70
     1
102
RTVSPropertyOp2
 70
     1
102
RTVSPropertyOp3
 70
     1
102
RTVSPropertyOp4
 70
     1
102
RTVSPropertyOp5
 70
     1
102
RTVSPropertyOp6
 70
     1
102
RTVSPropertyOp7
 70
     1
102
RTVSPropertyOp8
 70
     1
102
RTVSPropertyOp9
 70
     1
102
RTVSPropertyOp10
 70
     1
102
RTVSPropertyOp11
 70
     1
102
RTVSPropertyOp12
 70
     1
102
RTVSPropertyOp13
 70
     1
102
RTVSPropertyOp14
 70
     1
102
RTVSPropertyOp15
 70
     1
102
RTVSPropertyOp16
 70
     1
102
RTVSPropertyOp17
 70
     1
102
RTVSPropertyOp18
 70
     1
102
RTVSPropertyOp19
 70
     1
102
RTVSPropertyOp20
 70
     1
102
RTVSPropertyOp21
 70
     1
102
RTVSPropertyOp22
 70
     1
102
RTVSPropertyOp23
 70
     1
102
RTVSPropertyOp24
 70
     1
102
RTVSPropertyOp25
 70
     1
102
RTVSPropertyOp26
 70
     1
102
RTVSPropertyOp27
 70
     1
102
RTVSPropertyOp28
 70
     1
102
RTVSPropertyOp29
 70
     1
102
RTVSPropertyOp30
 70
     1
102
RTVSPropertyOp31
 70
     1
102
RTVSPropertyOp32
 70
     1
102
RTVSPropertyOp33
 70
     1
102
RTVSPropertyOp34
 70
     1
102
RTVSPropertyOp35
 70
     1
102
RTVSPropertyOp36
 70
     1
102
RTVSPropertyOp37
 70
     1
102
RTVSPropertyOp38
 70
     1
102
RTVSPropertyOp39
 70
     1
102
RTVSPropertyOp40
 70
     1
102
RTVSPropertyOp41
 70
     1
102
RTVSPropertyOp42
 70
     1
102
RTVSPropertyOp43
 70
     1
102
RTVSPropertyOp44
 70
     1
102
RTVSPropertyOp45
 70
     1
102
RTVSPropertyOp46
 70
     1
102
RTVSPropertyOp47
 70
     1
102
RTVSPropertyOp48
 70
     1
102
RTVSPropertyOp49
 70
     1
102
RTVSPropertyOp50
 70
     1
102
RTVSPropertyOp51
 70
     0
102
RTVSPropertyOp52
 70
     0
102
RTVSPropertyOp53
 70
     1
102
RTVSPropertyOp54
 70
     1
102
RTVSPropertyOp55
 70
     1
102
RTVSPropertyOp56
 70
     1
102
RTVSPropertyOp57
 70
     1
102
RTVSPropertyOp58
 70
     1
102
RTVSPropertyOp59
 70
     1
102
RTVSPropertyOp60
 70
     1
102
RTVSPropertyOp61
 70
     1
102
RTVSPropertyOp62
 70
     1
  0
XRECORD
  5
D62
102
{ACAD_REACTORS
330
D61
102
}
330
D61
100
AcDbXrecord
280
     1
102
RTVSPost2010Prop28
280
     0
102
RTVSPost2010PropOp28
 70
     1
102
RTVSPost2010Prop29
280
     1
102
RTVSPost2010PropOp29
 70
     1
102
RTVSPost2010Prop30
280
     1
102
RTVSPost2010PropOp30
 70
     1
102
RTVSPost2010Prop31
280
     0
102
RTVSPost2010PropOp31
 70
     1
102
RTVSPost2010Prop32
280
     0
102
RTVSPost2010PropOp32
 70
     1
102
RTVSPost2010Prop33
280
     0
102
RTVSPost2010PropOp33
 70
     1
102
RTVSPost2010Prop34
280
     0
102
RTVSPost2010PropOp34
 70
     1
102
RTVSPost2010Prop35
280
     0
102
RTVSPost2010PropOp35
 70
     1
102
RTVSPost2010Prop36
280
     0
102
RTVSPost2010PropOp36
 70
     1
102
RTVSPost2010Prop37
 90
       50
102
RTVSPost2010PropOp37
 70
     1
102
RTVSPost2010Prop38
140
0.0
102
RTVSPost2010PropOp38
 70
     1
102
RTVSPost2010Prop39
140
1.0
102
RTVSPost2010PropOp39
 70
     1
102
RTVSPost2010Prop40
 90
        0
102
RTVSPost2010PropOp40
 70
     1
102
RTVSPost2010Prop41ColorIndex
 90
       18
102
RTVSPost2010Prop41ColorRGB
 90
        0
102
RTVSPost2010PropOp41
 70
     1
102
RTVSPost2010Prop42
 90
       50
102
RTVSPost2010PropOp42
 70
     1
102
RTVSPost2010Prop43
 90
        3
102
RTVSPost2010PropOp43
 70
     1
102
RTVSPost2010Prop44ColorIndex
 90
        5
102
RTVSPost2010Prop44ColorRGB
 90
      255
102
RTVSPost2010PropOp44
 70
     1
102
RTVSPost2010Prop45
280
     0
102
RTVSPost2010PropOp45
 70
     1
102
RTVSPost2010Prop46
 90
       50
102
RTVSPost2010PropOp46
 70
     1
102
RTVSPost2010Prop47
 90
       50
102
RTVSPost2010PropOp47
 70
     1
102
RTVSPost2010Prop48
 90
       50
102
RTVSPost2010PropOp48
 70
     1
102
RTVSPost2010Prop49
280
     0
102
RTVSPost2010PropOp49
 70
     1
102
RTVSPost2010Prop50
 90
       50
102
RTVSPost2010PropOp50
 70
     1
102
RTVSPost2010Prop51ColorIndex
 90
      256
102
RTVSPost2010Prop51ColorRGB
 90
-16777216
102
RTVSPost2010PropOp51
 70
     0
102
RTVSPost2010Prop52
140
1.0
102
RTVSPost2010PropOp52
 70
     0
102
RTVSPost2010Prop53
 90
        2
102
RTVSPost2010PropOp53
 70
     1
102
RTVSPost2010Prop54
  1
strokes_ogs.tif
102
RTVSPost2010PropOp54
 70
     1
102
RTVSPost2010Prop55
280
     0
102
RTVSPost2010PropOp55
 70
     1
102
RTVSPost2010Prop56
140
1.0
102
RTVSPost2010PropOp56
 70
     1
102
RTVSPost2010Prop57
140
1.0
102
RTVSPost2010PropOp57
 70
     1
102
RTVSPropertyOp0
 70
     1
102
RTVSPropertyOp1
 70
     1
102
RTVSPropertyOp2
 70
     1
102
RTVSPropertyOp3
 70
     1
102
RTVSPropertyOp4
 70
     1
102
RTVSPropertyOp5
 70
     1
102
RTVSPropertyOp6
 70
     1
102
RTVSPropertyOp7
 70
     1
102
RTVSPropertyOp8
 70
     1
102
RTVSPropertyOp9
 70
     1
102
RTVSPropertyOp10
 70
     1
102
RTVSPropertyOp11
 70
     1
102
RTVSPropertyOp12
 70
     1
102
RTVSPropertyOp13
 70
     1
102
RTVSPropertyOp14
 70
     1
102
RTVSPropertyOp15
 70
     1
102
RTVSPropertyOp16
 70
     1
102
RTVSPropertyOp17
 70
     1
102
RTVSPropertyOp18
 70
     1
102
RTVSPropertyOp19
 70
     1
102
RTVSPropertyOp20
 70
     1
102
RTVSPropertyOp21
 70
     1
102
RTVSPropertyOp22
 70
     1
102
RTVSPropertyOp23
 70
     1
102
RTVSPropertyOp24
 70
     1
102
RTVSPropertyOp25
 70
     1
102
RTVSPropertyOp26
 70
     1
102
RTVSPropertyOp27
 70
     1
102
RTVSPropertyOp28
 70
     1
102
RTVSPropertyOp29
 70
     1
102
RTVSPropertyOp30
 70
     1
102
RTVSPropertyOp31
 70
     1
102
RTVSPropertyOp32
 70
     1
102
RTVSPropertyOp33
 70
     1
102
RTVSPropertyOp34
 70
     1
102
RTVSPropertyOp35
 70
     1
102
RTVSPropertyOp36
 70
     1
102
RTVSPropertyOp37
 70
     1
102
RTVSPropertyOp38
 70
     1
102
RTVSPropertyOp39
 70
     1
102
RTVSPropertyOp40
 70
     1
102
RTVSPropertyOp41
 70
     1
102
RTVSPropertyOp42
 70
     1
102
RTVSPropertyOp43
 70
     1
102
RTVSPropertyOp44
 70
     1
102
RTVSPropertyOp45
 70
     1
102
RTVSPropertyOp46
 70
     1
102
RTVSPropertyOp47
 70
     1
102
RTVSPropertyOp48
 70
     1
102
RTVSPropertyOp49
 70
     1
102
RTVSPropertyOp50
 70
     1
102
RTVSPropertyOp51
 70
     0
102
RTVSPropertyOp52
 70
     0
102
RTVSPropertyOp53
 70
     1
102
RTVSPropertyOp54
 70
     1
102
RTVSPropertyOp55
 70
     1
102
RTVSPropertyOp56
 70
     1
102
RTVSPropertyOp57
 70
     1
102
RTVSPropertyOp58
 70
     1
102
RTVSPropertyOp59
 70
     1
102
RTVSPropertyOp60
 70
     1
102
RTVSPropertyOp61
 70
     1
102
RTVSPropertyOp62
 70
     1
  0
XRECORD
  5
D70
102
{ACAD_REACTORS
330
D6F
102
}
330
D6F
100
AcDbXrecord
280
     1
102
RTVSPost2010Prop28
280
     0
102
RTVSPost2010PropOp28
 70
     1
102
RTVSPost2010Prop29
280
     1
102
RTVSPost2010PropOp29
 70
     1
102
RTVSPost2010Prop30
280
     1
102
RTVSPost2010PropOp30
 70
     1
102
RTVSPost2010Prop31
280
     0
102
RTVSPost2010PropOp31
 70
     1
102
RTVSPost2010Prop32
280
     0
102
RTVSPost2010PropOp32
 70
     1
102
RTVSPost2010Prop33
280
     0
102
RTVSPost2010PropOp33
 70
     1
102
RTVSPost2010Prop34
280
     0
102
RTVSPost2010PropOp34
 70
     1
102
RTVSPost2010Prop35
280
     0
102
RTVSPost2010PropOp35
 70
     1
102
RTVSPost2010Prop36
280
     0
102
RTVSPost2010PropOp36
 70
     1
102
RTVSPost2010Prop37
 90
       50
102
RTVSPost2010PropOp37
 70
     1
102
RTVSPost2010Prop38
140
0.0
102
RTVSPost2010PropOp38
 70
     1
102
RTVSPost2010Prop39
140
1.0
102
RTVSPost2010PropOp39
 70
     1
102
RTVSPost2010Prop40
 90
        0
102
RTVSPost2010PropOp40
 70
     1
102
RTVSPost2010Prop41ColorIndex
 90
       18
102
RTVSPost2010Prop41ColorRGB
 90
        0
102
RTVSPost2010PropOp41
 70
     1
102
RTVSPost2010Prop42
 90
       50
102
RTVSPost2010PropOp42
 70
     1
102
RTVSPost2010Prop43
 90
        3
102
RTVSPost2010PropOp43
 70
     1
102
RTVSPost2010Prop44ColorIndex
 90
        5
102
RTVSPost2010Prop44ColorRGB
 90
      255
102
RTVSPost2010PropOp44
 70
     1
102
RTVSPost2010Prop45
280
     0
102
RTVSPost2010PropOp45
 70
     1
102
RTVSPost2010Prop46
 90
       50
102
RTVSPost2010PropOp46
 70
     1
102
RTVSPost2010Prop47
 90
       50
102
RTVSPost2010PropOp47
 70
     1
102
RTVSPost2010Prop48
 90
       50
102
RTVSPost2010PropOp48
 70
     1
102
RTVSPost2010Prop49
280
     0
102
RTVSPost2010PropOp49
 70
     1
102
RTVSPost2010Prop50
 90
       50
102
RTVSPost2010PropOp50
 70
     1
102
RTVSPost2010Prop51ColorIndex
 90
      256
102
RTVSPost2010Prop51ColorRGB
 90
-16777216
102
RTVSPost2010PropOp51
 70
     0
102
RTVSPost2010Prop52
140
1.0
102
RTVSPost2010PropOp52
 70
     0
102
RTVSPost2010Prop53
 90
        2
102
RTVSPost2010PropOp53
 70
     1
102
RTVSPost2010Prop54
  1
strokes_ogs.tif
102
RTVSPost2010PropOp54
 70
     1
102
RTVSPost2010Prop55
280
     0
102
RTVSPost2010PropOp55
 70
     1
102
RTVSPost2010Prop56
140
1.0
102
RTVSPost2010PropOp56
 70
     1
102
RTVSPost2010Prop57
140
1.0
102
RTVSPost2010PropOp57
 70
     1
102
RTVSPropertyOp0
 70
     1
102
RTVSPropertyOp1
 70
     1
102
RTVSPropertyOp2
 70
     1
102
RTVSPropertyOp3
 70
     1
102
RTVSPropertyOp4
 70
     1
102
RTVSPropertyOp5
 70
     1
102
RTVSPropertyOp6
 70
     1
102
RTVSPropertyOp7
 70
     1
102
RTVSPropertyOp8
 70
     1
102
RTVSPropertyOp9
 70
     1
102
RTVSPropertyOp10
 70
     1
102
RTVSPropertyOp11
 70
     1
102
RTVSPropertyOp12
 70
     1
102
RTVSPropertyOp13
 70
     1
102
RTVSPropertyOp14
 70
     1
102
RTVSPropertyOp15
 70
     1
102
RTVSPropertyOp16
 70
     1
102
RTVSPropertyOp17
 70
     1
102
RTVSPropertyOp18
 70
     1
102
RTVSPropertyOp19
 70
     1
102
RTVSPropertyOp20
 70
     1
102
RTVSPropertyOp21
 70
     1
102
RTVSPropertyOp22
 70
     1
102
RTVSPropertyOp23
 70
     1
102
RTVSPropertyOp24
 70
     1
102
RTVSPropertyOp25
 70
     1
102
RTVSPropertyOp26
 70
     1
102
RTVSPropertyOp27
 70
     1
102
RTVSPropertyOp28
 70
     1
102
RTVSPropertyOp29
 70
     1
102
RTVSPropertyOp30
 70
     1
102
RTVSPropertyOp31
 70
     1
102
RTVSPropertyOp32
 70
     1
102
RTVSPropertyOp33
 70
     1
102
RTVSPropertyOp34
 70
     1
102
RTVSPropertyOp35
 70
     1
102
RTVSPropertyOp36
 70
     1
102
RTVSPropertyOp37
 70
     1
102
RTVSPropertyOp38
 70
     1
102
RTVSPropertyOp39
 70
     1
102
RTVSPropertyOp40
 70
     1
102
RTVSPropertyOp41
 70
     1
102
RTVSPropertyOp42
 70
     1
102
RTVSPropertyOp43
 70
     1
102
RTVSPropertyOp44
 70
     1
102
RTVSPropertyOp45
 70
     1
102
RTVSPropertyOp46
 70
     1
102
RTVSPropertyOp47
 70
     1
102
RTVSPropertyOp48
 70
     1
102
RTVSPropertyOp49
 70
     1
102
RTVSPropertyOp50
 70
     1
102
RTVSPropertyOp51
 70
     0
102
RTVSPropertyOp52
 70
     0
102
RTVSPropertyOp53
 70
     1
102
RTVSPropertyOp54
 70
     1
102
RTVSPropertyOp55
 70
     1
102
RTVSPropertyOp56
 70
     1
102
RTVSPropertyOp57
 70
     1
102
RTVSPropertyOp58
 70
     1
102
RTVSPropertyOp59
 70
     1
102
RTVSPropertyOp60
 70
     1
102
RTVSPropertyOp61
 70
     1
102
RTVSPropertyOp62
 70
     1
  0
XRECORD
  5
D78
102
{ACAD_REACTORS
330
D77
102
}
330
D77
100
AcDbXrecord
280
     1
102
RTVSPost2010Prop28
280
     0
102
RTVSPost2010PropOp28
 70
     1
102
RTVSPost2010Prop29
280
     1
102
RTVSPost2010PropOp29
 70
     1
102
RTVSPost2010Prop30
280
     1
102
RTVSPost2010PropOp30
 70
     1
102
RTVSPost2010Prop31
280
     0
102
RTVSPost2010PropOp31
 70
     1
102
RTVSPost2010Prop32
280
     0
102
RTVSPost2010PropOp32
 70
     1
102
RTVSPost2010Prop33
280
     0
102
RTVSPost2010PropOp33
 70
     1
102
RTVSPost2010Prop34
280
     0
102
RTVSPost2010PropOp34
 70
     1
102
RTVSPost2010Prop35
280
     0
102
RTVSPost2010PropOp35
 70
     1
102
RTVSPost2010Prop36
280
     0
102
RTVSPost2010PropOp36
 70
     1
102
RTVSPost2010Prop37
 90
       50
102
RTVSPost2010PropOp37
 70
     1
102
RTVSPost2010Prop38
140
0.0
102
RTVSPost2010PropOp38
 70
     1
102
RTVSPost2010Prop39
140
1.0
102
RTVSPost2010PropOp39
 70
     1
102
RTVSPost2010Prop40
 90
        0
102
RTVSPost2010PropOp40
 70
     1
102
RTVSPost2010Prop41ColorIndex
 90
       18
102
RTVSPost2010Prop41ColorRGB
 90
        0
102
RTVSPost2010PropOp41
 70
     1
102
RTVSPost2010Prop42
 90
       50
102
RTVSPost2010PropOp42
 70
     1
102
RTVSPost2010Prop43
 90
        3
102
RTVSPost2010PropOp43
 70
     1
102
RTVSPost2010Prop44ColorIndex
 90
        5
102
RTVSPost2010Prop44ColorRGB
 90
      255
102
RTVSPost2010PropOp44
 70
     1
102
RTVSPost2010Prop45
280
     0
102
RTVSPost2010PropOp45
 70
     1
102
RTVSPost2010Prop46
 90
       50
102
RTVSPost2010PropOp46
 70
     1
102
RTVSPost2010Prop47
 90
       50
102
RTVSPost2010PropOp47
 70
     1
102
RTVSPost2010Prop48
 90
       50
102
RTVSPost2010PropOp48
 70
     1
102
RTVSPost2010Prop49
280
     0
102
RTVSPost2010PropOp49
 70
     1
102
RTVSPost2010Prop50
 90
       50
102
RTVSPost2010PropOp50
 70
     1
102
RTVSPost2010Prop51ColorIndex
 90
      256
102
RTVSPost2010Prop51ColorRGB
 90
-16777216
102
RTVSPost2010PropOp51
 70
     0
102
RTVSPost2010Prop52
140
1.0
102
RTVSPost2010PropOp52
 70
     0
102
RTVSPost2010Prop53
 90
        2
102
RTVSPost2010PropOp53
 70
     1
102
RTVSPost2010Prop54
  1
strokes_ogs.tif
102
RTVSPost2010PropOp54
 70
     1
102
RTVSPost2010Prop55
280
     0
102
RTVSPost2010PropOp55
 70
     1
102
RTVSPost2010Prop56
140
1.0
102
RTVSPost2010PropOp56
 70
     1
102
RTVSPost2010Prop57
140
1.0
102
RTVSPost2010PropOp57
 70
     1
102
RTVSPropertyOp0
 70
     1
102
RTVSPropertyOp1
 70
     1
102
RTVSPropertyOp2
 70
     1
102
RTVSPropertyOp3
 70
     1
102
RTVSPropertyOp4
 70
     1
102
RTVSPropertyOp5
 70
     1
102
RTVSPropertyOp6
 70
     1
102
RTVSPropertyOp7
 70
     1
102
RTVSPropertyOp8
 70
     1
102
RTVSPropertyOp9
 70
     1
102
RTVSPropertyOp10
 70
     1
102
RTVSPropertyOp11
 70
     1
102
RTVSPropertyOp12
 70
     1
102
RTVSPropertyOp13
 70
     1
102
RTVSPropertyOp14
 70
     1
102
RTVSPropertyOp15
 70
     1
102
RTVSPropertyOp16
 70
     1
102
RTVSPropertyOp17
 70
     1
102
RTVSPropertyOp18
 70
     1
102
RTVSPropertyOp19
 70
     1
102
RTVSPropertyOp20
 70
     1
102
RTVSPropertyOp21
 70
     1
102
RTVSPropertyOp22
 70
     1
102
RTVSPropertyOp23
 70
     1
102
RTVSPropertyOp24
 70
     1
102
RTVSPropertyOp25
 70
     1
102
RTVSPropertyOp26
 70
     1
102
RTVSPropertyOp27
 70
     1
102
RTVSPropertyOp28
 70
     1
102
RTVSPropertyOp29
 70
     1
102
RTVSPropertyOp30
 70
     1
102
RTVSPropertyOp31
 70
     1
102
RTVSPropertyOp32
 70
     1
102
RTVSPropertyOp33
 70
     1
102
RTVSPropertyOp34
 70
     1
102
RTVSPropertyOp35
 70
     1
102
RTVSPropertyOp36
 70
     1
102
RTVSPropertyOp37
 70
     1
102
RTVSPropertyOp38
 70
     1
102
RTVSPropertyOp39
 70
     1
102
RTVSPropertyOp40
 70
     1
102
RTVSPropertyOp41
 70
     1
102
RTVSPropertyOp42
 70
     1
102
RTVSPropertyOp43
 70
     1
102
RTVSPropertyOp44
 70
     1
102
RTVSPropertyOp45
 70
     1
102
RTVSPropertyOp46
 70
     1
102
RTVSPropertyOp47
 70
     1
102
RTVSPropertyOp48
 70
     1
102
RTVSPropertyOp49
 70
     1
102
RTVSPropertyOp50
 70
     1
102
RTVSPropertyOp51
 70
     0
102
RTVSPropertyOp52
 70
     0
102
RTVSPropertyOp53
 70
     1
102
RTVSPropertyOp54
 70
     1
102
RTVSPropertyOp55
 70
     1
102
RTVSPropertyOp56
 70
     1
102
RTVSPropertyOp57
 70
     1
102
RTVSPropertyOp58
 70
     1
102
RTVSPropertyOp59
 70
     1
102
RTVSPropertyOp60
 70
     1
102
RTVSPropertyOp61
 70
     1
102
RTVSPropertyOp62
 70
     1
  0
XRECORD
  5
D6A
102
{ACAD_REACTORS
330
D69
102
}
330
D69
100
AcDbXrecord
280
     1
102
RTVSPost2010Prop28
280
     0
102
RTVSPost2010PropOp28
 70
     1
102
RTVSPost2010Prop29
280
     1
102
RTVSPost2010PropOp29
 70
     1
102
RTVSPost2010Prop30
280
     1
102
RTVSPost2010PropOp30
 70
     1
102
RTVSPost2010Prop31
280
     0
102
RTVSPost2010PropOp31
 70
     1
102
RTVSPost2010Prop32
280
     0
102
RTVSPost2010PropOp32
 70
     1
102
RTVSPost2010Prop33
280
     0
102
RTVSPost2010PropOp33
 70
     1
102
RTVSPost2010Prop34
280
     0
102
RTVSPost2010PropOp34
 70
     1
102
RTVSPost2010Prop35
280
     0
102
RTVSPost2010PropOp35
 70
     1
102
RTVSPost2010Prop36
280
     0
102
RTVSPost2010PropOp36
 70
     1
102
RTVSPost2010Prop37
 90
       50
102
RTVSPost2010PropOp37
 70
     1
102
RTVSPost2010Prop38
140
0.0
102
RTVSPost2010PropOp38
 70
     1
102
RTVSPost2010Prop39
140
1.0
102
RTVSPost2010PropOp39
 70
     1
102
RTVSPost2010Prop40
 90
        0
102
RTVSPost2010PropOp40
 70
     1
102
RTVSPost2010Prop41ColorIndex
 90
       18
102
RTVSPost2010Prop41ColorRGB
 90
        0
102
RTVSPost2010PropOp41
 70
     1
102
RTVSPost2010Prop42
 90
       50
102
RTVSPost2010PropOp42
 70
     1
102
RTVSPost2010Prop43
 90
        3
102
RTVSPost2010PropOp43
 70
     1
102
RTVSPost2010Prop44ColorIndex
 90
        5
102
RTVSPost2010Prop44ColorRGB
 90
      255
102
RTVSPost2010PropOp44
 70
     1
102
RTVSPost2010Prop45
280
     0
102
RTVSPost2010PropOp45
 70
     1
102
RTVSPost2010Prop46
 90
       50
102
RTVSPost2010PropOp46
 70
     1
102
RTVSPost2010Prop47
 90
       50
102
RTVSPost2010PropOp47
 70
     1
102
RTVSPost2010Prop48
 90
       50
102
RTVSPost2010PropOp48
 70
     1
102
RTVSPost2010Prop49
280
     0
102
RTVSPost2010PropOp49
 70
     1
102
RTVSPost2010Prop50
 90
       50
102
RTVSPost2010PropOp50
 70
     1
102
RTVSPost2010Prop51ColorIndex
 90
      256
102
RTVSPost2010Prop51ColorRGB
 90
-16777216
102
RTVSPost2010PropOp51
 70
     0
102
RTVSPost2010Prop52
140
1.0
102
RTVSPost2010PropOp52
 70
     0
102
RTVSPost2010Prop53
 90
        2
102
RTVSPost2010PropOp53
 70
     1
102
RTVSPost2010Prop54
  1
strokes_ogs.tif
102
RTVSPost2010PropOp54
 70
     1
102
RTVSPost2010Prop55
280
     0
102
RTVSPost2010PropOp55
 70
     1
102
RTVSPost2010Prop56
140
1.0
102
RTVSPost2010PropOp56
 70
     1
102
RTVSPost2010Prop57
140
1.0
102
RTVSPost2010PropOp57
 70
     1
102
RTVSPropertyOp0
 70
     1
102
RTVSPropertyOp1
 70
     1
102
RTVSPropertyOp2
 70
     1
102
RTVSPropertyOp3
 70
     1
102
RTVSPropertyOp4
 70
     1
102
RTVSPropertyOp5
 70
     1
102
RTVSPropertyOp6
 70
     1
102
RTVSPropertyOp7
 70
     1
102
RTVSPropertyOp8
 70
     1
102
RTVSPropertyOp9
 70
     1
102
RTVSPropertyOp10
 70
     1
102
RTVSPropertyOp11
 70
     1
102
RTVSPropertyOp12
 70
     1
102
RTVSPropertyOp13
 70
     1
102
RTVSPropertyOp14
 70
     1
102
RTVSPropertyOp15
 70
     1
102
RTVSPropertyOp16
 70
     1
102
RTVSPropertyOp17
 70
     1
102
RTVSPropertyOp18
 70
     1
102
RTVSPropertyOp19
 70
     1
102
RTVSPropertyOp20
 70
     1
102
RTVSPropertyOp21
 70
     1
102
RTVSPropertyOp22
 70
     1
102
RTVSPropertyOp23
 70
     1
102
RTVSPropertyOp24
 70
     1
102
RTVSPropertyOp25
 70
     1
102
RTVSPropertyOp26
 70
     1
102
RTVSPropertyOp27
 70
     1
102
RTVSPropertyOp28
 70
     1
102
RTVSPropertyOp29
 70
     1
102
RTVSPropertyOp30
 70
     1
102
RTVSPropertyOp31
 70
     1
102
RTVSPropertyOp32
 70
     1
102
RTVSPropertyOp33
 70
     1
102
RTVSPropertyOp34
 70
     1
102
RTVSPropertyOp35
 70
     1
102
RTVSPropertyOp36
 70
     1
102
RTVSPropertyOp37
 70
     1
102
RTVSPropertyOp38
 70
     1
102
RTVSPropertyOp39
 70
     1
102
RTVSPropertyOp40
 70
     1
102
RTVSPropertyOp41
 70
     1
102
RTVSPropertyOp42
 70
     1
102
RTVSPropertyOp43
 70
     1
102
RTVSPropertyOp44
 70
     1
102
RTVSPropertyOp45
 70
     1
102
RTVSPropertyOp46
 70
     1
102
RTVSPropertyOp47
 70
     1
102
RTVSPropertyOp48
 70
     1
102
RTVSPropertyOp49
 70
     1
102
RTVSPropertyOp50
 70
     1
102
RTVSPropertyOp51
 70
     0
102
RTVSPropertyOp52
 70
     0
102
RTVSPropertyOp53
 70
     1
102
RTVSPropertyOp54
 70
     1
102
RTVSPropertyOp55
 70
     1
102
RTVSPropertyOp56
 70
     1
102
RTVSPropertyOp57
 70
     1
102
RTVSPropertyOp58
 70
     1
102
RTVSPropertyOp59
 70
     1
102
RTVSPropertyOp60
 70
     1
102
RTVSPropertyOp61
 70
     1
102
RTVSPropertyOp62
 70
     1
  0
XRECORD
  5
D6E
102
{ACAD_REACTORS
330
D6D
102
}
330
D6D
100
AcDbXrecord
280
     1
102
RTVSPost2010Prop28
280
     0
102
RTVSPost2010PropOp28
 70
     1
102
RTVSPost2010Prop29
280
     1
102
RTVSPost2010PropOp29
 70
     1
102
RTVSPost2010Prop30
280
     1
102
RTVSPost2010PropOp30
 70
     1
102
RTVSPost2010Prop31
280
     0
102
RTVSPost2010PropOp31
 70
     1
102
RTVSPost2010Prop32
280
     0
102
RTVSPost2010PropOp32
 70
     1
102
RTVSPost2010Prop33
280
     0
102
RTVSPost2010PropOp33
 70
     1
102
RTVSPost2010Prop34
280
     0
102
RTVSPost2010PropOp34
 70
     1
102
RTVSPost2010Prop35
280
     0
102
RTVSPost2010PropOp35
 70
     1
102
RTVSPost2010Prop36
280
     0
102
RTVSPost2010PropOp36
 70
     1
102
RTVSPost2010Prop37
 90
       50
102
RTVSPost2010PropOp37
 70
     1
102
RTVSPost2010Prop38
140
0.0
102
RTVSPost2010PropOp38
 70
     1
102
RTVSPost2010Prop39
140
1.0
102
RTVSPost2010PropOp39
 70
     1
102
RTVSPost2010Prop40
 90
        0
102
RTVSPost2010PropOp40
 70
     1
102
RTVSPost2010Prop41ColorIndex
 90
       18
102
RTVSPost2010Prop41ColorRGB
 90
        0
102
RTVSPost2010PropOp41
 70
     1
102
RTVSPost2010Prop42
 90
       50
102
RTVSPost2010PropOp42
 70
     1
102
RTVSPost2010Prop43
 90
        3
102
RTVSPost2010PropOp43
 70
     1
102
RTVSPost2010Prop44ColorIndex
 90
        5
102
RTVSPost2010Prop44ColorRGB
 90
      255
102
RTVSPost2010PropOp44
 70
     1
102
RTVSPost2010Prop45
280
     0
102
RTVSPost2010PropOp45
 70
     1
102
RTVSPost2010Prop46
 90
       50
102
RTVSPost2010PropOp46
 70
     1
102
RTVSPost2010Prop47
 90
       50
102
RTVSPost2010PropOp47
 70
     1
102
RTVSPost2010Prop48
 90
       50
102
RTVSPost2010PropOp48
 70
     1
102
RTVSPost2010Prop49
280
     0
102
RTVSPost2010PropOp49
 70
     1
102
RTVSPost2010Prop50
 90
       50
102
RTVSPost2010PropOp50
 70
     1
102
RTVSPost2010Prop51ColorIndex
 90
      256
102
RTVSPost2010Prop51ColorRGB
 90
-16777216
102
RTVSPost2010PropOp51
 70
     0
102
RTVSPost2010Prop52
140
1.0
102
RTVSPost2010PropOp52
 70
     0
102
RTVSPost2010Prop53
 90
        2
102
RTVSPost2010PropOp53
 70
     1
102
RTVSPost2010Prop54
  1
strokes_ogs.tif
102
RTVSPost2010PropOp54
 70
     1
102
RTVSPost2010Prop55
280
     0
102
RTVSPost2010PropOp55
 70
     1
102
RTVSPost2010Prop56
140
1.0
102
RTVSPost2010PropOp56
 70
     1
102
RTVSPost2010Prop57
140
1.0
102
RTVSPost2010PropOp57
 70
     1
102
RTVSPropertyOp0
 70
     1
102
RTVSPropertyOp1
 70
     1
102
RTVSPropertyOp2
 70
     1
102
RTVSPropertyOp3
 70
     1
102
RTVSPropertyOp4
 70
     1
102
RTVSPropertyOp5
 70
     1
102
RTVSPropertyOp6
 70
     1
102
RTVSPropertyOp7
 70
     1
102
RTVSPropertyOp8
 70
     1
102
RTVSPropertyOp9
 70
     1
102
RTVSPropertyOp10
 70
     1
102
RTVSPropertyOp11
 70
     1
102
RTVSPropertyOp12
 70
     1
102
RTVSPropertyOp13
 70
     1
102
RTVSPropertyOp14
 70
     1
102
RTVSPropertyOp15
 70
     1
102
RTVSPropertyOp16
 70
     1
102
RTVSPropertyOp17
 70
     1
102
RTVSPropertyOp18
 70
     1
102
RTVSPropertyOp19
 70
     1
102
RTVSPropertyOp20
 70
     1
102
RTVSPropertyOp21
 70
     1
102
RTVSPropertyOp22
 70
     1
102
RTVSPropertyOp23
 70
     1
102
RTVSPropertyOp24
 70
     1
102
RTVSPropertyOp25
 70
     1
102
RTVSPropertyOp26
 70
     1
102
RTVSPropertyOp27
 70
     1
102
RTVSPropertyOp28
 70
     1
102
RTVSPropertyOp29
 70
     1
102
RTVSPropertyOp30
 70
     1
102
RTVSPropertyOp31
 70
     1
102
RTVSPropertyOp32
 70
     1
102
RTVSPropertyOp33
 70
     1
102
RTVSPropertyOp34
 70
     1
102
RTVSPropertyOp35
 70
     1
102
RTVSPropertyOp36
 70
     1
102
RTVSPropertyOp37
 70
     1
102
RTVSPropertyOp38
 70
     1
102
RTVSPropertyOp39
 70
     1
102
RTVSPropertyOp40
 70
     1
102
RTVSPropertyOp41
 70
     1
102
RTVSPropertyOp42
 70
     1
102
RTVSPropertyOp43
 70
     1
102
RTVSPropertyOp44
 70
     1
102
RTVSPropertyOp45
 70
     1
102
RTVSPropertyOp46
 70
     1
102
RTVSPropertyOp47
 70
     1
102
RTVSPropertyOp48
 70
     1
102
RTVSPropertyOp49
 70
     1
102
RTVSPropertyOp50
 70
     1
102
RTVSPropertyOp51
 70
     0
102
RTVSPropertyOp52
 70
     0
102
RTVSPropertyOp53
 70
     1
102
RTVSPropertyOp54
 70
     1
102
RTVSPropertyOp55
 70
     1
102
RTVSPropertyOp56
 70
     1
102
RTVSPropertyOp57
 70
     1
102
RTVSPropertyOp58
 70
     1
102
RTVSPropertyOp59
 70
     1
102
RTVSPropertyOp60
 70
     1
102
RTVSPropertyOp61
 70
     1
102
RTVSPropertyOp62
 70
     1
  0
XRECORD
  5
D88
102
{ACAD_REACTORS
330
D87
102
}
330
D87
100
AcDbXrecord
280
     1
102
RTVSPost2010Prop28
280
     0
102
RTVSPost2010PropOp28
 70
     1
102
RTVSPost2010Prop29
280
     1
102
RTVSPost2010PropOp29
 70
     1
102
RTVSPost2010Prop30
280
     1
102
RTVSPost2010PropOp30
 70
     1
102
RTVSPost2010Prop31
280
     0
102
RTVSPost2010PropOp31
 70
     1
102
RTVSPost2010Prop32
280
     0
102
RTVSPost2010PropOp32
 70
     1
102
RTVSPost2010Prop33
280
     0
102
RTVSPost2010PropOp33
 70
     1
102
RTVSPost2010Prop34
280
     0
102
RTVSPost2010PropOp34
 70
     1
102
RTVSPost2010Prop35
280
     0
102
RTVSPost2010PropOp35
 70
     1
102
RTVSPost2010Prop36
280
     0
102
RTVSPost2010PropOp36
 70
     1
102
RTVSPost2010Prop37
 90
       50
102
RTVSPost2010PropOp37
 70
     0
102
RTVSPost2010Prop38
140
0.0
102
RTVSPost2010PropOp38
 70
     0
102
RTVSPost2010Prop39
140
1.0
102
RTVSPost2010PropOp39
 70
     0
102
RTVSPost2010Prop40
 90
        0
102
RTVSPost2010PropOp40
 70
     0
102
RTVSPost2010Prop41ColorIndex
 90
       18
102
RTVSPost2010Prop41ColorRGB
 90
        0
102
RTVSPost2010PropOp41
 70
     0
102
RTVSPost2010Prop42
 90
       50
102
RTVSPost2010PropOp42
 70
     0
102
RTVSPost2010Prop43
 90
        3
102
RTVSPost2010PropOp43
 70
     0
102
RTVSPost2010Prop44ColorIndex
 90
        5
102
RTVSPost2010Prop44ColorRGB
 90
      255
102
RTVSPost2010PropOp44
 70
     0
102
RTVSPost2010Prop45
280
     0
102
RTVSPost2010PropOp45
 70
     1
102
RTVSPost2010Prop46
 90
       50
102
RTVSPost2010PropOp46
 70
     0
102
RTVSPost2010Prop47
 90
       50
102
RTVSPost2010PropOp47
 70
     0
102
RTVSPost2010Prop48
 90
       50
102
RTVSPost2010PropOp48
 70
     0
102
RTVSPost2010Prop49
280
     0
102
RTVSPost2010PropOp49
 70
     1
102
RTVSPost2010Prop50
 90
       50
102
RTVSPost2010PropOp50
 70
     0
102
RTVSPost2010Prop51ColorIndex
 90
      256
102
RTVSPost2010Prop51ColorRGB
 90
-16777216
102
RTVSPost2010PropOp51
 70
     0
102
RTVSPost2010Prop52
140
1.0
102
RTVSPost2010PropOp52
 70
     0
102
RTVSPost2010Prop53
 90
        2
102
RTVSPost2010PropOp53
 70
     0
102
RTVSPost2010Prop54
  1
strokes_ogs.tif
102
RTVSPost2010PropOp54
 70
     0
102
RTVSPost2010Prop55
280
     0
102
RTVSPost2010PropOp55
 70
     1
102
RTVSPost2010Prop56
140
1.0
102
RTVSPost2010PropOp56
 70
     0
102
RTVSPost2010Prop57
140
1.0
102
RTVSPost2010PropOp57
 70
     0
102
RTVSPropertyOp0
 70
     0
102
RTVSPropertyOp1
 70
     0
102
RTVSPropertyOp2
 70
     0
102
RTVSPropertyOp3
 70
     0
102
RTVSPropertyOp4
 70
     0
102
RTVSPropertyOp5
 70
     0
102
RTVSPropertyOp6
 70
     0
102
RTVSPropertyOp7
 70
     0
102
RTVSPropertyOp8
 70
     0
102
RTVSPropertyOp9
 70
     0
102
RTVSPropertyOp10
 70
     0
102
RTVSPropertyOp11
 70
     0
102
RTVSPropertyOp12
 70
     0
102
RTVSPropertyOp13
 70
     0
102
RTVSPropertyOp14
 70
     2
102
RTVSPropertyOp15
 70
     0
102
RTVSPropertyOp16
 70
     0
102
RTVSPropertyOp17
 70
     0
102
RTVSPropertyOp18
 70
     0
102
RTVSPropertyOp19
 70
     0
102
RTVSPropertyOp20
 70
     0
102
RTVSPropertyOp21
 70
     0
102
RTVSPropertyOp22
 70
     0
102
RTVSPropertyOp23
 70
     0
102
RTVSPropertyOp24
 70
     0
102
RTVSPropertyOp25
 70
     0
102
RTVSPropertyOp26
 70
     0
102
RTVSPropertyOp27
 70
     0
102
RTVSPropertyOp28
 70
     1
102
RTVSPropertyOp29
 70
     1
102
RTVSPropertyOp30
 70
     1
102
RTVSPropertyOp31
 70
     1
102
RTVSPropertyOp32
 70
     1
102
RTVSPropertyOp33
 70
     1
102
RTVSPropertyOp34
 70
     1
102
RTVSPropertyOp35
 70
     1
102
RTVSPropertyOp36
 70
     1
102
RTVSPropertyOp37
 70
     0
102
RTVSPropertyOp38
 70
     0
102
RTVSPropertyOp39
 70
     0
102
RTVSPropertyOp40
 70
     0
102
RTVSPropertyOp41
 70
     0
102
RTVSPropertyOp42
 70
     0
102
RTVSPropertyOp43
 70
     0
102
RTVSPropertyOp44
 70
     0
102
RTVSPropertyOp45
 70
     1
102
RTVSPropertyOp46
 70
     0
102
RTVSPropertyOp47
 70
     0
102
RTVSPropertyOp48
 70
     0
102
RTVSPropertyOp49
 70
     1
102
RTVSPropertyOp50
 70
     0
102
RTVSPropertyOp51
 70
     0
102
RTVSPropertyOp52
 70
     0
102
RTVSPropertyOp53
 70
     0
102
RTVSPropertyOp54
 70
     0
102
RTVSPropertyOp55
 70
     1
102
RTVSPropertyOp56
 70
     0
102
RTVSPropertyOp57
 70
     0
102
RTVSPropertyOp58
 70
     0
102
RTVSPropertyOp59
 70
     0
102
RTVSPropertyOp60
 70
     0
102
RTVSPropertyOp61
 70
     0
102
RTVSPropertyOp62
 70
     0
  0
XRECORD
  5
D76
102
{ACAD_REACTORS
330
D75
102
}
330
D75
100
AcDbXrecord
280
     1
102
RTVSPost2010Prop28
280
     0
102
RTVSPost2010PropOp28
 70
     1
102
RTVSPost2010Prop29
280
     1
102
RTVSPost2010PropOp29
 70
     1
102
RTVSPost2010Prop30
280
     1
102
RTVSPost2010PropOp30
 70
     1
102
RTVSPost2010Prop31
280
     0
102
RTVSPost2010PropOp31
 70
     1
102
RTVSPost2010Prop32
280
     0
102
RTVSPost2010PropOp32
 70
     1
102
RTVSPost2010Prop33
280
     0
102
RTVSPost2010PropOp33
 70
     1
102
RTVSPost2010Prop34
280
     0
102
RTVSPost2010PropOp34
 70
     1
102
RTVSPost2010Prop35
280
     0
102
RTVSPost2010PropOp35
 70
     1
102
RTVSPost2010Prop36
280
     0
102
RTVSPost2010PropOp36
 70
     1
102
RTVSPost2010Prop37
 90
       50
102
RTVSPost2010PropOp37
 70
     1
102
RTVSPost2010Prop38
140
0.0
102
RTVSPost2010PropOp38
 70
     1
102
RTVSPost2010Prop39
140
1.0
102
RTVSPost2010PropOp39
 70
     1
102
RTVSPost2010Prop40
 90
        0
102
RTVSPost2010PropOp40
 70
     1
102
RTVSPost2010Prop41ColorIndex
 90
       18
102
RTVSPost2010Prop41ColorRGB
 90
        0
102
RTVSPost2010PropOp41
 70
     1
102
RTVSPost2010Prop42
 90
       50
102
RTVSPost2010PropOp42
 70
     1
102
RTVSPost2010Prop43
 90
        3
102
RTVSPost2010PropOp43
 70
     1
102
RTVSPost2010Prop44ColorIndex
 90
        5
102
RTVSPost2010Prop44ColorRGB
 90
      255
102
RTVSPost2010PropOp44
 70
     1
102
RTVSPost2010Prop45
280
     0
102
RTVSPost2010PropOp45
 70
     1
102
RTVSPost2010Prop46
 90
       50
102
RTVSPost2010PropOp46
 70
     1
102
RTVSPost2010Prop47
 90
       50
102
RTVSPost2010PropOp47
 70
     1
102
RTVSPost2010Prop48
 90
       50
102
RTVSPost2010PropOp48
 70
     1
102
RTVSPost2010Prop49
280
     0
102
RTVSPost2010PropOp49
 70
     1
102
RTVSPost2010Prop50
 90
       50
102
RTVSPost2010PropOp50
 70
     1
102
RTVSPost2010Prop51ColorIndex
 90
      256
102
RTVSPost2010Prop51ColorRGB
 90
-16777216
102
RTVSPost2010PropOp51
 70
     0
102
RTVSPost2010Prop52
140
1.0
102
RTVSPost2010PropOp52
 70
     0
102
RTVSPost2010Prop53
 90
        2
102
RTVSPost2010PropOp53
 70
     1
102
RTVSPost2010Prop54
  1
strokes_ogs.tif
102
RTVSPost2010PropOp54
 70
     1
102
RTVSPost2010Prop55
280
     0
102
RTVSPost2010PropOp55
 70
     1
102
RTVSPost2010Prop56
140
1.0
102
RTVSPost2010PropOp56
 70
     1
102
RTVSPost2010Prop57
140
1.0
102
RTVSPost2010PropOp57
 70
     1
102
RTVSPropertyOp0
 70
     1
102
RTVSPropertyOp1
 70
     1
102
RTVSPropertyOp2
 70
     1
102
RTVSPropertyOp3
 70
     1
102
RTVSPropertyOp4
 70
     1
102
RTVSPropertyOp5
 70
     1
102
RTVSPropertyOp6
 70
     1
102
RTVSPropertyOp7
 70
     1
102
RTVSPropertyOp8
 70
     1
102
RTVSPropertyOp9
 70
     1
102
RTVSPropertyOp10
 70
     1
102
RTVSPropertyOp11
 70
     1
102
RTVSPropertyOp12
 70
     1
102
RTVSPropertyOp13
 70
     1
102
RTVSPropertyOp14
 70
     1
102
RTVSPropertyOp15
 70
     1
102
RTVSPropertyOp16
 70
     1
102
RTVSPropertyOp17
 70
     1
102
RTVSPropertyOp18
 70
     1
102
RTVSPropertyOp19
 70
     1
102
RTVSPropertyOp20
 70
     1
102
RTVSPropertyOp21
 70
     1
102
RTVSPropertyOp22
 70
     1
102
RTVSPropertyOp23
 70
     1
102
RTVSPropertyOp24
 70
     1
102
RTVSPropertyOp25
 70
     1
102
RTVSPropertyOp26
 70
     1
102
RTVSPropertyOp27
 70
     1
102
RTVSPropertyOp28
 70
     1
102
RTVSPropertyOp29
 70
     1
102
RTVSPropertyOp30
 70
     1
102
RTVSPropertyOp31
 70
     1
102
RTVSPropertyOp32
 70
     1
102
RTVSPropertyOp33
 70
     1
102
RTVSPropertyOp34
 70
     1
102
RTVSPropertyOp35
 70
     1
102
RTVSPropertyOp36
 70
     1
102
RTVSPropertyOp37
 70
     1
102
RTVSPropertyOp38
 70
     1
102
RTVSPropertyOp39
 70
     1
102
RTVSPropertyOp40
 70
     1
102
RTVSPropertyOp41
 70
     1
102
RTVSPropertyOp42
 70
     1
102
RTVSPropertyOp43
 70
     1
102
RTVSPropertyOp44
 70
     1
102
RTVSPropertyOp45
 70
     1
102
RTVSPropertyOp46
 70
     1
102
RTVSPropertyOp47
 70
     1
102
RTVSPropertyOp48
 70
     1
102
RTVSPropertyOp49
 70
     1
102
RTVSPropertyOp50
 70
     1
102
RTVSPropertyOp51
 70
     0
102
RTVSPropertyOp52
 70
     0
102
RTVSPropertyOp53
 70
     1
102
RTVSPropertyOp54
 70
     1
102
RTVSPropertyOp55
 70
     1
102
RTVSPropertyOp56
 70
     1
102
RTVSPropertyOp57
 70
     1
102
RTVSPropertyOp58
 70
     1
102
RTVSPropertyOp59
 70
     1
102
RTVSPropertyOp60
 70
     1
102
RTVSPropertyOp61
 70
     1
102
RTVSPropertyOp62
 70
     1
  0
XRECORD
  5
D5A
102
{ACAD_REACTORS
330
D59
102
}
330
D59
100
AcDbXrecord
280
     1
102
RTVSPost2010Prop28
280
     0
102
RTVSPost2010PropOp28
 70
     1
102
RTVSPost2010Prop29
280
     1
102
RTVSPost2010PropOp29
 70
     1
102
RTVSPost2010Prop30
280
     1
102
RTVSPost2010PropOp30
 70
     1
102
RTVSPost2010Prop31
280
     0
102
RTVSPost2010PropOp31
 70
     1
102
RTVSPost2010Prop32
280
     0
102
RTVSPost2010PropOp32
 70
     1
102
RTVSPost2010Prop33
280
     0
102
RTVSPost2010PropOp33
 70
     1
102
RTVSPost2010Prop34
280
     0
102
RTVSPost2010PropOp34
 70
     1
102
RTVSPost2010Prop35
280
     0
102
RTVSPost2010PropOp35
 70
     1
102
RTVSPost2010Prop36
280
     0
102
RTVSPost2010PropOp36
 70
     1
102
RTVSPost2010Prop37
 90
       50
102
RTVSPost2010PropOp37
 70
     1
102
RTVSPost2010Prop38
140
0.0
102
RTVSPost2010PropOp38
 70
     1
102
RTVSPost2010Prop39
140
1.0
102
RTVSPost2010PropOp39
 70
     1
102
RTVSPost2010Prop40
 90
        0
102
RTVSPost2010PropOp40
 70
     1
102
RTVSPost2010Prop41ColorIndex
 90
       18
102
RTVSPost2010Prop41ColorRGB
 90
        0
102
RTVSPost2010PropOp41
 70
     1
102
RTVSPost2010Prop42
 90
       50
102
RTVSPost2010PropOp42
 70
     1
102
RTVSPost2010Prop43
 90
        3
102
RTVSPost2010PropOp43
 70
     1
102
RTVSPost2010Prop44ColorIndex
 90
        5
102
RTVSPost2010Prop44ColorRGB
 90
      255
102
RTVSPost2010PropOp44
 70
     1
102
RTVSPost2010Prop45
280
     0
102
RTVSPost2010PropOp45
 70
     1
102
RTVSPost2010Prop46
 90
       50
102
RTVSPost2010PropOp46
 70
     1
102
RTVSPost2010Prop47
 90
       50
102
RTVSPost2010PropOp47
 70
     1
102
RTVSPost2010Prop48
 90
       50
102
RTVSPost2010PropOp48
 70
     1
102
RTVSPost2010Prop49
280
     0
102
RTVSPost2010PropOp49
 70
     1
102
RTVSPost2010Prop50
 90
       50
102
RTVSPost2010PropOp50
 70
     1
102
RTVSPost2010Prop51ColorIndex
 90
      256
102
RTVSPost2010Prop51ColorRGB
 90
-16777216
102
RTVSPost2010PropOp51
 70
     0
102
RTVSPost2010Prop52
140
1.0
102
RTVSPost2010PropOp52
 70
     0
102
RTVSPost2010Prop53
 90
        2
102
RTVSPost2010PropOp53
 70
     1
102
RTVSPost2010Prop54
  1
strokes_ogs.tif
102
RTVSPost2010PropOp54
 70
     1
102
RTVSPost2010Prop55
280
     0
102
RTVSPost2010PropOp55
 70
     1
102
RTVSPost2010Prop56
140
1.0
102
RTVSPost2010PropOp56
 70
     1
102
RTVSPost2010Prop57
140
1.0
102
RTVSPost2010PropOp57
 70
     1
102
RTVSPropertyOp0
 70
     1
102
RTVSPropertyOp1
 70
     1
102
RTVSPropertyOp2
 70
     1
102
RTVSPropertyOp3
 70
     1
102
RTVSPropertyOp4
 70
     1
102
RTVSPropertyOp5
 70
     1
102
RTVSPropertyOp6
 70
     1
102
RTVSPropertyOp7
 70
     1
102
RTVSPropertyOp8
 70
     1
102
RTVSPropertyOp9
 70
     1
102
RTVSPropertyOp10
 70
     1
102
RTVSPropertyOp11
 70
     1
102
RTVSPropertyOp12
 70
     1
102
RTVSPropertyOp13
 70
     1
102
RTVSPropertyOp14
 70
     1
102
RTVSPropertyOp15
 70
     1
102
RTVSPropertyOp16
 70
     1
102
RTVSPropertyOp17
 70
     1
102
RTVSPropertyOp18
 70
     1
102
RTVSPropertyOp19
 70
     1
102
RTVSPropertyOp20
 70
     1
102
RTVSPropertyOp21
 70
     1
102
RTVSPropertyOp22
 70
     1
102
RTVSPropertyOp23
 70
     1
102
RTVSPropertyOp24
 70
     1
102
RTVSPropertyOp25
 70
     1
102
RTVSPropertyOp26
 70
     1
102
RTVSPropertyOp27
 70
     1
102
RTVSPropertyOp28
 70
     1
102
RTVSPropertyOp29
 70
     1
102
RTVSPropertyOp30
 70
     1
102
RTVSPropertyOp31
 70
     1
102
RTVSPropertyOp32
 70
     1
102
RTVSPropertyOp33
 70
     1
102
RTVSPropertyOp34
 70
     1
102
RTVSPropertyOp35
 70
     1
102
RTVSPropertyOp36
 70
     1
102
RTVSPropertyOp37
 70
     1
102
RTVSPropertyOp38
 70
     1
102
RTVSPropertyOp39
 70
     1
102
RTVSPropertyOp40
 70
     1
102
RTVSPropertyOp41
 70
     1
102
RTVSPropertyOp42
 70
     1
102
RTVSPropertyOp43
 70
     1
102
RTVSPropertyOp44
 70
     1
102
RTVSPropertyOp45
 70
     1
102
RTVSPropertyOp46
 70
     1
102
RTVSPropertyOp47
 70
     1
102
RTVSPropertyOp48
 70
     1
102
RTVSPropertyOp49
 70
     1
102
RTVSPropertyOp50
 70
     1
102
RTVSPropertyOp51
 70
     0
102
RTVSPropertyOp52
 70
     0
102
RTVSPropertyOp53
 70
     1
102
RTVSPropertyOp54
 70
     1
102
RTVSPropertyOp55
 70
     1
102
RTVSPropertyOp56
 70
     1
102
RTVSPropertyOp57
 70
     1
102
RTVSPropertyOp58
 70
     1
102
RTVSPropertyOp59
 70
     1
102
RTVSPropertyOp60
 70
     1
102
RTVSPropertyOp61
 70
     1
102
RTVSPropertyOp62
 70
     1
  0
XRECORD
  5
D5C
102
{ACAD_REACTORS
330
D5B
102
}
330
D5B
100
AcDbXrecord
280
     1
102
RTVSPost2010Prop28
280
     0
102
RTVSPost2010PropOp28
 70
     1
102
RTVSPost2010Prop29
280
     1
102
RTVSPost2010PropOp29
 70
     1
102
RTVSPost2010Prop30
280
     1
102
RTVSPost2010PropOp30
 70
     1
102
RTVSPost2010Prop31
280
     0
102
RTVSPost2010PropOp31
 70
     1
102
RTVSPost2010Prop32
280
     0
102
RTVSPost2010PropOp32
 70
     1
102
RTVSPost2010Prop33
280
     0
102
RTVSPost2010PropOp33
 70
     1
102
RTVSPost2010Prop34
280
     0
102
RTVSPost2010PropOp34
 70
     1
102
RTVSPost2010Prop35
280
     0
102
RTVSPost2010PropOp35
 70
     1
102
RTVSPost2010Prop36
280
     0
102
RTVSPost2010PropOp36
 70
     1
102
RTVSPost2010Prop37
 90
       50
102
RTVSPost2010PropOp37
 70
     1
102
RTVSPost2010Prop38
140
0.0
102
RTVSPost2010PropOp38
 70
     1
102
RTVSPost2010Prop39
140
1.0
102
RTVSPost2010PropOp39
 70
     1
102
RTVSPost2010Prop40
 90
        0
102
RTVSPost2010PropOp40
 70
     1
102
RTVSPost2010Prop41ColorIndex
 90
       18
102
RTVSPost2010Prop41ColorRGB
 90
        0
102
RTVSPost2010PropOp41
 70
     1
102
RTVSPost2010Prop42
 90
       50
102
RTVSPost2010PropOp42
 70
     1
102
RTVSPost2010Prop43
 90
        3
102
RTVSPost2010PropOp43
 70
     1
102
RTVSPost2010Prop44ColorIndex
 90
        5
102
RTVSPost2010Prop44ColorRGB
 90
      255
102
RTVSPost2010PropOp44
 70
     1
102
RTVSPost2010Prop45
280
     0
102
RTVSPost2010PropOp45
 70
     1
102
RTVSPost2010Prop46
 90
       50
102
RTVSPost2010PropOp46
 70
     1
102
RTVSPost2010Prop47
 90
       50
102
RTVSPost2010PropOp47
 70
     1
102
RTVSPost2010Prop48
 90
       50
102
RTVSPost2010PropOp48
 70
     1
102
RTVSPost2010Prop49
280
     0
102
RTVSPost2010PropOp49
 70
     1
102
RTVSPost2010Prop50
 90
       50
102
RTVSPost2010PropOp50
 70
     1
102
RTVSPost2010Prop51ColorIndex
 90
      256
102
RTVSPost2010Prop51ColorRGB
 90
-16777216
102
RTVSPost2010PropOp51
 70
     0
102
RTVSPost2010Prop52
140
1.0
102
RTVSPost2010PropOp52
 70
     0
102
RTVSPost2010Prop53
 90
        2
102
RTVSPost2010PropOp53
 70
     1
102
RTVSPost2010Prop54
  1
strokes_ogs.tif
102
RTVSPost2010PropOp54
 70
     1
102
RTVSPost2010Prop55
280
     0
102
RTVSPost2010PropOp55
 70
     1
102
RTVSPost2010Prop56
140
1.0
102
RTVSPost2010PropOp56
 70
     1
102
RTVSPost2010Prop57
140
1.0
102
RTVSPost2010PropOp57
 70
     1
102
RTVSPropertyOp0
 70
     1
102
RTVSPropertyOp1
 70
     1
102
RTVSPropertyOp2
 70
     1
102
RTVSPropertyOp3
 70
     1
102
RTVSPropertyOp4
 70
     1
102
RTVSPropertyOp5
 70
     1
102
RTVSPropertyOp6
 70
     1
102
RTVSPropertyOp7
 70
     1
102
RTVSPropertyOp8
 70
     1
102
RTVSPropertyOp9
 70
     1
102
RTVSPropertyOp10
 70
     1
102
RTVSPropertyOp11
 70
     1
102
RTVSPropertyOp12
 70
     1
102
RTVSPropertyOp13
 70
     1
102
RTVSPropertyOp14
 70
     1
102
RTVSPropertyOp15
 70
     1
102
RTVSPropertyOp16
 70
     1
102
RTVSPropertyOp17
 70
     1
102
RTVSPropertyOp18
 70
     1
102
RTVSPropertyOp19
 70
     1
102
RTVSPropertyOp20
 70
     1
102
RTVSPropertyOp21
 70
     1
102
RTVSPropertyOp22
 70
     1
102
RTVSPropertyOp23
 70
     1
102
RTVSPropertyOp24
 70
     1
102
RTVSPropertyOp25
 70
     1
102
RTVSPropertyOp26
 70
     1
102
RTVSPropertyOp27
 70
     1
102
RTVSPropertyOp28
 70
     1
102
RTVSPropertyOp29
 70
     1
102
RTVSPropertyOp30
 70
     1
102
RTVSPropertyOp31
 70
     1
102
RTVSPropertyOp32
 70
     1
102
RTVSPropertyOp33
 70
     1
102
RTVSPropertyOp34
 70
     1
102
RTVSPropertyOp35
 70
     1
102
RTVSPropertyOp36
 70
     1
102
RTVSPropertyOp37
 70
     1
102
RTVSPropertyOp38
 70
     1
102
RTVSPropertyOp39
 70
     1
102
RTVSPropertyOp40
 70
     1
102
RTVSPropertyOp41
 70
     1
102
RTVSPropertyOp42
 70
     1
102
RTVSPropertyOp43
 70
     1
102
RTVSPropertyOp44
 70
     1
102
RTVSPropertyOp45
 70
     1
102
RTVSPropertyOp46
 70
     1
102
RTVSPropertyOp47
 70
     1
102
RTVSPropertyOp48
 70
     1
102
RTVSPropertyOp49
 70
     1
102
RTVSPropertyOp50
 70
     1
102
RTVSPropertyOp51
 70
     0
102
RTVSPropertyOp52
 70
     0
102
RTVSPropertyOp53
 70
     1
102
RTVSPropertyOp54
 70
     1
102
RTVSPropertyOp55
 70
     1
102
RTVSPropertyOp56
 70
     1
102
RTVSPropertyOp57
 70
     1
102
RTVSPropertyOp58
 70
     1
102
RTVSPropertyOp59
 70
     1
102
RTVSPropertyOp60
 70
     1
102
RTVSPropertyOp61
 70
     1
102
RTVSPropertyOp62
 70
     1
  0
XRECORD
  5
D5E
102
{ACAD_REACTORS
330
D5D
102
}
330
D5D
100
AcDbXrecord
280
     1
102
RTVSPost2010Prop28
280
     0
102
RTVSPost2010PropOp28
 70
     1
102
RTVSPost2010Prop29
280
     1
102
RTVSPost2010PropOp29
 70
     1
102
RTVSPost2010Prop30
280
     1
102
RTVSPost2010PropOp30
 70
     1
102
RTVSPost2010Prop31
280
     0
102
RTVSPost2010PropOp31
 70
     1
102
RTVSPost2010Prop32
280
     0
102
RTVSPost2010PropOp32
 70
     1
102
RTVSPost2010Prop33
280
     0
102
RTVSPost2010PropOp33
 70
     1
102
RTVSPost2010Prop34
280
     0
102
RTVSPost2010PropOp34
 70
     1
102
RTVSPost2010Prop35
280
     0
102
RTVSPost2010PropOp35
 70
     1
102
RTVSPost2010Prop36
280
     0
102
RTVSPost2010PropOp36
 70
     1
102
RTVSPost2010Prop37
 90
       50
102
RTVSPost2010PropOp37
 70
     1
102
RTVSPost2010Prop38
140
0.0
102
RTVSPost2010PropOp38
 70
     1
102
RTVSPost2010Prop39
140
1.0
102
RTVSPost2010PropOp39
 70
     1
102
RTVSPost2010Prop40
 90
        0
102
RTVSPost2010PropOp40
 70
     1
102
RTVSPost2010Prop41ColorIndex
 90
       18
102
RTVSPost2010Prop41ColorRGB
 90
        0
102
RTVSPost2010PropOp41
 70
     1
102
RTVSPost2010Prop42
 90
       50
102
RTVSPost2010PropOp42
 70
     1
102
RTVSPost2010Prop43
 90
        3
102
RTVSPost2010PropOp43
 70
     1
102
RTVSPost2010Prop44ColorIndex
 90
        5
102
RTVSPost2010Prop44ColorRGB
 90
      255
102
RTVSPost2010PropOp44
 70
     1
102
RTVSPost2010Prop45
280
     0
102
RTVSPost2010PropOp45
 70
     1
102
RTVSPost2010Prop46
 90
       50
102
RTVSPost2010PropOp46
 70
     1
102
RTVSPost2010Prop47
 90
       50
102
RTVSPost2010PropOp47
 70
     1
102
RTVSPost2010Prop48
 90
       50
102
RTVSPost2010PropOp48
 70
     1
102
RTVSPost2010Prop49
280
     0
102
RTVSPost2010PropOp49
 70
     1
102
RTVSPost2010Prop50
 90
       50
102
RTVSPost2010PropOp50
 70
     1
102
RTVSPost2010Prop51ColorIndex
 90
      256
102
RTVSPost2010Prop51ColorRGB
 90
-16777216
102
RTVSPost2010PropOp51
 70
     0
102
RTVSPost2010Prop52
140
1.0
102
RTVSPost2010PropOp52
 70
     0
102
RTVSPost2010Prop53
 90
        2
102
RTVSPost2010PropOp53
 70
     1
102
RTVSPost2010Prop54
  1
strokes_ogs.tif
102
RTVSPost2010PropOp54
 70
     1
102
RTVSPost2010Prop55
280
     0
102
RTVSPost2010PropOp55
 70
     1
102
RTVSPost2010Prop56
140
1.0
102
RTVSPost2010PropOp56
 70
     1
102
RTVSPost2010Prop57
140
1.0
102
RTVSPost2010PropOp57
 70
     1
102
RTVSPropertyOp0
 70
     1
102
RTVSPropertyOp1
 70
     1
102
RTVSPropertyOp2
 70
     1
102
RTVSPropertyOp3
 70
     1
102
RTVSPropertyOp4
 70
     1
102
RTVSPropertyOp5
 70
     1
102
RTVSPropertyOp6
 70
     1
102
RTVSPropertyOp7
 70
     1
102
RTVSPropertyOp8
 70
     1
102
RTVSPropertyOp9
 70
     1
102
RTVSPropertyOp10
 70
     1
102
RTVSPropertyOp11
 70
     1
102
RTVSPropertyOp12
 70
     1
102
RTVSPropertyOp13
 70
     1
102
RTVSPropertyOp14
 70
     1
102
RTVSPropertyOp15
 70
     1
102
RTVSPropertyOp16
 70
     1
102
RTVSPropertyOp17
 70
     1
102
RTVSPropertyOp18
 70
     1
102
RTVSPropertyOp19
 70
     1
102
RTVSPropertyOp20
 70
     1
102
RTVSPropertyOp21
 70
     1
102
RTVSPropertyOp22
 70
     1
102
RTVSPropertyOp23
 70
     1
102
RTVSPropertyOp24
 70
     1
102
RTVSPropertyOp25
 70
     1
102
RTVSPropertyOp26
 70
     1
102
RTVSPropertyOp27
 70
     1
102
RTVSPropertyOp28
 70
     1
102
RTVSPropertyOp29
 70
     1
102
RTVSPropertyOp30
 70
     1
102
RTVSPropertyOp31
 70
     1
102
RTVSPropertyOp32
 70
     1
102
RTVSPropertyOp33
 70
     1
102
RTVSPropertyOp34
 70
     1
102
RTVSPropertyOp35
 70
     1
102
RTVSPropertyOp36
 70
     1
102
RTVSPropertyOp37
 70
     1
102
RTVSPropertyOp38
 70
     1
102
RTVSPropertyOp39
 70
     1
102
RTVSPropertyOp40
 70
     1
102
RTVSPropertyOp41
 70
     1
102
RTVSPropertyOp42
 70
     1
102
RTVSPropertyOp43
 70
     1
102
RTVSPropertyOp44
 70
     1
102
RTVSPropertyOp45
 70
     1
102
RTVSPropertyOp46
 70
     1
102
RTVSPropertyOp47
 70
     1
102
RTVSPropertyOp48
 70
     1
102
RTVSPropertyOp49
 70
     1
102
RTVSPropertyOp50
 70
     1
102
RTVSPropertyOp51
 70
     0
102
RTVSPropertyOp52
 70
     0
102
RTVSPropertyOp53
 70
     1
102
RTVSPropertyOp54
 70
     1
102
RTVSPropertyOp55
 70
     1
102
RTVSPropertyOp56
 70
     1
102
RTVSPropertyOp57
 70
     1
102
RTVSPropertyOp58
 70
     1
102
RTVSPropertyOp59
 70
     1
102
RTVSPropertyOp60
 70
     1
102
RTVSPropertyOp61
 70
     1
102
RTVSPropertyOp62
 70
     1
  0
XRECORD
  5
D60
102
{ACAD_REACTORS
330
D5F
102
}
330
D5F
100
AcDbXrecord
280
     1
102
RTVSPost2010Prop28
280
     0
102
RTVSPost2010PropOp28
 70
     1
102
RTVSPost2010Prop29
280
     1
102
RTVSPost2010PropOp29
 70
     1
102
RTVSPost2010Prop30
280
     1
102
RTVSPost2010PropOp30
 70
     1
102
RTVSPost2010Prop31
280
     0
102
RTVSPost2010PropOp31
 70
     1
102
RTVSPost2010Prop32
280
     0
102
RTVSPost2010PropOp32
 70
     1
102
RTVSPost2010Prop33
280
     0
102
RTVSPost2010PropOp33
 70
     1
102
RTVSPost2010Prop34
280
     0
102
RTVSPost2010PropOp34
 70
     1
102
RTVSPost2010Prop35
280
     0
102
RTVSPost2010PropOp35
 70
     1
102
RTVSPost2010Prop36
280
     0
102
RTVSPost2010PropOp36
 70
     1
102
RTVSPost2010Prop37
 90
       50
102
RTVSPost2010PropOp37
 70
     1
102
RTVSPost2010Prop38
140
0.0
102
RTVSPost2010PropOp38
 70
     1
102
RTVSPost2010Prop39
140
1.0
102
RTVSPost2010PropOp39
 70
     1
102
RTVSPost2010Prop40
 90
        0
102
RTVSPost2010PropOp40
 70
     1
102
RTVSPost2010Prop41ColorIndex
 90
       18
102
RTVSPost2010Prop41ColorRGB
 90
        0
102
RTVSPost2010PropOp41
 70
     1
102
RTVSPost2010Prop42
 90
       50
102
RTVSPost2010PropOp42
 70
     1
102
RTVSPost2010Prop43
 90
        3
102
RTVSPost2010PropOp43
 70
     1
102
RTVSPost2010Prop44ColorIndex
 90
        5
102
RTVSPost2010Prop44ColorRGB
 90
      255
102
RTVSPost2010PropOp44
 70
     1
102
RTVSPost2010Prop45
280
     0
102
RTVSPost2010PropOp45
 70
     1
102
RTVSPost2010Prop46
 90
       50
102
RTVSPost2010PropOp46
 70
     1
102
RTVSPost2010Prop47
 90
       50
102
RTVSPost2010PropOp47
 70
     1
102
RTVSPost2010Prop48
 90
       50
102
RTVSPost2010PropOp48
 70
     1
102
RTVSPost2010Prop49
280
     0
102
RTVSPost2010PropOp49
 70
     1
102
RTVSPost2010Prop50
 90
       50
102
RTVSPost2010PropOp50
 70
     1
102
RTVSPost2010Prop51ColorIndex
 90
      256
102
RTVSPost2010Prop51ColorRGB
 90
-16777216
102
RTVSPost2010PropOp51
 70
     0
102
RTVSPost2010Prop52
140
1.0
102
RTVSPost2010PropOp52
 70
     0
102
RTVSPost2010Prop53
 90
        2
102
RTVSPost2010PropOp53
 70
     1
102
RTVSPost2010Prop54
  1
strokes_ogs.tif
102
RTVSPost2010PropOp54
 70
     1
102
RTVSPost2010Prop55
280
     0
102
RTVSPost2010PropOp55
 70
     1
102
RTVSPost2010Prop56
140
1.0
102
RTVSPost2010PropOp56
 70
     1
102
RTVSPost2010Prop57
140
1.0
102
RTVSPost2010PropOp57
 70
     1
102
RTVSPropertyOp0
 70
     1
102
RTVSPropertyOp1
 70
     1
102
RTVSPropertyOp2
 70
     1
102
RTVSPropertyOp3
 70
     1
102
RTVSPropertyOp4
 70
     1
102
RTVSPropertyOp5
 70
     1
102
RTVSPropertyOp6
 70
     1
102
RTVSPropertyOp7
 70
     1
102
RTVSPropertyOp8
 70
     1
102
RTVSPropertyOp9
 70
     1
102
RTVSPropertyOp10
 70
     1
102
RTVSPropertyOp11
 70
     1
102
RTVSPropertyOp12
 70
     1
102
RTVSPropertyOp13
 70
     1
102
RTVSPropertyOp14
 70
     1
102
RTVSPropertyOp15
 70
     1
102
RTVSPropertyOp16
 70
     1
102
RTVSPropertyOp17
 70
     1
102
RTVSPropertyOp18
 70
     1
102
RTVSPropertyOp19
 70
     1
102
RTVSPropertyOp20
 70
     1
102
RTVSPropertyOp21
 70
     1
102
RTVSPropertyOp22
 70
     1
102
RTVSPropertyOp23
 70
     1
102
RTVSPropertyOp24
 70
     1
102
RTVSPropertyOp25
 70
     1
102
RTVSPropertyOp26
 70
     1
102
RTVSPropertyOp27
 70
     1
102
RTVSPropertyOp28
 70
     1
102
RTVSPropertyOp29
 70
     1
102
RTVSPropertyOp30
 70
     1
102
RTVSPropertyOp31
 70
     1
102
RTVSPropertyOp32
 70
     1
102
RTVSPropertyOp33
 70
     1
102
RTVSPropertyOp34
 70
     1
102
RTVSPropertyOp35
 70
     1
102
RTVSPropertyOp36
 70
     1
102
RTVSPropertyOp37
 70
     1
102
RTVSPropertyOp38
 70
     1
102
RTVSPropertyOp39
 70
     1
102
RTVSPropertyOp40
 70
     1
102
RTVSPropertyOp41
 70
     1
102
RTVSPropertyOp42
 70
     1
102
RTVSPropertyOp43
 70
     1
102
RTVSPropertyOp44
 70
     1
102
RTVSPropertyOp45
 70
     1
102
RTVSPropertyOp46
 70
     1
102
RTVSPropertyOp47
 70
     1
102
RTVSPropertyOp48
 70
     1
102
RTVSPropertyOp49
 70
     1
102
RTVSPropertyOp50
 70
     1
102
RTVSPropertyOp51
 70
     0
102
RTVSPropertyOp52
 70
     0
102
RTVSPropertyOp53
 70
     1
102
RTVSPropertyOp54
 70
     1
102
RTVSPropertyOp55
 70
     1
102
RTVSPropertyOp56
 70
     1
102
RTVSPropertyOp57
 70
     1
102
RTVSPropertyOp58
 70
     1
102
RTVSPropertyOp59
 70
     1
102
RTVSPropertyOp60
 70
     1
102
RTVSPropertyOp61
 70
     1
102
RTVSPropertyOp62
 70
     1
  0
XRECORD
  5
D68
102
{ACAD_REACTORS
330
D67
102
}
330
D67
100
AcDbXrecord
280
     1
102
RTVSPost2010Prop28
280
     0
102
RTVSPost2010PropOp28
 70
     1
102
RTVSPost2010Prop29
280
     1
102
RTVSPost2010PropOp29
 70
     1
102
RTVSPost2010Prop30
280
     1
102
RTVSPost2010PropOp30
 70
     1
102
RTVSPost2010Prop31
280
     0
102
RTVSPost2010PropOp31
 70
     1
102
RTVSPost2010Prop32
280
     0
102
RTVSPost2010PropOp32
 70
     1
102
RTVSPost2010Prop33
280
     0
102
RTVSPost2010PropOp33
 70
     1
102
RTVSPost2010Prop34
280
     0
102
RTVSPost2010PropOp34
 70
     1
102
RTVSPost2010Prop35
280
     0
102
RTVSPost2010PropOp35
 70
     1
102
RTVSPost2010Prop36
280
     0
102
RTVSPost2010PropOp36
 70
     1
102
RTVSPost2010Prop37
 90
       50
102
RTVSPost2010PropOp37
 70
     1
102
RTVSPost2010Prop38
140
0.0
102
RTVSPost2010PropOp38
 70
     1
102
RTVSPost2010Prop39
140
1.0
102
RTVSPost2010PropOp39
 70
     1
102
RTVSPost2010Prop40
 90
        0
102
RTVSPost2010PropOp40
 70
     1
102
RTVSPost2010Prop41ColorIndex
 90
       18
102
RTVSPost2010Prop41ColorRGB
 90
        0
102
RTVSPost2010PropOp41
 70
     1
102
RTVSPost2010Prop42
 90
       50
102
RTVSPost2010PropOp42
 70
     1
102
RTVSPost2010Prop43
 90
        3
102
RTVSPost2010PropOp43
 70
     1
102
RTVSPost2010Prop44ColorIndex
 90
        5
102
RTVSPost2010Prop44ColorRGB
 90
      255
102
RTVSPost2010PropOp44
 70
     1
102
RTVSPost2010Prop45
280
     0
102
RTVSPost2010PropOp45
 70
     1
102
RTVSPost2010Prop46
 90
       50
102
RTVSPost2010PropOp46
 70
     1
102
RTVSPost2010Prop47
 90
       50
102
RTVSPost2010PropOp47
 70
     1
102
RTVSPost2010Prop48
 90
       50
102
RTVSPost2010PropOp48
 70
     1
102
RTVSPost2010Prop49
280
     0
102
RTVSPost2010PropOp49
 70
     1
102
RTVSPost2010Prop50
 90
       50
102
RTVSPost2010PropOp50
 70
     1
102
RTVSPost2010Prop51ColorIndex
 90
      256
102
RTVSPost2010Prop51ColorRGB
 90
-16777216
102
RTVSPost2010PropOp51
 70
     0
102
RTVSPost2010Prop52
140
1.0
102
RTVSPost2010PropOp52
 70
     0
102
RTVSPost2010Prop53
 90
        2
102
RTVSPost2010PropOp53
 70
     1
102
RTVSPost2010Prop54
  1
strokes_ogs.tif
102
RTVSPost2010PropOp54
 70
     1
102
RTVSPost2010Prop55
280
     0
102
RTVSPost2010PropOp55
 70
     1
102
RTVSPost2010Prop56
140
1.0
102
RTVSPost2010PropOp56
 70
     1
102
RTVSPost2010Prop57
140
1.0
102
RTVSPost2010PropOp57
 70
     1
102
RTVSPropertyOp0
 70
     1
102
RTVSPropertyOp1
 70
     1
102
RTVSPropertyOp2
 70
     1
102
RTVSPropertyOp3
 70
     1
102
RTVSPropertyOp4
 70
     1
102
RTVSPropertyOp5
 70
     1
102
RTVSPropertyOp6
 70
     1
102
RTVSPropertyOp7
 70
     1
102
RTVSPropertyOp8
 70
     1
102
RTVSPropertyOp9
 70
     1
102
RTVSPropertyOp10
 70
     1
102
RTVSPropertyOp11
 70
     1
102
RTVSPropertyOp12
 70
     1
102
RTVSPropertyOp13
 70
     1
102
RTVSPropertyOp14
 70
     1
102
RTVSPropertyOp15
 70
     1
102
RTVSPropertyOp16
 70
     1
102
RTVSPropertyOp17
 70
     1
102
RTVSPropertyOp18
 70
     1
102
RTVSPropertyOp19
 70
     1
102
RTVSPropertyOp20
 70
     1
102
RTVSPropertyOp21
 70
     1
102
RTVSPropertyOp22
 70
     1
102
RTVSPropertyOp23
 70
     1
102
RTVSPropertyOp24
 70
     1
102
RTVSPropertyOp25
 70
     1
102
RTVSPropertyOp26
 70
     1
102
RTVSPropertyOp27
 70
     1
102
RTVSPropertyOp28
 70
     1
102
RTVSPropertyOp29
 70
     1
102
RTVSPropertyOp30
 70
     1
102
RTVSPropertyOp31
 70
     1
102
RTVSPropertyOp32
 70
     1
102
RTVSPropertyOp33
 70
     1
102
RTVSPropertyOp34
 70
     1
102
RTVSPropertyOp35
 70
     1
102
RTVSPropertyOp36
 70
     1
102
RTVSPropertyOp37
 70
     1
102
RTVSPropertyOp38
 70
     1
102
RTVSPropertyOp39
 70
     1
102
RTVSPropertyOp40
 70
     1
102
RTVSPropertyOp41
 70
     1
102
RTVSPropertyOp42
 70
     1
102
RTVSPropertyOp43
 70
     1
102
RTVSPropertyOp44
 70
     1
102
RTVSPropertyOp45
 70
     1
102
RTVSPropertyOp46
 70
     1
102
RTVSPropertyOp47
 70
     1
102
RTVSPropertyOp48
 70
     1
102
RTVSPropertyOp49
 70
     1
102
RTVSPropertyOp50
 70
     1
102
RTVSPropertyOp51
 70
     0
102
RTVSPropertyOp52
 70
     0
102
RTVSPropertyOp53
 70
     1
102
RTVSPropertyOp54
 70
     1
102
RTVSPropertyOp55
 70
     1
102
RTVSPropertyOp56
 70
     1
102
RTVSPropertyOp57
 70
     1
102
RTVSPropertyOp58
 70
     1
102
RTVSPropertyOp59
 70
     1
102
RTVSPropertyOp60
 70
     1
102
RTVSPropertyOp61
 70
     1
102
RTVSPropertyOp62
 70
     1
  0
XRECORD
  5
D84
102
{ACAD_REACTORS
330
D83
102
}
330
D83
100
AcDbXrecord
280
     1
102
RTVSPost2010Prop28
280
     0
102
RTVSPost2010PropOp28
 70
     1
102
RTVSPost2010Prop29
280
     1
102
RTVSPost2010PropOp29
 70
     1
102
RTVSPost2010Prop30
280
     1
102
RTVSPost2010PropOp30
 70
     1
102
RTVSPost2010Prop31
280
     0
102
RTVSPost2010PropOp31
 70
     1
102
RTVSPost2010Prop32
280
     0
102
RTVSPost2010PropOp32
 70
     1
102
RTVSPost2010Prop33
280
     0
102
RTVSPost2010PropOp33
 70
     1
102
RTVSPost2010Prop34
280
     0
102
RTVSPost2010PropOp34
 70
     1
102
RTVSPost2010Prop35
280
     0
102
RTVSPost2010PropOp35
 70
     1
102
RTVSPost2010Prop36
280
     0
102
RTVSPost2010PropOp36
 70
     1
102
RTVSPost2010Prop37
 90
       50
102
RTVSPost2010PropOp37
 70
     0
102
RTVSPost2010Prop38
140
0.0
102
RTVSPost2010PropOp38
 70
     0
102
RTVSPost2010Prop39
140
1.0
102
RTVSPost2010PropOp39
 70
     0
102
RTVSPost2010Prop40
 90
        0
102
RTVSPost2010PropOp40
 70
     0
102
RTVSPost2010Prop41ColorIndex
 90
       18
102
RTVSPost2010Prop41ColorRGB
 90
        0
102
RTVSPost2010PropOp41
 70
     0
102
RTVSPost2010Prop42
 90
       50
102
RTVSPost2010PropOp42
 70
     0
102
RTVSPost2010Prop43
 90
        3
102
RTVSPost2010PropOp43
 70
     0
102
RTVSPost2010Prop44ColorIndex
 90
        5
102
RTVSPost2010Prop44ColorRGB
 90
      255
102
RTVSPost2010PropOp44
 70
     0
102
RTVSPost2010Prop45
280
     0
102
RTVSPost2010PropOp45
 70
     1
102
RTVSPost2010Prop46
 90
       50
102
RTVSPost2010PropOp46
 70
     0
102
RTVSPost2010Prop47
 90
       50
102
RTVSPost2010PropOp47
 70
     0
102
RTVSPost2010Prop48
 90
       50
102
RTVSPost2010PropOp48
 70
     0
102
RTVSPost2010Prop49
280
     0
102
RTVSPost2010PropOp49
 70
     1
102
RTVSPost2010Prop50
 90
       50
102
RTVSPost2010PropOp50
 70
     0
102
RTVSPost2010Prop51ColorIndex
 90
      256
102
RTVSPost2010Prop51ColorRGB
 90
-16777216
102
RTVSPost2010PropOp51
 70
     0
102
RTVSPost2010Prop52
140
1.0
102
RTVSPost2010PropOp52
 70
     0
102
RTVSPost2010Prop53
 90
        2
102
RTVSPost2010PropOp53
 70
     0
102
RTVSPost2010Prop54
  1
strokes_ogs.tif
102
RTVSPost2010PropOp54
 70
     0
102
RTVSPost2010Prop55
280
     0
102
RTVSPost2010PropOp55
 70
     1
102
RTVSPost2010Prop56
140
1.0
102
RTVSPost2010PropOp56
 70
     0
102
RTVSPost2010Prop57
140
1.0
102
RTVSPost2010PropOp57
 70
     0
102
RTVSPropertyOp0
 70
     0
102
RTVSPropertyOp1
 70
     0
102
RTVSPropertyOp2
 70
     0
102
RTVSPropertyOp3
 70
     0
102
RTVSPropertyOp4
 70
     0
102
RTVSPropertyOp5
 70
     0
102
RTVSPropertyOp6
 70
     0
102
RTVSPropertyOp7
 70
     0
102
RTVSPropertyOp8
 70
     0
102
RTVSPropertyOp9
 70
     0
102
RTVSPropertyOp10
 70
     0
102
RTVSPropertyOp11
 70
     0
102
RTVSPropertyOp12
 70
     0
102
RTVSPropertyOp13
 70
     0
102
RTVSPropertyOp14
 70
     2
102
RTVSPropertyOp15
 70
     0
102
RTVSPropertyOp16
 70
     0
102
RTVSPropertyOp17
 70
     0
102
RTVSPropertyOp18
 70
     0
102
RTVSPropertyOp19
 70
     0
102
RTVSPropertyOp20
 70
     0
102
RTVSPropertyOp21
 70
     0
102
RTVSPropertyOp22
 70
     0
102
RTVSPropertyOp23
 70
     0
102
RTVSPropertyOp24
 70
     0
102
RTVSPropertyOp25
 70
     0
102
RTVSPropertyOp26
 70
     0
102
RTVSPropertyOp27
 70
     0
102
RTVSPropertyOp28
 70
     1
102
RTVSPropertyOp29
 70
     1
102
RTVSPropertyOp30
 70
     1
102
RTVSPropertyOp31
 70
     1
102
RTVSPropertyOp32
 70
     1
102
RTVSPropertyOp33
 70
     1
102
RTVSPropertyOp34
 70
     1
102
RTVSPropertyOp35
 70
     1
102
RTVSPropertyOp36
 70
     1
102
RTVSPropertyOp37
 70
     0
102
RTVSPropertyOp38
 70
     0
102
RTVSPropertyOp39
 70
     0
102
RTVSPropertyOp40
 70
     0
102
RTVSPropertyOp41
 70
     0
102
RTVSPropertyOp42
 70
     0
102
RTVSPropertyOp43
 70
     0
102
RTVSPropertyOp44
 70
     0
102
RTVSPropertyOp45
 70
     1
102
RTVSPropertyOp46
 70
     0
102
RTVSPropertyOp47
 70
     0
102
RTVSPropertyOp48
 70
     0
102
RTVSPropertyOp49
 70
     1
102
RTVSPropertyOp50
 70
     0
102
RTVSPropertyOp51
 70
     0
102
RTVSPropertyOp52
 70
     0
102
RTVSPropertyOp53
 70
     0
102
RTVSPropertyOp54
 70
     0
102
RTVSPropertyOp55
 70
     1
102
RTVSPropertyOp56
 70
     0
102
RTVSPropertyOp57
 70
     0
102
RTVSPropertyOp58
 70
     0
102
RTVSPropertyOp59
 70
     0
102
RTVSPropertyOp60
 70
     0
102
RTVSPropertyOp61
 70
     0
102
RTVSPropertyOp62
 70
     0
  0
XRECORD
  5
D74
102
{ACAD_REACTORS
330
D73
102
}
330
D73
100
AcDbXrecord
280
     1
102
RTVSPost2010Prop28
280
     0
102
RTVSPost2010PropOp28
 70
     1
102
RTVSPost2010Prop29
280
     1
102
RTVSPost2010PropOp29
 70
     1
102
RTVSPost2010Prop30
280
     1
102
RTVSPost2010PropOp30
 70
     1
102
RTVSPost2010Prop31
280
     0
102
RTVSPost2010PropOp31
 70
     1
102
RTVSPost2010Prop32
280
     0
102
RTVSPost2010PropOp32
 70
     1
102
RTVSPost2010Prop33
280
     0
102
RTVSPost2010PropOp33
 70
     1
102
RTVSPost2010Prop34
280
     0
102
RTVSPost2010PropOp34
 70
     1
102
RTVSPost2010Prop35
280
     0
102
RTVSPost2010PropOp35
 70
     1
102
RTVSPost2010Prop36
280
     0
102
RTVSPost2010PropOp36
 70
     1
102
RTVSPost2010Prop37
 90
       50
102
RTVSPost2010PropOp37
 70
     1
102
RTVSPost2010Prop38
140
0.0
102
RTVSPost2010PropOp38
 70
     1
102
RTVSPost2010Prop39
140
1.0
102
RTVSPost2010PropOp39
 70
     1
102
RTVSPost2010Prop40
 90
        0
102
RTVSPost2010PropOp40
 70
     1
102
RTVSPost2010Prop41ColorIndex
 90
       18
102
RTVSPost2010Prop41ColorRGB
 90
        0
102
RTVSPost2010PropOp41
 70
     1
102
RTVSPost2010Prop42
 90
       50
102
RTVSPost2010PropOp42
 70
     1
102
RTVSPost2010Prop43
 90
        3
102
RTVSPost2010PropOp43
 70
     1
102
RTVSPost2010Prop44ColorIndex
 90
        5
102
RTVSPost2010Prop44ColorRGB
 90
      255
102
RTVSPost2010PropOp44
 70
     1
102
RTVSPost2010Prop45
280
     0
102
RTVSPost2010PropOp45
 70
     1
102
RTVSPost2010Prop46
 90
       50
102
RTVSPost2010PropOp46
 70
     1
102
RTVSPost2010Prop47
 90
       50
102
RTVSPost2010PropOp47
 70
     1
102
RTVSPost2010Prop48
 90
       50
102
RTVSPost2010PropOp48
 70
     1
102
RTVSPost2010Prop49
280
     0
102
RTVSPost2010PropOp49
 70
     1
102
RTVSPost2010Prop50
 90
       50
102
RTVSPost2010PropOp50
 70
     1
102
RTVSPost2010Prop51ColorIndex
 90
      256
102
RTVSPost2010Prop51ColorRGB
 90
-16777216
102
RTVSPost2010PropOp51
 70
     0
102
RTVSPost2010Prop52
140
1.0
102
RTVSPost2010PropOp52
 70
     0
102
RTVSPost2010Prop53
 90
        2
102
RTVSPost2010PropOp53
 70
     1
102
RTVSPost2010Prop54
  1
strokes_ogs.tif
102
RTVSPost2010PropOp54
 70
     1
102
RTVSPost2010Prop55
280
     0
102
RTVSPost2010PropOp55
 70
     1
102
RTVSPost2010Prop56
140
1.0
102
RTVSPost2010PropOp56
 70
     1
102
RTVSPost2010Prop57
140
1.0
102
RTVSPost2010PropOp57
 70
     1
102
RTVSPropertyOp0
 70
     1
102
RTVSPropertyOp1
 70
     1
102
RTVSPropertyOp2
 70
     1
102
RTVSPropertyOp3
 70
     1
102
RTVSPropertyOp4
 70
     1
102
RTVSPropertyOp5
 70
     1
102
RTVSPropertyOp6
 70
     1
102
RTVSPropertyOp7
 70
     1
102
RTVSPropertyOp8
 70
     1
102
RTVSPropertyOp9
 70
     1
102
RTVSPropertyOp10
 70
     1
102
RTVSPropertyOp11
 70
     1
102
RTVSPropertyOp12
 70
     1
102
RTVSPropertyOp13
 70
     1
102
RTVSPropertyOp14
 70
     1
102
RTVSPropertyOp15
 70
     1
102
RTVSPropertyOp16
 70
     1
102
RTVSPropertyOp17
 70
     1
102
RTVSPropertyOp18
 70
     1
102
RTVSPropertyOp19
 70
     1
102
RTVSPropertyOp20
 70
     1
102
RTVSPropertyOp21
 70
     1
102
RTVSPropertyOp22
 70
     1
102
RTVSPropertyOp23
 70
     1
102
RTVSPropertyOp24
 70
     1
102
RTVSPropertyOp25
 70
     1
102
RTVSPropertyOp26
 70
     1
102
RTVSPropertyOp27
 70
     1
102
RTVSPropertyOp28
 70
     1
102
RTVSPropertyOp29
 70
     1
102
RTVSPropertyOp30
 70
     1
102
RTVSPropertyOp31
 70
     1
102
RTVSPropertyOp32
 70
     1
102
RTVSPropertyOp33
 70
     1
102
RTVSPropertyOp34
 70
     1
102
RTVSPropertyOp35
 70
     1
102
RTVSPropertyOp36
 70
     1
102
RTVSPropertyOp37
 70
     1
102
RTVSPropertyOp38
 70
     1
102
RTVSPropertyOp39
 70
     1
102
RTVSPropertyOp40
 70
     1
102
RTVSPropertyOp41
 70
     1
102
RTVSPropertyOp42
 70
     1
102
RTVSPropertyOp43
 70
     1
102
RTVSPropertyOp44
 70
     1
102
RTVSPropertyOp45
 70
     1
102
RTVSPropertyOp46
 70
     1
102
RTVSPropertyOp47
 70
     1
102
RTVSPropertyOp48
 70
     1
102
RTVSPropertyOp49
 70
     1
102
RTVSPropertyOp50
 70
     1
102
RTVSPropertyOp51
 70
     0
102
RTVSPropertyOp52
 70
     0
102
RTVSPropertyOp53
 70
     1
102
RTVSPropertyOp54
 70
     1
102
RTVSPropertyOp55
 70
     1
102
RTVSPropertyOp56
 70
     1
102
RTVSPropertyOp57
 70
     1
102
RTVSPropertyOp58
 70
     1
102
RTVSPropertyOp59
 70
     1
102
RTVSPropertyOp60
 70
     1
102
RTVSPropertyOp61
 70
     1
102
RTVSPropertyOp62
 70
     1
  0
XRECORD
  5
D86
102
{ACAD_REACTORS
330
D85
102
}
330
D85
100
AcDbXrecord
280
     1
102
RTVSPost2010Prop28
280
     0
102
RTVSPost2010PropOp28
 70
     1
102
RTVSPost2010Prop29
280
     1
102
RTVSPost2010PropOp29
 70
     1
102
RTVSPost2010Prop30
280
     1
102
RTVSPost2010PropOp30
 70
     1
102
RTVSPost2010Prop31
280
     0
102
RTVSPost2010PropOp31
 70
     1
102
RTVSPost2010Prop32
280
     0
102
RTVSPost2010PropOp32
 70
     1
102
RTVSPost2010Prop33
280
     0
102
RTVSPost2010PropOp33
 70
     1
102
RTVSPost2010Prop34
280
     0
102
RTVSPost2010PropOp34
 70
     1
102
RTVSPost2010Prop35
280
     0
102
RTVSPost2010PropOp35
 70
     1
102
RTVSPost2010Prop36
280
     0
102
RTVSPost2010PropOp36
 70
     1
102
RTVSPost2010Prop37
 90
       50
102
RTVSPost2010PropOp37
 70
     0
102
RTVSPost2010Prop38
140
0.0
102
RTVSPost2010PropOp38
 70
     0
102
RTVSPost2010Prop39
140
1.0
102
RTVSPost2010PropOp39
 70
     0
102
RTVSPost2010Prop40
 90
        0
102
RTVSPost2010PropOp40
 70
     0
102
RTVSPost2010Prop41ColorIndex
 90
       18
102
RTVSPost2010Prop41ColorRGB
 90
        0
102
RTVSPost2010PropOp41
 70
     0
102
RTVSPost2010Prop42
 90
       50
102
RTVSPost2010PropOp42
 70
     0
102
RTVSPost2010Prop43
 90
        3
102
RTVSPost2010PropOp43
 70
     0
102
RTVSPost2010Prop44ColorIndex
 90
        5
102
RTVSPost2010Prop44ColorRGB
 90
      255
102
RTVSPost2010PropOp44
 70
     0
102
RTVSPost2010Prop45
280
     0
102
RTVSPost2010PropOp45
 70
     1
102
RTVSPost2010Prop46
 90
       50
102
RTVSPost2010PropOp46
 70
     0
102
RTVSPost2010Prop47
 90
       50
102
RTVSPost2010PropOp47
 70
     0
102
RTVSPost2010Prop48
 90
       50
102
RTVSPost2010PropOp48
 70
     0
102
RTVSPost2010Prop49
280
     0
102
RTVSPost2010PropOp49
 70
     1
102
RTVSPost2010Prop50
 90
       50
102
RTVSPost2010PropOp50
 70
     0
102
RTVSPost2010Prop51ColorIndex
 90
      256
102
RTVSPost2010Prop51ColorRGB
 90
-16777216
102
RTVSPost2010PropOp51
 70
     0
102
RTVSPost2010Prop52
140
1.0
102
RTVSPost2010PropOp52
 70
     0
102
RTVSPost2010Prop53
 90
        2
102
RTVSPost2010PropOp53
 70
     0
102
RTVSPost2010Prop54
  1
strokes_ogs.tif
102
RTVSPost2010PropOp54
 70
     0
102
RTVSPost2010Prop55
280
     0
102
RTVSPost2010PropOp55
 70
     1
102
RTVSPost2010Prop56
140
1.0
102
RTVSPost2010PropOp56
 70
     0
102
RTVSPost2010Prop57
140
1.0
102
RTVSPost2010PropOp57
 70
     0
102
RTVSPropertyOp0
 70
     0
102
RTVSPropertyOp1
 70
     0
102
RTVSPropertyOp2
 70
     0
102
RTVSPropertyOp3
 70
     0
102
RTVSPropertyOp4
 70
     0
102
RTVSPropertyOp5
 70
     0
102
RTVSPropertyOp6
 70
     0
102
RTVSPropertyOp7
 70
     0
102
RTVSPropertyOp8
 70
     0
102
RTVSPropertyOp9
 70
     0
102
RTVSPropertyOp10
 70
     0
102
RTVSPropertyOp11
 70
     0
102
RTVSPropertyOp12
 70
     0
102
RTVSPropertyOp13
 70
     0
102
RTVSPropertyOp14
 70
     2
102
RTVSPropertyOp15
 70
     0
102
RTVSPropertyOp16
 70
     0
102
RTVSPropertyOp17
 70
     0
102
RTVSPropertyOp18
 70
     0
102
RTVSPropertyOp19
 70
     0
102
RTVSPropertyOp20
 70
     0
102
RTVSPropertyOp21
 70
     0
102
RTVSPropertyOp22
 70
     0
102
RTVSPropertyOp23
 70
     0
102
RTVSPropertyOp24
 70
     0
102
RTVSPropertyOp25
 70
     0
102
RTVSPropertyOp26
 70
     0
102
RTVSPropertyOp27
 70
     0
102
RTVSPropertyOp28
 70
     1
102
RTVSPropertyOp29
 70
     1
102
RTVSPropertyOp30
 70
     1
102
RTVSPropertyOp31
 70
     1
102
RTVSPropertyOp32
 70
     1
102
RTVSPropertyOp33
 70
     1
102
RTVSPropertyOp34
 70
     1
102
RTVSPropertyOp35
 70
     1
102
RTVSPropertyOp36
 70
     1
102
RTVSPropertyOp37
 70
     0
102
RTVSPropertyOp38
 70
     0
102
RTVSPropertyOp39
 70
     0
102
RTVSPropertyOp40
 70
     0
102
RTVSPropertyOp41
 70
     0
102
RTVSPropertyOp42
 70
     0
102
RTVSPropertyOp43
 70
     0
102
RTVSPropertyOp44
 70
     0
102
RTVSPropertyOp45
 70
     1
102
RTVSPropertyOp46
 70
     0
102
RTVSPropertyOp47
 70
     0
102
RTVSPropertyOp48
 70
     0
102
RTVSPropertyOp49
 70
     1
102
RTVSPropertyOp50
 70
     0
102
RTVSPropertyOp51
 70
     0
102
RTVSPropertyOp52
 70
     0
102
RTVSPropertyOp53
 70
     0
102
RTVSPropertyOp54
 70
     0
102
RTVSPropertyOp55
 70
     1
102
RTVSPropertyOp56
 70
     0
102
RTVSPropertyOp57
 70
     0
102
RTVSPropertyOp58
 70
     0
102
RTVSPropertyOp59
 70
     0
102
RTVSPropertyOp60
 70
     0
102
RTVSPropertyOp61
 70
     0
102
RTVSPropertyOp62
 70
     0
  0
XRECORD
  5
D6C
102
{ACAD_REACTORS
330
D6B
102
}
330
D6B
100
AcDbXrecord
280
     1
102
RTVSPost2010Prop28
280
     0
102
RTVSPost2010PropOp28
 70
     1
102
RTVSPost2010Prop29
280
     1
102
RTVSPost2010PropOp29
 70
     1
102
RTVSPost2010Prop30
280
     1
102
RTVSPost2010PropOp30
 70
     1
102
RTVSPost2010Prop31
280
     0
102
RTVSPost2010PropOp31
 70
     1
102
RTVSPost2010Prop32
280
     0
102
RTVSPost2010PropOp32
 70
     1
102
RTVSPost2010Prop33
280
     0
102
RTVSPost2010PropOp33
 70
     1
102
RTVSPost2010Prop34
280
     0
102
RTVSPost2010PropOp34
 70
     1
102
RTVSPost2010Prop35
280
     0
102
RTVSPost2010PropOp35
 70
     1
102
RTVSPost2010Prop36
280
     0
102
RTVSPost2010PropOp36
 70
     1
102
RTVSPost2010Prop37
 90
       50
102
RTVSPost2010PropOp37
 70
     1
102
RTVSPost2010Prop38
140
0.0
102
RTVSPost2010PropOp38
 70
     1
102
RTVSPost2010Prop39
140
1.0
102
RTVSPost2010PropOp39
 70
     1
102
RTVSPost2010Prop40
 90
        0
102
RTVSPost2010PropOp40
 70
     1
102
RTVSPost2010Prop41ColorIndex
 90
       18
102
RTVSPost2010Prop41ColorRGB
 90
        0
102
RTVSPost2010PropOp41
 70
     1
102
RTVSPost2010Prop42
 90
       50
102
RTVSPost2010PropOp42
 70
     1
102
RTVSPost2010Prop43
 90
        3
102
RTVSPost2010PropOp43
 70
     1
102
RTVSPost2010Prop44ColorIndex
 90
        5
102
RTVSPost2010Prop44ColorRGB
 90
      255
102
RTVSPost2010PropOp44
 70
     1
102
RTVSPost2010Prop45
280
     0
102
RTVSPost2010PropOp45
 70
     1
102
RTVSPost2010Prop46
 90
       50
102
RTVSPost2010PropOp46
 70
     1
102
RTVSPost2010Prop47
 90
       50
102
RTVSPost2010PropOp47
 70
     1
102
RTVSPost2010Prop48
 90
       50
102
RTVSPost2010PropOp48
 70
     1
102
RTVSPost2010Prop49
280
     0
102
RTVSPost2010PropOp49
 70
     1
102
RTVSPost2010Prop50
 90
       50
102
RTVSPost2010PropOp50
 70
     1
102
RTVSPost2010Prop51ColorIndex
 90
      256
102
RTVSPost2010Prop51ColorRGB
 90
-16777216
102
RTVSPost2010PropOp51
 70
     0
102
RTVSPost2010Prop52
140
1.0
102
RTVSPost2010PropOp52
 70
     0
102
RTVSPost2010Prop53
 90
        2
102
RTVSPost2010PropOp53
 70
     1
102
RTVSPost2010Prop54
  1
strokes_ogs.tif
102
RTVSPost2010PropOp54
 70
     1
102
RTVSPost2010Prop55
280
     0
102
RTVSPost2010PropOp55
 70
     1
102
RTVSPost2010Prop56
140
1.0
102
RTVSPost2010PropOp56
 70
     1
102
RTVSPost2010Prop57
140
1.0
102
RTVSPost2010PropOp57
 70
     1
102
RTVSPropertyOp0
 70
     1
102
RTVSPropertyOp1
 70
     1
102
RTVSPropertyOp2
 70
     1
102
RTVSPropertyOp3
 70
     1
102
RTVSPropertyOp4
 70
     1
102
RTVSPropertyOp5
 70
     1
102
RTVSPropertyOp6
 70
     1
102
RTVSPropertyOp7
 70
     1
102
RTVSPropertyOp8
 70
     1
102
RTVSPropertyOp9
 70
     1
102
RTVSPropertyOp10
 70
     1
102
RTVSPropertyOp11
 70
     1
102
RTVSPropertyOp12
 70
     1
102
RTVSPropertyOp13
 70
     1
102
RTVSPropertyOp14
 70
     1
102
RTVSPropertyOp15
 70
     1
102
RTVSPropertyOp16
 70
     1
102
RTVSPropertyOp17
 70
     1
102
RTVSPropertyOp18
 70
     1
102
RTVSPropertyOp19
 70
     1
102
RTVSPropertyOp20
 70
     1
102
RTVSPropertyOp21
 70
     1
102
RTVSPropertyOp22
 70
     1
102
RTVSPropertyOp23
 70
     1
102
RTVSPropertyOp24
 70
     1
102
RTVSPropertyOp25
 70
     1
102
RTVSPropertyOp26
 70
     1
102
RTVSPropertyOp27
 70
     1
102
RTVSPropertyOp28
 70
     1
102
RTVSPropertyOp29
 70
     1
102
RTVSPropertyOp30
 70
     1
102
RTVSPropertyOp31
 70
     1
102
RTVSPropertyOp32
 70
     1
102
RTVSPropertyOp33
 70
     1
102
RTVSPropertyOp34
 70
     1
102
RTVSPropertyOp35
 70
     1
102
RTVSPropertyOp36
 70
     1
102
RTVSPropertyOp37
 70
     1
102
RTVSPropertyOp38
 70
     1
102
RTVSPropertyOp39
 70
     1
102
RTVSPropertyOp40
 70
     1
102
RTVSPropertyOp41
 70
     1
102
RTVSPropertyOp42
 70
     1
102
RTVSPropertyOp43
 70
     1
102
RTVSPropertyOp44
 70
     1
102
RTVSPropertyOp45
 70
     1
102
RTVSPropertyOp46
 70
     1
102
RTVSPropertyOp47
 70
     1
102
RTVSPropertyOp48
 70
     1
102
RTVSPropertyOp49
 70
     1
102
RTVSPropertyOp50
 70
     1
102
RTVSPropertyOp51
 70
     0
102
RTVSPropertyOp52
 70
     0
102
RTVSPropertyOp53
 70
     1
102
RTVSPropertyOp54
 70
     1
102
RTVSPropertyOp55
 70
     1
102
RTVSPropertyOp56
 70
     1
102
RTVSPropertyOp57
 70
     1
102
RTVSPropertyOp58
 70
     1
102
RTVSPropertyOp59
 70
     1
102
RTVSPropertyOp60
 70
     1
102
RTVSPropertyOp61
 70
     1
102
RTVSPropertyOp62
 70
     1
  0
XRECORD
  5
D82
102
{ACAD_REACTORS
330
D81
102
}
330
D81
100
AcDbXrecord
280
     1
102
RTVSPost2010Prop28
280
     0
102
RTVSPost2010PropOp28
 70
     1
102
RTVSPost2010Prop29
280
     1
102
RTVSPost2010PropOp29
 70
     1
102
RTVSPost2010Prop30
280
     1
102
RTVSPost2010PropOp30
 70
     1
102
RTVSPost2010Prop31
280
     0
102
RTVSPost2010PropOp31
 70
     1
102
RTVSPost2010Prop32
280
     0
102
RTVSPost2010PropOp32
 70
     1
102
RTVSPost2010Prop33
280
     0
102
RTVSPost2010PropOp33
 70
     1
102
RTVSPost2010Prop34
280
     0
102
RTVSPost2010PropOp34
 70
     1
102
RTVSPost2010Prop35
280
     0
102
RTVSPost2010PropOp35
 70
     1
102
RTVSPost2010Prop36
280
     0
102
RTVSPost2010PropOp36
 70
     1
102
RTVSPost2010Prop37
 90
       50
102
RTVSPost2010PropOp37
 70
     1
102
RTVSPost2010Prop38
140
0.0
102
RTVSPost2010PropOp38
 70
     1
102
RTVSPost2010Prop39
140
1.0
102
RTVSPost2010PropOp39
 70
     1
102
RTVSPost2010Prop40
 90
        0
102
RTVSPost2010PropOp40
 70
     1
102
RTVSPost2010Prop41ColorIndex
 90
       18
102
RTVSPost2010Prop41ColorRGB
 90
        0
102
RTVSPost2010PropOp41
 70
     1
102
RTVSPost2010Prop42
 90
       50
102
RTVSPost2010PropOp42
 70
     1
102
RTVSPost2010Prop43
 90
        3
102
RTVSPost2010PropOp43
 70
     1
102
RTVSPost2010Prop44ColorIndex
 90
        5
102
RTVSPost2010Prop44ColorRGB
 90
      255
102
RTVSPost2010PropOp44
 70
     1
102
RTVSPost2010Prop45
280
     0
102
RTVSPost2010PropOp45
 70
     1
102
RTVSPost2010Prop46
 90
       50
102
RTVSPost2010PropOp46
 70
     1
102
RTVSPost2010Prop47
 90
       50
102
RTVSPost2010PropOp47
 70
     1
102
RTVSPost2010Prop48
 90
       50
102
RTVSPost2010PropOp48
 70
     1
102
RTVSPost2010Prop49
280
     0
102
RTVSPost2010PropOp49
 70
     1
102
RTVSPost2010Prop50
 90
       50
102
RTVSPost2010PropOp50
 70
     1
102
RTVSPost2010Prop51ColorIndex
 90
      256
102
RTVSPost2010Prop51ColorRGB
 90
-16777216
102
RTVSPost2010PropOp51
 70
     0
102
RTVSPost2010Prop52
140
1.0
102
RTVSPost2010PropOp52
 70
     0
102
RTVSPost2010Prop53
 90
        2
102
RTVSPost2010PropOp53
 70
     1
102
RTVSPost2010Prop54
  1
strokes_ogs.tif
102
RTVSPost2010PropOp54
 70
     1
102
RTVSPost2010Prop55
280
     0
102
RTVSPost2010PropOp55
 70
     1
102
RTVSPost2010Prop56
140
1.0
102
RTVSPost2010PropOp56
 70
     1
102
RTVSPost2010Prop57
140
1.0
102
RTVSPost2010PropOp57
 70
     1
102
RTVSPropertyOp0
 70
     1
102
RTVSPropertyOp1
 70
     1
102
RTVSPropertyOp2
 70
     1
102
RTVSPropertyOp3
 70
     1
102
RTVSPropertyOp4
 70
     1
102
RTVSPropertyOp5
 70
     1
102
RTVSPropertyOp6
 70
     1
102
RTVSPropertyOp7
 70
     1
102
RTVSPropertyOp8
 70
     1
102
RTVSPropertyOp9
 70
     1
102
RTVSPropertyOp10
 70
     1
102
RTVSPropertyOp11
 70
     1
102
RTVSPropertyOp12
 70
     1
102
RTVSPropertyOp13
 70
     1
102
RTVSPropertyOp14
 70
     1
102
RTVSPropertyOp15
 70
     1
102
RTVSPropertyOp16
 70
     1
102
RTVSPropertyOp17
 70
     1
102
RTVSPropertyOp18
 70
     1
102
RTVSPropertyOp19
 70
     1
102
RTVSPropertyOp20
 70
     1
102
RTVSPropertyOp21
 70
     1
102
RTVSPropertyOp22
 70
     1
102
RTVSPropertyOp23
 70
     1
102
RTVSPropertyOp24
 70
     1
102
RTVSPropertyOp25
 70
     1
102
RTVSPropertyOp26
 70
     1
102
RTVSPropertyOp27
 70
     1
102
RTVSPropertyOp28
 70
     1
102
RTVSPropertyOp29
 70
     1
102
RTVSPropertyOp30
 70
     1
102
RTVSPropertyOp31
 70
     1
102
RTVSPropertyOp32
 70
     1
102
RTVSPropertyOp33
 70
     1
102
RTVSPropertyOp34
 70
     1
102
RTVSPropertyOp35
 70
     1
102
RTVSPropertyOp36
 70
     1
102
RTVSPropertyOp37
 70
     1
102
RTVSPropertyOp38
 70
     1
102
RTVSPropertyOp39
 70
     1
102
RTVSPropertyOp40
 70
     1
102
RTVSPropertyOp41
 70
     1
102
RTVSPropertyOp42
 70
     1
102
RTVSPropertyOp43
 70
     1
102
RTVSPropertyOp44
 70
     1
102
RTVSPropertyOp45
 70
     1
102
RTVSPropertyOp46
 70
     1
102
RTVSPropertyOp47
 70
     1
102
RTVSPropertyOp48
 70
     1
102
RTVSPropertyOp49
 70
     1
102
RTVSPropertyOp50
 70
     1
102
RTVSPropertyOp51
 70
     0
102
RTVSPropertyOp52
 70
     0
102
RTVSPropertyOp53
 70
     1
102
RTVSPropertyOp54
 70
     1
102
RTVSPropertyOp55
 70
     1
102
RTVSPropertyOp56
 70
     1
102
RTVSPropertyOp57
 70
     1
102
RTVSPropertyOp58
 70
     1
102
RTVSPropertyOp59
 70
     1
102
RTVSPropertyOp60
 70
     1
102
RTVSPropertyOp61
 70
     1
102
RTVSPropertyOp62
 70
     1
  0
XRECORD
  5
D80
102
{ACAD_REACTORS
330
D7F
102
}
330
D7F
100
AcDbXrecord
280
     1
102
RTVSPost2010Prop28
280
     0
102
RTVSPost2010PropOp28
 70
     1
102
RTVSPost2010Prop29
280
     1
102
RTVSPost2010PropOp29
 70
     1
102
RTVSPost2010Prop30
280
     1
102
RTVSPost2010PropOp30
 70
     1
102
RTVSPost2010Prop31
280
     0
102
RTVSPost2010PropOp31
 70
     1
102
RTVSPost2010Prop32
280
     0
102
RTVSPost2010PropOp32
 70
     1
102
RTVSPost2010Prop33
280
     0
102
RTVSPost2010PropOp33
 70
     1
102
RTVSPost2010Prop34
280
     0
102
RTVSPost2010PropOp34
 70
     1
102
RTVSPost2010Prop35
280
     0
102
RTVSPost2010PropOp35
 70
     1
102
RTVSPost2010Prop36
280
     0
102
RTVSPost2010PropOp36
 70
     1
102
RTVSPost2010Prop37
 90
       50
102
RTVSPost2010PropOp37
 70
     1
102
RTVSPost2010Prop38
140
0.0
102
RTVSPost2010PropOp38
 70
     1
102
RTVSPost2010Prop39
140
1.0
102
RTVSPost2010PropOp39
 70
     1
102
RTVSPost2010Prop40
 90
        0
102
RTVSPost2010PropOp40
 70
     1
102
RTVSPost2010Prop41ColorIndex
 90
       18
102
RTVSPost2010Prop41ColorRGB
 90
        0
102
RTVSPost2010PropOp41
 70
     1
102
RTVSPost2010Prop42
 90
       50
102
RTVSPost2010PropOp42
 70
     1
102
RTVSPost2010Prop43
 90
        3
102
RTVSPost2010PropOp43
 70
     1
102
RTVSPost2010Prop44ColorIndex
 90
        5
102
RTVSPost2010Prop44ColorRGB
 90
      255
102
RTVSPost2010PropOp44
 70
     1
102
RTVSPost2010Prop45
280
     0
102
RTVSPost2010PropOp45
 70
     1
102
RTVSPost2010Prop46
 90
       50
102
RTVSPost2010PropOp46
 70
     1
102
RTVSPost2010Prop47
 90
       50
102
RTVSPost2010PropOp47
 70
     1
102
RTVSPost2010Prop48
 90
       50
102
RTVSPost2010PropOp48
 70
     1
102
RTVSPost2010Prop49
280
     0
102
RTVSPost2010PropOp49
 70
     1
102
RTVSPost2010Prop50
 90
       50
102
RTVSPost2010PropOp50
 70
     1
102
RTVSPost2010Prop51ColorIndex
 90
      256
102
RTVSPost2010Prop51ColorRGB
 90
-16777216
102
RTVSPost2010PropOp51
 70
     0
102
RTVSPost2010Prop52
140
1.0
102
RTVSPost2010PropOp52
 70
     0
102
RTVSPost2010Prop53
 90
        2
102
RTVSPost2010PropOp53
 70
     1
102
RTVSPost2010Prop54
  1
strokes_ogs.tif
102
RTVSPost2010PropOp54
 70
     1
102
RTVSPost2010Prop55
280
     0
102
RTVSPost2010PropOp55
 70
     1
102
RTVSPost2010Prop56
140
1.0
102
RTVSPost2010PropOp56
 70
     1
102
RTVSPost2010Prop57
140
1.0
102
RTVSPost2010PropOp57
 70
     1
102
RTVSPropertyOp0
 70
     1
102
RTVSPropertyOp1
 70
     1
102
RTVSPropertyOp2
 70
     1
102
RTVSPropertyOp3
 70
     1
102
RTVSPropertyOp4
 70
     1
102
RTVSPropertyOp5
 70
     1
102
RTVSPropertyOp6
 70
     1
102
RTVSPropertyOp7
 70
     1
102
RTVSPropertyOp8
 70
     1
102
RTVSPropertyOp9
 70
     1
102
RTVSPropertyOp10
 70
     1
102
RTVSPropertyOp11
 70
     1
102
RTVSPropertyOp12
 70
     1
102
RTVSPropertyOp13
 70
     1
102
RTVSPropertyOp14
 70
     1
102
RTVSPropertyOp15
 70
     1
102
RTVSPropertyOp16
 70
     1
102
RTVSPropertyOp17
 70
     1
102
RTVSPropertyOp18
 70
     1
102
RTVSPropertyOp19
 70
     1
102
RTVSPropertyOp20
 70
     1
102
RTVSPropertyOp21
 70
     1
102
RTVSPropertyOp22
 70
     1
102
RTVSPropertyOp23
 70
     1
102
RTVSPropertyOp24
 70
     1
102
RTVSPropertyOp25
 70
     1
102
RTVSPropertyOp26
 70
     1
102
RTVSPropertyOp27
 70
     1
102
RTVSPropertyOp28
 70
     1
102
RTVSPropertyOp29
 70
     1
102
RTVSPropertyOp30
 70
     1
102
RTVSPropertyOp31
 70
     1
102
RTVSPropertyOp32
 70
     1
102
RTVSPropertyOp33
 70
     1
102
RTVSPropertyOp34
 70
     1
102
RTVSPropertyOp35
 70
     1
102
RTVSPropertyOp36
 70
     1
102
RTVSPropertyOp37
 70
     1
102
RTVSPropertyOp38
 70
     1
102
RTVSPropertyOp39
 70
     1
102
RTVSPropertyOp40
 70
     1
102
RTVSPropertyOp41
 70
     1
102
RTVSPropertyOp42
 70
     1
102
RTVSPropertyOp43
 70
     1
102
RTVSPropertyOp44
 70
     1
102
RTVSPropertyOp45
 70
     1
102
RTVSPropertyOp46
 70
     1
102
RTVSPropertyOp47
 70
     1
102
RTVSPropertyOp48
 70
     1
102
RTVSPropertyOp49
 70
     1
102
RTVSPropertyOp50
 70
     1
102
RTVSPropertyOp51
 70
     0
102
RTVSPropertyOp52
 70
     0
102
RTVSPropertyOp53
 70
     1
102
RTVSPropertyOp54
 70
     1
102
RTVSPropertyOp55
 70
     1
102
RTVSPropertyOp56
 70
     1
102
RTVSPropertyOp57
 70
     1
102
RTVSPropertyOp58
 70
     1
102
RTVSPropertyOp59
 70
     1
102
RTVSPropertyOp60
 70
     1
102
RTVSPropertyOp61
 70
     1
102
RTVSPropertyOp62
 70
     1
  0
XRECORD
  5
D7A
102
{ACAD_REACTORS
330
D79
102
}
330
D79
100
AcDbXrecord
280
     1
102
RTVSPost2010Prop28
280
     0
102
RTVSPost2010PropOp28
 70
     1
102
RTVSPost2010Prop29
280
     1
102
RTVSPost2010PropOp29
 70
     1
102
RTVSPost2010Prop30
280
     1
102
RTVSPost2010PropOp30
 70
     1
102
RTVSPost2010Prop31
280
     0
102
RTVSPost2010PropOp31
 70
     1
102
RTVSPost2010Prop32
280
     0
102
RTVSPost2010PropOp32
 70
     1
102
RTVSPost2010Prop33
280
     0
102
RTVSPost2010PropOp33
 70
     1
102
RTVSPost2010Prop34
280
     0
102
RTVSPost2010PropOp34
 70
     1
102
RTVSPost2010Prop35
280
     0
102
RTVSPost2010PropOp35
 70
     1
102
RTVSPost2010Prop36
280
     0
102
RTVSPost2010PropOp36
 70
     1
102
RTVSPost2010Prop37
 90
       50
102
RTVSPost2010PropOp37
 70
     1
102
RTVSPost2010Prop38
140
0.0
102
RTVSPost2010PropOp38
 70
     1
102
RTVSPost2010Prop39
140
1.0
102
RTVSPost2010PropOp39
 70
     1
102
RTVSPost2010Prop40
 90
        0
102
RTVSPost2010PropOp40
 70
     1
102
RTVSPost2010Prop41ColorIndex
 90
       18
102
RTVSPost2010Prop41ColorRGB
 90
        0
102
RTVSPost2010PropOp41
 70
     1
102
RTVSPost2010Prop42
 90
       50
102
RTVSPost2010PropOp42
 70
     1
102
RTVSPost2010Prop43
 90
        3
102
RTVSPost2010PropOp43
 70
     1
102
RTVSPost2010Prop44ColorIndex
 90
        5
102
RTVSPost2010Prop44ColorRGB
 90
      255
102
RTVSPost2010PropOp44
 70
     1
102
RTVSPost2010Prop45
280
     0
102
RTVSPost2010PropOp45
 70
     1
102
RTVSPost2010Prop46
 90
       50
102
RTVSPost2010PropOp46
 70
     1
102
RTVSPost2010Prop47
 90
       50
102
RTVSPost2010PropOp47
 70
     1
102
RTVSPost2010Prop48
 90
       50
102
RTVSPost2010PropOp48
 70
     1
102
RTVSPost2010Prop49
280
     0
102
RTVSPost2010PropOp49
 70
     1
102
RTVSPost2010Prop50
 90
       50
102
RTVSPost2010PropOp50
 70
     1
102
RTVSPost2010Prop51ColorIndex
 90
      256
102
RTVSPost2010Prop51ColorRGB
 90
-16777216
102
RTVSPost2010PropOp51
 70
     0
102
RTVSPost2010Prop52
140
1.0
102
RTVSPost2010PropOp52
 70
     0
102
RTVSPost2010Prop53
 90
        2
102
RTVSPost2010PropOp53
 70
     1
102
RTVSPost2010Prop54
  1
strokes_ogs.tif
102
RTVSPost2010PropOp54
 70
     1
102
RTVSPost2010Prop55
280
     0
102
RTVSPost2010PropOp55
 70
     1
102
RTVSPost2010Prop56
140
1.0
102
RTVSPost2010PropOp56
 70
     1
102
RTVSPost2010Prop57
140
1.0
102
RTVSPost2010PropOp57
 70
     1
102
RTVSPropertyOp0
 70
     1
102
RTVSPropertyOp1
 70
     1
102
RTVSPropertyOp2
 70
     1
102
RTVSPropertyOp3
 70
     1
102
RTVSPropertyOp4
 70
     1
102
RTVSPropertyOp5
 70
     1
102
RTVSPropertyOp6
 70
     1
102
RTVSPropertyOp7
 70
     1
102
RTVSPropertyOp8
 70
     1
102
RTVSPropertyOp9
 70
     1
102
RTVSPropertyOp10
 70
     1
102
RTVSPropertyOp11
 70
     1
102
RTVSPropertyOp12
 70
     1
102
RTVSPropertyOp13
 70
     1
102
RTVSPropertyOp14
 70
     1
102
RTVSPropertyOp15
 70
     1
102
RTVSPropertyOp16
 70
     1
102
RTVSPropertyOp17
 70
     1
102
RTVSPropertyOp18
 70
     1
102
RTVSPropertyOp19
 70
     1
102
RTVSPropertyOp20
 70
     1
102
RTVSPropertyOp21
 70
     1
102
RTVSPropertyOp22
 70
     1
102
RTVSPropertyOp23
 70
     1
102
RTVSPropertyOp24
 70
     1
102
RTVSPropertyOp25
 70
     1
102
RTVSPropertyOp26
 70
     1
102
RTVSPropertyOp27
 70
     1
102
RTVSPropertyOp28
 70
     1
102
RTVSPropertyOp29
 70
     1
102
RTVSPropertyOp30
 70
     1
102
RTVSPropertyOp31
 70
     1
102
RTVSPropertyOp32
 70
     1
102
RTVSPropertyOp33
 70
     1
102
RTVSPropertyOp34
 70
     1
102
RTVSPropertyOp35
 70
     1
102
RTVSPropertyOp36
 70
     1
102
RTVSPropertyOp37
 70
     1
102
RTVSPropertyOp38
 70
     1
102
RTVSPropertyOp39
 70
     1
102
RTVSPropertyOp40
 70
     1
102
RTVSPropertyOp41
 70
     1
102
RTVSPropertyOp42
 70
     1
102
RTVSPropertyOp43
 70
     1
102
RTVSPropertyOp44
 70
     1
102
RTVSPropertyOp45
 70
     1
102
RTVSPropertyOp46
 70
     1
102
RTVSPropertyOp47
 70
     1
102
RTVSPropertyOp48
 70
     1
102
RTVSPropertyOp49
 70
     1
102
RTVSPropertyOp50
 70
     1
102
RTVSPropertyOp51
 70
     0
102
RTVSPropertyOp52
 70
     0
102
RTVSPropertyOp53
 70
     1
102
RTVSPropertyOp54
 70
     1
102
RTVSPropertyOp55
 70
     1
102
RTVSPropertyOp56
 70
     1
102
RTVSPropertyOp57
 70
     1
102
RTVSPropertyOp58
 70
     1
102
RTVSPropertyOp59
 70
     1
102
RTVSPropertyOp60
 70
     1
102
RTVSPropertyOp61
 70
     1
102
RTVSPropertyOp62
 70
     1
  0
XRECORD
  5
D7C
102
{ACAD_REACTORS
330
D7B
102
}
330
D7B
100
AcDbXrecord
280
     1
102
RTVSPost2010Prop28
280
     0
102
RTVSPost2010PropOp28
 70
     1
102
RTVSPost2010Prop29
280
     1
102
RTVSPost2010PropOp29
 70
     1
102
RTVSPost2010Prop30
280
     1
102
RTVSPost2010PropOp30
 70
     1
102
RTVSPost2010Prop31
280
     0
102
RTVSPost2010PropOp31
 70
     1
102
RTVSPost2010Prop32
280
     0
102
RTVSPost2010PropOp32
 70
     1
102
RTVSPost2010Prop33
280
     0
102
RTVSPost2010PropOp33
 70
     1
102
RTVSPost2010Prop34
280
     0
102
RTVSPost2010PropOp34
 70
     1
102
RTVSPost2010Prop35
280
     0
102
RTVSPost2010PropOp35
 70
     1
102
RTVSPost2010Prop36
280
     0
102
RTVSPost2010PropOp36
 70
     1
102
RTVSPost2010Prop37
 90
       50
102
RTVSPost2010PropOp37
 70
     1
102
RTVSPost2010Prop38
140
0.0
102
RTVSPost2010PropOp38
 70
     1
102
RTVSPost2010Prop39
140
1.0
102
RTVSPost2010PropOp39
 70
     1
102
RTVSPost2010Prop40
 90
        0
102
RTVSPost2010PropOp40
 70
     1
102
RTVSPost2010Prop41ColorIndex
 90
       18
102
RTVSPost2010Prop41ColorRGB
 90
        0
102
RTVSPost2010PropOp41
 70
     1
102
RTVSPost2010Prop42
 90
       50
102
RTVSPost2010PropOp42
 70
     1
102
RTVSPost2010Prop43
 90
        3
102
RTVSPost2010PropOp43
 70
     1
102
RTVSPost2010Prop44ColorIndex
 90
        5
102
RTVSPost2010Prop44ColorRGB
 90
      255
102
RTVSPost2010PropOp44
 70
     1
102
RTVSPost2010Prop45
280
     0
102
RTVSPost2010PropOp45
 70
     1
102
RTVSPost2010Prop46
 90
       50
102
RTVSPost2010PropOp46
 70
     1
102
RTVSPost2010Prop47
 90
       50
102
RTVSPost2010PropOp47
 70
     1
102
RTVSPost2010Prop48
 90
       50
102
RTVSPost2010PropOp48
 70
     1
102
RTVSPost2010Prop49
280
     0
102
RTVSPost2010PropOp49
 70
     1
102
RTVSPost2010Prop50
 90
       50
102
RTVSPost2010PropOp50
 70
     1
102
RTVSPost2010Prop51ColorIndex
 90
      256
102
RTVSPost2010Prop51ColorRGB
 90
-16777216
102
RTVSPost2010PropOp51
 70
     0
102
RTVSPost2010Prop52
140
1.0
102
RTVSPost2010PropOp52
 70
     0
102
RTVSPost2010Prop53
 90
        2
102
RTVSPost2010PropOp53
 70
     1
102
RTVSPost2010Prop54
  1
strokes_ogs.tif
102
RTVSPost2010PropOp54
 70
     1
102
RTVSPost2010Prop55
280
     0
102
RTVSPost2010PropOp55
 70
     1
102
RTVSPost2010Prop56
140
1.0
102
RTVSPost2010PropOp56
 70
     1
102
RTVSPost2010Prop57
140
1.0
102
RTVSPost2010PropOp57
 70
     1
102
RTVSPropertyOp0
 70
     1
102
RTVSPropertyOp1
 70
     1
102
RTVSPropertyOp2
 70
     1
102
RTVSPropertyOp3
 70
     1
102
RTVSPropertyOp4
 70
     1
102
RTVSPropertyOp5
 70
     1
102
RTVSPropertyOp6
 70
     1
102
RTVSPropertyOp7
 70
     1
102
RTVSPropertyOp8
 70
     1
102
RTVSPropertyOp9
 70
     1
102
RTVSPropertyOp10
 70
     1
102
RTVSPropertyOp11
 70
     1
102
RTVSPropertyOp12
 70
     1
102
RTVSPropertyOp13
 70
     1
102
RTVSPropertyOp14
 70
     1
102
RTVSPropertyOp15
 70
     1
102
RTVSPropertyOp16
 70
     1
102
RTVSPropertyOp17
 70
     1
102
RTVSPropertyOp18
 70
     1
102
RTVSPropertyOp19
 70
     1
102
RTVSPropertyOp20
 70
     1
102
RTVSPropertyOp21
 70
     1
102
RTVSPropertyOp22
 70
     1
102
RTVSPropertyOp23
 70
     1
102
RTVSPropertyOp24
 70
     1
102
RTVSPropertyOp25
 70
     1
102
RTVSPropertyOp26
 70
     1
102
RTVSPropertyOp27
 70
     1
102
RTVSPropertyOp28
 70
     1
102
RTVSPropertyOp29
 70
     1
102
RTVSPropertyOp30
 70
     1
102
RTVSPropertyOp31
 70
     1
102
RTVSPropertyOp32
 70
     1
102
RTVSPropertyOp33
 70
     1
102
RTVSPropertyOp34
 70
     1
102
RTVSPropertyOp35
 70
     1
102
RTVSPropertyOp36
 70
     1
102
RTVSPropertyOp37
 70
     1
102
RTVSPropertyOp38
 70
     1
102
RTVSPropertyOp39
 70
     1
102
RTVSPropertyOp40
 70
     1
102
RTVSPropertyOp41
 70
     1
102
RTVSPropertyOp42
 70
     1
102
RTVSPropertyOp43
 70
     1
102
RTVSPropertyOp44
 70
     1
102
RTVSPropertyOp45
 70
     1
102
RTVSPropertyOp46
 70
     1
102
RTVSPropertyOp47
 70
     1
102
RTVSPropertyOp48
 70
     1
102
RTVSPropertyOp49
 70
     1
102
RTVSPropertyOp50
 70
     1
102
RTVSPropertyOp51
 70
     0
102
RTVSPropertyOp52
 70
     0
102
RTVSPropertyOp53
 70
     1
102
RTVSPropertyOp54
 70
     1
102
RTVSPropertyOp55
 70
     1
102
RTVSPropertyOp56
 70
     1
102
RTVSPropertyOp57
 70
     1
102
RTVSPropertyOp58
 70
     1
102
RTVSPropertyOp59
 70
     1
102
RTVSPropertyOp60
 70
     1
102
RTVSPropertyOp61
 70
     1
102
RTVSPropertyOp62
 70
     1
  0
XRECORD
  5
D72
102
{ACAD_REACTORS
330
D71
102
}
330
D71
100
AcDbXrecord
280
     1
102
RTVSPost2010Prop28
280
     0
102
RTVSPost2010PropOp28
 70
     1
102
RTVSPost2010Prop29
280
     1
102
RTVSPost2010PropOp29
 70
     1
102
RTVSPost2010Prop30
280
     1
102
RTVSPost2010PropOp30
 70
     1
102
RTVSPost2010Prop31
280
     0
102
RTVSPost2010PropOp31
 70
     1
102
RTVSPost2010Prop32
280
     0
102
RTVSPost2010PropOp32
 70
     1
102
RTVSPost2010Prop33
280
     0
102
RTVSPost2010PropOp33
 70
     1
102
RTVSPost2010Prop34
280
     0
102
RTVSPost2010PropOp34
 70
     1
102
RTVSPost2010Prop35
280
     0
102
RTVSPost2010PropOp35
 70
     1
102
RTVSPost2010Prop36
280
     0
102
RTVSPost2010PropOp36
 70
     1
102
RTVSPost2010Prop37
 90
       50
102
RTVSPost2010PropOp37
 70
     1
102
RTVSPost2010Prop38
140
0.0
102
RTVSPost2010PropOp38
 70
     1
102
RTVSPost2010Prop39
140
1.0
102
RTVSPost2010PropOp39
 70
     1
102
RTVSPost2010Prop40
 90
        0
102
RTVSPost2010PropOp40
 70
     1
102
RTVSPost2010Prop41ColorIndex
 90
       18
102
RTVSPost2010Prop41ColorRGB
 90
        0
102
RTVSPost2010PropOp41
 70
     1
102
RTVSPost2010Prop42
 90
       50
102
RTVSPost2010PropOp42
 70
     1
102
RTVSPost2010Prop43
 90
        3
102
RTVSPost2010PropOp43
 70
     1
102
RTVSPost2010Prop44ColorIndex
 90
        5
102
RTVSPost2010Prop44ColorRGB
 90
      255
102
RTVSPost2010PropOp44
 70
     1
102
RTVSPost2010Prop45
280
     0
102
RTVSPost2010PropOp45
 70
     1
102
RTVSPost2010Prop46
 90
       50
102
RTVSPost2010PropOp46
 70
     1
102
RTVSPost2010Prop47
 90
       50
102
RTVSPost2010PropOp47
 70
     1
102
RTVSPost2010Prop48
 90
       50
102
RTVSPost2010PropOp48
 70
     1
102
RTVSPost2010Prop49
280
     0
102
RTVSPost2010PropOp49
 70
     1
102
RTVSPost2010Prop50
 90
       50
102
RTVSPost2010PropOp50
 70
     1
102
RTVSPost2010Prop51ColorIndex
 90
      256
102
RTVSPost2010Prop51ColorRGB
 90
-16777216
102
RTVSPost2010PropOp51
 70
     0
102
RTVSPost2010Prop52
140
1.0
102
RTVSPost2010PropOp52
 70
     0
102
RTVSPost2010Prop53
 90
        2
102
RTVSPost2010PropOp53
 70
     1
102
RTVSPost2010Prop54
  1
strokes_ogs.tif
102
RTVSPost2010PropOp54
 70
     1
102
RTVSPost2010Prop55
280
     0
102
RTVSPost2010PropOp55
 70
     1
102
RTVSPost2010Prop56
140
1.0
102
RTVSPost2010PropOp56
 70
     1
102
RTVSPost2010Prop57
140
1.0
102
RTVSPost2010PropOp57
 70
     1
102
RTVSPropertyOp0
 70
     1
102
RTVSPropertyOp1
 70
     1
102
RTVSPropertyOp2
 70
     1
102
RTVSPropertyOp3
 70
     1
102
RTVSPropertyOp4
 70
     1
102
RTVSPropertyOp5
 70
     1
102
RTVSPropertyOp6
 70
     1
102
RTVSPropertyOp7
 70
     1
102
RTVSPropertyOp8
 70
     1
102
RTVSPropertyOp9
 70
     1
102
RTVSPropertyOp10
 70
     1
102
RTVSPropertyOp11
 70
     1
102
RTVSPropertyOp12
 70
     1
102
RTVSPropertyOp13
 70
     1
102
RTVSPropertyOp14
 70
     1
102
RTVSPropertyOp15
 70
     1
102
RTVSPropertyOp16
 70
     1
102
RTVSPropertyOp17
 70
     1
102
RTVSPropertyOp18
 70
     1
102
RTVSPropertyOp19
 70
     1
102
RTVSPropertyOp20
 70
     1
102
RTVSPropertyOp21
 70
     1
102
RTVSPropertyOp22
 70
     1
102
RTVSPropertyOp23
 70
     1
102
RTVSPropertyOp24
 70
     1
102
RTVSPropertyOp25
 70
     1
102
RTVSPropertyOp26
 70
     1
102
RTVSPropertyOp27
 70
     1
102
RTVSPropertyOp28
 70
     1
102
RTVSPropertyOp29
 70
     1
102
RTVSPropertyOp30
 70
     1
102
RTVSPropertyOp31
 70
     1
102
RTVSPropertyOp32
 70
     1
102
RTVSPropertyOp33
 70
     1
102
RTVSPropertyOp34
 70
     1
102
RTVSPropertyOp35
 70
     1
102
RTVSPropertyOp36
 70
     1
102
RTVSPropertyOp37
 70
     1
102
RTVSPropertyOp38
 70
     1
102
RTVSPropertyOp39
 70
     1
102
RTVSPropertyOp40
 70
     1
102
RTVSPropertyOp41
 70
     1
102
RTVSPropertyOp42
 70
     1
102
RTVSPropertyOp43
 70
     1
102
RTVSPropertyOp44
 70
     1
102
RTVSPropertyOp45
 70
     1
102
RTVSPropertyOp46
 70
     1
102
RTVSPropertyOp47
 70
     1
102
RTVSPropertyOp48
 70
     1
102
RTVSPropertyOp49
 70
     1
102
RTVSPropertyOp50
 70
     1
102
RTVSPropertyOp51
 70
     0
102
RTVSPropertyOp52
 70
     0
102
RTVSPropertyOp53
 70
     1
102
RTVSPropertyOp54
 70
     1
102
RTVSPropertyOp55
 70
     1
102
RTVSPropertyOp56
 70
     1
102
RTVSPropertyOp57
 70
     1
102
RTVSPropertyOp58
 70
     1
102
RTVSPropertyOp59
 70
     1
102
RTVSPropertyOp60
 70
     1
102
RTVSPropertyOp61
 70
     1
102
RTVSPropertyOp62
 70
     1
  0
XRECORD
  5
D66
102
{ACAD_REACTORS
330
D65
102
}
330
D65
100
AcDbXrecord
280
     1
102
RTVSPost2010Prop28
280
     0
102
RTVSPost2010PropOp28
 70
     1
102
RTVSPost2010Prop29
280
     1
102
RTVSPost2010PropOp29
 70
     1
102
RTVSPost2010Prop30
280
     1
102
RTVSPost2010PropOp30
 70
     1
102
RTVSPost2010Prop31
280
     0
102
RTVSPost2010PropOp31
 70
     1
102
RTVSPost2010Prop32
280
     0
102
RTVSPost2010PropOp32
 70
     1
102
RTVSPost2010Prop33
280
     0
102
RTVSPost2010PropOp33
 70
     1
102
RTVSPost2010Prop34
280
     0
102
RTVSPost2010PropOp34
 70
     1
102
RTVSPost2010Prop35
280
     0
102
RTVSPost2010PropOp35
 70
     1
102
RTVSPost2010Prop36
280
     0
102
RTVSPost2010PropOp36
 70
     1
102
RTVSPost2010Prop37
 90
       50
102
RTVSPost2010PropOp37
 70
     1
102
RTVSPost2010Prop38
140
0.0
102
RTVSPost2010PropOp38
 70
     1
102
RTVSPost2010Prop39
140
1.0
102
RTVSPost2010PropOp39
 70
     1
102
RTVSPost2010Prop40
 90
        0
102
RTVSPost2010PropOp40
 70
     1
102
RTVSPost2010Prop41ColorIndex
 90
       18
102
RTVSPost2010Prop41ColorRGB
 90
        0
102
RTVSPost2010PropOp41
 70
     1
102
RTVSPost2010Prop42
 90
       50
102
RTVSPost2010PropOp42
 70
     1
102
RTVSPost2010Prop43
 90
        3
102
RTVSPost2010PropOp43
 70
     1
102
RTVSPost2010Prop44ColorIndex
 90
        5
102
RTVSPost2010Prop44ColorRGB
 90
      255
102
RTVSPost2010PropOp44
 70
     1
102
RTVSPost2010Prop45
280
     0
102
RTVSPost2010PropOp45
 70
     1
102
RTVSPost2010Prop46
 90
       50
102
RTVSPost2010PropOp46
 70
     1
102
RTVSPost2010Prop47
 90
       50
102
RTVSPost2010PropOp47
 70
     1
102
RTVSPost2010Prop48
 90
       50
102
RTVSPost2010PropOp48
 70
     1
102
RTVSPost2010Prop49
280
     0
102
RTVSPost2010PropOp49
 70
     1
102
RTVSPost2010Prop50
 90
       50
102
RTVSPost2010PropOp50
 70
     1
102
RTVSPost2010Prop51ColorIndex
 90
      256
102
RTVSPost2010Prop51ColorRGB
 90
-16777216
102
RTVSPost2010PropOp51
 70
     0
102
RTVSPost2010Prop52
140
1.0
102
RTVSPost2010PropOp52
 70
     0
102
RTVSPost2010Prop53
 90
        2
102
RTVSPost2010PropOp53
 70
     1
102
RTVSPost2010Prop54
  1
strokes_ogs.tif
102
RTVSPost2010PropOp54
 70
     1
102
RTVSPost2010Prop55
280
     0
102
RTVSPost2010PropOp55
 70
     1
102
RTVSPost2010Prop56
140
1.0
102
RTVSPost2010PropOp56
 70
     1
102
RTVSPost2010Prop57
140
1.0
102
RTVSPost2010PropOp57
 70
     1
102
RTVSPropertyOp0
 70
     1
102
RTVSPropertyOp1
 70
     1
102
RTVSPropertyOp2
 70
     1
102
RTVSPropertyOp3
 70
     1
102
RTVSPropertyOp4
 70
     1
102
RTVSPropertyOp5
 70
     1
102
RTVSPropertyOp6
 70
     1
102
RTVSPropertyOp7
 70
     1
102
RTVSPropertyOp8
 70
     1
102
RTVSPropertyOp9
 70
     1
102
RTVSPropertyOp10
 70
     1
102
RTVSPropertyOp11
 70
     1
102
RTVSPropertyOp12
 70
     1
102
RTVSPropertyOp13
 70
     1
102
RTVSPropertyOp14
 70
     1
102
RTVSPropertyOp15
 70
     1
102
RTVSPropertyOp16
 70
     1
102
RTVSPropertyOp17
 70
     1
102
RTVSPropertyOp18
 70
     1
102
RTVSPropertyOp19
 70
     1
102
RTVSPropertyOp20
 70
     1
102
RTVSPropertyOp21
 70
     1
102
RTVSPropertyOp22
 70
     1
102
RTVSPropertyOp23
 70
     1
102
RTVSPropertyOp24
 70
     1
102
RTVSPropertyOp25
 70
     1
102
RTVSPropertyOp26
 70
     1
102
RTVSPropertyOp27
 70
     1
102
RTVSPropertyOp28
 70
     1
102
RTVSPropertyOp29
 70
     1
102
RTVSPropertyOp30
 70
     1
102
RTVSPropertyOp31
 70
     1
102
RTVSPropertyOp32
 70
     1
102
RTVSPropertyOp33
 70
     1
102
RTVSPropertyOp34
 70
     1
102
RTVSPropertyOp35
 70
     1
102
RTVSPropertyOp36
 70
     1
102
RTVSPropertyOp37
 70
     1
102
RTVSPropertyOp38
 70
     1
102
RTVSPropertyOp39
 70
     1
102
RTVSPropertyOp40
 70
     1
102
RTVSPropertyOp41
 70
     1
102
RTVSPropertyOp42
 70
     1
102
RTVSPropertyOp43
 70
     1
102
RTVSPropertyOp44
 70
     1
102
RTVSPropertyOp45
 70
     1
102
RTVSPropertyOp46
 70
     1
102
RTVSPropertyOp47
 70
     1
102
RTVSPropertyOp48
 70
     1
102
RTVSPropertyOp49
 70
     1
102
RTVSPropertyOp50
 70
     1
102
RTVSPropertyOp51
 70
     0
102
RTVSPropertyOp52
 70
     0
102
RTVSPropertyOp53
 70
     1
102
RTVSPropertyOp54
 70
     1
102
RTVSPropertyOp55
 70
     1
102
RTVSPropertyOp56
 70
     1
102
RTVSPropertyOp57
 70
     1
102
RTVSPropertyOp58
 70
     1
102
RTVSPropertyOp59
 70
     1
102
RTVSPropertyOp60
 70
     1
102
RTVSPropertyOp61
 70
     1
102
RTVSPropertyOp62
 70
     1
  0
XRECORD
  5
D7E
102
{ACAD_REACTORS
330
D7D
102
}
330
D7D
100
AcDbXrecord
280
     1
102
RTVSPost2010Prop28
280
     0
102
RTVSPost2010PropOp28
 70
     1
102
RTVSPost2010Prop29
280
     1
102
RTVSPost2010PropOp29
 70
     1
102
RTVSPost2010Prop30
280
     1
102
RTVSPost2010PropOp30
 70
     1
102
RTVSPost2010Prop31
280
     0
102
RTVSPost2010PropOp31
 70
     1
102
RTVSPost2010Prop32
280
     0
102
RTVSPost2010PropOp32
 70
     1
102
RTVSPost2010Prop33
280
     0
102
RTVSPost2010PropOp33
 70
     1
102
RTVSPost2010Prop34
280
     0
102
RTVSPost2010PropOp34
 70
     1
102
RTVSPost2010Prop35
280
     0
102
RTVSPost2010PropOp35
 70
     1
102
RTVSPost2010Prop36
280
     0
102
RTVSPost2010PropOp36
 70
     1
102
RTVSPost2010Prop37
 90
       50
102
RTVSPost2010PropOp37
 70
     1
102
RTVSPost2010Prop38
140
0.0
102
RTVSPost2010PropOp38
 70
     1
102
RTVSPost2010Prop39
140
1.0
102
RTVSPost2010PropOp39
 70
     1
102
RTVSPost2010Prop40
 90
        0
102
RTVSPost2010PropOp40
 70
     1
102
RTVSPost2010Prop41ColorIndex
 90
       18
102
RTVSPost2010Prop41ColorRGB
 90
        0
102
RTVSPost2010PropOp41
 70
     1
102
RTVSPost2010Prop42
 90
       50
102
RTVSPost2010PropOp42
 70
     1
102
RTVSPost2010Prop43
 90
        3
102
RTVSPost2010PropOp43
 70
     1
102
RTVSPost2010Prop44ColorIndex
 90
        5
102
RTVSPost2010Prop44ColorRGB
 90
      255
102
RTVSPost2010PropOp44
 70
     1
102
RTVSPost2010Prop45
280
     0
102
RTVSPost2010PropOp45
 70
     1
102
RTVSPost2010Prop46
 90
       50
102
RTVSPost2010PropOp46
 70
     1
102
RTVSPost2010Prop47
 90
       50
102
RTVSPost2010PropOp47
 70
     1
102
RTVSPost2010Prop48
 90
       50
102
RTVSPost2010PropOp48
 70
     1
102
RTVSPost2010Prop49
280
     0
102
RTVSPost2010PropOp49
 70
     1
102
RTVSPost2010Prop50
 90
       50
102
RTVSPost2010PropOp50
 70
     1
102
RTVSPost2010Prop51ColorIndex
 90
      256
102
RTVSPost2010Prop51ColorRGB
 90
-16777216
102
RTVSPost2010PropOp51
 70
     0
102
RTVSPost2010Prop52
140
1.0
102
RTVSPost2010PropOp52
 70
     0
102
RTVSPost2010Prop53
 90
        2
102
RTVSPost2010PropOp53
 70
     1
102
RTVSPost2010Prop54
  1
strokes_ogs.tif
102
RTVSPost2010PropOp54
 70
     1
102
RTVSPost2010Prop55
280
     0
102
RTVSPost2010PropOp55
 70
     1
102
RTVSPost2010Prop56
140
1.0
102
RTVSPost2010PropOp56
 70
     1
102
RTVSPost2010Prop57
140
1.0
102
RTVSPost2010PropOp57
 70
     1
102
RTVSPropertyOp0
 70
     1
102
RTVSPropertyOp1
 70
     1
102
RTVSPropertyOp2
 70
     1
102
RTVSPropertyOp3
 70
     1
102
RTVSPropertyOp4
 70
     1
102
RTVSPropertyOp5
 70
     1
102
RTVSPropertyOp6
 70
     1
102
RTVSPropertyOp7
 70
     1
102
RTVSPropertyOp8
 70
     1
102
RTVSPropertyOp9
 70
     1
102
RTVSPropertyOp10
 70
     1
102
RTVSPropertyOp11
 70
     1
102
RTVSPropertyOp12
 70
     1
102
RTVSPropertyOp13
 70
     1
102
RTVSPropertyOp14
 70
     1
102
RTVSPropertyOp15
 70
     1
102
RTVSPropertyOp16
 70
     1
102
RTVSPropertyOp17
 70
     1
102
RTVSPropertyOp18
 70
     1
102
RTVSPropertyOp19
 70
     1
102
RTVSPropertyOp20
 70
     1
102
RTVSPropertyOp21
 70
     1
102
RTVSPropertyOp22
 70
     1
102
RTVSPropertyOp23
 70
     1
102
RTVSPropertyOp24
 70
     1
102
RTVSPropertyOp25
 70
     1
102
RTVSPropertyOp26
 70
     1
102
RTVSPropertyOp27
 70
     1
102
RTVSPropertyOp28
 70
     1
102
RTVSPropertyOp29
 70
     1
102
RTVSPropertyOp30
 70
     1
102
RTVSPropertyOp31
 70
     1
102
RTVSPropertyOp32
 70
     1
102
RTVSPropertyOp33
 70
     1
102
RTVSPropertyOp34
 70
     1
102
RTVSPropertyOp35
 70
     1
102
RTVSPropertyOp36
 70
     1
102
RTVSPropertyOp37
 70
     1
102
RTVSPropertyOp38
 70
     1
102
RTVSPropertyOp39
 70
     1
102
RTVSPropertyOp40
 70
     1
102
RTVSPropertyOp41
 70
     1
102
RTVSPropertyOp42
 70
     1
102
RTVSPropertyOp43
 70
     1
102
RTVSPropertyOp44
 70
     1
102
RTVSPropertyOp45
 70
     1
102
RTVSPropertyOp46
 70
     1
102
RTVSPropertyOp47
 70
     1
102
RTVSPropertyOp48
 70
     1
102
RTVSPropertyOp49
 70
     1
102
RTVSPropertyOp50
 70
     1
102
RTVSPropertyOp51
 70
     0
102
RTVSPropertyOp52
 70
     0
102
RTVSPropertyOp53
 70
     1
102
RTVSPropertyOp54
 70
     1
102
RTVSPropertyOp55
 70
     1
102
RTVSPropertyOp56
 70
     1
102
RTVSPropertyOp57
 70
     1
102
RTVSPropertyOp58
 70
     1
102
RTVSPropertyOp59
 70
     1
102
RTVSPropertyOp60
 70
     1
102
RTVSPropertyOp61
 70
     1
102
RTVSPropertyOp62
 70
     1
  0
ENDSEC
  0
EOF
