  0
SECTION
  2
HEADER
  9
$ACADVER
  1
AC1015
  9
$DWGCODEPAGE
  3
ANSI_932
  9
$LTSCALE
 40
20.0
  9
$FILLMODE
 70
     1
  9
$CLAYER
  8
0
  9
$PDMODE
 70
     0
  9
$SPLFRAME
 70
     0
  9
$SPLINETYPE
 70
     6
  9
$SPLINESEGS
 70
     8
  9
$DIMASZ
 40
2.000000
  9
$DIMEXE
 40
1.500000
  9
$DIMEXO
 40
0.800000
  9
$DIMTAD
 70
     1
  9
$DIMTIH
 70
     0
  9
$DIMTOH
 70
     0
  9
$DIMTVP
 40
0.500000
  9
$DIMTXT
 40
3.100000
  9
$EXTMIN
 10
0.000000
 20
0.000000
 30
0.000000
  9
$EXTMAX
 10
297.000000
 20
420.000000
 30
0.000000
  9
$MEASUREMENT
 70
  1
  9
$LIMMIN
 10
0.000000
 20
0.000000
  9
$LIMMAX
 10
297.000000
 20
420.000000
  9
$HANDSEED
  5
180
  9
$LWDISPLAY
290
     0
  9
$DIMBLK
  1
_OPEN
  9
$DIMDEC
 70
     2
  9
$DIMADEC
 70
     2
  9
$DIMAUNIT
 70
     0
  9
$DIMZIN
 70
     8
  9
$DIMAZIN
 70
     2
  9
$DIMTOFL
 70
     1
  0
ENDSEC
  0
SECTION
  2
CLASSES
  0
ENDSEC
  0
SECTION
  2
TABLES
  0
TABLE
  2
VPORT
  5
14C
100
AcDbSymbolTable
 70
     1
  0
VPORT
  5
14D
100
AcDbSymbolTableRecord
100
AcDbViewportTableRecord
  2
*ACTIVE
 70
     0
 12
201.601017
 22
159.545377
 40
283.090752
 41
1.353637
  0
ENDTAB
  0
TABLE
  2
LTYPE
  5
14E
100
AcDbSymbolTable
 70
     3
  0
LTYPE
  5
14F
100
AcDbSymbolTableRecord
100
AcDbLinetypeTableRecord
  2
BYBLOCK
 70
     0
  3

 72
    65
 73
     0
 40
0.0
  0
LTYPE
  5
150
100
AcDbSymbolTableRecord
100
AcDbLinetypeTableRecord
  2
BYLAYER
 70
     0
  3

 72
    65
 73
     0
 40
0.0
  0
LTYPE
  5
151
100
AcDbSymbolTableRecord
100
AcDbLinetypeTableRecord
  2
CONTINUOUS
 70
     0
  3
Solid line (NEC CAE2D for Win R15.2 : 2020.05.22)
 72
    65
 73
     0
 40
0.0
  0
LTYPE
  5
152
100
AcDbSymbolTableRecord
100
AcDbLinetypeTableRecord
  2
CENTER
 70
     0
  3
____ _ ____ _ ____ _ ____ _ ____ _ ____
 72
    65
 73
     4
 40
2.0
 49
1.25
 74
     0
 49
-0.25
 74
     0
 49
0.25
 74
     0
 49
-0.25
 74
     0
  0
LTYPE
  5
153
100
AcDbSymbolTableRecord
100
AcDbLinetypeTableRecord
  2
PHANTOM
 70
     0
  3
______  __  __  ______  __  __  ______ 
 72
    65
 73
     6
 40
2.5
 49
1.25
 74
     0
 49
-0.25
 74
     0
 49
0.25
 74
     0
 49
-0.25
 74
     0
 49
0.25
 74
     0
 49
-0.25
 74
     0
  0
ENDTAB
  0
TABLE
  2
LAYER
  5
154
100
AcDbSymbolTable
 70
    13
  0
LAYER
  5
155
100
AcDbSymbolTableRecord
100
AcDbLayerTableRecord
  2
0
 70
     0
 62
     7
  6
CONTINUOUS
370
    -3
390

  0
LAYER
  5
156
100
AcDbSymbolTableRecord
100
AcDbLayerTableRecord
  2
A0
 70
     0
 62
     9
  6
CONTINUOUS
370
    -3
390

  0
LAYER
  5
157
100
AcDbSymbolTableRecord
100
AcDbLayerTableRecord
  2
A4
 70
     0
 62
     9
  6
CONTINUOUS
370
    -3
390

  0
LAYER
  5
158
100
AcDbSymbolTableRecord
100
AcDbLayerTableRecord
  2
A5
 70
     0
 62
     8
  6
CONTINUOUS
370
    -3
390

  0
LAYER
  5
159
100
AcDbSymbolTableRecord
100
AcDbLayerTableRecord
  2
A6
 70
     0
 62
    12
  6
CONTINUOUS
370
    -3
390

  0
LAYER
  5
15A
100
AcDbSymbolTableRecord
100
AcDbLayerTableRecord
  2
A8
 70
     0
 62
    10
  6
CONTINUOUS
370
    -3
390

  0
LAYER
  5
15B
100
AcDbSymbolTableRecord
100
AcDbLayerTableRecord
  2
A9
 70
     0
 62
     9
  6
CONTINUOUS
370
    -3
390

  0
LAYER
  5
15C
100
AcDbSymbolTableRecord
100
AcDbLayerTableRecord
  2
A10
 70
     0
 62
     6
  6
CONTINUOUS
370
    -3
390

  0
LAYER
  5
15D
100
AcDbSymbolTableRecord
100
AcDbLayerTableRecord
  2
A20
 70
     0
 62
     1
  6
CONTINUOUS
370
    -3
390

  0
LAYER
  5
15E
100
AcDbSymbolTableRecord
100
AcDbLayerTableRecord
  2
A30
 70
     0
 62
     1
  6
CONTINUOUS
370
    -3
390

  0
LAYER
  5
15F
100
AcDbSymbolTableRecord
100
AcDbLayerTableRecord
  2
A40
 70
     0
 62
     9
  6
CONTINUOUS
370
    -3
390

  0
LAYER
  5
160
100
AcDbSymbolTableRecord
100
AcDbLayerTableRecord
  2
A50
 70
     0
 62
    12
  6
CONTINUOUS
370
    -3
390

  0
LAYER
  5
161
100
AcDbSymbolTableRecord
100
AcDbLayerTableRecord
  2
A1023
 70
     0
 62
    16
  6
CONTINUOUS
370
    -3
390

  0
ENDTAB
  0
TABLE
  2
STYLE
  5
162
100
AcDbSymbolTable
 70
     4
  0
STYLE
  5
163
100
AcDbSymbolTableRecord
100
AcDbTextStyleTableRecord
  2
STANDARD
 70
    64
 40
0.0
 41
1.0
 50
0.0
 71
     0
 42
3.000000000000000
  3
TXT
  4

  0
STYLE
  5
164
100
AcDbSymbolTableRecord
100
AcDbTextStyleTableRecord
  2
ANKTATE
 70
    68
 40
0.0
 41
1.0
 50
0.0
 71
     0
 42
3.000000000000000
  3
TXT
  4

  0
STYLE
  5
165
100
AcDbSymbolTableRecord
100
AcDbTextStyleTableRecord
  2
KNJYOKO
 70
    64
 40
0.0
 41
1.0
 50
0.0
 71
     0
 42
3.000000000000000
  3
TXT
  4
BIGFONT
  0
STYLE
  5
166
100
AcDbSymbolTableRecord
100
AcDbTextStyleTableRecord
  2
KNJTATE
 70
    68
 40
0.0
 41
1.0
 50
0.0
 71
     0
 42
3.000000000000000
  3
TXT
  4
BIGFONT
  0
ENDTAB
  0
TABLE
  2
VIEW
  5
167
100
AcDbSymbolTable
 70
     0
  0
ENDTAB
  0
TABLE
  2
UCS
  5
168
100
AcDbSymbolTable
 70
     0
  0
ENDTAB
  0
TABLE
  2
APPID
  5
169
100
AcDbSymbolTable
 70
     1
  0
APPID
  5
16A
100
AcDbSymbolTableRecord
100
AcDbRegAppTableRecord
  2
ACAD
 70
     0
  0
ENDTAB
  0
TABLE
  2
DIMSTYLE
  5
16B
100
AcDbSymbolTable
 70
     2
100
AcDbDimStyleTable
  0
DIMSTYLE
105
16C
100
AcDbSymbolTableRecord
100
AcDbDimStyleTableRecord
  2
STANDARD
 70
     0
 41
2.000000
 44
1.500000
 42
0.800000
145
0.661290
140
3.100000
144
1.000000
146
0.645161
340
163
  0
DIMSTYLE
105
16D
100
AcDbSymbolTableRecord
100
AcDbDimStyleTableRecord
  2
A001
 70
     0
 41
2.000000
 44
1.500000
 42
0.800000
145
0.661290
140
3.100000
144
1.000000
146
0.645161
 77
     1
 73
     0
 74
     0
271
     2
179
     2
275
     0
 78
     8
 79
     2
172
     1
340
163
  0
ENDTAB
  0
TABLE
  2
BLOCK_RECORD
  5
16E
100
AcDbSymbolTable
 70
    12
  0
BLOCK_RECORD
  5
16F
100
AcDbSymbolTableRecord
100
AcDbBlockTableRecord
  2
*MODEL_SPACE
  0
BLOCK_RECORD
  5
170
100
AcDbSymbolTableRecord
100
AcDbBlockTableRecord
  2
*PAPER_SPACE
  0
BLOCK_RECORD
  5
171
100
AcDbSymbolTableRecord
100
AcDbBlockTableRecord
  2
*PAPER_SPACE0
  0
BLOCK_RECORD
  5
1
100
AcDbSymbolTableRecord
100
AcDbBlockTableRecord
  2
_NONE
  0
BLOCK_RECORD
  5
4
100
AcDbSymbolTableRecord
100
AcDbBlockTableRecord
  2
_CLOSED
  0
BLOCK_RECORD
  5
B
100
AcDbSymbolTableRecord
100
AcDbBlockTableRecord
  2
_DOT
  0
BLOCK_RECORD
  5
13
100
AcDbSymbolTableRecord
100
AcDbBlockTableRecord
  2
_OPEN
  0
BLOCK_RECORD
  5
19
100
AcDbSymbolTableRecord
100
AcDbBlockTableRecord
  2
_ORIGIN
  0
BLOCK_RECORD
  5
1E
100
AcDbSymbolTableRecord
100
AcDbBlockTableRecord
  2
_OPEN30
  0
BLOCK_RECORD
  5
24
100
AcDbSymbolTableRecord
100
AcDbBlockTableRecord
  2
_BOXFILLED
  0
BLOCK_RECORD
  5
29
100
AcDbSymbolTableRecord
100
AcDbBlockTableRecord
  2
_BOXBLANK
  0
BLOCK_RECORD
  5
31
100
AcDbSymbolTableRecord
100
AcDbBlockTableRecord
  2
_OBLIQUE
  0
BLOCK_RECORD
  5
35
100
AcDbSymbolTableRecord
100
AcDbBlockTableRecord
  2
_OPEN90
  0
BLOCK_RECORD
  5
3B
100
AcDbSymbolTableRecord
100
AcDbBlockTableRecord
  2
_CLOSEDBLANK
  0
BLOCK_RECORD
  5
41
100
AcDbSymbolTableRecord
100
AcDbBlockTableRecord
  2
_DOTBLANK
  0
ENDTAB
  0
ENDSEC
  0
SECTION
  2
BLOCKS
  0
BLOCK
  5
172
100
AcDbEntity
  8
0
100
AcDbBlockBegin
  2
*MODEL_SPACE
 70
     0
 10
0.0
 20
0.0
 30
0.0
  3
*MODEL_SPACE
  1

  0
ENDBLK
  5
173
100
AcDbEntity
  8
0
100
AcDbBlockEnd
  0
BLOCK
  5
174
100
AcDbEntity
  8
0
100
AcDbBlockBegin
  2
*PAPER_SPACE
 70
     0
 10
0.0
 20
0.0
 30
0.0
  3
*PAPER_SPACE
  1

  0
ENDBLK
  5
175
100
AcDbEntity
  8
0
100
AcDbBlockEnd
  0
BLOCK
  5
176
100
AcDbEntity
  8
0
100
AcDbBlockBegin
  2
*PAPER_SPACE0
 70
     0
 10
0.0
 20
0.0
 30
0.0
  3
*PAPER_SPACE0
  1

  0
ENDBLK
  5
177
100
AcDbEntity
  8
0
100
AcDbBlockEnd
  0
BLOCK
  5
2
330
1
100
AcDbEntity
  8
0
100
AcDbBlockBegin
  2
_NONE
 70
     0
 10
0.0
 20
0.0
 30
0.0
  3
_NONE
  1

  0
ENDBLK
  5
3
330
1
100
AcDbEntity
  8
0
100
AcDbBlockEnd
  0
BLOCK
  5
5
330
4
100
AcDbEntity
  8
0
100
AcDbBlockBegin
  2
_CLOSED
 70
     0
 10
0.0
 20
0.0
 30
0.0
  3
_CLOSED
  1

  0
LINE
  5
6
330
4
100
AcDbEntity
  8
0
  6
BYBLOCK
 62
     0
370
    -2
100
AcDbLine
 10
-1.0
 20
0.166667
 30
0.0
 11
0.0
 21
0.0
 31
0.0
  0
LINE
  5
7
330
4
100
AcDbEntity
  8
0
  6
BYBLOCK
 62
     0
370
    -2
100
AcDbLine
 10
0.0
 20
0.0
 30
0.0
 11
-1.0
 21
-0.166667
 31
0.0
  0
LINE
  5
8
330
4
100
AcDbEntity
  8
0
  6
BYBLOCK
 62
     0
370
    -2
100
AcDbLine
 10
-1.0
 20
0.166667
 30
0.0
 11
-1.0
 21
-0.166667
 31
0.0
  0
LINE
  5
9
330
4
100
AcDbEntity
  8
0
  6
BYBLOCK
 62
     0
370
    -2
100
AcDbLine
 10
0.0
 20
0.0
 30
0.0
 11
-1.0
 21
0.0
 31
0.0
  0
ENDBLK
  5
A
330
4
100
AcDbEntity
  8
0
100
AcDbBlockEnd
  0
BLOCK
  5
C
330
B
100
AcDbEntity
  8
0
100
AcDbBlockBegin
  2
_DOT
 70
     0
 10
0.0
 20
0.0
 30
0.0
  3
_DOT
  1

  0
POLYLINE
  5
D
330
B
100
AcDbEntity
  8
0
  6
BYBLOCK
 62
     0
370
    -2
100
AcDb2dPolyline
 66
     1
 10
0.0
 20
0.0
 30
0.0
 70
     1
 40
0.5
 41
0.5
  0
VERTEX
  5
E
330
B
100
AcDbEntity
  8
0
  6
BYBLOCK
 62
     0
370
    -2
100
AcDbVertex
100
AcDb2dVertex
 10
-0.25
 20
0.0
 30
0.0
 42
1.0
  0
VERTEX
  5
F
330
B
100
AcDbEntity
  8
0
  6
BYBLOCK
 62
     0
370
    -2
100
AcDbVertex
100
AcDb2dVertex
 10
0.25
 20
0.0
 30
0.0
 42
1.0
  0
SEQEND
  5
10
330
B
100
AcDbEntity
  8
0
  6
BYBLOCK
 62
     0
370
    -2
  0
LINE
  5
11
330
B
100
AcDbEntity
  8
0
  6
BYBLOCK
 62
     0
370
    -2
100
AcDbLine
 10
-0.5
 20
0.0
 30
0.0
 11
-1.0
 21
0.0
 31
0.0
  0
ENDBLK
  5
12
330
B
100
AcDbEntity
  8
0
100
AcDbBlockEnd
  0
BLOCK
  5
14
330
13
100
AcDbEntity
  8
0
100
AcDbBlockBegin
  2
_OPEN
 70
     0
 10
0.0
 20
0.0
 30
0.0
  3
_OPEN
  1

  0
LINE
  5
15
330
13
100
AcDbEntity
  8
0
  6
BYBLOCK
 62
     0
370
    -2
100
AcDbLine
 10
-1.0
 20
0.166667
 30
0.0
 11
0.0
 21
0.0
 31
0.0
  0
LINE
  5
16
330
13
100
AcDbEntity
  8
0
  6
BYBLOCK
 62
     0
370
    -2
100
AcDbLine
 10
0.0
 20
0.0
 30
0.0
 11
-1.0
 21
-0.166667
 31
0.0
  0
LINE
  5
17
330
13
100
AcDbEntity
  8
0
  6
BYBLOCK
 62
     0
370
    -2
100
AcDbLine
 10
0.0
 20
0.0
 30
0.0
 11
-1.0
 21
0.0
 31
0.0
  0
ENDBLK
  5
18
330
13
100
AcDbEntity
  8
0
100
AcDbBlockEnd
  0
BLOCK
  5
1A
330
19
100
AcDbEntity
  8
0
100
AcDbBlockBegin
  2
_ORIGIN
 70
     0
 10
0.0
 20
0.0
 30
0.0
  3
_ORIGIN
  1

  0
CIRCLE
  5
1B
330
19
100
AcDbEntity
  8
0
  6
BYBLOCK
 62
     0
370
    -2
100
AcDbCircle
 10
0.0
 20
0.0
 30
0.0
 40
0.5
  0
LINE
  5
1C
330
19
100
AcDbEntity
  8
0
  6
BYBLOCK
 62
     0
370
    -2
100
AcDbLine
 10
0.0
 20
0.0
 30
0.0
 11
-1.0
 21
0.0
 31
0.0
  0
ENDBLK
  5
1D
330
19
100
AcDbEntity
  8
0
100
AcDbBlockEnd
  0
BLOCK
  5
1F
330
1E
100
AcDbEntity
  8
0
100
AcDbBlockBegin
  2
_OPEN30
 70
     0
 10
0.0
 20
0.0
 30
0.0
  3
_OPEN30
  1

  0
LINE
  5
20
330
1E
100
AcDbEntity
  8
0
  6
BYBLOCK
 62
     0
370
    -2
100
AcDbLine
 10
-1.0
 20
0.267949
 30
0.0
 11
0.0
 21
0.0
 31
0.0
  0
LINE
  5
21
330
1E
100
AcDbEntity
  8
0
  6
BYBLOCK
 62
     0
370
    -2
100
AcDbLine
 10
0.0
 20
0.0
 30
0.0
 11
-1.0
 21
-0.267949
 31
0.0
  0
LINE
  5
22
330
1E
100
AcDbEntity
  8
0
  6
BYBLOCK
 62
     0
370
    -2
100
AcDbLine
 10
0.0
 20
0.0
 30
0.0
 11
-1.0
 21
0.0
 31
0.0
  0
ENDBLK
  5
23
330
1E
100
AcDbEntity
  8
0
100
AcDbBlockEnd
  0
BLOCK
  5
25
330
24
100
AcDbEntity
  8
0
100
AcDbBlockBegin
  2
_BOXFILLED
 70
     0
 10
0.0
 20
0.0
 30
0.0
  3
_BOXFILLED
  1

  0
SOLID
  5
26
330
24
100
AcDbEntity
  8
0
  6
BYBLOCK
 62
     0
370
    -2
100
AcDbTrace
 10
-0.5
 20
0.5
 30
0.0
 11
0.5
 21
0.5
 31
0.0
 12
-0.5
 22
-0.5
 32
0.0
 13
0.5
 23
-0.5
 33
0.0
  0
LINE
  5
27
330
24
100
AcDbEntity
  8
0
  6
BYBLOCK
 62
     0
370
    -2
100
AcDbLine
 10
-0.5
 20
0.0
 30
0.0
 11
-1.0
 21
0.0
 31
0.0
  0
ENDBLK
  5
28
330
24
100
AcDbEntity
  8
0
100
AcDbBlockEnd
  0
BLOCK
  5
2A
330
29
100
AcDbEntity
  8
0
100
AcDbBlockBegin
  2
_BOXBLANK
 70
     0
 10
0.0
 20
0.0
 30
0.0
  3
_BOXBLANK
  1

  0
LINE
  5
2B
330
29
100
AcDbEntity
  8
0
  6
BYBLOCK
 62
     0
370
    -2
100
AcDbLine
 10
-0.5
 20
-0.5
 30
0.0
 11
0.5
 21
-0.5
 31
0.0
  0
LINE
  5
2C
330
29
100
AcDbEntity
  8
0
  6
BYBLOCK
 62
     0
370
    -2
100
AcDbLine
 10
0.5
 20
-0.5
 30
0.0
 11
0.5
 21
0.5
 31
0.0
  0
LINE
  5
2D
330
29
100
AcDbEntity
  8
0
  6
BYBLOCK
 62
     0
370
    -2
100
AcDbLine
 10
0.5
 20
0.5
 30
0.0
 11
-0.5
 21
0.5
 31
0.0
  0
LINE
  5
2E
330
29
100
AcDbEntity
  8
0
  6
BYBLOCK
 62
     0
370
    -2
100
AcDbLine
 10
-0.5
 20
0.5
 30
0.0
 11
-0.5
 21
-0.5
 31
0.0
  0
LINE
  5
2F
330
29
100
AcDbEntity
  8
0
  6
BYBLOCK
 62
     0
370
    -2
100
AcDbLine
 10
-0.5
 20
0.0
 30
0.0
 11
-1.0
 21
0.0
 31
0.0
  0
ENDBLK
  5
30
330
29
100
AcDbEntity
  8
0
100
AcDbBlockEnd
  0
BLOCK
  5
32
330
31
100
AcDbEntity
  8
0
100
AcDbBlockBegin
  2
_OBLIQUE
 70
     0
 10
0.0
 20
0.0
 30
0.0
  3
_OBLIQUE
  1

  0
LINE
  5
33
330
31
100
AcDbEntity
  8
0
  6
BYBLOCK
 62
     0
370
    -2
100
AcDbLine
 10
-0.5
 20
-0.5
 30
0.0
 11
0.5
 21
0.5
 31
0.0
  0
ENDBLK
  5
34
330
31
100
AcDbEntity
  8
0
100
AcDbBlockEnd
  0
BLOCK
  5
36
330
35
100
AcDbEntity
  8
0
100
AcDbBlockBegin
  2
_OPEN90
 70
     0
 10
0.0
 20
0.0
 30
0.0
  3
_OPEN90
  1

  0
LINE
  5
37
330
35
100
AcDbEntity
  8
0
  6
BYBLOCK
 62
     0
370
    -2
100
AcDbLine
 10
-0.5
 20
0.5
 30
0.0
 11
0.0
 21
0.0
 31
0.0
  0
LINE
  5
38
330
35
100
AcDbEntity
  8
0
  6
BYBLOCK
 62
     0
370
    -2
100
AcDbLine
 10
0.0
 20
0.0
 30
0.0
 11
-0.5
 21
-0.5
 31
0.0
  0
LINE
  5
39
330
35
100
AcDbEntity
  8
0
  6
BYBLOCK
 62
     0
370
    -2
100
AcDbLine
 10
0.0
 20
0.0
 30
0.0
 11
-1.0
 21
0.0
 31
0.0
  0
ENDBLK
  5
3A
330
35
100
AcDbEntity
  8
0
100
AcDbBlockEnd
  0
BLOCK
  5
3C
330
3B
100
AcDbEntity
  8
0
100
AcDbBlockBegin
  2
_CLOSEDBLANK
 70
     0
 10
0.0
 20
0.0
 30
0.0
  3
_CLOSEDBLANK
  1

  0
LINE
  5
3D
330
3B
100
AcDbEntity
  8
0
  6
BYBLOCK
 62
     0
370
    -2
100
AcDbLine
 10
-1.0
 20
0.1666666666666666
 30
0.0
 11
0.0
 21
0.0
 31
0.0
  0
LINE
  5
3E
330
3B
100
AcDbEntity
  8
0
  6
BYBLOCK
 62
     0
370
    -2
100
AcDbLine
 10
0.0
 20
0.0
 30
0.0
 11
-1.0
 21
-0.1666666666666666
 31
0.0
  0
LINE
  5
3F
330
3B
100
AcDbEntity
  8
0
  6
BYBLOCK
 62
     0
370
    -2
100
AcDbLine
 10
-1.0
 20
0.1666666666666666
 30
0.0
 11
-1.0
 21
-0.1666666666666666
 31
0.0
  0
ENDBLK
  5
40
330
3B
100
AcDbEntity
  8
0
100
AcDbBlockEnd
  0
BLOCK
  5
42
330
41
100
AcDbEntity
  8
0
100
AcDbBlockBegin
  2
_DOTBLANK
 70
     0
 10
0.0
 20
0.0
 30
0.0
  3
_DOTBLANK
  1

  0
CIRCLE
  5
43
330
41
100
AcDbEntity
  8
0
  6
BYBLOCK
 62
     0
370
    -2
100
AcDbCircle
 10
0.0
 20
0.0
 30
0.0
 40
0.5
  0
LINE
  5
44
330
41
100
AcDbEntity
  8
0
  6
BYBLOCK
 62
     0
370
    -2
100
AcDbLine
 10
-0.5
 20
0.0
 30
0.0
 11
-1.0
 21
0.0
 31
0.0
  0
ENDBLK
  5
45
330
41
100
AcDbEntity
  8
0
100
AcDbBlockEnd
  0
ENDSEC
  0
SECTION
  2
ENTITIES
  0
MTEXT
  5
46
100
AcDbEntity
  8
A8
  6
CONTINUOUS
 62
7
100
AcDbMText
 10
9.999997526638502
 20
18.00000076076889
 30
0.0000000000000000
 40
3.000000000000000
 41
0.0000000000000000
 44
0.6739999771118164
 71
     7
 72
     1
  1
{\H0.93x;{TYPE No.THA-470}}
 11
1.000000000000000
 21
0.0000000000000000
 31
0.0000000000000000
  7
STANDARD
  0
POINT
  5
47
100
AcDbEntity
  8
A0
  6
CONTINUOUS
 62
5
100
AcDbPoint
 10
9.999997526638502
 20
18.00000076076889
 30
0.0000000000000000
  0
LINE
  5
48
100
AcDbEntity
  8
A10
  6
CONTINUOUS
 62
7
100
AcDbLine
 10
248.9998476950566
 20
96.98768757689896
 30
0.0000000000000000
 11
50.99984769515637
 21
96.98768757689896
 31
0.0000000000000000
  0
LINE
  5
49
100
AcDbEntity
  8
A10
  6
CONTINUOUS
 62
7
100
AcDbLine
 10
226.5085187449853
 20
73.98768757689896
 30
0.0000000000000000
 11
73.49117664513622
 21
73.98768757689896
 31
0.0000000000000000
  0
LINE
  5
4A
100
AcDbEntity
  8
A10
  6
CONTINUOUS
 62
7
100
AcDbLine
 10
230.9998476950651
 20
92.48768757689912
 30
0.0000000000000000
 11
230.9998476950608
 21
73.98768757689837
 31
0.0000000000000000
  0
LINE
  5
4B
100
AcDbEntity
  8
A10
  6
CONTINUOUS
 62
7
100
AcDbLine
 10
68.99984769505068
 20
92.48768757689942
 30
0.0000000000000000
 11
68.99984769506068
 21
73.98768757689774
 31
0.0000000000000000
  0
LINE
  5
4C
100
AcDbEntity
  8
A10
  6
CENTER
 62
1
100
AcDbLine
 10
149.9998476950608
 20
98.48768757689896
 30
0.0000000000000000
 11
149.9998476950608
 21
72.48768757689896
 31
0.0000000000000000
  0
ARC
  5
4D
100
AcDbEntity
  8
A10
  6
CONTINUOUS
 62
7
100
AcDbCircle
 10
248.9998476950566
 20
95.98768757689896
 30
0.0000000000000000
 40
1.000000000000000
100
AcDbArc
 50
0.0000000000000000
 51
90.00000000000000
  0
ARC
  5
4E
100
AcDbEntity
  8
A10
  6
CONTINUOUS
 62
7
100
AcDbCircle
 10
50.99984769515637
 20
95.98768757689896
 30
0.0000000000000000
 40
1.000000000000000
100
AcDbArc
 50
90.00000000000000
 51
180.0000000000000
  0
ARC
  5
4F
100
AcDbEntity
  8
A10
  6
CONTINUOUS
 62
7
100
AcDbCircle
 10
68.49984769505087
 20
92.48768757689896
 30
0.0000000000000000
 40
0.5000000000000000
100
AcDbArc
 50
0.0000000000000000
 51
90.00000000000000
  0
ARC
  5
50
100
AcDbEntity
  8
A10
  6
CONTINUOUS
 62
7
100
AcDbCircle
 10
231.4998476950710
 20
92.48768757689896
 30
0.0000000000000000
 40
0.5000000000000000
100
AcDbArc
 50
90.00000000000000
 51
180.0000000000000
  0
LINE
  5
51
100
AcDbEntity
  8
A4
  6
CONTINUOUS
 62
7
100
AcDbLine
 10
51.99984769515623
 20
96.98768757689908
 30
0.0000000000000000
 11
71.30290923911951
 21
96.98768757689908
 31
0.0000000000000000
  0
LINE
  5
52
100
AcDbEntity
  8
A4
  6
CONTINUOUS
 62
7
100
AcDbLine
 10
61.99984769515623
 20
92.98768757689908
 30
0.0000000000000000
 11
180.7998476951562
 21
92.98768757689906
 31
0.0000000000000000
  0
LINE
  5
53
100
AcDbEntity
  8
A4
  6
CONTINUOUS
 62
7
100
AcDbLine
 10
249.7510953756927
 20
92.98768757689896
 30
0.0000000000000000
 11
53.99984769515637
 21
92.98768757689896
 31
0.0000000000000000
  0
LINE
  5
54
100
AcDbEntity
  8
A4
  6
CONTINUOUS
 62
7
100
AcDbLine
 10
53.99984769515637
 20
92.98768757689896
 30
0.0000000000000000
 11
50.24860001452027
 21
92.98768757689896
 31
0.0000000000000000
  0
ARC
  5
55
100
AcDbEntity
  8
A10
  6
PHANTOM
 62
1
100
AcDbCircle
 10
286.7068865537411
 20
267.8909052643386
 30
0.0000000000000000
 40
10.00000000000000
100
AcDbArc
 50
0.0000000000000000
 51
180.0000000000000
  0
LINE
  5
56
100
AcDbEntity
  8
A5
  6
PHANTOM
 62
1
100
AcDbLine
 10
296.6567609248073
 20
266.8909052643386
 30
0.0000000000000000
 11
343.7020361312261
 21
266.8909052643389
 31
0.0000000000000000
  0
LINE
  5
57
100
AcDbEntity
  8
A4
  6
PHANTOM
 62
1
100
AcDbLine
 10
286.7068865537410
 20
277.8909052643388
 30
0.0000000000000000
 11
343.7020361312261
 21
277.8909052643390
 31
0.0000000000000000
  0
ARC
  5
58
100
AcDbEntity
  8
A10
  6
PHANTOM
 62
1
100
AcDbCircle
 10
286.7068865537411
 20
267.3909052643386
 30
0.0000000000000000
 40
10.00000000000000
100
AcDbArc
 50
180.0000000000000
 51
360.0000000000000
  0
LINE
  5
59
100
AcDbEntity
  8
A10
  6
PHANTOM
 62
1
100
AcDbLine
 10
296.7068865537411
 20
267.3909052643386
 30
0.0000000000000000
 11
296.7068865537411
 21
267.8909052643386
 31
0.0000000000000000
  0
LINE
  5
5A
100
AcDbEntity
  8
A10
  6
PHANTOM
 62
1
100
AcDbLine
 10
276.7068865537411
 20
267.3909052643386
 30
0.0000000000000000
 11
276.7068865537411
 21
267.8909052643386
 31
0.0000000000000000
  0
LINE
  5
5B
100
AcDbEntity
  8
A9
  6
CONTINUOUS
 62
7
100
AcDbLine
 10
239.0592621904690
 20
84.98768757689881
 30
0.0000000000000000
 11
244.9404331993730
 21
84.98768757689881
 31
0.0000000000000000
  0
LINE
  5
5C
100
AcDbEntity
  8
A6
  6
CONTINUOUS
 62
7
100
AcDbLine
 10
57.99984769506079
 20
169.5909070757531
 30
0.0000000000000000
 11
241.9998476949430
 21
169.5909070757531
 31
0.0000000000000000
  0
LINE
  5
5D
100
AcDbEntity
  8
A6
  6
CONTINUOUS
 62
7
100
AcDbLine
 10
241.9998476949430
 20
299.5909052642778
 30
0.0000000000000000
 11
57.99984769506079
 21
299.5909052642778
 31
0.0000000000000000
  0
LINE
  5
5E
100
AcDbEntity
  8
A6
  6
CONTINUOUS
 62
7
100
AcDbLine
 10
249.9998476949430
 20
177.5909070757531
 30
0.0000000000000000
 11
249.9998476949430
 21
291.5909052642778
 31
0.0000000000000000
  0
LINE
  5
5F
100
AcDbEntity
  8
A6
  6
CENTER
 62
1
100
AcDbLine
 10
234.0998476949430
 20
176.5909070756698
 30
0.0000000000000000
 11
249.8998476949430
 21
176.5909070756698
 31
0.0000000000000000
  0
LINE
  5
60
100
AcDbEntity
  8
A6
  6
CENTER
 62
1
100
AcDbLine
 10
241.9998476949430
 20
184.4909070756698
 30
0.0000000000000000
 11
241.9998476949430
 21
168.6909070756699
 31
0.0000000000000000
  0
LINE
  5
61
100
AcDbEntity
  8
A6
  6
CENTER
 62
1
100
AcDbLine
 10
234.0998476949430
 20
292.5909052642779
 30
0.0000000000000000
 11
249.8998476949430
 21
292.5909052642779
 31
0.0000000000000000
  0
LINE
  5
62
100
AcDbEntity
  8
A6
  6
CENTER
 62
1
100
AcDbLine
 10
241.9998476949430
 20
300.4909052642779
 30
0.0000000000000000
 11
241.9998476949430
 21
284.6909052642779
 31
0.0000000000000000
  0
ARC
  5
63
100
AcDbEntity
  8
A6
  6
CONTINUOUS
 62
7
100
AcDbCircle
 10
241.9998476949430
 20
291.5909052642778
 30
0.0000000000000000
 40
8.000000000000000
100
AcDbArc
 50
0.0000000000000000
 51
90.00000000000000
  0
ARC
  5
64
100
AcDbEntity
  8
A6
  6
CONTINUOUS
 62
7
100
AcDbCircle
 10
241.9998476949430
 20
177.5909070757531
 30
0.0000000000000000
 40
8.000000000000000
100
AcDbArc
 50
270.0000000000000
 51
360.0000000000000
  0
LINE
  5
65
100
AcDbEntity
  8
A6
  6
CONTINUOUS
 62
7
100
AcDbLine
 10
49.99984769517857
 20
177.5909070757531
 30
0.0000000000000000
 11
49.99984769517857
 21
291.5909052642778
 31
0.0000000000000000
  0
LINE
  5
66
100
AcDbEntity
  8
A6
  6
CENTER
 62
1
100
AcDbLine
 10
65.89984769517855
 20
176.5909070756698
 30
0.0000000000000000
 11
50.09984769517859
 21
176.5909070756698
 31
0.0000000000000000
  0
LINE
  5
67
100
AcDbEntity
  8
A6
  6
CENTER
 62
1
100
AcDbLine
 10
57.99984769517857
 20
184.4909070756698
 30
0.0000000000000000
 11
57.99984769517857
 21
168.6909070756699
 31
0.0000000000000000
  0
LINE
  5
68
100
AcDbEntity
  8
A6
  6
CENTER
 62
1
100
AcDbLine
 10
65.89984769517855
 20
292.5909052642779
 30
0.0000000000000000
 11
50.09984769517859
 21
292.5909052642779
 31
0.0000000000000000
  0
LINE
  5
69
100
AcDbEntity
  8
A6
  6
CENTER
 62
1
100
AcDbLine
 10
57.99984769517857
 20
300.4909052642779
 30
0.0000000000000000
 11
57.99984769517857
 21
284.6909052642779
 31
0.0000000000000000
  0
ARC
  5
6A
100
AcDbEntity
  8
A6
  6
CONTINUOUS
 62
7
100
AcDbCircle
 10
57.99984769517857
 20
291.5909052642778
 30
0.0000000000000000
 40
8.000000000000000
100
AcDbArc
 50
90.00000000000000
 51
180.0000000000000
  0
ARC
  5
6B
100
AcDbEntity
  8
A6
  6
CONTINUOUS
 62
7
100
AcDbCircle
 10
57.99984769506079
 20
177.5909070757531
 30
0.0000000000000000
 40
8.000000000000000
100
AcDbArc
 50
180.0000000000000
 51
270.0000000000000
  0
LINE
  5
6C
100
AcDbEntity
  8
A10
  6
CENTER
 62
1
100
AcDbLine
 10
95.49984769500497
 20
267.8909052643254
 30
0.0000000000000000
 11
66.49984769500520
 21
267.8909052643254
 31
0.0000000000000000
  0
LINE
  5
6D
100
AcDbEntity
  8
A10
  6
CONTINUOUS
 62
7
100
AcDbLine
 10
100.0313846443026
 20
280.3593683151362
 30
0.0000000000000000
 11
199.9683107455836
 21
280.3593683151362
 31
0.0000000000000000
  0
LINE
  5
6E
100
AcDbEntity
  8
A10
  6
CONTINUOUS
 62
7
100
AcDbLine
 10
71.53138464410799
 20
188.4224422135086
 30
0.0000000000000000
 11
228.4683107457781
 21
188.4224422135086
 31
0.0000000000000000
  0
LINE
  5
6F
100
AcDbEntity
  8
A10
  6
CONTINUOUS
 62
7
100
AcDbLine
 10
70.53138464410799
 20
189.4224422135082
 30
0.0000000000000000
 11
70.53138464407432
 21
279.3593683151358
 31
0.0000000000000000
  0
ARC
  5
70
100
AcDbEntity
  8
A10
  6
CONTINUOUS
 62
7
100
AcDbCircle
 10
71.53138464410799
 20
189.4224422135086
 30
0.0000000000000000
 40
1.000000000000000
100
AcDbArc
 50
180.0000000000000
 51
270.0000000000000
  0
LINE
  5
71
100
AcDbEntity
  8
A10
  6
CONTINUOUS
 62
7
100
AcDbLine
 10
71.53138464407434
 20
280.3593683151362
 30
0.0000000000000000
 11
88.46831074587323
 21
280.3593683151362
 31
0.0000000000000000
  0
ARC
  5
72
100
AcDbEntity
  8
A10
  6
CONTINUOUS
 62
7
100
AcDbCircle
 10
71.53138464407434
 20
279.3593683151362
 30
0.0000000000000000
 40
1.000000000000000
100
AcDbArc
 50
90.00000000000000
 51
180.0000000000000
  0
LINE
  5
73
100
AcDbEntity
  8
A10
  6
CONTINUOUS
 62
7
100
AcDbLine
 10
89.46831074585894
 20
261.3909070757526
 30
0.0000000000000000
 11
89.46831074587324
 21
279.3593683151354
 31
0.0000000000000000
  0
ARC
  5
74
100
AcDbEntity
  8
A10
  6
CONTINUOUS
 62
7
100
AcDbCircle
 10
88.46831074587323
 20
279.3593683151362
 30
0.0000000000000000
 40
1.000000000000000
100
AcDbArc
 50
0.0000000000000000
 51
90.00000000000000
  0
LINE
  5
75
100
AcDbEntity
  8
A10
  6
CONTINUOUS
 62
7
100
AcDbLine
 10
90.46831074585890
 20
260.3909070757518
 30
0.0000000000000000
 11
93.03138464428696
 21
260.3909070757518
 31
0.0000000000000000
  0
ARC
  5
76
100
AcDbEntity
  8
A10
  6
CONTINUOUS
 62
7
100
AcDbCircle
 10
90.46831074585890
 20
261.3909070757518
 30
0.0000000000000000
 40
1.000000000000000
100
AcDbArc
 50
180.0000000000000
 51
270.0000000000000
  0
ARC
  5
77
100
AcDbEntity
  8
A10
  6
CONTINUOUS
 62
7
100
AcDbCircle
 10
93.03138464428696
 20
263.8909070757518
 30
0.0000000000000000
 40
3.500000000000000
100
AcDbArc
 50
270.0000000000000
 51
360.0000000000000
  0
LINE
  5
78
100
AcDbEntity
  8
A10
  6
CONTINUOUS
 62
7
100
AcDbLine
 10
96.53138464428697
 20
263.8909070757476
 30
0.0000000000000000
 11
96.53138464430259
 21
276.8593683151404
 31
0.0000000000000000
  0
ARC
  5
79
100
AcDbEntity
  8
A10
  6
CONTINUOUS
 62
7
100
AcDbCircle
 10
100.0313846443026
 20
276.8593683151362
 30
0.0000000000000000
 40
3.500000000000000
100
AcDbArc
 50
90.00000000000000
 51
180.0000000000000
  0
LINE
  5
7A
100
AcDbEntity
  8
A10
  6
CONTINUOUS
 62
7
100
AcDbLine
 10
89.46831074586211
 20
265.3909052643254
 30
0.0000000000000000
 11
88.17667391640140
 21
265.3909052643254
 31
0.0000000000000000
  0
LINE
  5
7B
100
AcDbEntity
  8
A10
  6
CONTINUOUS
 62
7
100
AcDbLine
 10
89.46831074586609
 20
270.3909052643254
 30
0.0000000000000000
 11
88.11518777463027
 21
270.3909052643254
 31
0.0000000000000000
  0
LINE
  5
7C
100
AcDbEntity
  8
A10
  6
CONTINUOUS
 62
7
100
AcDbLine
 10
73.49984769547643
 20
269.8945750507638
 30
0.0000000000000000
 11
87.24984769464547
 21
269.8945750507638
 31
0.0000000000000000
  0
LINE
  5
7D
100
AcDbEntity
  8
A10
  6
CENTER
 62
1
100
AcDbLine
 10
204.4998476951167
 20
267.8909052643254
 30
0.0000000000000000
 11
233.4998476951164
 21
267.8909052643254
 31
0.0000000000000000
  0
LINE
  5
7E
100
AcDbEntity
  8
A10
  6
CONTINUOUS
 62
7
100
AcDbLine
 10
229.4683107460137
 20
189.4224422135082
 30
0.0000000000000000
 11
229.4683107460473
 21
279.3593683151358
 31
0.0000000000000000
  0
ARC
  5
7F
100
AcDbEntity
  8
A10
  6
CONTINUOUS
 62
7
100
AcDbCircle
 10
228.4683107460137
 20
189.4224422135086
 30
0.0000000000000000
 40
1.000000000000000
100
AcDbArc
 50
270.0000000000000
 51
360.0000000000000
  0
LINE
  5
80
100
AcDbEntity
  8
A10
  6
CONTINUOUS
 62
7
100
AcDbLine
 10
228.4683107460473
 20
280.3593683151362
 30
0.0000000000000000
 11
211.5313846442484
 21
280.3593683151362
 31
0.0000000000000000
  0
ARC
  5
81
100
AcDbEntity
  8
A10
  6
CONTINUOUS
 62
7
100
AcDbCircle
 10
228.4683107460473
 20
279.3593683151362
 30
0.0000000000000000
 40
1.000000000000000
100
AcDbArc
 50
0.0000000000000000
 51
90.00000000000000
  0
LINE
  5
82
100
AcDbEntity
  8
A10
  6
CONTINUOUS
 62
7
100
AcDbLine
 10
210.5313846442627
 20
261.3909070757525
 30
0.0000000000000000
 11
210.5313846442484
 21
279.3593683151353
 31
0.0000000000000000
  0
ARC
  5
83
100
AcDbEntity
  8
A10
  6
CONTINUOUS
 62
7
100
AcDbCircle
 10
211.5313846442484
 20
279.3593683151362
 30
0.0000000000000000
 40
1.000000000000000
100
AcDbArc
 50
90.00000000000000
 51
180.0000000000000
  0
LINE
  5
84
100
AcDbEntity
  8
A10
  6
CONTINUOUS
 62
7
100
AcDbLine
 10
209.5313846442627
 20
260.3909070757518
 30
0.0000000000000000
 11
206.9683107458347
 21
260.3909070757518
 31
0.0000000000000000
  0
ARC
  5
85
100
AcDbEntity
  8
A10
  6
CONTINUOUS
 62
7
100
AcDbCircle
 10
209.5313846442627
 20
261.3909070757518
 30
0.0000000000000000
 40
1.000000000000000
100
AcDbArc
 50
270.0000000000000
 51
360.0000000000000
  0
ARC
  5
86
100
AcDbEntity
  8
A10
  6
CONTINUOUS
 62
7
100
AcDbCircle
 10
206.9683107458347
 20
263.8909070757518
 30
0.0000000000000000
 40
3.500000000000000
100
AcDbArc
 50
180.0000000000000
 51
270.0000000000000
  0
LINE
  5
87
100
AcDbEntity
  8
A10
  6
CONTINUOUS
 62
7
100
AcDbLine
 10
203.4683107458347
 20
263.8909070757476
 30
0.0000000000000000
 11
203.4683107458191
 21
276.8593683151404
 31
0.0000000000000000
  0
ARC
  5
88
100
AcDbEntity
  8
A10
  6
CONTINUOUS
 62
7
100
AcDbCircle
 10
199.9683107458191
 20
276.8593683151362
 30
0.0000000000000000
 40
3.500000000000000
100
AcDbArc
 50
0.0000000000000000
 51
90.00000000000000
  0
LINE
  5
89
100
AcDbEntity
  8
A10
  6
CONTINUOUS
 62
7
100
AcDbLine
 10
210.5313846442595
 20
265.3909052643254
 30
0.0000000000000000
 11
211.7498476954762
 21
265.3909052643254
 31
0.0000000000000000
  0
LINE
  5
8A
100
AcDbEntity
  8
A10
  6
CONTINUOUS
 62
7
100
AcDbLine
 10
210.5313846442556
 20
270.3909052643254
 30
0.0000000000000000
 11
211.8645076154647
 21
270.3909052643254
 31
0.0000000000000000
  0
LINE
  5
8B
100
AcDbEntity
  8
A10
  6
CONTINUOUS
 62
7
100
AcDbLine
 10
226.4998476946452
 20
269.8945750507638
 30
0.0000000000000000
 11
212.7498476954762
 21
269.8945750507638
 31
0.0000000000000000
  0
ARC
  5
8C
100
AcDbEntity
  8
A10
  6
CONTINUOUS
 62
7
100
AcDbCircle
 10
79.99984769517857
 20
219.5939686196876
 30
0.0000000000000000
 40
9.099999999647224
100
AcDbArc
 50
335.0387505054697
 51
384.9612494945307
  0
ARC
  5
8D
100
AcDbEntity
  8
A10
  6
CONTINUOUS
 62
7
100
AcDbCircle
 10
219.9998476949431
 20
219.5939686196876
 30
0.0000000000000000
 40
9.099999999647224
100
AcDbArc
 50
155.0387505054694
 51
204.9612494945304
  0
LINE
  5
8E
100
AcDbEntity
  8
A6
  6
CONTINUOUS
 62
7
100
AcDbLine
 10
70.53138464410247
 20
204.1696245264735
 30
0.0000000000000000
 11
71.75065276369554
 21
204.1696245264735
 31
0.0000000000000000
  0
LINE
  5
8F
100
AcDbEntity
  8
A6
  6
CONTINUOUS
 62
7
100
AcDbLine
 10
228.1966739164016
 20
204.1696245264736
 30
0.0000000000000000
 11
229.4683107457837
 21
204.1696245264736
 31
0.0000000000000000
  0
LINE
  5
90
100
AcDbEntity
  8
A6
  6
CONTINUOUS
 62
7
100
AcDbLine
 10
70.53138464410495
 20
197.6121860021712
 30
0.0000000000000000
 11
71.79352948510282
 21
197.6121860021712
 31
0.0000000000000000
  0
LINE
  5
91
100
AcDbEntity
  8
A6
  6
CONTINUOUS
 62
7
100
AcDbLine
 10
228.1537971755529
 20
197.6121860021712
 30
0.0000000000000000
 11
229.4683107457812
 21
197.6121860021712
 31
0.0000000000000000
  0
SPLINE
  5
92
100
AcDbEntity
  8
A9
  6
CONTINUOUS
 62
7
100
AcDbSpline
210
0.0000000000000000
220
0.0000000000000000
230
1.000000000000000
 70
     8
 71
     3
 72
    51
 73
    47
 74
     0
 42
1.000000000000000e-07
 43
1.000000000000000e-07
 12
-1.272741087632312e-06
 22
-0.9999999999990905
 32
0.0000000000000000
 13
0.9999999998653948
 23
-1.565999627928250e-05
 33
0.0000000000000000
 40
0.0000000000000000
 40
0.0000000000000000
 40
0.0000000000000000
 40
0.0000000000000000
 40
0.2134418587437684
 40
0.6186825921986701
 40
1.022748357089747
 40
1.424843598615223
 40
1.824201928266114
 40
2.220063440445152
 40
2.611676638149210
 40
2.998300403141783
 40
3.379206024582871
 40
3.753679308710278
 40
4.121022799447053
 40
4.480558150219061
 40
4.831628702238180
 40
5.173602346294501
 40
5.505874777273623
 40
5.827873299004087
 40
6.139061411372767
 40
6.438944528640797
 40
6.727077367254759
 40
7.003073857889538
 40
7.266620985155138
 40
7.517498951547770
 40
7.755611952897991
 40
7.981037674888976
 40
8.194111930888228
 40
8.395584628323714
 40
8.586935914000598
 40
8.771103871934582
 40
8.954483250159779
 40
9.153854857481321
 40
9.268683853172103
 40
9.373593426078193
 40
9.471883064372939
 40
9.567921078250965
 40
9.665044744166169
 40
9.765691418095845
 40
9.871493495498500
 40
9.983217886729188
 40
10.10071195777540
 40
10.22307687856074
 40
10.34906406234590
 40
10.49193816912727
 40
10.62168278683997
 40
10.64826477266946
 40
10.64826477266946
 40
10.64826477266946
 40
10.64826477266946
 10
71.75065276369548
 20
200.8909052643255
 30
0.0000000000000000
 10
71.75065267314341
 20
200.8197579780777
 30
0.0000000000000000
 10
71.75082142059620
 20
200.6135304271477
 30
0.0000000000000000
 10
71.75191592977632
 20
200.2726154654102
 30
0.0000000000000000
 10
71.75447925083796
 20
199.8688223671886
 30
0.0000000000000000
 10
71.75830233186792
 20
199.4670000926147
 30
0.0000000000000000
 10
71.76337805008029
 20
199.0679266495669
 30
0.0000000000000000
 10
71.76969761575469
 20
198.6723654011476
 30
0.0000000000000000
 10
71.77725007851308
 20
198.2810713841889
 30
0.0000000000000000
 10
71.78602253954739
 20
197.8947893524368
 30
0.0000000000000000
 10
71.79600022009157
 20
197.5142517739726
 30
0.0000000000000000
 10
71.80716660411167
 20
197.1401767482825
 30
0.0000000000000000
 10
71.81950360682180
 20
196.7732658176678
 30
0.0000000000000000
 10
71.83299179483078
 20
196.4142016327883
 30
0.0000000000000000
 10
71.84761066977575
 20
196.0636454185542
 30
0.0000000000000000
 10
71.86333903919541
 20
195.7222341646388
 30
0.0000000000000000
 10
71.88015550776885
 20
195.3905774328724
 30
0.0000000000000000
 10
71.89803913882599
 20
195.0692536252127
 30
0.0000000000000000
 10
71.91697036207660
 20
194.7588054809398
 30
0.0000000000000000
 10
71.93693224599957
 20
194.4597344525439
 30
0.0000000000000000
 10
71.95791232451012
 20
194.1724934153278
 30
0.0000000000000000
 10
71.97990529081829
 20
193.8974768357139
 30
0.0000000000000000
 10
72.00291709342639
 20
193.6350069465478
 30
0.0000000000000000
 10
72.02697138728632
 20
193.3853133990150
 30
0.0000000000000000
 10
72.05212012503688
 20
193.1485018090653
 30
0.0000000000000000
 10
72.07846183640464
 20
192.9245021442828
 30
0.0000000000000000
 10
72.10617521163277
 20
192.7129784074777
 30
0.0000000000000000
 10
72.13558596048830
 20
192.5131546788240
 30
0.0000000000000000
 10
72.16731536771789
 20
192.3234446700421
 30
0.0000000000000000
 10
72.20266614962748
 20
192.1405011196717
 30
0.0000000000000000
 10
72.24488710322368
 20
191.9562636959633
 30
0.0000000000000000
 10
72.29037189283639
 20
191.7966067387618
 30
0.0000000000000000
 10
72.33757984900041
 20
191.6650462730703
 30
0.0000000000000000
 10
72.37927393579145
 20
191.5675053445906
 30
0.0000000000000000
 10
72.42441041960137
 20
191.4784717116374
 30
0.0000000000000000
 10
72.47438511973189
 20
191.3950598316368
 30
0.0000000000000000
 10
72.53104959860269
 20
191.3150548776101
 30
0.0000000000000000
 10
72.59627626840819
 20
191.2375262667842
 30
0.0000000000000000
 10
72.67173119696037
 20
191.1627717302659
 30
0.0000000000000000
 10
72.75855317909912
 20
191.0922275470464
 30
0.0000000000000000
 10
72.85700809538440
 20
191.0282267459585
 30
0.0000000000000000
 10
72.96631031213934
 20
190.9735364047095
 30
0.0000000000000000
 10
73.08926508659499
 20
190.9291652795540
 30
0.0000000000000000
 10
73.21939005083129
 20
190.9003182920752
 30
0.0000000000000000
 10
73.31902672317000
 20
190.8915646197593
 30
0.0000000000000000
 10
73.37113340924509
 20
190.8909054030834
 30
0.0000000000000000
 10
73.37999407118707
 20
190.8909052643255
 30
0.0000000000000000
  0
SPLINE
  5
93
100
AcDbEntity
  8
A9
  6
CONTINUOUS
 62
7
100
AcDbSpline
210
0.0000000000000000
220
0.0000000000000000
230
1.000000000000000
 70
     8
 71
     3
 72
    16
 73
    12
 74
     0
 42
1.000000000000000e-07
 43
1.000000000000000e-07
 12
-0.005401592732368954
 22
-0.9999854112916182
 32
0.0000000000000000
 13
-0.3015549851224932
 23
-0.9534487877899664
 33
0.0000000000000000
 40
0.0000000000000000
 40
0.0000000000000000
 40
0.0000000000000000
 40
0.0000000000000000
 40
0.2554298059593729
 40
0.6674535158273025
 40
1.094588274570863
 40
1.530412094572060
 40
2.240351366586159
 40
2.965843304634668
 40
3.710944610637213
 40
4.463379033894342
 40
4.483379389392919
 40
4.483379389392919
 40
4.483379389392919
 40
4.483379389392919
 10
88.17667202268001
 20
205.2457836543446
 30
0.0000000000000000
 10
88.17621211341884
 20
205.1606416278218
 30
0.0000000000000000
 10
88.17005029147913
 20
204.9381370342672
 30
0.0000000000000000
 10
88.13558551023834
 20
204.5745844579267
 30
0.0000000000000000
 10
88.07168334712367
 20
204.1542666380082
 30
0.0000000000000000
 10
87.96977707865722
 20
203.6398276832816
 30
0.0000000000000000
 10
87.82176006872339
 20
203.0336649696033
 30
0.0000000000000000
 10
87.62480685650661
 20
202.3339334222839
 30
0.0000000000000000
 10
87.40877150819830
 20
201.6250828676234
 30
0.0000000000000000
 10
87.25632874224948
 20
201.1427538528080
 30
0.0000000000000000
 10
87.17868431870301
 20
200.8972617025606
 30
0.0000000000000000
 10
87.17667391640140
 20
200.8909052643254
 30
0.0000000000000000
  0
SPLINE
  5
94
100
AcDbEntity
  8
A9
  6
CONTINUOUS
 62
7
100
AcDbSpline
210
0.0000000000000000
220
0.0000000000000000
230
1.000000000000000
 70
     8
 71
     3
 72
    51
 73
    47
 74
     0
 42
1.000000000000000e-07
 43
1.000000000000000e-07
 12
0.9999998294106263
 22
0.0005841066085849889
 32
0.0000000000000000
 13
-4.301045919419266e-07
 23
1.000000000000000
 33
0.0000000000000000
 40
0.0000000000000000
 40
0.0000000000000000
 40
0.0000000000000000
 40
0.0000000000000000
 40
0.1334832973190307
 40
0.2664985938524712
 40
0.3947511068488806
 40
0.5177790841369899
 40
0.6350273406894346
 40
0.7459959107953538
 40
0.8505287964848774
 40
0.9490964955524978
 40
1.042909288607223
 40
1.133889624229126
 40
1.224710527435140
 40
1.319149396419937
 40
1.423131411318117
 40
1.547529001013575
 40
1.715921698515114
 40
1.903017236908745
 40
2.086309890322738
 40
2.273945384487218
 40
2.487697021538978
 40
2.710247247278753
 40
2.943441144372509
 40
3.188257467011606
 40
3.445103206578289
 40
3.714067242040032
 40
3.995040308133495
 40
4.287778597728021
 40
4.591940726038166
 40
4.907110815649845
 40
5.232813801075485
 40
5.568526116393167
 40
5.913683516018905
 40
6.267687048422399
 40
6.629907803124081
 40
6.999690822133956
 40
7.376358430129470
 40
7.759213153087672
 40
8.147540341259679
 40
8.540610577242653
 40
8.937681926484743
 40
9.338002071659014
 40
9.740810361411519
 40
10.14533979640470
 40
10.52946948628596
 40
10.64829016900669
 40
10.64829016900669
 40
10.64829016900669
 40
10.64829016900669
 10
226.5673326089100
 20
190.8909052643254
 30
0.0000000000000000
 10
226.6118270337593
 20
190.8909312538175
 30
0.0000000000000000
 10
226.7007645035961
 20
190.8965872896087
 30
0.0000000000000000
 10
226.8302732814279
 20
190.9217278288132
 30
0.0000000000000000
 10
226.9523247500885
 20
190.9616673732135
 30
0.0000000000000000
 10
227.0639506692200
 20
191.0136106509657
 30
0.0000000000000000
 10
227.1640575042869
 20
191.0747806907440
 30
0.0000000000000000
 10
227.2522121514467
 20
191.1424126262715
 30
0.0000000000000000
 10
227.3287421991815
 20
191.2140746424491
 30
0.0000000000000000
 10
227.3946876491067
 20
191.2880382223188
 30
0.0000000000000000
 10
227.4515993718019
 20
191.3635417319950
 30
0.0000000000000000
 10
227.5012824046594
 20
191.4409131007808
 30
0.0000000000000000
 10
227.5456208028817
 20
191.5216908374124
 30
0.0000000000000000
 10
227.5865701279374
 20
191.6090424268390
 30
0.0000000000000000
 10
227.6263897770423
 20
191.7090731629227
 30
0.0000000000000000
 10
227.6682755018147
 20
191.8345927918350
 30
0.0000000000000000
 10
227.7103977211974
 20
191.9889921152464
 30
0.0000000000000000
 10
227.7495917992478
 20
192.1643040208747
 30
0.0000000000000000
 10
227.7841814436183
 20
192.3470904404921
 30
0.0000000000000000
 10
227.8158395994155
 20
192.5394092971922
 30
0.0000000000000000
 10
227.8456326593274
 20
192.7452548782355
 30
0.0000000000000000
 10
227.8740586130899
 20
192.9666099249115
 30
0.0000000000000000
 10
227.9007562769868
 20
193.1986045839024
 30
0.0000000000000000
 10
227.9260568088241
 20
193.4422507589441
 30
0.0000000000000000
 10
227.9501373494825
 20
193.6979983752954
 30
0.0000000000000000
 10
227.9730918635481
 20
193.9659473680985
 30
0.0000000000000000
 10
227.9949683762895
 20
194.2459883365782
 30
0.0000000000000000
 10
228.0157879626273
 20
194.5378732763984
 30
0.0000000000000000
 10
228.0355552101218
 20
194.8412552282476
 30
0.0000000000000000
 10
228.0542644304565
 20
195.1557124223399
 30
0.0000000000000000
 10
228.0719035293724
 20
195.4807640102469
 30
0.0000000000000000
 10
228.0884565243864
 20
195.8158809120129
 30
0.0000000000000000
 10
228.1039052391992
 20
196.1604936812445
 30
0.0000000000000000
 10
228.1182304784417
 20
196.5139984731778
 30
0.0000000000000000
 10
228.1314128629819
 20
196.8757617656658
 30
0.0000000000000000
 10
228.1434334370844
 20
197.2451242377063
 30
0.0000000000000000
 10
228.1542741183073
 20
197.6214040659405
 30
0.0000000000000000
 10
228.1639180356543
 20
198.0038998114432
 30
0.0000000000000000
 10
228.1723497891346
 20
198.3918930137283
 30
0.0000000000000000
 10
228.1795556424980
 20
198.7846505726254
 30
0.0000000000000000
 10
228.1855236982912
 20
199.1814269761805
 30
0.0000000000000000
 10
228.1902439336642
 20
199.5814664118012
 30
0.0000000000000000
 10
228.1937086016182
 20
199.9840048053318
 30
0.0000000000000000
 10
228.1958723558092
 20
200.3811553550420
 30
0.0000000000000000
 10
228.1965985786459
 20
200.6836482471732
 30
0.0000000000000000
 10
228.1966739334367
 20
200.8512983700852
 30
0.0000000000000000
 10
228.1966739164016
 20
200.8909052643254
 30
0.0000000000000000
  0
SPLINE
  5
95
100
AcDbEntity
  8
A9
  6
CONTINUOUS
 62
7
100
AcDbSpline
210
0.0000000000000000
220
0.0000000000000000
230
1.000000000000000
 70
     8
 71
     3
 72
    16
 73
    12
 74
     0
 42
1.000000000000000e-07
 43
1.000000000000000e-07
 12
-0.3015538611107331
 22
0.9534491432932555
 32
0.0000000000000000
 13
-0.005734598060826102
 23
0.9999835570570212
 33
0.0000000000000000
 40
0.0000000000000000
 40
0.0000000000000000
 40
0.0000000000000000
 40
0.0000000000000000
 40
0.02000035700476510
 40
0.7528264991700462
 40
1.485612316056665
 40
2.222604262587536
 40
2.952963520575053
 40
3.377922571405174
 40
3.797859718130576
 40
4.216092090968394
 40
4.483211506177926
 40
4.483211506177926
 40
4.483211506177926
 40
4.483211506177926
 10
212.8030214736937
 20
200.8909052643254
 30
0.0000000000000000
 10
212.8010110787343
 20
200.8972617054094
 30
0.0000000000000000
 10
212.7253375175851
 20
201.1365219856337
 30
0.0000000000000000
 10
212.5761008030135
 20
201.6087040496317
 30
0.0000000000000000
 10
212.3617097974977
 20
202.3109357808304
 30
0.0000000000000000
 10
212.1622580396703
 20
203.0167497548983
 30
0.0000000000000000
 10
212.0121049033513
 20
203.6296313073891
 30
0.0000000000000000
 10
211.9098306322793
 20
204.1447918254734
 30
0.0000000000000000
 10
211.8458496699526
 20
204.5610873888242
 30
0.0000000000000000
 10
211.8101278179072
 20
204.9281089225740
 30
0.0000000000000000
 10
211.8035341321592
 20
205.1565816159635
 30
0.0000000000000000
 10
211.8030235246657
 20
205.2456199569569
 30
0.0000000000000000
  0
ELLIPSE
  5
96
100
AcDbEntity
  8
A9
  6
CONTINUOUS
 62
7
100
AcDbEllipse
 10
223.9998476950476
 20
272.9766917019523
 30
0.0000000000000000
 11
-0.9238795325112872
 21
-0.9238795325112861
 31
0.0000000000000000
210
0.0000000000000000
220
0.0000000000000000
230
1.000000000000000
 40
0.4142135623730955
 41
3.534291735288549
 42
4.319689898685979
  0
ELLIPSE
  5
97
100
AcDbEntity
  8
A9
  6
CONTINUOUS
 62
7
100
AcDbEllipse
 10
75.99984769504761
 20
272.9766917019523
 30
0.0000000000000000
 11
-0.9238795325112859
 21
0.9238795325112877
 31
0.0000000000000000
210
0.0000000000000000
220
0.0000000000000000
230
1.000000000000000
 40
0.4142135623730954
 41
5.105088062083401
 42
5.890486225480871
  0
ARC
  5
98
100
AcDbEntity
  8
A9
  6
CONTINUOUS
 62
7
100
AcDbCircle
 10
75.99984769504761
 20
276.8909052643254
 30
0.0000000000000000
 40
1.000000000000000
100
AcDbArc
 50
90.00000000000000
 51
180.0000000000000
  0
ARC
  5
99
100
AcDbEntity
  8
A9
  6
CONTINUOUS
 62
7
100
AcDbCircle
 10
223.9998476950476
 20
276.8909052643254
 30
0.0000000000000000
 40
1.000000000000000
100
AcDbArc
 50
0.0000000000000000
 51
90.00000000000000
  0
ARC
  5
9A
100
AcDbEntity
  8
A9
  6
CONTINUOUS
 62
7
100
AcDbCircle
 10
72.99539660549777
 20
272.9766917019523
 30
0.0000000000000000
 40
1.000000000000000
100
AcDbArc
 50
89.99999999999511
 51
175.9999999999994
  0
ARC
  5
9B
100
AcDbEntity
  8
A9
  6
CONTINUOUS
 62
7
100
AcDbCircle
 10
226.9519300745993
 20
272.9766917019523
 30
0.0000000000000000
 40
1.000000000000000
100
AcDbArc
 50
3.999999999999700
 51
90.00000000000081
  0
ARC
  5
9C
100
AcDbEntity
  8
A9
  6
CONTINUOUS
 62
7
100
AcDbCircle
 10
212.8030214736937
 20
269.4766917019523
 30
0.0000000000000000
 40
1.000000000000000
100
AcDbArc
 50
175.9999999999994
 51
180.0000000000000
  0
ARC
  5
9D
100
AcDbEntity
  8
A9
  6
CONTINUOUS
 62
7
100
AcDbCircle
 10
87.17667391640140
 20
269.4766917019523
 30
0.0000000000000000
 40
1.000000000000000
100
AcDbArc
 50
0.0000000000000000
 51
3.999999999999802
  0
ARC
  5
9E
100
AcDbEntity
  8
A9
  6
CONTINUOUS
 62
7
100
AcDbCircle
 10
227.1966739164016
 20
269.4766917019523
 30
0.0000000000000000
 40
1.000000000000000
100
AcDbArc
 50
8.141999999999999e-13
 51
3.999999999998937
  0
ARC
  5
9F
100
AcDbEntity
  8
A9
  6
CONTINUOUS
 62
7
100
AcDbCircle
 10
72.75065276369554
 20
269.4766917019523
 30
0.0000000000000000
 40
1.000000000000000
100
AcDbArc
 50
176.0000000000011
 51
180.0000000000000
  0
LINE
  5
A0
100
AcDbEntity
  8
A9
  6
CONTINUOUS
 62
7
100
AcDbLine
 10
75.99984769504761
 20
277.8909052643254
 30
0.0000000000000000
 11
86.65822159891633
 21
277.8909052643254
 31
0.0000000000000000
  0
LINE
  5
A1
100
AcDbEntity
  8
A9
  6
CONTINUOUS
 62
7
100
AcDbLine
 10
213.3214737911788
 20
277.8909052643254
 30
0.0000000000000000
 11
223.9998476950476
 21
277.8909052643254
 31
0.0000000000000000
  0
LINE
  5
A2
100
AcDbEntity
  8
A9
  6
CONTINUOUS
 62
7
100
AcDbLine
 10
74.99984769504761
 20
273.9766917019523
 30
0.0000000000000000
 11
74.99984769504761
 21
276.8909052643254
 31
0.0000000000000000
  0
LINE
  5
A3
100
AcDbEntity
  8
A9
  6
CONTINUOUS
 62
7
100
AcDbLine
 10
226.9519300745993
 20
273.9766917019523
 30
0.0000000000000000
 11
224.7069544762342
 21
273.9766917019523
 31
0.0000000000000000
  0
LINE
  5
A4
100
AcDbEntity
  8
A9
  6
CONTINUOUS
 62
7
100
AcDbLine
 10
224.9998476950476
 20
276.8909052643254
 30
0.0000000000000000
 11
224.9998476950476
 21
273.9766917019523
 31
0.0000000000000000
  0
LINE
  5
A5
100
AcDbEntity
  8
A9
  6
CONTINUOUS
 62
7
100
AcDbLine
 10
75.29274091386105
 20
273.9766917019523
 30
0.0000000000000000
 11
72.99539660549777
 21
273.9766917019523
 31
0.0000000000000000
  0
LINE
  5
A6
100
AcDbEntity
  8
A9
  6
CONTINUOUS
 62
7
100
AcDbLine
 10
88.17423796666122
 20
269.5464481756964
 30
0.0000000000000000
 11
87.65578564917612
 21
276.9606617380695
 31
0.0000000000000000
  0
LINE
  5
A7
100
AcDbEntity
  8
A9
  6
CONTINUOUS
 62
7
100
AcDbLine
 10
71.99783255523795
 20
273.0464481756964
 30
0.0000000000000000
 11
71.75308871343566
 21
269.5464481756964
 31
0.0000000000000000
  0
LINE
  5
A8
100
AcDbEntity
  8
A9
  6
CONTINUOUS
 62
7
100
AcDbLine
 10
228.1942379666614
 20
269.5464481756965
 30
0.0000000000000000
 11
227.9494941248592
 21
273.0464481756965
 31
0.0000000000000000
  0
LINE
  5
A9
100
AcDbEntity
  8
A9
  6
CONTINUOUS
 62
7
100
AcDbLine
 10
212.3239097409190
 20
276.9606617380695
 30
0.0000000000000000
 11
211.8054574234339
 21
269.5464481756964
 31
0.0000000000000000
  0
LINE
  5
AA
100
AcDbEntity
  8
A9
  6
CONTINUOUS
 62
7
100
AcDbLine
 10
71.75065276369554
 20
269.4766917019523
 30
0.0000000000000000
 11
71.75065276369554
 21
200.8909052643255
 31
0.0000000000000000
  0
LINE
  5
AB
100
AcDbEntity
  8
A9
  6
CONTINUOUS
 62
7
100
AcDbLine
 10
226.5673326089100
 20
190.8909052643254
 30
0.0000000000000000
 11
73.37377535488696
 21
190.8909052643254
 31
0.0000000000000000
  0
LINE
  5
AC
100
AcDbEntity
  8
A9
  6
CONTINUOUS
 62
7
100
AcDbLine
 10
211.8030214736937
 20
210.8909052643254
 30
0.0000000000000000
 11
88.17667391640140
 21
210.8909052643254
 31
0.0000000000000000
  0
LINE
  5
AD
100
AcDbEntity
  8
A9
  6
CONTINUOUS
 62
7
100
AcDbLine
 10
228.1966739164016
 20
200.8909052643255
 30
0.0000000000000000
 11
228.1966739164016
 21
269.4766917019523
 31
0.0000000000000000
  0
LINE
  5
AE
100
AcDbEntity
  8
A9
  6
CONTINUOUS
 62
7
100
AcDbLine
 10
88.17667391640140
 20
205.2447933922927
 30
0.0000000000000000
 11
88.17667391640140
 21
269.4766917019523
 31
0.0000000000000000
  0
LINE
  5
AF
100
AcDbEntity
  8
A9
  6
CONTINUOUS
 62
7
100
AcDbLine
 10
211.8030214736937
 20
269.4766917019523
 30
0.0000000000000000
 11
211.8030214736937
 21
205.2445837332556
 31
0.0000000000000000
  0
ARC
  5
B0
100
AcDbEntity
  8
A9
  6
CONTINUOUS
 62
7
100
AcDbCircle
 10
86.65822159891633
 20
276.8909052643254
 30
0.0000000000000000
 40
1.000000000000000
100
AcDbArc
 50
3.999999999999818
 51
90.00000000000000
  0
ARC
  5
B1
100
AcDbEntity
  8
A9
  6
CONTINUOUS
 62
7
100
AcDbCircle
 10
213.3214737911788
 20
276.8909052643254
 30
0.0000000000000000
 40
1.000000000000000
100
AcDbArc
 50
90.00000000000000
 51
176.0000000000001
  0
LINE
  5
B2
100
AcDbEntity
  8
A9
  6
CENTER
 62
1
100
AcDbLine
 10
149.9998476950608
 20
168.0909052643743
 30
0.0000000000000000
 11
149.9998476950608
 21
301.0907529595308
 31
0.0000000000000000
  0
LINE
  5
B3
100
AcDbEntity
  8
A9
  6
CENTER
 62
1
100
AcDbLine
 10
241.9998476949210
 20
83.98761142447708
 30
0.0000000000000000
 11
241.9998476949210
 21
92.98768757689885
 31
0.0000000000000000
  0
LINE
  5
B4
100
AcDbEntity
  8
A9
  6
CONTINUOUS
 62
7
100
AcDbLine
 10
239.0592621904691
 20
84.98768757689882
 30
0.0000000000000000
 11
244.9404331993731
 21
84.98768757689882
 31
0.0000000000000000
  0
LINE
  5
B5
100
AcDbEntity
  8
A10
  6
CONTINUOUS
 62
7
100
AcDbLine
 10
238.3929698709023
 20
85.48646960202873
 30
0.0000000000000000
 11
245.6067255189402
 21
85.48646960202873
 31
0.0000000000000000
  0
LINE
  5
B6
100
AcDbEntity
  8
A9
  6
CENTER
 62
1
100
AcDbLine
 10
241.9998476949212
 20
83.98761142447705
 30
0.0000000000000000
 11
241.9998476949212
 21
92.98768757689879
 31
0.0000000000000000
  0
LINE
  5
B7
100
AcDbEntity
  8
A9
  6
CENTER
 62
1
100
AcDbLine
 10
241.9998476949212
 20
83.98761142447704
 30
0.0000000000000000
 11
241.9998476949212
 21
92.98768757689884
 31
0.0000000000000000
  0
LINE
  5
B8
100
AcDbEntity
  8
A9
  6
CONTINUOUS
 62
7
100
AcDbLine
 10
244.9404331993732
 20
84.98768757689881
 30
0.0000000000000000
 11
239.0592621904694
 21
84.98768757689881
 31
0.0000000000000000
  0
LINE
  5
B9
100
AcDbEntity
  8
A9
  6
CENTER
 62
1
100
AcDbLine
 10
241.9998476949212
 20
83.98761142447704
 30
0.0000000000000000
 11
241.9998476949212
 21
92.98768757689884
 31
0.0000000000000000
  0
LINE
  5
BA
100
AcDbEntity
  8
A9
  6
CONTINUOUS
 62
7
100
AcDbLine
 10
245.0805854606567
 20
84.98768757689881
 30
0.0000000000000000
 11
238.9191099291856
 21
84.98768757689881
 31
0.0000000000000000
  0
LINE
  5
BB
100
AcDbEntity
  8
A9
  6
CONTINUOUS
 62
7
100
AcDbLine
 10
238.3929419510640
 20
85.48700234427609
 30
0.0000000000000000
 11
238.9191099291855
 21
84.98768757689882
 31
0.0000000000000000
  0
LINE
  5
BC
100
AcDbEntity
  8
A9
  6
CONTINUOUS
 62
7
100
AcDbLine
 10
237.9998476949214
 20
92.98768757689882
 30
0.0000000000000000
 11
238.3929419510642
 21
85.48700234427608
 31
0.0000000000000000
  0
LINE
  5
BD
100
AcDbEntity
  8
A9
  6
CONTINUOUS
 62
7
100
AcDbLine
 10
245.0805854606566
 20
84.98768757689884
 30
0.0000000000000000
 11
245.6067534387780
 21
85.48700234427615
 31
0.0000000000000000
  0
LINE
  5
BE
100
AcDbEntity
  8
A9
  6
CONTINUOUS
 62
7
100
AcDbLine
 10
245.9998476949211
 20
92.98768757689879
 30
0.0000000000000000
 11
245.6067534387782
 21
85.48700234427608
 31
0.0000000000000000
  0
LINE
  5
BF
100
AcDbEntity
  8
A9
  6
CONTINUOUS
 62
7
100
AcDbLine
 10
60.94043319965242
 20
84.98768757689881
 30
0.0000000000000000
 11
55.05926219074851
 21
84.98768757689881
 31
0.0000000000000000
  0
LINE
  5
C0
100
AcDbEntity
  8
A9
  6
CENTER
 62
1
100
AcDbLine
 10
57.99984769520042
 20
83.98761142447708
 30
0.0000000000000000
 11
57.99984769520042
 21
92.98768757689885
 31
0.0000000000000000
  0
LINE
  5
C1
100
AcDbEntity
  8
A9
  6
CONTINUOUS
 62
7
100
AcDbLine
 10
60.94043319965234
 20
84.98768757689882
 30
0.0000000000000000
 11
55.05926219074839
 21
84.98768757689882
 31
0.0000000000000000
  0
LINE
  5
C2
100
AcDbEntity
  8
A10
  6
CONTINUOUS
 62
7
100
AcDbLine
 10
61.60672551921916
 20
85.48646960202873
 30
0.0000000000000000
 11
54.39296987118129
 21
85.48646960202873
 31
0.0000000000000000
  0
LINE
  5
C3
100
AcDbEntity
  8
A9
  6
CENTER
 62
1
100
AcDbLine
 10
57.99984769520025
 20
83.98761142447705
 30
0.0000000000000000
 11
57.99984769520025
 21
92.98768757689879
 31
0.0000000000000000
  0
LINE
  5
C4
100
AcDbEntity
  8
A9
  6
CENTER
 62
1
100
AcDbLine
 10
57.99984769520026
 20
83.98761142447705
 30
0.0000000000000000
 11
57.99984769520027
 21
92.98768757689885
 31
0.0000000000000000
  0
LINE
  5
C5
100
AcDbEntity
  8
A9
  6
CONTINUOUS
 62
7
100
AcDbLine
 10
55.05926219074822
 20
84.98768757689882
 30
0.0000000000000000
 11
60.94043319965211
 21
84.98768757689882
 31
0.0000000000000000
  0
LINE
  5
C6
100
AcDbEntity
  8
A9
  6
CENTER
 62
1
100
AcDbLine
 10
57.99984769520026
 20
83.98761142447705
 30
0.0000000000000000
 11
57.99984769520027
 21
92.98768757689885
 31
0.0000000000000000
  0
LINE
  5
C7
100
AcDbEntity
  8
A9
  6
CONTINUOUS
 62
7
100
AcDbLine
 10
54.91910992946477
 20
84.98768757689882
 30
0.0000000000000000
 11
61.08058546093584
 21
84.98768757689882
 31
0.0000000000000000
  0
LINE
  5
C8
100
AcDbEntity
  8
A9
  6
CONTINUOUS
 62
7
100
AcDbLine
 10
61.60675343905733
 20
85.48700234427609
 30
0.0000000000000000
 11
61.08058546093588
 21
84.98768757689882
 31
0.0000000000000000
  0
LINE
  5
C9
100
AcDbEntity
  8
A9
  6
CONTINUOUS
 62
7
100
AcDbLine
 10
61.99984769520001
 20
92.98768757689882
 30
0.0000000000000000
 11
61.60675343905724
 21
85.48700234427609
 31
0.0000000000000000
  0
LINE
  5
CA
100
AcDbEntity
  8
A9
  6
CONTINUOUS
 62
7
100
AcDbLine
 10
54.91910992946485
 20
84.98768757689885
 30
0.0000000000000000
 11
54.39294195134336
 21
85.48700234427616
 31
0.0000000000000000
  0
LINE
  5
CB
100
AcDbEntity
  8
A9
  6
CONTINUOUS
 62
7
100
AcDbLine
 10
53.99984769520040
 20
92.98768757689878
 30
0.0000000000000000
 11
54.39294195134323
 21
85.48700234427608
 31
0.0000000000000000
  0
LINE
  5
CC
100
AcDbEntity
  8
A10
  6
CONTINUOUS
 62
7
100
AcDbLine
 10
230.9998476950650
 20
91.98768757689896
 30
0.0000000000000000
 11
68.99984769505647
 21
91.98768757689896
 31
0.0000000000000000
  0
LINE
  5
CD
100
AcDbEntity
  8
A10
  6
CONTINUOUS
 62
7
100
AcDbLine
 10
230.9998476950650
 20
91.98768757689896
 30
0.0000000000000000
 11
230.5060820530616
 21
77.84808959008893
 31
0.0000000000000000
  0
ARC
  5
CE
100
AcDbEntity
  8
A10
  6
CONTINUOUS
 62
7
100
AcDbCircle
 10
226.5085187449853
 20
77.98768757689896
 30
0.0000000000000000
 40
4.000000000000000
100
AcDbArc
 50
270.0000000000000
 51
358.0000000000002
  0
LINE
  5
CF
100
AcDbEntity
  8
A10
  6
CONTINUOUS
 62
7
100
AcDbLine
 10
68.99984769505646
 20
91.98768757689898
 30
0.0000000000000000
 11
69.49361333705983
 21
77.84808959008895
 31
0.0000000000000000
  0
ARC
  5
D0
100
AcDbEntity
  8
A10
  6
CONTINUOUS
 62
7
100
AcDbCircle
 10
73.49117664513622
 20
77.98768757689896
 30
0.0000000000000000
 40
4.000000000000000
100
AcDbArc
 50
181.9999999999999
 51
270.0000000000000
  0
ARC
  5
D1
100
AcDbEntity
  8
A8
  6
CONTINUOUS
 62
7
100
AcDbCircle
 10
348.2020361312261
 20
186.5909034529452
 30
0.0000000000000000
 40
0.5000000000000000
100
AcDbArc
 50
90.00000000000000
 51
180.0000000000000
  0
ARC
  5
D2
100
AcDbEntity
  8
A8
  6
CONTINUOUS
 62
7
100
AcDbCircle
 10
348.2020361312261
 20
282.5909034529452
 30
0.0000000000000000
 40
0.5000000000000000
100
AcDbArc
 50
180.0000000000000
 51
270.0000000000000
  0
LINE
  5
D3
100
AcDbEntity
  8
A8
  6
CONTINUOUS
 62
7
100
AcDbLine
 10
348.7020361312253
 20
187.0909034529452
 30
0.0000000000000000
 11
348.2020361312261
 21
187.0909034529452
 31
0.0000000000000000
  0
LINE
  5
D4
100
AcDbEntity
  8
A8
  6
CONTINUOUS
 62
7
100
AcDbLine
 10
343.7020361312261
 20
170.5909052643743
 30
0.0000000000000000
 11
343.7020361312261
 21
298.5909052643744
 31
0.0000000000000000
  0
ARC
  5
D5
100
AcDbEntity
  8
A8
  6
CONTINUOUS
 62
7
100
AcDbCircle
 10
344.7020361312261
 20
298.5909052643744
 30
0.0000000000000000
 40
1.000000000000000
100
AcDbArc
 50
90.00000000000000
 51
180.0000000000000
  0
ARC
  5
D6
100
AcDbEntity
  8
A8
  6
CONTINUOUS
 62
7
100
AcDbCircle
 10
344.7020361312261
 20
170.5909052643743
 30
0.0000000000000000
 40
1.000000000000000
100
AcDbArc
 50
180.0000000000000
 51
270.9999999999985
  0
LINE
  5
D7
100
AcDbEntity
  8
A10
  6
CONTINUOUS
 62
7
100
AcDbLine
 10
348.2020361312261
 20
282.0909034529452
 30
0.0000000000000000
 11
348.7020361312261
 21
282.0909034529452
 31
0.0000000000000000
  0
LINE
  5
D8
100
AcDbEntity
  8
A10
  6
CONTINUOUS
 62
7
100
AcDbLine
 10
348.7020361312261
 20
187.0909034529452
 30
0.0000000000000000
 11
362.8416341180361
 21
187.5846690949485
 31
0.0000000000000000
  0
ARC
  5
D9
100
AcDbEntity
  8
A8
  6
CONTINUOUS
 62
7
100
AcDbCircle
 10
362.7020361312261
 20
191.5822324030250
 30
0.0000000000000000
 40
4.000000000000000
100
AcDbArc
 50
272.0000000000004
 51
360.0000000000000
  0
LINE
  5
DA
100
AcDbEntity
  8
A10
  6
CONTINUOUS
 62
7
100
AcDbLine
 10
344.7194885376636
 20
299.5907529595308
 30
0.0000000000000000
 11
347.5055266125136
 21
299.5421224840418
 31
0.0000000000000000
  0
ARC
  5
DB
100
AcDbEntity
  8
A10
  6
CONTINUOUS
 62
7
100
AcDbCircle
 10
347.5020361312261
 20
299.3421529450105
 30
0.0000000000000000
 40
0.2000000000000000
100
AcDbArc
 50
0.0000000000000000
 51
89.00000000000804
  0
LINE
  5
DC
100
AcDbEntity
  8
A10
  6
CONTINUOUS
 62
7
100
AcDbLine
 10
344.7194885376635
 20
169.5910575692180
 30
0.0000000000000000
 11
347.5055266125136
 21
169.6396880447070
 31
0.0000000000000000
  0
ARC
  5
DD
100
AcDbEntity
  8
A8
  6
CONTINUOUS
 62
7
100
AcDbCircle
 10
347.5020361312261
 20
169.8396575837382
 30
0.0000000000000000
 40
0.2000000000000000
100
AcDbArc
 50
270.9999999999921
 51
360.0000000000000
  0
LINE
  5
DE
100
AcDbEntity
  8
A10
  6
CONTINUOUS
 62
7
100
AcDbLine
 10
347.7020361312261
 20
169.8396575837382
 30
0.0000000000000000
 11
347.7020361312261
 21
299.3421529450105
 31
0.0000000000000000
  0
LINE
  5
DF
100
AcDbEntity
  8
A10
  6
CONTINUOUS
 62
7
100
AcDbLine
 10
353.7020361312261
 20
274.1409052643392
 30
0.0000000000000000
 11
347.7020361312298
 21
274.1409052643403
 31
0.0000000000000000
  0
LINE
  5
E0
100
AcDbEntity
  8
A10
  6
CONTINUOUS
 62
7
100
AcDbLine
 10
353.7020361312261
 20
261.6409052643392
 30
0.0000000000000000
 11
347.7020361312298
 21
261.6409052643403
 31
0.0000000000000000
  0
ARC
  5
E1
100
AcDbEntity
  8
A10
  6
CONTINUOUS
 62
7
100
AcDbCircle
 10
353.7020361312261
 20
267.8909052643392
 30
0.0000000000000000
 40
6.250000000000000
100
AcDbArc
 50
196.2602047083098
 51
523.7397952916901
  0
LINE
  5
E2
100
AcDbEntity
  8
A10
  6
CONTINUOUS
 62
7
100
AcDbLine
 10
348.7020361312261
 20
252.8920897408596
 30
0.0000000000000000
 11
348.7020361312261
 21
187.0909034529448
 31
0.0000000000000000
  0
LINE
  5
E3
100
AcDbEntity
  8
A9
  6
CONTINUOUS
 62
7
100
AcDbLine
 10
355.7020361312261
 20
173.6503197599224
 30
0.0000000000000000
 11
355.7020361312261
 21
179.5314907688263
 31
0.0000000000000000
  0
LINE
  5
E4
100
AcDbEntity
  8
A9
  6
CENTER
 62
1
100
AcDbLine
 10
347.7020361312260
 20
176.5909052643744
 30
0.0000000000000000
 11
356.7032541060962
 21
176.5909052643744
 31
0.0000000000000000
  0
LINE
  5
E5
100
AcDbEntity
  8
A10
  6
CONTINUOUS
 62
7
100
AcDbLine
 10
355.2032541060962
 20
180.0663690056984
 30
0.0000000000000000
 11
355.2032541060962
 21
173.1154415230503
 31
0.0000000000000000
  0
LINE
  5
E6
100
AcDbEntity
  8
A9
  6
CONTINUOUS
 62
7
100
AcDbLine
 10
355.7020361312261
 20
173.6503197599224
 30
0.0000000000000000
 11
355.7020361312261
 21
179.5314907688264
 31
0.0000000000000000
  0
LINE
  5
E7
100
AcDbEntity
  8
A10
  6
CONTINUOUS
 62
7
100
AcDbLine
 10
355.2020361312261
 20
172.9839995205174
 30
0.0000000000000000
 11
355.2020361312261
 21
180.1978469197515
 31
0.0000000000000000
  0
LINE
  5
E8
100
AcDbEntity
  8
A9
  6
CONTINUOUS
 62
7
100
AcDbLine
 10
355.7020361312261
 20
173.5101674986389
 30
0.0000000000000000
 11
355.7020361312261
 21
179.6716430301100
 31
0.0000000000000000
  0
LINE
  5
E9
100
AcDbEntity
  8
A9
  6
CONTINUOUS
 62
7
100
AcDbLine
 10
355.2027213638488
 20
180.1978110082316
 30
0.0000000000000000
 11
355.7020361312261
 21
179.6716430301102
 31
0.0000000000000000
  0
LINE
  5
EA
100
AcDbEntity
  8
A9
  6
CONTINUOUS
 62
7
100
AcDbLine
 10
347.7020361312260
 20
180.5909052643742
 30
0.0000000000000000
 11
355.2027213638488
 21
180.1978110082314
 31
0.0000000000000000
  0
LINE
  5
EB
100
AcDbEntity
  8
A9
  6
CONTINUOUS
 62
7
100
AcDbLine
 10
355.7020361312259
 20
173.5101674986389
 30
0.0000000000000000
 11
355.2027213638487
 21
172.9839995205175
 31
0.0000000000000000
  0
LINE
  5
EC
100
AcDbEntity
  8
A9
  6
CONTINUOUS
 62
7
100
AcDbLine
 10
347.7020361312261
 20
172.5909052643746
 30
0.0000000000000000
 11
355.2027213638488
 21
172.9839995205174
 31
0.0000000000000000
  0
LINE
  5
ED
100
AcDbEntity
  8
A9
  6
CONTINUOUS
 62
7
100
AcDbLine
 10
355.7020361312261
 20
289.6503197599225
 30
0.0000000000000000
 11
355.7020361312261
 21
295.5314907688264
 31
0.0000000000000000
  0
LINE
  5
EE
100
AcDbEntity
  8
A9
  6
CENTER
 62
1
100
AcDbLine
 10
347.7020361312261
 20
292.5909052643744
 30
0.0000000000000000
 11
362.7020361312312
 21
292.5909052643744
 31
0.0000000000000000
  0
LINE
  5
EF
100
AcDbEntity
  8
A10
  6
CONTINUOUS
 62
7
100
AcDbLine
 10
355.2032541060962
 20
296.0663690056984
 30
0.0000000000000000
 11
355.2032541060962
 21
289.1154415230504
 31
0.0000000000000000
  0
LINE
  5
F0
100
AcDbEntity
  8
A9
  6
CONTINUOUS
 62
7
100
AcDbLine
 10
355.7020361312261
 20
289.6503197599225
 30
0.0000000000000000
 11
355.7020361312261
 21
295.5314907688264
 31
0.0000000000000000
  0
LINE
  5
F1
100
AcDbEntity
  8
A10
  6
CONTINUOUS
 62
7
100
AcDbLine
 10
355.2020361312261
 20
288.9839995205175
 30
0.0000000000000000
 11
355.2020361312261
 21
296.1978469197516
 31
0.0000000000000000
  0
LINE
  5
F2
100
AcDbEntity
  8
A9
  6
CONTINUOUS
 62
7
100
AcDbLine
 10
355.7020361312261
 20
289.5101674986390
 30
0.0000000000000000
 11
355.7020361312261
 21
295.6716430301101
 31
0.0000000000000000
  0
LINE
  5
F3
100
AcDbEntity
  8
A9
  6
CONTINUOUS
 62
7
100
AcDbLine
 10
355.2027213638488
 20
296.1978110082317
 30
0.0000000000000000
 11
355.7020361312260
 21
295.6716430301102
 31
0.0000000000000000
  0
LINE
  5
F4
100
AcDbEntity
  8
A9
  6
CONTINUOUS
 62
7
100
AcDbLine
 10
347.7020361312260
 20
296.5909052643743
 30
0.0000000000000000
 11
355.2027213638488
 21
296.1978110082315
 31
0.0000000000000000
  0
LINE
  5
F5
100
AcDbEntity
  8
A9
  6
CONTINUOUS
 62
7
100
AcDbLine
 10
355.7020361312260
 20
289.5101674986389
 30
0.0000000000000000
 11
355.2027213638488
 21
288.9839995205175
 31
0.0000000000000000
  0
LINE
  5
F6
100
AcDbEntity
  8
A9
  6
CONTINUOUS
 62
7
100
AcDbLine
 10
347.7020361312261
 20
288.5909052643747
 30
0.0000000000000000
 11
355.2027213638488
 21
288.9839995205174
 31
0.0000000000000000
  0
POINT
  5
F7
100
AcDbEntity
  8
A10
  6
CONTINUOUS
 62
5
100
AcDbPoint
 10
347.7020361312261
 20
282.0909034529452
 30
0.0000000000000000
  0
LINE
  5
F8
100
AcDbEntity
  8
A10
  6
CONTINUOUS
 62
7
100
AcDbLine
 10
249.9996953902129
 20
95.97023517046168
 30
0.0000000000000000
 11
249.9510649147239
 21
93.18419709561149
 31
0.0000000000000000
  0
ARC
  5
F9
100
AcDbEntity
  8
A10
  6
CONTINUOUS
 62
7
100
AcDbCircle
 10
249.7510953756927
 20
93.18768757689897
 30
0.0000000000000000
 40
0.2000000000000000
100
AcDbArc
 50
270.0000000000000
 51
358.9999999999998
  0
LINE
  5
FA
100
AcDbEntity
  8
A10
  6
CONTINUOUS
 62
7
100
AcDbLine
 10
49.99999999999999
 20
95.97023517046169
 30
0.0000000000000000
 11
50.04863047548899
 21
93.18419709561152
 31
0.0000000000000000
  0
ARC
  5
FB
100
AcDbEntity
  8
A10
  6
CONTINUOUS
 62
7
100
AcDbCircle
 10
50.24860001452027
 20
93.18768757689898
 30
0.0000000000000000
 40
0.2000000000000000
100
AcDbArc
 50
181.0000000000001
 51
270.0000000000000
  0
LINE
  5
FC
100
AcDbEntity
  8
A10
  6
CENTER
 62
1
100
AcDbLine
 10
343.2020361312261
 20
267.8909052643391
 30
0.0000000000000000
 11
363.7020361313398
 21
267.8909052643392
 31
0.0000000000000000
  0
LINE
  5
FD
100
AcDbEntity
  8
A10
  6
CENTER
 62
1
100
AcDbLine
 10
353.7020361312261
 20
257.3909052643392
 30
0.0000000000000000
 11
353.7020361312260
 21
278.3909052643394
 31
0.0000000000000000
  0
CIRCLE
  5
FE
100
AcDbEntity
  8
A10
  6
CONTINUOUS
 62
7
100
AcDbCircle
 10
353.7020361312260
 20
267.8909052643392
 30
0.0000000000000000
 40
5.800000000000000
  0
ARC
  5
FF
100
AcDbEntity
  8
A10
  6
CONTINUOUS
 62
7
100
AcDbCircle
 10
227.4683107460453
 20
273.9909052643255
 30
0.0000000000000000
 40
2.000000000000000
100
AcDbArc
 50
285.9503868301505
 51
360.0000000000000
  0
ARC
  5
100
100
AcDbEntity
  8
A10
  6
CONTINUOUS
 62
7
100
AcDbCircle
 10
227.4683107460407
 20
261.7909052643254
 30
0.0000000000000000
 40
2.000000000000000
100
AcDbArc
 50
0.0000000000000000
 51
68.64277526066013
  0
ARC
  5
101
100
AcDbEntity
  8
A10
  6
CONTINUOUS
 62
7
100
AcDbCircle
 10
72.53138464407624
 20
273.9909052643255
 30
0.0000000000000000
 40
2.000000000000000
100
AcDbArc
 50
180.0000000000000
 51
254.0496131698495
  0
ARC
  5
102
100
AcDbEntity
  8
A10
  6
CONTINUOUS
 62
7
100
AcDbCircle
 10
72.53138464408082
 20
261.7909052643254
 30
0.0000000000000000
 40
2.000000000000000
100
AcDbArc
 50
112.9772711821022
 51
180.0000000000000
  0
LINE
  5
103
100
AcDbEntity
  8
A10
  6
CONTINUOUS
 62
7
100
AcDbLine
 10
228.9998476950609
 20
71.98768757689882
 30
0.0000000000000000
 11
207.9998476950609
 21
71.98768757689882
 31
0.0000000000000000
  0
LINE
  5
104
100
AcDbEntity
  8
A10
  6
CONTINUOUS
 62
7
100
AcDbLine
 10
75.50117664526428
 20
71.98768757689882
 30
0.0000000000000000
 11
86.50117664526428
 21
71.98768757689882
 31
0.0000000000000000
  0
LINE
  5
105
100
AcDbEntity
  8
A10
  6
CONTINUOUS
 62
7
100
AcDbLine
 10
368.7020361312260
 20
254.8920897408596
 30
0.0000000000000000
 11
368.7020361312260
 21
277.5297329638819
 31
0.0000000000000000
  0
ARC
  5
106
100
AcDbEntity
  8
A10
  6
CONTINUOUS
 62
7
100
AcDbCircle
 10
364.7020361312261
 20
277.5297329638819
 30
0.0000000000000000
 40
4.000000000000000
100
AcDbArc
 50
0.0000000000000000
 51
87.99999999999962
  0
LINE
  5
107
100
AcDbEntity
  8
A8
  6
CONTINUOUS
 62
7
100
AcDbLine
 10
348.7020361312252
 20
282.0909034529453
 30
0.0000000000000000
 11
364.8416341180362
 21
281.5272962719584
 31
0.0000000000000000
  0
LINE
  5
108
100
AcDbEntity
  8
A10
  6
CONTINUOUS
 62
7
100
AcDbLine
 10
347.7020361312259
 20
252.8920897408596
 30
0.0000000000000000
 11
366.7020361312261
 21
252.8920897408596
 31
0.0000000000000000
  0
ARC
  5
109
100
AcDbEntity
  8
A10
  6
CONTINUOUS
 62
7
100
AcDbCircle
 10
366.7020361312261
 20
254.8920897408596
 30
0.0000000000000000
 40
2.000000000000000
100
AcDbArc
 50
270.0000000000000
 51
360.0000000000000
  0
LINE
  5
10A
100
AcDbEntity
  8
A8
  6
CONTINUOUS
 62
7
100
AcDbLine
 10
366.7020361312261
 20
191.5822324030250
 30
0.0000000000000000
 11
366.7020361312261
 21
252.8920897408596
 31
0.0000000000000000
  0
ARC
  5
10B
100
AcDbEntity
  8
A10
  6
CONTINUOUS
 62
7
100
AcDbCircle
 10
207.9998476950609
 20
73.98768757689882
 30
0.0000000000000000
 40
2.000000000000000
100
AcDbArc
 50
180.0000000000000
 51
270.0000000000000
  0
ARC
  5
10C
100
AcDbEntity
  8
A10
  6
CONTINUOUS
 62
7
100
AcDbCircle
 10
228.9998476950609
 20
73.98768757689882
 30
0.0000000000000000
 40
2.000000000000000
100
AcDbArc
 50
270.0000000000000
 51
360.0000000000000
  0
ARC
  5
10D
100
AcDbEntity
  8
A10
  6
CONTINUOUS
 62
7
100
AcDbCircle
 10
70.99984769506059
 20
73.98768757689882
 30
0.0000000000000000
 40
2.000000000000000
100
AcDbArc
 50
180.0000000000000
 51
270.0000000000000
  0
LINE
  5
10E
100
AcDbEntity
  8
A10
  6
CONTINUOUS
 62
7
100
AcDbLine
 10
70.99984769506059
 20
71.98768757689882
 30
0.0000000000000000
 11
91.99984769506059
 21
71.98768757689882
 31
0.0000000000000000
  0
ARC
  5
10F
100
AcDbEntity
  8
A10
  6
CONTINUOUS
 62
7
100
AcDbCircle
 10
91.99984769506059
 20
73.98768757689882
 30
0.0000000000000000
 40
2.000000000000000
100
AcDbArc
 50
270.0000000000000
 51
360.0000000000000
  0
LINE
  5
110
100
AcDbEntity
  8
A10
  6
CENTER
 62
1
100
AcDbLine
 10
241.9998476949212
 20
66.98768757689878
 30
0.0000000000000000
 11
241.9998476949212
 21
48.98768757689879
 31
0.0000000000000000
  0
LINE
  5
111
100
AcDbEntity
  8
A10
  6
CONTINUOUS
 62
7
100
AcDbLine
 10
234.4998476949212
 20
62.98768757689879
 30
0.0000000000000000
 11
249.4998476949212
 21
62.98768757689879
 31
0.0000000000000000
  0
LINE
  5
112
100
AcDbEntity
  8
A10
  6
CONTINUOUS
 62
7
100
AcDbLine
 10
234.9998476949212
 20
49.98768757689879
 30
0.0000000000000000
 11
248.9998476949210
 21
49.98768757689879
 31
0.0000000000000000
  0
LINE
  5
113
100
AcDbEntity
  8
A10
  6
CONTINUOUS
 62
7
100
AcDbLine
 10
249.4998476949211
 20
50.48768757689092
 30
0.0000000000000000
 11
234.4998476949211
 21
50.48768757690263
 31
0.0000000000000000
  0
LINE
  5
114
100
AcDbEntity
  8
A10
  6
CONTINUOUS
 62
7
100
AcDbLine
 10
234.4998476949212
 20
62.98768757689874
 30
0.0000000000000000
 11
234.4998476949212
 21
50.48768757689891
 31
0.0000000000000000
  0
LINE
  5
115
100
AcDbEntity
  8
A10
  6
CONTINUOUS
 62
7
100
AcDbLine
 10
249.4998476949212
 20
62.98768757689879
 30
0.0000000000000000
 11
249.4998476949212
 21
50.48768757689129
 31
0.0000000000000000
  0
LINE
  5
116
100
AcDbEntity
  8
A10
  6
CONTINUOUS
 62
7
100
AcDbLine
 10
234.9998476949210
 20
49.98768757689895
 30
0.0000000000000000
 11
234.4998476949210
 21
50.48768757689891
 31
0.0000000000000000
  0
LINE
  5
117
100
AcDbEntity
  8
A10
  6
CONTINUOUS
 62
7
100
AcDbLine
 10
248.9998476949209
 20
49.98768757689878
 30
0.0000000000000000
 11
249.4998476949209
 21
50.48768757689878
 31
0.0000000000000000
  0
LINE
  5
118
100
AcDbEntity
  8
A10
  6
CONTINUOUS
 62
7
100
AcDbLine
 10
249.3598476949212
 20
52.98768757689879
 30
0.0000000000000000
 11
234.6398476949212
 21
52.98768757689879
 31
0.0000000000000000
  0
LINE
  5
119
100
AcDbEntity
  8
A10
  6
CONTINUOUS
 62
7
100
AcDbLine
 10
249.3598476949212
 20
53.98768757689879
 30
0.0000000000000000
 11
234.6398476949212
 21
53.98768757689879
 31
0.0000000000000000
  0
LINE
  5
11A
100
AcDbEntity
  8
A10
  6
CONTINUOUS
 62
7
100
AcDbLine
 10
247.9998476949212
 20
53.18768757689880
 30
0.0000000000000000
 11
235.9998476949212
 21
53.18768757689880
 31
0.0000000000000000
  0
LINE
  5
11B
100
AcDbEntity
  8
A10
  6
CONTINUOUS
 62
7
100
AcDbLine
 10
235.7498476949212
 20
53.98768757689881
 30
0.0000000000000000
 11
235.7498476949212
 21
52.98768757689881
 31
0.0000000000000000
  0
LINE
  5
11C
100
AcDbEntity
  8
A10
  6
CONTINUOUS
 62
7
100
AcDbLine
 10
248.2498476949212
 20
53.98768757689881
 30
0.0000000000000000
 11
248.2498476949212
 21
52.98768757689881
 31
0.0000000000000000
  0
LINE
  5
11D
100
AcDbEntity
  8
A10
  6
CONTINUOUS
 62
7
100
AcDbLine
 10
235.9998476949212
 20
53.98768757689881
 30
0.0000000000000000
 11
235.9998476949212
 21
53.18768757689880
 31
0.0000000000000000
  0
LINE
  5
11E
100
AcDbEntity
  8
A10
  6
CONTINUOUS
 62
7
100
AcDbLine
 10
247.9998476949212
 20
53.98768757689881
 30
0.0000000000000000
 11
247.9998476949212
 21
53.18768757689880
 31
0.0000000000000000
  0
LINE
  5
11F
100
AcDbEntity
  8
A10
  6
CENTER
 62
1
100
AcDbLine
 10
57.99984769520034
 20
66.98768757689885
 30
0.0000000000000000
 11
57.99984769520034
 21
48.98768757689885
 31
0.0000000000000000
  0
LINE
  5
120
100
AcDbEntity
  8
A10
  6
CONTINUOUS
 62
7
100
AcDbLine
 10
65.49984769520034
 20
62.98768757689884
 30
0.0000000000000000
 11
50.49984769520034
 21
62.98768757689885
 31
0.0000000000000000
  0
LINE
  5
121
100
AcDbEntity
  8
A10
  6
CONTINUOUS
 62
7
100
AcDbLine
 10
64.99984769520034
 20
49.98768757689884
 30
0.0000000000000000
 11
50.99984769520056
 21
49.98768757689885
 31
0.0000000000000000
  0
LINE
  5
122
100
AcDbEntity
  8
A10
  6
CONTINUOUS
 62
7
100
AcDbLine
 10
50.49984769520044
 20
50.48768757689098
 30
0.0000000000000000
 11
65.49984769520043
 21
50.48768757690269
 31
0.0000000000000000
  0
LINE
  5
123
100
AcDbEntity
  8
A10
  6
CONTINUOUS
 62
7
100
AcDbLine
 10
65.49984769520034
 20
62.98768757689879
 30
0.0000000000000000
 11
65.49984769520034
 21
50.48768757689896
 31
0.0000000000000000
  0
LINE
  5
124
100
AcDbEntity
  8
A10
  6
CONTINUOUS
 62
7
100
AcDbLine
 10
50.49984769520034
 20
62.98768757689885
 30
0.0000000000000000
 11
50.49984769520034
 21
50.48768757689135
 31
0.0000000000000000
  0
LINE
  5
125
100
AcDbEntity
  8
A10
  6
CONTINUOUS
 62
7
100
AcDbLine
 10
64.99984769520049
 20
49.98768757689898
 30
0.0000000000000000
 11
65.49984769520046
 21
50.48768757689894
 31
0.0000000000000000
  0
LINE
  5
126
100
AcDbEntity
  8
A10
  6
CONTINUOUS
 62
7
100
AcDbLine
 10
50.99984769520054
 20
49.98768757689881
 30
0.0000000000000000
 11
50.49984769520053
 21
50.48768757689882
 31
0.0000000000000000
  0
LINE
  5
127
100
AcDbEntity
  8
A10
  6
CONTINUOUS
 62
7
100
AcDbLine
 10
50.63984769520032
 20
52.98768757689885
 30
0.0000000000000000
 11
65.35984769520036
 21
52.98768757689884
 31
0.0000000000000000
  0
LINE
  5
128
100
AcDbEntity
  8
A10
  6
CONTINUOUS
 62
7
100
AcDbLine
 10
50.63984769520032
 20
53.98768757689885
 30
0.0000000000000000
 11
65.35984769520036
 21
53.98768757689884
 31
0.0000000000000000
  0
LINE
  5
129
100
AcDbEntity
  8
A10
  6
CONTINUOUS
 62
7
100
AcDbLine
 10
51.99984769520035
 20
53.18768757689885
 30
0.0000000000000000
 11
63.99984769520035
 21
53.18768757689885
 31
0.0000000000000000
  0
LINE
  5
12A
100
AcDbEntity
  8
A10
  6
CONTINUOUS
 62
7
100
AcDbLine
 10
64.24984769520034
 20
53.98768757689886
 30
0.0000000000000000
 11
64.24984769520034
 21
52.98768757689886
 31
0.0000000000000000
  0
LINE
  5
12B
100
AcDbEntity
  8
A10
  6
CONTINUOUS
 62
7
100
AcDbLine
 10
51.74984769520035
 20
53.98768757689886
 30
0.0000000000000000
 11
51.74984769520035
 21
52.98768757689886
 31
0.0000000000000000
  0
LINE
  5
12C
100
AcDbEntity
  8
A10
  6
CONTINUOUS
 62
7
100
AcDbLine
 10
63.99984769520035
 20
53.98768757689886
 30
0.0000000000000000
 11
63.99984769520035
 21
53.18768757689885
 31
0.0000000000000000
  0
LINE
  5
12D
100
AcDbEntity
  8
A10
  6
CONTINUOUS
 62
7
100
AcDbLine
 10
51.99984769520035
 20
53.98768757689886
 30
0.0000000000000000
 11
51.99984769520035
 21
53.18768757689885
 31
0.0000000000000000
  0
LINE
  5
12E
100
AcDbEntity
  8
A10
  6
CONTINUOUS
 62
7
100
AcDbLine
 10
390.2020361312308
 20
184.0909052643177
 30
0.0000000000000000
 11
377.7020361312307
 21
184.0909052643177
 31
0.0000000000000000
  0
LINE
  5
12F
100
AcDbEntity
  8
A10
  6
CONTINUOUS
 62
7
100
AcDbLine
 10
377.7020361312204
 20
169.0909052643177
 30
0.0000000000000000
 11
377.7020361312307
 21
184.0909052642807
 31
0.0000000000000000
  0
LINE
  5
130
100
AcDbEntity
  8
A10
  6
CONTINUOUS
 62
7
100
AcDbLine
 10
390.7020361312208
 20
169.5909052643178
 30
0.0000000000000000
 11
390.7020361312304
 21
183.5909052643177
 31
0.0000000000000000
  0
LINE
  5
131
100
AcDbEntity
  8
A10
  6
CONTINUOUS
 62
7
100
AcDbLine
 10
390.7020361312304
 20
183.5909052643178
 30
0.0000000000000000
 11
390.2020361312308
 21
184.0909052643177
 31
0.0000000000000000
  0
LINE
  5
132
100
AcDbEntity
  8
A10
  6
CONTINUOUS
 62
7
100
AcDbLine
 10
390.7020361312207
 20
169.5909052643176
 30
0.0000000000000000
 11
390.2020361312204
 21
169.0909052643176
 31
0.0000000000000000
  0
LINE
  5
133
100
AcDbEntity
  8
A10
  6
CONTINUOUS
 62
7
100
AcDbLine
 10
387.7020361312029
 20
169.0909052643177
 30
0.0000000000000000
 11
387.7020361312007
 21
175.0209052643740
 31
0.0000000000000000
  0
LINE
  5
134
100
AcDbEntity
  8
A10
  6
CONTINUOUS
 62
7
100
AcDbLine
 10
386.7020361312025
 20
169.0909052643177
 30
0.0000000000000000
 11
386.7020361312008
 21
175.0209052643748
 31
0.0000000000000000
  0
LINE
  5
135
100
AcDbEntity
  8
A10
  6
CONTINUOUS
 62
7
100
AcDbLine
 10
386.7020361312025
 20
169.0909052643177
 30
0.0000000000000000
 11
377.7020361312074
 21
169.0909052643177
 31
0.0000000000000000
  0
LINE
  5
136
100
AcDbEntity
  8
A10
  6
CONTINUOUS
 62
7
100
AcDbLine
 10
390.2020361312204
 20
169.0909052643177
 30
0.0000000000000000
 11
387.7020361312025
 21
169.0909052643177
 31
0.0000000000000000
  0
LINE
  5
137
100
AcDbEntity
  8
A10
  6
CONTINUOUS
 62
7
100
AcDbLine
 10
390.2020361312205
 20
169.0909052643177
 30
0.0000000000000000
 11
390.2020361312308
 21
184.0909052642728
 31
0.0000000000000000
  0
LINE
  5
138
100
AcDbEntity
  8
A10
  6
CONTINUOUS
 62
7
100
AcDbLine
 10
387.7020361312008
 20
174.5909052643740
 30
0.0000000000000000
 11
386.7020361312009
 21
174.5909052643748
 31
0.0000000000000000
  0
LINE
  5
139
100
AcDbEntity
  8
A10
  6
CENTER
 62
1
100
AcDbLine
 10
387.2020361312023
 20
184.8409052643177
 30
0.0000000000000000
 11
387.2020361312023
 21
168.3409052643177
 31
0.0000000000000000
  0
LINE
  5
13A
100
AcDbEntity
  8
A10
  6
CENTER
 62
1
100
AcDbLine
 10
375.2020361312259
 20
176.5909052643834
 30
0.0000000000000000
 11
393.2020361312260
 21
176.5909052643693
 31
0.0000000000000000
  0
LINE
  5
13B
100
AcDbEntity
  8
A10
  6
CONTINUOUS
 62
7
100
AcDbLine
 10
387.5020361312379
 20
170.5909052643847
 30
0.0000000000000000
 11
386.7020361312379
 21
170.5909052643847
 31
0.0000000000000000
  0
LINE
  5
13C
100
AcDbEntity
  8
A10
  6
CONTINUOUS
 62
7
100
AcDbLine
 10
387.5020361312463
 20
174.5909052643731
 30
0.0000000000000000
 11
387.5020361312379
 21
170.5909052643873
 31
0.0000000000000000
  0
LINE
  5
13D
100
AcDbEntity
  8
A10
  6
CONTINUOUS
 62
7
100
AcDbLine
 10
390.2020361312308
 20
300.0909052643177
 30
0.0000000000000000
 11
377.7020361312307
 21
300.0909052643177
 31
0.0000000000000000
  0
LINE
  5
13E
100
AcDbEntity
  8
A10
  6
CONTINUOUS
 62
7
100
AcDbLine
 10
377.7020361312204
 20
285.0909052643178
 30
0.0000000000000000
 11
377.7020361312308
 21
300.0909052642808
 31
0.0000000000000000
  0
LINE
  5
13F
100
AcDbEntity
  8
A10
  6
CONTINUOUS
 62
7
100
AcDbLine
 10
390.7020361312208
 20
285.5909052643178
 30
0.0000000000000000
 11
390.7020361312305
 21
299.5909052643178
 31
0.0000000000000000
  0
LINE
  5
140
100
AcDbEntity
  8
A10
  6
CONTINUOUS
 62
7
100
AcDbLine
 10
390.7020361312303
 20
299.5909052643178
 30
0.0000000000000000
 11
390.2020361312307
 21
300.0909052643178
 31
0.0000000000000000
  0
LINE
  5
141
100
AcDbEntity
  8
A10
  6
CONTINUOUS
 62
7
100
AcDbLine
 10
390.7020361312207
 20
285.5909052643177
 30
0.0000000000000000
 11
390.2020361312204
 21
285.0909052643177
 31
0.0000000000000000
  0
LINE
  5
142
100
AcDbEntity
  8
A10
  6
CONTINUOUS
 62
7
100
AcDbLine
 10
387.7020361312030
 20
285.0909052643178
 30
0.0000000000000000
 11
387.7020361312007
 21
291.0209052643741
 31
0.0000000000000000
  0
LINE
  5
143
100
AcDbEntity
  8
A10
  6
CONTINUOUS
 62
7
100
AcDbLine
 10
386.7020361312024
 20
285.0909052643177
 30
0.0000000000000000
 11
386.7020361312008
 21
291.0209052643748
 31
0.0000000000000000
  0
LINE
  5
144
100
AcDbEntity
  8
A10
  6
CONTINUOUS
 62
7
100
AcDbLine
 10
386.7020361312025
 20
285.0909052643177
 30
0.0000000000000000
 11
377.7020361312074
 21
285.0909052643177
 31
0.0000000000000000
  0
LINE
  5
145
100
AcDbEntity
  8
A10
  6
CONTINUOUS
 62
7
100
AcDbLine
 10
390.2020361312204
 20
285.0909052643177
 30
0.0000000000000000
 11
387.7020361312025
 21
285.0909052643177
 31
0.0000000000000000
  0
LINE
  5
146
100
AcDbEntity
  8
A10
  6
CONTINUOUS
 62
7
100
AcDbLine
 10
390.2020361312205
 20
285.0909052643178
 30
0.0000000000000000
 11
390.2020361312308
 21
300.0909052642729
 31
0.0000000000000000
  0
LINE
  5
147
100
AcDbEntity
  8
A10
  6
CONTINUOUS
 62
7
100
AcDbLine
 10
387.7020361312008
 20
290.5909052643740
 30
0.0000000000000000
 11
386.7020361312009
 21
290.5909052643748
 31
0.0000000000000000
  0
LINE
  5
148
100
AcDbEntity
  8
A10
  6
CENTER
 62
1
100
AcDbLine
 10
387.2020361312023
 20
300.8409052643177
 30
0.0000000000000000
 11
387.2020361312023
 21
284.3409052643177
 31
0.0000000000000000
  0
LINE
  5
149
100
AcDbEntity
  8
A10
  6
CENTER
 62
1
100
AcDbLine
 10
375.2020361312259
 20
292.5909052643835
 30
0.0000000000000000
 11
393.2020361312260
 21
292.5909052643694
 31
0.0000000000000000
  0
LINE
  5
14A
100
AcDbEntity
  8
A10
  6
CONTINUOUS
 62
7
100
AcDbLine
 10
387.5020361312379
 20
286.5909052643847
 30
0.0000000000000000
 11
386.7020361312379
 21
286.5909052643847
 31
0.0000000000000000
  0
LINE
  5
14B
100
AcDbEntity
  8
A10
  6
CONTINUOUS
 62
7
100
AcDbLine
 10
387.5020361312464
 20
290.5909052643732
 30
0.0000000000000000
 11
387.5020361312379
 21
286.5909052643873
 31
0.0000000000000000
  0
ENDSEC
  0
SECTION
  2
OBJECTS
  0
DICTIONARY
  5
178
100
AcDbDictionary
  3
ACAD_GROUP
350
179
  3
ACAD_LAYOUT
350
17A
  3
ACAD_MLINESTYLE
350
17B
  0
DICTIONARY
  5
179
102
{ACAD_REACTORS
330
178
102
}
330
178
100
AcDbDictionary
  0
DICTIONARY
  5
17A
102
{ACAD_REACTORS
330
178
102
}
330
178
100
AcDbDictionary
  3
Model
350
17C
  3
ﾚｲｱｳﾄ1
350
17D
  3
ﾚｲｱｳﾄ2
350
17E
  0
DICTIONARY
  5
17B
102
{ACAD_REACTORS
330
178
102
}
330
178
100
AcDbDictionary
  3
STANDARD
350
17F
  0
LAYOUT
  5
17C
102
{ACAD_REACTORS
330
17A
102
}
330
17A
100
AcDbPlotSettings
 70
11952
  4
A3
 44
297.000000
 45
420.000000
 73
  1
 72
  1
100
AcDbLayout
  1
Model
 71
0
330
16F
  0
LAYOUT
  5
17D
102
{ACAD_REACTORS
330
17A
102
}
330
17A
100
AcDbPlotSettings
100
AcDbLayout
  1
ﾚｲｱｳﾄ1
 71
1
330
170
  0
LAYOUT
  5
17E
102
{ACAD_REACTORS
330
17A
102
}
330
17A
100
AcDbPlotSettings
100
AcDbLayout
  1
ﾚｲｱｳﾄ2
 71
2
330
171
  0
MLINESTYLE
  5
17F
102
{ACAD_REACTORS
330
17B
102
}
330
17B
100
AcDbMlineStyle
  2
STANDARD
 70
     0
  3

 62
   256
 51
90.00
 52
90.00
 71
     2
 49
0.50
 62
   256
  6
BYLAYER
 49
-0.50
 62
   256
  6
BYLAYER
  0
ENDSEC
  0
EOF
