  0
SECTION
  2
HEADER
  9
$ACADVER
  1
AC1015
  9
$DWGCODEPAGE
  3
ANSI_932
  9
$LTSCALE
 40
20.0
  9
$FILLMODE
 70
     1
  9
$CLAYER
  8
0
  9
$PDMODE
 70
     0
  9
$SPLFRAME
 70
     0
  9
$SPLINETYPE
 70
     6
  9
$SPLINESEGS
 70
     8
  9
$DIMASZ
 40
2.000000
  9
$DIMEXE
 40
1.500000
  9
$DIMEXO
 40
0.800000
  9
$DIMTAD
 70
     1
  9
$DIMTIH
 70
     0
  9
$DIMTOH
 70
     0
  9
$DIMTVP
 40
0.500000
  9
$DIMTXT
 40
3.100000
  9
$EXTMIN
 10
0.000000
 20
0.000000
 30
0.000000
  9
$EXTMAX
 10
297.000000
 20
420.000000
 30
0.000000
  9
$MEASUREMENT
 70
  1
  9
$LIMMIN
 10
0.000000
 20
0.000000
  9
$LIMMAX
 10
297.000000
 20
420.000000
  9
$HANDSEED
  5
14F
  9
$LWDISPLAY
290
     0
  9
$DIMBLK
  1
_OPEN
  9
$DIMDEC
 70
     2
  9
$DIMADEC
 70
     2
  9
$DIMAUNIT
 70
     0
  9
$DIMZIN
 70
     8
  9
$DIMAZIN
 70
     2
  9
$DIMTOFL
 70
     1
  0
ENDSEC
  0
SECTION
  2
CLASSES
  0
ENDSEC
  0
SECTION
  2
TABLES
  0
TABLE
  2
VPORT
  5
11B
100
AcDbSymbolTable
 70
     1
  0
VPORT
  5
11C
100
AcDbSymbolTableRecord
100
AcDbViewportTableRecord
  2
*ACTIVE
 70
     0
 12
122.023357
 22
108.707713
 40
181.415424
 41
1.234993
  0
ENDTAB
  0
TABLE
  2
LTYPE
  5
11D
100
AcDbSymbolTable
 70
     3
  0
LTYPE
  5
11E
100
AcDbSymbolTableRecord
100
AcDbLinetypeTableRecord
  2
BYBLOCK
 70
     0
  3

 72
    65
 73
     0
 40
0.0
  0
LTYPE
  5
11F
100
AcDbSymbolTableRecord
100
AcDbLinetypeTableRecord
  2
BYLAYER
 70
     0
  3

 72
    65
 73
     0
 40
0.0
  0
LTYPE
  5
120
100
AcDbSymbolTableRecord
100
AcDbLinetypeTableRecord
  2
CONTINUOUS
 70
     0
  3
Solid line (NEC CAE2D for Win R15.2 : 2020.03.13)
 72
    65
 73
     0
 40
0.0
  0
LTYPE
  5
121
100
AcDbSymbolTableRecord
100
AcDbLinetypeTableRecord
  2
DASHED
 70
     0
  3
__ __ __ __ __ __ __ __ __ __ __ __ __ _
 72
    65
 73
     2
 40
0.75
 49
0.5
 74
     0
 49
-0.25
 74
     0
  0
LTYPE
  5
122
100
AcDbSymbolTableRecord
100
AcDbLinetypeTableRecord
  2
CENTER
 70
     0
  3
____ _ ____ _ ____ _ ____ _ ____ _ ____
 72
    65
 73
     4
 40
2.0
 49
1.25
 74
     0
 49
-0.25
 74
     0
 49
0.25
 74
     0
 49
-0.25
 74
     0
  0
ENDTAB
  0
TABLE
  2
LAYER
  5
123
100
AcDbSymbolTable
 70
    13
  0
LAYER
  5
124
100
AcDbSymbolTableRecord
100
AcDbLayerTableRecord
  2
0
 70
     0
 62
     7
  6
CONTINUOUS
370
    -3
390

  0
LAYER
  5
125
100
AcDbSymbolTableRecord
100
AcDbLayerTableRecord
  2
A0
 70
     0
 62
     9
  6
CONTINUOUS
370
    -3
390

  0
LAYER
  5
126
100
AcDbSymbolTableRecord
100
AcDbLayerTableRecord
  2
A4
 70
     0
 62
     9
  6
CONTINUOUS
370
    -3
390

  0
LAYER
  5
127
100
AcDbSymbolTableRecord
100
AcDbLayerTableRecord
  2
A5
 70
     0
 62
     8
  6
CONTINUOUS
370
    -3
390

  0
LAYER
  5
128
100
AcDbSymbolTableRecord
100
AcDbLayerTableRecord
  2
A6
 70
     0
 62
    12
  6
CONTINUOUS
370
    -3
390

  0
LAYER
  5
129
100
AcDbSymbolTableRecord
100
AcDbLayerTableRecord
  2
A8
 70
     0
 62
    10
  6
CONTINUOUS
370
    -3
390

  0
LAYER
  5
12A
100
AcDbSymbolTableRecord
100
AcDbLayerTableRecord
  2
A9
 70
     0
 62
     9
  6
CONTINUOUS
370
    -3
390

  0
LAYER
  5
12B
100
AcDbSymbolTableRecord
100
AcDbLayerTableRecord
  2
A10
 70
     0
 62
     6
  6
CONTINUOUS
370
    -3
390

  0
LAYER
  5
12C
100
AcDbSymbolTableRecord
100
AcDbLayerTableRecord
  2
A20
 70
     0
 62
     1
  6
CONTINUOUS
370
    -3
390

  0
LAYER
  5
12D
100
AcDbSymbolTableRecord
100
AcDbLayerTableRecord
  2
A30
 70
     0
 62
     1
  6
CONTINUOUS
370
    -3
390

  0
LAYER
  5
12E
100
AcDbSymbolTableRecord
100
AcDbLayerTableRecord
  2
A40
 70
     0
 62
     9
  6
CONTINUOUS
370
    -3
390

  0
LAYER
  5
12F
100
AcDbSymbolTableRecord
100
AcDbLayerTableRecord
  2
A50
 70
     0
 62
    12
  6
CONTINUOUS
370
    -3
390

  0
LAYER
  5
130
100
AcDbSymbolTableRecord
100
AcDbLayerTableRecord
  2
A1023
 70
     0
 62
    16
  6
CONTINUOUS
370
    -3
390

  0
ENDTAB
  0
TABLE
  2
STYLE
  5
131
100
AcDbSymbolTable
 70
     4
  0
STYLE
  5
132
100
AcDbSymbolTableRecord
100
AcDbTextStyleTableRecord
  2
STANDARD
 70
    64
 40
0.0
 41
1.0
 50
0.0
 71
     0
 42
2.000000000000000
  3
TXT
  4

  0
STYLE
  5
133
100
AcDbSymbolTableRecord
100
AcDbTextStyleTableRecord
  2
ANKTATE
 70
    68
 40
0.0
 41
1.0
 50
0.0
 71
     0
 42
2.000000000000000
  3
TXT
  4

  0
STYLE
  5
134
100
AcDbSymbolTableRecord
100
AcDbTextStyleTableRecord
  2
KNJYOKO
 70
    64
 40
0.0
 41
1.0
 50
0.0
 71
     0
 42
2.000000000000000
  3
TXT
  4
BIGFONT
  0
STYLE
  5
135
100
AcDbSymbolTableRecord
100
AcDbTextStyleTableRecord
  2
KNJTATE
 70
    68
 40
0.0
 41
1.0
 50
0.0
 71
     0
 42
2.000000000000000
  3
TXT
  4
BIGFONT
  0
ENDTAB
  0
TABLE
  2
VIEW
  5
136
100
AcDbSymbolTable
 70
     0
  0
ENDTAB
  0
TABLE
  2
UCS
  5
137
100
AcDbSymbolTable
 70
     0
  0
ENDTAB
  0
TABLE
  2
APPID
  5
138
100
AcDbSymbolTable
 70
     1
  0
APPID
  5
139
100
AcDbSymbolTableRecord
100
AcDbRegAppTableRecord
  2
ACAD
 70
     0
  0
ENDTAB
  0
TABLE
  2
DIMSTYLE
  5
13A
100
AcDbSymbolTable
 70
     2
100
AcDbDimStyleTable
  0
DIMSTYLE
105
13B
100
AcDbSymbolTableRecord
100
AcDbDimStyleTableRecord
  2
STANDARD
 70
     0
 41
2.000000
 44
1.500000
 42
0.800000
145
0.661290
140
3.100000
144
1.000000
146
0.645161
340
132
  0
DIMSTYLE
105
13C
100
AcDbSymbolTableRecord
100
AcDbDimStyleTableRecord
  2
A001
 70
     0
 41
2.000000
 44
1.500000
 42
0.800000
145
0.661290
140
3.100000
144
1.000000
146
0.645161
 77
     1
 73
     0
 74
     0
271
     2
179
     2
275
     0
 78
     8
 79
     2
172
     1
340
132
  0
ENDTAB
  0
TABLE
  2
BLOCK_RECORD
  5
13D
100
AcDbSymbolTable
 70
    12
  0
BLOCK_RECORD
  5
13E
100
AcDbSymbolTableRecord
100
AcDbBlockTableRecord
  2
*MODEL_SPACE
  0
BLOCK_RECORD
  5
13F
100
AcDbSymbolTableRecord
100
AcDbBlockTableRecord
  2
*PAPER_SPACE
  0
BLOCK_RECORD
  5
140
100
AcDbSymbolTableRecord
100
AcDbBlockTableRecord
  2
*PAPER_SPACE0
  0
BLOCK_RECORD
  5
1
100
AcDbSymbolTableRecord
100
AcDbBlockTableRecord
  2
_NONE
  0
BLOCK_RECORD
  5
4
100
AcDbSymbolTableRecord
100
AcDbBlockTableRecord
  2
_CLOSED
  0
BLOCK_RECORD
  5
B
100
AcDbSymbolTableRecord
100
AcDbBlockTableRecord
  2
_DOT
  0
BLOCK_RECORD
  5
13
100
AcDbSymbolTableRecord
100
AcDbBlockTableRecord
  2
_OPEN
  0
BLOCK_RECORD
  5
19
100
AcDbSymbolTableRecord
100
AcDbBlockTableRecord
  2
_ORIGIN
  0
BLOCK_RECORD
  5
1E
100
AcDbSymbolTableRecord
100
AcDbBlockTableRecord
  2
_OPEN30
  0
BLOCK_RECORD
  5
24
100
AcDbSymbolTableRecord
100
AcDbBlockTableRecord
  2
_BOXFILLED
  0
BLOCK_RECORD
  5
29
100
AcDbSymbolTableRecord
100
AcDbBlockTableRecord
  2
_BOXBLANK
  0
BLOCK_RECORD
  5
31
100
AcDbSymbolTableRecord
100
AcDbBlockTableRecord
  2
_OBLIQUE
  0
BLOCK_RECORD
  5
35
100
AcDbSymbolTableRecord
100
AcDbBlockTableRecord
  2
_OPEN90
  0
BLOCK_RECORD
  5
3B
100
AcDbSymbolTableRecord
100
AcDbBlockTableRecord
  2
_CLOSEDBLANK
  0
BLOCK_RECORD
  5
41
100
AcDbSymbolTableRecord
100
AcDbBlockTableRecord
  2
_DOTBLANK
  0
ENDTAB
  0
ENDSEC
  0
SECTION
  2
BLOCKS
  0
BLOCK
  5
141
100
AcDbEntity
  8
0
100
AcDbBlockBegin
  2
*MODEL_SPACE
 70
     0
 10
0.0
 20
0.0
 30
0.0
  3
*MODEL_SPACE
  1

  0
ENDBLK
  5
142
100
AcDbEntity
  8
0
100
AcDbBlockEnd
  0
BLOCK
  5
143
100
AcDbEntity
  8
0
100
AcDbBlockBegin
  2
*PAPER_SPACE
 70
     0
 10
0.0
 20
0.0
 30
0.0
  3
*PAPER_SPACE
  1

  0
ENDBLK
  5
144
100
AcDbEntity
  8
0
100
AcDbBlockEnd
  0
BLOCK
  5
145
100
AcDbEntity
  8
0
100
AcDbBlockBegin
  2
*PAPER_SPACE0
 70
     0
 10
0.0
 20
0.0
 30
0.0
  3
*PAPER_SPACE0
  1

  0
ENDBLK
  5
146
100
AcDbEntity
  8
0
100
AcDbBlockEnd
  0
BLOCK
  5
2
330
1
100
AcDbEntity
  8
0
100
AcDbBlockBegin
  2
_NONE
 70
     0
 10
0.0
 20
0.0
 30
0.0
  3
_NONE
  1

  0
ENDBLK
  5
3
330
1
100
AcDbEntity
  8
0
100
AcDbBlockEnd
  0
BLOCK
  5
5
330
4
100
AcDbEntity
  8
0
100
AcDbBlockBegin
  2
_CLOSED
 70
     0
 10
0.0
 20
0.0
 30
0.0
  3
_CLOSED
  1

  0
LINE
  5
6
330
4
100
AcDbEntity
  8
0
  6
BYBLOCK
 62
     0
370
    -2
100
AcDbLine
 10
-1.0
 20
0.166667
 30
0.0
 11
0.0
 21
0.0
 31
0.0
  0
LINE
  5
7
330
4
100
AcDbEntity
  8
0
  6
BYBLOCK
 62
     0
370
    -2
100
AcDbLine
 10
0.0
 20
0.0
 30
0.0
 11
-1.0
 21
-0.166667
 31
0.0
  0
LINE
  5
8
330
4
100
AcDbEntity
  8
0
  6
BYBLOCK
 62
     0
370
    -2
100
AcDbLine
 10
-1.0
 20
0.166667
 30
0.0
 11
-1.0
 21
-0.166667
 31
0.0
  0
LINE
  5
9
330
4
100
AcDbEntity
  8
0
  6
BYBLOCK
 62
     0
370
    -2
100
AcDbLine
 10
0.0
 20
0.0
 30
0.0
 11
-1.0
 21
0.0
 31
0.0
  0
ENDBLK
  5
A
330
4
100
AcDbEntity
  8
0
100
AcDbBlockEnd
  0
BLOCK
  5
C
330
B
100
AcDbEntity
  8
0
100
AcDbBlockBegin
  2
_DOT
 70
     0
 10
0.0
 20
0.0
 30
0.0
  3
_DOT
  1

  0
POLYLINE
  5
D
330
B
100
AcDbEntity
  8
0
  6
BYBLOCK
 62
     0
370
    -2
100
AcDb2dPolyline
 66
     1
 10
0.0
 20
0.0
 30
0.0
 70
     1
 40
0.5
 41
0.5
  0
VERTEX
  5
E
330
B
100
AcDbEntity
  8
0
  6
BYBLOCK
 62
     0
370
    -2
100
AcDbVertex
100
AcDb2dVertex
 10
-0.25
 20
0.0
 30
0.0
 42
1.0
  0
VERTEX
  5
F
330
B
100
AcDbEntity
  8
0
  6
BYBLOCK
 62
     0
370
    -2
100
AcDbVertex
100
AcDb2dVertex
 10
0.25
 20
0.0
 30
0.0
 42
1.0
  0
SEQEND
  5
10
330
B
100
AcDbEntity
  8
0
  6
BYBLOCK
 62
     0
370
    -2
  0
LINE
  5
11
330
B
100
AcDbEntity
  8
0
  6
BYBLOCK
 62
     0
370
    -2
100
AcDbLine
 10
-0.5
 20
0.0
 30
0.0
 11
-1.0
 21
0.0
 31
0.0
  0
ENDBLK
  5
12
330
B
100
AcDbEntity
  8
0
100
AcDbBlockEnd
  0
BLOCK
  5
14
330
13
100
AcDbEntity
  8
0
100
AcDbBlockBegin
  2
_OPEN
 70
     0
 10
0.0
 20
0.0
 30
0.0
  3
_OPEN
  1

  0
LINE
  5
15
330
13
100
AcDbEntity
  8
0
  6
BYBLOCK
 62
     0
370
    -2
100
AcDbLine
 10
-1.0
 20
0.166667
 30
0.0
 11
0.0
 21
0.0
 31
0.0
  0
LINE
  5
16
330
13
100
AcDbEntity
  8
0
  6
BYBLOCK
 62
     0
370
    -2
100
AcDbLine
 10
0.0
 20
0.0
 30
0.0
 11
-1.0
 21
-0.166667
 31
0.0
  0
LINE
  5
17
330
13
100
AcDbEntity
  8
0
  6
BYBLOCK
 62
     0
370
    -2
100
AcDbLine
 10
0.0
 20
0.0
 30
0.0
 11
-1.0
 21
0.0
 31
0.0
  0
ENDBLK
  5
18
330
13
100
AcDbEntity
  8
0
100
AcDbBlockEnd
  0
BLOCK
  5
1A
330
19
100
AcDbEntity
  8
0
100
AcDbBlockBegin
  2
_ORIGIN
 70
     0
 10
0.0
 20
0.0
 30
0.0
  3
_ORIGIN
  1

  0
CIRCLE
  5
1B
330
19
100
AcDbEntity
  8
0
  6
BYBLOCK
 62
     0
370
    -2
100
AcDbCircle
 10
0.0
 20
0.0
 30
0.0
 40
0.5
  0
LINE
  5
1C
330
19
100
AcDbEntity
  8
0
  6
BYBLOCK
 62
     0
370
    -2
100
AcDbLine
 10
0.0
 20
0.0
 30
0.0
 11
-1.0
 21
0.0
 31
0.0
  0
ENDBLK
  5
1D
330
19
100
AcDbEntity
  8
0
100
AcDbBlockEnd
  0
BLOCK
  5
1F
330
1E
100
AcDbEntity
  8
0
100
AcDbBlockBegin
  2
_OPEN30
 70
     0
 10
0.0
 20
0.0
 30
0.0
  3
_OPEN30
  1

  0
LINE
  5
20
330
1E
100
AcDbEntity
  8
0
  6
BYBLOCK
 62
     0
370
    -2
100
AcDbLine
 10
-1.0
 20
0.267949
 30
0.0
 11
0.0
 21
0.0
 31
0.0
  0
LINE
  5
21
330
1E
100
AcDbEntity
  8
0
  6
BYBLOCK
 62
     0
370
    -2
100
AcDbLine
 10
0.0
 20
0.0
 30
0.0
 11
-1.0
 21
-0.267949
 31
0.0
  0
LINE
  5
22
330
1E
100
AcDbEntity
  8
0
  6
BYBLOCK
 62
     0
370
    -2
100
AcDbLine
 10
0.0
 20
0.0
 30
0.0
 11
-1.0
 21
0.0
 31
0.0
  0
ENDBLK
  5
23
330
1E
100
AcDbEntity
  8
0
100
AcDbBlockEnd
  0
BLOCK
  5
25
330
24
100
AcDbEntity
  8
0
100
AcDbBlockBegin
  2
_BOXFILLED
 70
     0
 10
0.0
 20
0.0
 30
0.0
  3
_BOXFILLED
  1

  0
SOLID
  5
26
330
24
100
AcDbEntity
  8
0
  6
BYBLOCK
 62
     0
370
    -2
100
AcDbTrace
 10
-0.5
 20
0.5
 30
0.0
 11
0.5
 21
0.5
 31
0.0
 12
-0.5
 22
-0.5
 32
0.0
 13
0.5
 23
-0.5
 33
0.0
  0
LINE
  5
27
330
24
100
AcDbEntity
  8
0
  6
BYBLOCK
 62
     0
370
    -2
100
AcDbLine
 10
-0.5
 20
0.0
 30
0.0
 11
-1.0
 21
0.0
 31
0.0
  0
ENDBLK
  5
28
330
24
100
AcDbEntity
  8
0
100
AcDbBlockEnd
  0
BLOCK
  5
2A
330
29
100
AcDbEntity
  8
0
100
AcDbBlockBegin
  2
_BOXBLANK
 70
     0
 10
0.0
 20
0.0
 30
0.0
  3
_BOXBLANK
  1

  0
LINE
  5
2B
330
29
100
AcDbEntity
  8
0
  6
BYBLOCK
 62
     0
370
    -2
100
AcDbLine
 10
-0.5
 20
-0.5
 30
0.0
 11
0.5
 21
-0.5
 31
0.0
  0
LINE
  5
2C
330
29
100
AcDbEntity
  8
0
  6
BYBLOCK
 62
     0
370
    -2
100
AcDbLine
 10
0.5
 20
-0.5
 30
0.0
 11
0.5
 21
0.5
 31
0.0
  0
LINE
  5
2D
330
29
100
AcDbEntity
  8
0
  6
BYBLOCK
 62
     0
370
    -2
100
AcDbLine
 10
0.5
 20
0.5
 30
0.0
 11
-0.5
 21
0.5
 31
0.0
  0
LINE
  5
2E
330
29
100
AcDbEntity
  8
0
  6
BYBLOCK
 62
     0
370
    -2
100
AcDbLine
 10
-0.5
 20
0.5
 30
0.0
 11
-0.5
 21
-0.5
 31
0.0
  0
LINE
  5
2F
330
29
100
AcDbEntity
  8
0
  6
BYBLOCK
 62
     0
370
    -2
100
AcDbLine
 10
-0.5
 20
0.0
 30
0.0
 11
-1.0
 21
0.0
 31
0.0
  0
ENDBLK
  5
30
330
29
100
AcDbEntity
  8
0
100
AcDbBlockEnd
  0
BLOCK
  5
32
330
31
100
AcDbEntity
  8
0
100
AcDbBlockBegin
  2
_OBLIQUE
 70
     0
 10
0.0
 20
0.0
 30
0.0
  3
_OBLIQUE
  1

  0
LINE
  5
33
330
31
100
AcDbEntity
  8
0
  6
BYBLOCK
 62
     0
370
    -2
100
AcDbLine
 10
-0.5
 20
-0.5
 30
0.0
 11
0.5
 21
0.5
 31
0.0
  0
ENDBLK
  5
34
330
31
100
AcDbEntity
  8
0
100
AcDbBlockEnd
  0
BLOCK
  5
36
330
35
100
AcDbEntity
  8
0
100
AcDbBlockBegin
  2
_OPEN90
 70
     0
 10
0.0
 20
0.0
 30
0.0
  3
_OPEN90
  1

  0
LINE
  5
37
330
35
100
AcDbEntity
  8
0
  6
BYBLOCK
 62
     0
370
    -2
100
AcDbLine
 10
-0.5
 20
0.5
 30
0.0
 11
0.0
 21
0.0
 31
0.0
  0
LINE
  5
38
330
35
100
AcDbEntity
  8
0
  6
BYBLOCK
 62
     0
370
    -2
100
AcDbLine
 10
0.0
 20
0.0
 30
0.0
 11
-0.5
 21
-0.5
 31
0.0
  0
LINE
  5
39
330
35
100
AcDbEntity
  8
0
  6
BYBLOCK
 62
     0
370
    -2
100
AcDbLine
 10
0.0
 20
0.0
 30
0.0
 11
-1.0
 21
0.0
 31
0.0
  0
ENDBLK
  5
3A
330
35
100
AcDbEntity
  8
0
100
AcDbBlockEnd
  0
BLOCK
  5
3C
330
3B
100
AcDbEntity
  8
0
100
AcDbBlockBegin
  2
_CLOSEDBLANK
 70
     0
 10
0.0
 20
0.0
 30
0.0
  3
_CLOSEDBLANK
  1

  0
LINE
  5
3D
330
3B
100
AcDbEntity
  8
0
  6
BYBLOCK
 62
     0
370
    -2
100
AcDbLine
 10
-1.0
 20
0.1666666666666666
 30
0.0
 11
0.0
 21
0.0
 31
0.0
  0
LINE
  5
3E
330
3B
100
AcDbEntity
  8
0
  6
BYBLOCK
 62
     0
370
    -2
100
AcDbLine
 10
0.0
 20
0.0
 30
0.0
 11
-1.0
 21
-0.1666666666666666
 31
0.0
  0
LINE
  5
3F
330
3B
100
AcDbEntity
  8
0
  6
BYBLOCK
 62
     0
370
    -2
100
AcDbLine
 10
-1.0
 20
0.1666666666666666
 30
0.0
 11
-1.0
 21
-0.1666666666666666
 31
0.0
  0
ENDBLK
  5
40
330
3B
100
AcDbEntity
  8
0
100
AcDbBlockEnd
  0
BLOCK
  5
42
330
41
100
AcDbEntity
  8
0
100
AcDbBlockBegin
  2
_DOTBLANK
 70
     0
 10
0.0
 20
0.0
 30
0.0
  3
_DOTBLANK
  1

  0
CIRCLE
  5
43
330
41
100
AcDbEntity
  8
0
  6
BYBLOCK
 62
     0
370
    -2
100
AcDbCircle
 10
0.0
 20
0.0
 30
0.0
 40
0.5
  0
LINE
  5
44
330
41
100
AcDbEntity
  8
0
  6
BYBLOCK
 62
     0
370
    -2
100
AcDbLine
 10
-0.5
 20
0.0
 30
0.0
 11
-1.0
 21
0.0
 31
0.0
  0
ENDBLK
  5
45
330
41
100
AcDbEntity
  8
0
100
AcDbBlockEnd
  0
ENDSEC
  0
SECTION
  2
ENTITIES
  0
MTEXT
  5
46
100
AcDbEntity
  8
A8
  6
CONTINUOUS
 62
7
100
AcDbMText
 10
9.999997526638502
 20
18.00000076076889
 30
0.0000000000000000
 40
3.000000000000000
 41
0.0000000000000000
 44
0.6739999771118164
 71
     7
 72
     1
  1
{\H0.94x;{TYPE No.THA-471-W-1.2}}
 11
1.000000000000000
 21
0.0000000000000000
 31
0.0000000000000000
  7
STANDARD
  0
ARC
  5
47
100
AcDbEntity
  8
A4
  6
CONTINUOUS
 62
7
100
AcDbCircle
 10
155.6999999999135
 20
90.39999999960150
 30
0.0000000000000000
 40
0.5000000000000000
100
AcDbArc
 50
0.0000000000000000
 51
90.00000000000000
  0
ARC
  5
48
100
AcDbEntity
  8
A4
  6
CONTINUOUS
 62
7
100
AcDbCircle
 10
64.29999999991357
 20
90.39999999960162
 30
0.0000000000000000
 40
0.5000000000000000
100
AcDbArc
 50
90.00000000000000
 51
180.0000000000001
  0
ARC
  5
49
100
AcDbEntity
  8
A4
  6
CONTINUOUS
 62
7
100
AcDbCircle
 10
163.9999999999999
 20
115.9999999992283
 30
0.0000000000000000
 40
6.000000000000000
100
AcDbArc
 50
0.0000000000000000
 51
90.00000000000000
  0
ARC
  5
4A
100
AcDbEntity
  8
A4
  6
CONTINUOUS
 62
7
100
AcDbCircle
 10
153.6999999999135
 20
61.39999999960156
 30
0.0000000000000000
 40
2.500000000000000
100
AcDbArc
 50
270.0000000000000
 51
360.0000000000000
  0
ARC
  5
4B
100
AcDbEntity
  8
A4
  6
CONTINUOUS
 62
7
100
AcDbCircle
 10
163.9999999999999
 20
55.99999999999994
 30
0.0000000000000000
 40
6.000000000000000
100
AcDbArc
 50
270.0000000000000
 51
360.0000000000000
  0
ARC
  5
4C
100
AcDbEntity
  8
A4
  6
CONTINUOUS
 62
7
100
AcDbCircle
 10
163.9999999999999
 20
55.99999999999994
 30
0.0000000000000000
 40
1.999999999999953
100
AcDbArc
 50
270.0000000000000
 51
360.0000000000000
  0
ARC
  5
4D
100
AcDbEntity
  8
A4
  6
CONTINUOUS
 62
7
100
AcDbCircle
 10
163.9999999999999
 20
115.9999999992283
 30
0.0000000000000000
 40
1.999999999999953
100
AcDbArc
 50
0.0000000000000000
 51
90.00000000000000
  0
ARC
  5
4E
100
AcDbEntity
  8
A4
  6
CONTINUOUS
 62
7
100
AcDbCircle
 10
55.99999999999999
 20
56.00000000000000
 30
0.0000000000000000
 40
6.000000000000000
100
AcDbArc
 50
180.0000000000000
 51
270.0000000000000
  0
ARC
  5
4F
100
AcDbEntity
  8
A4
  6
CONTINUOUS
 62
7
100
AcDbCircle
 10
55.99999999999999
 20
56.00000000000000
 30
0.0000000000000000
 40
1.999999999999953
100
AcDbArc
 50
180.0000000000000
 51
270.0000000000000
  0
ARC
  5
50
100
AcDbEntity
  8
A4
  6
CONTINUOUS
 62
7
100
AcDbCircle
 10
55.99999999999999
 20
115.9999999992283
 30
0.0000000000000000
 40
6.000000000000000
100
AcDbArc
 50
90.00000000000000
 51
180.0000000000000
  0
ARC
  5
51
100
AcDbEntity
  8
A4
  6
CONTINUOUS
 62
7
100
AcDbCircle
 10
55.99999999999999
 20
115.9999999992283
 30
0.0000000000000000
 40
1.999999999999953
100
AcDbArc
 50
90.00000000000000
 51
180.0000000000000
  0
ARC
  5
52
100
AcDbEntity
  8
A4
  6
CONTINUOUS
 62
7
100
AcDbCircle
 10
66.29999999991357
 20
61.39999999960162
 30
0.0000000000000000
 40
2.500000000000000
100
AcDbArc
 50
180.0000000000000
 51
270.0000000000000
  0
LINE
  5
53
100
AcDbEntity
  8
A4
  6
CONTINUOUS
 62
7
100
AcDbLine
 10
63.79999999991360
 20
90.39999999960162
 30
0.0000000000000000
 11
63.79999999991360
 21
61.39999999960161
 31
0.0000000000000000
  0
LINE
  5
54
100
AcDbEntity
  8
A4
  6
CONTINUOUS
 62
7
100
AcDbLine
 10
156.1999999999135
 20
61.39999999960161
 30
0.0000000000000000
 11
156.1999999999135
 21
90.39999999960160
 31
0.0000000000000000
  0
LINE
  5
55
100
AcDbEntity
  8
A4
  6
CONTINUOUS
 62
7
100
AcDbLine
 10
64.29999999991358
 20
90.89999999960162
 30
0.0000000000000000
 11
155.6999999999135
 21
90.89999999960160
 31
0.0000000000000000
  0
LINE
  5
56
100
AcDbEntity
  8
A4
  6
CONTINUOUS
 62
7
100
AcDbLine
 10
169.9999999999999
 20
115.9999999992284
 30
0.0000000000000000
 11
169.9999999999999
 21
55.99999999999999
 31
0.0000000000000000
  0
LINE
  5
57
100
AcDbEntity
  8
A4
  6
CONTINUOUS
 62
7
100
AcDbLine
 10
163.9999999999999
 20
49.99999999999999
 30
0.0000000000000000
 11
56.00000000000001
 21
50.00000000000000
 31
0.0000000000000000
  0
LINE
  5
58
100
AcDbEntity
  8
A4
  6
CONTINUOUS
 62
7
100
AcDbLine
 10
56.00000000000001
 20
54.00000000000000
 30
0.0000000000000000
 11
163.9999999999999
 21
53.99999999999999
 31
0.0000000000000000
  0
LINE
  5
59
100
AcDbEntity
  8
A4
  6
CONTINUOUS
 62
7
100
AcDbLine
 10
165.9999999999999
 20
55.99999999999994
 30
0.0000000000000000
 11
165.9999999999998
 21
115.9999999992284
 31
0.0000000000000000
  0
LINE
  5
5A
100
AcDbEntity
  8
A4
  6
CONTINUOUS
 62
7
100
AcDbLine
 10
163.9999999999999
 20
117.9999999992284
 30
0.0000000000000000
 11
55.99999999999996
 21
117.9999999992283
 31
0.0000000000000000
  0
LINE
  5
5B
100
AcDbEntity
  8
A4
  6
CONTINUOUS
 62
7
100
AcDbLine
 10
56.00000000000001
 20
121.9999999992284
 30
0.0000000000000000
 11
163.9999999999999
 21
121.9999999992284
 31
0.0000000000000000
  0
LINE
  5
5C
100
AcDbEntity
  8
A4
  6
CONTINUOUS
 62
7
100
AcDbLine
 10
50.00000000000001
 20
56.00000000000000
 30
0.0000000000000000
 11
50.00000000000001
 21
115.9999999992284
 31
0.0000000000000000
  0
LINE
  5
5D
100
AcDbEntity
  8
A4
  6
CONTINUOUS
 62
7
100
AcDbLine
 10
54.00000000000001
 20
115.9999999992284
 30
0.0000000000000000
 11
54.00000000000011
 21
55.99999999999997
 31
0.0000000000000000
  0
LINE
  5
5E
100
AcDbEntity
  8
A4
  6
CONTINUOUS
 62
7
100
AcDbLine
 10
66.29999999991358
 20
58.89999999960161
 30
0.0000000000000000
 11
153.6999999999135
 21
58.89999999960161
 31
0.0000000000000000
  0
LINE
  5
5F
100
AcDbEntity
  8
A4
  6
CENTER
 62
1
100
AcDbLine
 10
46.99999999999999
 20
85.99999999954080
 30
0.0000000000000000
 11
172.9999999999999
 21
85.99999999954075
 31
0.0000000000000000
  0
LINE
  5
60
100
AcDbEntity
  8
A4
  6
CENTER
 62
1
100
AcDbLine
 10
109.9999999999999
 20
46.99999999999995
 30
0.0000000000000000
 11
109.9999999999999
 21
124.9999999992283
 31
0.0000000000000000
  0
SPLINE
  5
61
100
AcDbEntity
  8
A10
  6
CONTINUOUS
 62
1
100
AcDbSpline
210
0.0000000000000000
220
0.0000000000000000
230
1.000000000000000
 70
     8
 71
     3
 72
    14
 73
    10
 74
     0
 42
1.000000000000000e-07
 43
1.000000000000000e-07
 12
-0.07591081213098505
 22
0.4614322213025162
 32
0.0000000000000000
 13
-0.1749519482623043
 23
0.5557977892825079
 33
0.0000000000000000
 40
0.0000000000000000
 40
0.0000000000000000
 40
0.0000000000000000
 40
0.0000000000000000
 40
0.9787225031288583
 40
1.783528369678147
 40
3.329212828823942
 40
4.141089277721550
 40
5.806138909442626
 40
7.148920635549446
 40
8.145569685654769
 40
8.145569685654769
 40
8.145569685654769
 40
8.145569685654769
 10
70.76605970221893
 20
114.8406428252259
 30
0.0000000000000000
 10
70.74129449553114
 20
114.9911808581117
 30
0.0000000000000000
 10
70.69616479986423
 20
115.2655066772374
 30
0.0000000000000000
 10
70.74766396576986
 20
115.9941208999070
 30
0.0000000000000000
 10
71.99822637682071
 20
115.2743076917887
 30
0.0000000000000000
 10
70.69562988222670
 20
115.6178764998181
 30
0.0000000000000000
 10
72.09112396597602
 20
114.7516063255561
 30
0.0000000000000000
 10
70.96061092394321
 20
114.2225808944469
 30
0.0000000000000000
 10
70.82418159990216
 20
114.6559977123129
 30
0.0000000000000000
 10
70.76605970221893
 20
114.8406428252259
 30
0.0000000000000000
  0
SPLINE
  5
62
100
AcDbEntity
  8
A10
  6
CONTINUOUS
 62
1
100
AcDbSpline
210
0.0000000000000000
220
0.0000000000000000
230
1.000000000000000
 70
     8
 71
     3
 72
    12
 73
     8
 74
     0
 42
1.000000000000000e-07
 43
1.000000000000000e-07
 12
-0.2166539913170880
 22
-0.6564007652682733
 32
0.0000000000000000
 13
0.4394867800377256
 23
-0.2048344752288358
 33
0.0000000000000000
 40
0.0000000000000000
 40
0.0000000000000000
 40
0.0000000000000000
 40
0.0000000000000000
 40
1.437811610078280
 40
2.395586377864828
 40
2.995162730171498
 40
4.609016324049298
 40
5.554425788836191
 40
5.554425788836191
 40
5.554425788836191
 40
5.554425788836191
 10
69.32453190958161
 20
115.3271908015116
 30
0.0000000000000000
 10
69.22069603488644
 20
115.0125972544559
 30
0.0000000000000000
 10
69.04769158478344
 20
114.4884423438903
 30
0.0000000000000000
 10
68.61356000356098
 20
114.9783966702149
 30
0.0000000000000000
 10
67.90880286604495
 20
114.8430504302177
 30
0.0000000000000000
 10
68.81111282877562
 20
115.5664833872416
 30
0.0000000000000000
 10
69.18603358908281
 20
115.3917416187102
 30
0.0000000000000000
 10
69.32453190958161
 20
115.3271908015116
 30
0.0000000000000000
  0
SPLINE
  5
63
100
AcDbEntity
  8
A10
  6
CONTINUOUS
 62
1
100
AcDbSpline
210
0.0000000000000000
220
0.0000000000000000
230
1.000000000000000
 70
     8
 71
     3
 72
    14
 73
    10
 74
     0
 42
1.000000000000000e-07
 43
1.000000000000000e-07
 12
-0.1494323208519290
 22
0.5030211482595632
 32
0.0000000000000000
 13
-0.1273368194590034
 23
0.5944567789092616
 33
0.0000000000000000
 40
0.0000000000000000
 40
0.0000000000000000
 40
0.0000000000000000
 40
0.0000000000000000
 40
0.5571443088701327
 40
1.036440542161265
 40
1.455887361762801
 40
2.267763494741168
 40
3.187944610203516
 40
4.155960148063572
 40
4.606326675375718
 40
4.606326675375718
 40
4.606326675375718
 40
4.606326675375718
 10
70.59096703997746
 20
113.7926930522976
 30
0.0000000000000000
 10
70.56321525093615
 20
113.8861115089624
 30
0.0000000000000000
 10
70.51158934572284
 20
114.0598953461692
 30
0.0000000000000000
 10
70.69823708326756
 20
114.2879825120154
 30
0.0000000000000000
 10
70.34868040360693
 20
114.5850120700783
 30
0.0000000000000000
 10
70.99727949853043
 20
114.3109501040768
 30
0.0000000000000000
 10
71.17823573761389
 20
113.9096958461965
 30
0.0000000000000000
 10
70.67028720735568
 20
113.4223962960043
 30
0.0000000000000000
 10
70.61008312037036
 20
113.7034519072461
 30
0.0000000000000000
 10
70.59096703997746
 20
113.7926930522976
 30
0.0000000000000000
  0
SPLINE
  5
64
100
AcDbEntity
  8
A10
  6
CONTINUOUS
 62
1
100
AcDbSpline
210
0.0000000000000000
220
0.0000000000000000
230
1.000000000000000
 70
     8
 71
     3
 72
    15
 73
    11
 74
     0
 42
1.000000000000000e-07
 43
1.000000000000000e-07
 12
-0.6893704521356483
 22
0.2865688758712963
 32
0.0000000000000000
 13
-0.5464919106649404
 23
-0.1764191847485108
 33
0.0000000000000000
 40
0.0000000000000000
 40
0.0000000000000000
 40
0.0000000000000000
 40
0.0000000000000000
 40
1.547278782900274
 40
3.072307287326454
 40
4.123673921230293
 40
5.195413438639240
 40
7.459754900589280
 40
8.234334857603814
 40
9.512468443045469
 40
9.879480059204450
 40
9.879480059204450
 40
9.879480059204450
 40
9.879480059204450
 10
67.59371441790934
 20
112.7892555088020
 30
0.0000000000000000
 10
67.23816499319339
 20
112.9370561559604
 30
0.0000000000000000
 10
66.53217903860566
 20
113.2305320378472
 30
0.0000000000000000
 10
67.62452839210330
 20
113.2189746191989
 30
0.0000000000000000
 10
68.20130902381545
 20
113.6857892024556
 30
0.0000000000000000
 10
68.46977108483800
 20
112.8327483377425
 30
0.0000000000000000
 10
68.42752385068793
 20
111.6056724894999
 30
0.0000000000000000
 10
67.78277362500178
 20
112.2424404880119
 30
0.0000000000000000
 10
67.96025689254130
 20
112.9075831972604
 30
0.0000000000000000
 10
67.66057071102632
 20
112.8108381388407
 30
0.0000000000000000
 10
67.59371441790934
 20
112.7892555088020
 30
0.0000000000000000
  0
SPLINE
  5
65
100
AcDbEntity
  8
A10
  6
CONTINUOUS
 62
1
100
AcDbSpline
210
0.0000000000000000
220
0.0000000000000000
230
1.000000000000000
 70
     8
 71
     3
 72
    15
 73
    11
 74
     0
 42
1.000000000000000e-07
 43
1.000000000000000e-07
 12
-0.3011790336508966
 22
0.6485493129913493
 32
0.0000000000000000
 13
-0.3038075720808422
 23
0.5973233005659040
 33
0.0000000000000000
 40
0.0000000000000000
 40
0.0000000000000000
 40
0.0000000000000000
 40
0.0000000000000000
 40
1.401341084807380
 40
3.256802983785870
 40
5.186399225547176
 40
7.287638078970287
 40
8.639071352665045
 40
9.883893069359308
 40
11.24301593038800
 40
12.33382516141846
 40
12.33382516141846
 40
12.33382516141846
 40
12.33382516141846
 10
67.52634612236007
 20
111.2248168025325
 30
0.0000000000000000
 10
67.38566127111422
 20
111.5277630684720
 30
0.0000000000000000
 10
67.05870101263152
 20
112.2318288476994
 30
0.0000000000000000
 10
68.30113311014061
 20
111.2659726823084
 30
0.0000000000000000
 10
69.22029134125553
 20
112.6237268305012
 30
0.0000000000000000
 10
69.24423620729688
 20
111.1786390113352
 30
0.0000000000000000
 10
68.27673763394405
 20
110.2766171887919
 30
0.0000000000000000
 10
68.58522431379500
 20
111.7228824930519
 30
0.0000000000000000
 10
67.88491413060508
 20
110.5198277046799
 30
0.0000000000000000
 10
67.63681149038764
 20
111.0076282124769
 30
0.0000000000000000
 10
67.52634612236007
 20
111.2248168025325
 30
0.0000000000000000
  0
SPLINE
  5
66
100
AcDbEntity
  8
A10
  6
CONTINUOUS
 62
1
100
AcDbSpline
210
0.0000000000000000
220
0.0000000000000000
230
1.000000000000000
 70
     8
 71
     3
 72
    15
 73
    11
 74
     0
 42
1.000000000000000e-07
 43
1.000000000000000e-07
 12
0.2508042990936872
 22
0.4057242501363589
 32
0.0000000000000000
 13
0.5507795595941047
 23
0.3631257408388251
 33
0.0000000000000000
 40
0.0000000000000000
 40
0.0000000000000000
 40
0.0000000000000000
 40
0.0000000000000000
 40
1.212996784253355
 40
2.274967410824405
 40
3.790635971675303
 40
4.460146340469033
 40
5.269811747789930
 40
7.190268604786363
 40
8.393898480074260
 40
9.055664412636933
 40
9.055664412636933
 40
9.055664412636933
 40
9.055664412636933
 10
69.92599938904102
 20
109.6678630499834
 30
0.0000000000000000
 10
70.02740765846688
 20
109.8319104535531
 30
0.0000000000000000
 10
70.21759819411120
 20
110.1395802691669
 30
0.0000000000000000
 10
70.19920476050704
 20
111.0142858849545
 30
0.0000000000000000
 10
71.41713548128571
 20
110.3254114591580
 30
0.0000000000000000
 10
70.45908605924747
 20
110.1407817656561
 30
0.0000000000000000
 10
71.62147345351953
 20
109.9871645616994
 30
0.0000000000000000
 10
70.41988145903208
 20
109.5197346781290
 30
0.0000000000000000
 10
69.46202971223848
 20
109.3619705569144
 30
0.0000000000000000
 10
69.80450367274393
 20
109.5877616351422
 30
0.0000000000000000
 10
69.92599938904102
 20
109.6678630499834
 30
0.0000000000000000
  0
SPLINE
  5
67
100
AcDbEntity
  8
A10
  6
CONTINUOUS
 62
1
100
AcDbSpline
210
0.0000000000000000
220
0.0000000000000000
230
1.000000000000000
 70
     8
 71
     3
 72
    14
 73
    10
 74
     0
 42
1.000000000000000e-07
 43
1.000000000000000e-07
 12
-0.2342045331462259
 22
-0.4006469908046029
 32
0.0000000000000000
 13
-0.6999520235848422
 23
-0.1023363618781445
 33
0.0000000000000000
 40
0.0000000000000000
 40
0.0000000000000000
 40
0.0000000000000000
 40
0.0000000000000000
 40
0.7900502899259934
 40
1.720163378593611
 40
2.113126752931555
 40
2.861811788597586
 40
3.671477037526894
 40
4.714066134324685
 40
5.522484538741952
 40
5.522484538741952
 40
5.522484538741952
 40
5.522484538741952
 10
69.65652620684382
 20
111.3595531080875
 30
0.0000000000000000
 10
69.59484842040577
 20
111.2540426843398
 30
0.0000000000000000
 10
69.46055840006632
 20
111.0243165905645
 30
0.0000000000000000
 10
69.32695205198748
 20
110.5366544252051
 30
0.0000000000000000
 10
69.68374121596214
 20
110.4734764772481
 30
0.0000000000000000
 10
70.18698849459209
 20
110.4059297050417
 30
0.0000000000000000
 10
69.67967978495945
 20
110.9175947372201
 30
0.0000000000000000
 10
70.27701638825074
 20
111.4502717653763
 30
0.0000000000000000
 10
69.84514423953551
 20
111.3871299742153
 30
0.0000000000000000
 10
69.65652620684382
 20
111.3595531080875
 30
0.0000000000000000
  0
SPLINE
  5
68
100
AcDbEntity
  8
A10
  6
CONTINUOUS
 62
1
100
AcDbSpline
210
0.0000000000000000
220
0.0000000000000000
230
1.000000000000000
 70
     8
 71
     3
 72
    13
 73
     9
 74
     0
 42
1.000000000000000e-07
 43
1.000000000000000e-07
 12
0.03331976716626173
 22
0.5691097191178187
 32
0.0000000000000000
 13
-0.3237396280936764
 23
0.2902369608999606
 33
0.0000000000000000
 40
0.0000000000000000
 40
0.0000000000000000
 40
0.0000000000000000
 40
0.0000000000000000
 40
0.8246127393565452
 40
1.962780125931454
 40
3.450916906357687
 40
4.395971081732740
 40
6.225340313061069
 40
7.315224388033089
 40
7.315224388033089
 40
7.315224388033089
 40
7.315224388033089
 10
69.38705359573380
 20
112.5272681369559
 30
0.0000000000000000
 10
69.39621223055970
 20
112.6836998451146
 30
0.0000000000000000
 10
69.41801202282473
 20
113.0560455938342
 30
0.0000000000000000
 10
70.30108264093595
 20
112.9878063097317
 30
0.0000000000000000
 10
70.17736669831011
 20
112.2966391640331
 30
0.0000000000000000
 10
71.00891659079203
 20
111.6417946521253
 30
0.0000000000000000
 10
69.81969247733055
 20
112.1394015204989
 30
0.0000000000000000
 10
69.50466648409936
 20
112.4218265897381
 30
0.0000000000000000
 10
69.38705359573380
 20
112.5272681369559
 30
0.0000000000000000
  0
ARC
  5
69
100
AcDbEntity
  8
A5
  6
CONTINUOUS
 62
7
100
AcDbCircle
 10
59.69999999989724
 20
175.5154245707901
 30
0.0000000000000000
 40
1.000000000000000
100
AcDbArc
 50
161.9822980021610
 51
270.0000000000000
  0
ARC
  5
6A
100
AcDbEntity
  8
A5
  6
CONTINUOUS
 62
7
100
AcDbCircle
 10
58.59999999974085
 20
181.8325101677445
 30
0.0000000000000000
 40
2.000000000000000
100
AcDbArc
 50
341.9822980021605
 51
360.0000000000071
  0
ARC
  5
6B
100
AcDbEntity
  8
A5
  6
CONTINUOUS
 62
7
100
AcDbCircle
 10
160.3000000002378
 20
175.5154245707901
 30
0.0000000000000000
 40
1.000000000000000
100
AcDbArc
 50
270.0000000000000
 51
378.0177019978372
  0
ARC
  5
6C
100
AcDbEntity
  8
A5
  6
CONTINUOUS
 62
7
100
AcDbCircle
 10
161.4000000003943
 20
181.8325101677445
 30
0.0000000000000000
 40
2.000000000000000
100
AcDbArc
 50
179.9999999999928
 51
198.0177019978394
  0
ARC
  5
6D
100
AcDbEntity
  8
A5
  6
CONTINUOUS
 62
7
100
AcDbCircle
 10
80.50000000055516
 20
188.4154245707901
 30
0.0000000000000000
 40
0.5000000000000001
100
AcDbArc
 50
9.297397444854153e-11
 51
90.00000000000000
  0
ARC
  5
6E
100
AcDbEntity
  8
A5
  6
CONTINUOUS
 62
7
100
AcDbCircle
 10
134.5000000001514
 20
188.4154245707901
 30
0.0000000000000000
 40
0.5000000000000001
100
AcDbArc
 50
9.297397444854153e-11
 51
90.00000000000000
  0
ARC
  5
6F
100
AcDbEntity
  8
A5
  6
CONTINUOUS
 62
7
100
AcDbCircle
 10
85.49999999998371
 20
188.4154245707901
 30
0.0000000000000000
 40
0.5000000000000001
100
AcDbArc
 50
90.00000000000000
 51
179.9999999999070
  0
ARC
  5
70
100
AcDbEntity
  8
A5
  6
CONTINUOUS
 62
7
100
AcDbCircle
 10
139.4999999995799
 20
188.4154245707901
 30
0.0000000000000000
 40
0.5000000000000001
100
AcDbArc
 50
90.00000000000000
 51
179.9999999999070
  0
ARC
  5
71
100
AcDbEntity
  8
A5
  6
CONTINUOUS
 62
7
100
AcDbCircle
 10
54.07082039331763
 20
168.2154245708267
 30
0.0000000000000000
 40
0.3000000000000000
100
AcDbArc
 50
243.4349488229119
 51
269.9999999999892
  0
ARC
  5
72
100
AcDbEntity
  8
A5
  6
CONTINUOUS
 62
7
100
AcDbCircle
 10
165.9291796068175
 20
168.2154245708267
 30
0.0000000000000000
 40
0.3000000000000000
100
AcDbArc
 50
270.0000000000000
 51
296.5650511770781
  0
ARC
  5
73
100
AcDbEntity
  8
A5
  6
CONTINUOUS
 62
7
100
AcDbCircle
 10
50.30000000006766
 20
170.1008347674517
 30
0.0000000000000000
 40
0.3000000000000000
100
AcDbArc
 50
179.9999999999962
 51
243.4349488229207
  0
ARC
  5
74
100
AcDbEntity
  8
A5
  6
CONTINUOUS
 62
7
100
AcDbCircle
 10
169.7000000000675
 20
170.1008347674517
 30
0.0000000000000000
 40
0.3000000000000000
100
AcDbArc
 50
296.5650511770791
 51
360.0000000000000
  0
LINE
  5
75
100
AcDbEntity
  8
A5
  6
CONTINUOUS
 62
7
100
AcDbLine
 10
60.59999999974175
 20
174.5154245707901
 30
0.0000000000000000
 11
60.59999999974185
 21
173.7154245707901
 31
0.0000000000000000
  0
LINE
  5
76
100
AcDbEntity
  8
A5
  6
CONTINUOUS
 62
7
100
AcDbLine
 10
60.71396405192215
 20
173.7154245707930
 30
0.0000000000000000
 11
60.59999999974188
 21
173.7154245707900
 31
0.0000000000000000
  0
LINE
  5
77
100
AcDbEntity
  8
A5
  6
CONTINUOUS
 62
7
100
AcDbLine
 10
60.50192199491536
 20
181.2138885351843
 30
0.0000000000000000
 11
58.74903900230994
 21
175.8247353870702
 31
0.0000000000000000
  0
LINE
  5
78
100
AcDbEntity
  8
A5
  6
CONTINUOUS
 62
7
100
AcDbLine
 10
60.59999999974169
 20
174.5154245707901
 30
0.0000000000000000
 11
59.69999999989724
 21
174.5154245707901
 31
0.0000000000000000
  0
LINE
  5
79
100
AcDbEntity
  8
A5
  6
CONTINUOUS
 62
7
100
AcDbLine
 10
159.2860359482457
 20
173.7154245707931
 30
0.0000000000000000
 11
159.4000000003932
 21
173.7154245707901
 31
0.0000000000000000
  0
LINE
  5
7A
100
AcDbEntity
  8
A5
  6
CONTINUOUS
 62
7
100
AcDbLine
 10
161.2509609978252
 20
175.8247353870702
 30
0.0000000000000000
 11
159.4980780052198
 21
181.2138885351844
 31
0.0000000000000000
  0
LINE
  5
7B
100
AcDbEntity
  8
A5
  6
CONTINUOUS
 62
7
100
AcDbLine
 10
159.4000000003932
 20
173.7154245707901
 30
0.0000000000000000
 11
159.4000000003933
 21
174.5154245707901
 31
0.0000000000000000
  0
LINE
  5
7C
100
AcDbEntity
  8
A5
  6
CONTINUOUS
 62
7
100
AcDbLine
 10
159.4000000003933
 20
174.5154245707901
 30
0.0000000000000000
 11
160.3000000002378
 21
174.5154245707901
 31
0.0000000000000000
  0
LINE
  5
7D
100
AcDbEntity
  8
A5
  6
CONTINUOUS
 62
7
100
AcDbLine
 10
60.59999999974067
 20
183.9154245707902
 30
0.0000000000000000
 11
60.89200571419061
 21
183.9154245707902
 31
0.0000000000000000
  0
LINE
  5
7E
100
AcDbEntity
  8
A5
  6
CONTINUOUS
 62
7
100
AcDbLine
 10
60.94437090897602
 20
186.9154245708254
 30
0.0000000000000000
 11
60.59999999974021
 21
186.9154245708254
 31
0.0000000000000000
  0
LINE
  5
7F
100
AcDbEntity
  8
A5
  6
CONTINUOUS
 62
7
100
AcDbLine
 10
159.4000000003946
 20
183.9154245707902
 30
0.0000000000000000
 11
159.1079942859443
 21
183.9154245707896
 31
0.0000000000000000
  0
LINE
  5
80
100
AcDbEntity
  8
A5
  6
CONTINUOUS
 62
7
100
AcDbLine
 10
159.0556290911590
 20
186.9154245708254
 30
0.0000000000000000
 11
159.4000000003949
 21
186.9154245708254
 31
0.0000000000000000
  0
LINE
  5
81
100
AcDbEntity
  8
A5
  6
CONTINUOUS
 62
7
100
AcDbLine
 10
60.69999999998112
 20
172.9154245708844
 30
0.0000000000000000
 11
60.97928103883201
 21
188.9154245707901
 31
0.0000000000000000
  0
LINE
  5
82
100
AcDbEntity
  8
A5
  6
CONTINUOUS
 62
7
100
AcDbLine
 10
92.89999999998344
 20
180.9154245707898
 30
0.0000000000000000
 11
103.0999999999804
 21
180.9154245707902
 31
0.0000000000000000
  0
LINE
  5
83
100
AcDbEntity
  8
A5
  6
CONTINUOUS
 62
7
100
AcDbLine
 10
92.89999999998372
 20
184.9154245707901
 30
0.0000000000000000
 11
92.89999999998342
 21
180.9154245707898
 31
0.0000000000000000
  0
LINE
  5
84
100
AcDbEntity
  8
A5
  6
CONTINUOUS
 62
7
100
AcDbLine
 10
103.1000000002677
 20
184.9154245707894
 30
0.0000000000000000
 11
92.89999999998373
 21
184.9154245707902
 31
0.0000000000000000
  0
LINE
  5
85
100
AcDbEntity
  8
A5
  6
CONTINUOUS
 62
7
100
AcDbLine
 10
103.0999999999804
 20
180.9154245707902
 30
0.0000000000000000
 11
103.1000000002676
 21
184.9154245707893
 31
0.0000000000000000
  0
LINE
  5
86
100
AcDbEntity
  8
A5
  6
CONTINUOUS
 62
7
100
AcDbLine
 10
116.8999999992726
 20
180.9154245708008
 30
0.0000000000000000
 11
127.0999999995715
 21
180.9154245708170
 31
0.0000000000000000
  0
LINE
  5
87
100
AcDbEntity
  8
A5
  6
CONTINUOUS
 62
7
100
AcDbLine
 10
116.8999999995390
 20
184.9154245708010
 30
0.0000000000000000
 11
116.8999999992726
 21
180.9154245708008
 31
0.0000000000000000
  0
LINE
  5
88
100
AcDbEntity
  8
A5
  6
CONTINUOUS
 62
7
100
AcDbLine
 10
127.0999999995649
 20
184.9154245708165
 30
0.0000000000000000
 11
116.8999999995390
 21
184.9154245708011
 31
0.0000000000000000
  0
LINE
  5
89
100
AcDbEntity
  8
A5
  6
CONTINUOUS
 62
7
100
AcDbLine
 10
127.0999999995714
 20
180.9154245708170
 30
0.0000000000000000
 11
127.0999999995648
 21
184.9154245708165
 31
0.0000000000000000
  0
LINE
  5
8A
100
AcDbEntity
  8
A5
  6
CONTINUOUS
 62
7
100
AcDbLine
 10
85.49999999998370
 20
188.9154245707902
 30
0.0000000000000000
 11
134.5000000001513
 21
188.9154245707902
 31
0.0000000000000000
  0
LINE
  5
8B
100
AcDbEntity
  8
A5
  6
CONTINUOUS
 62
7
100
AcDbLine
 10
159.0207189613032
 20
188.9154245707901
 30
0.0000000000000000
 11
159.3000000001538
 21
172.9154245708843
 31
0.0000000000000000
  0
LINE
  5
8C
100
AcDbEntity
  8
A5
  6
CONTINUOUS
 62
7
100
AcDbLine
 10
148.5000000000674
 20
174.3154245708267
 30
0.0000000000000000
 11
148.5000000000666
 21
172.9154245708267
 31
0.0000000000000000
  0
LINE
  5
8D
100
AcDbEntity
  8
A5
  6
CONTINUOUS
 62
7
100
AcDbLine
 10
79.50000000006749
 20
174.3154245708267
 30
0.0000000000000000
 11
79.50000000006749
 21
172.9154245708254
 31
0.0000000000000000
  0
LINE
  5
8E
100
AcDbEntity
  8
A5
  6
CONTINUOUS
 62
7
100
AcDbLine
 10
71.50000000006848
 20
172.9154245708267
 30
0.0000000000000000
 11
71.50000000006769
 21
174.3154245708266
 31
0.0000000000000000
  0
LINE
  5
8F
100
AcDbEntity
  8
A5
  6
CONTINUOUS
 62
7
100
AcDbLine
 10
110.7500000000783
 20
172.9154245708268
 30
0.0000000000000000
 11
110.7500000000676
 21
174.3154245708267
 31
0.0000000000000000
  0
LINE
  5
90
100
AcDbEntity
  8
A5
  6
CONTINUOUS
 62
7
100
AcDbLine
 10
109.2500000000675
 20
174.3154245708267
 30
0.0000000000000000
 11
109.2500000000675
 21
172.9154245708254
 31
0.0000000000000000
  0
LINE
  5
91
100
AcDbEntity
  8
A5
  6
CONTINUOUS
 62
7
100
AcDbLine
 10
140.5000000000568
 20
172.9154245708267
 30
0.0000000000000000
 11
140.5000000000675
 21
174.3154245708267
 31
0.0000000000000000
  0
LINE
  5
92
100
AcDbEntity
  8
A5
  6
CONTINUOUS
 62
7
100
AcDbLine
 10
133.5000000000675
 20
174.3154245708266
 30
0.0000000000000000
 11
133.5000000000803
 21
172.9154245708266
 31
0.0000000000000000
  0
LINE
  5
93
100
AcDbEntity
  8
A5
  6
CONTINUOUS
 62
7
100
AcDbLine
 10
86.50000000005478
 20
172.9154245708267
 30
0.0000000000000000
 11
86.50000000006752
 21
174.3154245708267
 31
0.0000000000000000
  0
LINE
  5
94
100
AcDbEntity
  8
A5
  6
CONTINUOUS
 62
7
100
AcDbLine
 10
152.0000000000675
 20
174.7154245708529
 30
0.0000000000000000
 11
152.0000000000675
 21
172.9154245708254
 31
0.0000000000000000
  0
LINE
  5
95
100
AcDbEntity
  8
A5
  6
CONTINUOUS
 62
7
100
AcDbLine
 10
152.0000000000675
 20
174.7154245708529
 30
0.0000000000000000
 11
153.5000000000675
 21
174.7154245708529
 31
0.0000000000000000
  0
LINE
  5
96
100
AcDbEntity
  8
A5
  6
CONTINUOUS
 62
7
100
AcDbLine
 10
153.5000000000675
 20
174.7154245708529
 30
0.0000000000000000
 11
153.5000000000675
 21
172.9154245708254
 31
0.0000000000000000
  0
LINE
  5
97
100
AcDbEntity
  8
A5
  6
CONTINUOUS
 62
7
100
AcDbLine
 10
68.00000000006760
 20
174.7154245708529
 30
0.0000000000000000
 11
68.00000000006760
 21
172.9154245708254
 31
0.0000000000000000
  0
LINE
  5
98
100
AcDbEntity
  8
A5
  6
CONTINUOUS
 62
7
100
AcDbLine
 10
68.00000000006760
 20
174.7154245708529
 30
0.0000000000000000
 11
66.50000000006760
 21
174.7154245708529
 31
0.0000000000000000
  0
LINE
  5
99
100
AcDbEntity
  8
A5
  6
CONTINUOUS
 62
7
100
AcDbLine
 10
66.50000000006760
 20
174.7154245708529
 30
0.0000000000000000
 11
66.50000000006760
 21
172.9154245708254
 31
0.0000000000000000
  0
LINE
  5
9A
100
AcDbEntity
  8
A5
  6
CONTINUOUS
 62
7
100
AcDbLine
 10
140.5000000000675
 20
176.3154245708270
 30
0.0000000000000000
 11
148.5000000000674
 21
176.3154245708270
 31
0.0000000000000000
  0
LINE
  5
9B
100
AcDbEntity
  8
A5
  6
CONTINUOUS
 62
7
100
AcDbLine
 10
135.0000000000675
 20
174.3154245708264
 30
0.0000000000000000
 11
85.00000000006749
 21
174.3154245708264
 31
0.0000000000000000
  0
LINE
  5
9C
100
AcDbEntity
  8
A5
  6
CONTINUOUS
 62
7
100
AcDbLine
 10
71.50000000006766
 20
176.3154245708270
 30
0.0000000000000000
 11
79.50000000006754
 21
176.3154245708270
 31
0.0000000000000000
  0
LINE
  5
9D
100
AcDbEntity
  8
A5
  6
CONTINUOUS
 62
7
100
AcDbLine
 10
110.7500000000675
 20
176.3154245708270
 30
0.0000000000000000
 11
133.5000000000675
 21
176.3154245708270
 31
0.0000000000000000
  0
LINE
  5
9E
100
AcDbEntity
  8
A5
  6
CONTINUOUS
 62
7
100
AcDbLine
 10
86.50000000006754
 20
176.3154245708270
 30
0.0000000000000000
 11
109.2500000000675
 21
176.3154245708270
 31
0.0000000000000000
  0
LINE
  5
9F
100
AcDbEntity
  8
A5
  6
CONTINUOUS
 62
7
100
AcDbLine
 10
150.0000000000675
 20
174.3154245708264
 30
0.0000000000000000
 11
139.0000000000675
 21
174.3154245708264
 31
0.0000000000000000
  0
LINE
  5
A0
100
AcDbEntity
  8
A5
  6
CONTINUOUS
 62
7
100
AcDbLine
 10
81.00000000006749
 20
174.3154245708264
 30
0.0000000000000000
 11
70.00000000006749
 21
174.3154245708264
 31
0.0000000000000000
  0
LINE
  5
A1
100
AcDbEntity
  8
A5
  6
CONTINUOUS
 62
7
100
AcDbLine
 10
169.8341640787175
 20
169.8325066101517
 30
0.0000000000000000
 11
166.0633436854675
 21
167.9470964135267
 31
0.0000000000000000
  0
LINE
  5
A2
100
AcDbEntity
  8
A5
  6
CONTINUOUS
 62
7
100
AcDbLine
 10
50.16583592141767
 20
169.8325066101517
 30
0.0000000000000000
 11
53.93665631466766
 21
167.9470964135267
 31
0.0000000000000000
  0
LINE
  5
A3
100
AcDbEntity
  8
A5
  6
CONTINUOUS
 62
7
100
AcDbLine
 10
170.0000000000675
 20
172.9154245708254
 30
0.0000000000000000
 11
170.0000000000675
 21
170.1008347674517
 31
0.0000000000000000
  0
LINE
  5
A4
100
AcDbEntity
  8
A5
  6
CONTINUOUS
 62
7
100
AcDbLine
 10
50.00000000006764
 20
170.1008347674517
 30
0.0000000000000000
 11
50.00000000006764
 21
172.9154245708254
 31
0.0000000000000000
  0
ARC
  5
A5
100
AcDbEntity
  8
A5
  6
CONTINUOUS
 62
7
100
AcDbCircle
 10
66.19999999998137
 20
192.4154245708374
 30
0.0000000000000000
 40
4.000000000000000
100
AcDbArc
 50
90.00000000000000
 51
180.0000000000000
  0
ARC
  5
A6
100
AcDbEntity
  8
A5
  6
CONTINUOUS
 62
7
100
AcDbCircle
 10
153.7999999999813
 20
192.4154245708375
 30
0.0000000000000000
 40
4.000000000000000
100
AcDbArc
 50
0.0000000000000000
 51
90.00000000000000
  0
LINE
  5
A7
100
AcDbEntity
  8
A5
  6
CONTINUOUS
 62
7
100
AcDbLine
 10
62.19999999998137
 20
188.9154245707903
 30
0.0000000000000000
 11
62.19999999998137
 21
192.4154245708375
 31
0.0000000000000000
  0
LINE
  5
A8
100
AcDbEntity
  8
A5
  6
CONTINUOUS
 62
7
100
AcDbLine
 10
66.19999999998136
 20
196.4154245708375
 30
0.0000000000000000
 11
153.7999999999813
 21
196.4154245708375
 31
0.0000000000000000
  0
LINE
  5
A9
100
AcDbEntity
  8
A5
  6
CONTINUOUS
 62
7
100
AcDbLine
 10
157.7999999999813
 20
192.4154245708375
 30
0.0000000000000000
 11
157.7999999999813
 21
188.9154245707903
 31
0.0000000000000000
  0
LINE
  5
AA
100
AcDbEntity
  8
A5
  6
CONTINUOUS
 62
7
100
AcDbLine
 10
102.9999999998948
 20
181.9154245701975
 30
0.0000000000000000
 11
92.99999999989480
 21
181.9154245701975
 31
0.0000000000000000
  0
LINE
  5
AB
100
AcDbEntity
  8
A5
  6
CONTINUOUS
 62
7
100
AcDbLine
 10
102.9999999998948
 20
183.9154245708375
 30
0.0000000000000000
 11
92.99999999989480
 21
183.9154245708375
 31
0.0000000000000000
  0
LINE
  5
AC
100
AcDbEntity
  8
A5
  6
CONTINUOUS
 62
7
100
AcDbLine
 10
117.0000000000678
 20
181.9154245701975
 30
0.0000000000000000
 11
127.0000000000678
 21
181.9154245701975
 31
0.0000000000000000
  0
LINE
  5
AD
100
AcDbEntity
  8
A5
  6
CONTINUOUS
 62
7
100
AcDbLine
 10
117.0000000000678
 20
183.9154245708375
 30
0.0000000000000000
 11
127.0000000000678
 21
183.9154245708375
 31
0.0000000000000000
  0
LINE
  5
AE
100
AcDbEntity
  8
A5
  6
CONTINUOUS
 62
7
100
AcDbLine
 10
84.89999999989477
 20
178.1154245708375
 30
0.0000000000000000
 11
84.89999999989477
 21
172.9154245708374
 31
0.0000000000000000
  0
LINE
  5
AF
100
AcDbEntity
  8
A5
  6
CONTINUOUS
 62
7
100
AcDbLine
 10
81.09999999989476
 20
178.1154245708375
 30
0.0000000000000000
 11
81.09999999989476
 21
172.9154245708374
 31
0.0000000000000000
  0
LINE
  5
B0
100
AcDbEntity
  8
A5
  6
CONTINUOUS
 62
7
100
AcDbLine
 10
84.89999999989477
 20
178.1154245708375
 30
0.0000000000000000
 11
81.09999999989476
 21
178.1154245708375
 31
0.0000000000000000
  0
LINE
  5
B1
100
AcDbEntity
  8
A5
  6
CONTINUOUS
 62
7
100
AcDbLine
 10
138.9000000000678
 20
178.1154245708375
 30
0.0000000000000000
 11
138.9000000000678
 21
172.9154245708374
 31
0.0000000000000000
  0
LINE
  5
B2
100
AcDbEntity
  8
A5
  6
CONTINUOUS
 62
7
100
AcDbLine
 10
135.1000000000678
 20
178.1154245708375
 30
0.0000000000000000
 11
135.1000000000678
 21
172.9154245708374
 31
0.0000000000000000
  0
LINE
  5
B3
100
AcDbEntity
  8
A5
  6
CONTINUOUS
 62
7
100
AcDbLine
 10
135.1000000000678
 20
178.1154245708375
 30
0.0000000000000000
 11
138.9000000000678
 21
178.1154245708375
 31
0.0000000000000000
  0
LINE
  5
B4
100
AcDbEntity
  8
A5
  6
CONTINUOUS
 62
7
100
AcDbLine
 10
54.07082039331764
 20
167.9154245708267
 30
0.0000000000000000
 11
165.9291796068176
 21
167.9154245708267
 31
0.0000000000000000
  0
LINE
  5
B5
100
AcDbEntity
  8
A5
  6
CONTINUOUS
 62
7
100
AcDbLine
 10
50.00000000006765
 20
172.9154245708254
 30
0.0000000000000000
 11
170.0000000000676
 21
172.9154245708254
 31
0.0000000000000000
  0
LINE
  5
B6
100
AcDbEntity
  8
A5
  6
CONTINUOUS
 62
7
100
AcDbLine
 10
139.4999999995799
 20
188.9154245707902
 30
0.0000000000000000
 11
159.0207189613032
 21
188.9154245707902
 31
0.0000000000000000
  0
LINE
  5
B7
100
AcDbEntity
  8
A5
  6
CONTINUOUS
 62
7
100
AcDbLine
 10
138.9999999995800
 20
188.4154245707910
 30
0.0000000000000000
 11
139.0000000000676
 21
172.9154245708253
 31
0.0000000000000000
  0
LINE
  5
B8
100
AcDbEntity
  8
A5
  6
CONTINUOUS
 62
7
100
AcDbLine
 10
140.5000000000568
 20
183.2903464261261
 30
0.0000000000000000
 11
140.5000000000675
 21
176.3154245708271
 31
0.0000000000000000
  0
LINE
  5
B9
100
AcDbEntity
  8
A5
  6
CONTINUOUS
 62
7
100
AcDbLine
 10
148.5000000000666
 20
183.2903464261261
 30
0.0000000000000000
 11
148.5000000000674
 21
176.3154245708270
 31
0.0000000000000000
  0
LINE
  5
BA
100
AcDbEntity
  8
A5
  6
CONTINUOUS
 62
7
100
AcDbLine
 10
150.0000000000596
 20
183.2903464261261
 30
0.0000000000000000
 11
150.0000000000597
 21
172.9154245708267
 31
0.0000000000000000
  0
LINE
  5
BB
100
AcDbEntity
  8
A5
  6
CONTINUOUS
 62
7
100
AcDbLine
 10
159.4000000003950
 20
186.9154245708254
 30
0.0000000000000000
 11
159.4000000003943
 21
181.8325101677448
 31
0.0000000000000000
  0
LINE
  5
BC
100
AcDbEntity
  8
A5
  6
CONTINUOUS
 62
7
100
AcDbLine
 10
135.0000000001513
 20
188.4154245707911
 30
0.0000000000000000
 11
135.0000000000732
 21
172.9154245708267
 31
0.0000000000000000
  0
LINE
  5
BD
100
AcDbEntity
  8
A5
  6
CONTINUOUS
 62
7
100
AcDbLine
 10
133.5000000000803
 20
183.2903464261261
 30
0.0000000000000000
 11
133.5000000000675
 21
176.3154245708270
 31
0.0000000000000000
  0
LINE
  5
BE
100
AcDbEntity
  8
A5
  6
CONTINUOUS
 62
7
100
AcDbLine
 10
110.7500000000782
 20
183.2903464261261
 30
0.0000000000000000
 11
110.7500000000676
 21
176.3154245708270
 31
0.0000000000000000
  0
LINE
  5
BF
100
AcDbEntity
  8
A5
  6
CONTINUOUS
 62
7
100
AcDbLine
 10
109.2500000000568
 20
183.2903464261261
 30
0.0000000000000000
 11
109.2500000000675
 21
176.3154245708270
 31
0.0000000000000000
  0
LINE
  5
C0
100
AcDbEntity
  8
A5
  6
CONTINUOUS
 62
7
100
AcDbLine
 10
117.0000000000678
 20
184.9154245708375
 30
0.0000000000000000
 11
117.0000000000678
 21
181.9154245701975
 31
0.0000000000000000
  0
LINE
  5
C1
100
AcDbEntity
  8
A5
  6
CONTINUOUS
 62
7
100
AcDbLine
 10
127.0000000000678
 20
184.9154245708375
 30
0.0000000000000000
 11
127.0000000000678
 21
181.9154245701975
 31
0.0000000000000000
  0
LINE
  5
C2
100
AcDbEntity
  8
A5
  6
CONTINUOUS
 62
7
100
AcDbLine
 10
102.9999999998948
 20
184.9154245708375
 30
0.0000000000000000
 11
102.9999999998948
 21
181.9154245701975
 31
0.0000000000000000
  0
LINE
  5
C3
100
AcDbEntity
  8
A5
  6
CONTINUOUS
 62
7
100
AcDbLine
 10
92.99999999989483
 20
184.9154245708375
 30
0.0000000000000000
 11
92.99999999989483
 21
181.9154245701975
 31
0.0000000000000000
  0
LINE
  5
C4
100
AcDbEntity
  8
A5
  6
CONTINUOUS
 62
7
100
AcDbLine
 10
86.50000000005480
 20
183.2903464261261
 30
0.0000000000000000
 11
86.50000000006759
 21
176.3154245708270
 31
0.0000000000000000
  0
LINE
  5
C5
100
AcDbEntity
  8
A5
  6
CONTINUOUS
 62
7
100
AcDbLine
 10
84.99999999998369
 20
188.4154245707911
 30
0.0000000000000000
 11
85.00000000006179
 21
172.9154245708267
 31
0.0000000000000000
  0
LINE
  5
C6
100
AcDbEntity
  8
A5
  6
CONTINUOUS
 62
7
100
AcDbLine
 10
81.00000000055513
 20
188.4154245707910
 30
0.0000000000000000
 11
81.00000000055437
 21
172.9154245708267
 31
0.0000000000000000
  0
LINE
  5
C7
100
AcDbEntity
  8
A5
  6
CONTINUOUS
 62
7
100
AcDbLine
 10
79.50000000007823
 20
183.2903464261261
 30
0.0000000000000000
 11
79.50000000006760
 21
176.3154245708270
 31
0.0000000000000000
  0
LINE
  5
C8
100
AcDbEntity
  8
A5
  6
CONTINUOUS
 62
7
100
AcDbLine
 10
71.50000000006847
 20
183.2903464261261
 30
0.0000000000000000
 11
71.50000000006773
 21
176.3154245708271
 31
0.0000000000000000
  0
LINE
  5
C9
100
AcDbEntity
  8
A5
  6
CONTINUOUS
 62
7
100
AcDbLine
 10
70.00000000007547
 20
183.2903464261261
 30
0.0000000000000000
 11
70.00000000007547
 21
172.9154245708267
 31
0.0000000000000000
  0
LINE
  5
CA
100
AcDbEntity
  8
A5
  6
CONTINUOUS
 62
7
100
AcDbLine
 10
60.59999999974033
 20
186.9154245708254
 30
0.0000000000000000
 11
60.59999999974084
 21
181.8325101677447
 31
0.0000000000000000
  0
LINE
  5
CB
100
AcDbEntity
  8
A5
  6
CONTINUOUS
 62
7
100
AcDbLine
 10
60.97928103883201
 20
188.9154245707902
 30
0.0000000000000000
 11
80.50000000055512
 21
188.9154245707902
 31
0.0000000000000000
  0
LINE
  5
CC
100
AcDbEntity
  8
A4
  6
CENTER
 62
1
100
AcDbLine
 10
109.9999999999889
 20
164.9154245708267
 30
0.0000000000000000
 11
109.9999999999939
 21
199.4154245708374
 31
0.0000000000000000
  0
ARC
  5
CD
100
AcDbEntity
  8
A6
  6
CONTINUOUS
 62
7
100
AcDbCircle
 10
212.5253970837769
 20
119.0999999997616
 30
0.0000000000000000
 40
1.500000000000000
100
AcDbArc
 50
45.00000000035363
 51
90.00000000036141
  0
ARC
  5
CE
100
AcDbEntity
  8
A6
  6
CONTINUOUS
 62
7
100
AcDbCircle
 10
217.9565440955141
 20
118.6186004563672
 30
0.0000000000000000
 40
2.000000000000000
100
AcDbArc
 50
225.0000000003626
 51
269.0000000003594
  0
ARC
  5
CF
100
AcDbEntity
  8
A6
  6
CONTINUOUS
 62
7
100
AcDbCircle
 10
210.4467174273369
 20
119.0999999997485
 30
0.0000000000000000
 40
1.500000000000000
100
AcDbArc
 50
90.00000000035865
 51
180.0000000003731
  0
ARC
  5
D0
100
AcDbEntity
  8
A6
  6
CONTINUOUS
 62
7
100
AcDbCircle
 10
222.5467174276245
 20
67.47703296189758
 30
0.0000000000000000
 40
1.000000000000000
100
AcDbArc
 50
291.8014094870039
 51
360.0000000003594
  0
ARC
  5
D1
100
AcDbEntity
  8
A6
  6
CONTINUOUS
 62
7
100
AcDbCircle
 10
214.5467174277130
 20
62.12296703901239
 30
0.0000000000000000
 40
1.000000000000000
100
AcDbArc
 50
111.8014094862835
 51
179.9999999998332
  0
ARC
  5
D2
100
AcDbEntity
  8
A6
  6
CONTINUOUS
 62
7
100
AcDbCircle
 10
202.8467174277451
 20
54.07082039372244
 30
0.0000000000000000
 40
0.3000000000000000
100
AcDbArc
 50
180.0000000003594
 51
206.5650511774368
  0
ARC
  5
D3
100
AcDbEntity
  8
A6
  6
CONTINUOUS
 62
7
100
AcDbCircle
 10
202.8467174273446
 20
117.9291796064508
 30
0.0000000000000000
 40
0.3000000000000000
100
AcDbArc
 50
153.4349488232820
 51
180.0000000003594
  0
ARC
  5
D4
100
AcDbEntity
  8
A6
  6
CONTINUOUS
 62
7
100
AcDbCircle
 10
204.7321276239459
 20
121.6999999997126
 30
0.0000000000000000
 40
0.3000000000000000
100
AcDbArc
 50
90.00000000035938
 51
153.4349488232817
  0
ARC
  5
D5
100
AcDbEntity
  8
A6
  6
CONTINUOUS
 62
7
100
AcDbCircle
 10
204.7321276243938
 20
50.30000000048426
 30
0.0000000000000000
 40
0.3000000000000000
100
AcDbArc
 50
206.5650511774375
 51
270.0000000003629
  0
LINE
  5
D6
100
AcDbEntity
  8
A6
  6
CONTINUOUS
 62
7
100
AcDbLine
 10
212.1467174277556
 20
55.70000000031169
 30
0.0000000000000000
 11
207.5467174277337
 21
55.70000000028116
 31
0.0000000000000000
  0
LINE
  5
D7
100
AcDbEntity
  8
A6
  6
CONTINUOUS
 62
7
100
AcDbLine
 10
212.1467174277570
 20
55.50000000031172
 30
0.0000000000000000
 11
212.1467174277556
 21
55.70000000031177
 31
0.0000000000000000
  0
LINE
  5
D8
100
AcDbEntity
  8
A6
  6
CONTINUOUS
 62
7
100
AcDbLine
 10
209.7467174277682
 20
53.80000000051841
 30
0.0000000000000000
 11
212.1467174277568
 21
55.50000000031174
 31
0.0000000000000000
  0
LINE
  5
D9
100
AcDbEntity
  8
A6
  6
CONTINUOUS
 62
7
100
AcDbLine
 10
208.9467174277684
 20
53.80000000051295
 30
0.0000000000000000
 11
209.7467174277683
 21
53.80000000051837
 31
0.0000000000000000
  0
LINE
  5
DA
100
AcDbEntity
  8
A6
  6
CONTINUOUS
 62
7
100
AcDbLine
 10
208.9467174277657
 20
54.20000000029056
 30
0.0000000000000000
 11
208.9467174277684
 21
53.80000000051295
 31
0.0000000000000000
  0
LINE
  5
DB
100
AcDbEntity
  8
A6
  6
CONTINUOUS
 62
7
100
AcDbLine
 10
207.5467174277430
 20
54.20000000028142
 30
0.0000000000000000
 11
208.9467174277656
 21
54.20000000029057
 31
0.0000000000000000
  0
LINE
  5
DC
100
AcDbEntity
  8
A6
  6
CONTINUOUS
 62
7
100
AcDbLine
 10
212.5253970837675
 20
120.5999999997616
 30
0.0000000000000000
 11
210.4467174273275
 21
120.5999999997485
 31
0.0000000000000000
  0
LINE
  5
DD
100
AcDbEntity
  8
A6
  6
CONTINUOUS
 62
7
100
AcDbLine
 10
216.5423305331502
 20
117.2043868939852
 30
0.0000000000000000
 11
213.5860572555502
 21
120.1606601715479
 31
0.0000000000000000
  0
LINE
  5
DE
100
AcDbEntity
  8
A6
  6
CONTINUOUS
 62
7
100
AcDbLine
 10
208.9467174273370
 20
119.0999999997387
 30
0.0000000000000000
 11
208.9467174273435
 21
118.0000000002904
 31
0.0000000000000000
  0
LINE
  5
DF
100
AcDbEntity
  8
A6
  6
CONTINUOUS
 62
7
100
AcDbLine
 10
209.3467174273703
 20
118.0000000002971
 30
0.0000000000000000
 11
209.3467174273781
 21
116.7685808837386
 31
0.0000000000000000
  0
LINE
  5
E0
100
AcDbEntity
  8
A6
  6
CONTINUOUS
 62
7
100
AcDbLine
 10
209.3467174273703
 20
118.0000000002971
 30
0.0000000000000000
 11
207.5467174273429
 21
118.0000000002858
 31
0.0000000000000000
  0
LINE
  5
E1
100
AcDbEntity
  8
A6
  6
CONTINUOUS
 62
7
100
AcDbLine
 10
214.1753267513694
 20
63.05144372987502
 30
0.0000000000000000
 11
222.9181081039991
 21
66.54855627099195
 31
0.0000000000000000
  0
LINE
  5
E2
100
AcDbEntity
  8
A6
  6
CONTINUOUS
 62
7
100
AcDbLine
 10
223.5467174273170
 20
116.5207189618480
 30
0.0000000000000000
 11
207.5467174274095
 21
116.8000000006085
 31
0.0000000000000000
  0
LINE
  5
E3
100
AcDbEntity
  8
A6
  6
CONTINUOUS
 62
7
100
AcDbLine
 10
207.5467174277919
 20
55.80000000039821
 30
0.0000000000000000
 11
213.5467174277539
 21
55.90473038999986
 31
0.0000000000000000
  0
LINE
  5
E4
100
AcDbEntity
  8
A6
  6
CONTINUOUS
 62
7
100
AcDbLine
 10
208.3467174276212
 20
68.00000000042287
 30
0.0000000000000000
 11
208.3467174275710
 21
76.00000000042475
 31
0.0000000000000000
  0
LINE
  5
E5
100
AcDbEntity
  8
A6
  6
CONTINUOUS
 62
7
100
AcDbLine
 10
208.3467174274456
 20
96.00000000042282
 30
0.0000000000000000
 11
208.3467174273954
 21
104.0000000004247
 31
0.0000000000000000
  0
LINE
  5
E6
100
AcDbEntity
  8
A6
  6
CONTINUOUS
 62
7
100
AcDbLine
 10
221.5467174274244
 20
104.9999999997930
 30
0.0000000000000000
 11
221.5467174274871
 21
94.99999999978780
 31
0.0000000000000000
  0
LINE
  5
E7
100
AcDbEntity
  8
A6
  6
CONTINUOUS
 62
7
100
AcDbLine
 10
218.5467174273892
 20
104.9999999997742
 30
0.0000000000000000
 11
218.5467174273954
 21
103.9999999997678
 31
0.0000000000000000
  0
LINE
  5
E8
100
AcDbEntity
  8
A6
  6
CONTINUOUS
 62
7
100
AcDbLine
 10
221.5467174276000
 20
76.99999999979292
 30
0.0000000000000000
 11
221.5467174276628
 21
66.99999999978775
 31
0.0000000000000000
  0
LINE
  5
E9
100
AcDbEntity
  8
A6
  6
CONTINUOUS
 62
7
100
AcDbLine
 10
218.5467174276212
 20
67.99999999975812
 30
0.0000000000000000
 11
218.5467174276275
 21
66.99999999976892
 31
0.0000000000000000
  0
LINE
  5
EA
100
AcDbEntity
  8
A6
  6
CONTINUOUS
 62
7
100
AcDbLine
 10
218.5467174275648
 20
76.99999999977409
 30
0.0000000000000000
 11
218.5467174275711
 21
75.99999999977125
 31
0.0000000000000000
  0
LINE
  5
EB
100
AcDbEntity
  8
A6
  6
CONTINUOUS
 62
7
100
AcDbLine
 10
211.1467174276117
 20
69.49999999972626
 30
0.0000000000000000
 11
211.1467174275804
 21
74.49999999972631
 31
0.0000000000000000
  0
LINE
  5
EC
100
AcDbEntity
  8
A6
  6
CONTINUOUS
 62
7
100
AcDbLine
 10
211.1467174274361
 20
97.50000000043958
 30
0.0000000000000000
 11
211.1467174274048
 21
102.5000000004396
 31
0.0000000000000000
  0
LINE
  5
ED
100
AcDbEntity
  8
A6
  6
CONTINUOUS
 62
7
100
AcDbLine
 10
209.1467174274455
 20
96.00000000042783
 30
0.0000000000000000
 11
209.1467174273953
 21
104.0000000004298
 31
0.0000000000000000
  0
LINE
  5
EE
100
AcDbEntity
  8
A6
  6
CONTINUOUS
 62
7
100
AcDbLine
 10
209.1467174276212
 20
68.00000000042789
 30
0.0000000000000000
 11
209.1467174275710
 21
76.00000000042976
 31
0.0000000000000000
  0
LINE
  5
EF
100
AcDbEntity
  8
A6
  6
CONTINUOUS
 62
7
100
AcDbLine
 10
204.4637994666451
 20
121.8341640783609
 30
0.0000000000000000
 11
202.5783892700438
 21
118.0633436850992
 31
0.0000000000000000
  0
LINE
  5
F0
100
AcDbEntity
  8
A6
  6
CONTINUOUS
 62
7
100
AcDbLine
 10
202.5783892704460
 20
53.93665631507078
 30
0.0000000000000000
 11
204.4637994670946
 21
50.16583592183261
 31
0.0000000000000000
  0
LINE
  5
F1
100
AcDbEntity
  8
A6
  6
CONTINUOUS
 62
7
100
AcDbLine
 10
207.5467174273178
 20
121.9999999997303
 30
0.0000000000000000
 11
204.7321276239441
 21
121.9999999997127
 31
0.0000000000000000
  0
LINE
  5
F2
100
AcDbEntity
  8
A6
  6
CONTINUOUS
 62
7
100
AcDbLine
 10
204.7321276243957
 20
50.00000000048421
 30
0.0000000000000000
 11
207.5467174277694
 21
50.00000000050187
 31
0.0000000000000000
  0
ARC
  5
F3
100
AcDbEntity
  8
A6
  6
CONTINUOUS
 62
7
100
AcDbCircle
 10
215.5467174276384
 20
72.80000000050723
 30
0.0000000000000000
 40
15.50000000000000
100
AcDbArc
 50
269.9999999996888
 51
360.0000000003594
  0
ARC
  5
F4
100
AcDbEntity
  8
A6
  6
CONTINUOUS
 62
7
100
AcDbCircle
 10
227.0467174273969
 20
111.3000000007279
 30
0.0000000000000000
 40
4.000000000000000
100
AcDbArc
 50
3.593772345679257e-10
 51
90.00000000035938
  0
LINE
  5
F5
100
AcDbEntity
  8
A6
  6
CONTINUOUS
 62
7
100
AcDbLine
 10
211.1088954767177
 20
55.86217804954585
 30
0.0000000000000000
 11
211.0467174277451
 21
55.80000000057241
 31
0.0000000000000000
  0
LINE
  5
F6
100
AcDbEntity
  8
A6
  6
CONTINUOUS
 62
7
100
AcDbLine
 10
211.0467174277451
 20
55.80000000057233
 30
0.0000000000000000
 11
207.5467174277451
 21
55.80000000055037
 31
0.0000000000000000
  0
LINE
  5
F7
100
AcDbEntity
  8
A6
  6
CONTINUOUS
 62
7
100
AcDbLine
 10
231.0467174276384
 20
72.80000000060438
 30
0.0000000000000000
 11
231.0467174273969
 21
111.3000000007531
 31
0.0000000000000000
  0
LINE
  5
F8
100
AcDbEntity
  8
A6
  6
CONTINUOUS
 62
7
100
AcDbLine
 10
213.5467174277449
 20
57.30000000051418
 30
0.0000000000000000
 11
215.5467174275543
 21
57.30000000050723
 31
0.0000000000000000
  0
LINE
  5
F9
100
AcDbEntity
  8
A6
  6
CONTINUOUS
 62
7
100
AcDbLine
 10
207.8386181839493
 20
95.00000000041679
 30
0.0000000000000000
 11
207.8386181838866
 21
105.0000000003988
 31
0.0000000000000000
  0
LINE
  5
FA
100
AcDbEntity
  8
A6
  6
CONTINUOUS
 62
7
100
AcDbLine
 10
207.8386181841249
 20
66.99999999971415
 30
0.0000000000000000
 11
207.8386181840622
 21
76.99999999970704
 31
0.0000000000000000
  0
LINE
  5
FB
100
AcDbEntity
  8
A6
  6
CONTINUOUS
 62
7
100
AcDbLine
 10
227.0467174273718
 20
115.3000000007280
 30
0.0000000000000000
 11
223.5467174273246
 21
115.3000000007060
 31
0.0000000000000000
  0
LINE
  5
FC
100
AcDbEntity
  8
A6
  6
CONTINUOUS
 62
7
100
AcDbLine
 10
207.5467174273177
 20
121.9999999997303
 30
0.0000000000000000
 11
207.5467174277694
 21
50.00000000050184
 31
0.0000000000000000
  0
LINE
  5
FD
100
AcDbEntity
  8
A6
  6
CONTINUOUS
 62
7
100
AcDbLine
 10
213.5467174277130
 20
62.12296703901523
 30
0.0000000000000000
 11
213.5467174277540
 21
55.90473038999976
 31
0.0000000000000000
  0
LINE
  5
FE
100
AcDbEntity
  8
A6
  6
CONTINUOUS
 62
7
100
AcDbLine
 10
223.5467174273168
 20
116.5207189618481
 30
0.0000000000000000
 11
223.5467174276245
 21
67.47703296190379
 31
0.0000000000000000
  0
LINE
  5
FF
100
AcDbEntity
  8
A6
  6
CONTINUOUS
 62
7
100
AcDbLine
 10
202.5467174273445
 20
117.9291796064490
 30
0.0000000000000000
 11
202.5467174277451
 21
54.07082039372044
 31
0.0000000000000000
  0
LINE
  5
100
100
AcDbEntity
  8
A6
  6
CONTINUOUS
 62
7
100
AcDbLine
 10
221.5467174274244
 20
104.9999999997930
 30
0.0000000000000000
 11
207.5467174274300
 21
105.0000000004158
 31
0.0000000000000000
  0
LINE
  5
101
100
AcDbEntity
  8
A6
  6
CONTINUOUS
 62
7
100
AcDbLine
 10
221.5467174274871
 20
94.99999999978773
 30
0.0000000000000000
 11
207.5467174275460
 21
95.00000000041479
 31
0.0000000000000000
  0
LINE
  5
102
100
AcDbEntity
  8
A6
  6
CONTINUOUS
 62
7
100
AcDbLine
 10
218.5467174273954
 20
103.9999999997679
 30
0.0000000000000000
 11
208.3467174273954
 21
104.0000000004248
 31
0.0000000000000000
  0
LINE
  5
103
100
AcDbEntity
  8
A6
  6
CONTINUOUS
 62
7
100
AcDbLine
 10
218.5467174274456
 20
95.99999999975816
 30
0.0000000000000000
 11
218.5467174274519
 21
94.99999999976896
 31
0.0000000000000000
  0
LINE
  5
104
100
AcDbEntity
  8
A6
  6
CONTINUOUS
 62
7
100
AcDbLine
 10
218.5467174274457
 20
95.99999999975819
 30
0.0000000000000000
 11
208.3467174274456
 21
96.00000000042287
 31
0.0000000000000000
  0
LINE
  5
105
100
AcDbEntity
  8
A6
  6
CONTINUOUS
 62
7
100
AcDbLine
 10
216.4638030243595
 20
102.5000000004747
 30
0.0000000000000000
 11
211.1467174274048
 21
102.5000000004395
 31
0.0000000000000000
  0
LINE
  5
106
100
AcDbEntity
  8
A6
  6
CONTINUOUS
 62
7
100
AcDbLine
 10
216.4638030243908
 20
97.50000000047491
 30
0.0000000000000000
 11
211.1467174274362
 21
97.50000000043967
 31
0.0000000000000000
  0
LINE
  5
107
100
AcDbEntity
  8
A6
  6
CONTINUOUS
 62
7
100
AcDbLine
 10
216.4638030245665
 20
69.49999999975718
 30
0.0000000000000000
 11
211.1467174276117
 21
69.49999999972626
 31
0.0000000000000000
  0
LINE
  5
108
100
AcDbEntity
  8
A6
  6
CONTINUOUS
 62
7
100
AcDbLine
 10
221.5467174276000
 20
76.99999999979300
 30
0.0000000000000000
 11
207.5467174276151
 21
76.99999999970524
 31
0.0000000000000000
  0
LINE
  5
109
100
AcDbEntity
  8
A6
  6
CONTINUOUS
 62
7
100
AcDbLine
 10
221.5467174276628
 20
66.99999999978782
 30
0.0000000000000000
 11
207.5467174277218
 21
66.99999999971280
 31
0.0000000000000000
  0
LINE
  5
10A
100
AcDbEntity
  8
A6
  6
CONTINUOUS
 62
7
100
AcDbLine
 10
218.5467174275710
 20
75.99999999977126
 30
0.0000000000000000
 11
208.3467174275710
 21
76.00000000042473
 31
0.0000000000000000
  0
LINE
  5
10B
100
AcDbEntity
  8
A6
  6
CONTINUOUS
 62
7
100
AcDbLine
 10
218.5467174276213
 20
67.99999999975819
 30
0.0000000000000000
 11
208.3467174276212
 21
68.00000000042287
 31
0.0000000000000000
  0
LINE
  5
10C
100
AcDbEntity
  8
A6
  6
CONTINUOUS
 62
7
100
AcDbLine
 10
216.4638030245351
 20
74.49999999975719
 30
0.0000000000000000
 11
211.1467174275804
 21
74.49999999972637
 31
0.0000000000000000
  0
LINE
  5
10D
100
AcDbEntity
  8
A6
  6
CENTER
 62
1
100
AcDbLine
 10
234.0467174275556
 20
86.00000000021069
 30
0.0000000000000000
 11
199.5467174275448
 21
86.00000000010249
 31
0.0000000000000000
  0
LINE
  5
10E
100
AcDbEntity
  8
A8
  6
DASHED
 62
4
100
AcDbLine
 10
206.5467174278155
 20
113.2000000006059
 30
0.0000000000000000
 11
206.5467174278155
 21
93.40000000010356
 31
0.0000000000000000
  0
ARC
  5
10F
100
AcDbEntity
  8
A8
  6
DASHED
 62
4
100
AcDbCircle
 10
207.0467174278157
 20
113.2000000006059
 30
0.0000000000000000
 40
0.5000000000000000
100
AcDbArc
 50
89.99999999980459
 51
180.0000000000000
  0
LINE
  5
110
100
AcDbEntity
  8
A8
  6
DASHED
 62
4
100
AcDbLine
 10
207.5467174277815
 20
113.8000000006057
 30
0.0000000000000000
 11
227.0467174277817
 21
113.8000000006057
 31
0.0000000000000000
  0
ARC
  5
111
100
AcDbEntity
  8
A8
  6
DASHED
 62
4
100
AcDbCircle
 10
227.0467174277817
 20
111.3000000006057
 30
0.0000000000000000
 40
2.500000000000000
100
AcDbArc
 50
2.544443745170813e-13
 51
90.00000000000000
  0
LINE
  5
112
100
AcDbEntity
  8
A8
  6
DASHED
 62
4
100
AcDbLine
 10
229.5467174277816
 20
111.3000000006057
 30
0.0000000000000000
 11
229.5467174277816
 21
72.80000000045708
 31
0.0000000000000000
  0
ARC
  5
113
100
AcDbEntity
  8
A8
  6
DASHED
 62
4
100
AcDbCircle
 10
215.5467174277816
 20
72.80000000045709
 30
0.0000000000000000
 40
14.00000000000000
100
AcDbArc
 50
270.0000000000000
 51
360.0000000000000
  0
LINE
  5
114
100
AcDbEntity
  8
A8
  6
DASHED
 62
4
100
AcDbLine
 10
215.5467174277817
 20
58.80000000045708
 30
0.0000000000000000
 11
207.5467174277962
 21
58.80000000053509
 31
0.0000000000000000
  0
ARC
  5
115
100
AcDbEntity
  8
A8
  6
DASHED
 62
4
100
AcDbCircle
 10
204.0467174278156
 20
93.40000000010355
 30
0.0000000000000000
 40
2.500000000000000
100
AcDbArc
 50
270.0000000000000
 51
360.0000000000000
  0
ARC
  5
116
100
AcDbEntity
  8
A8
  6
DASHED
 62
4
100
AcDbCircle
 10
204.0467174277790
 20
92.40000000010355
 30
0.0000000000000000
 40
1.500000000000000
100
AcDbArc
 50
179.9999999999999
 51
270.0000000013961
  0
LINE
  5
117
100
AcDbEntity
  8
A8
  6
DASHED
 62
4
100
AcDbLine
 10
207.5467174277694
 20
58.90000000010353
 30
0.0000000000000000
 11
204.0467174277791
 21
58.90000000010353
 31
0.0000000000000000
  0
ARC
  5
118
100
AcDbEntity
  8
A8
  6
DASHED
 62
4
100
AcDbCircle
 10
204.0467174277791
 20
57.40000000010355
 30
0.0000000000000000
 40
1.500000000000000
100
AcDbArc
 50
90.00000000000000
 51
180.0000000000000
  0
LINE
  5
119
100
AcDbEntity
  8
A10
  6
DASHED
 62
4
100
AcDbLine
 10
207.0467174278157
 20
113.7000000006059
 30
0.0000000000000000
 11
207.5467174277690
 21
113.7000000006057
 31
0.0000000000000000
  0
MTEXT
  5
11A
100
AcDbEntity
  8
A20
  6
CONTINUOUS
 62
1
100
AcDbMText
 10
104.2962965270559
 20
177.8154245708271
 30
0.0000000000000000
 40
2.000000000000000
 41
0.0000000000000000
 44
0.6720000028610229
 71
     1
 72
     1
  1
{\H0.62x;{THA-471-1.6}}
 11
-1.000000000000000
 21
1.224646799147353e-16
 31
0.0000000000000000
  7
STANDARD
  0
ENDSEC
  0
SECTION
  2
OBJECTS
  0
DICTIONARY
  5
147
100
AcDbDictionary
  3
ACAD_GROUP
350
148
  3
ACAD_LAYOUT
350
149
  3
ACAD_MLINESTYLE
350
14A
  0
DICTIONARY
  5
148
102
{ACAD_REACTORS
330
147
102
}
330
147
100
AcDbDictionary
  0
DICTIONARY
  5
149
102
{ACAD_REACTORS
330
147
102
}
330
147
100
AcDbDictionary
  3
Model
350
14B
  3
ﾚｲｱｳﾄ1
350
14C
  3
ﾚｲｱｳﾄ2
350
14D
  0
DICTIONARY
  5
14A
102
{ACAD_REACTORS
330
147
102
}
330
147
100
AcDbDictionary
  3
STANDARD
350
14E
  0
LAYOUT
  5
14B
102
{ACAD_REACTORS
330
149
102
}
330
149
100
AcDbPlotSettings
 70
11952
  4
A3
 44
297.000000
 45
420.000000
 73
  1
 72
  1
100
AcDbLayout
  1
Model
 71
0
330
13E
  0
LAYOUT
  5
14C
102
{ACAD_REACTORS
330
149
102
}
330
149
100
AcDbPlotSettings
100
AcDbLayout
  1
ﾚｲｱｳﾄ1
 71
1
330
13F
  0
LAYOUT
  5
14D
102
{ACAD_REACTORS
330
149
102
}
330
149
100
AcDbPlotSettings
100
AcDbLayout
  1
ﾚｲｱｳﾄ2
 71
2
330
140
  0
MLINESTYLE
  5
14E
102
{ACAD_REACTORS
330
14A
102
}
330
14A
100
AcDbMlineStyle
  2
STANDARD
 70
     0
  3

 62
   256
 51
90.00
 52
90.00
 71
     2
 49
0.50
 62
   256
  6
BYLAYER
 49
-0.50
 62
   256
  6
BYLAYER
  0
ENDSEC
  0
EOF
