  0
SECTION
  2
HEADER
  9
$ACADVER
  1
AC1015
  9
$DWGCODEPAGE
  3
ANSI_932
  9
$LTSCALE
 40
20.0
  9
$FILLMODE
 70
     1
  9
$CLAYER
  8
0
  9
$PDMODE
 70
     0
  9
$SPLFRAME
 70
     0
  9
$SPLINETYPE
 70
     6
  9
$SPLINESEGS
 70
     8
  9
$DIMASZ
 40
2.000000
  9
$DIMEXE
 40
1.500000
  9
$DIMEXO
 40
0.800000
  9
$DIMTAD
 70
     1
  9
$DIMTIH
 70
     0
  9
$DIMTOH
 70
     0
  9
$DIMTVP
 40
0.500000
  9
$DIMTXT
 40
3.100000
  9
$EXTMIN
 10
0.000000
 20
0.000000
 30
0.000000
  9
$EXTMAX
 10
297.000000
 20
420.000000
 30
0.000000
  9
$MEASUREMENT
 70
  1
  9
$LIMMIN
 10
0.000000
 20
0.000000
  9
$LIMMAX
 10
297.000000
 20
420.000000
  9
$HANDSEED
  5
14D
  9
$LWDISPLAY
290
     0
  9
$DIMBLK
  1
_OPEN
  9
$DIMDEC
 70
     2
  9
$DIMADEC
 70
     2
  9
$DIMAUNIT
 70
     0
  9
$DIMZIN
 70
     8
  9
$DIMAZIN
 70
     2
  9
$DIMTOFL
 70
     1
  0
ENDSEC
  0
SECTION
  2
CLASSES
  0
ENDSEC
  0
SECTION
  2
TABLES
  0
TABLE
  2
VPORT
  5
119
100
AcDbSymbolTable
 70
     1
  0
VPORT
  5
11A
100
AcDbSymbolTableRecord
100
AcDbViewportTableRecord
  2
*ACTIVE
 70
     0
 12
210.000000
 22
148.500000
 40
432.537321
 41
0.971014
  0
ENDTAB
  0
TABLE
  2
LTYPE
  5
11B
100
AcDbSymbolTable
 70
     3
  0
LTYPE
  5
11C
100
AcDbSymbolTableRecord
100
AcDbLinetypeTableRecord
  2
BYBLOCK
 70
     0
  3

 72
    65
 73
     0
 40
0.0
  0
LTYPE
  5
11D
100
AcDbSymbolTableRecord
100
AcDbLinetypeTableRecord
  2
BYLAYER
 70
     0
  3

 72
    65
 73
     0
 40
0.0
  0
LTYPE
  5
11E
100
AcDbSymbolTableRecord
100
AcDbLinetypeTableRecord
  2
CONTINUOUS
 70
     0
  3
Solid line (NEC CAE2D for Win R15.2 : 2020.03.12)
 72
    65
 73
     0
 40
0.0
  0
LTYPE
  5
11F
100
AcDbSymbolTableRecord
100
AcDbLinetypeTableRecord
  2
DASHED
 70
     0
  3
__ __ __ __ __ __ __ __ __ __ __ __ __ _
 72
    65
 73
     2
 40
0.75
 49
0.5
 74
     0
 49
-0.25
 74
     0
  0
LTYPE
  5
120
100
AcDbSymbolTableRecord
100
AcDbLinetypeTableRecord
  2
CENTER
 70
     0
  3
____ _ ____ _ ____ _ ____ _ ____ _ ____
 72
    65
 73
     4
 40
2.0
 49
1.25
 74
     0
 49
-0.25
 74
     0
 49
0.25
 74
     0
 49
-0.25
 74
     0
  0
ENDTAB
  0
TABLE
  2
LAYER
  5
121
100
AcDbSymbolTable
 70
    13
  0
LAYER
  5
122
100
AcDbSymbolTableRecord
100
AcDbLayerTableRecord
  2
0
 70
     0
 62
     7
  6
CONTINUOUS
370
    -3
390

  0
LAYER
  5
123
100
AcDbSymbolTableRecord
100
AcDbLayerTableRecord
  2
A0
 70
     0
 62
     9
  6
CONTINUOUS
370
    -3
390

  0
LAYER
  5
124
100
AcDbSymbolTableRecord
100
AcDbLayerTableRecord
  2
A4
 70
     0
 62
     9
  6
CONTINUOUS
370
    -3
390

  0
LAYER
  5
125
100
AcDbSymbolTableRecord
100
AcDbLayerTableRecord
  2
A5
 70
     0
 62
     8
  6
CONTINUOUS
370
    -3
390

  0
LAYER
  5
126
100
AcDbSymbolTableRecord
100
AcDbLayerTableRecord
  2
A6
 70
     0
 62
    12
  6
CONTINUOUS
370
    -3
390

  0
LAYER
  5
127
100
AcDbSymbolTableRecord
100
AcDbLayerTableRecord
  2
A8
 70
     0
 62
    10
  6
CONTINUOUS
370
    -3
390

  0
LAYER
  5
128
100
AcDbSymbolTableRecord
100
AcDbLayerTableRecord
  2
A9
 70
     0
 62
     9
  6
CONTINUOUS
370
    -3
390

  0
LAYER
  5
129
100
AcDbSymbolTableRecord
100
AcDbLayerTableRecord
  2
A10
 70
     0
 62
     6
  6
CONTINUOUS
370
    -3
390

  0
LAYER
  5
12A
100
AcDbSymbolTableRecord
100
AcDbLayerTableRecord
  2
A20
 70
     0
 62
     1
  6
CONTINUOUS
370
    -3
390

  0
LAYER
  5
12B
100
AcDbSymbolTableRecord
100
AcDbLayerTableRecord
  2
A30
 70
     0
 62
     1
  6
CONTINUOUS
370
    -3
390

  0
LAYER
  5
12C
100
AcDbSymbolTableRecord
100
AcDbLayerTableRecord
  2
A40
 70
     0
 62
     9
  6
CONTINUOUS
370
    -3
390

  0
LAYER
  5
12D
100
AcDbSymbolTableRecord
100
AcDbLayerTableRecord
  2
A50
 70
     0
 62
    12
  6
CONTINUOUS
370
    -3
390

  0
LAYER
  5
12E
100
AcDbSymbolTableRecord
100
AcDbLayerTableRecord
  2
A1023
 70
     0
 62
    16
  6
CONTINUOUS
370
    -3
390

  0
ENDTAB
  0
TABLE
  2
STYLE
  5
12F
100
AcDbSymbolTable
 70
     4
  0
STYLE
  5
130
100
AcDbSymbolTableRecord
100
AcDbTextStyleTableRecord
  2
STANDARD
 70
    64
 40
0.0
 41
1.0
 50
0.0
 71
     0
 42
2.000000000000000
  3
TXT
  4

  0
STYLE
  5
131
100
AcDbSymbolTableRecord
100
AcDbTextStyleTableRecord
  2
ANKTATE
 70
    68
 40
0.0
 41
1.0
 50
0.0
 71
     0
 42
2.000000000000000
  3
TXT
  4

  0
STYLE
  5
132
100
AcDbSymbolTableRecord
100
AcDbTextStyleTableRecord
  2
KNJYOKO
 70
    64
 40
0.0
 41
1.0
 50
0.0
 71
     0
 42
2.000000000000000
  3
TXT
  4
BIGFONT
  0
STYLE
  5
133
100
AcDbSymbolTableRecord
100
AcDbTextStyleTableRecord
  2
KNJTATE
 70
    68
 40
0.0
 41
1.0
 50
0.0
 71
     0
 42
2.000000000000000
  3
TXT
  4
BIGFONT
  0
ENDTAB
  0
TABLE
  2
VIEW
  5
134
100
AcDbSymbolTable
 70
     0
  0
ENDTAB
  0
TABLE
  2
UCS
  5
135
100
AcDbSymbolTable
 70
     0
  0
ENDTAB
  0
TABLE
  2
APPID
  5
136
100
AcDbSymbolTable
 70
     1
  0
APPID
  5
137
100
AcDbSymbolTableRecord
100
AcDbRegAppTableRecord
  2
ACAD
 70
     0
  0
ENDTAB
  0
TABLE
  2
DIMSTYLE
  5
138
100
AcDbSymbolTable
 70
     2
100
AcDbDimStyleTable
  0
DIMSTYLE
105
139
100
AcDbSymbolTableRecord
100
AcDbDimStyleTableRecord
  2
STANDARD
 70
     0
 41
2.000000
 44
1.500000
 42
0.800000
145
0.661290
140
3.100000
144
1.000000
146
0.645161
340
130
  0
DIMSTYLE
105
13A
100
AcDbSymbolTableRecord
100
AcDbDimStyleTableRecord
  2
A001
 70
     0
 41
2.000000
 44
1.500000
 42
0.800000
145
0.661290
140
3.100000
144
1.000000
146
0.645161
 77
     1
 73
     0
 74
     0
271
     2
179
     2
275
     0
 78
     8
 79
     2
172
     1
340
130
  0
ENDTAB
  0
TABLE
  2
BLOCK_RECORD
  5
13B
100
AcDbSymbolTable
 70
    12
  0
BLOCK_RECORD
  5
13C
100
AcDbSymbolTableRecord
100
AcDbBlockTableRecord
  2
*MODEL_SPACE
  0
BLOCK_RECORD
  5
13D
100
AcDbSymbolTableRecord
100
AcDbBlockTableRecord
  2
*PAPER_SPACE
  0
BLOCK_RECORD
  5
13E
100
AcDbSymbolTableRecord
100
AcDbBlockTableRecord
  2
*PAPER_SPACE0
  0
BLOCK_RECORD
  5
1
100
AcDbSymbolTableRecord
100
AcDbBlockTableRecord
  2
_NONE
  0
BLOCK_RECORD
  5
4
100
AcDbSymbolTableRecord
100
AcDbBlockTableRecord
  2
_CLOSED
  0
BLOCK_RECORD
  5
B
100
AcDbSymbolTableRecord
100
AcDbBlockTableRecord
  2
_DOT
  0
BLOCK_RECORD
  5
13
100
AcDbSymbolTableRecord
100
AcDbBlockTableRecord
  2
_OPEN
  0
BLOCK_RECORD
  5
19
100
AcDbSymbolTableRecord
100
AcDbBlockTableRecord
  2
_ORIGIN
  0
BLOCK_RECORD
  5
1E
100
AcDbSymbolTableRecord
100
AcDbBlockTableRecord
  2
_OPEN30
  0
BLOCK_RECORD
  5
24
100
AcDbSymbolTableRecord
100
AcDbBlockTableRecord
  2
_BOXFILLED
  0
BLOCK_RECORD
  5
29
100
AcDbSymbolTableRecord
100
AcDbBlockTableRecord
  2
_BOXBLANK
  0
BLOCK_RECORD
  5
31
100
AcDbSymbolTableRecord
100
AcDbBlockTableRecord
  2
_OBLIQUE
  0
BLOCK_RECORD
  5
35
100
AcDbSymbolTableRecord
100
AcDbBlockTableRecord
  2
_OPEN90
  0
BLOCK_RECORD
  5
3B
100
AcDbSymbolTableRecord
100
AcDbBlockTableRecord
  2
_CLOSEDBLANK
  0
BLOCK_RECORD
  5
41
100
AcDbSymbolTableRecord
100
AcDbBlockTableRecord
  2
_DOTBLANK
  0
ENDTAB
  0
ENDSEC
  0
SECTION
  2
BLOCKS
  0
BLOCK
  5
13F
100
AcDbEntity
  8
0
100
AcDbBlockBegin
  2
*MODEL_SPACE
 70
     0
 10
0.0
 20
0.0
 30
0.0
  3
*MODEL_SPACE
  1

  0
ENDBLK
  5
140
100
AcDbEntity
  8
0
100
AcDbBlockEnd
  0
BLOCK
  5
141
100
AcDbEntity
  8
0
100
AcDbBlockBegin
  2
*PAPER_SPACE
 70
     0
 10
0.0
 20
0.0
 30
0.0
  3
*PAPER_SPACE
  1

  0
ENDBLK
  5
142
100
AcDbEntity
  8
0
100
AcDbBlockEnd
  0
BLOCK
  5
143
100
AcDbEntity
  8
0
100
AcDbBlockBegin
  2
*PAPER_SPACE0
 70
     0
 10
0.0
 20
0.0
 30
0.0
  3
*PAPER_SPACE0
  1

  0
ENDBLK
  5
144
100
AcDbEntity
  8
0
100
AcDbBlockEnd
  0
BLOCK
  5
2
330
1
100
AcDbEntity
  8
0
100
AcDbBlockBegin
  2
_NONE
 70
     0
 10
0.0
 20
0.0
 30
0.0
  3
_NONE
  1

  0
ENDBLK
  5
3
330
1
100
AcDbEntity
  8
0
100
AcDbBlockEnd
  0
BLOCK
  5
5
330
4
100
AcDbEntity
  8
0
100
AcDbBlockBegin
  2
_CLOSED
 70
     0
 10
0.0
 20
0.0
 30
0.0
  3
_CLOSED
  1

  0
LINE
  5
6
330
4
100
AcDbEntity
  8
0
  6
BYBLOCK
 62
     0
370
    -2
100
AcDbLine
 10
-1.0
 20
0.166667
 30
0.0
 11
0.0
 21
0.0
 31
0.0
  0
LINE
  5
7
330
4
100
AcDbEntity
  8
0
  6
BYBLOCK
 62
     0
370
    -2
100
AcDbLine
 10
0.0
 20
0.0
 30
0.0
 11
-1.0
 21
-0.166667
 31
0.0
  0
LINE
  5
8
330
4
100
AcDbEntity
  8
0
  6
BYBLOCK
 62
     0
370
    -2
100
AcDbLine
 10
-1.0
 20
0.166667
 30
0.0
 11
-1.0
 21
-0.166667
 31
0.0
  0
LINE
  5
9
330
4
100
AcDbEntity
  8
0
  6
BYBLOCK
 62
     0
370
    -2
100
AcDbLine
 10
0.0
 20
0.0
 30
0.0
 11
-1.0
 21
0.0
 31
0.0
  0
ENDBLK
  5
A
330
4
100
AcDbEntity
  8
0
100
AcDbBlockEnd
  0
BLOCK
  5
C
330
B
100
AcDbEntity
  8
0
100
AcDbBlockBegin
  2
_DOT
 70
     0
 10
0.0
 20
0.0
 30
0.0
  3
_DOT
  1

  0
POLYLINE
  5
D
330
B
100
AcDbEntity
  8
0
  6
BYBLOCK
 62
     0
370
    -2
100
AcDb2dPolyline
 66
     1
 10
0.0
 20
0.0
 30
0.0
 70
     1
 40
0.5
 41
0.5
  0
VERTEX
  5
E
330
B
100
AcDbEntity
  8
0
  6
BYBLOCK
 62
     0
370
    -2
100
AcDbVertex
100
AcDb2dVertex
 10
-0.25
 20
0.0
 30
0.0
 42
1.0
  0
VERTEX
  5
F
330
B
100
AcDbEntity
  8
0
  6
BYBLOCK
 62
     0
370
    -2
100
AcDbVertex
100
AcDb2dVertex
 10
0.25
 20
0.0
 30
0.0
 42
1.0
  0
SEQEND
  5
10
330
B
100
AcDbEntity
  8
0
  6
BYBLOCK
 62
     0
370
    -2
  0
LINE
  5
11
330
B
100
AcDbEntity
  8
0
  6
BYBLOCK
 62
     0
370
    -2
100
AcDbLine
 10
-0.5
 20
0.0
 30
0.0
 11
-1.0
 21
0.0
 31
0.0
  0
ENDBLK
  5
12
330
B
100
AcDbEntity
  8
0
100
AcDbBlockEnd
  0
BLOCK
  5
14
330
13
100
AcDbEntity
  8
0
100
AcDbBlockBegin
  2
_OPEN
 70
     0
 10
0.0
 20
0.0
 30
0.0
  3
_OPEN
  1

  0
LINE
  5
15
330
13
100
AcDbEntity
  8
0
  6
BYBLOCK
 62
     0
370
    -2
100
AcDbLine
 10
-1.0
 20
0.166667
 30
0.0
 11
0.0
 21
0.0
 31
0.0
  0
LINE
  5
16
330
13
100
AcDbEntity
  8
0
  6
BYBLOCK
 62
     0
370
    -2
100
AcDbLine
 10
0.0
 20
0.0
 30
0.0
 11
-1.0
 21
-0.166667
 31
0.0
  0
LINE
  5
17
330
13
100
AcDbEntity
  8
0
  6
BYBLOCK
 62
     0
370
    -2
100
AcDbLine
 10
0.0
 20
0.0
 30
0.0
 11
-1.0
 21
0.0
 31
0.0
  0
ENDBLK
  5
18
330
13
100
AcDbEntity
  8
0
100
AcDbBlockEnd
  0
BLOCK
  5
1A
330
19
100
AcDbEntity
  8
0
100
AcDbBlockBegin
  2
_ORIGIN
 70
     0
 10
0.0
 20
0.0
 30
0.0
  3
_ORIGIN
  1

  0
CIRCLE
  5
1B
330
19
100
AcDbEntity
  8
0
  6
BYBLOCK
 62
     0
370
    -2
100
AcDbCircle
 10
0.0
 20
0.0
 30
0.0
 40
0.5
  0
LINE
  5
1C
330
19
100
AcDbEntity
  8
0
  6
BYBLOCK
 62
     0
370
    -2
100
AcDbLine
 10
0.0
 20
0.0
 30
0.0
 11
-1.0
 21
0.0
 31
0.0
  0
ENDBLK
  5
1D
330
19
100
AcDbEntity
  8
0
100
AcDbBlockEnd
  0
BLOCK
  5
1F
330
1E
100
AcDbEntity
  8
0
100
AcDbBlockBegin
  2
_OPEN30
 70
     0
 10
0.0
 20
0.0
 30
0.0
  3
_OPEN30
  1

  0
LINE
  5
20
330
1E
100
AcDbEntity
  8
0
  6
BYBLOCK
 62
     0
370
    -2
100
AcDbLine
 10
-1.0
 20
0.267949
 30
0.0
 11
0.0
 21
0.0
 31
0.0
  0
LINE
  5
21
330
1E
100
AcDbEntity
  8
0
  6
BYBLOCK
 62
     0
370
    -2
100
AcDbLine
 10
0.0
 20
0.0
 30
0.0
 11
-1.0
 21
-0.267949
 31
0.0
  0
LINE
  5
22
330
1E
100
AcDbEntity
  8
0
  6
BYBLOCK
 62
     0
370
    -2
100
AcDbLine
 10
0.0
 20
0.0
 30
0.0
 11
-1.0
 21
0.0
 31
0.0
  0
ENDBLK
  5
23
330
1E
100
AcDbEntity
  8
0
100
AcDbBlockEnd
  0
BLOCK
  5
25
330
24
100
AcDbEntity
  8
0
100
AcDbBlockBegin
  2
_BOXFILLED
 70
     0
 10
0.0
 20
0.0
 30
0.0
  3
_BOXFILLED
  1

  0
SOLID
  5
26
330
24
100
AcDbEntity
  8
0
  6
BYBLOCK
 62
     0
370
    -2
100
AcDbTrace
 10
-0.5
 20
0.5
 30
0.0
 11
0.5
 21
0.5
 31
0.0
 12
-0.5
 22
-0.5
 32
0.0
 13
0.5
 23
-0.5
 33
0.0
  0
LINE
  5
27
330
24
100
AcDbEntity
  8
0
  6
BYBLOCK
 62
     0
370
    -2
100
AcDbLine
 10
-0.5
 20
0.0
 30
0.0
 11
-1.0
 21
0.0
 31
0.0
  0
ENDBLK
  5
28
330
24
100
AcDbEntity
  8
0
100
AcDbBlockEnd
  0
BLOCK
  5
2A
330
29
100
AcDbEntity
  8
0
100
AcDbBlockBegin
  2
_BOXBLANK
 70
     0
 10
0.0
 20
0.0
 30
0.0
  3
_BOXBLANK
  1

  0
LINE
  5
2B
330
29
100
AcDbEntity
  8
0
  6
BYBLOCK
 62
     0
370
    -2
100
AcDbLine
 10
-0.5
 20
-0.5
 30
0.0
 11
0.5
 21
-0.5
 31
0.0
  0
LINE
  5
2C
330
29
100
AcDbEntity
  8
0
  6
BYBLOCK
 62
     0
370
    -2
100
AcDbLine
 10
0.5
 20
-0.5
 30
0.0
 11
0.5
 21
0.5
 31
0.0
  0
LINE
  5
2D
330
29
100
AcDbEntity
  8
0
  6
BYBLOCK
 62
     0
370
    -2
100
AcDbLine
 10
0.5
 20
0.5
 30
0.0
 11
-0.5
 21
0.5
 31
0.0
  0
LINE
  5
2E
330
29
100
AcDbEntity
  8
0
  6
BYBLOCK
 62
     0
370
    -2
100
AcDbLine
 10
-0.5
 20
0.5
 30
0.0
 11
-0.5
 21
-0.5
 31
0.0
  0
LINE
  5
2F
330
29
100
AcDbEntity
  8
0
  6
BYBLOCK
 62
     0
370
    -2
100
AcDbLine
 10
-0.5
 20
0.0
 30
0.0
 11
-1.0
 21
0.0
 31
0.0
  0
ENDBLK
  5
30
330
29
100
AcDbEntity
  8
0
100
AcDbBlockEnd
  0
BLOCK
  5
32
330
31
100
AcDbEntity
  8
0
100
AcDbBlockBegin
  2
_OBLIQUE
 70
     0
 10
0.0
 20
0.0
 30
0.0
  3
_OBLIQUE
  1

  0
LINE
  5
33
330
31
100
AcDbEntity
  8
0
  6
BYBLOCK
 62
     0
370
    -2
100
AcDbLine
 10
-0.5
 20
-0.5
 30
0.0
 11
0.5
 21
0.5
 31
0.0
  0
ENDBLK
  5
34
330
31
100
AcDbEntity
  8
0
100
AcDbBlockEnd
  0
BLOCK
  5
36
330
35
100
AcDbEntity
  8
0
100
AcDbBlockBegin
  2
_OPEN90
 70
     0
 10
0.0
 20
0.0
 30
0.0
  3
_OPEN90
  1

  0
LINE
  5
37
330
35
100
AcDbEntity
  8
0
  6
BYBLOCK
 62
     0
370
    -2
100
AcDbLine
 10
-0.5
 20
0.5
 30
0.0
 11
0.0
 21
0.0
 31
0.0
  0
LINE
  5
38
330
35
100
AcDbEntity
  8
0
  6
BYBLOCK
 62
     0
370
    -2
100
AcDbLine
 10
0.0
 20
0.0
 30
0.0
 11
-0.5
 21
-0.5
 31
0.0
  0
LINE
  5
39
330
35
100
AcDbEntity
  8
0
  6
BYBLOCK
 62
     0
370
    -2
100
AcDbLine
 10
0.0
 20
0.0
 30
0.0
 11
-1.0
 21
0.0
 31
0.0
  0
ENDBLK
  5
3A
330
35
100
AcDbEntity
  8
0
100
AcDbBlockEnd
  0
BLOCK
  5
3C
330
3B
100
AcDbEntity
  8
0
100
AcDbBlockBegin
  2
_CLOSEDBLANK
 70
     0
 10
0.0
 20
0.0
 30
0.0
  3
_CLOSEDBLANK
  1

  0
LINE
  5
3D
330
3B
100
AcDbEntity
  8
0
  6
BYBLOCK
 62
     0
370
    -2
100
AcDbLine
 10
-1.0
 20
0.1666666666666666
 30
0.0
 11
0.0
 21
0.0
 31
0.0
  0
LINE
  5
3E
330
3B
100
AcDbEntity
  8
0
  6
BYBLOCK
 62
     0
370
    -2
100
AcDbLine
 10
0.0
 20
0.0
 30
0.0
 11
-1.0
 21
-0.1666666666666666
 31
0.0
  0
LINE
  5
3F
330
3B
100
AcDbEntity
  8
0
  6
BYBLOCK
 62
     0
370
    -2
100
AcDbLine
 10
-1.0
 20
0.1666666666666666
 30
0.0
 11
-1.0
 21
-0.1666666666666666
 31
0.0
  0
ENDBLK
  5
40
330
3B
100
AcDbEntity
  8
0
100
AcDbBlockEnd
  0
BLOCK
  5
42
330
41
100
AcDbEntity
  8
0
100
AcDbBlockBegin
  2
_DOTBLANK
 70
     0
 10
0.0
 20
0.0
 30
0.0
  3
_DOTBLANK
  1

  0
CIRCLE
  5
43
330
41
100
AcDbEntity
  8
0
  6
BYBLOCK
 62
     0
370
    -2
100
AcDbCircle
 10
0.0
 20
0.0
 30
0.0
 40
0.5
  0
LINE
  5
44
330
41
100
AcDbEntity
  8
0
  6
BYBLOCK
 62
     0
370
    -2
100
AcDbLine
 10
-0.5
 20
0.0
 30
0.0
 11
-1.0
 21
0.0
 31
0.0
  0
ENDBLK
  5
45
330
41
100
AcDbEntity
  8
0
100
AcDbBlockEnd
  0
ENDSEC
  0
SECTION
  2
ENTITIES
  0
MTEXT
  5
46
100
AcDbEntity
  8
A8
  6
CONTINUOUS
 62
7
100
AcDbMText
 10
9.999997526638502
 20
18.00000076076889
 30
0.0000000000000000
 40
3.000000000000000
 41
0.0000000000000000
 44
0.6739999771118164
 71
     7
 72
     1
  1
{\H0.94x;{TYPE No.THA-471-W-1.6}}
 11
1.000000000000000
 21
0.0000000000000000
 31
0.0000000000000000
  7
STANDARD
  0
POINT
  5
47
100
AcDbEntity
  8
A0
  6
CONTINUOUS
 62
5
100
AcDbPoint
 10
9.999997526638502
 20
18.00000076076889
 30
0.0000000000000000
  0
ARC
  5
48
100
AcDbEntity
  8
A4
  6
CONTINUOUS
 62
7
100
AcDbCircle
 10
155.6999999999135
 20
90.39999999960150
 30
0.0000000000000000
 40
0.5000000000000000
100
AcDbArc
 50
0.0000000000000000
 51
90.00000000000000
  0
ARC
  5
49
100
AcDbEntity
  8
A4
  6
CONTINUOUS
 62
7
100
AcDbCircle
 10
64.29999999991357
 20
90.39999999960162
 30
0.0000000000000000
 40
0.5000000000000000
100
AcDbArc
 50
90.00000000000000
 51
180.0000000000001
  0
ARC
  5
4A
100
AcDbEntity
  8
A4
  6
CONTINUOUS
 62
7
100
AcDbCircle
 10
163.9999999999999
 20
115.9999999992283
 30
0.0000000000000000
 40
6.000000000000000
100
AcDbArc
 50
0.0000000000000000
 51
90.00000000000000
  0
ARC
  5
4B
100
AcDbEntity
  8
A4
  6
CONTINUOUS
 62
7
100
AcDbCircle
 10
153.6999999999135
 20
61.39999999960156
 30
0.0000000000000000
 40
2.500000000000000
100
AcDbArc
 50
270.0000000000000
 51
360.0000000000000
  0
ARC
  5
4C
100
AcDbEntity
  8
A4
  6
CONTINUOUS
 62
7
100
AcDbCircle
 10
163.9999999999999
 20
55.99999999999994
 30
0.0000000000000000
 40
6.000000000000000
100
AcDbArc
 50
270.0000000000000
 51
360.0000000000000
  0
ARC
  5
4D
100
AcDbEntity
  8
A4
  6
CONTINUOUS
 62
7
100
AcDbCircle
 10
163.9999999999999
 20
55.99999999999994
 30
0.0000000000000000
 40
1.999999999999953
100
AcDbArc
 50
270.0000000000000
 51
360.0000000000000
  0
ARC
  5
4E
100
AcDbEntity
  8
A4
  6
CONTINUOUS
 62
7
100
AcDbCircle
 10
163.9999999999999
 20
115.9999999992283
 30
0.0000000000000000
 40
1.999999999999953
100
AcDbArc
 50
0.0000000000000000
 51
90.00000000000000
  0
ARC
  5
4F
100
AcDbEntity
  8
A4
  6
CONTINUOUS
 62
7
100
AcDbCircle
 10
55.99999999999999
 20
56.00000000000000
 30
0.0000000000000000
 40
6.000000000000000
100
AcDbArc
 50
180.0000000000000
 51
270.0000000000000
  0
ARC
  5
50
100
AcDbEntity
  8
A4
  6
CONTINUOUS
 62
7
100
AcDbCircle
 10
55.99999999999999
 20
56.00000000000000
 30
0.0000000000000000
 40
1.999999999999953
100
AcDbArc
 50
180.0000000000000
 51
270.0000000000000
  0
ARC
  5
51
100
AcDbEntity
  8
A4
  6
CONTINUOUS
 62
7
100
AcDbCircle
 10
55.99999999999999
 20
115.9999999992283
 30
0.0000000000000000
 40
6.000000000000000
100
AcDbArc
 50
90.00000000000000
 51
180.0000000000000
  0
ARC
  5
52
100
AcDbEntity
  8
A4
  6
CONTINUOUS
 62
7
100
AcDbCircle
 10
55.99999999999999
 20
115.9999999992283
 30
0.0000000000000000
 40
1.999999999999953
100
AcDbArc
 50
90.00000000000000
 51
180.0000000000000
  0
ARC
  5
53
100
AcDbEntity
  8
A4
  6
CONTINUOUS
 62
7
100
AcDbCircle
 10
66.29999999991357
 20
61.39999999960162
 30
0.0000000000000000
 40
2.500000000000000
100
AcDbArc
 50
180.0000000000000
 51
270.0000000000000
  0
LINE
  5
54
100
AcDbEntity
  8
A4
  6
CONTINUOUS
 62
7
100
AcDbLine
 10
63.79999999991360
 20
90.39999999960162
 30
0.0000000000000000
 11
63.79999999991360
 21
61.39999999960161
 31
0.0000000000000000
  0
LINE
  5
55
100
AcDbEntity
  8
A4
  6
CONTINUOUS
 62
7
100
AcDbLine
 10
156.1999999999135
 20
61.39999999960161
 30
0.0000000000000000
 11
156.1999999999135
 21
90.39999999960160
 31
0.0000000000000000
  0
LINE
  5
56
100
AcDbEntity
  8
A4
  6
CONTINUOUS
 62
7
100
AcDbLine
 10
64.29999999991358
 20
90.89999999960162
 30
0.0000000000000000
 11
155.6999999999135
 21
90.89999999960160
 31
0.0000000000000000
  0
LINE
  5
57
100
AcDbEntity
  8
A4
  6
CONTINUOUS
 62
7
100
AcDbLine
 10
169.9999999999999
 20
115.9999999992284
 30
0.0000000000000000
 11
169.9999999999999
 21
55.99999999999999
 31
0.0000000000000000
  0
LINE
  5
58
100
AcDbEntity
  8
A4
  6
CONTINUOUS
 62
7
100
AcDbLine
 10
163.9999999999999
 20
49.99999999999999
 30
0.0000000000000000
 11
56.00000000000001
 21
50.00000000000000
 31
0.0000000000000000
  0
LINE
  5
59
100
AcDbEntity
  8
A4
  6
CONTINUOUS
 62
7
100
AcDbLine
 10
56.00000000000001
 20
54.00000000000000
 30
0.0000000000000000
 11
163.9999999999999
 21
53.99999999999999
 31
0.0000000000000000
  0
LINE
  5
5A
100
AcDbEntity
  8
A4
  6
CONTINUOUS
 62
7
100
AcDbLine
 10
165.9999999999999
 20
55.99999999999994
 30
0.0000000000000000
 11
165.9999999999998
 21
115.9999999992284
 31
0.0000000000000000
  0
LINE
  5
5B
100
AcDbEntity
  8
A4
  6
CONTINUOUS
 62
7
100
AcDbLine
 10
163.9999999999999
 20
117.9999999992284
 30
0.0000000000000000
 11
55.99999999999996
 21
117.9999999992283
 31
0.0000000000000000
  0
LINE
  5
5C
100
AcDbEntity
  8
A4
  6
CONTINUOUS
 62
7
100
AcDbLine
 10
56.00000000000001
 20
121.9999999992284
 30
0.0000000000000000
 11
163.9999999999999
 21
121.9999999992284
 31
0.0000000000000000
  0
LINE
  5
5D
100
AcDbEntity
  8
A4
  6
CONTINUOUS
 62
7
100
AcDbLine
 10
50.00000000000001
 20
56.00000000000000
 30
0.0000000000000000
 11
50.00000000000001
 21
115.9999999992284
 31
0.0000000000000000
  0
LINE
  5
5E
100
AcDbEntity
  8
A4
  6
CONTINUOUS
 62
7
100
AcDbLine
 10
54.00000000000001
 20
115.9999999992284
 30
0.0000000000000000
 11
54.00000000000011
 21
55.99999999999997
 31
0.0000000000000000
  0
LINE
  5
5F
100
AcDbEntity
  8
A4
  6
CONTINUOUS
 62
7
100
AcDbLine
 10
66.29999999991358
 20
58.89999999960161
 30
0.0000000000000000
 11
153.6999999999135
 21
58.89999999960161
 31
0.0000000000000000
  0
LINE
  5
60
100
AcDbEntity
  8
A4
  6
CENTER
 62
1
100
AcDbLine
 10
46.99999999999999
 20
85.99999999954080
 30
0.0000000000000000
 11
172.9999999999999
 21
85.99999999954075
 31
0.0000000000000000
  0
LINE
  5
61
100
AcDbEntity
  8
A4
  6
CENTER
 62
1
100
AcDbLine
 10
109.9999999999999
 20
46.99999999999995
 30
0.0000000000000000
 11
109.9999999999999
 21
124.9999999992283
 31
0.0000000000000000
  0
ARC
  5
62
100
AcDbEntity
  8
A5
  6
CONTINUOUS
 62
7
100
AcDbCircle
 10
66.19999999991369
 20
195.0057630566244
 30
0.0000000000000000
 40
4.000000000000000
100
AcDbArc
 50
90.00000000000000
 51
180.0000000000000
  0
ARC
  5
63
100
AcDbEntity
  8
A5
  6
CONTINUOUS
 62
7
100
AcDbCircle
 10
153.7999999999136
 20
195.0057630566244
 30
0.0000000000000000
 40
4.000000000000000
100
AcDbArc
 50
0.0000000000000000
 51
90.00000000000000
  0
LINE
  5
64
100
AcDbEntity
  8
A5
  6
CONTINUOUS
 62
7
100
AcDbLine
 10
62.19999999991372
 20
191.5057630565772
 30
0.0000000000000000
 11
62.19999999991372
 21
195.0057630566245
 31
0.0000000000000000
  0
LINE
  5
65
100
AcDbEntity
  8
A5
  6
CONTINUOUS
 62
7
100
AcDbLine
 10
157.7999999999136
 20
195.0057630566245
 30
0.0000000000000000
 11
157.7999999999136
 21
191.5057630565772
 31
0.0000000000000000
  0
LINE
  5
66
100
AcDbEntity
  8
A5
  6
CONTINUOUS
 62
7
100
AcDbLine
 10
66.19999999991371
 20
199.0057630566245
 30
0.0000000000000000
 11
153.7999999999136
 21
199.0057630566245
 31
0.0000000000000000
  0
LINE
  5
67
100
AcDbEntity
  8
A5
  6
CONTINUOUS
 62
7
100
AcDbLine
 10
102.9999999998272
 20
184.5057630559845
 30
0.0000000000000000
 11
92.99999999982715
 21
184.5057630559845
 31
0.0000000000000000
  0
LINE
  5
68
100
AcDbEntity
  8
A5
  6
CONTINUOUS
 62
7
100
AcDbLine
 10
102.9999999998272
 20
186.5057630566245
 30
0.0000000000000000
 11
92.99999999982715
 21
186.5057630566245
 31
0.0000000000000000
  0
LINE
  5
69
100
AcDbEntity
  8
A5
  6
CONTINUOUS
 62
7
100
AcDbLine
 10
117.0000000000002
 20
184.5057630559845
 30
0.0000000000000000
 11
127.0000000000002
 21
184.5057630559845
 31
0.0000000000000000
  0
LINE
  5
6A
100
AcDbEntity
  8
A5
  6
CONTINUOUS
 62
7
100
AcDbLine
 10
117.0000000000002
 20
186.5057630566245
 30
0.0000000000000000
 11
127.0000000000002
 21
186.5057630566245
 31
0.0000000000000000
  0
LINE
  5
6B
100
AcDbEntity
  8
A5
  6
CONTINUOUS
 62
7
100
AcDbLine
 10
84.89999999982719
 20
180.7057630566244
 30
0.0000000000000000
 11
84.89999999982719
 21
175.5057630566244
 31
0.0000000000000000
  0
LINE
  5
6C
100
AcDbEntity
  8
A5
  6
CONTINUOUS
 62
7
100
AcDbLine
 10
81.09999999982718
 20
180.7057630566244
 30
0.0000000000000000
 11
81.09999999982718
 21
175.5057630566244
 31
0.0000000000000000
  0
LINE
  5
6D
100
AcDbEntity
  8
A5
  6
CONTINUOUS
 62
7
100
AcDbLine
 10
84.89999999982719
 20
180.7057630566244
 30
0.0000000000000000
 11
81.09999999982718
 21
180.7057630566244
 31
0.0000000000000000
  0
LINE
  5
6E
100
AcDbEntity
  8
A5
  6
CONTINUOUS
 62
7
100
AcDbLine
 10
135.1000000000001
 20
180.7057630566244
 30
0.0000000000000000
 11
135.1000000000001
 21
175.5057630566244
 31
0.0000000000000000
  0
LINE
  5
6F
100
AcDbEntity
  8
A5
  6
CONTINUOUS
 62
7
100
AcDbLine
 10
135.1000000000001
 20
180.7057630566244
 30
0.0000000000000000
 11
138.9000000000001
 21
180.7057630566244
 31
0.0000000000000000
  0
ARC
  5
70
100
AcDbEntity
  8
A5
  6
CONTINUOUS
 62
7
100
AcDbCircle
 10
80.50000000048747
 20
191.0057630565771
 30
0.0000000000000000
 40
0.4999999999999999
100
AcDbArc
 50
0.0000000000000000
 51
90.00000000000000
  0
ARC
  5
71
100
AcDbEntity
  8
A5
  6
CONTINUOUS
 62
7
100
AcDbCircle
 10
85.49999999991606
 20
191.0057630565771
 30
0.0000000000000000
 40
0.5000000000000000
100
AcDbArc
 50
90.00000000000040
 51
180.0000000000000
  0
ARC
  5
72
100
AcDbEntity
  8
A5
  6
CONTINUOUS
 62
7
100
AcDbCircle
 10
134.5000000000837
 20
191.0057630565771
 30
0.0000000000000000
 40
0.4999999999999999
100
AcDbArc
 50
0.0000000000000000
 51
90.00000000000000
  0
ARC
  5
73
100
AcDbEntity
  8
A5
  6
CONTINUOUS
 62
7
100
AcDbCircle
 10
139.4999999995123
 20
191.0057630565771
 30
0.0000000000000000
 40
0.5000000000000000
100
AcDbArc
 50
90.00000000000000
 51
180.0000000000000
  0
LINE
  5
74
100
AcDbEntity
  8
A5
  6
CONTINUOUS
 62
7
100
AcDbLine
 10
127.0999999994974
 20
187.5057630566041
 30
0.0000000000000000
 11
127.0999999995038
 21
183.5057630566041
 31
0.0000000000000000
  0
LINE
  5
75
100
AcDbEntity
  8
A5
  6
CONTINUOUS
 62
7
100
AcDbLine
 10
127.0999999995038
 20
183.5057630566041
 30
0.0000000000000000
 11
116.8999999989323
 21
183.5057630565882
 31
0.0000000000000000
  0
LINE
  5
76
100
AcDbEntity
  8
A5
  6
CONTINUOUS
 62
7
100
AcDbLine
 10
116.8999999989323
 20
183.5057630565881
 30
0.0000000000000000
 11
116.8999999994975
 21
187.5057630565879
 31
0.0000000000000000
  0
LINE
  5
77
100
AcDbEntity
  8
A5
  6
CONTINUOUS
 62
7
100
AcDbLine
 10
103.1000000004874
 20
187.5057630565771
 30
0.0000000000000000
 11
103.0999999999161
 21
183.5057630565772
 31
0.0000000000000000
  0
LINE
  5
78
100
AcDbEntity
  8
A5
  6
CONTINUOUS
 62
7
100
AcDbLine
 10
103.0999999999161
 20
183.5057630565773
 30
0.0000000000000000
 11
92.89999999991598
 21
183.5057630565772
 31
0.0000000000000000
  0
LINE
  5
79
100
AcDbEntity
  8
A5
  6
CONTINUOUS
 62
7
100
AcDbLine
 10
92.89999999991593
 20
183.5057630565770
 30
0.0000000000000000
 11
92.89999999991602
 21
187.5057630565770
 31
0.0000000000000000
  0
LINE
  5
7A
100
AcDbEntity
  8
A5
  6
CONTINUOUS
 62
7
100
AcDbLine
 10
85.49999999991611
 20
191.5057630565772
 30
0.0000000000000000
 11
134.5000000000837
 21
191.5057630565772
 31
0.0000000000000000
  0
LINE
  5
7B
100
AcDbEntity
  8
A5
  6
CONTINUOUS
 62
7
100
AcDbLine
 10
133.5000000000126
 20
177.3057630566137
 30
0.0000000000000000
 11
133.5000000000126
 21
175.5057630566137
 31
0.0000000000000000
  0
LINE
  5
7C
100
AcDbEntity
  8
A5
  6
CONTINUOUS
 62
7
100
AcDbLine
 10
110.7500000000106
 20
177.3057630566137
 30
0.0000000000000000
 11
110.7500000000106
 21
175.5057630566137
 31
0.0000000000000000
  0
LINE
  5
7D
100
AcDbEntity
  8
A5
  6
CONTINUOUS
 62
7
100
AcDbLine
 10
86.49999999998717
 20
177.3057630566137
 30
0.0000000000000000
 11
86.49999999998717
 21
175.5057630566137
 31
0.0000000000000000
  0
LINE
  5
7E
100
AcDbEntity
  8
A5
  6
CONTINUOUS
 62
7
100
AcDbLine
 10
71.50000000000081
 20
175.5057630566137
 30
0.0000000000000000
 11
71.50000000000081
 21
177.3057630566137
 31
0.0000000000000000
  0
LINE
  5
7F
100
AcDbEntity
  8
A5
  6
CONTINUOUS
 62
7
100
AcDbLine
 10
79.50000000001059
 20
175.5057630566137
 30
0.0000000000000000
 11
79.50000000001059
 21
177.3057630566137
 31
0.0000000000000000
  0
LINE
  5
80
100
AcDbEntity
  8
A5
  6
CONTINUOUS
 62
7
100
AcDbLine
 10
140.4999999999892
 20
175.5057630566137
 30
0.0000000000000000
 11
140.4999999999892
 21
177.3057630566137
 31
0.0000000000000000
  0
LINE
  5
81
100
AcDbEntity
  8
A5
  6
CONTINUOUS
 62
7
100
AcDbLine
 10
148.4999999999990
 20
177.3057630566136
 30
0.0000000000000000
 11
148.4999999999998
 21
175.5057630566124
 31
0.0000000000000000
  0
LINE
  5
82
100
AcDbEntity
  8
A5
  6
CONTINUOUS
 62
7
100
AcDbLine
 10
67.99999999999990
 20
177.3057630566399
 30
0.0000000000000000
 11
67.99999999999990
 21
175.5057630566715
 31
0.0000000000000000
  0
LINE
  5
83
100
AcDbEntity
  8
A5
  6
CONTINUOUS
 62
7
100
AcDbLine
 10
66.49999999999990
 20
177.3057630566399
 30
0.0000000000000000
 11
67.99999999999990
 21
177.3057630566399
 31
0.0000000000000000
  0
LINE
  5
84
100
AcDbEntity
  8
A5
  6
CONTINUOUS
 62
7
100
AcDbLine
 10
66.49999999999990
 20
177.3057630566399
 30
0.0000000000000000
 11
66.49999999999990
 21
175.5057630566715
 31
0.0000000000000000
  0
LINE
  5
85
100
AcDbEntity
  8
A5
  6
CONTINUOUS
 62
7
100
AcDbLine
 10
151.9999999999999
 20
177.3057630566399
 30
0.0000000000000000
 11
151.9999999999999
 21
175.5057630566124
 31
0.0000000000000000
  0
LINE
  5
86
100
AcDbEntity
  8
A5
  6
CONTINUOUS
 62
7
100
AcDbLine
 10
153.4999999999999
 20
177.3057630566399
 30
0.0000000000000000
 11
153.4999999999999
 21
175.5057630566715
 31
0.0000000000000000
  0
LINE
  5
87
100
AcDbEntity
  8
A5
  6
CONTINUOUS
 62
7
100
AcDbLine
 10
151.9999999999999
 20
177.3057630566399
 30
0.0000000000000000
 11
153.4999999999999
 21
177.3057630566399
 31
0.0000000000000000
  0
LINE
  5
88
100
AcDbEntity
  8
A5
  6
CONTINUOUS
 62
7
100
AcDbLine
 10
135.0000000000056
 20
177.3057630566133
 30
0.0000000000000000
 11
84.99999999999422
 21
177.3057630566133
 31
0.0000000000000000
  0
LINE
  5
89
100
AcDbEntity
  8
A5
  6
CONTINUOUS
 62
7
100
AcDbLine
 10
81.00000000000352
 20
177.3057630566134
 30
0.0000000000000000
 11
69.99999999999986
 21
177.3057630566133
 31
0.0000000000000000
  0
LINE
  5
8A
100
AcDbEntity
  8
A5
  6
CONTINUOUS
 62
7
100
AcDbLine
 10
149.9999999999998
 20
177.3057630566133
 30
0.0000000000000000
 11
138.9999999999962
 21
177.3057630566134
 31
0.0000000000000000
  0
LINE
  5
8B
100
AcDbEntity
  8
A5
  6
CONTINUOUS
 62
7
100
AcDbLine
 10
148.4999999999997
 20
179.3057630566140
 30
0.0000000000000000
 11
140.4999999999998
 21
179.3057630566140
 31
0.0000000000000000
  0
LINE
  5
8C
100
AcDbEntity
  8
A5
  6
CONTINUOUS
 62
7
100
AcDbLine
 10
79.49999999999996
 20
179.3057630566140
 30
0.0000000000000000
 11
71.50000000000004
 21
179.3057630566140
 31
0.0000000000000000
  0
LINE
  5
8D
100
AcDbEntity
  8
A5
  6
CONTINUOUS
 62
7
100
AcDbLine
 10
133.4999999999999
 20
179.3057630566141
 30
0.0000000000000000
 11
110.7499999999999
 21
179.3057630566140
 31
0.0000000000000000
  0
LINE
  5
8E
100
AcDbEntity
  8
A5
  6
CONTINUOUS
 62
7
100
AcDbLine
 10
109.2499999999999
 20
179.3057630566141
 30
0.0000000000000000
 11
86.49999999999990
 21
179.3057630566141
 31
0.0000000000000000
  0
LINE
  5
8F
100
AcDbEntity
  8
A5
  6
CONTINUOUS
 62
7
100
AcDbLine
 10
169.9999999999999
 20
175.5057630566124
 30
0.0000000000000000
 11
169.9999999999999
 21
172.6911732532387
 31
0.0000000000000000
  0
LINE
  5
90
100
AcDbEntity
  8
A5
  6
CONTINUOUS
 62
7
100
AcDbLine
 10
169.8341640786497
 20
172.4228450959386
 30
0.0000000000000000
 11
166.0633436853998
 21
170.5374348993137
 31
0.0000000000000000
  0
LINE
  5
91
100
AcDbEntity
  8
A5
  6
CONTINUOUS
 62
7
100
AcDbLine
 10
49.99999999999999
 20
172.6911732532389
 30
0.0000000000000000
 11
49.99999999999998
 21
175.5057630566124
 31
0.0000000000000000
  0
ARC
  5
92
100
AcDbEntity
  8
A6
  6
CONTINUOUS
 62
7
100
AcDbCircle
 10
215.5467174269239
 20
72.79999999987024
 30
0.0000000000000000
 40
15.50000000000000
100
AcDbArc
 50
269.9999999993294
 51
360.0000000000000
  0
ARC
  5
93
100
AcDbEntity
  8
A6
  6
CONTINUOUS
 62
7
100
AcDbCircle
 10
227.0467174269239
 20
111.3000000000187
 30
0.0000000000000000
 40
4.000000000000000
100
AcDbArc
 50
0.0000000000000000
 51
90.00000000000000
  0
LINE
  5
94
100
AcDbEntity
  8
A6
  6
CONTINUOUS
 62
7
100
AcDbLine
 10
213.5467174269330
 20
57.29999999985036
 30
0.0000000000000000
 11
215.5467174267424
 21
57.29999999987015
 31
0.0000000000000000
  0
LINE
  5
95
100
AcDbEntity
  8
A6
  6
CONTINUOUS
 62
7
100
AcDbLine
 10
231.0467174269239
 20
72.79999999987025
 30
0.0000000000000000
 11
231.0467174269239
 21
111.3000000000188
 31
0.0000000000000000
  0
LINE
  5
96
100
AcDbEntity
  8
A6
  6
CONTINUOUS
 62
7
100
AcDbLine
 10
227.0467174269238
 20
115.3000000000187
 30
0.0000000000000000
 11
223.5467174268765
 21
115.3000000000187
 31
0.0000000000000000
  0
ARC
  5
97
100
AcDbEntity
  8
A6
  6
CONTINUOUS
 62
7
100
AcDbCircle
 10
214.5467174269315
 20
62.12296703838160
 30
0.0000000000000000
 40
1.000000000000000
100
AcDbArc
 50
111.8014094863696
 51
180.0000000000189
  0
ARC
  5
98
100
AcDbEntity
  8
A6
  6
CONTINUOUS
 62
7
100
AcDbCircle
 10
222.5467174268766
 20
67.47703296121665
 30
0.0000000000000000
 40
1.000000000000000
100
AcDbArc
 50
291.8014094863694
 51
360.0000000000000
  0
LINE
  5
99
100
AcDbEntity
  8
A6
  6
CONTINUOUS
 62
7
100
AcDbLine
 10
212.5467174269336
 20
55.69999999969603
 30
0.0000000000000000
 11
207.5467174269338
 21
55.69999999969421
 31
0.0000000000000000
  0
LINE
  5
9A
100
AcDbEntity
  8
A6
  6
CONTINUOUS
 62
7
100
AcDbLine
 10
212.5467174269338
 20
55.49999999969583
 30
0.0000000000000000
 11
212.5467174269336
 21
55.69999999969593
 31
0.0000000000000000
  0
LINE
  5
9B
100
AcDbEntity
  8
A6
  6
CONTINUOUS
 62
7
100
AcDbLine
 10
210.1467174269344
 20
53.79999999991765
 30
0.0000000000000000
 11
212.5467174269337
 21
55.49999999969584
 31
0.0000000000000000
  0
LINE
  5
9C
100
AcDbEntity
  8
A6
  6
CONTINUOUS
 62
7
100
AcDbLine
 10
209.3467174269346
 20
53.79999999991735
 30
0.0000000000000000
 11
210.1467174269345
 21
53.79999999991774
 31
0.0000000000000000
  0
LINE
  5
9D
100
AcDbEntity
  8
A6
  6
CONTINUOUS
 62
7
100
AcDbLine
 10
209.3467174269344
 20
54.19999999969495
 30
0.0000000000000000
 11
209.3467174269346
 21
53.79999999991735
 31
0.0000000000000000
  0
LINE
  5
9E
100
AcDbEntity
  8
A6
  6
CONTINUOUS
 62
7
100
AcDbLine
 10
207.5467174269118
 20
54.19999999969447
 30
0.0000000000000000
 11
209.3467174269344
 21
54.19999999969483
 31
0.0000000000000000
  0
LINE
  5
9F
100
AcDbEntity
  8
A6
  6
CONTINUOUS
 62
7
100
AcDbLine
 10
209.3467174269393
 20
117.9999999996990
 30
0.0000000000000000
 11
207.5467174269708
 21
117.9999999996990
 31
0.0000000000000000
  0
LINE
  5
A0
100
AcDbEntity
  8
A6
  6
CONTINUOUS
 62
7
100
AcDbLine
 10
214.1753267505770
 20
63.05144372926683
 30
0.0000000000000000
 11
222.9181081032309
 21
66.54855627033152
 31
0.0000000000000000
  0
LINE
  5
A1
100
AcDbEntity
  8
A6
  6
CONTINUOUS
 62
7
100
AcDbLine
 10
204.7321276235380
 20
49.99999999991500
 30
0.0000000000000000
 11
207.5467174269118
 21
49.99999999991500
 31
0.0000000000000000
  0
LINE
  5
A2
100
AcDbEntity
  8
A6
  6
CONTINUOUS
 62
7
100
AcDbLine
 10
202.5783892696130
 20
53.93665631451495
 30
0.0000000000000000
 11
204.4637994662380
 21
50.16583592126506
 31
0.0000000000000000
  0
LINE
  5
A3
100
AcDbEntity
  8
A6
  6
CONTINUOUS
 62
7
100
AcDbLine
 10
204.4637994662381
 20
121.8341640777934
 30
0.0000000000000000
 11
202.5783892696130
 21
118.0633436845432
 31
0.0000000000000000
  0
LINE
  5
A4
100
AcDbEntity
  8
A6
  6
CONTINUOUS
 62
7
100
AcDbLine
 10
207.5467174269118
 20
121.9999999991435
 30
0.0000000000000000
 11
204.7321276235380
 21
121.9999999991435
 31
0.0000000000000000
  0
LINE
  5
A5
100
AcDbEntity
  8
A6
  6
CONTINUOUS
 62
7
100
AcDbLine
 10
204.5467174269130
 20
121.8341640777934
 30
0.0000000000000000
 11
204.5467174269130
 21
50.16583592126504
 31
0.0000000000000000
  0
LINE
  5
A6
100
AcDbEntity
  8
A6
  6
CONTINUOUS
 62
7
100
AcDbLine
 10
207.5467174269118
 20
121.9999999991435
 30
0.0000000000000000
 11
207.5467174269118
 21
49.99999999991500
 31
0.0000000000000000
  0
ARC
  5
A7
100
AcDbEntity
  8
A6
  6
CONTINUOUS
 62
7
100
AcDbCircle
 10
204.7321276235381
 20
121.6999999991434
 30
0.0000000000000000
 40
0.3000000000000000
100
AcDbArc
 50
90.00000000000000
 51
153.4349488229245
  0
LINE
  5
A8
100
AcDbEntity
  8
A6
  6
CONTINUOUS
 62
7
100
AcDbLine
 10
202.5467174269130
 20
117.9291796058933
 30
0.0000000000000000
 11
202.5467174269130
 21
54.07082039316496
 31
0.0000000000000000
  0
ARC
  5
A9
100
AcDbEntity
  8
A6
  6
CONTINUOUS
 62
7
100
AcDbCircle
 10
202.8467174269130
 20
117.9291796058933
 30
0.0000000000000000
 40
0.3000000000000000
100
AcDbArc
 50
153.4349488229232
 51
180.0000000000000
  0
ARC
  5
AA
100
AcDbEntity
  8
A6
  6
CONTINUOUS
 62
7
100
AcDbCircle
 10
202.8467174269130
 20
54.07082039316498
 30
0.0000000000000000
 40
0.3000000000000000
100
AcDbArc
 50
180.0000000000000
 51
206.5650511770804
  0
ARC
  5
AB
100
AcDbEntity
  8
A6
  6
CONTINUOUS
 62
7
100
AcDbCircle
 10
204.7321276235380
 20
50.29999999991503
 30
0.0000000000000000
 40
0.3000000000000000
100
AcDbArc
 50
206.5650511770804
 51
270.0000000000000
  0
LINE
  5
AC
100
AcDbEntity
  8
A6
  6
CONTINUOUS
 62
7
100
AcDbLine
 10
223.5467174268765
 20
116.5207189611609
 30
0.0000000000000000
 11
223.5467174268765
 21
67.47703296121664
 31
0.0000000000000000
  0
LINE
  5
AD
100
AcDbEntity
  8
A6
  6
CONTINUOUS
 62
7
100
AcDbLine
 10
213.5467174269314
 20
62.12296703838128
 30
0.0000000000000000
 11
213.5467174269335
 21
55.90473038937527
 31
0.0000000000000000
  0
LINE
  5
AE
100
AcDbEntity
  8
A5
  6
CONTINUOUS
 62
7
100
AcDbLine
 10
50.16583592135007
 20
172.4228450959389
 30
0.0000000000000000
 11
53.93665631460023
 21
170.5374348993138
 31
0.0000000000000000
  0
LINE
  5
AF
100
AcDbEntity
  8
A5
  6
CONTINUOUS
 62
7
100
AcDbLine
 10
49.99999999999999
 20
175.5057630566124
 30
0.0000000000000000
 11
169.9999999999999
 21
175.5057630566124
 31
0.0000000000000000
  0
ARC
  5
B0
100
AcDbEntity
  8
A5
  6
CONTINUOUS
 62
7
100
AcDbCircle
 10
169.6999999999999
 20
172.6911732532387
 30
0.0000000000000000
 40
0.3000000000000000
100
AcDbArc
 50
296.5650511770780
 51
360.0000000000000
  0
ARC
  5
B1
100
AcDbEntity
  8
A5
  6
CONTINUOUS
 62
7
100
AcDbCircle
 10
165.9291796067499
 20
170.8057630566137
 30
0.0000000000000000
 40
0.3000000000000000
100
AcDbArc
 50
270.0000000000000
 51
296.5650511770780
  0
LINE
  5
B2
100
AcDbEntity
  8
A5
  6
CONTINUOUS
 62
7
100
AcDbLine
 10
50.16583592134999
 20
172.5057630566137
 30
0.0000000000000000
 11
169.8341640786497
 21
172.5057630566137
 31
0.0000000000000000
  0
LINE
  5
B3
100
AcDbEntity
  8
A5
  6
CONTINUOUS
 62
7
100
AcDbLine
 10
54.07082039325019
 20
170.5057630566137
 30
0.0000000000000000
 11
165.9291796067499
 21
170.5057630566136
 31
0.0000000000000000
  0
ARC
  5
B4
100
AcDbEntity
  8
A5
  6
CONTINUOUS
 62
7
100
AcDbCircle
 10
54.07082039325017
 20
170.8057630566137
 30
0.0000000000000000
 40
0.3000000000000000
100
AcDbArc
 50
243.4349488229220
 51
270.0000000000000
  0
ARC
  5
B5
100
AcDbEntity
  8
A5
  6
CONTINUOUS
 62
7
100
AcDbCircle
 10
50.30000000000000
 20
172.6911732532389
 30
0.0000000000000000
 40
0.3000000000000000
100
AcDbArc
 50
180.0000000000000
 51
243.4349488229220
  0
LINE
  5
B6
100
AcDbEntity
  8
A5
  6
CONTINUOUS
 62
7
100
AcDbLine
 10
81.00000000048749
 20
191.0057630565772
 30
0.0000000000000000
 11
81.00000000048669
 21
175.5057630566137
 31
0.0000000000000000
  0
LINE
  5
B7
100
AcDbEntity
  8
A5
  6
CONTINUOUS
 62
7
100
AcDbLine
 10
70.00000000000783
 20
186.2610427686614
 30
0.0000000000000000
 11
69.99999999999984
 21
175.5057630566123
 31
0.0000000000000000
  0
LINE
  5
B8
100
AcDbEntity
  8
A5
  6
CONTINUOUS
 62
7
100
AcDbLine
 10
71.50000000000075
 20
186.2610427686589
 30
0.0000000000000000
 11
71.49999999999999
 21
179.3057630566141
 31
0.0000000000000000
  0
LINE
  5
B9
100
AcDbEntity
  8
A5
  6
CONTINUOUS
 62
7
100
AcDbLine
 10
79.50000000001056
 20
186.2610427686456
 30
0.0000000000000000
 11
79.49999999999990
 21
179.3057630566140
 31
0.0000000000000000
  0
LINE
  5
BA
100
AcDbEntity
  8
A5
  6
CONTINUOUS
 62
7
100
AcDbLine
 10
84.99999999991604
 20
191.0057630565772
 30
0.0000000000000000
 11
84.99999999999417
 21
175.5057630566137
 31
0.0000000000000000
  0
LINE
  5
BB
100
AcDbEntity
  8
A5
  6
CONTINUOUS
 62
7
100
AcDbLine
 10
86.49999999998711
 20
186.2610427686338
 30
0.0000000000000000
 11
86.49999999999986
 21
179.3057630566140
 31
0.0000000000000000
  0
LINE
  5
BC
100
AcDbEntity
  8
A5
  6
CONTINUOUS
 62
7
100
AcDbLine
 10
109.2499999999892
 20
186.2610427685960
 30
0.0000000000000000
 11
109.2499999999999
 21
179.3057630566141
 31
0.0000000000000000
  0
LINE
  5
BD
100
AcDbEntity
  8
A5
  6
CONTINUOUS
 62
7
100
AcDbLine
 10
109.2499999999892
 20
177.3057630566137
 30
0.0000000000000000
 11
109.2499999999892
 21
175.5057630566137
 31
0.0000000000000000
  0
LINE
  5
BE
100
AcDbEntity
  8
A5
  6
CONTINUOUS
 62
7
100
AcDbLine
 10
110.7500000000105
 20
186.2610427685935
 30
0.0000000000000000
 11
110.7499999999999
 21
179.3057630566140
 31
0.0000000000000000
  0
LINE
  5
BF
100
AcDbEntity
  8
A5
  6
CONTINUOUS
 62
7
100
AcDbLine
 10
102.9999999998272
 20
187.5057630566245
 30
0.0000000000000000
 11
102.9999999998272
 21
184.5057630559845
 31
0.0000000000000000
  0
LINE
  5
C0
100
AcDbEntity
  8
A5
  6
CONTINUOUS
 62
7
100
AcDbLine
 10
92.99999999982710
 20
187.5057630566245
 30
0.0000000000000000
 11
92.99999999982710
 21
184.5057630559845
 31
0.0000000000000000
  0
LINE
  5
C1
100
AcDbEntity
  8
A5
  6
CONTINUOUS
 62
7
100
AcDbLine
 10
92.89999999991603
 20
187.5057630565771
 30
0.0000000000000000
 11
103.1000000004874
 21
187.5057630565771
 31
0.0000000000000000
  0
LINE
  5
C2
100
AcDbEntity
  8
A5
  6
CONTINUOUS
 62
7
100
AcDbLine
 10
117.0000000000001
 20
187.5057630566245
 30
0.0000000000000000
 11
117.0000000000001
 21
184.5057630559845
 31
0.0000000000000000
  0
LINE
  5
C3
100
AcDbEntity
  8
A5
  6
CONTINUOUS
 62
7
100
AcDbLine
 10
127.0000000000002
 20
187.5057630566245
 30
0.0000000000000000
 11
127.0000000000002
 21
184.5057630559845
 31
0.0000000000000000
  0
LINE
  5
C4
100
AcDbEntity
  8
A5
  6
CONTINUOUS
 62
7
100
AcDbLine
 10
116.8999999994975
 20
187.5057630565879
 30
0.0000000000000000
 11
127.0999999994974
 21
187.5057630566040
 31
0.0000000000000000
  0
LINE
  5
C5
100
AcDbEntity
  8
A5
  6
CONTINUOUS
 62
7
100
AcDbLine
 10
133.5000000000126
 20
186.2610427685557
 30
0.0000000000000000
 11
133.4999999999999
 21
179.3057630566141
 31
0.0000000000000000
  0
LINE
  5
C6
100
AcDbEntity
  8
A5
  6
CONTINUOUS
 62
7
100
AcDbLine
 10
135.0000000000836
 20
191.0057630565772
 30
0.0000000000000000
 11
135.0000000000055
 21
175.5057630566137
 31
0.0000000000000000
  0
LINE
  5
C7
100
AcDbEntity
  8
A5
  6
CONTINUOUS
 62
7
100
AcDbLine
 10
138.9000000000002
 20
180.7057630566244
 30
0.0000000000000000
 11
138.9000000000002
 21
175.5057630566244
 31
0.0000000000000000
  0
LINE
  5
C8
100
AcDbEntity
  8
A5
  6
CONTINUOUS
 62
7
100
AcDbLine
 10
138.9999999995123
 20
191.0057630565772
 30
0.0000000000000000
 11
138.9999999999963
 21
175.5057630566137
 31
0.0000000000000000
  0
LINE
  5
C9
100
AcDbEntity
  8
A5
  6
CONTINUOUS
 62
7
100
AcDbLine
 10
140.4999999999892
 20
186.2610427685439
 30
0.0000000000000000
 11
140.4999999999998
 21
179.3057630566140
 31
0.0000000000000000
  0
LINE
  5
CA
100
AcDbEntity
  8
A5
  6
CONTINUOUS
 62
7
100
AcDbLine
 10
148.4999999999990
 20
186.2610427685307
 30
0.0000000000000000
 11
148.4999999999998
 21
179.3057630566141
 31
0.0000000000000000
  0
LINE
  5
CB
100
AcDbEntity
  8
A5
  6
CONTINUOUS
 62
7
100
AcDbLine
 10
149.9999999999919
 20
186.2610427685282
 30
0.0000000000000000
 11
149.9999999999919
 21
175.5057630566136
 31
0.0000000000000000
  0
LINE
  5
CC
100
AcDbEntity
  8
A5
  6
CONTINUOUS
 62
7
100
AcDbLine
 10
139.4999999995123
 20
191.5057630565773
 30
0.0000000000000000
 11
159.0207189612299
 21
191.5057630565772
 31
0.0000000000000000
  0
LINE
  5
CD
100
AcDbEntity
  8
A6
  6
CENTER
 62
1
100
AcDbLine
 10
234.0467174269238
 20
85.99999999945763
 30
0.0000000000000000
 11
199.5467174269130
 21
85.99999999956583
 31
0.0000000000000000
  0
LINE
  5
CE
100
AcDbEntity
  8
A5
  6
CENTER
 62
1
100
AcDbLine
 10
110.0000000000079
 20
202.0057630566246
 30
0.0000000000000000
 11
109.9999999999931
 21
167.5057630566137
 31
0.0000000000000000
  0
LINE
  5
CF
100
AcDbEntity
  8
A8
  6
DASHED
 62
4
100
AcDbLine
 10
206.5467174269579
 20
113.2000000000190
 30
0.0000000000000000
 11
206.5467174269579
 21
93.39999999951671
 31
0.0000000000000000
  0
ARC
  5
D0
100
AcDbEntity
  8
A8
  6
DASHED
 62
4
100
AcDbCircle
 10
207.0467174269580
 20
113.2000000000190
 30
0.0000000000000000
 40
0.5000000000000000
100
AcDbArc
 50
89.99999999980459
 51
180.0000000000000
  0
LINE
  5
D1
100
AcDbEntity
  8
A8
  6
DASHED
 62
4
100
AcDbLine
 10
207.5467174269239
 20
113.8000000000188
 30
0.0000000000000000
 11
227.0467174269240
 21
113.8000000000188
 31
0.0000000000000000
  0
ARC
  5
D2
100
AcDbEntity
  8
A8
  6
DASHED
 62
4
100
AcDbCircle
 10
227.0467174269240
 20
111.3000000000188
 30
0.0000000000000000
 40
2.500000000000000
100
AcDbArc
 50
2.544443745170813e-13
 51
90.00000000000000
  0
LINE
  5
D3
100
AcDbEntity
  8
A8
  6
DASHED
 62
4
100
AcDbLine
 10
229.5467174269240
 20
111.3000000000188
 30
0.0000000000000000
 11
229.5467174269240
 21
72.79999999987022
 31
0.0000000000000000
  0
ARC
  5
D4
100
AcDbEntity
  8
A8
  6
DASHED
 62
4
100
AcDbCircle
 10
215.5467174269240
 20
72.79999999987024
 30
0.0000000000000000
 40
14.00000000000000
100
AcDbArc
 50
270.0000000000000
 51
360.0000000000000
  0
LINE
  5
D5
100
AcDbEntity
  8
A8
  6
DASHED
 62
4
100
AcDbLine
 10
215.5467174269240
 20
58.79999999987020
 30
0.0000000000000000
 11
207.5467174269386
 21
58.79999999994821
 31
0.0000000000000000
  0
ARC
  5
D6
100
AcDbEntity
  8
A8
  6
DASHED
 62
4
100
AcDbCircle
 10
204.0467174269580
 20
93.39999999951669
 30
0.0000000000000000
 40
2.500000000000000
100
AcDbArc
 50
270.0000000000000
 51
360.0000000000000
  0
ARC
  5
D7
100
AcDbEntity
  8
A8
  6
DASHED
 62
4
100
AcDbCircle
 10
204.0467174269214
 20
92.39999999951669
 30
0.0000000000000000
 40
1.500000000000000
100
AcDbArc
 50
179.9999999999999
 51
270.0000000013961
  0
LINE
  5
D8
100
AcDbEntity
  8
A8
  6
DASHED
 62
4
100
AcDbLine
 10
207.5467174269118
 20
58.89999999951668
 30
0.0000000000000000
 11
204.0467174269214
 21
58.89999999951668
 31
0.0000000000000000
  0
ARC
  5
D9
100
AcDbEntity
  8
A8
  6
DASHED
 62
4
100
AcDbCircle
 10
204.0467174269214
 20
57.39999999951669
 30
0.0000000000000000
 40
1.500000000000000
100
AcDbArc
 50
90.00000000000000
 51
180.0000000000000
  0
LINE
  5
DA
100
AcDbEntity
  8
A10
  6
DASHED
 62
4
100
AcDbLine
 10
207.0467174269580
 20
113.7000000000190
 30
0.0000000000000000
 11
207.5467174269114
 21
113.7000000000189
 31
0.0000000000000000
  0
SPLINE
  5
DB
100
AcDbEntity
  8
A10
  6
CONTINUOUS
 62
1
100
AcDbSpline
210
0.0000000000000000
220
0.0000000000000000
230
1.000000000000000
 70
     8
 71
     3
 72
    14
 73
    10
 74
     0
 42
1.000000000000000e-07
 43
1.000000000000000e-07
 12
-0.07591081213098505
 22
0.4614322213025162
 32
0.0000000000000000
 13
-0.1749519482623043
 23
0.5557977892825079
 33
0.0000000000000000
 40
0.0000000000000000
 40
0.0000000000000000
 40
0.0000000000000000
 40
0.0000000000000000
 40
0.9787225031288583
 40
1.783528369678147
 40
3.329212828823942
 40
4.141089277721550
 40
5.806138909442626
 40
7.148920635549446
 40
8.145569685654769
 40
8.145569685654769
 40
8.145569685654769
 40
8.145569685654769
 10
70.76605970221893
 20
114.8406428252259
 30
0.0000000000000000
 10
70.74129449553114
 20
114.9911808581117
 30
0.0000000000000000
 10
70.69616479986423
 20
115.2655066772374
 30
0.0000000000000000
 10
70.74766396576986
 20
115.9941208999070
 30
0.0000000000000000
 10
71.99822637682071
 20
115.2743076917887
 30
0.0000000000000000
 10
70.69562988222670
 20
115.6178764998181
 30
0.0000000000000000
 10
72.09112396597602
 20
114.7516063255561
 30
0.0000000000000000
 10
70.96061092394321
 20
114.2225808944469
 30
0.0000000000000000
 10
70.82418159990216
 20
114.6559977123129
 30
0.0000000000000000
 10
70.76605970221893
 20
114.8406428252259
 30
0.0000000000000000
  0
SPLINE
  5
DC
100
AcDbEntity
  8
A10
  6
CONTINUOUS
 62
1
100
AcDbSpline
210
0.0000000000000000
220
0.0000000000000000
230
1.000000000000000
 70
     8
 71
     3
 72
    12
 73
     8
 74
     0
 42
1.000000000000000e-07
 43
1.000000000000000e-07
 12
-0.2166539913170880
 22
-0.6564007652682733
 32
0.0000000000000000
 13
0.4394867800377256
 23
-0.2048344752288358
 33
0.0000000000000000
 40
0.0000000000000000
 40
0.0000000000000000
 40
0.0000000000000000
 40
0.0000000000000000
 40
1.437811610078280
 40
2.395586377864828
 40
2.995162730171498
 40
4.609016324049298
 40
5.554425788836191
 40
5.554425788836191
 40
5.554425788836191
 40
5.554425788836191
 10
69.32453190958161
 20
115.3271908015116
 30
0.0000000000000000
 10
69.22069603488644
 20
115.0125972544559
 30
0.0000000000000000
 10
69.04769158478344
 20
114.4884423438903
 30
0.0000000000000000
 10
68.61356000356098
 20
114.9783966702149
 30
0.0000000000000000
 10
67.90880286604495
 20
114.8430504302177
 30
0.0000000000000000
 10
68.81111282877562
 20
115.5664833872416
 30
0.0000000000000000
 10
69.18603358908281
 20
115.3917416187102
 30
0.0000000000000000
 10
69.32453190958161
 20
115.3271908015116
 30
0.0000000000000000
  0
SPLINE
  5
DD
100
AcDbEntity
  8
A10
  6
CONTINUOUS
 62
1
100
AcDbSpline
210
0.0000000000000000
220
0.0000000000000000
230
1.000000000000000
 70
     8
 71
     3
 72
    14
 73
    10
 74
     0
 42
1.000000000000000e-07
 43
1.000000000000000e-07
 12
-0.1494323208519290
 22
0.5030211482595632
 32
0.0000000000000000
 13
-0.1273368194590034
 23
0.5944567789092616
 33
0.0000000000000000
 40
0.0000000000000000
 40
0.0000000000000000
 40
0.0000000000000000
 40
0.0000000000000000
 40
0.5571443088701327
 40
1.036440542161265
 40
1.455887361762801
 40
2.267763494741168
 40
3.187944610203516
 40
4.155960148063572
 40
4.606326675375718
 40
4.606326675375718
 40
4.606326675375718
 40
4.606326675375718
 10
70.59096703997746
 20
113.7926930522976
 30
0.0000000000000000
 10
70.56321525093615
 20
113.8861115089624
 30
0.0000000000000000
 10
70.51158934572284
 20
114.0598953461692
 30
0.0000000000000000
 10
70.69823708326756
 20
114.2879825120154
 30
0.0000000000000000
 10
70.34868040360693
 20
114.5850120700783
 30
0.0000000000000000
 10
70.99727949853043
 20
114.3109501040768
 30
0.0000000000000000
 10
71.17823573761389
 20
113.9096958461965
 30
0.0000000000000000
 10
70.67028720735568
 20
113.4223962960043
 30
0.0000000000000000
 10
70.61008312037036
 20
113.7034519072461
 30
0.0000000000000000
 10
70.59096703997746
 20
113.7926930522976
 30
0.0000000000000000
  0
SPLINE
  5
DE
100
AcDbEntity
  8
A10
  6
CONTINUOUS
 62
1
100
AcDbSpline
210
0.0000000000000000
220
0.0000000000000000
230
1.000000000000000
 70
     8
 71
     3
 72
    15
 73
    11
 74
     0
 42
1.000000000000000e-07
 43
1.000000000000000e-07
 12
-0.6893704521356483
 22
0.2865688758712963
 32
0.0000000000000000
 13
-0.5464919106649404
 23
-0.1764191847485108
 33
0.0000000000000000
 40
0.0000000000000000
 40
0.0000000000000000
 40
0.0000000000000000
 40
0.0000000000000000
 40
1.547278782900274
 40
3.072307287326454
 40
4.123673921230293
 40
5.195413438639240
 40
7.459754900589280
 40
8.234334857603814
 40
9.512468443045469
 40
9.879480059204450
 40
9.879480059204450
 40
9.879480059204450
 40
9.879480059204450
 10
67.59371441790934
 20
112.7892555088020
 30
0.0000000000000000
 10
67.23816499319339
 20
112.9370561559604
 30
0.0000000000000000
 10
66.53217903860566
 20
113.2305320378472
 30
0.0000000000000000
 10
67.62452839210330
 20
113.2189746191989
 30
0.0000000000000000
 10
68.20130902381545
 20
113.6857892024556
 30
0.0000000000000000
 10
68.46977108483800
 20
112.8327483377425
 30
0.0000000000000000
 10
68.42752385068793
 20
111.6056724894999
 30
0.0000000000000000
 10
67.78277362500178
 20
112.2424404880119
 30
0.0000000000000000
 10
67.96025689254130
 20
112.9075831972604
 30
0.0000000000000000
 10
67.66057071102632
 20
112.8108381388407
 30
0.0000000000000000
 10
67.59371441790934
 20
112.7892555088020
 30
0.0000000000000000
  0
SPLINE
  5
DF
100
AcDbEntity
  8
A10
  6
CONTINUOUS
 62
1
100
AcDbSpline
210
0.0000000000000000
220
0.0000000000000000
230
1.000000000000000
 70
     8
 71
     3
 72
    15
 73
    11
 74
     0
 42
1.000000000000000e-07
 43
1.000000000000000e-07
 12
-0.3011790336508966
 22
0.6485493129913493
 32
0.0000000000000000
 13
-0.3038075720808422
 23
0.5973233005659040
 33
0.0000000000000000
 40
0.0000000000000000
 40
0.0000000000000000
 40
0.0000000000000000
 40
0.0000000000000000
 40
1.401341084807380
 40
3.256802983785870
 40
5.186399225547176
 40
7.287638078970287
 40
8.639071352665045
 40
9.883893069359308
 40
11.24301593038800
 40
12.33382516141846
 40
12.33382516141846
 40
12.33382516141846
 40
12.33382516141846
 10
67.52634612236007
 20
111.2248168025325
 30
0.0000000000000000
 10
67.38566127111422
 20
111.5277630684720
 30
0.0000000000000000
 10
67.05870101263152
 20
112.2318288476994
 30
0.0000000000000000
 10
68.30113311014061
 20
111.2659726823084
 30
0.0000000000000000
 10
69.22029134125553
 20
112.6237268305012
 30
0.0000000000000000
 10
69.24423620729688
 20
111.1786390113352
 30
0.0000000000000000
 10
68.27673763394405
 20
110.2766171887919
 30
0.0000000000000000
 10
68.58522431379500
 20
111.7228824930519
 30
0.0000000000000000
 10
67.88491413060508
 20
110.5198277046799
 30
0.0000000000000000
 10
67.63681149038764
 20
111.0076282124769
 30
0.0000000000000000
 10
67.52634612236007
 20
111.2248168025325
 30
0.0000000000000000
  0
SPLINE
  5
E0
100
AcDbEntity
  8
A10
  6
CONTINUOUS
 62
1
100
AcDbSpline
210
0.0000000000000000
220
0.0000000000000000
230
1.000000000000000
 70
     8
 71
     3
 72
    15
 73
    11
 74
     0
 42
1.000000000000000e-07
 43
1.000000000000000e-07
 12
0.2508042990936872
 22
0.4057242501363589
 32
0.0000000000000000
 13
0.5507795595941047
 23
0.3631257408388251
 33
0.0000000000000000
 40
0.0000000000000000
 40
0.0000000000000000
 40
0.0000000000000000
 40
0.0000000000000000
 40
1.212996784253355
 40
2.274967410824405
 40
3.790635971675303
 40
4.460146340469033
 40
5.269811747789930
 40
7.190268604786363
 40
8.393898480074260
 40
9.055664412636933
 40
9.055664412636933
 40
9.055664412636933
 40
9.055664412636933
 10
69.92599938904102
 20
109.6678630499834
 30
0.0000000000000000
 10
70.02740765846688
 20
109.8319104535531
 30
0.0000000000000000
 10
70.21759819411120
 20
110.1395802691669
 30
0.0000000000000000
 10
70.19920476050704
 20
111.0142858849545
 30
0.0000000000000000
 10
71.41713548128571
 20
110.3254114591580
 30
0.0000000000000000
 10
70.45908605924747
 20
110.1407817656561
 30
0.0000000000000000
 10
71.62147345351953
 20
109.9871645616994
 30
0.0000000000000000
 10
70.41988145903208
 20
109.5197346781290
 30
0.0000000000000000
 10
69.46202971223848
 20
109.3619705569144
 30
0.0000000000000000
 10
69.80450367274393
 20
109.5877616351422
 30
0.0000000000000000
 10
69.92599938904102
 20
109.6678630499834
 30
0.0000000000000000
  0
SPLINE
  5
E1
100
AcDbEntity
  8
A10
  6
CONTINUOUS
 62
1
100
AcDbSpline
210
0.0000000000000000
220
0.0000000000000000
230
1.000000000000000
 70
     8
 71
     3
 72
    14
 73
    10
 74
     0
 42
1.000000000000000e-07
 43
1.000000000000000e-07
 12
-0.2342045331462259
 22
-0.4006469908046029
 32
0.0000000000000000
 13
-0.6999520235848422
 23
-0.1023363618781445
 33
0.0000000000000000
 40
0.0000000000000000
 40
0.0000000000000000
 40
0.0000000000000000
 40
0.0000000000000000
 40
0.7900502899259934
 40
1.720163378593611
 40
2.113126752931555
 40
2.861811788597586
 40
3.671477037526894
 40
4.714066134324685
 40
5.522484538741952
 40
5.522484538741952
 40
5.522484538741952
 40
5.522484538741952
 10
69.65652620684382
 20
111.3595531080875
 30
0.0000000000000000
 10
69.59484842040577
 20
111.2540426843398
 30
0.0000000000000000
 10
69.46055840006632
 20
111.0243165905645
 30
0.0000000000000000
 10
69.32695205198748
 20
110.5366544252051
 30
0.0000000000000000
 10
69.68374121596214
 20
110.4734764772481
 30
0.0000000000000000
 10
70.18698849459209
 20
110.4059297050417
 30
0.0000000000000000
 10
69.67967978495945
 20
110.9175947372201
 30
0.0000000000000000
 10
70.27701638825074
 20
111.4502717653763
 30
0.0000000000000000
 10
69.84514423953551
 20
111.3871299742153
 30
0.0000000000000000
 10
69.65652620684382
 20
111.3595531080875
 30
0.0000000000000000
  0
SPLINE
  5
E2
100
AcDbEntity
  8
A10
  6
CONTINUOUS
 62
1
100
AcDbSpline
210
0.0000000000000000
220
0.0000000000000000
230
1.000000000000000
 70
     8
 71
     3
 72
    13
 73
     9
 74
     0
 42
1.000000000000000e-07
 43
1.000000000000000e-07
 12
0.03331976716626173
 22
0.5691097191178187
 32
0.0000000000000000
 13
-0.3237396280936764
 23
0.2902369608999606
 33
0.0000000000000000
 40
0.0000000000000000
 40
0.0000000000000000
 40
0.0000000000000000
 40
0.0000000000000000
 40
0.8246127393565452
 40
1.962780125931454
 40
3.450916906357687
 40
4.395971081732740
 40
6.225340313061069
 40
7.315224388033089
 40
7.315224388033089
 40
7.315224388033089
 40
7.315224388033089
 10
69.38705359573380
 20
112.5272681369559
 30
0.0000000000000000
 10
69.39621223055970
 20
112.6836998451146
 30
0.0000000000000000
 10
69.41801202282473
 20
113.0560455938342
 30
0.0000000000000000
 10
70.30108264093595
 20
112.9878063097317
 30
0.0000000000000000
 10
70.17736669831011
 20
112.2966391640331
 30
0.0000000000000000
 10
71.00891659079203
 20
111.6417946521253
 30
0.0000000000000000
 10
69.81969247733055
 20
112.1394015204989
 30
0.0000000000000000
 10
69.50466648409936
 20
112.4218265897381
 30
0.0000000000000000
 10
69.38705359573380
 20
112.5272681369559
 30
0.0000000000000000
  0
LINE
  5
E3
100
AcDbEntity
  8
A6
  6
CONTINUOUS
 62
7
100
AcDbLine
 10
209.3467174269393
 20
116.8000000000221
 30
0.0000000000000000
 11
209.3467174269136
 21
119.0999999991267
 31
0.0000000000000000
  0
LINE
  5
E4
100
AcDbEntity
  8
A5
  6
CONTINUOUS
 62
7
100
AcDbLine
 10
159.3000000000808
 20
175.5057630566713
 30
0.0000000000000000
 11
159.0207189612299
 21
191.5057630565770
 31
0.0000000000000000
  0
LINE
  5
E5
100
AcDbEntity
  8
A5
  6
CONTINUOUS
 62
7
100
AcDbLine
 10
60.69999999991217
 20
175.5057630567136
 30
0.0000000000000000
 11
60.97928103877677
 21
191.5057630566191
 31
0.0000000000000000
  0
LINE
  5
E6
100
AcDbEntity
  8
A5
  6
CONTINUOUS
 62
7
100
AcDbLine
 10
60.97928103877602
 20
191.5057630565772
 30
0.0000000000000000
 11
80.50000000048750
 21
191.5057630565772
 31
0.0000000000000000
  0
LINE
  5
E7
100
AcDbEntity
  8
A6
  6
CONTINUOUS
 62
7
100
AcDbLine
 10
207.5467174269708
 20
55.79999999981129
 30
0.0000000000000000
 11
213.5467174269334
 21
55.90473038937529
 31
0.0000000000000000
  0
ARC
  5
E8
100
AcDbEntity
  8
A6
  6
CONTINUOUS
 62
7
100
AcDbCircle
 10
210.8467174269128
 20
119.0999999991435
 30
0.0000000000000000
 40
1.500000000000000
100
AcDbArc
 50
90.00000000000101
 51
180.0000000000138
  0
LINE
  5
E9
100
AcDbEntity
  8
A6
  6
CONTINUOUS
 62
7
100
AcDbLine
 10
212.5253970833527
 20
120.5999999991435
 30
0.0000000000000000
 11
210.8467174269128
 21
120.5999999991435
 31
0.0000000000000000
  0
ARC
  5
EA
100
AcDbEntity
  8
A6
  6
CONTINUOUS
 62
7
100
AcDbCircle
 10
212.5253970833528
 20
119.0999999991435
 30
0.0000000000000000
 40
1.500000000000000
100
AcDbArc
 50
44.99999999999424
 51
90.00000000000203
  0
LINE
  5
EB
100
AcDbEntity
  8
A6
  6
CONTINUOUS
 62
7
100
AcDbLine
 10
216.5423305327141
 20
117.2043868933419
 30
0.0000000000000000
 11
213.5860572551327
 21
120.1606601709231
 31
0.0000000000000000
  0
ARC
  5
EC
100
AcDbEntity
  8
A6
  6
CONTINUOUS
 62
7
100
AcDbCircle
 10
217.9565440950870
 20
118.6186004557150
 30
0.0000000000000000
 40
2.000000000000000
100
AcDbArc
 50
225.0000000000032
 51
269.0000000000000
  0
LINE
  5
ED
100
AcDbEntity
  8
A6
  6
CONTINUOUS
 62
7
100
AcDbLine
 10
223.5467174268766
 20
116.5207189611609
 30
0.0000000000000000
 11
207.5467174269708
 21
116.8000000000217
 31
0.0000000000000000
  0
ARC
  5
EE
100
AcDbEntity
  8
A9
  6
CONTINUOUS
 62
7
100
AcDbCircle
 10
58.59999999965372
 20
184.8228486535318
 30
0.0000000000000000
 40
2.000000000000000
100
AcDbArc
 50
341.9822980023149
 51
360.0000000000065
  0
ARC
  5
EF
100
AcDbEntity
  8
A9
  6
CONTINUOUS
 62
7
100
AcDbCircle
 10
59.69999999981006
 20
178.5057630565770
 30
0.0000000000000000
 40
1.000000000000000
100
AcDbArc
 50
161.9822980021608
 51
270.0000000000000
  0
LINE
  5
F0
100
AcDbEntity
  8
A9
  6
CONTINUOUS
 62
7
100
AcDbLine
 10
58.74903900222289
 20
178.8150738728572
 30
0.0000000000000000
 11
60.50192199487957
 21
184.2042270209605
 31
0.0000000000000000
  0
LINE
  5
F1
100
AcDbEntity
  8
A9
  6
CONTINUOUS
 62
7
100
AcDbLine
 10
60.59999999965461
 20
177.5057630565769
 30
0.0000000000000000
 11
59.69999999981003
 21
177.5057630565769
 31
0.0000000000000000
  0
LINE
  5
F2
100
AcDbEntity
  8
A9
  6
CONTINUOUS
 62
7
100
AcDbLine
 10
60.59999999965471
 20
176.5057630565769
 30
0.0000000000000000
 11
60.59999999965459
 21
177.5057630565769
 31
0.0000000000000000
  0
LINE
  5
F3
100
AcDbEntity
  8
A9
  6
CONTINUOUS
 62
7
100
AcDbLine
 10
60.59999999965468
 20
176.5057630565770
 30
0.0000000000000000
 11
60.71745506478809
 21
176.5057630565803
 31
0.0000000000000000
  0
LINE
  5
F4
100
AcDbEntity
  8
A9
  6
CONTINUOUS
 62
7
100
AcDbLine
 10
60.59999999965336
 20
189.5057630565772
 30
0.0000000000000000
 11
60.94437090888831
 21
189.5057630565772
 31
0.0000000000000000
  0
LINE
  5
F5
100
AcDbEntity
  8
A9
  6
CONTINUOUS
 62
7
100
AcDbLine
 10
60.89200571410353
 20
186.5057630565772
 30
0.0000000000000000
 11
60.59999999965375
 21
186.5057630565772
 31
0.0000000000000000
  0
LINE
  5
F6
100
AcDbEntity
  8
A9
  6
CONTINUOUS
 62
7
100
AcDbLine
 10
60.59999999965374
 20
184.8228486535320
 30
0.0000000000000000
 11
60.59999999965328
 21
189.5057630565771
 31
0.0000000000000000
  0
ARC
  5
F7
100
AcDbEntity
  8
A9
  6
CONTINUOUS
 62
7
100
AcDbCircle
 10
161.4000000003473
 20
184.8228486534877
 30
0.0000000000000000
 40
2.000000000000000
100
AcDbArc
 50
179.9999999999443
 51
198.0177019976360
  0
ARC
  5
F8
100
AcDbEntity
  8
A9
  6
CONTINUOUS
 62
7
100
AcDbCircle
 10
160.3000000001855
 20
178.5057630565338
 30
0.0000000000000000
 40
1.000000000000000
100
AcDbArc
 50
269.9999999999508
 51
378.0177019977900
  0
LINE
  5
F9
100
AcDbEntity
  8
A9
  6
CONTINUOUS
 62
7
100
AcDbLine
 10
161.2509609977731
 20
178.8150738728132
 30
0.0000000000000000
 11
159.4980780051210
 21
184.2042270209179
 31
0.0000000000000000
  0
LINE
  5
FA
100
AcDbEntity
  8
A9
  6
CONTINUOUS
 62
7
100
AcDbLine
 10
159.4000000003402
 20
177.5057630565345
 30
0.0000000000000000
 11
160.3000000001848
 21
177.5057630565338
 31
0.0000000000000000
  0
LINE
  5
FB
100
AcDbEntity
  8
A9
  6
CONTINUOUS
 62
7
100
AcDbLine
 10
159.4000000003392
 20
176.5057630565345
 30
0.0000000000000000
 11
159.4000000003402
 21
177.5057630565345
 31
0.0000000000000000
  0
LINE
  5
FC
100
AcDbEntity
  8
A9
  6
CONTINUOUS
 62
7
100
AcDbLine
 10
159.4000000003392
 20
176.5057630565346
 30
0.0000000000000000
 11
159.2825449352058
 21
176.5057630565380
 31
0.0000000000000000
  0
LINE
  5
FD
100
AcDbEntity
  8
A9
  6
CONTINUOUS
 62
7
100
AcDbLine
 10
159.4000000003517
 20
189.5057630565348
 30
0.0000000000000000
 11
159.0556290911168
 21
189.5057630565350
 31
0.0000000000000000
  0
LINE
  5
FE
100
AcDbEntity
  8
A9
  6
CONTINUOUS
 62
7
100
AcDbLine
 10
159.1079942858990
 20
186.5057630565350
 30
0.0000000000000000
 11
159.4000000003488
 21
186.5057630565348
 31
0.0000000000000000
  0
LINE
  5
FF
100
AcDbEntity
  8
A9
  6
CONTINUOUS
 62
7
100
AcDbLine
 10
159.4000000003473
 20
184.8228486534895
 30
0.0000000000000000
 11
159.4000000003518
 21
189.5057630565347
 31
0.0000000000000000
  0
LINE
  5
100
100
AcDbEntity
  8
A6
  6
CONTINUOUS
 62
7
100
AcDbLine
 10
208.5467174219387
 20
68.00000000135927
 30
0.0000000000000000
 11
208.5467174227528
 21
76.00000000135938
 31
0.0000000000000000
  0
LINE
  5
101
100
AcDbEntity
  8
A6
  6
CONTINUOUS
 62
7
100
AcDbLine
 10
208.5467174247882
 20
96.00000000135930
 30
0.0000000000000000
 11
208.5467174256023
 21
104.0000000013594
 31
0.0000000000000000
  0
LINE
  5
102
100
AcDbEntity
  8
A6
  6
CONTINUOUS
 62
7
100
AcDbLine
 10
221.5467174218370
 20
67.00000000003153
 30
0.0000000000000000
 11
221.5467174228547
 21
77.00000000003426
 31
0.0000000000000000
  0
LINE
  5
103
100
AcDbEntity
  8
A6
  6
CONTINUOUS
 62
7
100
AcDbLine
 10
218.5467174227529
 20
75.99999999962630
 30
0.0000000000000000
 11
218.5467174228547
 21
77.00000000033957
 31
0.0000000000000000
  0
LINE
  5
104
100
AcDbEntity
  8
A6
  6
CONTINUOUS
 62
7
100
AcDbLine
 10
218.5467174218370
 20
67.00000000033684
 30
0.0000000000000000
 11
218.5467174219388
 21
67.99999999962237
 31
0.0000000000000000
  0
LINE
  5
105
100
AcDbEntity
  8
A6
  6
CONTINUOUS
 62
7
100
AcDbLine
 10
218.5467174256023
 20
104.0000000003401
 30
0.0000000000000000
 11
218.5467174257041
 21
105.0000000003396
 31
0.0000000000000000
  0
LINE
  5
106
100
AcDbEntity
  8
A6
  6
CONTINUOUS
 62
7
100
AcDbLine
 10
221.5467174246864
 20
95.00000000003156
 30
0.0000000000000000
 11
221.5467174257041
 21
105.0000000000343
 31
0.0000000000000000
  0
LINE
  5
107
100
AcDbEntity
  8
A6
  6
CONTINUOUS
 62
7
100
AcDbLine
 10
218.5467174246864
 20
95.00000000033687
 30
0.0000000000000000
 11
218.5467174247882
 21
95.99999999962246
 31
0.0000000000000000
  0
LINE
  5
108
100
AcDbEntity
  8
A6
  6
CONTINUOUS
 62
7
100
AcDbLine
 10
211.5467174249802
 20
97.50000000105153
 30
0.0000000000000000
 11
211.5467174254914
 21
102.5000000010515
 31
0.0000000000000000
  0
LINE
  5
109
100
AcDbEntity
  8
A6
  6
CONTINUOUS
 62
7
100
AcDbLine
 10
211.5467174221309
 20
69.50000000033779
 30
0.0000000000000000
 11
211.5467174226379
 21
74.50000000033791
 31
0.0000000000000000
  0
LINE
  5
10A
100
AcDbEntity
  8
A6
  6
CONTINUOUS
 62
7
100
AcDbLine
 10
209.5467174219387
 20
68.00000000125750
 30
0.0000000000000000
 11
209.5467174227528
 21
76.00000000125762
 31
0.0000000000000000
  0
LINE
  5
10B
100
AcDbEntity
  8
A6
  6
CONTINUOUS
 62
7
100
AcDbLine
 10
209.5467174247882
 20
96.00000000125753
 30
0.0000000000000000
 11
209.5467174256023
 21
104.0000000012576
 31
0.0000000000000000
  0
LINE
  5
10C
100
AcDbEntity
  8
A6
  6
CONTINUOUS
 62
7
100
AcDbLine
 10
221.5467174257041
 20
105.0000000000344
 30
0.0000000000000000
 11
207.5467174257449
 21
105.0000000014573
 31
0.0000000000000000
  0
LINE
  5
10D
100
AcDbEntity
  8
A6
  6
CONTINUOUS
 62
7
100
AcDbLine
 10
221.5467174246864
 20
95.00000000003153
 30
0.0000000000000000
 11
207.5467174247806
 21
95.00000000145623
 31
0.0000000000000000
  0
LINE
  5
10E
100
AcDbEntity
  8
A6
  6
CONTINUOUS
 62
7
100
AcDbLine
 10
218.5467174256024
 20
104.0000000003400
 30
0.0000000000000000
 11
208.5467174256023
 21
104.0000000013594
 31
0.0000000000000000
  0
LINE
  5
10F
100
AcDbEntity
  8
A6
  6
CONTINUOUS
 62
7
100
AcDbLine
 10
218.5467174247882
 20
95.99999999962239
 30
0.0000000000000000
 11
208.5467174247881
 21
96.00000000135925
 31
0.0000000000000000
  0
LINE
  5
110
100
AcDbEntity
  8
A6
  6
CONTINUOUS
 62
7
100
AcDbLine
 10
221.5467174228547
 20
77.00000000003426
 30
0.0000000000000000
 11
207.5467174229048
 21
77.00000000074662
 31
0.0000000000000000
  0
LINE
  5
111
100
AcDbEntity
  8
A6
  6
CONTINUOUS
 62
7
100
AcDbLine
 10
221.5467174218371
 20
67.00000000003149
 30
0.0000000000000000
 11
207.5467174219312
 21
67.00000000075403
 31
0.0000000000000000
  0
LINE
  5
112
100
AcDbEntity
  8
A6
  6
CONTINUOUS
 62
7
100
AcDbLine
 10
218.5467174227529
 20
75.99999999962628
 30
0.0000000000000000
 11
208.5467174227528
 21
76.00000000135937
 31
0.0000000000000000
  0
LINE
  5
113
100
AcDbEntity
  8
A6
  6
CONTINUOUS
 62
7
100
AcDbLine
 10
218.5467174219387
 20
67.99999999962242
 30
0.0000000000000000
 11
208.5467174219387
 21
68.00000000135927
 31
0.0000000000000000
  0
LINE
  5
114
100
AcDbEntity
  8
A6
  6
CONTINUOUS
 62
7
100
AcDbLine
 10
216.8638030195546
 20
74.49999999979427
 30
0.0000000000000000
 11
211.5467174226378
 21
74.50000000033796
 31
0.0000000000000000
  0
LINE
  5
115
100
AcDbEntity
  8
A6
  6
CONTINUOUS
 62
7
100
AcDbLine
 10
216.8638030190458
 20
69.49999999979428
 30
0.0000000000000000
 11
211.5467174221308
 21
69.50000000033781
 31
0.0000000000000000
  0
LINE
  5
116
100
AcDbEntity
  8
A6
  6
CONTINUOUS
 62
7
100
AcDbLine
 10
216.8638030218953
 20
97.50000000051226
 30
0.0000000000000000
 11
211.5467174249802
 21
97.50000000105148
 31
0.0000000000000000
  0
LINE
  5
117
100
AcDbEntity
  8
A6
  6
CONTINUOUS
 62
7
100
AcDbLine
 10
216.8638030224041
 20
102.5000000005122
 30
0.0000000000000000
 11
211.5467174254914
 21
102.5000000010515
 31
0.0000000000000000
  0
MTEXT
  5
118
100
AcDbEntity
  8
A20
  6
CONTINUOUS
 62
1
100
AcDbMText
 10
104.2962965269883
 20
180.4057630566141
 30
0.0000000000000000
 40
2.000000000000000
 41
0.0000000000000000
 44
0.6720000028610229
 71
     1
 72
     1
  1
{\H0.62x;{THA-471-1.6}}
 11
-1.000000000000000
 21
1.224646799147353e-16
 31
0.0000000000000000
  7
STANDARD
  0
ENDSEC
  0
SECTION
  2
OBJECTS
  0
DICTIONARY
  5
145
100
AcDbDictionary
  3
ACAD_GROUP
350
146
  3
ACAD_LAYOUT
350
147
  3
ACAD_MLINESTYLE
350
148
  0
DICTIONARY
  5
146
102
{ACAD_REACTORS
330
145
102
}
330
145
100
AcDbDictionary
  0
DICTIONARY
  5
147
102
{ACAD_REACTORS
330
145
102
}
330
145
100
AcDbDictionary
  3
Model
350
149
  3
ﾚｲｱｳﾄ1
350
14A
  3
ﾚｲｱｳﾄ2
350
14B
  0
DICTIONARY
  5
148
102
{ACAD_REACTORS
330
145
102
}
330
145
100
AcDbDictionary
  3
STANDARD
350
14C
  0
LAYOUT
  5
149
102
{ACAD_REACTORS
330
147
102
}
330
147
100
AcDbPlotSettings
 70
11952
  4
A3
 44
297.000000
 45
420.000000
 73
  1
 72
  1
100
AcDbLayout
  1
Model
 71
0
330
13C
  0
LAYOUT
  5
14A
102
{ACAD_REACTORS
330
147
102
}
330
147
100
AcDbPlotSettings
100
AcDbLayout
  1
ﾚｲｱｳﾄ1
 71
1
330
13D
  0
LAYOUT
  5
14B
102
{ACAD_REACTORS
330
147
102
}
330
147
100
AcDbPlotSettings
100
AcDbLayout
  1
ﾚｲｱｳﾄ2
 71
2
330
13E
  0
MLINESTYLE
  5
14C
102
{ACAD_REACTORS
330
148
102
}
330
148
100
AcDbMlineStyle
  2
STANDARD
 70
     0
  3

 62
   256
 51
90.00
 52
90.00
 71
     2
 49
0.50
 62
   256
  6
BYLAYER
 49
-0.50
 62
   256
  6
BYLAYER
  0
ENDSEC
  0
EOF
