  0
SECTION
  2
HEADER
  9
$ACADVER
  1
AC1015
  9
$DWGCODEPAGE
  3
ANSI_932
  9
$LTSCALE
 40
20.0
  9
$FILLMODE
 70
     1
  9
$CLAYER
  8
0
  9
$PDMODE
 70
     0
  9
$SPLFRAME
 70
     0
  9
$SPLINETYPE
 70
     6
  9
$SPLINESEGS
 70
     8
  9
$DIMASZ
 40
2.000000
  9
$DIMEXE
 40
1.500000
  9
$DIMEXO
 40
0.800000
  9
$DIMTAD
 70
     1
  9
$DIMTIH
 70
     0
  9
$DIMTOH
 70
     0
  9
$DIMTVP
 40
0.500000
  9
$DIMTXT
 40
3.100000
  9
$EXTMIN
 10
0.000000
 20
0.000000
 30
0.000000
  9
$EXTMAX
 10
297.000000
 20
420.000000
 30
0.000000
  9
$MEASUREMENT
 70
  1
  9
$LIMMIN
 10
0.000000
 20
0.000000
  9
$LIMMAX
 10
297.000000
 20
420.000000
  9
$HANDSEED
  5
144
  9
$LWDISPLAY
290
     0
  9
$DIMBLK
  1
_OPEN
  9
$DIMDEC
 70
     2
  9
$DIMADEC
 70
     2
  9
$DIMAUNIT
 70
     0
  9
$DIMZIN
 70
     8
  9
$DIMAZIN
 70
     2
  9
$DIMTOFL
 70
     1
  0
ENDSEC
  0
SECTION
  2
CLASSES
  0
ENDSEC
  0
SECTION
  2
TABLES
  0
TABLE
  2
VPORT
  5
10B
100
AcDbSymbolTable
 70
     1
  0
VPORT
  5
10C
100
AcDbSymbolTableRecord
100
AcDbViewportTableRecord
  2
*ACTIVE
 70
     0
 12
252.359328
 22
123.453664
 40
210.907327
 41
2.298254
  0
ENDTAB
  0
TABLE
  2
LTYPE
  5
10D
100
AcDbSymbolTable
 70
     2
  0
LTYPE
  5
10E
100
AcDbSymbolTableRecord
100
AcDbLinetypeTableRecord
  2
BYBLOCK
 70
     0
  3

 72
    65
 73
     0
 40
0.0
  0
LTYPE
  5
10F
100
AcDbSymbolTableRecord
100
AcDbLinetypeTableRecord
  2
BYLAYER
 70
     0
  3

 72
    65
 73
     0
 40
0.0
  0
LTYPE
  5
110
100
AcDbSymbolTableRecord
100
AcDbLinetypeTableRecord
  2
CONTINUOUS
 70
     0
  3
Solid line (NEC CAE2D for Win R16.0 : 2021.08.05)
 72
    65
 73
     0
 40
0.0
  0
LTYPE
  5
111
100
AcDbSymbolTableRecord
100
AcDbLinetypeTableRecord
  2
CENTER
 70
     0
  3
____ _ ____ _ ____ _ ____ _ ____ _ ____
 72
    65
 73
     4
 40
2.0
 49
1.25
 74
     0
 49
-0.25
 74
     0
 49
0.25
 74
     0
 49
-0.25
 74
     0
  0
ENDTAB
  0
TABLE
  2
LAYER
  5
112
100
AcDbSymbolTable
 70
    19
  0
LAYER
  5
113
100
AcDbSymbolTableRecord
100
AcDbLayerTableRecord
  2
0
 70
     0
 62
     7
  6
CONTINUOUS
370
    -3
390

  0
LAYER
  5
114
100
AcDbSymbolTableRecord
100
AcDbLayerTableRecord
  2
DXF0
 70
     0
 62
     7
  6
CONTINUOUS
370
    -3
390

  0
LAYER
  5
115
100
AcDbSymbolTableRecord
100
AcDbLayerTableRecord
  2
A0
 70
     0
 62
     9
  6
CONTINUOUS
370
    -3
390

  0
LAYER
  5
116
100
AcDbSymbolTableRecord
100
AcDbLayerTableRecord
  2
A4
 70
     0
 62
     9
  6
CONTINUOUS
370
    -3
390

  0
LAYER
  5
117
100
AcDbSymbolTableRecord
100
AcDbLayerTableRecord
  2
A5
 70
     0
 62
     8
  6
CONTINUOUS
370
    -3
390

  0
LAYER
  5
118
100
AcDbSymbolTableRecord
100
AcDbLayerTableRecord
  2
A6
 70
     0
 62
    12
  6
CONTINUOUS
370
    -3
390

  0
LAYER
  5
119
100
AcDbSymbolTableRecord
100
AcDbLayerTableRecord
  2
A8
 70
     0
 62
    10
  6
CONTINUOUS
370
    -3
390

  0
LAYER
  5
11A
100
AcDbSymbolTableRecord
100
AcDbLayerTableRecord
  2
A9
 70
     0
 62
     9
  6
CONTINUOUS
370
    -3
390

  0
LAYER
  5
11B
100
AcDbSymbolTableRecord
100
AcDbLayerTableRecord
  2
A10
 70
     0
 62
     6
  6
CONTINUOUS
370
    -3
390

  0
LAYER
  5
11C
100
AcDbSymbolTableRecord
100
AcDbLayerTableRecord
  2
A11
 70
     0
 62
    10
  6
CONTINUOUS
370
    -3
390

  0
LAYER
  5
11D
100
AcDbSymbolTableRecord
100
AcDbLayerTableRecord
  2
A12
 70
     0
 62
     5
  6
CONTINUOUS
370
    -3
390

  0
LAYER
  5
11E
100
AcDbSymbolTableRecord
100
AcDbLayerTableRecord
  2
A20
 70
     0
 62
     1
  6
CONTINUOUS
370
    -3
390

  0
LAYER
  5
11F
100
AcDbSymbolTableRecord
100
AcDbLayerTableRecord
  2
A30
 70
     0
 62
     1
  6
CONTINUOUS
370
    -3
390

  0
LAYER
  5
120
100
AcDbSymbolTableRecord
100
AcDbLayerTableRecord
  2
A40
 70
     0
 62
     9
  6
CONTINUOUS
370
    -3
390

  0
LAYER
  5
121
100
AcDbSymbolTableRecord
100
AcDbLayerTableRecord
  2
A50
 70
     0
 62
    12
  6
CONTINUOUS
370
    -3
390

  0
LAYER
  5
122
100
AcDbSymbolTableRecord
100
AcDbLayerTableRecord
  2
A1023
 70
     0
 62
     8
  6
CONTINUOUS
370
    -3
390

  0
LAYER
  5
123
100
AcDbSymbolTableRecord
100
AcDbLayerTableRecord
  2
DXF17
 70
     0
 62
     9
  6
CONTINUOUS
370
    -3
390

  0
LAYER
  5
124
100
AcDbSymbolTableRecord
100
AcDbLayerTableRecord
  2
DXF20
 70
     0
 62
   240
  6
CONTINUOUS
370
    -3
390

  0
LAYER
  5
125
100
AcDbSymbolTableRecord
100
AcDbLayerTableRecord
  2
DXF1023
 70
     0
 62
    16
  6
CONTINUOUS
370
    -3
390

  0
ENDTAB
  0
TABLE
  2
STYLE
  5
126
100
AcDbSymbolTable
 70
     4
  0
STYLE
  5
127
100
AcDbSymbolTableRecord
100
AcDbTextStyleTableRecord
  2
STANDARD
 70
    64
 40
0.0
 41
1.0
 50
0.0
 71
     0
 42
0.8400000333786011
  3
TXT
  4

  0
STYLE
  5
128
100
AcDbSymbolTableRecord
100
AcDbTextStyleTableRecord
  2
ANKTATE
 70
    68
 40
0.0
 41
1.0
 50
0.0
 71
     0
 42
0.8400000333786011
  3
TXT
  4

  0
STYLE
  5
129
100
AcDbSymbolTableRecord
100
AcDbTextStyleTableRecord
  2
KNJYOKO
 70
    64
 40
0.0
 41
1.0
 50
0.0
 71
     0
 42
0.8400000333786011
  3
TXT
  4
BIGFONT
  0
STYLE
  5
12A
100
AcDbSymbolTableRecord
100
AcDbTextStyleTableRecord
  2
KNJTATE
 70
    68
 40
0.0
 41
1.0
 50
0.0
 71
     0
 42
0.8400000333786011
  3
TXT
  4
BIGFONT
  0
ENDTAB
  0
TABLE
  2
VIEW
  5
12B
100
AcDbSymbolTable
 70
     0
  0
ENDTAB
  0
TABLE
  2
UCS
  5
12C
100
AcDbSymbolTable
 70
     0
  0
ENDTAB
  0
TABLE
  2
APPID
  5
12D
100
AcDbSymbolTable
 70
     1
  0
APPID
  5
12E
100
AcDbSymbolTableRecord
100
AcDbRegAppTableRecord
  2
ACAD
 70
     0
  0
ENDTAB
  0
TABLE
  2
DIMSTYLE
  5
12F
100
AcDbSymbolTable
 70
     2
100
AcDbDimStyleTable
  0
DIMSTYLE
105
130
100
AcDbSymbolTableRecord
100
AcDbDimStyleTableRecord
  2
STANDARD
 70
     0
 41
2.000000
 44
1.500000
 42
0.800000
145
0.661290
140
3.100000
144
1.000000
146
0.645161
340
127
  0
DIMSTYLE
105
131
100
AcDbSymbolTableRecord
100
AcDbDimStyleTableRecord
  2
DXF001
 70
     0
 41
2.000000
 44
1.500000
 42
0.800000
145
0.661290
140
3.100000
144
1.000000
146
0.645161
 77
     1
 73
     0
 74
     0
271
     2
179
     2
275
     0
 78
     8
 79
     2
172
     1
340
127
  0
ENDTAB
  0
TABLE
  2
BLOCK_RECORD
  5
132
100
AcDbSymbolTable
 70
    12
  0
BLOCK_RECORD
  5
133
100
AcDbSymbolTableRecord
100
AcDbBlockTableRecord
  2
*MODEL_SPACE
  0
BLOCK_RECORD
  5
134
100
AcDbSymbolTableRecord
100
AcDbBlockTableRecord
  2
*PAPER_SPACE
  0
BLOCK_RECORD
  5
135
100
AcDbSymbolTableRecord
100
AcDbBlockTableRecord
  2
*PAPER_SPACE0
  0
BLOCK_RECORD
  5
1
100
AcDbSymbolTableRecord
100
AcDbBlockTableRecord
  2
_NONE
  0
BLOCK_RECORD
  5
4
100
AcDbSymbolTableRecord
100
AcDbBlockTableRecord
  2
_CLOSED
  0
BLOCK_RECORD
  5
B
100
AcDbSymbolTableRecord
100
AcDbBlockTableRecord
  2
_DOT
  0
BLOCK_RECORD
  5
13
100
AcDbSymbolTableRecord
100
AcDbBlockTableRecord
  2
_OPEN
  0
BLOCK_RECORD
  5
19
100
AcDbSymbolTableRecord
100
AcDbBlockTableRecord
  2
_ORIGIN
  0
BLOCK_RECORD
  5
1E
100
AcDbSymbolTableRecord
100
AcDbBlockTableRecord
  2
_OPEN30
  0
BLOCK_RECORD
  5
24
100
AcDbSymbolTableRecord
100
AcDbBlockTableRecord
  2
_BOXFILLED
  0
BLOCK_RECORD
  5
29
100
AcDbSymbolTableRecord
100
AcDbBlockTableRecord
  2
_BOXBLANK
  0
BLOCK_RECORD
  5
31
100
AcDbSymbolTableRecord
100
AcDbBlockTableRecord
  2
_OBLIQUE
  0
BLOCK_RECORD
  5
35
100
AcDbSymbolTableRecord
100
AcDbBlockTableRecord
  2
_OPEN90
  0
BLOCK_RECORD
  5
3B
100
AcDbSymbolTableRecord
100
AcDbBlockTableRecord
  2
_CLOSEDBLANK
  0
BLOCK_RECORD
  5
41
100
AcDbSymbolTableRecord
100
AcDbBlockTableRecord
  2
_DOTBLANK
  0
ENDTAB
  0
ENDSEC
  0
SECTION
  2
BLOCKS
  0
BLOCK
  5
136
100
AcDbEntity
  8
0
100
AcDbBlockBegin
  2
*MODEL_SPACE
 70
     0
 10
0.0
 20
0.0
 30
0.0
  3
*MODEL_SPACE
  1

  0
ENDBLK
  5
137
100
AcDbEntity
  8
0
100
AcDbBlockEnd
  0
BLOCK
  5
138
100
AcDbEntity
  8
0
100
AcDbBlockBegin
  2
*PAPER_SPACE
 70
     0
 10
0.0
 20
0.0
 30
0.0
  3
*PAPER_SPACE
  1

  0
ENDBLK
  5
139
100
AcDbEntity
  8
0
100
AcDbBlockEnd
  0
BLOCK
  5
13A
100
AcDbEntity
  8
0
100
AcDbBlockBegin
  2
*PAPER_SPACE0
 70
     0
 10
0.0
 20
0.0
 30
0.0
  3
*PAPER_SPACE0
  1

  0
ENDBLK
  5
13B
100
AcDbEntity
  8
0
100
AcDbBlockEnd
  0
BLOCK
  5
2
330
1
100
AcDbEntity
  8
0
100
AcDbBlockBegin
  2
_NONE
 70
     0
 10
0.0
 20
0.0
 30
0.0
  3
_NONE
  1

  0
ENDBLK
  5
3
330
1
100
AcDbEntity
  8
0
100
AcDbBlockEnd
  0
BLOCK
  5
5
330
4
100
AcDbEntity
  8
0
100
AcDbBlockBegin
  2
_CLOSED
 70
     0
 10
0.0
 20
0.0
 30
0.0
  3
_CLOSED
  1

  0
LINE
  5
6
330
4
100
AcDbEntity
  8
0
  6
BYBLOCK
 62
     0
370
    -2
100
AcDbLine
 10
-1.0
 20
0.166667
 30
0.0
 11
0.0
 21
0.0
 31
0.0
  0
LINE
  5
7
330
4
100
AcDbEntity
  8
0
  6
BYBLOCK
 62
     0
370
    -2
100
AcDbLine
 10
0.0
 20
0.0
 30
0.0
 11
-1.0
 21
-0.166667
 31
0.0
  0
LINE
  5
8
330
4
100
AcDbEntity
  8
0
  6
BYBLOCK
 62
     0
370
    -2
100
AcDbLine
 10
-1.0
 20
0.166667
 30
0.0
 11
-1.0
 21
-0.166667
 31
0.0
  0
LINE
  5
9
330
4
100
AcDbEntity
  8
0
  6
BYBLOCK
 62
     0
370
    -2
100
AcDbLine
 10
0.0
 20
0.0
 30
0.0
 11
-1.0
 21
0.0
 31
0.0
  0
ENDBLK
  5
A
330
4
100
AcDbEntity
  8
0
100
AcDbBlockEnd
  0
BLOCK
  5
C
330
B
100
AcDbEntity
  8
0
100
AcDbBlockBegin
  2
_DOT
 70
     0
 10
0.0
 20
0.0
 30
0.0
  3
_DOT
  1

  0
POLYLINE
  5
D
330
B
100
AcDbEntity
  8
0
  6
BYBLOCK
 62
     0
370
    -2
100
AcDb2dPolyline
 66
     1
 10
0.0
 20
0.0
 30
0.0
 70
     1
 40
0.5
 41
0.5
  0
VERTEX
  5
E
330
B
100
AcDbEntity
  8
0
  6
BYBLOCK
 62
     0
370
    -2
100
AcDbVertex
100
AcDb2dVertex
 10
-0.25
 20
0.0
 30
0.0
 42
1.0
  0
VERTEX
  5
F
330
B
100
AcDbEntity
  8
0
  6
BYBLOCK
 62
     0
370
    -2
100
AcDbVertex
100
AcDb2dVertex
 10
0.25
 20
0.0
 30
0.0
 42
1.0
  0
SEQEND
  5
10
330
B
100
AcDbEntity
  8
0
  6
BYBLOCK
 62
     0
370
    -2
  0
LINE
  5
11
330
B
100
AcDbEntity
  8
0
  6
BYBLOCK
 62
     0
370
    -2
100
AcDbLine
 10
-0.5
 20
0.0
 30
0.0
 11
-1.0
 21
0.0
 31
0.0
  0
ENDBLK
  5
12
330
B
100
AcDbEntity
  8
0
100
AcDbBlockEnd
  0
BLOCK
  5
14
330
13
100
AcDbEntity
  8
0
100
AcDbBlockBegin
  2
_OPEN
 70
     0
 10
0.0
 20
0.0
 30
0.0
  3
_OPEN
  1

  0
LINE
  5
15
330
13
100
AcDbEntity
  8
0
  6
BYBLOCK
 62
     0
370
    -2
100
AcDbLine
 10
-1.0
 20
0.166667
 30
0.0
 11
0.0
 21
0.0
 31
0.0
  0
LINE
  5
16
330
13
100
AcDbEntity
  8
0
  6
BYBLOCK
 62
     0
370
    -2
100
AcDbLine
 10
0.0
 20
0.0
 30
0.0
 11
-1.0
 21
-0.166667
 31
0.0
  0
LINE
  5
17
330
13
100
AcDbEntity
  8
0
  6
BYBLOCK
 62
     0
370
    -2
100
AcDbLine
 10
0.0
 20
0.0
 30
0.0
 11
-1.0
 21
0.0
 31
0.0
  0
ENDBLK
  5
18
330
13
100
AcDbEntity
  8
0
100
AcDbBlockEnd
  0
BLOCK
  5
1A
330
19
100
AcDbEntity
  8
0
100
AcDbBlockBegin
  2
_ORIGIN
 70
     0
 10
0.0
 20
0.0
 30
0.0
  3
_ORIGIN
  1

  0
CIRCLE
  5
1B
330
19
100
AcDbEntity
  8
0
  6
BYBLOCK
 62
     0
370
    -2
100
AcDbCircle
 10
0.0
 20
0.0
 30
0.0
 40
0.5
  0
LINE
  5
1C
330
19
100
AcDbEntity
  8
0
  6
BYBLOCK
 62
     0
370
    -2
100
AcDbLine
 10
0.0
 20
0.0
 30
0.0
 11
-1.0
 21
0.0
 31
0.0
  0
ENDBLK
  5
1D
330
19
100
AcDbEntity
  8
0
100
AcDbBlockEnd
  0
BLOCK
  5
1F
330
1E
100
AcDbEntity
  8
0
100
AcDbBlockBegin
  2
_OPEN30
 70
     0
 10
0.0
 20
0.0
 30
0.0
  3
_OPEN30
  1

  0
LINE
  5
20
330
1E
100
AcDbEntity
  8
0
  6
BYBLOCK
 62
     0
370
    -2
100
AcDbLine
 10
-1.0
 20
0.267949
 30
0.0
 11
0.0
 21
0.0
 31
0.0
  0
LINE
  5
21
330
1E
100
AcDbEntity
  8
0
  6
BYBLOCK
 62
     0
370
    -2
100
AcDbLine
 10
0.0
 20
0.0
 30
0.0
 11
-1.0
 21
-0.267949
 31
0.0
  0
LINE
  5
22
330
1E
100
AcDbEntity
  8
0
  6
BYBLOCK
 62
     0
370
    -2
100
AcDbLine
 10
0.0
 20
0.0
 30
0.0
 11
-1.0
 21
0.0
 31
0.0
  0
ENDBLK
  5
23
330
1E
100
AcDbEntity
  8
0
100
AcDbBlockEnd
  0
BLOCK
  5
25
330
24
100
AcDbEntity
  8
0
100
AcDbBlockBegin
  2
_BOXFILLED
 70
     0
 10
0.0
 20
0.0
 30
0.0
  3
_BOXFILLED
  1

  0
SOLID
  5
26
330
24
100
AcDbEntity
  8
0
  6
BYBLOCK
 62
     0
370
    -2
100
AcDbTrace
 10
-0.5
 20
0.5
 30
0.0
 11
0.5
 21
0.5
 31
0.0
 12
-0.5
 22
-0.5
 32
0.0
 13
0.5
 23
-0.5
 33
0.0
  0
LINE
  5
27
330
24
100
AcDbEntity
  8
0
  6
BYBLOCK
 62
     0
370
    -2
100
AcDbLine
 10
-0.5
 20
0.0
 30
0.0
 11
-1.0
 21
0.0
 31
0.0
  0
ENDBLK
  5
28
330
24
100
AcDbEntity
  8
0
100
AcDbBlockEnd
  0
BLOCK
  5
2A
330
29
100
AcDbEntity
  8
0
100
AcDbBlockBegin
  2
_BOXBLANK
 70
     0
 10
0.0
 20
0.0
 30
0.0
  3
_BOXBLANK
  1

  0
LINE
  5
2B
330
29
100
AcDbEntity
  8
0
  6
BYBLOCK
 62
     0
370
    -2
100
AcDbLine
 10
-0.5
 20
-0.5
 30
0.0
 11
0.5
 21
-0.5
 31
0.0
  0
LINE
  5
2C
330
29
100
AcDbEntity
  8
0
  6
BYBLOCK
 62
     0
370
    -2
100
AcDbLine
 10
0.5
 20
-0.5
 30
0.0
 11
0.5
 21
0.5
 31
0.0
  0
LINE
  5
2D
330
29
100
AcDbEntity
  8
0
  6
BYBLOCK
 62
     0
370
    -2
100
AcDbLine
 10
0.5
 20
0.5
 30
0.0
 11
-0.5
 21
0.5
 31
0.0
  0
LINE
  5
2E
330
29
100
AcDbEntity
  8
0
  6
BYBLOCK
 62
     0
370
    -2
100
AcDbLine
 10
-0.5
 20
0.5
 30
0.0
 11
-0.5
 21
-0.5
 31
0.0
  0
LINE
  5
2F
330
29
100
AcDbEntity
  8
0
  6
BYBLOCK
 62
     0
370
    -2
100
AcDbLine
 10
-0.5
 20
0.0
 30
0.0
 11
-1.0
 21
0.0
 31
0.0
  0
ENDBLK
  5
30
330
29
100
AcDbEntity
  8
0
100
AcDbBlockEnd
  0
BLOCK
  5
32
330
31
100
AcDbEntity
  8
0
100
AcDbBlockBegin
  2
_OBLIQUE
 70
     0
 10
0.0
 20
0.0
 30
0.0
  3
_OBLIQUE
  1

  0
LINE
  5
33
330
31
100
AcDbEntity
  8
0
  6
BYBLOCK
 62
     0
370
    -2
100
AcDbLine
 10
-0.5
 20
-0.5
 30
0.0
 11
0.5
 21
0.5
 31
0.0
  0
ENDBLK
  5
34
330
31
100
AcDbEntity
  8
0
100
AcDbBlockEnd
  0
BLOCK
  5
36
330
35
100
AcDbEntity
  8
0
100
AcDbBlockBegin
  2
_OPEN90
 70
     0
 10
0.0
 20
0.0
 30
0.0
  3
_OPEN90
  1

  0
LINE
  5
37
330
35
100
AcDbEntity
  8
0
  6
BYBLOCK
 62
     0
370
    -2
100
AcDbLine
 10
-0.5
 20
0.5
 30
0.0
 11
0.0
 21
0.0
 31
0.0
  0
LINE
  5
38
330
35
100
AcDbEntity
  8
0
  6
BYBLOCK
 62
     0
370
    -2
100
AcDbLine
 10
0.0
 20
0.0
 30
0.0
 11
-0.5
 21
-0.5
 31
0.0
  0
LINE
  5
39
330
35
100
AcDbEntity
  8
0
  6
BYBLOCK
 62
     0
370
    -2
100
AcDbLine
 10
0.0
 20
0.0
 30
0.0
 11
-1.0
 21
0.0
 31
0.0
  0
ENDBLK
  5
3A
330
35
100
AcDbEntity
  8
0
100
AcDbBlockEnd
  0
BLOCK
  5
3C
330
3B
100
AcDbEntity
  8
0
100
AcDbBlockBegin
  2
_CLOSEDBLANK
 70
     0
 10
0.0
 20
0.0
 30
0.0
  3
_CLOSEDBLANK
  1

  0
LINE
  5
3D
330
3B
100
AcDbEntity
  8
0
  6
BYBLOCK
 62
     0
370
    -2
100
AcDbLine
 10
-1.0
 20
0.1666666666666666
 30
0.0
 11
0.0
 21
0.0
 31
0.0
  0
LINE
  5
3E
330
3B
100
AcDbEntity
  8
0
  6
BYBLOCK
 62
     0
370
    -2
100
AcDbLine
 10
0.0
 20
0.0
 30
0.0
 11
-1.0
 21
-0.1666666666666666
 31
0.0
  0
LINE
  5
3F
330
3B
100
AcDbEntity
  8
0
  6
BYBLOCK
 62
     0
370
    -2
100
AcDbLine
 10
-1.0
 20
0.1666666666666666
 30
0.0
 11
-1.0
 21
-0.1666666666666666
 31
0.0
  0
ENDBLK
  5
40
330
3B
100
AcDbEntity
  8
0
100
AcDbBlockEnd
  0
BLOCK
  5
42
330
41
100
AcDbEntity
  8
0
100
AcDbBlockBegin
  2
_DOTBLANK
 70
     0
 10
0.0
 20
0.0
 30
0.0
  3
_DOTBLANK
  1

  0
CIRCLE
  5
43
330
41
100
AcDbEntity
  8
0
  6
BYBLOCK
 62
     0
370
    -2
100
AcDbCircle
 10
0.0
 20
0.0
 30
0.0
 40
0.5
  0
LINE
  5
44
330
41
100
AcDbEntity
  8
0
  6
BYBLOCK
 62
     0
370
    -2
100
AcDbLine
 10
-0.5
 20
0.0
 30
0.0
 11
-1.0
 21
0.0
 31
0.0
  0
ENDBLK
  5
45
330
41
100
AcDbEntity
  8
0
100
AcDbBlockEnd
  0
ENDSEC
  0
SECTION
  2
ENTITIES
  0
MTEXT
  5
46
100
AcDbEntity
  8
A8
  6
CONTINUOUS
 62
7
100
AcDbMText
 10
9.999997526638502
 20
18.00000076076889
 30
0.000000000000000
 40
3.000000000000000
 41
0.000000000000000
 44
0.6739999771118164
 71
     7
 72
     1
  1
{\H0.93x;{TYPE No.THA-474}}
 11
1.000000000000000
 21
0.000000000000000
 31
0.000000000000000
  7
STANDARD
  0
SPLINE
  5
47
100
AcDbEntity
  8
A5
  6
CONTINUOUS
 62
7
100
AcDbSpline
210
0.000000000000000
220
0.000000000000000
230
1.000000000000000
 70
     8
 71
     3
 72
    24
 73
    20
 74
     0
 42
1.000000000000000e-07
 43
1.000000000000000e-07
 12
0.9163608860230852
 22
0.4003532522232263
 32
0.000000000000000
 13
0.9116125873354122
 23
-0.4110504720980543
 33
0.000000000000000
 40
0.000000000000000
 40
0.000000000000000
 40
0.000000000000000
 40
0.000000000000000
 40
0.8177361455700685
 40
1.676999024651447
 40
2.577802591614779
 40
3.519846832719382
 40
4.502487892249197
 40
5.524719467195531
 40
6.585225972458606
 40
7.682906912087375
 40
8.816669176691084
 40
9.985133645093295
 40
11.18666173691934
 40
12.41937440382451
 40
13.42618710719647
 40
14.44914051575003
 40
15.48601751392954
 40
16.53446376196337
 40
17.59205694980782
 40
17.59205694980782
 40
17.59205694980782
 40
17.59205694980782
 10
210.1623315291998
 20
204.8889228537439
 30
0.000000000000000
 10
210.4121120021624
 20
204.9980506288571
 30
0.000000000000000
 10
210.9291546566864
 20
205.2110612699116
 30
0.000000000000000
 10
211.7375806393796
 20
205.5030370672790
 30
0.000000000000000
 10
212.5976095543796
 20
205.7716417249084
 30
0.000000000000000
 10
213.5085539968564
 20
206.0121035250273
 30
0.000000000000000
 10
214.4690554277226
 20
206.2195560293837
 30
0.000000000000000
 10
215.4771239227791
 20
206.3887695105474
 30
0.000000000000000
 10
216.5302521006504
 20
206.5140653924155
 30
0.000000000000000
 10
217.6253710788258
 20
206.5902296102132
 30
0.000000000000000
 10
218.7589459067850
 20
206.6122221974614
 30
0.000000000000000
 10
219.9267966202120
 20
206.5747241806839
 30
0.000000000000000
 10
221.1239090304564
 20
206.4722755332159
 30
0.000000000000000
 10
222.2601746370363
 20
206.3109645979829
 30
0.000000000000000
 10
223.3278661578426
 20
206.1023908291262
 30
0.000000000000000
 10
224.3210702614820
 20
205.8588904794416
 30
0.000000000000000
 10
225.3143690889308
 20
205.5626604216125
 30
0.000000000000000
 10
226.3020720031272
 20
205.2119616676797
 30
0.000000000000000
 10
226.9500158919867
 20
204.9406899656682
 30
0.000000000000000
 10
227.2713876460930
 20
204.7957819059511
 30
0.000000000000000
  0
SPLINE
  5
48
100
AcDbEntity
  8
A5
  6
CONTINUOUS
 62
7
100
AcDbSpline
210
0.000000000000000
220
0.000000000000000
230
1.000000000000000
 70
     8
 71
     3
 72
    24
 73
    20
 74
     0
 42
1.000000000000000e-07
 43
1.000000000000000e-07
 12
0.9115446533311342
 22
0.4112011004164060
 32
0.000000000000000
 13
0.9164229239522683
 23
-0.4002112247978857
 33
0.000000000000000
 40
0.000000000000000
 40
0.000000000000000
 40
0.000000000000000
 40
0.000000000000000
 40
0.8166939856998822
 40
1.674931830272498
 40
2.574753410976940
 40
3.515886726590624
 40
4.497717349782468
 40
5.519269125247907
 40
6.579256570550128
 40
7.676608825392502
 40
8.810260374363898
 40
9.978855884309441
 40
11.18077515004878
 40
12.41415022036167
 40
13.42168999117179
 40
14.44554263039182
 40
15.48348238512300
 40
16.53313981403389
 40
17.59206986219113
 40
17.59206986219113
 40
17.59206986219113
 40
17.59206986219113
 10
190.1613945648441
 20
204.7957819059511
 30
0.000000000000000
 10
190.4095455768682
 20
204.9077237278256
 30
0.000000000000000
 10
190.9234120463851
 20
205.1265376920004
 30
0.000000000000000
 10
191.7274578332155
 20
205.4274866543485
 30
0.000000000000000
 10
192.5834524824211
 20
205.7055574190324
 30
0.000000000000000
 10
193.4907795720561
 20
205.9559688279171
 30
0.000000000000000
 10
194.4481518865816
 20
206.1738428413995
 30
0.000000000000000
 10
195.4536553645044
 20
206.3539335026475
 30
0.000000000000000
 10
196.5048635887005
 20
206.4905437223397
 30
0.000000000000000
 10
197.5987838994523
 20
206.5784387803725
 30
0.000000000000000
 10
198.7319560942412
 20
206.6125570365878
 30
0.000000000000000
 10
199.9002779743540
 20
206.5875547042706
 30
0.000000000000000
 10
201.0988144422317
 20
206.4979419302465
 30
0.000000000000000
 10
202.2373465942068
 20
206.3488684666287
 30
0.000000000000000
 10
203.3080069080765
 20
206.1518627236903
 30
0.000000000000000
 10
204.3047215356781
 20
205.9191909381564
 30
0.000000000000000
 10
205.3023094694851
 20
205.6338821884949
 30
0.000000000000000
 10
206.2951070432539
 20
205.2941524872529
 30
0.000000000000000
 10
206.9469747580729
 20
205.0301880842600
 30
0.000000000000000
 10
207.2704506817374
 20
204.8889228537439
 30
0.000000000000000
  0
SPLINE
  5
49
100
AcDbEntity
  8
A5
  6
CONTINUOUS
 62
7
100
AcDbSpline
210
0.000000000000000
220
0.000000000000000
230
1.000000000000000
 70
     8
 71
     3
 72
    20
 73
    16
 74
     0
 42
1.000000000000000e-07
 43
1.000000000000000e-07
 12
0.8784073144443028
 22
-0.4779127430103927
 32
0.000000000000000
 13
0.9074612436816096
 23
0.4201358009208889
 33
0.000000000000000
 40
0.000000000000000
 40
0.000000000000000
 40
0.000000000000000
 40
0.000000000000000
 40
0.3018108821456846
 40
0.5349818984992316
 40
0.7000068960135263
 40
0.8462413728606381
 40
1.149469136537978
 40
1.456272804531332
 40
1.760295779977898
 40
2.048034754615384
 40
2.153581391175503
 40
2.289730408417486
 40
2.475670263199748
 40
2.710631260113070
 40
2.993542894587125
 40
2.993542894587125
 40
2.993542894587125
 40
2.993542894587125
 10
267.2825107846980
 20
203.9230968322143
 30
0.000000000000000
 10
267.3708817468499
 20
203.8750170766954
 30
0.000000000000000
 10
267.5316955222252
 20
203.7971654036514
 30
0.000000000000000
 10
267.7498292866275
 20
203.7137844620928
 30
0.000000000000000
 10
267.9230781357704
 20
203.6594917860684
 30
0.000000000000000
 10
268.1213043888336
 20
203.6076764494991
 30
0.000000000000000
 10
268.3694068931581
 20
203.5608921366714
 30
0.000000000000000
 10
268.6730883799245
 20
203.5316346568572
 30
0.000000000000000
 10
268.9730299265811
 20
203.5300167036886
 30
0.000000000000000
 10
269.2049326073512
 20
203.5502284924806
 30
0.000000000000000
 10
269.3795101788973
 20
203.5761996476764
 30
0.000000000000000
 10
269.5196644256011
 20
203.6024365472772
 30
0.000000000000000
 10
269.7003320086866
 20
203.6457682240816
 30
0.000000000000000
 10
269.9244832529684
 20
203.7157297273450
 30
0.000000000000000
 10
270.0845665802734
 20
203.7811266724293
 30
0.000000000000000
 10
270.1701436948306
 20
203.8207471078092
 30
0.000000000000000
  0
SPLINE
  5
4A
100
AcDbEntity
  8
A5
  6
CONTINUOUS
 62
7
100
AcDbSpline
210
0.000000000000000
220
0.000000000000000
230
1.000000000000000
 70
     8
 71
     3
 72
    20
 73
    16
 74
     0
 42
1.000000000000000e-07
 43
1.000000000000000e-07
 12
0.9074976980989504
 22
-0.4200570532066195
 32
0.000000000000000
 13
0.8783539743585607
 23
0.4780107694664366
 33
0.000000000000000
 40
0.000000000000000
 40
0.000000000000000
 40
0.000000000000000
 40
0.000000000000000
 40
0.3001779927896768
 40
0.5308171134222219
 40
0.6933138724380180
 40
0.8394558310961930
 40
1.140247495034302
 40
1.443283398696353
 40
1.749256241238268
 40
2.038461756402274
 40
2.144837672360878
 40
2.284733423923278
 40
2.473146412639704
 40
2.709763721108830
 40
2.993544770533585
 40
2.993544770533585
 40
2.993544770533585
 40
2.993544770533585
 10
147.2626385161063
 20
203.8207471078092
 30
0.000000000000000
 10
147.3534421285985
 20
203.7787164801129
 30
0.000000000000000
 10
147.5177541892128
 20
203.7121302614259
 30
0.000000000000000
 10
147.7388860342983
 20
203.6443013370048
 30
0.000000000000000
 10
147.9137807195448
 20
203.6024154170248
 30
0.000000000000000
 10
148.1134459697028
 20
203.5646870870731
 30
0.000000000000000
 10
148.3620987333820
 20
203.5352587701842
 30
0.000000000000000
 10
148.6657175499274
 20
203.5281017374286
 30
0.000000000000000
 10
148.9648183759614
 20
203.5486578060598
 30
0.000000000000000
 10
149.1961574253551
 20
203.5849639248491
 30
0.000000000000000
 10
149.3705179612771
 20
203.6232539975025
 30
0.000000000000000
 10
149.5108134934831
 20
203.6596545523850
 30
0.000000000000000
 10
149.6905573801091
 20
203.7161590012099
 30
0.000000000000000
 10
149.9110094781881
 20
203.8017195096988
 30
0.000000000000000
 10
150.0671846887024
 20
203.8778800329491
 30
0.000000000000000
 10
150.1502714262390
 20
203.9230968322143
 30
0.000000000000000
  0
SPLINE
  5
4B
100
AcDbEntity
  8
A5
  6
CONTINUOUS
 62
7
100
AcDbSpline
210
0.000000000000000
220
0.000000000000000
230
1.000000000000000
 70
     8
 71
     3
 72
    20
 73
    16
 74
     0
 42
1.000000000000000e-07
 43
1.000000000000000e-07
 12
0.8929263959125819
 22
-0.4502026782258781
 32
0.000000000000000
 13
0.8931608924262946
 23
0.4497372791279304
 33
0.000000000000000
 40
0.000000000000000
 40
0.000000000000000
 40
0.000000000000000
 40
0.000000000000000
 40
0.3014609783764683
 40
0.5336473858176197
 40
0.6975477540479853
 40
0.8438866829877898
 40
1.146225278270178
 40
1.451321275081289
 40
1.756491793567833
 40
2.045275252153481
 40
2.151317791566214
 40
2.289602197010689
 40
2.477063987155909
 40
2.713187844352098
 40
2.996975477001449
 40
2.996975477001449
 40
2.996975477001449
 40
2.996975477001449
 10
207.2704506817374
 20
204.8885870861388
 30
0.000000000000000
 10
207.3601781700474
 20
204.8433475728569
 30
0.000000000000000
 10
207.5229896248285
 20
204.7708354266215
 30
0.000000000000000
 10
207.7429581278380
 20
204.6948889534922
 30
0.000000000000000
 10
207.9172787419075
 20
204.6465841043949
 30
0.000000000000000
 10
208.1165119442530
 20
204.6015968735433
 30
0.000000000000000
 10
208.3652257778650
 20
204.5632667894696
 30
0.000000000000000
 10
208.6692954896953
 20
204.5448425256092
 30
0.000000000000000
 10
208.9692466011198
 20
204.5544049405689
 30
0.000000000000000
 10
209.2011792451557
 20
204.5827988820052
 30
0.000000000000000
 10
209.3759581463277
 20
204.6150259357956
 30
0.000000000000000
 10
209.5164651805022
 20
204.6464338780586
 30
0.000000000000000
 10
209.6970488149310
 20
204.6965101709593
 30
0.000000000000000
 10
209.9197754060279
 20
204.7745371871902
 30
0.000000000000000
 10
210.0781968975410
 20
204.8455261049914
 30
0.000000000000000
 10
210.1626862359532
 20
204.8880693975774
 30
0.000000000000000
  0
SPLINE
  5
4C
100
AcDbEntity
  8
A5
  6
CONTINUOUS
 62
7
100
AcDbSpline
210
0.000000000000000
220
0.000000000000000
230
1.000000000000000
 70
     8
 71
     3
 72
    24
 73
    20
 74
     0
 42
1.000000000000000e-07
 43
1.000000000000000e-07
 12
0.9207499002154691
 22
0.3901533304391478
 32
0.000000000000000
 13
0.9060943133611090
 23
-0.4230757559764697
 33
0.000000000000000
 40
0.000000000000000
 40
0.000000000000000
 40
0.000000000000000
 40
0.000000000000000
 40
0.8193020543816355
 40
1.680126186134284
 40
2.582452034417523
 40
3.525941902656469
 40
4.509911704398723
 40
5.533313236253051
 40
6.594789246894152
 40
7.693206716985050
 40
8.827447762897268
 40
9.996113116837126
 40
11.19754999650542
 40
12.42987306210246
 40
13.43616581965674
 40
14.45842859411424
 40
15.49446459837859
 40
16.54194699108150
 40
17.59848925578194
 40
17.59848925578194
 40
17.59848925578194
 40
17.59848925578194
 10
230.1656054690932
 20
204.7639961996698
 30
0.000000000000000
 10
230.4170628973660
 20
204.8705473413874
 30
0.000000000000000
 10
230.9373962244894
 20
205.0782154216394
 30
0.000000000000000
 10
231.7504301162920
 20
205.3618411780319
 30
0.000000000000000
 10
232.6147679606268
 20
205.6215335001326
 30
0.000000000000000
 10
233.5296403202775
 20
205.8525106354551
 30
0.000000000000000
 10
234.4936030212141
 20
206.0498968634232
 30
0.000000000000000
 10
235.5045728469748
 20
206.2084570505876
 30
0.000000000000000
 10
236.5599436060805
 20
206.3225080079185
 30
0.000000000000000
 10
237.6565527770286
 20
206.3868399177134
 30
0.000000000000000
 10
238.7907751810683
 20
206.3964238352863
 30
0.000000000000000
 10
239.9583373303010
 20
206.3459572453963
 30
0.000000000000000
 10
241.1541281683918
 20
206.2300049834816
 30
0.000000000000000
 10
242.2881340301905
 20
206.0556512660453
 30
0.000000000000000
 10
243.3527734455152
 20
205.8346099589609
 30
0.000000000000000
 10
244.3423124104627
 20
205.5793253501777
 30
0.000000000000000
 10
245.3310877726045
 20
205.2710968446764
 30
0.000000000000000
 10
246.3133784167700
 20
204.9082337603622
 30
0.000000000000000
 10
246.9571150808816
 20
204.6287929695100
 30
0.000000000000000
 10
247.2762240601718
 20
204.4797938303902
 30
0.000000000000000
  0
SPLINE
  5
4D
100
AcDbEntity
  8
A5
  6
CONTINUOUS
 62
7
100
AcDbSpline
210
0.000000000000000
220
0.000000000000000
230
1.000000000000000
 70
     8
 71
     3
 72
    24
 73
    20
 74
     0
 42
1.000000000000000e-07
 43
1.000000000000000e-07
 12
0.9060128647289503
 22
0.4232501493750078
 32
0.000000000000000
 13
0.9208130837942008
 23
-0.3900041855074505
 33
0.000000000000000
 40
0.000000000000000
 40
0.000000000000000
 40
0.000000000000000
 40
0.000000000000000
 40
0.8158826340090632
 40
1.673311502117913
 40
2.572355601836694
 40
3.512776306015298
 40
4.493996547431510
 40
5.515081209575532
 40
6.574788533446027
 40
7.672088316205746
 40
8.805952472190803
 40
9.975061122344540
 40
11.17782606257257
 40
12.41240556012664
 40
13.42117287369407
 40
14.44647937008321
 40
15.48608374727313
 40
16.53759276283845
 40
17.59852835949083
 40
17.59852835949083
 40
17.59852835949083
 40
17.59852835949083
 10
170.1565581507652
 20
204.4797938303902
 30
0.000000000000000
 10
170.4029582049389
 20
204.5949013126292
 30
0.000000000000000
 10
170.9134184753764
 20
204.8202198243450
 30
0.000000000000000
 10
171.7127994498877
 20
205.1311603974161
 30
0.000000000000000
 10
172.5645212149959
 20
205.4196873360654
 30
0.000000000000000
 10
173.4680457378822
 20
205.6809940978737
 30
0.000000000000000
 10
174.4221651978692
 20
205.9101729790417
 30
0.000000000000000
 10
175.4250499324010
 20
206.1019426761716
 30
0.000000000000000
 10
176.4743614214224
 20
206.2505678279509
 30
0.000000000000000
 10
177.5671864586016
 20
206.3507714212051
 30
0.000000000000000
 10
178.7001388482972
 20
206.3974472903170
 30
0.000000000000000
 10
179.8691908672941
 20
206.3852040214442
 30
0.000000000000000
 10
181.0694812625679
 20
206.3084998266798
 30
0.000000000000000
 10
182.2106352618899
 20
206.1715335858839
 30
0.000000000000000
 10
183.2846237457290
 20
205.9858023516957
 30
0.000000000000000
 10
184.2851957461938
 20
205.7635430342160
 30
0.000000000000000
 10
185.2874063847946
 20
205.4885956991415
 30
0.000000000000000
 10
186.2855953497761
 20
205.1591336731957
 30
0.000000000000000
 10
186.9415356156904
 20
204.9019193074192
 30
0.000000000000000
 10
187.2671767418439
 20
204.7639961996698
 30
0.000000000000000
  0
SPLINE
  5
4E
100
AcDbEntity
  8
A5
  6
CONTINUOUS
 62
7
100
AcDbSpline
210
0.000000000000000
220
0.000000000000000
230
1.000000000000000
 70
     8
 71
     3
 72
    20
 73
    16
 74
     0
 42
1.000000000000000e-07
 43
1.000000000000000e-07
 12
0.8879637854188331
 22
-0.4599133785659433
 32
0.000000000000000
 13
0.8981165335294463
 23
0.4397575379703085
 33
0.000000000000000
 40
0.000000000000000
 40
0.000000000000000
 40
0.000000000000000
 40
0.000000000000000
 40
0.3016485781234181
 40
0.5341133049249658
 40
0.6982874569492623
 40
0.8447363600011486
 40
1.147490017038726
 40
1.453134008651733
 40
1.758380977642897
 40
2.047271286271181
 40
2.153332107957481
 40
2.291437664560259
 40
2.478872670970046
 40
2.715109126845149
 40
2.999131808729178
 40
2.999131808729178
 40
2.999131808729178
 40
2.999131808729178
 10
227.2713876460930
 20
204.7954702463960
 30
0.000000000000000
 10
227.3606719838586
 20
204.7492261741612
 30
0.000000000000000
 10
227.5228298318437
 20
204.6748870971677
 30
0.000000000000000
 10
227.7422079715002
 20
204.5965132603817
 30
0.000000000000000
 10
227.9162181598486
 20
204.5462990721891
 30
0.000000000000000
 10
228.1152255508004
 20
204.4991520911260
 30
0.000000000000000
 10
228.3638822129276
 20
204.4581877053181
 30
0.000000000000000
 10
228.6680824134037
 20
204.4365131174845
 30
0.000000000000000
 10
228.9683644732505
 20
204.4428441071625
 30
0.000000000000000
 10
229.2006493445370
 20
204.4688181639855
 30
0.000000000000000
 10
229.3757419533461
 20
204.4991882733711
 30
0.000000000000000
 10
229.5165161336374
 20
204.5290753188209
 30
0.000000000000000
 10
229.6976034840321
 20
204.5771759595482
 30
0.000000000000000
 10
229.9212722567589
 20
204.6527929001669
 30
0.000000000000000
 10
230.0805769802607
 20
204.7220664440578
 30
0.000000000000000
 10
230.1656054690931
 20
204.7637001491621
 30
0.000000000000000
  0
SPLINE
  5
4F
100
AcDbEntity
  8
A5
  6
CONTINUOUS
 62
7
100
AcDbSpline
210
0.000000000000000
220
0.000000000000000
230
1.000000000000000
 70
     8
 71
     3
 72
    20
 73
    16
 74
     0
 42
1.000000000000000e-07
 43
1.000000000000000e-07
 12
0.8981567355915558
 22
-0.4396754238173344
 32
0.000000000000000
 13
0.8879183578023913
 23
0.4600010759513680
 33
0.000000000000000
 40
0.000000000000000
 40
0.000000000000000
 40
0.000000000000000
 40
0.000000000000000
 40
0.3016432693279877
 40
0.5339338465375381
 40
0.6978882904911097
 40
0.8443522242790403
 40
1.146797939866816
 40
1.451898418248156
 40
1.757441648265462
 40
2.046578588707230
 40
2.152740581138495
 40
2.291260125602323
 40
2.478922291203570
 40
2.715221032804981
 40
2.999132650225374
 40
2.999132650225374
 40
2.999132650225374
 40
2.999132650225374
 10
187.2671767418440
 20
204.7637001491621
 30
0.000000000000000
 10
187.3574843865417
 20
204.7194917717343
 30
0.000000000000000
 10
187.5212151651752
 20
204.6488426979242
 30
0.000000000000000
 10
187.7421426629297
 20
204.5753750417283
 30
0.000000000000000
 10
187.9170879516763
 20
204.5290151889837
 30
0.000000000000000
 10
188.1169024571764
 20
204.4862293012955
 30
0.000000000000000
 10
188.3660948822925
 20
204.4505927436658
 30
0.000000000000000
 10
188.6705102927697
 20
204.4354812699495
 30
0.000000000000000
 10
188.9705807176810
 20
204.4483387915566
 30
0.000000000000000
 10
189.2024763787045
 20
204.4792440539020
 30
0.000000000000000
 10
189.3771279278207
 20
204.5134076720021
 30
0.000000000000000
 10
189.5174634517157
 20
204.5463929240997
 30
0.000000000000000
 10
189.6976763220906
 20
204.5985265705002
 30
0.000000000000000
 10
189.9196727196617
 20
204.6790995599375
 30
0.000000000000000
 10
190.0773644524771
 20
204.7519370298999
 30
0.000000000000000
 10
190.1613945648441
 20
204.7954702463960
 30
0.000000000000000
  0
SPLINE
  5
50
100
AcDbEntity
  8
A5
  6
CONTINUOUS
 62
7
100
AcDbSpline
210
0.000000000000000
220
0.000000000000000
230
1.000000000000000
 70
     8
 71
     3
 72
    24
 73
    20
 74
     0
 42
1.000000000000000e-07
 43
1.000000000000000e-07
 12
0.9249782447158168
 22
0.3800200610527327
 32
0.000000000000000
 13
0.8995005122534394
 23
-0.4369197048150681
 33
0.000000000000000
 40
0.000000000000000
 40
0.000000000000000
 40
0.000000000000000
 40
0.000000000000000
 40
0.8213396966396821
 40
1.684187975892399
 40
2.588487834665366
 40
3.533862777925931
 40
4.519588915506982
 40
5.544578449002723
 40
6.607436819436020
 40
7.707003414767682
 40
8.842141338621625
 40
10.01143870820944
 40
11.21323799878316
 40
12.44565884482733
 40
13.45185070134644
 40
14.47386715522665
 40
15.50953055127418
 40
16.55653989822464
 40
17.61254272649266
 40
17.61254272649266
 40
17.61254272649266
 40
17.61254272649266
 10
250.1682306253603
 20
204.4145724317146
 30
0.000000000000000
 10
250.4214710756647
 20
204.5186142856020
 30
0.000000000000000
 10
250.9453142367981
 20
204.7210500239066
 30
0.000000000000000
 10
251.7633067207166
 20
204.9964142804344
 30
0.000000000000000
 10
252.6323166385726
 20
205.2471870588718
 30
0.000000000000000
 10
253.5514871699457
 20
205.4685596643072
 30
0.000000000000000
 10
254.5192825750190
 20
205.6556286996797
 30
0.000000000000000
 10
255.5335192802559
 20
205.8031351146545
 30
0.000000000000000
 10
256.5914832809927
 20
205.9053721880996
 30
0.000000000000000
 10
257.6899072386059
 20
205.9571166385207
 30
0.000000000000000
 10
258.8250623132291
 20
205.9533339586933
 30
0.000000000000000
 10
259.9925656915764
 20
205.8887226066413
 30
0.000000000000000
 10
261.1871913845599
 20
205.7578588523653
 30
0.000000000000000
 10
262.3189908485671
 20
205.5689244174667
 30
0.000000000000000
 10
263.3805295996075
 20
205.3337975565452
 30
0.000000000000000
 10
264.3662636238811
 20
205.0650788499435
 30
0.000000000000000
 10
265.3502574709844
 20
204.7430543680356
 30
0.000000000000000
 10
266.3267377077235
 20
204.3660895366826
 30
0.000000000000000
 10
266.9658857563753
 20
204.0771064061477
 30
0.000000000000000
 10
267.2825107846980
 20
203.9233102581441
 30
0.000000000000000
  0
SPLINE
  5
51
100
AcDbEntity
  8
A5
  6
CONTINUOUS
 62
7
100
AcDbSpline
210
0.000000000000000
220
0.000000000000000
230
1.000000000000000
 70
     8
 71
     3
 72
    24
 73
    20
 74
     0
 42
1.000000000000000e-07
 43
1.000000000000000e-07
 12
0.8993989650655294
 22
0.4371287014597556
 32
0.000000000000000
 13
0.9250481861956246
 23
-0.3798497771704206
 33
0.000000000000000
 40
0.000000000000000
 40
0.000000000000000
 40
0.000000000000000
 40
0.000000000000000
 40
0.8154728198700064
 40
1.672503664642082
 40
2.571187697824595
 40
3.511316500351356
 40
4.492347159347421
 40
5.513382555462158
 40
6.573222519335690
 40
7.670881042431611
 40
8.805374776502930
 40
9.975427520006104
 40
11.17949196241341
 40
12.41576200971278
 40
13.42617707999265
 40
14.45339268521379
 40
15.49515857976506
 40
16.54906392427933
 40
17.61260338706687
 40
17.61260338706687
 40
17.61260338706687
 40
17.61260338706687
 10
150.1502714262390
 20
203.9233102581441
 30
0.000000000000000
 10
150.3947498963157
 20
204.0421324497526
 30
0.000000000000000
 10
150.9014906285129
 20
204.2750609860436
 30
0.000000000000000
 10
151.6958393395032
 20
204.5976210819927
 30
0.000000000000000
 10
152.5430086770698
 20
204.8982242702385
 30
0.000000000000000
 10
153.4425405313823
 20
205.1720188164526
 30
0.000000000000000
 10
154.3933058315531
 20
205.4140455536548
 30
0.000000000000000
 10
155.3935569988589
 20
205.6189644154771
 30
0.000000000000000
 10
156.4410408973346
 20
205.7809764965049
 30
0.000000000000000
 10
157.5329198769843
 20
205.8947411319282
 30
0.000000000000000
 10
158.6658778828116
 20
205.9550897227716
 30
0.000000000000000
 10
159.8359571509459
 20
205.9565662357877
 30
0.000000000000000
 10
161.0383637879824
 20
205.8935616581596
 30
0.000000000000000
 10
162.1825277939406
 20
205.7692678094101
 30
0.000000000000000
 10
163.2602402258292
 20
205.5951861626160
 30
0.000000000000000
 10
164.2650645547519
 20
205.3835577104180
 30
0.000000000000000
 10
165.2723134921540
 20
205.1190580432636
 30
0.000000000000000
 10
166.2763233572641
 20
204.7998146328956
 30
0.000000000000000
 10
166.9366098352438
 20
204.5492341743652
 30
0.000000000000000
 10
167.2645515855768
 20
204.4145724317146
 30
0.000000000000000
  0
SPLINE
  5
52
100
AcDbEntity
  8
A5
  6
CONTINUOUS
 62
7
100
AcDbSpline
210
0.000000000000000
220
0.000000000000000
230
1.000000000000000
 70
     8
 71
     3
 72
    20
 73
    16
 74
     0
 42
1.000000000000000e-07
 43
1.000000000000000e-07
 12
0.8824778108291866
 22
-0.4703540298467033
 32
0.000000000000000
 13
0.9033484503274849
 23
0.4289074227494893
 33
0.000000000000000
 40
0.000000000000000
 40
0.000000000000000
 40
0.000000000000000
 40
0.000000000000000
 40
0.3014187465771966
 40
0.5338097084330161
 40
0.6979904775221376
 40
0.8443299390638660
 40
1.147081380332939
 40
1.452882153231950
 40
1.757819781489311
 40
2.046426628244526
 40
2.152385054736688
 40
2.290210613087392
 40
2.477425005918337
 40
2.713466573758184
 40
2.997324510526191
 40
2.997324510526191
 40
2.997324510526191
 40
2.997324510526191
 10
247.2762240601720
 20
204.4795075715996
 30
0.000000000000000
 10
247.3648891787128
 20
204.4322497308916
 30
0.000000000000000
 10
247.5260755872300
 20
204.3560601770843
 30
0.000000000000000
 10
247.7444485859921
 20
204.2752105635515
 30
0.000000000000000
 10
247.9178179493452
 20
204.2230301824961
 30
0.000000000000000
 10
248.1162458167782
 20
204.1736431765090
 30
0.000000000000000
 10
248.3644492059410
 20
204.1299258696869
 30
0.000000000000000
 10
248.6683311087401
 20
204.1048256174570
 30
0.000000000000000
 10
248.9685214123475
 20
204.1077080583072
 30
0.000000000000000
 10
249.2008521717501
 20
204.1310580016889
 30
0.000000000000000
 10
249.3760590560836
 20
204.1594012390906
 30
0.000000000000000
 10
249.5169704943267
 20
204.1876258141589
 30
0.000000000000000
 10
249.6983835473750
 20
204.2335445402623
 30
0.000000000000000
 10
249.9227452243371
 20
204.3064541089152
 30
0.000000000000000
 10
250.0827564162627
 20
204.3737680237901
 30
0.000000000000000
 10
250.1682306253602
 20
204.4143509491522
 30
0.000000000000000
  0
SPLINE
  5
53
100
AcDbEntity
  8
A5
  6
CONTINUOUS
 62
7
100
AcDbSpline
210
0.000000000000000
220
0.000000000000000
230
1.000000000000000
 70
     8
 71
     3
 72
    20
 73
    16
 74
     0
 42
1.000000000000000e-07
 43
1.000000000000000e-07
 12
0.9033865509982206
 22
-0.4288271673715371
 32
0.000000000000000
 13
0.8824283550820837
 23
0.4704468069262475
 33
0.000000000000000
 40
0.000000000000000
 40
0.000000000000000
 40
0.000000000000000
 40
0.000000000000000
 40
0.3014034552783517
 40
0.5334461214409192
 40
0.6971997027457035
 40
0.8435984494578620
 40
1.145728375920195
 40
1.450384233988468
 40
1.755950400969348
 40
2.045072987636086
 40
2.151225044245483
 40
2.289876152077222
 40
2.477524460961404
 40
2.713686542550114
 40
2.997326116144160
 40
2.997326116144160
 40
2.997326116144160
 40
2.997326116144160
 10
167.2645515855768
 20
204.4143509491522
 30
0.000000000000000
 10
167.3553128615511
 20
204.3712676191645
 30
0.000000000000000
 10
167.5197252696263
 20
204.3026446457300
 30
0.000000000000000
 10
167.7412839669119
 20
204.2318569075874
 30
0.000000000000000
 10
167.9165912937810
 20
204.1875817891136
 30
0.000000000000000
 10
168.1166945372146
 20
204.1471384780168
 30
0.000000000000000
 10
168.3659978333711
 20
204.1143434192367
 30
0.000000000000000
 10
168.6703213405509
 20
204.1027075382973
 30
0.000000000000000
 10
168.9700776756246
 20
204.1189840663531
 30
0.000000000000000
 10
169.2016169349466
 20
204.1524444697179
 30
0.000000000000000
 10
169.3759107442534
 20
204.1885669971504
 30
0.000000000000000
 10
169.5159001671462
 20
204.2231429179217
 30
0.000000000000000
 10
169.6954990221721
 20
204.2773333854569
 30
0.000000000000000
 10
169.9164224801676
 20
204.3604056338747
 30
0.000000000000000
 10
170.0731276166443
 20
204.4350284610279
 30
0.000000000000000
 10
170.1565581507652
 20
204.4795075715996
 30
0.000000000000000
  0
SPLINE
  5
54
100
AcDbEntity
  8
A5
  6
CONTINUOUS
 62
7
100
AcDbSpline
210
0.000000000000000
220
0.000000000000000
230
1.000000000000000
 70
     8
 71
     3
 72
    24
 73
    20
 74
     0
 42
1.000000000000000e-07
 43
1.000000000000000e-07
 12
0.8912309351911745
 22
0.4535497989833175
 32
0.000000000000000
 13
0.9295913378210230
 23
-0.3685918401799881
 33
0.000000000000000
 40
0.000000000000000
 40
0.000000000000000
 40
0.000000000000000
 40
0.000000000000000
 40
0.8152945518309500
 40
1.672155838093548
 40
2.570723024021709
 40
3.510834834180280
 40
4.491997251610933
 40
5.513362676932387
 40
6.573780280161643
 40
7.672313009710159
 40
8.808023564580179
 40
9.979677215388840
 40
11.18576299866736
 40
12.42450522249091
 40
13.43723201126868
 40
14.46705092974392
 40
15.51170153702979
 40
16.56875795600345
 40
17.63569563543350
 40
17.63569563543350
 40
17.63569563543350
 40
17.63569563543350
 10
130.1415469587287
 20
203.0906452674772
 30
0.000000000000000
 10
130.3837522006902
 20
203.2139041608422
 30
0.000000000000000
 10
130.8861071208835
 20
203.4558928277000
 30
0.000000000000000
 10
131.6745783779129
 20
203.7921894204283
 30
0.000000000000000
 10
132.5164794643294
 20
204.1069800786003
 30
0.000000000000000
 10
133.4114472216397
 20
204.3953681824303
 30
0.000000000000000
 10
134.3584427999690
 20
204.6523468267458
 30
0.000000000000000
 10
135.3558105686404
 20
204.8725203442162
 30
0.000000000000000
 10
136.4013911226943
 20
205.0500280825378
 30
0.000000000000000
 10
137.4924272975891
 20
205.1794656237420
 30
0.000000000000000
 10
138.6256756471587
 20
205.2555982089549
 30
0.000000000000000
 10
139.7972490188158
 20
205.2728951625264
 30
0.000000000000000
 10
141.0024191091418
 20
205.2256623822058
 30
0.000000000000000
 10
142.1503560838910
 20
205.1159171875248
 30
0.000000000000000
 10
143.2326290934848
 20
204.9551562533645
 30
0.000000000000000
 10
144.2425787408451
 20
204.7556224597196
 30
0.000000000000000
 10
145.2558243799281
 20
204.5029229299162
 30
0.000000000000000
 10
146.2666880739253
 20
204.1951092824663
 30
0.000000000000000
 10
146.9320331745087
 20
203.9518463795949
 30
0.000000000000000
 10
147.2626385161063
 20
203.8207582053887
 30
0.000000000000000
  0
SPLINE
  5
55
100
AcDbEntity
  8
A5
  6
CONTINUOUS
 62
7
100
AcDbSpline
210
0.000000000000000
220
0.000000000000000
230
1.000000000000000
 70
     8
 71
     3
 72
    24
 73
    20
 74
     0
 42
1.000000000000000e-07
 43
1.000000000000000e-07
 12
0.9294873065667844
 22
0.3688540997897007
 32
0.000000000000000
 13
0.8913851641264046
 23
-0.4532466096679855
 33
0.000000000000000
 40
0.000000000000000
 40
0.000000000000000
 40
0.000000000000000
 40
0.000000000000000
 40
0.8240121140445156
 40
1.689519234463074
 40
2.596433794914675
 40
3.544344136252429
 40
4.532486869726953
 40
5.559730984191040
 40
6.624637123583980
 40
7.726008225748356
 40
8.862677993157192
 40
10.03320992860671
 40
11.23592997135695
 40
12.46895359496073
 40
13.47540683139313
 40
14.49750219668521
 40
15.53308641433279
 40
16.57989610623664
 40
17.63563306374668
 40
17.63563306374668
 40
17.63563306374668
 40
17.63563306374668
 10
270.1701436948306
 20
203.8207582053887
 30
0.000000000000000
 10
270.4254466283178
 20
203.9220716209026
 30
0.000000000000000
 10
270.9533660769695
 20
204.1187791230159
 30
0.000000000000000
 10
271.7771752955213
 20
204.3849711543010
 30
0.000000000000000
 10
272.6517155901993
 20
204.6257292365390
 30
0.000000000000000
 10
273.5760285898256
 20
204.8362211835585
 30
0.000000000000000
 10
274.5484687765126
 20
205.0115239216549
 30
0.000000000000000
 10
275.5667304926029
 20
205.1463633591803
 30
0.000000000000000
 10
276.6279669667662
 20
205.2350174724836
 30
0.000000000000000
 10
277.7287800077071
 20
205.2722575756784
 30
0.000000000000000
 10
278.8653099095010
 20
205.2530492644951
 30
0.000000000000000
 10
280.0330346933892
 20
205.1720930311930
 30
0.000000000000000
 10
281.2265807613928
 20
205.0239724365878
 30
0.000000000000000
 10
282.3560448188580
 20
204.8181265064644
 30
0.000000000000000
 10
283.4141532918493
 20
204.5666162675764
 30
0.000000000000000
 10
284.3955798535019
 20
204.2822216913634
 30
0.000000000000000
 10
285.3740757268294
 20
203.9440297126456
 30
0.000000000000000
 10
286.3437966048132
 20
203.5504512460477
 30
0.000000000000000
 10
286.9775458318269
 20
203.2501483330414
 30
0.000000000000000
 10
287.2912352522084
 20
203.0906452674772
 30
0.000000000000000
  0
SPLINE
  5
56
100
AcDbEntity
  8
A5
  6
CONTINUOUS
 62
7
100
AcDbSpline
210
0.000000000000000
220
0.000000000000000
230
1.000000000000000
 70
     8
 71
     3
 72
    37
 73
    33
 74
     0
 42
1.000000000000000e-07
 43
1.000000000000000e-07
 12
0.9991522330450380
 22
0.04116813332490210
 32
0.000000000000000
 13
0.8643819241385700
 23
-0.5028358471930687
 33
0.000000000000000
 40
0.000000000000000
 40
0.000000000000000
 40
0.000000000000000
 40
0.000000000000000
 40
1.543157500217099
 40
3.030676781419095
 40
4.462388505645575
 40
5.837621650607081
 40
7.155512567171984
 40
8.415471009277342
 40
9.617353139642827
 40
10.76110256590476
 40
11.89689236099610
 40
12.96870581068950
 40
13.97645366265439
 40
14.92004757068803
 40
15.79927362879513
 40
16.62414774628251
 40
17.97176738669549
 40
19.24953273556689
 40
20.45916761359752
 40
21.60223510906861
 40
21.96845417738468
 40
22.32687163148994
 40
22.70816891314394
 40
23.14263449549555
 40
23.62950277707593
 40
24.16790874767206
 40
24.75718350844076
 40
25.39735978428814
 40
26.08830320578157
 40
26.82852774807958
 40
27.61503031120018
 40
28.44261907437251
 40
28.44261907437251
 40
28.44261907437251
 40
28.44261907437251
 10
99.11381764477085
 20
204.4709242071813
 30
0.000000000000000
 10
99.62776739886488
 20
204.4921005117513
 30
0.000000000000000
 10
100.6372529979730
 20
204.5309228575766
 30
0.000000000000000
 10
102.1239148242601
 20
204.5799288016663
 30
0.000000000000000
 10
103.5548490547268
 20
204.6199452294258
 30
0.000000000000000
 10
104.9294266843091
 20
204.6519413980177
 30
0.000000000000000
 10
106.2468902626190
 20
204.6768062554353
 30
0.000000000000000
 10
107.5066674433925
 20
204.6953599693763
 30
0.000000000000000
 10
108.7084613946744
 20
204.7085152893620
 30
0.000000000000000
 10
109.8689046023408
 20
204.7172155440487
 30
0.000000000000000
 10
110.9860140817711
 20
204.7219776523218
 30
0.000000000000000
 10
112.0577993412195
 20
204.7229391480820
 30
0.000000000000000
 10
113.0655167140985
 20
204.7204701347027
 30
0.000000000000000
 10
114.0090246552670
 20
204.7149287195376
 30
0.000000000000000
 10
114.8915571113770
 20
204.7072944491770
 30
0.000000000000000
 10
115.9087398255772
 20
204.6964500309738
 30
0.000000000000000
 10
117.0587365973283
 20
204.6821099365387
 30
0.000000000000000
 10
118.3369589502722
 20
204.6645218068338
 30
0.000000000000000
 10
119.5468826847248
 20
204.6403381254271
 30
0.000000000000000
 10
120.4528282913211
 20
204.6139016447667
 30
0.000000000000000
 10
121.0749261571666
 20
204.5895975650474
 30
0.000000000000000
 10
121.4431532384901
 20
204.5719251761647
 30
0.000000000000000
 10
121.8338611821573
 20
204.5485717189729
 30
0.000000000000000
 10
122.2668349312717
 20
204.5154577926972
 30
0.000000000000000
 10
122.7510422988951
 20
204.4668187679694
 30
0.000000000000000
 10
123.2845837522227
 20
204.3953439525820
 30
0.000000000000000
 10
123.8648895802874
 20
204.2913154397187
 30
0.000000000000000
 10
124.4874606706894
 20
204.1404769239025
 30
0.000000000000000
 10
125.1467976282704
 20
203.9339019767586
 30
0.000000000000000
 10
125.8369673824602
 20
203.6676442863252
 30
0.000000000000000
 10
126.5498387116843
 20
203.3383294364760
 30
0.000000000000000
 10
127.0238375745566
 20
203.0828643093899
 30
0.000000000000000
 10
127.2622884970588
 20
202.9441505437708
 30
0.000000000000000
  0
SPLINE
  5
57
100
AcDbEntity
  8
A5
  6
CONTINUOUS
 62
7
100
AcDbSpline
210
0.000000000000000
220
0.000000000000000
230
1.000000000000000
 70
     8
 71
     3
 72
    38
 73
    34
 74
     0
 42
1.000000000000000e-07
 43
1.000000000000000e-07
 12
0.8642384308709552
 22
0.5030824332112616
 32
0.000000000000000
 13
0.9991518297510993
 23
-0.04117792011612664
 33
0.000000000000000
 40
0.000000000000000
 40
0.000000000000000
 40
0.000000000000000
 40
0.000000000000000
 40
0.7494169251276538
 40
1.490225767262479
 40
2.218793174418045
 40
2.932706065720628
 40
3.630676214930845
 40
4.312947735294118
 40
5.269192439221614
 40
6.192945492049343
 40
7.080032253083170
 40
7.926870959385049
 40
8.733568608465442
 40
9.500808093342936
 40
10.22909243636935
 40
10.98562328461048
 40
11.69550015308045
 40
12.35853244510385
 40
12.97457133846236
 40
13.58560154101793
 40
14.38795112256990
 40
15.25794433818959
 40
16.19550906911786
 40
17.20057210664783
 40
18.27304439413790
 40
19.41284083803220
 40
20.61989367959208
 40
21.78538137241162
 40
23.00708344444897
 40
24.28443148942971
 40
25.61670289937644
 40
27.00342211401386
 40
28.44444702099875
 40
28.44444702099875
 40
28.44444702099875
 40
28.44444702099875
 10
290.1704937138784
 20
202.9441505437708
 30
0.000000000000000
 10
290.3863853496919
 20
203.0698233738318
 30
0.000000000000000
 10
290.8230030983628
 20
203.3073603135993
 30
0.000000000000000
 10
291.4916806940054
 20
203.6243083345762
 30
0.000000000000000
 10
292.1675247530089
 20
203.8955614048128
 30
0.000000000000000
 10
292.8458733321917
 20
204.1183910751079
 30
0.000000000000000
 10
293.5231682495125
 20
204.2898330162062
 30
0.000000000000000
 10
294.2901486905644
 20
204.4280042806712
 30
0.000000000000000
 10
295.1393338628221
 20
204.5249158492688
 30
0.000000000000000
 10
296.0600392949084
 20
204.5833128377876
 30
0.000000000000000
 10
296.9453895145945
 20
204.6153302668155
 30
0.000000000000000
 10
297.7919412442810
 20
204.6387866796510
 30
0.000000000000000
 10
298.5986939316901
 20
204.6557424494086
 30
0.000000000000000
 10
299.3659973811829
 20
204.6684301825201
 30
0.000000000000000
 10
300.1166117326266
 20
204.6787563176312
 30
0.000000000000000
 10
300.8481168686465
 20
204.6880370561369
 30
0.000000000000000
 10
301.5578780560211
 20
204.6966485928708
 30
0.000000000000000
 10
302.2208207248989
 20
204.7039484573017
 30
0.000000000000000
 10
302.8508253159928
 20
204.7100378434610
 30
0.000000000000000
 10
303.5272764760920
 20
204.7154985034427
 30
0.000000000000000
 10
304.2883885742582
 20
204.7199792253293
 30
0.000000000000000
 10
305.1583552552730
 20
204.7225464988472
 30
0.000000000000000
 10
306.0958969696408
 20
204.7225478314551
 30
0.000000000000000
 10
307.1009272629365
 20
204.7195104099449
 30
0.000000000000000
 10
308.1733533120852
 20
204.7130372243969
 30
0.000000000000000
 10
309.3130810044025
 20
204.7025491048540
 30
0.000000000000000
 10
310.4837678869422
 20
204.6876466222895
 30
0.000000000000000
 10
311.6816892973248
 20
204.6679330943499
 30
0.000000000000000
 10
312.9029528314284
 20
204.6431062198933
 30
0.000000000000000
 10
314.1796826673514
 20
204.6119070971938
 30
0.000000000000000
 10
315.5112472727272
 20
204.5735320044640
 30
0.000000000000000
 10
316.8971467737528
 20
204.5270986896008
 30
0.000000000000000
 10
317.8390303419889
 20
204.4907036766830
 30
0.000000000000000
 10
318.3189645661658
 20
204.4709242071813
 30
0.000000000000000
  0
SPLINE
  5
58
100
AcDbEntity
  8
A5
  6
CONTINUOUS
 62
7
100
AcDbSpline
210
0.000000000000000
220
0.000000000000000
230
1.000000000000000
 70
     8
 71
     3
 72
    20
 73
    16
 74
     0
 42
1.000000000000000e-07
 43
1.000000000000000e-07
 12
0.8689595059536259
 22
-0.4948831953220179
 32
0.000000000000000
 13
0.9160011690828469
 23
0.4011755952683416
 33
0.000000000000000
 40
0.000000000000000
 40
0.000000000000000
 40
0.000000000000000
 40
0.000000000000000
 40
0.3002439179504138
 40
0.5319960864224903
 40
0.6958531660451339
 40
0.8416288062851105
 40
1.143735748660852
 40
1.449259559016880
 40
1.752734734238707
 40
2.040014337502279
 40
2.145505433030417
 40
2.282313064567655
 40
2.468593349416796
 40
2.703690460058659
 40
2.986578034069757
 40
2.986578034069757
 40
2.986578034069757
 40
2.986578034069757
 10
287.2912352522084
 20
203.0906431485158
 30
0.000000000000000
 10
287.3782018544110
 20
203.0411145920187
 30
0.000000000000000
 10
287.5366613872830
 20
202.9607305900279
 30
0.000000000000000
 10
287.7520607591910
 20
202.8741540090442
 30
0.000000000000000
 10
287.9234471683495
 20
202.8173871481962
 30
0.000000000000000
 10
288.1199624760362
 20
202.7627401020216
 30
0.000000000000000
 10
288.3664191755669
 20
202.7124840881276
 30
0.000000000000000
 10
288.6686941121380
 20
202.6791176994672
 30
0.000000000000000
 10
288.9678213409388
 20
202.6735010005457
 30
0.000000000000000
 10
289.1996284118537
 20
202.6902954700279
 30
0.000000000000000
 10
289.3746382561129
 20
202.7135351541159
 30
0.000000000000000
 10
289.5155061301580
 20
202.7375645011359
 30
0.000000000000000
 10
289.6972404447986
 20
202.7779459436099
 30
0.000000000000000
 10
289.9227473174463
 20
202.8439151592869
 30
0.000000000000000
 10
290.0841185977072
 20
202.9061333205381
 30
0.000000000000000
 10
290.1704937138783
 20
202.9439625175040
 30
0.000000000000000
  0
SPLINE
  5
59
100
AcDbEntity
  8
A5
  6
CONTINUOUS
 62
7
100
AcDbSpline
210
0.000000000000000
220
0.000000000000000
230
1.000000000000000
 70
     8
 71
     3
 72
    20
 73
    16
 74
     0
 42
1.000000000000000e-07
 43
1.000000000000000e-07
 12
0.9160323691928625
 22
-0.4011043487546431
 32
0.000000000000000
 13
0.8689015859818028
 23
0.4949848824730907
 33
0.000000000000000
 40
0.000000000000000
 40
0.000000000000000
 40
0.000000000000000
 40
0.000000000000000
 40
0.3002302439030413
 40
0.5311970104737860
 40
0.6940971584326989
 40
0.8400477295789663
 40
1.140736312717221
 40
1.443588395187999
 40
1.748533808750468
 40
2.037007696120901
 40
2.142925080617590
 40
2.281610676680924
 40
2.468851057936898
 40
2.704208882513534
 40
2.986582187543401
 40
2.986582187543401
 40
2.986582187543401
 40
2.986582187543401
 10
127.2622884970588
 20
202.9439625175041
 30
0.000000000000000
 10
127.3539620376007
 20
202.9038212986850
 30
0.000000000000000
 10
127.5196633881917
 20
202.8404589005628
 30
0.000000000000000
 10
127.7422164563000
 20
202.7765238106918
 30
0.000000000000000
 10
127.9179659419749
 20
202.7375538128504
 30
0.000000000000000
 10
128.1182474875839
 20
202.7030428598486
 30
0.000000000000000
 10
128.3671421374811
 20
202.6773737736103
 30
0.000000000000000
 10
128.6703844289252
 20
202.6743421165482
 30
0.000000000000000
 10
128.9685371697396
 20
202.6989125747521
 30
0.000000000000000
 10
129.1985997982213
 20
202.7384686236415
 30
0.000000000000000
 10
129.3715790727883
 20
202.7792236600506
 30
0.000000000000000
 10
129.5103782863125
 20
202.8175522900882
 30
0.000000000000000
 10
129.6880395428548
 20
202.8765592905125
 30
0.000000000000000
 10
129.9058172939031
 20
202.9653945831339
 30
0.000000000000000
 10
130.0597620878689
 20
203.0440529761146
 30
0.000000000000000
 10
130.1415469587287
 20
203.0906431485158
 30
0.000000000000000
  0
SPLINE
  5
5A
100
AcDbEntity
  8
A5
  6
CONTINUOUS
 62
7
100
AcDbSpline
210
0.000000000000000
220
0.000000000000000
230
1.000000000000000
 70
     8
 71
     3
 72
    73
 73
    69
 74
     0
 42
1.000000000000000e-07
 43
1.000000000000000e-07
 12
0.3303732638669317
 22
0.2990205488276843
 32
0.000000000000000
 13
0.9978390183972294
 23
0.06570611359461509
 33
0.000000000000000
 40
0.000000000000000
 40
0.000000000000000
 40
0.000000000000000
 40
0.000000000000000
 40
0.02772302326102690
 40
0.09999246560789560
 40
0.2101486747461535
 40
0.3030690956304061
 40
0.3961495594552770
 40
0.5169723865830465
 40
0.6045200506031609
 40
0.6762798254974216
 40
0.7505804458304499
 40
0.8588179796621245
 40
0.9661825437089833
 40
1.043617113729204
 40
1.101657516379178
 40
1.176822093777869
 40
1.263222219371505
 40
1.339185016152217
 40
1.402204051810923
 40
1.466415592375105
 40
1.541119594182946
 40
1.732082565779759
 40
1.907144670397255
 40
2.087446795853940
 40
2.214142702555357
 40
2.365643116310689
 40
2.521969565246038
 40
2.645393464735510
 40
2.893307248855843
 40
3.212048471593937
 40
3.539345520368608
 40
3.884736727835381
 40
4.281208087379352
 40
4.638821026042970
 40
5.006278590586580
 40
5.355087837922608
 40
5.673531287963190
 40
5.962647772427021
 40
6.183056698709143
 40
6.420928672045341
 40
6.674967740232142
 40
6.944995254908483
 40
7.201129954147543
 40
7.401732616367351
 40
7.551724192209925
 40
7.683162337269506
 40
7.832462111573474
 40
8.144638680694991
 40
8.498039994497590
 40
8.873454729556425
 40
9.266301697429993
 40
9.657765362193565
 40
10.06563582769540
 40
10.48973009829766
 40
10.93011961552847
 40
11.40057899014325
 40
11.91791737695443
 40
12.58828079572028
 40
13.32475146960640
 40
14.12775513756285
 40
14.99758675713083
 40
15.95449296821609
 40
16.98182592958803
 40
18.07992990030006
 40
19.24906583487889
 40
20.48938804742685
 40
21.80091848632326
 40
23.18351895883254
 40
23.18351895883254
 40
23.18351895883254
 40
23.18351895883254
 10
76.71789228171622
 20
199.6325683046821
 30
0.000000000000000
 10
76.72094526360922
 20
199.6353315558923
 30
0.000000000000000
 10
76.74576245721903
 20
199.6575822677144
 30
0.000000000000000
 10
76.79874619089878
 20
199.7034110149453
 30
0.000000000000000
 10
76.86912259723431
 20
199.7623370019665
 30
0.000000000000000
 10
76.94614420309074
 20
199.8240970036061
 30
0.000000000000000
 10
77.02701408969642
 20
199.8867146123296
 30
0.000000000000000
 10
77.10752935386745
 20
199.9468438813273
 30
0.000000000000000
 10
77.18318385706323
 20
200.0015796503548
 30
0.000000000000000
 10
77.24676402101613
 20
200.0465394579489
 30
0.000000000000000
 10
77.31643434036084
 20
200.0948252210944
 30
0.000000000000000
 10
77.39647622832251
 20
200.1489734327229
 30
0.000000000000000
 10
77.47806536124915
 20
200.2026842738257
 30
0.000000000000000
 10
77.54612864101023
 20
200.2465007785229
 30
0.000000000000000
 10
77.60544598927879
 20
200.2840692693252
 30
0.000000000000000
 10
77.66754007521115
 20
200.3228370486808
 30
0.000000000000000
 10
77.73513704454342
 20
200.3640651106357
 30
0.000000000000000
 10
77.79968481573621
 20
200.4025080212766
 30
0.000000000000000
 10
77.85814833818063
 20
200.4367072897777
 30
0.000000000000000
 10
77.91647926838834
 20
200.4702991720763
 30
0.000000000000000
 10
78.01214742534569
 20
200.5245104912148
 30
0.000000000000000
 10
78.14086149019977
 20
200.5953446953859
 30
0.000000000000000
 10
78.30172305721374
 20
200.6807214278620
 30
0.000000000000000
 10
78.44467498159111
 20
200.7541151578364
 30
0.000000000000000
 10
78.58140538006433
 20
200.8224029651633
 30
0.000000000000000
 10
78.71161662339864
 20
200.8858437373810
 30
0.000000000000000
 10
78.84151106841250
 20
200.9474262780172
 30
0.000000000000000
 10
79.00116050643101
 20
201.0212454752445
 30
0.000000000000000
 10
79.21117215343975
 20
201.1151199381315
 30
0.000000000000000
 10
79.48560801648216
 20
201.2312927983679
 30
0.000000000000000
 10
79.79294122525482
 20
201.3528611927444
 30
0.000000000000000
 10
80.12681065904667
 20
201.4775723398828
 30
0.000000000000000
 10
80.47176288703167
 20
201.6013792204348
 30
0.000000000000000
 10
80.82439174638421
 20
201.7255388962407
 30
0.000000000000000
 10
81.16279117511090
 20
201.8422595900031
 30
0.000000000000000
 10
81.48979839802973
 20
201.9519317070551
 30
0.000000000000000
 10
81.79298855519789
 20
202.0504496039505
 30
0.000000000000000
 10
82.05631711300941
 20
202.1331005717975
 30
0.000000000000000
 10
82.29473436764840
 20
202.2053896546601
 30
0.000000000000000
 10
82.52262569596462
 20
202.2720649962043
 30
0.000000000000000
 10
82.76724349092126
 20
202.3404115886858
 30
0.000000000000000
 10
83.01860874832107
 20
202.4071513755793
 30
0.000000000000000
 10
83.25349106751707
 20
202.4664835626990
 30
0.000000000000000
 10
83.45005163176086
 20
202.5140974873954
 30
0.000000000000000
 10
83.60647451665488
 20
202.5508317620081
 30
0.000000000000000
 10
83.74642120819624
 20
202.5829144562520
 30
0.000000000000000
 10
83.93928224824538
 20
202.6261087370430
 30
0.000000000000000
 10
84.20479306812160
 20
202.6834453302972
 30
0.000000000000000
 10
84.54467271996066
 20
202.7533808712062
 30
0.000000000000000
 10
84.91144588489078
 20
202.8260212915654
 30
0.000000000000000
 10
85.29184029518842
 20
202.8949623301721
 30
0.000000000000000
 10
85.68365497147056
 20
202.9613336432762
 30
0.000000000000000
 10
86.08602039514267
 20
203.0277493966243
 30
0.000000000000000
 10
86.50470681050149
 20
203.0954158158529
 30
0.000000000000000
 10
86.94427786857455
 20
203.1646002542148
 30
0.000000000000000
 10
87.41483689937809
 20
203.2367864935434
 30
0.000000000000000
 10
87.96152484799393
 20
203.3182365938397
 30
0.000000000000000
 10
88.59638740715388
 20
203.4095395144487
 30
0.000000000000000
 10
89.32610762756110
 20
203.5101038238384
 30
0.000000000000000
 10
90.12236719336272
 20
203.6147576150965
 30
0.000000000000000
 10
90.99221348384344
 20
203.7232586223477
 30
0.000000000000000
 10
91.93706491184741
 20
203.8343966010829
 30
0.000000000000000
 10
92.95834499837372
 20
203.9468938477690
 30
0.000000000000000
 10
94.05083099214073
 20
204.0587955364844
 30
0.000000000000000
 10
95.21484512037716
 20
204.1687899130045
 30
0.000000000000000
 10
96.45058272324593
 20
204.2755809339700
 30
0.000000000000000
 10
97.75808898430091
 20
204.3778255216580
 30
0.000000000000000
 10
98.65394674532968
 20
204.4406212237336
 30
0.000000000000000
 10
99.11381764477107
 20
204.4709029916345
 30
0.000000000000000
  0
SPLINE
  5
5B
100
AcDbEntity
  8
A5
  6
CONTINUOUS
 62
7
100
AcDbSpline
210
0.000000000000000
220
0.000000000000000
230
1.000000000000000
 70
     8
 71
     3
 72
    76
 73
    72
 74
     0
 42
1.000000000000000e-07
 43
1.000000000000000e-07
 12
0.9978389799888419
 22
-0.06570669688068165
 32
0.000000000000000
 13
0.6247867046749889
 23
-0.5582234816556593
 33
0.000000000000000
 40
0.000000000000000
 40
0.000000000000000
 40
0.000000000000000
 40
0.000000000000000
 40
1.379661174448478
 40
2.688562476199873
 40
3.926566013655940
 40
5.093692773126308
 40
6.190095134051026
 40
7.198327250742915
 40
8.138909865812114
 40
9.012223579334933
 40
9.818688195570244
 40
10.57301567743009
 40
11.25849250670557
 40
11.87567000942704
 40
12.42802012815736
 40
12.94796450665710
 40
13.44439897807129
 40
13.91720128004018
 40
14.31703018426035
 40
14.69870919752602
 40
15.05744123097337
 40
15.37146484476875
 40
15.62537197041936
 40
15.75451292219669
 40
15.92396447579652
 40
16.13369010006740
 40
16.37319485065711
 40
16.60378462001794
 40
16.82224465007707
 40
17.02810387595282
 40
17.22046553873801
 40
17.52802849949073
 40
17.86917336889088
 40
18.24306259610670
 40
18.63472978052743
 40
19.00235395288285
 40
19.32490360786081
 40
19.59680003329049
 40
19.85491161605174
 40
20.11265668919086
 40
20.34975239447011
 40
20.53813274976928
 40
20.65120692792403
 40
20.79321528532834
 40
20.93773630991490
 40
21.06096009529086
 40
21.16419060091189
 40
21.26148186216392
 40
21.35698637153900
 40
21.46254445826782
 40
21.57635595213054
 40
21.68918001309107
 40
21.78186224387155
 40
21.87389884466283
 40
21.95487110179701
 40
22.03957280164984
 40
22.10764793756881
 40
22.15904260179376
 40
22.21269274572154
 40
22.28062901044651
 40
22.36036072519277
 40
22.43626436237174
 40
22.49339822346140
 40
22.54218052577166
 40
22.60051402286541
 40
22.66655834773135
 40
22.79747358502794
 40
22.89387709360226
 40
23.00652025966559
 40
23.11271842014254
 40
23.17787803206592
 40
23.17787803206592
 40
23.17787803206592
 40
23.17787803206592
 10
318.3189645661660
 20
204.4709029916345
 30
0.000000000000000
 10
318.7778577991800
 20
204.4406853321053
 30
0.000000000000000
 10
319.6718644377576
 20
204.3780273947400
 30
0.000000000000000
 10
320.9767522487317
 20
204.2760219224168
 30
0.000000000000000
 10
322.2101840412157
 20
204.1694844555888
 30
0.000000000000000
 10
323.3722037958973
 20
204.0597491639695
 30
0.000000000000000
 10
324.4571338178277
 20
203.9487044360598
 30
0.000000000000000
 10
325.4661294957286
 20
203.8377170018994
 30
0.000000000000000
 10
326.4004380437437
 20
203.7280959961471
 30
0.000000000000000
 10
327.2672195936398
 20
203.6202872796330
 30
0.000000000000000
 10
328.0717105834430
 20
203.5148247424918
 30
0.000000000000000
 10
328.8134875381909
 20
203.4127941189622
 30
0.000000000000000
 10
329.4921816983721
 20
203.3152752118262
 30
0.000000000000000
 10
330.1037349638548
 20
203.2239283559939
 30
0.000000000000000
 10
330.6602844641787
 20
203.1378988557691
 30
0.000000000000000
 10
331.1766796848813
 20
203.0556006275015
 30
0.000000000000000
 10
331.6665004742487
 20
202.9750849980952
 30
0.000000000000000
 10
332.1165438819253
 20
202.8994200793340
 30
0.000000000000000
 10
332.5279526239819
 20
202.8247980560887
 30
0.000000000000000
 10
332.9007770033914
 20
202.7508369841425
 30
0.000000000000000
 10
333.2450193037005
 20
202.6798698240428
 30
0.000000000000000
 10
333.5469128943928
 20
202.6144840644056
 30
0.000000000000000
 10
333.7735301635226
 20
202.5631417761964
 30
0.000000000000000
 10
333.9528466887064
 20
202.5211519531915
 30
0.000000000000000
 10
334.1175939029243
 20
202.4815474678833
 30
0.000000000000000
 10
334.3177219188598
 20
202.4317514566578
 30
0.000000000000000
 10
334.5370664840967
 20
202.3748244582928
 30
0.000000000000000
 10
334.7585725044233
 20
202.3146916455642
 30
0.000000000000000
 10
334.9685931005122
 20
202.2551144027995
 30
0.000000000000000
 10
335.1657747363063
 20
202.1970140216390
 30
0.000000000000000
 10
335.3908808729298
 20
202.1286320220866
 30
0.000000000000000
 10
335.6583486972050
 20
202.0445837677476
 30
0.000000000000000
 10
335.9824377700556
 20
201.9389445197039
 30
0.000000000000000
 10
336.3320359493545
 20
201.8211612580500
 30
0.000000000000000
 10
336.6889114285789
 20
201.6973866754508
 30
0.000000000000000
 10
337.0289117016342
 20
201.5772067421608
 30
0.000000000000000
 10
337.3305437856915
 20
201.4682897170552
 30
0.000000000000000
 10
337.5967781935603
 20
201.3688673512888
 30
0.000000000000000
 10
337.8414530797357
 20
201.2735222108886
 30
0.000000000000000
 10
338.0736498610600
 20
201.1782056140209
 30
0.000000000000000
 10
338.2827424488817
 20
201.0879229735174
 30
0.000000000000000
 10
338.4464874146459
 20
201.0143316027891
 30
0.000000000000000
 10
338.5806826819257
 20
200.9523392622222
 30
0.000000000000000
 10
338.7011130355892
 20
200.8954211224564
 30
0.000000000000000
 10
338.8240183656242
 20
200.8358374736558
 30
0.000000000000000
 10
338.9347793826246
 20
200.7808484039047
 30
0.000000000000000
 10
339.0310446040244
 20
200.7320743289365
 30
0.000000000000000
 10
339.1187345411924
 20
200.6868251488659
 30
0.000000000000000
 10
339.2067759842800
 20
200.6405710613306
 30
0.000000000000000
 10
339.2993004262794
 20
200.5910161844457
 30
0.000000000000000
 10
339.3964314984856
 20
200.5378433593301
 30
0.000000000000000
 10
339.4892745007310
 20
200.4857864247619
 30
0.000000000000000
 10
339.5752958706524
 20
200.4364156384966
 30
0.000000000000000
 10
339.6516694778932
 20
200.3915729057725
 30
0.000000000000000
 10
339.7253078392453
 20
200.3473339598999
 30
0.000000000000000
 10
339.7916291933782
 20
200.3064354960702
 30
0.000000000000000
 10
339.8492620825248
 20
200.2702375058605
 30
0.000000000000000
 10
339.8979371098472
 20
200.2392402050912
 30
0.000000000000000
 10
339.9463955615552
 20
200.2079906853710
 30
0.000000000000000
 10
340.0025464853298
 20
200.1712431453335
 30
0.000000000000000
 10
340.0645581057843
 20
200.1299087936634
 30
0.000000000000000
 10
340.1232072929990
 20
200.0900277097514
 30
0.000000000000000
 10
340.1730425923143
 20
200.0555361747794
 30
0.000000000000000
 10
340.2178493362308
 20
200.0240728156704
 30
0.000000000000000
 10
340.2648506318607
 20
199.9905682266863
 30
0.000000000000000
 10
340.3337188715432
 20
199.9405788936899
 30
0.000000000000000
 10
340.4120301843240
 20
199.8820021680648
 30
0.000000000000000
 10
340.5015026786072
 20
199.8124508089255
 30
0.000000000000000
 10
340.5831643928682
 20
199.7463045359401
 30
0.000000000000000
 10
340.6567782637858
 20
199.6840075965040
 30
0.000000000000000
 10
340.7009824125728
 20
199.6451079366724
 30
0.000000000000000
 10
340.7145526989767
 20
199.6329833948620
 30
0.000000000000000
  0
SPLINE
  5
5C
100
AcDbEntity
  8
A5
  6
CONTINUOUS
 62
7
100
AcDbSpline
210
0.000000000000000
220
0.000000000000000
230
1.000000000000000
 70
     8
 71
     3
 72
   106
 73
   102
 74
     0
 42
1.000000000000000e-07
 43
1.000000000000000e-07
 12
-0.9998804690158352
 22
-0.01546116686279220
 32
0.000000000000000
 13
-0.6686130405230415
 23
-0.7436105177048375
 33
0.000000000000000
 40
0.000000000000000
 40
0.000000000000000
 40
0.000000000000000
 40
0.000000000000000
 40
1.564426083214038
 40
3.073954796656159
 40
4.527789112068203
 40
5.925315383597926
 40
7.266083235728516
 40
8.549786523607553
 40
9.776245374169395
 40
10.94538931239761
 40
12.10873565897864
 40
13.20889616727153
 40
14.24599202060247
 40
15.22034815644479
 40
16.13216452321536
 40
16.98156677167522
 40
17.73173386073725
 40
18.42839957812956
 40
19.07320397892217
 40
19.65976011661153
 40
20.18469262328984
 40
20.64715616005740
 40
21.05139337958283
 40
21.40362481863224
 40
21.81798649642209
 40
22.25603309388369
 40
22.72505727022764
 40
23.23347353669918
 40
23.78856279149726
 40
24.11844147276688
 40
24.46129888875855
 40
24.79687750613018
 40
25.07208208940200
 40
25.21167608958457
 40
25.32505840014620
 40
25.41201587528421
 40
25.47397166304430
 40
25.55832246012968
 40
25.70540918101216
 40
25.90842808929224
 40
26.16719659309974
 40
26.48096363692948
 40
26.82470589834217
 40
27.14865957956799
 40
27.45174705413078
 40
27.73440826265739
 40
28.14512747971057
 40
28.50586883780824
 40
28.83185851764680
 40
29.14062879159249
 40
29.43841927032506
 40
29.85640613807853
 40
30.32069922771269
 40
30.84134554779592
 40
31.35612474217791
 40
31.82772769327982
 40
32.27310667778011
 40
32.72474678232314
 40
33.17130150461809
 40
33.60167182652892
 40
34.01649017637982
 40
34.35697867900358
 40
34.73947241092996
 40
35.13403408741582
 40
35.50277808896809
 40
35.77855894863055
 40
36.05329810764412
 40
36.33258336288102
 40
36.65358941632996
 40
37.08270647263699
 40
37.45219017426316
 40
37.76113370768672
 40
38.06392938438186
 40
38.37254070114381
 40
38.65751055250203
 40
38.83122365205666
 40
39.02525245106725
 40
39.24655996539461
 40
39.48245144342157
 40
39.68698574190783
 40
39.85810529466520
 40
40.04957983167547
 40
40.55538022152707
 40
40.94666151262312
 40
41.42541394781246
 40
41.89046986677015
 40
42.32784690260046
 40
42.82489916470002
 40
42.96820436367912
 40
43.09622009303632
 40
43.20822244624119
 40
43.30426602467050
 40
43.40597467845066
 40
43.54029306236902
 40
43.70693965554447
 40
43.86838176632681
 40
44.00294264023855
 40
44.10554995793034
 40
44.22735279219641
 40
44.38575639972809
 40
44.58002414853394
 40
44.58002414853394
 40
44.58002414853394
 40
44.58002414853394
 10
99.11231687011912
 20
227.4073721001961
 30
0.000000000000000
 10
98.59090384151091
 20
227.3993094826237
 30
0.000000000000000
 10
97.56645313967272
 20
227.3778631599926
 30
0.000000000000000
 10
96.05791150971606
 20
227.3303457581704
 30
0.000000000000000
 10
94.60554914638635
 20
227.2689812783088
 30
0.000000000000000
 10
93.21010213949262
 20
227.1950798030595
 30
0.000000000000000
 10
91.87211837015889
 20
227.1099212565917
 30
0.000000000000000
 10
90.59197744109167
 20
227.0148414849081
 30
0.000000000000000
 10
89.36990664432983
 20
226.9112014507059
 30
0.000000000000000
 10
88.18891285814789
 20
226.7987345892036
 30
0.000000000000000
 10
87.05101264892926
 20
226.6784651304140
 30
0.000000000000000
 10
85.95816896044857
 20
226.5512673425529
 30
0.000000000000000
 10
84.92919780626835
 20
226.4207020903782
 30
0.000000000000000
 10
83.96378046838299
 20
226.2884088519738
 30
0.000000000000000
 10
83.06161987797282
 20
226.1556901635641
 30
0.000000000000000
 10
82.23451942793042
 20
226.0264074340515
 30
0.000000000000000
 10
81.47967102515861
 20
225.8995821490062
 30
0.000000000000000
 10
80.79341664618005
 20
225.7763770472777
 30
0.000000000000000
 10
80.16207957996005
 20
225.6561322760389
 30
0.000000000000000
 10
79.58801809772422
 20
225.5412766959126
 30
0.000000000000000
 10
79.07445801293045
 20
225.4339423094870
 30
0.000000000000000
 10
78.62115446649500
 20
225.3354398011201
 30
0.000000000000000
 10
78.22476894121235
 20
225.2461656024827
 30
0.000000000000000
 10
77.84463017691962
 20
225.1577770576594
 30
0.000000000000000
 10
77.45416258372734
 20
225.0640870987587
 30
0.000000000000000
 10
77.02662049268542
 20
224.9581074539861
 30
0.000000000000000
 10
76.56948281095197
 20
224.8412679509396
 30
0.000000000000000
 10
76.07540787304413
 20
224.7114449131420
 30
0.000000000000000
 10
75.62690392976890
 20
224.5907319225702
 30
0.000000000000000
 10
75.23224721223858
 20
224.4823208087415
 30
0.000000000000000
 10
74.90851222999629
 20
224.3919722444092
 30
0.000000000000000
 10
74.60270112617673
 20
224.3052079796171
 30
0.000000000000000
 10
74.36235248186711
 20
224.2359568052210
 30
0.000000000000000
 10
74.19331691203683
 20
224.1867202245002
 30
0.000000000000000
 10
74.08458463078784
 20
224.1548337813324
 30
0.000000000000000
 10
74.00072235272501
 20
224.1301062191995
 30
0.000000000000000
 10
73.92616675337956
 20
224.1080323534123
 30
0.000000000000000
 10
73.83242361094710
 20
224.0801642393026
 30
0.000000000000000
 10
73.69368298981851
 20
224.0386484013391
 30
0.000000000000000
 10
73.49940676944880
 20
223.9799213327564
 30
0.000000000000000
 10
73.25223812076979
 20
223.9041603421909
 30
0.000000000000000
 10
72.96067964143708
 20
223.8131673857931
 30
0.000000000000000
 10
72.64900962616673
 20
223.7137013661485
 30
0.000000000000000
 10
72.34140601996501
 20
223.6132278841279
 30
0.000000000000000
 10
72.05376847175944
 20
223.5172236772665
 30
0.000000000000000
 10
71.73934439445088
 20
223.4101431438594
 30
0.000000000000000
 10
71.40756140698363
 20
223.2944407023442
 30
0.000000000000000
 10
71.06314722464481
 20
223.1711386992281
 30
0.000000000000000
 10
70.75156764495466
 20
223.0569736670117
 30
0.000000000000000
 10
70.46043818449289
 20
222.9480106415022
 30
0.000000000000000
 10
70.14139182898793
 20
222.8261744430387
 30
0.000000000000000
 10
69.77502985212936
 20
222.6829506930917
 30
0.000000000000000
 10
69.34116123190063
 20
222.5084378833699
 30
0.000000000000000
 10
68.87941709291590
 20
222.3168398205083
 30
0.000000000000000
 10
68.41765260543343
 20
222.1190201325969
 30
0.000000000000000
 10
67.98100084087275
 20
221.9263691053643
 30
0.000000000000000
 10
67.56546227718593
 20
221.7380638245955
 30
0.000000000000000
 10
67.15926223246788
 20
221.5494254510043
 30
0.000000000000000
 10
66.75953655431306
 20
221.3587740786057
 30
0.000000000000000
 10
66.37300395921181
 20
221.1690367768010
 30
0.000000000000000
 10
66.02010922967656
 20
220.9910626477272
 30
0.000000000000000
 10
65.68316940112959
 20
220.8169403982197
 30
0.000000000000000
 10
65.35387777696485
 20
220.6427592107018
 30
0.000000000000000
 10
65.01814415988304
 20
220.4606564393424
 30
0.000000000000000
 10
64.71541718338199
 20
220.2923489928755
 30
0.000000000000000
 10
64.44894194839037
 20
220.1410653633194
 30
0.000000000000000
 10
64.20945868902152
 20
220.0026534944838
 30
0.000000000000000
 10
63.95807546026015
 20
219.8547223579983
 30
0.000000000000000
 10
63.66384516755477
 20
219.6781604151645
 30
0.000000000000000
 10
63.34593532067640
 20
219.4826586421173
 30
0.000000000000000
 10
63.03373466538676
 20
219.2856026447355
 30
0.000000000000000
 10
62.75894861599625
 20
219.1081951717351
 30
0.000000000000000
 10
62.50280995488197
 20
218.9393403647294
 30
0.000000000000000
 10
62.25494154133889
 20
218.7724843129580
 30
0.000000000000000
 10
62.04413825221582
 20
218.6276411348883
 30
0.000000000000000
 10
61.86574232781788
 20
218.5030927380668
 30
0.000000000000000
 10
61.70542842202474
 20
218.3897206230023
 30
0.000000000000000
 10
61.52906072785686
 20
218.2631613534668
 30
0.000000000000000
 10
61.35084090538976
 20
218.1331870884866
 30
0.000000000000000
 10
61.18704324059991
 20
218.0118397470925
 30
0.000000000000000
 10
61.03587312011450
 20
217.8983266559495
 30
0.000000000000000
 10
60.80549885522942
 20
217.7230600747828
 30
0.000000000000000
 10
60.51941097771919
 20
217.4998292963435
 30
0.000000000000000
 10
60.16244578862234
 20
217.2118837628935
 30
0.000000000000000
 10
59.82056536835796
 20
216.9269426650508
 30
0.000000000000000
 10
59.47219963539055
 20
216.6258983952941
 30
0.000000000000000
 10
59.12460810343453
 20
216.3147432817623
 30
0.000000000000000
 10
58.86143295600812
 20
216.0701703708166
 30
0.000000000000000
 10
58.67611830870385
 20
215.8933693353555
 30
0.000000000000000
 10
58.58416384404995
 20
215.8046514967980
 30
0.000000000000000
 10
58.50393548110992
 20
215.7264715664529
 30
0.000000000000000
 10
58.43030112449696
 20
215.6540912055059
 30
0.000000000000000
 10
58.35168435963851
 20
215.5761694597790
 30
0.000000000000000
 10
58.25682375060398
 20
215.4812069136522
 30
0.000000000000000
 10
58.14858974187905
 20
215.3714634616657
 30
0.000000000000000
 10
58.04107349245294
 20
215.2609041067278
 30
0.000000000000000
 10
57.94904854512720
 20
215.1650600145094
 30
0.000000000000000
 10
57.86662604749267
 20
215.0783167758010
 30
0.000000000000000
 10
57.77916219406256
 20
214.9854012985350
 30
0.000000000000000
 10
57.67158249913996
 20
214.8694685605425
 30
0.000000000000000
 10
57.59193724954002
 20
214.7829961555132
 30
0.000000000000000
 10
57.54864059947181
 20
214.7348429750922
 30
0.000000000000000
  0
SPLINE
  5
5D
100
AcDbEntity
  8
A5
  6
CONTINUOUS
 62
7
100
AcDbSpline
210
0.000000000000000
220
0.000000000000000
230
1.000000000000000
 70
     8
 71
     3
 72
    75
 73
    71
 74
     0
 42
1.000000000000000e-07
 43
1.000000000000000e-07
 12
-0.6686130405236099
 22
-0.7436105177062018
 32
0.000000000000000
 13
-6.122520630924555e-06
 23
-0.9999999999813554
 33
0.000000000000000
 40
0.000000000000000
 40
0.000000000000000
 40
0.000000000000000
 40
0.000000000000000
 40
0.1932171306142496
 40
0.4397989956770442
 40
0.6415231457800512
 40
0.8354503274866635
 40
1.033531363564657
 40
1.212693504322462
 40
1.410854389235376
 40
1.581754177136773
 40
1.713833597114935
 40
1.860257232460848
 40
2.048123500212603
 40
2.261624624181045
 40
2.440364106745410
 40
2.578725303315263
 40
2.749603383680715
 40
2.944901315600738
 40
3.198019596107319
 40
3.425492157031975
 40
3.616224050417623
 40
3.762247475343313
 40
3.902394592530138
 40
4.049602497750055
 40
4.224828122192001
 40
4.440996210424324
 40
4.725742249070843
 40
4.937781918442611
 40
5.120386027175379
 40
5.308968953349103
 40
5.533666367340029
 40
5.783493367062332
 40
6.038774380725508
 40
6.280921107044695
 40
6.482752898846414
 40
6.749637877776935
 40
7.033272018557627
 40
7.357401009374440
 40
7.728837454647558
 40
8.089453605644172
 40
8.399687024236650
 40
8.686963554794724
 40
8.978334331592032
 40
9.261546997293260
 40
9.552672325796445
 40
9.895115485241247
 40
10.26482048361398
 40
10.62963722311041
 40
10.97283578437649
 40
11.37741313956909
 40
11.75865083194794
 40
12.14583619592874
 40
12.52770252864070
 40
12.69315405132076
 40
12.81442137539302
 40
12.91510657545226
 40
13.01453978196889
 40
13.14510657923445
 40
13.27331972205481
 40
13.40394616606780
 40
13.59247055394267
 40
13.81914916629317
 40
14.08412533635975
 40
14.38755471728710
 40
14.72964542815101
 40
15.11065632334665
 40
15.53089472273841
 40
15.99071946279733
 40
16.49054267224488
 40
17.03082978102303
 40
17.03082978102303
 40
17.03082978102303
 40
17.03082978102303
 10
57.54864059947181
 20
214.7348429750922
 30
0.000000000000000
 10
57.50557810174473
 20
214.6869502115836
 30
0.000000000000000
 10
57.40722456700848
 20
214.5782370471818
 30
0.000000000000000
 10
57.26598399420948
 20
214.4176686426121
 30
0.000000000000000
 10
57.12605190031218
 20
214.2556529395200
 30
0.000000000000000
 10
56.99810506997983
 20
214.1046579404410
 30
0.000000000000000
 10
56.87634302092260
 20
213.9582905164416
 30
0.000000000000000
 10
56.75499728745194
 20
213.8097515317523
 30
0.000000000000000
 10
56.64065649969984
 20
213.6671981523817
 30
0.000000000000000
 10
56.53729449976947
 20
213.5359673160809
 30
0.000000000000000
 10
56.44546924466863
 20
213.4176087928317
 30
0.000000000000000
 10
56.35101240008942
 20
213.2941380840471
 30
0.000000000000000
 10
56.24125672447963
 20
213.1482055250909
 30
0.000000000000000
 10
56.12656599871605
 20
212.9925165850533
 30
0.000000000000000
 10
56.02306417222712
 20
212.8490932675271
 30
0.000000000000000
 10
55.92893419426082
 20
212.7164354852266
 30
0.000000000000000
 10
55.83268796117409
 20
212.5785166704449
 30
0.000000000000000
 10
55.71614028664317
 20
212.4081290648932
 30
0.000000000000000
 10
55.59110205602508
 20
212.2207072930477
 30
0.000000000000000
 10
55.46925010446330
 20
212.0330124548235
 30
0.000000000000000
 10
55.36857739782681
 20
211.8741452565072
 30
0.000000000000000
 10
55.28468635105594
 20
211.7391140088204
 30
0.000000000000000
 10
55.20938783066572
 20
211.6158295192195
 30
0.000000000000000
 10
55.13002865263161
 20
211.4836241735027
 30
0.000000000000000
 10
55.03896426137828
 20
211.3288964834162
 30
0.000000000000000
 10
54.92670652270158
 20
211.1334571969046
 30
0.000000000000000
 10
54.81115645107297
 20
210.9257765092127
 30
0.000000000000000
 10
54.70376215922749
 20
210.7263917209806
 30
0.000000000000000
 10
54.61344494705020
 20
210.5542321538582
 30
0.000000000000000
 10
54.52299068868865
 20
210.3773915596754
 30
0.000000000000000
 10
54.42461638869418
 20
210.1794472988681
 30
0.000000000000000
 10
54.31927210920469
 20
209.9601618369111
 30
0.000000000000000
 10
54.21464288535788
 20
209.7341078501242
 30
0.000000000000000
 10
54.11975615621475
 20
209.5212007166408
 30
0.000000000000000
 10
54.02607333682988
 20
209.3035466583025
 30
0.000000000000000
 10
53.93005881386944
 20
209.0718595708754
 30
0.000000000000000
 10
53.82277734610716
 20
208.8007518564471
 30
0.000000000000000
 10
53.70810934340318
 20
208.4951360367435
 30
0.000000000000000
 10
53.59123813262261
 20
208.1630091780802
 30
0.000000000000000
 10
53.48309384566608
 20
207.8328115108247
 30
0.000000000000000
 10
53.38982387093290
 20
207.5273395388901
 30
0.000000000000000
 10
53.30843285267986
 20
207.2424288125600
 30
0.000000000000000
 10
53.23435746893540
 20
206.9648407821115
 30
0.000000000000000
 10
53.16482814497215
 20
206.6847582311103
 30
0.000000000000000
 10
53.09636233311551
 20
206.3869169127440
 30
0.000000000000000
 10
53.02773877678544
 20
206.0595836867088
 30
0.000000000000000
 10
52.96173951100673
 20
205.7066831523395
 30
0.000000000000000
 10
52.90365314816677
 20
205.3521394300534
 30
0.000000000000000
 10
52.85164828251754
 20
204.9849130717075
 30
0.000000000000000
 10
52.80744465467080
 20
204.6111397793447
 30
0.000000000000000
 10
52.77088973345894
 20
204.2218168026535
 30
0.000000000000000
 10
52.74410416993112
 20
203.8392875173363
 30
0.000000000000000
 10
52.72962239881690
 20
203.5280945281785
 30
0.000000000000000
 10
52.72280647862112
 20
203.3053334839653
 30
0.000000000000000
 10
52.72020941094809
 20
203.1762231533988
 30
0.000000000000000
 10
52.71883621578479
 20
203.0691027566671
 30
0.000000000000000
 10
52.71808091167804
 20
202.9588762952936
 30
0.000000000000000
 10
52.71795759790575
 20
202.8394716787847
 30
0.000000000000000
 10
52.71782849857925
 20
202.7096697004211
 30
0.000000000000000
 10
52.71766263418374
 20
202.5605484408682
 30
0.000000000000000
 10
52.71753867706275
 20
202.3786053402048
 30
0.000000000000000
 10
52.71742243237452
 20
202.1518789772736
 30
0.000000000000000
 10
52.71727378999367
 20
201.8868509653480
 30
0.000000000000000
 10
52.71710638024490
 20
201.5833522572107
 30
0.000000000000000
 10
52.71693942804154
 20
201.2411753021178
 30
0.000000000000000
 10
52.71677608204322
 20
200.8600620016925
 30
0.000000000000000
 10
52.71662676254414
 20
200.4397040162302
 30
0.000000000000000
 10
52.71650198009991
 20
199.9797419162361
 30
0.000000000000000
 10
52.71641445782961
 20
199.4797635702774
 30
0.000000000000000
 10
52.71639260984409
 20
199.1330601306235
 30
0.000000000000000
 10
52.71639150720443
 20
198.9529644277008
 30
0.000000000000000
  0
SPLINE
  5
5E
100
AcDbEntity
  8
A5
  6
CONTINUOUS
 62
7
100
AcDbSpline
210
0.000000000000000
220
0.000000000000000
230
1.000000000000000
 70
     8
 71
     3
 72
   106
 73
   102
 74
     0
 42
1.000000000000000e-07
 43
1.000000000000000e-07
 12
-6.008925538480980e-06
 22
0.9999999999815827
 32
0.000000000000000
 13
-0.8198147742350557
 23
0.5726287942015915
 33
0.000000000000000
 40
0.000000000000000
 40
0.000000000000000
 40
0.000000000000000
 40
0.000000000000000
 40
0.5239684030530015
 40
1.009955639305684
 40
1.458386990210697
 40
1.869640852164091
 40
2.244048613044689
 40
2.581896027952384
 40
2.883425696224621
 40
3.148837862079629
 40
3.378280334463609
 40
3.571887451507188
 40
3.705939518525109
 40
3.829166717323346
 40
3.954609834982972
 40
4.146843251788774
 40
4.295899509568323
 40
4.517871736652035
 40
4.781851155012021
 40
5.047896749677228
 40
5.316535118171840
 40
5.579756658113529
 40
5.850090744117431
 40
6.191481412272405
 40
6.561280258145015
 40
6.948993849456130
 40
7.326685276954687
 40
7.648804288384643
 40
7.938689848105835
 40
8.216806496347274
 40
8.499837898364994
 40
8.780195232708980
 40
9.109229909779128
 40
9.468552083796450
 40
9.720329051777830
 40
9.944872327858308
 40
10.14895486470921
 40
10.33750509111463
 40
10.52209518245778
 40
10.71684454719642
 40
10.95013822869023
 40
11.22824654900069
 40
11.50001578080457
 40
11.73797464093093
 40
11.93740035962199
 40
12.13269848711347
 40
12.28226839507022
 40
12.46781559263982
 40
12.67443869365366
 40
12.85330428642982
 40
13.00050942293899
 40
13.12922273994140
 40
13.25269730829754
 40
13.39019918767170
 40
13.56691841936077
 40
13.78456966414693
 40
13.98620896553005
 40
14.15176895188502
 40
14.32389117397678
 40
14.47843038690139
 40
14.66136821412935
 40
14.90391656903925
 40
15.09792925220203
 40
15.25451773257872
 40
15.37831312463486
 40
15.52391613729274
 40
15.80559919554754
 40
16.06277773861679
 40
16.28610365689558
 40
16.51133778157343
 40
16.77774729867795
 40
17.11115903845161
 40
17.27749192525339
 40
17.41339221102573
 40
17.51873531605020
 40
17.61335508559775
 40
17.73633662041350
 40
17.88583733495152
 40
18.04557349437017
 40
18.17771932437685
 40
18.28101902967979
 40
18.47404332000659
 40
18.72586205707635
 40
19.01208264647318
 40
19.30179090915136
 40
19.51546801580401
 40
19.70069276781014
 40
19.88992991151358
 40
20.11108404337093
 40
20.36094662110530
 40
20.57923450008121
 40
20.75590683249758
 40
20.93048789479574
 40
21.14616137556836
 40
21.39368150536476
 40
21.61109597368242
 40
21.81308524680154
 40
22.02156242590222
 40
22.27538223090751
 40
22.53486688538409
 40
22.75956340733123
 40
22.75956340733123
 40
22.75956340733123
 40
22.75956340733123
 10
364.7163915065270
 20
198.9529644277092
 30
0.000000000000000
 10
364.7163904570313
 20
199.1276205620570
 30
0.000000000000000
 10
364.7163698289143
 20
199.4642724420488
 30
0.000000000000000
 10
364.7162870876522
 20
199.9504014325333
 30
0.000000000000000
 10
364.7161686069388
 20
200.3989589005098
 30
0.000000000000000
 10
364.7160259152629
 20
200.8103232007417
 30
0.000000000000000
 10
364.7158693437856
 20
201.1848261808738
 30
0.000000000000000
 10
364.7157066961236
 20
201.5227544232755
 30
0.000000000000000
 10
364.7155470269025
 20
201.8243507973990
 30
0.000000000000000
 10
364.7153896681150
 20
202.0898121867810
 30
0.000000000000000
 10
364.7152813284404
 20
202.3192994127130
 30
0.000000000000000
 10
364.7151535488052
 20
202.5049999251280
 30
0.000000000000000
 10
364.7150396983967
 20
202.6552953347220
 30
0.000000000000000
 10
364.7148247829057
 20
202.7828693536511
 30
0.000000000000000
 10
364.7148358471212
 20
202.9298371354849
 30
0.000000000000000
 10
364.7139886340477
 20
203.0854151000587
 30
0.000000000000000
 10
364.7109238440911
 20
203.2731474873458
 30
0.000000000000000
 10
364.7046410533284
 20
203.4847312132115
 30
0.000000000000000
 10
364.6936260862657
 20
203.7351647084361
 30
0.000000000000000
 10
364.6776816945943
 20
204.0009196987261
 30
0.000000000000000
 10
364.6574073753602
 20
204.2661265255690
 30
0.000000000000000
 10
364.6326509788165
 20
204.5323878431741
 30
0.000000000000000
 10
364.6009016741219
 20
204.8223162516396
 30
0.000000000000000
 10
364.5591798935203
 20
205.1468444111283
 30
0.000000000000000
 10
364.5045506421638
 20
205.5090805838557
 30
0.000000000000000
 10
364.4394427713163
 20
205.8818748196795
 30
0.000000000000000
 10
364.3687284923129
 20
206.2374523074368
 30
0.000000000000000
 10
364.2974694422859
 20
206.5595842464372
 30
0.000000000000000
 10
364.2280307676099
 20
206.8480671489586
 30
0.000000000000000
 10
364.1568886349506
 20
207.1226932658052
 30
0.000000000000000
 10
364.0819453198175
 20
207.3930125674009
 30
0.000000000000000
 10
363.9975909928720
 20
207.6782908459315
 30
0.000000000000000
 10
363.9003475964386
 20
207.9862270787953
 30
0.000000000000000
 10
363.7998281992737
 20
208.2830731359037
 30
0.000000000000000
 10
363.7057048488285
 20
208.5452464658886
 30
0.000000000000000
 10
363.6260680263696
 20
208.7576133666917
 30
0.000000000000000
 10
363.5514085724243
 20
208.9493185903538
 30
0.000000000000000
 10
363.4795262816041
 20
209.1277986109443
 30
0.000000000000000
 10
363.4069014935179
 20
209.3026133626180
 30
0.000000000000000
 10
363.3264848691844
 20
209.4903287261458
 30
0.000000000000000
 10
363.2311272845791
 20
209.7055396925260
 30
0.000000000000000
 10
363.1218806040841
 20
209.9426511215158
 30
0.000000000000000
 10
363.0082676916139
 20
210.1794267773477
 30
0.000000000000000
 10
362.9029490355400
 20
210.3910609331994
 30
0.000000000000000
 10
362.8066829955004
 20
210.5787068737806
 30
0.000000000000000
 10
362.7220977134104
 20
210.7392185041513
 30
0.000000000000000
 10
362.6381821566106
 20
210.8948426060614
 30
0.000000000000000
 10
362.5510121940951
 20
211.0529935076785
 30
0.000000000000000
 10
362.4573454208586
 20
211.2187024120600
 30
0.000000000000000
 10
362.3683549490395
 20
211.3723606929216
 30
0.000000000000000
 10
362.2912286391178
 20
211.5028710640667
 30
0.000000000000000
 10
362.2226488318591
 20
211.6169804590504
 30
0.000000000000000
 10
362.1549861677347
 20
211.7278638596442
 30
0.000000000000000
 10
362.0781247803177
 20
211.8518763154833
 30
0.000000000000000
 10
361.9834741308880
 20
212.0017902308292
 30
0.000000000000000
 10
361.8756712531401
 20
212.1686735714522
 30
0.000000000000000
 10
361.7681011327162
 20
212.3312640019419
 30
0.000000000000000
 10
361.6674838280022
 20
212.4802456930537
 30
0.000000000000000
 10
361.5744742579981
 20
212.6154128405001
 30
0.000000000000000
 10
361.4770189484353
 20
212.7545445633041
 30
0.000000000000000
 10
361.3647454206074
 20
212.9119508101649
 30
0.000000000000000
 10
361.2430399192473
 20
213.0787803760443
 30
0.000000000000000
 10
361.1247875329478
 20
213.2372396575875
 30
0.000000000000000
 10
361.0291207232380
 20
213.3631529043197
 30
0.000000000000000
 10
360.9424441922553
 20
213.4756259164059
 30
0.000000000000000
 10
360.8293648307853
 20
213.6203910958868
 30
0.000000000000000
 10
360.6870671216200
 20
213.7987432247239
 30
0.000000000000000
 10
360.5260802628057
 20
213.9952987931747
 30
0.000000000000000
 10
360.3749728760397
 20
214.1756021815132
 30
0.000000000000000
 10
360.2199941362491
 20
214.3566590203374
 30
0.000000000000000
 10
360.0388038425857
 20
214.5635618230509
 30
0.000000000000000
 10
359.8679492440342
 20
214.7533921595573
 30
0.000000000000000
 10
359.7244583911391
 20
214.9092923034049
 30
0.000000000000000
 10
359.6317863011544
 20
215.0086387839135
 30
0.000000000000000
 10
359.5549876666460
 20
215.0900994460217
 30
0.000000000000000
 10
359.4808018258577
 20
215.1681035828528
 30
0.000000000000000
 10
359.3960537593424
 20
215.2563740414672
 30
0.000000000000000
 10
359.2956631665155
 20
215.3597132374467
 30
0.000000000000000
 10
359.1924468719236
 20
215.4645619938800
 30
0.000000000000000
 10
359.0994542050645
 20
215.5578605029917
 30
0.000000000000000
 10
358.9981269461467
 20
215.6585152776972
 30
0.000000000000000
 10
358.8676986456752
 20
215.7864750565462
 30
0.000000000000000
 10
358.6921723898957
 20
215.9555208294069
 30
0.000000000000000
 10
358.4913293310457
 20
216.1447167453230
 30
0.000000000000000
 10
358.2976499732924
 20
216.3229493203675
 30
0.000000000000000
 10
358.1271939747750
 20
216.4766797561068
 30
0.000000000000000
 10
357.9805870044255
 20
216.6068382215008
 30
0.000000000000000
 10
357.8311615638173
 20
216.7375682329072
 30
0.000000000000000
 10
357.6643819878668
 20
216.8811752001012
 30
0.000000000000000
 10
357.4889299152891
 20
217.0295382924140
 30
0.000000000000000
 10
357.3235901954154
 20
217.1668823671233
 30
0.000000000000000
 10
357.1766712337968
 20
217.2871206059834
 30
0.000000000000000
 10
357.0296591309137
 20
217.4058627661486
 30
0.000000000000000
 10
356.8633322007130
 20
217.5382690937579
 30
0.000000000000000
 10
356.6846659071501
 20
217.6780884472715
 30
0.000000000000000
 10
356.5084701450240
 20
217.8136495464456
 30
0.000000000000000
 10
356.3416589989184
 20
217.9400561471305
 30
0.000000000000000
 10
356.1642230998567
 20
218.0725245564898
 30
0.000000000000000
 10
355.9703279695697
 20
218.2149747502820
 30
0.000000000000000
 10
355.7706969416811
 20
218.3587245990019
 30
0.000000000000000
 10
355.6392505360637
 20
218.4523788902260
 30
0.000000000000000
 10
355.5778473599266
 20
218.4952681230340
 30
0.000000000000000
  0
SPLINE
  5
5F
100
AcDbEntity
  8
A5
  6
CONTINUOUS
 62
7
100
AcDbSpline
210
0.000000000000000
220
0.000000000000000
230
1.000000000000000
 70
     8
 71
     3
 72
    76
 73
    72
 74
     0
 42
1.000000000000000e-07
 43
1.000000000000000e-07
 12
-0.8198147742359652
 22
0.5726287942002273
 32
0.000000000000000
 13
-0.9998807182314522
 23
0.01544504155924642
 33
0.000000000000000
 40
0.000000000000000
 40
0.000000000000000
 40
0.000000000000000
 40
0.000000000000000
 40
0.2010314546071348
 40
0.4283171420826695
 40
0.6981755627100856
 40
0.9770713390533106
 40
1.256315869427861
 40
1.521442445809628
 40
1.956053267256578
 40
2.391971894153985
 40
2.824132765017753
 40
3.206954996835031
 40
3.584279512996929
 40
3.793393862507974
 40
3.998318885150857
 40
4.199039523287461
 40
4.409401144098264
 40
4.664361315683200
 40
4.965961668129683
 40
5.305219608652862
 40
5.654935316891236
 40
6.003300722862645
 40
6.315893151077001
 40
6.588868994621915
 40
6.822640014096769
 40
7.033938128390137
 40
7.231908996646270
 40
7.482451568205970
 40
7.743038471525770
 40
8.043667940520633
 40
8.384732341398600
 40
8.822848215424301
 40
9.315958057000056
 40
9.817041904706121
 40
10.27910875303047
 40
10.74070043934651
 40
11.20565146714548
 40
11.67505146836230
 40
12.12136045376311
 40
12.53410558309901
 40
12.88797930572003
 40
13.18083106235345
 40
13.41387931587650
 40
13.60204728089323
 40
13.81426682662361
 40
14.13702835903128
 40
14.51196832338121
 40
14.93511764541980
 40
15.41455948824873
 40
15.94399191662611
 40
16.51442762318996
 40
17.03658495556356
 40
17.59489005975492
 40
18.20032673130767
 40
18.86921357368728
 40
19.60628849886349
 40
20.40396649439381
 40
21.25005644236968
 40
22.26209830964106
 40
23.34463940956318
 40
24.49589595169647
 40
25.71603590503216
 40
27.00536416394773
 40
28.36374945882712
 40
29.79079490877871
 40
31.15913283635593
 40
32.58483379631301
 40
34.06752720145878
 40
35.60667918343479
 40
37.20157197384469
 40
38.85128219595013
 40
38.85128219595013
 40
38.85128219595013
 40
38.85128219595013
 10
355.5778473599266
 20
218.4952681230340
 30
0.000000000000000
 10
355.5229111744023
 20
218.5336402561833
 30
0.000000000000000
 10
355.4060556087735
 20
218.6156708974646
 30
0.000000000000000
 10
355.2142469117282
 20
218.7474738252776
 30
0.000000000000000
 10
355.0000079114367
 20
218.8924505406874
 30
0.000000000000000
 10
354.7700466490143
 20
219.0450799040786
 30
0.000000000000000
 10
354.5400951396392
 20
219.1948523967092
 30
0.000000000000000
 10
354.2651564675392
 20
219.3706371742204
 30
0.000000000000000
 10
353.9441151126589
 20
219.5712422982062
 30
0.000000000000000
 10
353.5729608442615
 20
219.7966532326466
 30
0.000000000000000
 10
353.2138902471778
 20
220.0086414875033
 30
0.000000000000000
 10
352.8693362634082
 20
220.2067415697819
 30
0.000000000000000
 10
352.5875482838632
 20
220.3648076039265
 30
0.000000000000000
 10
352.3564512833626
 20
220.4920039368550
 30
0.000000000000000
 10
352.1763724672250
 20
220.5898010693631
 30
0.000000000000000
 10
351.9953942567465
 20
220.6868065606711
 30
0.000000000000000
 10
351.7991413735330
 20
220.7906121225357
 30
0.000000000000000
 10
351.5724287194051
 20
220.9087414624432
 30
0.000000000000000
 10
351.3066094187636
 20
221.0447840358761
 30
0.000000000000000
 10
351.0114308716014
 20
221.1927663456269
 30
0.000000000000000
 10
350.7009617649215
 20
221.3450017986017
 30
0.000000000000000
 10
350.3971797301698
 20
221.4906561054181
 30
0.000000000000000
 10
350.1153652441803
 20
221.6229318715311
 30
0.000000000000000
 10
349.8674414034200
 20
221.7374975225869
 30
0.000000000000000
 10
349.6496262619213
 20
221.8367178610849
 30
0.000000000000000
 10
349.4541428558788
 20
221.9246442343783
 30
0.000000000000000
 10
349.2531640699948
 20
222.0139760533381
 30
0.000000000000000
 10
349.0367064529568
 20
222.1089283101995
 30
0.000000000000000
 10
348.7883083451223
 20
222.2162414383903
 30
0.000000000000000
 10
348.5114800620391
 20
222.3338176862753
 30
0.000000000000000
 10
348.1791960088282
 20
222.4721796317491
 30
0.000000000000000
 10
347.7862882288402
 20
222.6318268618724
 30
0.000000000000000
 10
347.3421318328059
 20
222.8069832006009
 30
0.000000000000000
 10
346.8886275907594
 20
222.9801202619367
 30
0.000000000000000
 10
346.4431556072105
 20
223.1447586373656
 30
0.000000000000000
 10
346.0074004041064
 20
223.3008766899922
 30
0.000000000000000
 10
345.5678314097538
 20
223.4535306314813
 30
0.000000000000000
 10
345.1316317453808
 20
223.6002923269367
 30
0.000000000000000
 10
344.7106097957443
 20
223.7375290538462
 30
0.000000000000000
 10
344.3251158340572
 20
223.8594472047339
 30
0.000000000000000
 10
343.9876415294231
 20
223.9635263574701
 30
0.000000000000000
 10
343.7069390567011
 20
224.0484202399169
 30
0.000000000000000
 10
343.4788223726130
 20
224.1163746790550
 30
0.000000000000000
 10
343.2762744987562
 20
224.1760134958283
 30
0.000000000000000
 10
343.0448430844021
 20
224.2434272747554
 30
0.000000000000000
 10
342.7533240102865
 20
224.3271672707024
 30
0.000000000000000
 10
342.3937570913300
 20
224.4286675546489
 30
0.000000000000000
 10
341.9833584956027
 20
224.5423226381367
 30
0.000000000000000
 10
341.5226520612512
 20
224.6672484916434
 30
0.000000000000000
 10
341.0137961297438
 20
224.8021725548962
 30
0.000000000000000
 10
340.4902195721587
 20
224.9370941284068
 30
0.000000000000000
 10
339.9561599196368
 20
225.0698244752251
 30
0.000000000000000
 10
339.4095075367211
 20
225.2001642195085
 30
0.000000000000000
 10
338.8137830785531
 20
225.3354314227473
 30
0.000000000000000
 10
338.1583437376869
 20
225.4766487993277
 30
0.000000000000000
 10
337.4385998159745
 20
225.6234465208264
 30
0.000000000000000
 10
336.6592005680370
 20
225.7730853652389
 30
0.000000000000000
 10
335.7876947632271
 20
225.9287396186410
 30
0.000000000000000
 10
334.8203253884669
 20
226.0871769084749
 30
0.000000000000000
 10
333.7504409866096
 20
226.2484442280861
 30
0.000000000000000
 10
332.6101003904812
 20
226.4071972803783
 30
0.000000000000000
 10
331.3995600153489
 20
226.5609973507790
 30
0.000000000000000
 10
330.1186528626541
 20
226.7080121284706
 30
0.000000000000000
 10
328.7674334615721
 20
226.8463917398585
 30
0.000000000000000
 10
327.3883915762074
 20
226.9706077477741
 30
0.000000000000000
 10
325.9856113748993
 20
227.0802424004424
 30
0.000000000000000
 10
324.5631642025311
 20
227.1751306521616
 30
0.000000000000000
 10
323.0828741862168
 20
227.2569125206899
 30
0.000000000000000
 10
321.5454029205840
 20
227.3242872216127
 30
0.000000000000000
 10
319.9516223509335
 20
227.3759216086054
 30
0.000000000000000
 10
318.8703039575299
 20
227.3988788192158
 30
0.000000000000000
 10
318.3204661436124
 20
227.4073721001962
 30
0.000000000000000
  0
LINE
  5
60
100
AcDbEntity
  8
A5
  6
CONTINUOUS
 62
7
100
AcDbLine
 10
76.71639150687497
 20
157.4073721011950
 30
0.000000000000000
 11
52.71639150688816
 21
157.4073721011950
 31
0.000000000000000
  0
LINE
  5
61
100
AcDbEntity
  8
A5
  6
CONTINUOUS
 62
7
100
AcDbLine
 10
340.7163915068811
 20
157.4073721012483
 30
0.000000000000000
 11
364.7163915068679
 21
157.4073721012483
 31
0.000000000000000
  0
LINE
  5
62
100
AcDbEntity
  8
A12
  6
CONTINUOUS
 62
7
100
AcDbLine
 10
364.7163915065269
 20
198.9529646391063
 30
0.000000000000000
 11
364.7163915068679
 21
157.4073721012483
 31
0.000000000000000
  0
LINE
  5
63
100
AcDbEntity
  8
A12
  6
CONTINUOUS
 62
7
100
AcDbLine
 10
52.71639150718751
 20
198.9559192621436
 30
0.000000000000000
 11
52.71639150717614
 21
157.4073721011950
 31
0.000000000000000
  0
LINE
  5
64
100
AcDbEntity
  8
A12
  6
CENTER
 62
1
100
AcDbLine
 10
352.7163915069506
 20
155.9073721011949
 30
0.000000000000000
 11
352.7163915069506
 21
173.9073721011950
 31
0.000000000000000
  0
LINE
  5
65
100
AcDbEntity
  8
A12
  6
CENTER
 62
1
100
AcDbLine
 10
64.71639150695057
 20
155.9073721011949
 30
0.000000000000000
 11
64.71639150695057
 21
173.9073721011950
 31
0.000000000000000
  0
LINE
  5
66
100
AcDbEntity
  8
A12
  6
CONTINUOUS
 62
7
100
AcDbLine
 10
340.7163915068236
 20
157.4073721012483
 30
0.000000000000000
 11
340.7163915068236
 21
200.8647904410791
 31
0.000000000000000
  0
LINE
  5
67
100
AcDbEntity
  8
A12
  6
CONTINUOUS
 62
7
100
AcDbLine
 10
76.71639150702003
 20
157.4073721011950
 30
0.000000000000000
 11
76.71639150702003
 21
200.8647904410791
 31
0.000000000000000
  0
SPLINE
  5
68
100
AcDbEntity
  8
A8
  6
CONTINUOUS
 62
7
100
AcDbSpline
210
0.000000000000000
220
0.000000000000000
230
1.000000000000000
 70
     8
 71
     3
 72
    91
 73
    87
 74
     0
 42
1.000000000000000e-07
 43
1.000000000000000e-07
 12
0.001005119784622366
 22
-0.9999994948666426
 32
0.000000000000000
 13
0.9888898948340170
 23
-0.1486498432398662
 33
0.000000000000000
 40
0.000000000000000
 40
0.000000000000000
 40
0.000000000000000
 40
0.000000000000000
 40
0.1591342089419699
 40
0.2865011933697760
 40
0.3825948446023523
 40
0.4592888984420494
 40
0.5323098463121348
 40
0.6727036123387227
 40
0.8417094392860541
 40
0.9924663198213233
 40
1.128571243677674
 40
1.268532856849867
 40
1.416775808813262
 40
1.641672920489804
 40
1.817183540791244
 40
2.009949593764562
 40
2.232664308709171
 40
2.427465850476947
 40
2.751053302005477
 40
3.069543933731417
 40
3.453470413003856
 40
3.792272258906884
 40
4.153146880741176
 40
4.513771488933739
 40
4.738232409071176
 40
4.973939568594826
 40
5.191804292175389
 40
5.390981097802574
 40
5.569643731431027
 40
5.725651763272786
 40
5.862318215377309
 40
6.031254553564411
 40
6.225736985138063
 40
6.460909946375082
 40
6.698635998479634
 40
6.915236180462622
 40
7.109946775205794
 40
7.282331207060287
 40
7.439284247435283
 40
7.723425473959036
 40
8.014619744560802
 40
8.334933261411569
 40
8.674978412759302
 40
8.980483738653918
 40
9.239534891338948
 40
9.457941376728952
 40
9.606128454313787
 40
9.764292702983093
 40
9.947483806351618
 40
10.16553164677703
 40
10.42986535915757
 40
10.74871013767427
 40
11.18730667549532
 40
11.67931062816338
 40
12.20562981495670
 40
12.74326818250599
 40
13.43583364483930
 40
14.08303093708458
 40
14.68482474223129
 40
15.23998450868059
 40
15.73718731200627
 40
16.17843883760314
 40
16.56326188546377
 40
16.74043137080909
 40
16.87078257757676
 40
16.95426154042885
 40
17.00082658685779
 40
17.08098049509944
 40
17.20846099833527
 40
17.38329951644765
 40
17.63037350205159
 40
17.93487818333093
 40
18.29690076624887
 40
18.71653953840897
 40
19.19390102425840
 40
19.76338556233815
 40
20.39800575128509
 40
21.09785701875933
 40
21.86301803552968
 40
22.69353817818990
 40
23.58942750787384
 40
24.49396109933756
 40
25.45648716969520
 40
26.47686251874070
 40
27.55487441846692
 40
28.69023022852537
 40
28.69023022852537
 40
28.69023022852537
 40
28.69023022852537
 10
76.71639150701969
 20
79.74206908558827
 30
0.000000000000000
 10
76.71644482333363
 20
79.68902437606894
 30
0.000000000000000
 10
76.71746756003779
 20
79.59352205400737
 30
0.000000000000000
 10
76.72106898753293
 20
79.46603658757178
 30
0.000000000000000
 10
76.72525181352921
 20
79.36607020170655
 30
0.000000000000000
 10
76.72953247220300
 20
79.28424470973218
 30
0.000000000000000
 10
76.73545420882022
 20
79.18772219282434
 30
0.000000000000000
 10
76.74488495293235
 20
79.06059180689297
 30
0.000000000000000
 10
76.75902967887475
 20
78.90784949851903
 30
0.000000000000000
 10
76.77585297388418
 20
78.75682016161724
 30
0.000000000000000
 10
76.79391770233838
 20
78.61569158339617
 30
0.000000000000000
 10
76.81406628876141
 20
78.47569159655407
 30
0.000000000000000
 10
76.84112445540370
 20
78.30680469514326
 30
0.000000000000000
 10
76.87378083739588
 20
78.12683938853527
 30
0.000000000000000
 10
76.91332712325959
 20
77.93309875066203
 30
0.000000000000000
 10
76.95655353603831
 20
77.74088837118254
 30
0.000000000000000
 10
77.00557621108840
 20
77.54343541964997
 30
0.000000000000000
 10
77.07034671834742
 20
77.30502820513917
 30
0.000000000000000
 10
77.15072173018370
 20
77.03783912973685
 30
0.000000000000000
 10
77.25993329122605
 20
76.71368558069176
 30
0.000000000000000
 10
77.38227563262535
 20
76.38879513753747
 30
0.000000000000000
 10
77.52151055255536
 20
76.05544088286794
 30
0.000000000000000
 10
77.66868633545232
 20
75.73403103236856
 30
0.000000000000000
 10
77.80967934185105
 20
75.45191823203126
 30
0.000000000000000
 10
77.93859608172806
 20
75.21057683036415
 30
0.000000000000000
 10
78.04933866895146
 20
75.01353514301266
 30
0.000000000000000
 10
78.15982181835636
 20
74.82607394781698
 30
0.000000000000000
 10
78.26380598759363
 20
74.65689755906638
 30
0.000000000000000
 10
78.35948610426954
 20
74.50685169981037
 30
0.000000000000000
 10
78.44587217932076
 20
74.37561435404197
 30
0.000000000000000
 10
78.53206894532627
 20
74.24815006658670
 30
0.000000000000000
 10
78.62727270828577
 20
74.11130775187641
 30
0.000000000000000
 10
78.74406963869421
 20
73.94952034140621
 30
0.000000000000000
 10
78.87761001956153
 20
73.77158197740661
 30
0.000000000000000
 10
79.01905992284878
 20
73.59041575333887
 30
0.000000000000000
 10
79.15510364910608
 20
73.42218504167292
 30
0.000000000000000
 10
79.27971402566027
 20
73.27275243203459
 30
0.000000000000000
 10
79.39320016926331
 20
73.13995084508312
 30
0.000000000000000
 10
79.52821361794668
 20
72.98635063411106
 30
0.000000000000000
 10
79.69451661717835
 20
72.80761076408723
 30
0.000000000000000
 10
79.90332613167459
 20
72.59420151803803
 30
0.000000000000000
 10
80.13016096172805
 20
72.37246342746104
 30
0.000000000000000
 10
80.36481602153356
 20
72.15200046804964
 30
0.000000000000000
 10
80.58808831062004
 20
71.94931823279475
 30
0.000000000000000
 10
80.78375912450213
 20
71.77660619227524
 30
0.000000000000000
 10
80.94185783610476
 20
71.64057876774243
 30
0.000000000000000
 10
81.07713549290463
 20
71.52966714211047
 30
0.000000000000000
 10
81.20556693570882
 20
71.42898153066787
 30
0.000000000000000
 10
81.35483383015276
 20
71.31720065065448
 30
0.000000000000000
 10
81.53508715764508
 20
71.18783591582152
 30
0.000000000000000
 10
81.75469493725723
 20
71.03582570811156
 30
0.000000000000000
 10
82.03738562114233
 20
70.84583768713762
 30
0.000000000000000
 10
82.38668223452362
 20
70.61897172230883
 30
0.000000000000000
 10
82.79903225161615
 20
70.36236234903956
 30
0.000000000000000
 10
83.24586111425947
 20
70.09889800869584
 30
0.000000000000000
 10
83.75977808558434
 20
69.81805072801635
 30
0.000000000000000
 10
84.32334462198276
 20
69.54522323438729
 30
0.000000000000000
 10
84.91911112244111
 20
69.29195427803867
 30
0.000000000000000
 10
85.48021777186659
 20
69.07540924098336
 30
0.000000000000000
 10
85.99969602713065
 20
68.89019360771633
 30
0.000000000000000
 10
86.47495460409550
 20
68.74164185387642
 30
0.000000000000000
 10
86.89684969735561
 20
68.61296639375925
 30
0.000000000000000
 10
87.21710791449311
 20
68.51668388699770
 30
0.000000000000000
 10
87.43836754610209
 20
68.45107804739743
 30
0.000000000000000
 10
87.56338949239864
 20
68.41425031411583
 30
0.000000000000000
 10
87.64668166424349
 20
68.38982944283416
 30
0.000000000000000
 10
87.71393206839980
 20
68.37016668318662
 30
0.000000000000000
 10
87.79527750949103
 20
68.34644689706917
 30
0.000000000000000
 10
87.91771343612345
 20
68.31090248416135
 30
0.000000000000000
 10
88.09367600816802
 20
68.26016605229924
 30
0.000000000000000
 10
88.32650484279611
 20
68.19366620445541
 30
0.000000000000000
 10
88.61960253722941
 20
68.11099244182057
 30
0.000000000000000
 10
88.96844784736015
 20
68.01408101619128
 30
0.000000000000000
 10
89.37332475166261
 20
67.90361545239065
 30
0.000000000000000
 10
89.84559035746042
 20
67.77743808602835
 30
0.000000000000000
 10
90.38796610788052
 20
67.63608421591059
 30
0.000000000000000
 10
91.00323287614879
 20
67.48040032242122
 30
0.000000000000000
 10
91.68305788347072
 20
67.31403499641803
 30
0.000000000000000
 10
92.42784291893383
 20
67.13851475001465
 30
0.000000000000000
 10
93.23796559569473
 20
66.95550721231299
 30
0.000000000000000
 10
94.09529196983374
 20
66.77080521643163
 30
0.000000000000000
 10
94.99759238686681
 20
66.58616025489263
 30
0.000000000000000
 10
95.94255404202784
 20
66.40326926154873
 30
0.000000000000000
 10
96.94641389753451
 20
66.22069381254093
 30
0.000000000000000
 10
98.00917109572754
 20
66.04041494241048
 30
0.000000000000000
 10
98.73807100072008
 20
65.92607697211926
 30
0.000000000000000
 10
99.11231829658936
 20
65.86982015105704
 30
0.000000000000000
  0
SPLINE
  5
69
100
AcDbEntity
  8
A8
  6
CONTINUOUS
 62
7
100
AcDbSpline
210
0.000000000000000
220
0.000000000000000
230
1.000000000000000
 70
     8
 71
     3
 72
    86
 73
    82
 74
     0
 42
1.000000000000000e-07
 43
1.000000000000000e-07
 12
0.9888902609844763
 22
0.1486474074108344
 32
0.000000000000000
 13
0.001009569310554070
 23
0.9999994903860170
 33
0.000000000000000
 40
0.000000000000000
 40
0.000000000000000
 40
0.000000000000000
 40
0.000000000000000
 40
1.202324586633478
 40
2.340122348405299
 40
3.413053079670115
 40
4.420876175698299
 40
5.363436532352768
 40
6.240650642465258
 40
7.007863893555723
 40
7.716981135749892
 40
8.368049435604750
 40
8.961137714530254
 40
9.496326622411219
 40
10.00076273904484
 40
10.44027485483839
 40
10.81498925409175
 40
11.12502134310772
 40
11.37047193026206
 40
11.55142418213652
 40
11.64839430467031
 40
11.70560621645261
 40
11.75243972440179
 40
11.83791593934644
 40
11.96277329747033
 40
12.12696555967942
 40
12.51178860753955
 40
12.95304013313619
 40
13.45024293646188
 40
14.00540270291084
 40
14.60719650805697
 40
15.25439380030158
 40
15.94695926263416
 40
16.40326169417685
 40
16.85408057698421
 40
17.28486474832078
 40
17.68302147487966
 40
18.03802967954611
 40
18.34135717793901
 40
18.63097378249713
 40
18.86387544249290
 40
19.05731540414309
 40
19.23229912131514
 40
19.45019103700811
 40
19.70852507985104
 40
20.01311438695326
 40
20.35238406314571
 40
20.67229575752862
 40
20.90186869155130
 40
21.12572001619715
 40
21.34639457125932
 40
21.58196800174301
 40
21.86100481416601
 40
22.08636121078502
 40
22.33020553160466
 40
22.54902258266103
 40
22.72680974709675
 40
22.86453765296896
 40
22.98849609306126
 40
23.13089178627487
 40
23.30857490959080
 40
23.50611486424186
 40
23.72186929994903
 40
23.95494199514243
 40
24.17647221695125
 40
24.73238327720566
 40
25.25730883950690
 40
25.80880733174438
 40
26.29522228047389
 40
26.77317913033136
 40
26.94104497858455
 40
27.14597159031777
 40
27.36664197048361
 40
27.56833092381512
 40
27.76747305523132
 40
27.93172600044031
 40
28.07641941527625
 40
28.20621486804322
 40
28.28803238368121
 40
28.38551242812789
 40
28.51919300145534
 40
28.69005940600529
 40
28.69005940600529
 40
28.69005940600529
 40
28.69005940600529
 10
318.3204647173123
 20
65.86982015105704
 30
0.000000000000000
 10
318.7167870754004
 20
65.92939429528016
 30
0.000000000000000
 10
319.4873869040676
 20
66.05057105056184
 30
0.000000000000000
 10
320.6088682147963
 20
66.24207136395327
 30
0.000000000000000
 10
321.6640950789603
 20
66.43588165550986
 30
0.000000000000000
 10
322.6530837531722
 20
66.62965776162125
 30
0.000000000000000
 10
323.5759666716252
 20
66.82120230446034
 30
0.000000000000000
 10
324.4184348459706
 20
67.00528040144579
 30
0.000000000000000
 10
325.1832491808742
 20
67.18003360944473
 30
0.000000000000000
 10
325.8731913831715
 20
67.34392622153425
 30
0.000000000000000
 10
326.5054447529768
 20
67.49943740858791
 30
0.000000000000000
 10
327.0803481863474
 20
67.64530515325688
 30
0.000000000000000
 10
327.6069698685818
 20
67.78266682256751
 30
0.000000000000000
 10
328.0832902456251
 20
67.91000824310717
 30
0.000000000000000
 10
328.5072957523704
 20
68.02589164511855
 30
0.000000000000000
 10
328.8683120326831
 20
68.12642960339358
 30
0.000000000000000
 10
329.1666713958712
 20
68.21082663661454
 30
0.000000000000000
 10
329.4026594227352
 20
68.27842414611129
 30
0.000000000000000
 10
329.5702493519850
 20
68.32689204489995
 30
0.000000000000000
 10
329.6775116605543
 20
68.35810494739505
 30
0.000000000000000
 10
329.7418320268514
 20
68.37688220292100
 30
0.000000000000000
 10
329.8024639353731
 20
68.39462229785019
 30
0.000000000000000
 10
329.8847186253879
 20
68.41875714381203
 30
0.000000000000000
 10
330.0044664908296
 20
68.45405556207467
 30
0.000000000000000
 10
330.2198178489690
 20
68.51792884614437
 30
0.000000000000000
 10
330.5359332642789
 20
68.61296659203387
 30
0.000000000000000
 10
330.9578284298699
 20
68.74164178060957
 30
0.000000000000000
 10
331.4330869659974
 20
68.89019367285354
 30
0.000000000000000
 10
331.9525653111035
 20
69.07540903863534
 30
0.000000000000000
 10
332.5136716078495
 20
69.29195510337669
 30
0.000000000000000
 10
333.1094395683368
 20
69.54521981249363
 30
0.000000000000000
 10
333.6485851135354
 20
69.80624257269162
 30
0.000000000000000
 10
334.1174336380108
 20
70.06043388175109
 30
0.000000000000000
 10
334.5031377958918
 20
70.28440600482313
 30
0.000000000000000
 10
334.8672462490086
 20
70.50672170627919
 30
0.000000000000000
 10
335.2003135832243
 20
70.71845011596028
 30
0.000000000000000
 10
335.4945729570062
 20
70.91194409389979
 30
0.000000000000000
 10
335.7561587544301
 20
71.08921326409163
 30
0.000000000000000
 10
335.9816648121032
 20
71.24712616141139
 30
0.000000000000000
 10
336.1741101159379
 20
71.38830344392952
 30
0.000000000000000
 10
336.3326488459846
 20
71.51098810842583
 30
0.000000000000000
 10
336.4840232740738
 20
71.63464191010084
 30
0.000000000000000
 10
336.6485832706807
 20
71.77622555089962
 30
0.000000000000000
 10
336.8437252021239
 20
71.94845516310599
 30
0.000000000000000
 10
337.0664197619402
 20
72.15057904113596
 30
0.000000000000000
 10
337.3005982615712
 20
72.37053001439037
 30
0.000000000000000
 10
337.5125005429893
 20
72.57759558613290
 30
0.000000000000000
 10
337.6932617892058
 20
72.76139385230485
 30
0.000000000000000
 10
337.8477383125859
 20
72.92459517090865
 30
0.000000000000000
 10
337.9995492197062
 20
73.09299458336019
 30
0.000000000000000
 10
338.1589035963584
 20
73.27923552700813
 30
0.000000000000000
 10
338.3163866226331
 20
73.46908939520901
 30
0.000000000000000
 10
338.4718995979814
 20
73.66409891959208
 30
0.000000000000000
 10
338.6116525981976
 20
73.84595665163440
 30
0.000000000000000
 10
338.7384572230422
 20
74.01771513824789
 30
0.000000000000000
 10
338.8416918954600
 20
74.16286692283799
 30
0.000000000000000
 10
338.9247715032637
 20
74.28352567716090
 30
0.000000000000000
 10
338.9999484827711
 20
74.39529111477893
 30
0.000000000000000
 10
339.0811447409585
 20
74.51904873083427
 30
0.000000000000000
 10
339.1737932483309
 20
74.66461159349305
 30
0.000000000000000
 10
339.2768259197043
 20
74.83252315339527
 30
0.000000000000000
 10
339.3861182665935
 20
75.01821627358967
 30
0.000000000000000
 10
339.4955313421800
 20
75.21307060767268
 30
0.000000000000000
 10
339.6542023275880
 20
75.51021414489585
 30
0.000000000000000
 10
339.8448601076726
 20
75.90047646644055
 30
0.000000000000000
 10
340.0582400507905
 20
76.40124330106747
 30
0.000000000000000
 10
340.2369011530762
 20
76.89088874707627
 30
0.000000000000000
 10
340.3849917801325
 20
77.37419693477673
 30
0.000000000000000
 10
340.4773654964431
 20
77.74031731099254
 30
0.000000000000000
 10
340.5371867506182
 20
78.01752944649624
 30
0.000000000000000
 10
340.5750096814344
 20
78.21171896211925
 30
0.000000000000000
 10
340.6101689898924
 20
78.41785812939614
 30
0.000000000000000
 10
340.6402366008509
 20
78.62284898892037
 30
0.000000000000000
 10
340.6633452297549
 20
78.80980430440613
 30
0.000000000000000
 10
340.6806029705034
 20
78.97829573399954
 30
0.000000000000000
 10
340.6928659896795
 20
79.12403505455293
 30
0.000000000000000
 10
340.7008924916435
 20
79.24253735165385
 30
0.000000000000000
 10
340.7065480965615
 20
79.34541448485223
 30
0.000000000000000
 10
340.7111463916827
 20
79.44964163871956
 30
0.000000000000000
 10
340.7151741121579
 20
79.58359551073065
 30
0.000000000000000
 10
340.7163340063885
 20
79.68511364642356
 30
0.000000000000000
 10
340.7163915068812
 20
79.74206908558156
 30
0.000000000000000
  0
SPLINE
  5
6A
100
AcDbEntity
  8
A8
  6
CONTINUOUS
 62
7
100
AcDbSpline
210
0.000000000000000
220
0.000000000000000
230
1.000000000000000
 70
     8
 71
     3
 72
    21
 73
    17
 74
     0
 42
1.000000000000000e-07
 43
1.000000000000000e-07
 12
0.9174105032238913
 22
0.3979421673739125
 32
0.000000000000000
 13
0.9472180347497670
 23
-0.3205900725905622
 33
0.000000000000000
 40
0.000000000000000
 40
0.000000000000000
 40
0.000000000000000
 40
0.000000000000000
 40
0.2418456293068096
 40
0.4407307396360269
 40
0.5958532045154181
 40
0.7136322041603427
 40
0.8288753090272374
 40
1.126512793195562
 40
1.427409148490964
 40
1.727530956263282
 40
2.011373412898869
 40
2.115569049773733
 40
2.251386042689596
 40
2.435628963795841
 40
2.667850778496357
 40
2.947216552196836
 40
2.947216552196836
 40
2.947216552196836
 40
2.947216552196836
 10
287.2912352516229
 20
66.14942247514134
 30
0.000000000000000
 10
287.3651924917845
 20
66.18150266644008
 30
0.000000000000000
 10
287.5017766615883
 20
66.23590506700972
 30
0.000000000000000
 10
287.6901438164344
 20
66.29912740546908
 30
0.000000000000000
 10
287.8413473391514
 20
66.34250537534032
 30
0.000000000000000
 10
287.9668799566602
 20
66.37390774696971
 30
0.000000000000000
 10
288.1396797340729
 20
66.41179673245287
 30
0.000000000000000
 10
288.3746678822127
 20
66.45060383038000
 30
0.000000000000000
 10
288.6733065376539
 20
66.47726049155060
 30
0.000000000000000
 10
288.9685071610903
 20
66.48137362392342
 30
0.000000000000000
 10
289.1977011657644
 20
66.46778156688717
 30
0.000000000000000
 10
289.3713313636358
 20
66.44911084661098
 30
0.000000000000000
 10
289.5114579929325
 20
66.42983860276010
 30
0.000000000000000
 10
289.6927635600067
 20
66.39754043756497
 30
0.000000000000000
 10
289.9188058856496
 20
66.34502152164598
 30
0.000000000000000
 10
290.0822869469125
 20
66.29592128079398
 30
0.000000000000000
 10
290.1704937132927
 20
66.26606731623733
 30
0.000000000000000
  0
SPLINE
  5
6B
100
AcDbEntity
  8
A8
  6
CONTINUOUS
 62
7
100
AcDbSpline
210
0.000000000000000
220
0.000000000000000
230
1.000000000000000
 70
     8
 71
     3
 72
    22
 73
    18
 74
     0
 42
1.000000000000000e-07
 43
1.000000000000000e-07
 12
0.9472155820319585
 22
0.3205973193231557
 32
0.000000000000000
 13
0.9174102666611361
 23
-0.3979427127408144
 33
0.000000000000000
 40
0.000000000000000
 40
0.000000000000000
 40
0.000000000000000
 40
0.000000000000000
 40
0.2426651518729141
 40
0.4418537241472259
 40
0.5969267458539064
 40
0.7147162946199029
 40
0.8301433399656634
 40
1.127409499865527
 40
1.427268375778751
 40
1.727966466706807
 40
2.012165484948715
 40
2.098398760508796
 40
2.202041415339658
 40
2.339042154267938
 40
2.509194600562167
 40
2.712162541128649
 40
2.947252110555572
 40
2.947252110555572
 40
2.947252110555572
 40
2.947252110555572
 10
127.2622884964733
 20
66.26606731623733
 30
0.000000000000000
 10
127.3389072341633
 20
66.29199991529853
 30
0.000000000000000
 10
127.4798773113380
 20
66.33503646405049
 30
0.000000000000000
 10
127.6731513954476
 20
66.38264303115542
 30
0.000000000000000
 10
127.8274881550649
 20
66.41349525558709
 30
0.000000000000000
 10
127.9552113792383
 20
66.43455999645377
 30
0.000000000000000
 10
128.1304565925545
 20
66.45829198223973
 30
0.000000000000000
 10
128.3673781319740
 20
66.47817809423574
 30
0.000000000000000
 10
128.6669159414882
 20
66.48097394670387
 30
0.000000000000000
 10
128.9614638656965
 20
66.46149292165907
 30
0.000000000000000
 10
129.1832335987915
 20
66.43053938261252
 30
0.000000000000000
 10
129.3385566197699
 20
66.40140072273775
 30
0.000000000000000
 10
129.4451511480065
 20
66.37876259830998
 30
0.000000000000000
 10
129.5781997552399
 20
66.34627063303557
 30
0.000000000000000
 10
129.7417536584851
 20
66.29955900955721
 30
0.000000000000000
 10
129.9339524008217
 20
66.23479184096843
 30
0.000000000000000
 10
130.0696557632841
 20
66.18060653547295
 30
0.000000000000000
 10
130.1415469581432
 20
66.14942247514134
 30
0.000000000000000
  0
SPLINE
  5
6C
100
AcDbEntity
  8
A8
  6
CONTINUOUS
 62
7
100
AcDbSpline
210
0.000000000000000
220
0.000000000000000
230
1.000000000000000
 70
     8
 71
     3
 72
    46
 73
    42
 74
     0
 42
1.000000000000000e-07
 43
1.000000000000000e-07
 12
0.9136556537322917
 22
-0.4064890483194290
 32
0.000000000000000
 13
0.9406250419297066
 23
0.3394473898765114
 33
0.000000000000000
 40
0.000000000000000
 40
0.000000000000000
 40
0.000000000000000
 40
0.000000000000000
 40
0.7736742251984107
 40
1.487974161146993
 40
2.141914174699638
 40
2.734738129492605
 40
3.265878404692923
 40
3.734919104825053
 40
4.141563390135747
 40
4.485605456637242
 40
4.764521670333906
 40
4.974988276278293
 40
5.081544103522300
 40
5.159183840149908
 40
5.262666271169584
 40
5.407758487429246
 40
5.594474315483653
 40
5.822827360138743
 40
6.092829528643874
 40
6.392948872227471
 40
6.984527165292581
 40
7.515736894712681
 40
7.986475637173891
 40
8.272723814418409
 40
8.531395538435783
 40
8.797264016560005
 40
9.090686478276039
 40
9.411666536676954
 40
9.851690843339259
 40
10.33493221172544
 40
10.86153719505796
 40
11.43167213497121
 40
12.04550182209543
 40
12.70309794096740
 40
13.40437640570882
 40
14.14909058310099
 40
14.77584281940107
 40
15.42973628699201
 40
16.11025801497023
 40
16.81671494652616
 40
17.54819514592102
 40
17.54819514592102
 40
17.54819514592102
 40
17.54819514592102
 10
130.1415469581432
 20
66.14941852495710
 30
0.000000000000000
 10
130.3771709014763
 20
66.04458849178704
 30
0.000000000000000
 10
130.8340324004359
 20
65.85115529320498
 30
0.000000000000000
 10
131.5010055382279
 20
65.59604803543081
 30
0.000000000000000
 10
132.1186811064924
 20
65.38177465013061
 30
0.000000000000000
 10
132.6839118901657
 20
65.20341254704178
 30
0.000000000000000
 10
133.1942021058894
 20
65.05637809796642
 30
0.000000000000000
 10
133.6476088226143
 20
64.93654448465801
 30
0.000000000000000
 10
134.0426359357630
 20
64.84023830035468
 30
0.000000000000000
 10
134.3773735050390
 20
64.76443284797787
 30
0.000000000000000
 10
134.6491361017763
 20
64.70675858851880
 30
0.000000000000000
 10
134.8438855515099
 20
64.66759089425418
 30
0.000000000000000
 10
134.9730331341359
 20
64.64254128262755
 30
0.000000000000000
 10
135.0672438217841
 20
64.62465880693750
 30
0.000000000000000
 10
135.1741537014664
 20
64.60480089727250
 30
0.000000000000000
 10
135.3169521641566
 20
64.57907221361253
 30
0.000000000000000
 10
135.5009489270274
 20
64.54728462945238
 30
0.000000000000000
 10
135.7263165418565
 20
64.51043312572605
 30
0.000000000000000
 10
135.9894410349732
 20
64.47031966483038
 30
0.000000000000000
 10
136.3729487448923
 20
64.41666920178929
 30
0.000000000000000
 10
136.8439109387450
 20
64.36000342863153
 30
0.000000000000000
 10
137.3726703487753
 20
64.30899252302081
 30
0.000000000000000
 10
137.8008126637128
 20
64.27589828292318
 30
0.000000000000000
 10
138.1386458701936
 20
64.25381227158297
 30
0.000000000000000
 10
138.4083937309349
 20
64.23712629995791
 30
0.000000000000000
 10
138.6806574572440
 20
64.22243263922198
 30
0.000000000000000
 10
138.9738601536226
 20
64.21075928297714
 30
0.000000000000000
 10
139.3252433030350
 20
64.20210372026892
 30
0.000000000000000
 10
139.7400216371207
 20
64.19991061511698
 30
0.000000000000000
 10
140.2232809984257
 20
64.20849636701220
 30
0.000000000000000
 10
140.7495254499261
 20
64.23079350250325
 30
0.000000000000000
 10
141.3184544651615
 20
64.26969047494569
 30
0.000000000000000
 10
141.9295878154403
 20
64.32825807559877
 30
0.000000000000000
 10
142.5821946524836
 20
64.40963743290897
 30
0.000000000000000
 10
143.2752228583895
 20
64.51705056550267
 30
0.000000000000000
 10
143.9544871624380
 20
64.64405777707404
 30
0.000000000000000
 10
144.6142772990720
 20
64.78746950263573
 30
0.000000000000000
 10
145.2491557104020
 20
64.94365296778889
 30
0.000000000000000
 10
145.9049634971848
 20
65.12487854358707
 30
0.000000000000000
 10
146.5798300131914
 20
65.33309372504388
 30
0.000000000000000
 10
147.0332889844453
 20
65.48868099396893
 30
0.000000000000000
 10
147.2626385155208
 20
65.57144734211258
 30
0.000000000000000
  0
SPLINE
  5
6D
100
AcDbEntity
  8
A8
  6
CONTINUOUS
 62
7
100
AcDbSpline
210
0.000000000000000
220
0.000000000000000
230
1.000000000000000
 70
     8
 71
     3
 72
    54
 73
    50
 74
     0
 42
1.000000000000000e-07
 43
1.000000000000000e-07
 12
0.9412557338022225
 22
-0.3376946010591837
 32
0.000000000000000
 13
0.9136334572262967
 23
0.4065389352041393
 33
0.000000000000000
 40
0.000000000000000
 40
0.000000000000000
 40
0.000000000000000
 40
0.000000000000000
 40
0.8612599121926902
 40
1.668777615768589
 40
2.421629656020075
 40
3.119091316047842
 40
3.760611631053735
 40
4.335833889284199
 40
4.856436705814446
 40
5.322241726539943
 40
5.733140133294107
 40
6.133352394140196
 40
6.462578587356162
 40
6.720830478079609
 40
6.908125073773899
 40
6.993576897707136
 40
7.050219232084360
 40
7.133404395665161
 40
7.264978322683145
 40
7.444946444749572
 40
7.673318865014192
 40
7.938107402887036
 40
8.247529535474948
 40
8.601595347166331
 40
9.000310111982577
 40
9.443671285649588
 40
9.929882038068476
 40
10.39945144711355
 40
10.86330652233712
 40
11.27198224901606
 40
11.62548856410480
 40
11.92384116323706
 40
12.16705295930737
 40
12.30612323963780
 40
12.41694516909795
 40
12.49952484530498
 40
12.57468934235939
 40
12.69958819399979
 40
12.87747690136394
 40
13.10831472183605
 40
13.39203859701864
 40
13.72855488029050
 40
14.11772880747752
 40
14.55937156754609
 40
15.05322488038446
 40
15.59894309323498
 40
16.19607299030040
 40
16.84403182649234
 40
17.54208320251229
 40
17.54208320251229
 40
17.54208320251229
 40
17.54208320251229
 10
270.1701436942452
 20
65.57144734211258
 30
0.000000000000000
 10
270.4403656377936
 20
65.47449973462719
 30
0.000000000000000
 10
270.9676227632361
 20
65.29670734941189
 30
0.000000000000000
 10
271.7418423921916
 20
65.06771482896349
 30
0.000000000000000
 10
272.4705758603090
 20
64.87909580693517
 30
0.000000000000000
 10
273.1508848849367
 20
64.72572391794549
 30
0.000000000000000
 10
273.7771916811867
 20
64.60335796023455
 30
0.000000000000000
 10
274.3483076534722
 20
64.50709024407180
 30
0.000000000000000
 10
274.8635222348627
 20
64.43250426178415
 30
0.000000000000000
 10
275.3258028117748
 20
64.37536424889410
 30
0.000000000000000
 10
275.7491345758180
 20
64.33091330985414
 30
0.000000000000000
 10
276.1278027117556
 20
64.29760800796086
 30
0.000000000000000
 10
276.4561694066375
 20
64.27364573038787
 30
0.000000000000000
 10
276.7139487749684
 20
64.25787095650750
 30
0.000000000000000
 10
276.8906995565288
 20
64.24846539944755
 30
0.000000000000000
 10
277.0003673492859
 20
64.24315750326898
 30
0.000000000000000
 10
277.0753639373876
 20
64.23934400112418
 30
0.000000000000000
 10
277.1657565908352
 20
64.23564020720366
 30
0.000000000000000
 10
277.2972556439186
 20
64.23112594471488
 30
0.000000000000000
 10
277.4771661632562
 20
64.22635416419868
 30
0.000000000000000
 10
277.7015123679722
 20
64.22245734337307
 30
0.000000000000000
 10
277.9690394884886
 20
64.22064080032621
 30
0.000000000000000
 10
278.2784692903834
 20
64.22226243298948
 30
0.000000000000000
 10
278.6324856728840
 20
64.22898362609450
 30
0.000000000000000
 10
279.0309802542566
 20
64.24273772343267
 30
0.000000000000000
 10
279.4731718359909
 20
64.26568936890769
 30
0.000000000000000
 10
279.9384062331638
 20
64.29882134067927
 30
0.000000000000000
 10
280.4096912920269
 20
64.34181083225346
 30
0.000000000000000
 10
280.8543551294823
 20
64.39117829752192
 30
0.000000000000000
 10
281.2596541307529
 20
64.44379109107396
 30
0.000000000000000
 10
281.6094478922109
 20
64.49502030795676
 30
0.000000000000000
 10
281.9040252245866
 20
64.54241185798273
 30
0.000000000000000
 10
282.1275888520505
 20
64.58107733383335
 30
0.000000000000000
 10
282.2893154053255
 20
64.61043137018814
 30
0.000000000000000
 10
282.3982493193330
 20
64.63081398933568
 30
0.000000000000000
 10
282.4861745227682
 20
64.64764808184324
 30
0.000000000000000
 10
282.5786470536062
 20
64.66568144162599
 30
0.000000000000000
 10
282.7021964307740
 20
64.69033262803984
 30
0.000000000000000
 10
282.8764023703844
 20
64.72628371541097
 30
0.000000000000000
 10
283.1020358691716
 20
64.77494287366582
 30
0.000000000000000
 10
283.3786719524238
 20
64.83785645763234
 30
0.000000000000000
 10
283.7057348694688
 20
64.91691995735889
 30
0.000000000000000
 10
284.0824641487124
 20
65.01437382066158
 30
0.000000000000000
 10
284.5078734505343
 20
65.13279745784845
 30
0.000000000000000
 10
284.9807014919394
 20
65.27510224981981
 30
0.000000000000000
 10
285.4993556948781
 20
65.44451754500685
 30
0.000000000000000
 10
286.0618429762788
 20
65.64459318904321
 30
0.000000000000000
 10
286.6657082221412
 20
65.87911479337819
 30
0.000000000000000
 10
287.0786475542913
 20
66.05482350391523
 30
0.000000000000000
 10
287.2912352516228
 20
66.14941852495687
 30
0.000000000000000
  0
SPLINE
  5
6E
100
AcDbEntity
  8
A8
  6
CONTINUOUS
 62
7
100
AcDbSpline
210
0.000000000000000
220
0.000000000000000
230
1.000000000000000
 70
     8
 71
     3
 72
    22
 73
    18
 74
     0
 42
1.000000000000000e-07
 43
1.000000000000000e-07
 12
0.9412248696221468
 22
0.3377806163854302
 32
0.000000000000000
 13
0.9285285920782371
 23
-0.3712608970679412
 33
0.000000000000000
 40
0.000000000000000
 40
0.000000000000000
 40
0.000000000000000
 40
0.000000000000000
 40
0.4627927798477866
 40
0.5426825561813262
 40
0.6376967389036328
 40
0.7945429582523688
 40
0.9946255126890622
 40
1.195813723908750
 40
1.397106801318081
 40
1.598511271850433
 40
1.799927832350683
 40
1.998267410255653
 40
2.147101471571479
 40
2.237436669746335
 40
2.322734309140651
 40
2.613757947423837
 40
2.956437199457390
 40
2.956437199457390
 40
2.956437199457390
 40
2.956437199457390
 10
167.2645515849915
 20
65.10561855373268
 30
0.000000000000000
 10
167.4097489429495
 20
65.15772603054458
 30
0.000000000000000
 10
167.5836977838280
 20
65.20933371539829
 30
0.000000000000000
 10
167.7910420982544
 20
65.25613082631727
 30
0.000000000000000
 10
167.8994218937291
 20
65.27815822374745
 30
0.000000000000000
 10
168.0479426338116
 20
65.30359800706353
 30
0.000000000000000
 10
168.2325818309532
 20
65.32699545914599
 30
0.000000000000000
 10
168.4329242530226
 20
65.34242342812988
 30
0.000000000000000
 10
168.6342263644709
 20
65.34794500521249
 30
0.000000000000000
 10
168.8356307380156
 20
65.34346726964085
 30
0.000000000000000
 10
169.0355830522234
 20
65.32909770103672
 30
0.000000000000000
 10
169.2171875152273
 20
65.30704525646976
 30
0.000000000000000
 10
169.3611065847552
 20
65.28327385731947
 30
0.000000000000000
 10
169.4672583202319
 20
65.26250443651313
 30
0.000000000000000
 10
169.6192424196730
 20
65.22934029010341
 30
0.000000000000000
 10
169.8509826307329
 20
65.16740268062219
 30
0.000000000000000
 10
170.0504956557047
 20
65.09712879190474
 30
0.000000000000000
 10
170.1565581501797
 20
65.05472098973254
 30
0.000000000000000
  0
SPLINE
  5
6F
100
AcDbEntity
  8
A8
  6
CONTINUOUS
 62
7
100
AcDbSpline
210
0.000000000000000
220
0.000000000000000
230
1.000000000000000
 70
     8
 71
     3
 72
    23
 73
    19
 74
     0
 42
1.000000000000000e-07
 43
1.000000000000000e-07
 12
0.9285312016068019
 22
0.3712543705362350
 32
0.000000000000000
 13
0.9412303651083676
 23
-0.3377653028314853
 33
0.000000000000000
 40
0.000000000000000
 40
0.000000000000000
 40
0.000000000000000
 40
0.000000000000000
 40
0.4628197118299017
 40
0.5427327090239917
 40
0.6378354118467677
 40
0.7944483406058629
 40
0.9942719854424559
 40
1.195485166245594
 40
1.396886237841829
 40
1.569502030182393
 40
1.742018299662046
 40
1.914461066471081
 40
2.069908462899003
 40
2.177522108030747
 40
2.249196885940508
 40
2.322648454050060
 40
2.613651526213360
 40
2.956455444554794
 40
2.956455444554794
 40
2.956455444554794
 40
2.956455444554794
 10
247.2762240595864
 20
65.05472098973254
 30
0.000000000000000
 10
247.4194715739706
 20
65.11199560332827
 30
0.000000000000000
 10
247.5914872168821
 20
65.16978095542569
 30
0.000000000000000
 10
247.7970832555253
 20
65.22392469132066
 30
0.000000000000000
 10
247.9045748475804
 20
65.24977051289281
 30
0.000000000000000
 10
248.0519731811081
 20
65.28041145285565
 30
0.000000000000000
 10
248.2355266108652
 20
65.31023977144761
 30
0.000000000000000
 10
248.4351714708378
 20
65.33260414927506
 30
0.000000000000000
 10
248.6266245892706
 20
65.34452104215322
 30
0.000000000000000
 10
248.8088319111274
 20
65.34746228490243
 30
0.000000000000000
 10
248.9813489276098
 20
65.34290715625568
 30
0.000000000000000
 10
249.1478065952743
 20
65.33143977430720
 30
0.000000000000000
 10
249.2921490394259
 20
65.31564582396535
 30
0.000000000000000
 10
249.4026304668506
 20
65.29994758183872
 30
0.000000000000000
 10
249.4857626467451
 20
65.28626183081516
 30
0.000000000000000
 10
249.6287719790417
 20
65.26010628628237
 30
0.000000000000000
 10
249.8587503404809
 20
65.20732619520410
 30
0.000000000000000
 10
250.0606781390342
 20
65.14421431016282
 30
0.000000000000000
 10
250.1682306247746
 20
65.10561855373268
 30
0.000000000000000
  0
SPLINE
  5
70
100
AcDbEntity
  8
A8
  6
CONTINUOUS
 62
7
100
AcDbSpline
210
0.000000000000000
220
0.000000000000000
230
1.000000000000000
 70
     8
 71
     3
 72
    26
 73
    22
 74
     0
 42
1.000000000000000e-07
 43
1.000000000000000e-07
 12
0.9429474297322713
 22
-0.3329416536899146
 32
0.000000000000000
 13
0.9896418875004542
 23
0.1435581223909139
 33
0.000000000000000
 40
0.000000000000000
 40
0.000000000000000
 40
0.000000000000000
 40
0.000000000000000
 40
1.010505299331654
 40
2.051777385400828
 40
3.122381580340389
 40
4.221522769439334
 40
5.350767561044931
 40
6.511850614909413
 40
7.921229723501353
 40
9.374232118382976
 40
10.87039440046831
 40
12.40931806688041
 40
14.02026792824631
 40
15.67582923606031
 40
17.37568003662427
 40
19.11934606279511
 40
20.90703781420472
 40
22.70603724539732
 40
24.54659835017440
 40
26.42682668697321
 40
28.34701622563806
 40
28.34701622563806
 40
28.34701622563806
 40
28.34701622563806
 10
290.1704937132928
 20
66.26602016806302
 30
0.000000000000000
 10
290.4881115048714
 20
66.15387373292239
 30
0.000000000000000
 10
291.1381663111071
 20
65.94049479893053
 30
0.000000000000000
 10
292.1406658678885
 20
65.65949608851176
 30
0.000000000000000
 10
293.1848222372786
 20
65.42180249891155
 30
0.000000000000000
 10
294.2697592628829
 20
65.23893510899788
 30
0.000000000000000
 10
295.3923736039227
 20
65.10828377672087
 30
0.000000000000000
 10
296.6218470989117
 20
65.01020326526734
 30
0.000000000000000
 10
297.9607941491783
 20
64.93220701580694
 30
0.000000000000000
 10
299.4122694997419
 20
64.86802024159155
 30
0.000000000000000
 10
300.9077049464716
 20
64.82407007314086
 30
0.000000000000000
 10
302.4562354641834
 20
64.79944688635871
 30
0.000000000000000
 10
304.0581086353135
 20
64.79742099710595
 30
0.000000000000000
 10
305.7134620871939
 20
64.82107716628522
 30
0.000000000000000
 10
307.4124524685961
 20
64.87241069763203
 30
0.000000000000000
 10
309.1543887042147
 20
64.95332911316584
 30
0.000000000000000
 10
310.9277176578181
 20
65.06548520415251
 30
0.000000000000000
 10
312.7310568962837
 20
65.21066077548787
 30
0.000000000000000
 10
314.5622855800570
 20
65.39039202945716
 30
0.000000000000000
 10
316.4301008083694
 20
65.60781482656191
 30
0.000000000000000
 10
317.6855312324552
 20
65.77787256081055
 30
0.000000000000000
 10
318.3189645655895
 20
65.86975882907902
 30
0.000000000000000
  0
SPLINE
  5
71
100
AcDbEntity
  8
A8
  6
CONTINUOUS
 62
7
100
AcDbSpline
210
0.000000000000000
220
0.000000000000000
230
1.000000000000000
 70
     8
 71
     3
 72
    27
 73
    23
 74
     0
 42
1.000000000000000e-07
 43
1.000000000000000e-07
 12
0.9896422780635703
 22
-0.1435554299542758
 32
0.000000000000000
 13
0.9429871460722552
 23
0.3328291488776927
 33
0.000000000000000
 40
0.000000000000000
 40
0.000000000000000
 40
0.000000000000000
 40
0.000000000000000
 40
1.954727380493745
 40
3.868048330236761
 40
5.740194062064232
 40
7.569139501922379
 40
9.353667403108673
 40
11.06351035003417
 40
12.73107750303335
 40
14.35590457323356
 40
15.93769686021131
 40
17.24620075459521
 40
18.52393887541013
 40
19.77072138573257
 40
20.98623948067267
 40
22.17019919371671
 40
23.32210950272266
 40
24.37930826269121
 40
25.41024062859572
 40
26.41580178131469
 40
27.39516027537969
 40
28.34708623651794
 40
28.34708623651794
 40
28.34708623651794
 40
28.34708623651794
 10
99.11231829658993
 20
65.86975882907902
 30
0.000000000000000
 10
99.75714524919829
 20
65.77622158589563
 30
0.000000000000000
 10
101.0349493387428
 20
65.60335389844201
 30
0.000000000000000
 10
102.9357303891375
 20
65.38305896154540
 30
0.000000000000000
 10
104.7985009021711
 20
65.20174636079693
 30
0.000000000000000
 10
106.6213969413355
 20
65.05700794495871
 30
0.000000000000000
 10
108.3925179099566
 20
64.94715349705368
 30
0.000000000000000
 10
110.1114657278704
 20
64.86907349155737
 30
0.000000000000000
 10
111.7782223093162
 20
64.81991282032763
 30
0.000000000000000
 10
113.4028596279052
 20
64.79738384195431
 30
0.000000000000000
 10
114.9079564549014
 20
64.79950197378409
 30
0.000000000000000
 10
116.2971806859473
 20
64.82007222868398
 30
0.000000000000000
 10
117.5744368841699
 20
64.85384220620378
 30
0.000000000000000
 10
118.8202383291928
 20
64.90155053581574
 30
0.000000000000000
 10
120.0340829832792
 20
64.96392328498902
 30
0.000000000000000
 10
121.2155409189520
 20
65.03915842686567
 30
0.000000000000000
 10
122.3423091460070
 20
65.13935763562253
 30
0.000000000000000
 10
123.4139153162430
 20
65.27681499417687
 30
0.000000000000000
 10
124.4291797458218
 20
65.46038186459018
 30
0.000000000000000
 10
125.4081407063356
 20
65.69074608109824
 30
0.000000000000000
 10
126.3499741207436
 20
65.95879728728195
 30
0.000000000000000
 10
126.9615711670979
 20
66.16041059891629
 30
0.000000000000000
 10
127.2607891488865
 20
66.26602016806302
 30
0.000000000000000
  0
SPLINE
  5
72
100
AcDbEntity
  8
A8
  6
CONTINUOUS
 62
7
100
AcDbSpline
210
0.000000000000000
220
0.000000000000000
230
1.000000000000000
 70
     8
 71
     3
 72
    21
 73
    17
 74
     0
 42
1.000000000000000e-07
 43
1.000000000000000e-07
 12
0.9438995472305578
 22
0.3302327130063532
 32
0.000000000000000
 13
0.9235987175170521
 23
-0.3833606774306872
 33
0.000000000000000
 40
0.000000000000000
 40
0.000000000000000
 40
0.000000000000000
 40
0.000000000000000
 40
0.2424216076512419
 40
0.4407891136253916
 40
0.5945193122390735
 40
0.7117128264556221
 40
0.8273107601486897
 40
1.123366274824532
 40
1.421338515604311
 40
1.724004678848662
 40
2.009485554079903
 40
2.114640992403928
 40
2.253736821091691
 40
2.440153441125595
 40
2.673782563983090
 40
2.953632521048296
 40
2.953632521048296
 40
2.953632521048296
 40
2.953632521048296
 10
147.2626385155208
 20
65.57177281478900
 30
0.000000000000000
 10
147.3389123974212
 20
65.59845799651768
 30
0.000000000000000
 10
147.4790839500592
 20
65.64285757588479
 30
0.000000000000000
 10
147.6710336329434
 20
65.69242682094543
 30
0.000000000000000
 10
147.8241053120598
 20
65.72485571418790
 30
0.000000000000000
 10
147.9509843324593
 20
65.74735615802499
 30
0.000000000000000
 10
148.1253754495974
 20
65.77321358042488
 30
0.000000000000000
 10
148.3610099590890
 20
65.79640500570233
 30
0.000000000000000
 10
148.6601117984410
 20
65.80326140989561
 30
0.000000000000000
 10
148.9553427036385
 20
65.78781179152097
 30
0.000000000000000
 10
149.1849168785577
 20
65.75953261799404
 30
0.000000000000000
 10
149.3588930118667
 20
65.72924332340753
 30
0.000000000000000
 10
149.4995251707940
 20
65.70026789038215
 30
0.000000000000000
 10
149.6804451370031
 20
65.65519941906686
 30
0.000000000000000
 10
149.9037195576507
 20
65.58713921615433
 30
0.000000000000000
 10
150.0641150718393
 20
65.52692817520798
 30
0.000000000000000
 10
150.1502714256535
 20
65.49116701883483
 30
0.000000000000000
  0
SPLINE
  5
73
100
AcDbEntity
  8
A8
  6
CONTINUOUS
 62
7
100
AcDbSpline
210
0.000000000000000
220
0.000000000000000
230
1.000000000000000
 70
     8
 71
     3
 72
    21
 73
    17
 74
     0
 42
1.000000000000000e-07
 43
1.000000000000000e-07
 12
0.9235722780322249
 22
0.3834243696601334
 32
0.000000000000000
 13
0.9438925334197847
 23
-0.3302527598012830
 33
0.000000000000000
 40
0.000000000000000
 40
0.000000000000000
 40
0.000000000000000
 40
0.000000000000000
 40
0.2435880751278888
 40
0.4443623178548691
 40
0.6014705379781693
 40
0.7204297023332988
 40
0.8359943031321806
 40
1.135602651074608
 40
1.439553093460492
 40
1.739103750996831
 40
2.022423299206165
 40
2.126345655768533
 40
2.259777037585610
 40
2.442671039402490
 40
2.674243902379007
 40
2.953627778317268
 40
2.953627778317268
 40
2.953627778317268
 40
2.953627778317268
 10
267.2825107841126
 20
65.49116701883483
 30
0.000000000000000
 10
267.3575011819284
 20
65.52229955355571
 30
0.000000000000000
 10
267.4960399329516
 20
65.57501554377777
 30
0.000000000000000
 10
267.6871186806616
 20
65.63596930606192
 30
0.000000000000000
 10
267.8405621572120
 20
65.67758984985491
 30
0.000000000000000
 10
267.9676735073007
 20
65.70741498977245
 30
0.000000000000000
 10
268.1421492117730
 20
65.74297904052398
 30
0.000000000000000
 10
268.3794844446057
 20
65.77835517938499
 30
0.000000000000000
 10
268.6799496725101
 20
65.80073346380638
 30
0.000000000000000
 10
268.9758352133807
 20
65.80098542227253
 30
0.000000000000000
 10
269.2043501048987
 20
65.78402142779848
 30
0.000000000000000
 10
269.3766547088431
 20
65.76311163018747
 30
0.000000000000000
 10
269.5152008619496
 20
65.74225244961244
 30
0.000000000000000
 10
269.6946844605564
 20
65.70814316367338
 30
0.000000000000000
 10
269.9194861284246
 20
65.65327262032335
 30
0.000000000000000
 10
270.0822409094265
 20
65.60252858014653
 30
0.000000000000000
 10
270.1701436942452
 20
65.57177281478900
 30
0.000000000000000
  0
SPLINE
  5
74
100
AcDbEntity
  8
A8
  6
CONTINUOUS
 62
7
100
AcDbSpline
210
0.000000000000000
220
0.000000000000000
230
1.000000000000000
 70
     8
 71
     3
 72
    25
 73
    21
 74
     0
 42
1.000000000000000e-07
 43
1.000000000000000e-07
 12
0.9248890096326932
 22
-0.3802371889499057
 32
0.000000000000000
 13
0.9352598155105625
 23
0.3539619718144138
 33
0.000000000000000
 40
0.000000000000000
 40
0.000000000000000
 40
0.000000000000000
 40
0.000000000000000
 40
0.8296421123556434
 40
1.696263470575310
 40
2.599573272228366
 40
3.539232745899707
 40
4.514836144731296
 40
5.525901097420750
 40
6.571905613855348
 40
7.652617037583446
 40
8.542140857373312
 40
9.453744242945723
 40
10.38733490750550
 40
11.34281138897618
 40
12.32005167322660
 40
13.31862438419221
 40
14.33778947464952
 40
15.37666414881531
 40
16.43423024681945
 40
17.50934196224448
 40
17.50934196224448
 40
17.50934196224448
 40
17.50934196224448
 10
170.1565581501798
 20
65.05441242572849
 30
0.000000000000000
 10
170.4123337740619
 20
64.94925883084963
 30
0.000000000000000
 10
170.9394224819452
 20
64.74416450156329
 30
0.000000000000000
 10
171.7589202024686
 20
64.46191807859188
 30
0.000000000000000
 10
172.6240507882714
 20
64.20163448422065
 30
0.000000000000000
 10
173.5341477064364
 20
63.96729589717253
 30
0.000000000000000
 10
174.4882331045074
 20
63.76295601682656
 30
0.000000000000000
 10
175.4850414575406
 20
63.59295772436869
 30
0.000000000000000
 10
176.5230862572392
 20
63.46208483861446
 30
0.000000000000000
 10
177.5255624376505
 20
63.38081508360116
 30
0.000000000000000
 10
178.4856112371261
 20
63.34233203190692
 30
0.000000000000000
 10
179.3973990522484
 20
63.33976548083123
 30
0.000000000000000
 10
180.3306031587481
 20
63.37283352266715
 30
0.000000000000000
 10
181.2836232438330
 20
63.44424813695636
 30
0.000000000000000
 10
182.2544756558052
 20
63.55697912078969
 30
0.000000000000000
 10
183.2407487995708
 20
63.71355030716197
 30
0.000000000000000
 10
184.2395756909393
 20
63.91626696971227
 30
0.000000000000000
 10
185.2475955339611
 20
64.16762303163020
 30
0.000000000000000
 10
186.2610125966893
 20
64.46995093045925
 30
0.000000000000000
 10
186.9320071463845
 20
64.70575031650762
 30
0.000000000000000
 10
187.2671767412584
 20
64.83259987074516
 30
0.000000000000000
  0
SPLINE
  5
75
100
AcDbEntity
  8
A8
  6
CONTINUOUS
 62
7
100
AcDbSpline
210
0.000000000000000
220
0.000000000000000
230
1.000000000000000
 70
     8
 71
     3
 72
    25
 73
    21
 74
     0
 42
1.000000000000000e-07
 43
1.000000000000000e-07
 12
0.9354082802810808
 22
-0.3535694403943239
 32
0.000000000000000
 13
0.9247549683256011
 23
0.3805630677794056
 33
0.000000000000000
 40
0.000000000000000
 40
0.000000000000000
 40
0.000000000000000
 40
0.000000000000000
 40
0.8309784248255887
 40
1.698782530989024
 40
2.603145105557857
 40
3.543737834170202
 40
4.520153785771147
 40
5.531898668965486
 40
6.578429092798292
 40
7.659487597551903
 40
8.549143105252043
 40
9.460733791288479
 40
10.39415334768741
 40
11.34928611950153
 40
12.32599597640133
 40
13.32383954808241
 40
14.34206316879820
 40
15.37976428035213
 40
16.43589613657056
 40
17.50927318639913
 40
17.50927318639913
 40
17.50927318639913
 40
17.50927318639913
 10
230.1656054685077
 20
64.83259987074516
 30
0.000000000000000
 10
230.4247068349467
 20
64.73466367853004
 30
0.000000000000000
 10
230.9581884345781
 20
64.54432549501300
 30
0.000000000000000
 10
231.7863323944195
 20
64.28457329541467
 30
0.000000000000000
 10
232.6592212342688
 20
64.04759079102493
 30
0.000000000000000
 10
233.5761231204614
 20
63.83729755162457
 30
0.000000000000000
 10
234.5359914043102
 20
63.65770793227315
 30
0.000000000000000
 10
235.5374791485149
 20
63.51314718412047
 30
0.000000000000000
 10
236.5790008119012
 20
63.40840581996983
 30
0.000000000000000
 10
237.5835224034037
 20
63.35212480343725
 30
0.000000000000000
 10
238.5443850792839
 20
63.33746177148279
 30
0.000000000000000
 10
239.4559393538787
 20
63.35749366857382
 30
0.000000000000000
 10
240.3878588097942
 20
63.41374271526885
 30
0.000000000000000
 10
241.3384479940058
 20
63.50896407494062
 30
0.000000000000000
 10
242.3056098442835
 20
63.64616737490084
 30
0.000000000000000
 10
243.2868170604712
 20
63.82790497987682
 30
0.000000000000000
 10
244.2790772836018
 20
64.05649344100718
 30
0.000000000000000
 10
245.2788783601634
 20
64.33442178737525
 30
0.000000000000000
 10
246.2822580973140
 20
64.66398158012882
 30
0.000000000000000
 10
246.9453538063478
 20
64.91824987140623
 30
0.000000000000000
 10
247.2762240595864
 20
65.05441242572849
 30
0.000000000000000
  0
SPLINE
  5
76
100
AcDbEntity
  8
A8
  6
CONTINUOUS
 62
7
100
AcDbSpline
210
0.000000000000000
220
0.000000000000000
230
1.000000000000000
 70
     8
 71
     3
 72
    25
 73
    21
 74
     0
 42
1.000000000000000e-07
 43
1.000000000000000e-07
 12
0.9324453379492752
 22
-0.3613110733650160
 32
0.000000000000000
 13
0.9288441164684400
 23
0.3704707914282324
 33
0.000000000000000
 40
0.000000000000000
 40
0.000000000000000
 40
0.000000000000000
 40
0.000000000000000
 40
0.8303016290325314
 40
1.697435695503641
 40
2.601121914222825
 40
3.541030093843650
 40
4.516760393746898
 40
5.527832650452346
 40
6.573722285999584
 40
7.654187476488163
 40
8.543410978638184
 40
9.454615360891356
 40
10.38770166761460
 40
11.34256211168944
 40
12.31906925290341
 40
13.31679037612795
 40
14.33498553117800
 40
15.37276914918071
 40
16.42911502577092
 40
17.50286174677280
 40
17.50286174677280
 40
17.50286174677280
 40
17.50286174677280
 10
210.1623315286143
 20
64.73539007274255
 30
0.000000000000000
 10
210.4204018229753
 20
64.63539101514172
 30
0.000000000000000
 10
210.9518842982627
 20
64.44083780778757
 30
0.000000000000000
 10
211.7772839703547
 20
64.17467629129143
 30
0.000000000000000
 10
212.6476344965282
 20
63.93102960297003
 30
0.000000000000000
 10
213.5622148827513
 20
63.71378952574204
 30
0.000000000000000
 10
214.5199989586213
 20
63.52692232448825
 30
0.000000000000000
 10
215.5196747480219
 20
63.37469475756117
 30
0.000000000000000
 10
216.5597058146233
 20
63.26183019310756
 30
0.000000000000000
 10
217.5631844897057
 20
63.19750598549328
 30
0.000000000000000
 10
218.5234205179980
 20
63.17492196333453
 30
0.000000000000000
 10
219.4347252194019
 20
63.18722054475890
 30
0.000000000000000
 10
220.3667666532735
 20
63.23531737482833
 30
0.000000000000000
 10
221.3179022981413
 20
63.32195523795301
 30
0.000000000000000
 10
222.2860954833178
 20
63.45014166526934
 30
0.000000000000000
 10
223.2688796872783
 20
63.62244247016699
 30
0.000000000000000
 10
224.2633249168667
 20
63.84120319518067
 30
0.000000000000000
 10
225.2659862811554
 20
64.10895751930590
 30
0.000000000000000
 10
226.2729702017256
 20
64.42805579466423
 30
0.000000000000000
 10
226.9389398707141
 20
64.67524770743714
 30
0.000000000000000
 10
227.2713876455074
 20
64.80784497327815
 30
0.000000000000000
  0
SPLINE
  5
77
100
AcDbEntity
  8
A8
  6
CONTINUOUS
 62
7
100
AcDbSpline
210
0.000000000000000
220
0.000000000000000
230
1.000000000000000
 70
     8
 71
     3
 72
    25
 73
    21
 74
     0
 42
1.000000000000000e-07
 43
1.000000000000000e-07
 12
0.9290043127482477
 22
-0.3700688947957644
 32
0.000000000000000
 13
0.9322862619051193
 23
0.3617213373069319
 33
0.000000000000000
 40
0.000000000000000
 40
0.000000000000000
 40
0.000000000000000
 40
0.000000000000000
 40
0.8299217768823248
 40
1.696734608650464
 40
2.600145673305377
 40
3.539816819305943
 40
4.515344199969261
 40
5.526247063688540
 40
6.572003337229629
 40
7.652377357491606
 40
8.541563524349169
 40
9.452766439281181
 40
10.38589094240898
 40
11.34083276877826
 40
12.31746777620032
 40
13.31536802172158
 40
14.33380087235869
 40
15.37189076849964
 40
16.42862514015472
 40
17.50286068597550
 40
17.50286068597550
 40
17.50286068597550
 40
17.50286068597550
 10
190.1613945642587
 20
64.80784497327815
 30
0.000000000000000
 10
190.4183948675812
 20
64.70546889503223
 30
0.000000000000000
 10
190.9478264446900
 20
64.50605921752467
 30
0.000000000000000
 10
191.7704656685965
 20
64.23250683071396
 30
0.000000000000000
 10
192.6383543623727
 20
63.98121955290216
 30
0.000000000000000
 10
193.5507873818925
 20
63.75611287837407
 30
0.000000000000000
 10
194.5067550561690
 20
63.56116762812027
 30
0.000000000000000
 10
195.5049657009355
 20
63.40065646618538
 30
0.000000000000000
 10
196.5439096358636
 20
63.27929985362093
 30
0.000000000000000
 10
197.5467490976311
 20
63.20686643629639
 30
0.000000000000000
 10
198.5067291510397
 20
63.17655629105897
 30
0.000000000000000
 10
199.4181029604418
 20
63.18152369649349
 30
0.000000000000000
 10
200.3505411524974
 20
63.22209430972154
 30
0.000000000000000
 10
201.3024318127889
 20
63.30099186864251
 30
0.000000000000000
 10
202.2717760426083
 20
63.42120543933217
 30
0.000000000000000
 10
203.2561475393243
 20
63.58528839502193
 30
0.000000000000000
 10
204.2526614583624
 20
63.79558096954790
 30
0.000000000000000
 10
205.2579280048427
 20
64.05461718201977
 30
0.000000000000000
 10
206.2681144731507
 20
64.36476059182743
 30
0.000000000000000
 10
206.9366190006789
 20
64.60586543333690
 30
0.000000000000000
 10
207.2704506811519
 20
64.73539007274255
 30
0.000000000000000
  0
SPLINE
  5
78
100
AcDbEntity
  8
A8
  6
CONTINUOUS
 62
7
100
AcDbSpline
210
0.000000000000000
220
0.000000000000000
230
1.000000000000000
 70
     8
 71
     3
 72
    20
 73
    16
 74
     0
 42
1.000000000000000e-07
 43
1.000000000000000e-07
 12
0.9325086698440828
 22
0.3611475884810034
 32
0.000000000000000
 13
0.9386334922164679
 23
-0.3449161742946671
 33
0.000000000000000
 40
0.000000000000000
 40
0.000000000000000
 40
0.000000000000000
 40
0.000000000000000
 40
0.2969236903879273
 40
0.5259373007623555
 40
0.6879051238503060
 40
0.8321345305289178
 40
1.130661877723746
 40
1.432285753177590
 40
1.733853186342010
 40
2.018896839109577
 40
2.123493176943482
 40
2.260096840358532
 40
2.445048601519865
 40
2.677934672314078
 40
2.957882399495746
 40
2.957882399495746
 40
2.957882399495746
 40
2.957882399495746
 10
227.2713876455076
 20
64.80815800046864
 30
0.000000000000000
 10
227.3636822840305
 20
64.84390242538413
 30
0.000000000000000
 10
227.5295066976312
 20
64.90136696476267
 30
0.000000000000000
 10
227.7506167736100
 20
64.96251475297774
 30
0.000000000000000
 10
227.9246855493846
 20
65.00182402965763
 30
0.000000000000000
 10
228.1228647344283
 20
65.03884958451360
 30
0.000000000000000
 10
228.3691252986392
 20
65.07114120779849
 30
0.000000000000000
 10
228.6694807093676
 20
65.08824378365941
 30
0.000000000000000
 10
228.9657824378995
 20
65.08316783628899
 30
0.000000000000000
 10
229.1954786888402
 20
65.06267755661881
 30
0.000000000000000
 10
229.3692713879103
 20
65.03878322910779
 30
0.000000000000000
 10
229.5093940222370
 20
65.01529520601841
 30
0.000000000000000
 10
229.6903921217203
 20
64.97761847139984
 30
0.000000000000000
 10
229.9155072137777
 20
64.91865020183988
 30
0.000000000000000
 10
230.0780160309067
 20
64.86510152975436
 30
0.000000000000000
 10
230.1656054685075
 20
64.83291536340036
 30
0.000000000000000
  0
SPLINE
  5
79
100
AcDbEntity
  8
A8
  6
CONTINUOUS
 62
7
100
AcDbSpline
210
0.000000000000000
220
0.000000000000000
230
1.000000000000000
 70
     8
 71
     3
 72
    20
 73
    16
 74
     0
 42
1.000000000000000e-07
 43
1.000000000000000e-07
 12
0.9386367989261544
 22
0.3449071754857869
 32
0.000000000000000
 13
0.9325056487955408
 23
-0.3611553889442121
 33
0.000000000000000
 40
0.000000000000000
 40
0.000000000000000
 40
0.000000000000000
 40
0.000000000000000
 40
0.2971962225431358
 40
0.5262996702528657
 40
0.6882652993696954
 40
0.8325652875748837
 40
1.131097157249408
 40
1.432586807818979
 40
1.734224303319772
 40
2.019249472510676
 40
2.123844376414876
 40
2.260550385441049
 40
2.445494570751498
 40
2.678240981333511
 40
2.957882574026569
 40
2.957882574026569
 40
2.957882574026569
 40
2.957882574026569
 10
187.2671767412587
 20
64.83291536340036
 30
0.000000000000000
 10
187.3601631782522
 20
64.86708373329449
 30
0.000000000000000
 10
187.5270752200001
 20
64.92169837065816
 30
0.000000000000000
 10
187.7493294369547
 20
64.97902949968281
 30
0.000000000000000
 10
187.9241045455004
 20
65.01532836485805
 30
0.000000000000000
 10
188.1229165869669
 20
65.04893409872440
 30
0.000000000000000
 10
188.3696701822421
 20
65.07702649742177
 30
0.000000000000000
 10
188.6702525819150
 20
65.08903583072762
 30
0.000000000000000
 10
188.9663975289909
 20
65.07892821659922
 30
0.000000000000000
 10
189.1957312490993
 20
65.05455122304622
 30
0.000000000000000
 10
189.3691164935286
 20
65.02767907419408
 30
0.000000000000000
 10
189.5088441707326
 20
65.00177317695508
 30
0.000000000000000
 10
189.6891468890188
 20
64.96096490450711
 30
0.000000000000000
 10
189.9130582626694
 20
64.89813645504270
 30
0.000000000000000
 10
190.0744721093170
 20
64.84182268985998
 30
0.000000000000000
 10
190.1613945642585
 20
64.80815800046864
 30
0.000000000000000
  0
SPLINE
  5
7A
100
AcDbEntity
  8
A8
  6
CONTINUOUS
 62
7
100
AcDbSpline
210
0.000000000000000
220
0.000000000000000
230
1.000000000000000
 70
     8
 71
     3
 72
    25
 73
    21
 74
     0
 42
1.000000000000000e-07
 43
1.000000000000000e-07
 12
0.9198872937880651
 22
-0.3921828230914741
 32
0.000000000000000
 13
0.9380183587103375
 23
0.3465855720055799
 33
0.000000000000000
 40
0.000000000000000
 40
0.000000000000000
 40
0.000000000000000
 40
0.000000000000000
 40
0.8638030922565083
 40
1.760349812468736
 40
2.689283199866426
 40
3.650189866561889
 40
4.642589533269270
 40
5.665933725873446
 40
6.719676568112284
 40
7.803614529213499
 40
8.692463062096826
 40
9.600490812698142
 40
10.52760444780409
 40
11.47370472392092
 40
12.43865864209553
 40
13.42199784370852
 40
14.42299866658913
 40
15.44081664989699
 40
16.47449414028506
 40
17.52296985445598
 40
17.52296985445598
 40
17.52296985445598
 40
17.52296985445598
 10
150.1502714256535
 20
65.49100812820481
 30
0.000000000000000
 10
150.4151385886207
 20
65.37808521643271
 30
0.000000000000000
 10
150.9595415312392
 20
65.15863616991689
 30
0.000000000000000
 10
151.8042331023892
 20
64.85778525893031
 30
0.000000000000000
 10
152.6914443227058
 20
64.58208929571853
 30
0.000000000000000
 10
153.6202309425601
 20
64.33525330802226
 30
0.000000000000000
 10
154.5893532116520
 20
64.12102953923929
 30
0.000000000000000
 10
155.5973191161540
 20
63.94343898873305
 30
0.000000000000000
 10
156.6424597790565
 20
63.80687008768163
 30
0.000000000000000
 10
157.6480464941081
 20
63.72147935730092
 30
0.000000000000000
 10
158.6076260233452
 20
63.67983787321074
 30
0.000000000000000
 10
159.5158282171846
 20
63.67456698657654
 30
0.000000000000000
 10
160.4426483204504
 20
63.70480309379124
 30
0.000000000000000
 10
161.3865045234439
 20
63.77289374270785
 30
0.000000000000000
 10
162.3454559065817
 20
63.88138674817739
 30
0.000000000000000
 10
163.3171931464991
 20
64.03228537994661
 30
0.000000000000000
 10
164.2990013723730
 20
64.22747724615689
 30
0.000000000000000
 10
165.2877623816226
 20
64.46898521501677
 30
0.000000000000000
 10
166.2799995973955
 20
64.75868987715009
 30
0.000000000000000
 10
166.9367217621399
 20
64.98417156375532
 30
0.000000000000000
 10
167.2645515849914
 20
65.10530041546528
 30
0.000000000000000
  0
SPLINE
  5
7B
100
AcDbEntity
  8
A8
  6
CONTINUOUS
 62
7
100
AcDbSpline
210
0.000000000000000
220
0.000000000000000
230
1.000000000000000
 70
     8
 71
     3
 72
    25
 73
    21
 74
     0
 42
1.000000000000000e-07
 43
1.000000000000000e-07
 12
0.9381368255791358
 22
-0.3462647780127384
 32
0.000000000000000
 13
0.9198215728500827
 23
0.3923369395303382
 33
0.000000000000000
 40
0.000000000000000
 40
0.000000000000000
 40
0.000000000000000
 40
0.000000000000000
 40
0.8319265704890138
 40
1.700710370769399
 40
2.606106790057511
 40
3.547791077005922
 40
4.525345046332269
 40
5.538252330600150
 40
6.585941004059941
 40
7.668129548951180
 40
8.558655786933008
 40
9.471075548264128
 40
10.40527157935298
 40
11.36111676624179
 40
12.33846232358883
 40
13.33684559531865
 40
14.35548694668969
 40
15.39345470862685
 40
16.44967118189249
 40
17.52292067516387
 40
17.52292067516387
 40
17.52292067516387
 40
17.52292067516387
 10
250.1682306247747
 20
65.10530041546528
 30
0.000000000000000
 10
250.4283842754259
 20
65.00927812571419
 30
0.000000000000000
 10
250.9639237527142
 20
64.82285022886228
 30
0.000000000000000
 10
251.7949353676066
 20
64.56902896839867
 30
0.000000000000000
 10
252.6705562467001
 20
64.33825475963633
 30
0.000000000000000
 10
253.5900550189950
 20
64.13452907015969
 30
0.000000000000000
 10
254.5523656859594
 20
63.96198136584255
 30
0.000000000000000
 10
255.5560951913505
 20
63.82506322330036
 30
0.000000000000000
 10
256.5995868322886
 20
63.72869704650267
 30
0.000000000000000
 10
257.6056149199422
 20
63.68099993668997
 30
0.000000000000000
 10
258.5675195084197
 20
63.67504203635460
 30
0.000000000000000
 10
259.4796724602232
 20
63.70377572301888
 30
0.000000000000000
 10
260.4117601258751
 20
63.76938786322486
 30
0.000000000000000
 10
261.3620104742855
 20
63.87463525164875
 30
0.000000000000000
 10
262.3282417532305
 20
64.02250800478711
 30
0.000000000000000
 10
263.3078437019477
 20
64.21550740587961
 30
0.000000000000000
 10
264.2977431727786
 20
64.45587147628927
 30
0.000000000000000
 10
265.2943492846655
 20
64.74598488760304
 30
0.000000000000000
 10
266.2936282759873
 20
65.08802007243625
 30
0.000000000000000
 10
266.9534447717921
 20
65.35064965435728
 30
0.000000000000000
 10
267.2825107841126
 20
65.49100812820481
 30
0.000000000000000
  0
SPLINE
  5
7C
100
AcDbEntity
  8
A8
  6
CONTINUOUS
 62
7
100
AcDbSpline
210
0.000000000000000
220
0.000000000000000
230
1.000000000000000
 70
     8
 71
     3
 72
    20
 73
    16
 74
     0
 42
1.000000000000000e-07
 43
1.000000000000000e-07
 12
0.9357296289495025
 22
0.3527181048776811
 32
0.000000000000000
 13
0.9358073041757962
 23
-0.3525119706483792
 33
0.000000000000000
 40
0.000000000000000
 40
0.000000000000000
 40
0.000000000000000
 40
0.000000000000000
 40
0.2967983901911000
 40
0.5256064480439491
 40
0.6873705433463646
 40
0.8315126413324659
 40
1.129741584997050
 40
1.430957696427168
 40
1.732367192571835
 40
2.017177229616702
 40
2.121707026721125
 40
2.258374831765150
 40
2.443243832547568
 40
2.675900181093000
 40
2.955467153768607
 40
2.955467153768607
 40
2.955467153768607
 40
2.955467153768607
 10
207.2704506811519
 20
64.73576544997283
 30
0.000000000000000
 10
207.3630250303273
 20
64.77066083854581
 30
0.000000000000000
 10
207.5292520393195
 20
64.82660261768112
 30
0.000000000000000
 10
207.7507192628858
 20
64.88575488956516
 30
0.000000000000000
 10
207.9249616486048
 20
64.92351204339954
 30
0.000000000000000
 10
208.1232580242689
 20
64.95879799773749
 30
0.000000000000000
 10
208.3695154416412
 20
64.98899936407915
 30
0.000000000000000
 10
208.6697139130559
 20
65.00360526520078
 30
0.000000000000000
 10
208.9656962754609
 20
64.99609460872804
 30
0.000000000000000
 10
209.1950674262316
 20
64.97376652153886
 30
0.000000000000000
 10
209.3685810391834
 20
64.94846187021719
 30
0.000000000000000
 10
209.5084772344391
 20
64.92382320825888
 30
0.000000000000000
 10
209.6890751908483
 20
64.88466181425903
 30
0.000000000000000
 10
209.9134726395997
 20
64.82389880570460
 30
0.000000000000000
 10
210.0753456825715
 20
64.76909134107277
 30
0.000000000000000
 10
210.1625526209169
 20
64.73624110625073
 30
0.000000000000000
  0
SPLINE
  5
7D
100
AcDbEntity
  8
A8
  6
CONTINUOUS
 62
7
100
AcDbSpline
210
0.000000000000000
220
0.000000000000000
230
1.000000000000000
 70
     8
 71
     3
 72
   106
 73
   102
 74
     0
 42
1.000000000000000e-07
 43
1.000000000000000e-07
 12
-0.9999764478809823
 22
0.006863212331509772
 32
0.000000000000000
 13
-0.4081027436982367
 23
0.9129360057456779
 33
0.000000000000000
 40
0.000000000000000
 40
0.000000000000000
 40
0.000000000000000
 40
0.000000000000000
 40
1.658642461873693
 40
3.258632584506245
 40
4.799575033706771
 40
6.281180534404949
 40
7.703251289440688
 40
9.065667200150287
 40
10.36837300253952
 40
11.73237843408390
 40
13.02414797740625
 40
14.24355807272130
 40
15.39076037143918
 40
16.46592715587784
 40
17.38093489590701
 40
18.23668699119561
 40
19.02851850228205
 40
19.77238814467110
 40
20.45882864521327
 40
21.07900288835397
 40
21.62845694210157
 40
22.16425815209993
 40
22.68607206954890
 40
23.21142148354548
 40
23.75228840652028
 40
24.32005428579268
 40
24.92392749695893
 40
25.56642569151973
 40
26.23734496763817
 40
26.92347787356467
 40
27.32118783456848
 40
27.67150697568759
 40
27.97252185997949
 40
28.22324858842565
 40
28.42450969649280
 40
28.64484137392126
 40
28.92354261278265
 40
29.25551135814301
 40
29.61512414802407
 40
29.99799770343572
 40
30.53422630190211
 40
31.10971995309680
 40
31.72410652948554
 40
32.80921403354161
 40
33.92060853970770
 40
35.06369790812877
 40
36.24406504354665
 40
36.63109921173419
 40
36.96352877730292
 40
37.24158868626974
 40
37.46545982250377
 40
37.63527710813850
 40
37.73084806158550
 40
37.80093531458246
 40
37.90787988681340
 40
38.06514499245501
 40
38.27267180320914
 40
38.62172978936103
 40
39.00878841045993
 40
39.39556295790054
 40
39.78209960185335
 40
40.16844457999489
 40
40.55464417215168
 40
40.94074467361566
 40
41.64088369170217
 40
42.30505093418582
 40
42.93017880021264
 40
43.22812351070662
 40
43.51105970005236
 40
43.76638600910454
 40
43.99358907991926
 40
44.19460996345452
 40
44.41658600564892
 40
44.73112925359873
 40
45.10287219523947
 40
45.51227838816312
 40
45.93234071675881
 40
46.28023070539015
 40
46.63497996028813
 40
46.99658113949729
 40
47.36502731170521
 40
47.73779464286199
 40
48.07259838580355
 40
48.35439450911839
 40
48.58325079501611
 40
48.74089818806007
 40
48.85762445450830
 40
48.98655630994004
 40
49.18154070580893
 40
49.44541853524804
 40
49.74062561574585
 40
50.06549211017803
 40
50.36048846753926
 40
50.58492986546849
 40
50.77623864156548
 40
51.01356976293125
 40
51.30693703705645
 40
51.60655087340143
 40
51.90644052037505
 40
52.16317070696724
 40
52.37634338556288
 40
52.37634338556288
 40
52.37634338556288
 40
52.37634338556288
 10
99.11231687021279
 20
39.23914382544714
 30
0.000000000000000
 10
98.55944907110313
 20
39.24293836391311
 30
0.000000000000000
 10
97.47330832552586
 20
39.26319360111628
 30
0.000000000000000
 10
95.87470965747195
 20
39.32988539998584
 30
0.000000000000000
 10
94.33691367897768
 20
39.42882106211047
 30
0.000000000000000
 10
92.86075854978958
 20
39.55636251377936
 30
0.000000000000000
 10
91.44683745081795
 20
39.70899669521529
 30
0.000000000000000
 10
90.09553823786371
 20
39.88328525709139
 30
0.000000000000000
 10
88.76716767725009
 20
40.08184543690979
 30
0.000000000000000
 10
87.46632490244315
 20
40.30350050611625
 30
0.000000000000000
 10
86.19759771762097
 20
40.54664964203718
 30
0.000000000000000
 10
85.00467837855251
 20
40.80005950832671
 30
0.000000000000000
 10
83.88713677493797
 20
41.05978873501746
 30
0.000000000000000
 10
82.87293357993940
 20
41.31510324697999
 30
0.000000000000000
 10
81.95685582463193
 20
41.56168055151053
 30
0.000000000000000
 10
81.13562197864144
 20
41.79678530418911
 30
0.000000000000000
 10
80.37218619552357
 20
42.02628231762012
 30
0.000000000000000
 10
79.66671661832743
 20
42.25215694901610
 30
0.000000000000000
 10
79.01855858566921
 20
42.46912767808507
 30
0.000000000000000
 10
78.43407365308406
 20
42.67202678658916
 30
0.000000000000000
 10
77.89878567244966
 20
42.86344109192575
 30
0.000000000000000
 10
77.39592256840410
 20
43.04810583611865
 30
0.000000000000000
 10
76.90263834850020
 20
43.23546549246677
 30
0.000000000000000
 10
76.41019240708079
 20
43.42967536952617
 30
0.000000000000000
 10
75.90620218290940
 20
43.63623446257165
 30
0.000000000000000
 10
75.38086150123002
 20
43.85958913828765
 30
0.000000000000000
 10
74.82721308154123
 20
44.10282951890107
 30
0.000000000000000
 10
74.24487993900789
 20
44.36617007602851
 30
0.000000000000000
 10
73.64051437361900
 20
44.64724572072916
 30
0.000000000000000
 10
73.11284550279311
 20
44.89966047735456
 30
0.000000000000000
 10
72.68347303467363
 20
45.10984624622299
 30
0.000000000000000
 10
72.37040964016398
 20
45.26563452804086
 30
0.000000000000000
 10
72.10201208496198
 20
45.40119382708403
 30
0.000000000000000
 10
71.87856669570579
 20
45.51553599005317
 30
0.000000000000000
 10
71.67952834269636
 20
45.61852982967750
 30
0.000000000000000
 10
71.47268127933171
 20
45.72671892556238
 30
0.000000000000000
 10
71.22793311357816
 20
45.85644412759811
 30
0.000000000000000
 10
70.94320575227846
 20
46.00986412404060
 30
0.000000000000000
 10
70.62925036599825
 20
46.18222300340162
 30
0.000000000000000
 10
70.25737422550696
 20
46.39052977284925
 30
0.000000000000000
 10
69.82533806784988
 20
46.63864270011024
 30
0.000000000000000
 10
69.33018021181033
 20
46.93171277083454
 30
0.000000000000000
 10
68.68311548783640
 20
47.32719593881822
 30
0.000000000000000
 10
67.89370291114051
 20
47.83211081189935
 30
0.000000000000000
 10
66.97188804631026
 20
48.45641542523637
 30
0.000000000000000
 10
66.04119296908925
 20
49.12349732046206
 30
0.000000000000000
 10
65.32034222680511
 20
49.66837621904821
 30
0.000000000000000
 10
64.82220487597249
 20
50.05941102982817
 30
0.000000000000000
 10
64.56261235765908
 20
50.26720007696710
 30
0.000000000000000
 10
64.34685237236408
 20
50.44269864224154
 30
0.000000000000000
 10
64.17407156225909
 20
50.58512685876983
 30
0.000000000000000
 10
64.04876380379528
 20
50.68950758463197
 30
0.000000000000000
 10
63.96309225362427
 20
50.76137744941374
 30
0.000000000000000
 10
63.89360378045626
 20
50.81992896666381
 30
0.000000000000000
 10
63.80855604018802
 20
50.89192947772833
 30
0.000000000000000
 10
63.68889613099952
 20
50.99394809610268
 30
0.000000000000000
 10
63.50856630549072
 20
51.14919583173079
 30
0.000000000000000
 10
63.27170147806169
 20
51.35617006585719
 30
0.000000000000000
 10
62.99226592458206
 20
51.60520628429830
 30
0.000000000000000
 10
62.70618017427319
 20
51.86552675442110
 30
0.000000000000000
 10
62.42298746868096
 20
52.12864230932811
 30
0.000000000000000
 10
62.14269281560382
 20
52.39456455307354
 30
0.000000000000000
 10
61.86530105250267
 20
52.66330522755626
 30
0.000000000000000
 10
61.51639231752563
 20
53.00851191040769
 30
0.000000000000000
 10
61.10772426836922
 20
53.42501119191476
 30
0.000000000000000
 10
60.65221130749183
 20
53.90700470141073
 30
0.000000000000000
 10
60.29599188618579
 20
54.29824247617918
 30
0.000000000000000
 10
60.02934817471930
 20
54.59909248737844
 30
0.000000000000000
 10
59.84624525981849
 20
54.80925631313218
 30
0.000000000000000
 10
59.68016188493937
 20
55.00296147909020
 30
0.000000000000000
 10
59.53309094679935
 20
55.17699192351412
 30
0.000000000000000
 10
59.39425297494381
 20
55.34341880491795
 30
0.000000000000000
 10
59.23796117572283
 20
55.53319324070205
 30
0.000000000000000
 10
59.04737915514454
 20
55.76844060079631
 30
0.000000000000000
 10
58.82042475919889
 20
56.05460649294113
 30
0.000000000000000
 10
58.57536776772145
 20
56.37127459346320
 30
0.000000000000000
 10
58.33915915771513
 20
56.68469713789520
 30
0.000000000000000
 10
58.11750210546074
 20
56.98623389602821
 30
0.000000000000000
 10
57.91054659198778
 20
57.27436579364436
 30
0.000000000000000
 10
57.70293078099269
 20
57.57043191949148
 30
0.000000000000000
 10
57.49538250941669
 20
57.87385127329193
 30
0.000000000000000
 10
57.29641480960436
 20
58.17228734215914
 30
0.000000000000000
 10
57.11664775736358
 20
58.44878147675010
 30
0.000000000000000
 10
56.96542830152089
 20
58.68659807382525
 30
0.000000000000000
 10
56.84748366294104
 20
58.87558215621650
 30
0.000000000000000
 10
56.75958500522427
 20
59.01845236452047
 30
0.000000000000000
 10
56.68966309432301
 20
59.13327322335110
 30
0.000000000000000
 10
56.61378197540580
 20
59.25903555561703
 30
0.000000000000000
 10
56.51346913174461
 20
59.42734174269137
 30
0.000000000000000
 10
56.38644385229679
 20
59.64424340054413
 30
0.000000000000000
 10
56.23994161124381
 20
59.89989715569536
 30
0.000000000000000
 10
56.09107206040687
 20
60.16613192217446
 30
0.000000000000000
 10
55.95632212603505
 20
60.41321633781442
 30
0.000000000000000
 10
55.84474852739095
 20
60.62221726635309
 30
0.000000000000000
 10
55.74360740678924
 20
60.81499100794551
 30
0.000000000000000
 10
55.63337765130041
 20
61.02893557148965
 30
0.000000000000000
 10
55.50888573615339
 20
61.27613316734752
 30
0.000000000000000
 10
55.37779975424519
 20
61.54333943194567
 30
0.000000000000000
 10
55.25474330781731
 20
61.80086721908830
 30
0.000000000000000
 10
55.14659917995948
 20
62.03356388960717
 30
0.000000000000000
 10
55.08136832145954
 20
62.17597345034935
 30
0.000000000000000
 10
55.05236953645408
 20
62.24084445492642
 30
0.000000000000000
  0
SPLINE
  5
7E
100
AcDbEntity
  8
A8
  6
CONTINUOUS
 62
7
100
AcDbSpline
210
0.000000000000000
220
0.000000000000000
230
1.000000000000000
 70
     8
 71
     3
 72
    60
 73
    56
 74
     0
 42
1.000000000000000e-07
 43
1.000000000000000e-07
 12
-0.4081027436988052
 22
0.9129360057465874
 32
0.000000000000000
 13
-3.803242407229845e-06
 23
0.9999999999928377
 33
0.000000000000000
 40
0.000000000000000
 40
0.000000000000000
 40
0.000000000000000
 40
0.000000000000000
 40
0.1742079165246550
 40
0.3685811752950500
 40
0.5971219567053826
 40
0.8504207024004721
 40
1.224400145056965
 40
1.612137729200611
 40
1.915836149768610
 40
2.155182363243414
 40
2.422682742350711
 40
2.726093567797344
 40
3.069264110041876
 40
3.408221918108055
 40
3.764838887743664
 40
4.115943537158854
 40
4.447095298956736
 40
4.754099888636364
 40
5.009735845971027
 40
5.192053411697310
 40
5.382510102154898
 40
5.588687480044881
 40
5.840347861180707
 40
6.148669934958132
 40
6.472480736262368
 40
6.764660282043547
 40
7.059630983203592
 40
7.332932833555849
 40
7.580181041592748
 40
7.811631968816258
 40
8.081449150920664
 40
8.399227459976926
 40
8.730867388180624
 40
9.072034441927096
 40
9.371641045057832
 40
9.615679411064667
 40
9.872310009640442
 40
10.13594503308131
 40
10.38030328130350
 40
10.59812281230507
 40
10.80761193348669
 40
11.00875848250506
 40
11.21903466032996
 40
11.47151982675780
 40
11.77858359667632
 40
12.14018481757967
 40
12.55626645818729
 40
13.02673680522581
 40
13.55148632762489
 40
14.13041872611891
 40
14.76342483512340
 40
15.45037902539406
 40
16.19113416180922
 40
16.98551469776836
 40
17.83330758792979
 40
17.83330758792979
 40
17.83330758792979
 40
17.83330758792979
 10
55.05236953645408
 20
62.24084445492642
 30
0.000000000000000
 10
55.02867129355150
 20
62.29385801475357
 30
0.000000000000000
 10
54.97827973528467
 20
62.40590963829592
 30
0.000000000000000
 10
54.89836942723434
 20
62.58820763246692
 30
0.000000000000000
 10
54.80928580791897
 20
62.79526342018559
 30
0.000000000000000
 10
54.69889629208944
 20
63.05831696407219
 30
0.000000000000000
 10
54.57152748062902
 20
63.37177748978567
 30
0.000000000000000
 10
54.44246435376988
 20
63.70264744005974
 30
0.000000000000000
 10
54.33341177334194
 20
63.99311821406238
 30
0.000000000000000
 10
54.24100012907377
 20
64.24700807668509
 30
0.000000000000000
 10
54.15101800885270
 20
64.50166863067679
 30
0.000000000000000
 10
54.05257292290685
 20
64.79002759303361
 30
0.000000000000000
 10
53.95020623860898
 20
65.10219422205941
 30
0.000000000000000
 10
53.84654680584345
 20
65.43257147771473
 30
0.000000000000000
 10
53.74648225906174
 20
65.76681840538797
 30
0.000000000000000
 10
53.65163280167997
 20
66.09987739177015
 30
0.000000000000000
 10
53.56544976553221
 20
66.41817878325011
 30
0.000000000000000
 10
53.49110699831408
 20
66.70669229139455
 30
0.000000000000000
 10
53.43175113678569
 20
66.94781762217858
 30
0.000000000000000
 10
53.38340334627719
 20
67.15163342618573
 30
0.000000000000000
 10
53.34021631059079
 20
67.33972474296215
 30
0.000000000000000
 10
53.29347847368410
 20
67.55071043990026
 30
0.000000000000000
 10
53.24046549470211
 20
67.80053842193249
 30
0.000000000000000
 10
53.18246490143099
 20
68.08937751547145
 30
0.000000000000000
 10
53.12554996358494
 20
68.39218780093049
 30
0.000000000000000
 10
53.07307670720513
 20
68.69127992910975
 30
0.000000000000000
 10
53.02679081684187
 20
68.97434455026300
 30
0.000000000000000
 10
52.98591615575197
 20
69.24309947725325
 30
0.000000000000000
 10
52.95076551575244
 20
69.49129368826797
 30
0.000000000000000
 10
52.91810853029506
 20
69.73865610226594
 30
0.000000000000000
 10
52.88505167179642
 20
70.00966809147278
 30
0.000000000000000
 10
52.85148282788646
 20
70.31424377329947
 30
0.000000000000000
 10
52.81952713658882
 20
70.64289838902150
 30
0.000000000000000
 10
52.79246058732406
 20
70.96591431145291
 30
0.000000000000000
 10
52.77157052361395
 20
71.26011794687085
 30
0.000000000000000
 10
52.75555333524483
 20
71.52639919175678
 30
0.000000000000000
 10
52.74278180639749
 20
71.78085131559098
 30
0.000000000000000
 10
52.73267302308921
 20
72.03553049258457
 30
0.000000000000000
 10
52.72553332691723
 20
72.27736565664438
 30
0.000000000000000
 10
52.72068778741061
 20
72.50120529927582
 30
0.000000000000000
 10
52.71838425640510
 20
72.71068147654066
 30
0.000000000000000
 10
52.71783463029726
 20
72.91765238537866
 30
0.000000000000000
 10
52.71798703363538
 20
73.13895494437881
 30
0.000000000000000
 10
52.71770814190745
 20
73.39556326261831
 30
0.000000000000000
 10
52.71758919548574
 20
73.70261327540899
 30
0.000000000000000
 10
52.71745289040450
 20
74.06419546608615
 30
0.000000000000000
 10
52.71733117230951
 20
74.48024651620008
 30
0.000000000000000
 10
52.71716799288697
 20
74.95068032529511
 30
0.000000000000000
 10
52.71701499230619
 20
75.47539772564156
 30
0.000000000000000
 10
52.71686165024562
 20
76.05429371541422
 30
0.000000000000000
 10
52.71671810872238
 20
76.68725793188926
 30
0.000000000000000
 10
52.71658943207876
 20
77.37416306526532
 30
0.000000000000000
 10
52.71648400328945
 20
78.11485967892415
 30
0.000000000000000
 10
52.71641081582516
 20
78.90916919677042
 30
0.000000000000000
 10
52.71639258180721
 20
79.45656033890768
 30
0.000000000000000
 10
52.71639150701992
 20
79.73915796895946
 30
0.000000000000000
  0
SPLINE
  5
7F
100
AcDbEntity
  8
A8
  6
CONTINUOUS
 62
7
100
AcDbSpline
210
0.000000000000000
220
0.000000000000000
230
1.000000000000000
 70
     8
 71
     3
 72
   106
 73
   102
 74
     0
 42
1.000000000000000e-07
 43
1.000000000000000e-07
 12
-3.803243089350872e-06
 22
-0.9999999999927240
 32
0.000000000000000
 13
-0.7580796946358532
 23
-0.6521619251220727
 33
0.000000000000000
 40
0.000000000000000
 40
0.000000000000000
 40
0.000000000000000
 40
0.000000000000000
 40
0.8477928901603224
 40
1.642173426119268
 40
2.382928562534325
 40
3.069882752804881
 40
3.702888861809174
 40
4.281821260303094
 40
4.806570782702078
 40
5.277041129740501
 40
5.693122770348117
 40
6.054723991251463
 40
6.361787761169891
 40
6.614272927597627
 40
6.836501852630413
 40
7.050644341760718
 40
7.274168572716015
 40
7.507760061055458
 40
7.781143148028619
 40
8.093071451643057
 40
8.315724264927150
 40
8.554596966547679
 40
8.845932299903936
 40
9.158536440352686
 40
9.461181955994119
 40
9.751858939645109
 40
9.998498212854068
 40
10.21028604703167
 40
10.42864964351187
 40
10.66956022056877
 40
10.92896823340156
 40
11.20180918547383
 40
11.50233847346593
 40
11.82387474280075
 40
12.10276476689336
 40
12.33161974920592
 40
12.53042038686726
 40
12.71509888040192
 40
12.90681174277149
 40
13.13938578704388
 40
13.40711303757177
 40
13.69084667451956
 40
14.11270050110818
 40
14.53621883663858
 40
14.93309566594811
 40
15.28765015670554
 40
15.59559365929875
 40
15.77597460002591
 40
15.94810001401363
 40
16.16525246510145
 40
16.43597927572458
 40
16.71613976727636
 40
16.98288983624598
 40
17.25779861309023
 40
17.50163444869105
 40
17.70497944686421
 40
17.90358502195721
 40
18.15540205390106
 40
18.44026873360220
 40
18.72641266025519
 40
19.01230582508945
 40
19.28119398313001
 40
19.48086414304164
 40
19.64822398220721
 40
19.85290840126853
 40
20.11400514427622
 40
20.39494543810364
 40
20.65438664293400
 40
20.89226551660555
 40
21.10095472402628
 40
21.25840771396566
 40
21.36403214952256
 40
21.47073379466570
 40
21.61005773360304
 40
21.78202592440762
 40
21.98666506413459
 40
22.22400613958022
 40
22.49408383528724
 40
23.10600043521159
 40
23.70093792906791
 40
24.27729913489510
 40
24.66647823493777
 40
25.04667666596400
 40
25.40051571123148
 40
25.70545383177704
 40
25.96134089371937
 40
26.18046551345743
 40
26.42454085083524
 40
26.81479606406979
 40
27.25589285792052
 40
27.71994197434676
 40
28.20595581300492
 40
28.88798840964669
 40
29.59523696079588
 40
30.30333185614456
 40
30.58166238918560
 40
30.86010191432186
 40
31.13866770162983
 40
31.41737700220514
 40
31.69417227722088
 40
31.93696401207610
 40
31.93696401207610
 40
31.93696401207610
 40
31.93696401207610
 10
364.7163915068810
 20
79.73915796895793
 30
0.000000000000000
 10
364.7163904320936
 20
79.45656033890654
 30
0.000000000000000
 10
364.7163721980713
 20
78.90916919676980
 30
0.000000000000000
 10
364.7162990106234
 20
78.11485967892364
 30
0.000000000000000
 10
364.7161935817799
 20
77.37416306526634
 30
0.000000000000000
 10
364.7160649053170
 20
76.68725793188563
 30
0.000000000000000
 10
364.7159213631970
 20
76.05429371542661
 30
0.000000000000000
 10
364.7157680230847
 20
75.47539772560194
 30
0.000000000000000
 10
364.7156150162301
 20
74.95068032542352
 30
0.000000000000000
 10
364.7154518566866
 20
74.48024651579678
 30
0.000000000000000
 10
364.7153300768772
 20
74.06419546733375
 30
0.000000000000000
 10
364.7151939584506
 20
73.70261327166369
 30
0.000000000000000
 10
364.7150744666716
 20
73.39556327346074
 30
0.000000000000000
 10
364.7147928122398
 20
73.13497066504780
 30
0.000000000000000
 10
364.7149565812230
 20
72.90535201120085
 30
0.000000000000000
 10
364.7142899285517
 20
72.68538602823875
 30
0.000000000000000
 10
364.7114025939564
 20
72.46164744822974
 30
0.000000000000000
 10
364.7057562935223
 20
72.21821001135592
 30
0.000000000000000
 10
364.6969675325794
 20
71.94537929432292
 30
0.000000000000000
 10
364.6851090902742
 20
71.67631125543605
 30
0.000000000000000
 10
364.6710102048578
 20
71.41887608010140
 30
0.000000000000000
 10
364.6549901574045
 20
71.16843054268438
 30
0.000000000000000
 10
364.6341043067904
 20
70.88826424384692
 30
0.000000000000000
 10
364.6080300527535
 20
70.58718837644594
 30
0.000000000000000
 10
364.5783107807557
 20
70.28667160378538
 30
0.000000000000000
 10
364.5474880474724
 20
70.00837979570267
 30
0.000000000000000
 10
364.5173676274840
 20
69.76049778899639
 30
0.000000000000000
 10
364.4881311486357
 20
69.53680078889963
 30
0.000000000000000
 10
364.4572635949368
 20
69.31525068901018
 30
0.000000000000000
 10
364.4220620298329
 20
69.07828674243339
 30
0.000000000000000
 10
364.3816892539973
 20
68.82374427775991
 30
0.000000000000000
 10
364.3353341665089
 20
68.55004389919551
 30
0.000000000000000
 10
364.2821968677448
 20
68.25650556521234
 30
0.000000000000000
 10
364.2250962428448
 20
67.96165707380518
 30
0.000000000000000
 10
364.1693558030552
 20
67.69090266768600
 30
0.000000000000000
 10
364.1195856757417
 20
67.46070318112342
 30
0.000000000000000
 10
364.0747960387582
 20
67.26156463135916
 30
0.000000000000000
 10
364.0313343655736
 20
67.07482322711618
 30
0.000000000000000
 10
363.9838833650907
 20
66.87745692033920
 30
0.000000000000000
 10
363.9281276114792
 20
66.65362215291790
 30
0.000000000000000
 10
363.8625209639667
 20
66.40064103288157
 30
0.000000000000000
 10
363.7777621347382
 20
66.08746391494125
 30
0.000000000000000
 10
363.6745495778848
 20
65.72550622549895
 30
0.000000000000000
 10
363.5546186092452
 20
65.32915301545106
 30
0.000000000000000
 10
363.4353927991633
 20
64.95607612211663
 30
0.000000000000000
 10
363.3231588932730
 20
64.62125075275875
 30
0.000000000000000
 10
363.2305689776015
 20
64.35597905326560
 30
0.000000000000000
 10
363.1561327617426
 20
64.14879337829754
 30
0.000000000000000
 10
363.0907600955574
 20
63.97051355103574
 30
0.000000000000000
 10
363.0135304913368
 20
63.76451037905437
 30
0.000000000000000
 10
362.9214999460743
 20
63.52560581669988
 30
0.000000000000000
 10
362.8209497054552
 20
63.27228089692127
 30
0.000000000000000
 10
362.7173331357837
 20
63.01868880199456
 30
0.000000000000000
 10
362.6159073012191
 20
62.77729513948540
 30
0.000000000000000
 10
362.5205857698766
 20
62.55627448280867
 30
0.000000000000000
 10
362.4337455748949
 20
62.35930396697447
 30
0.000000000000000
 10
362.3443948830364
 20
62.16053913402411
 30
0.000000000000000
 10
362.2421043360761
 20
61.93780489296157
 30
0.000000000000000
 10
362.1252607373621
 20
61.68965690501611
 30
0.000000000000000
 10
362.0009749518822
 20
61.43247423861462
 30
0.000000000000000
 10
361.8764750638441
 20
61.18132643301485
 30
0.000000000000000
 10
361.7625989559460
 20
60.95709831111614
 30
0.000000000000000
 10
361.6650793340183
 20
60.76888817593439
 30
0.000000000000000
 10
361.5763328863267
 20
60.60024078189051
 30
0.000000000000000
 10
361.4768548495047
 20
60.41410726329261
 30
0.000000000000000
 10
361.3577786748796
 20
60.19552704390136
 30
0.000000000000000
 10
361.2278041142503
 20
59.96211114887339
 30
0.000000000000000
 10
361.0995206359376
 20
59.73662529033660
 30
0.000000000000000
 10
360.9814325512134
 20
59.53305803166242
 30
0.000000000000000
 10
360.8790987730039
 20
59.35966135590635
 30
0.000000000000000
 10
360.7983433033854
 20
59.22472400267870
 30
0.000000000000000
 10
360.7345821373611
 20
59.11923692178604
 30
0.000000000000000
 10
360.6735926048444
 20
59.01913656296981
 30
0.000000000000000
 10
360.6006104814204
 20
58.90044811411960
 30
0.000000000000000
 10
360.5097734948466
 20
58.75441701084353
 30
0.000000000000000
 10
360.4005998635988
 20
58.58131835495757
 30
0.000000000000000
 10
360.2725232197510
 20
58.38148375426996
 30
0.000000000000000
 10
360.0685851812513
 20
58.06903450975094
 30
0.000000000000000
 10
359.7935902754984
 20
57.66064442828267
 30
0.000000000000000
 10
359.4521382680142
 20
57.17405635743532
 30
0.000000000000000
 10
359.1455283151578
 20
56.75383359456166
 30
0.000000000000000
 10
358.8757122663307
 20
56.39545980758155
 30
0.000000000000000
 10
358.6469813154722
 20
56.09903410429828
 30
0.000000000000000
 10
358.4323455729724
 20
55.82723037639218
 30
0.000000000000000
 10
358.2410128800591
 20
55.58984636933050
 30
0.000000000000000
 10
358.0761587628241
 20
55.38880970419606
 30
0.000000000000000
 10
357.9228561810010
 20
55.20454591604945
 30
0.000000000000000
 10
357.7394038426976
 20
54.98711018553215
 30
0.000000000000000
 10
357.5056718348246
 20
54.71530112409184
 30
0.000000000000000
 10
357.2201550668336
 20
54.39135361436431
 30
0.000000000000000
 10
356.9089828467507
 20
54.04752054067100
 30
0.000000000000000
 10
356.5384267578758
 20
53.64917791739751
 30
0.000000000000000
 10
356.1051374494303
 20
53.19855915315358
 30
0.000000000000000
 10
355.6110938755306
 20
52.70383193315828
 30
0.000000000000000
 10
355.2045057988329
 20
52.31209767705033
 30
0.000000000000000
 10
354.8970071277799
 20
52.02363331528770
 30
0.000000000000000
 10
354.6925095304047
 20
51.83465146847308
 30
0.000000000000000
 10
354.4865010646247
 20
51.64713125530758
 30
0.000000000000000
 10
354.2795486961007
 20
51.46147104091344
 30
0.000000000000000
 10
354.0800209342244
 20
51.28541012342586
 30
0.000000000000000
 10
353.9496913263461
 20
51.17133913093241
 30
0.000000000000000
 10
353.8883394982730
 20
51.11855928919678
 30
0.000000000000000
  0
SPLINE
  5
80
100
AcDbEntity
  8
A8
  6
CONTINUOUS
 62
7
100
AcDbSpline
210
0.000000000000000
220
0.000000000000000
230
1.000000000000000
 70
     8
 71
     3
 72
    63
 73
    59
 74
     0
 42
1.000000000000000e-07
 43
1.000000000000000e-07
 12
-0.7580796946367627
 22
-0.6521619251219590
 32
0.000000000000000
 13
-0.9999763624392699
 23
-0.006875649984664278
 33
0.000000000000000
 40
0.000000000000000
 40
0.000000000000000
 40
0.000000000000000
 40
0.000000000000000
 40
0.2351087225674182
 40
0.4032122802524904
 40
0.5042678204953402
 40
0.5969566987250676
 40
0.7340264535677412
 40
0.9807413363940147
 40
1.303877597126139
 40
1.703729827699029
 40
2.215014395896297
 40
2.746271841455169
 40
3.269377834428954
 40
3.784947785964806
 40
4.293561691793724
 40
5.186177687445896
 40
6.061163830337324
 40
6.917738715691531
 40
7.714517478047186
 40
8.438266462194260
 40
8.853205441805796
 40
9.238641015396762
 40
9.568387654240496
 40
9.825692546137292
 40
10.04950774847020
 40
10.33261251264601
 40
10.67824453750768
 40
11.08482993110361
 40
11.67346786148545
 40
12.27562484077279
 40
12.86099662087882
 40
13.42228300044073
 40
13.95267796751287
 40
14.62377594278815
 40
15.25989972948331
 40
15.88041005091609
 40
16.37035322345319
 40
16.89539611443423
 40
17.49515852145377
 40
18.09225939916901
 40
18.74249765433449
 40
19.43761732496488
 40
20.17458991630086
 40
20.96578471085943
 40
21.80680736796173
 40
22.78125854124814
 40
23.81523424249875
 40
24.90885513176902
 40
26.06226933293252
 40
27.27541924374627
 40
28.54826625628007
 40
29.88083044425783
 40
31.15478876359012
 40
32.47884003038139
 40
33.85287071609687
 40
35.27670927457939
 40
36.75011706153893
 40
38.27277879738422
 40
38.27277879738422
 40
38.27277879738422
 40
38.27277879738422
 10
353.8883394982730
 20
51.11855928919678
 30
0.000000000000000
 10
353.8289291154028
 20
51.06744963682260
 30
0.000000000000000
 10
353.7272512027845
 20
50.97955013934504
 30
0.000000000000000
 10
353.5991845938780
 20
50.87067712245468
 30
0.000000000000000
 10
353.5070632692917
 20
50.79281903677119
 30
0.000000000000000
 10
353.4226528039726
 20
50.72186352865455
 30
0.000000000000000
 10
353.3007719876906
 20
50.62002844843150
 30
0.000000000000000
 10
353.1191855594319
 20
50.46985012694697
 30
0.000000000000000
 10
352.8685719992590
 20
50.26570381204314
 30
0.000000000000000
 10
352.5471841307457
 20
50.00882610436096
 30
0.000000000000000
 10
352.1680003761710
 20
49.71319253126305
 30
0.000000000000000
 10
351.7526771613694
 20
49.39715486863881
 30
0.000000000000000
 10
351.3326478677883
 20
49.08499798550028
 30
0.000000000000000
 10
350.9150997700241
 20
48.78221401660241
 30
0.000000000000000
 10
350.3934707436734
 20
48.41322232009119
 30
0.000000000000000
 10
349.7669025284523
 20
47.98521656406010
 30
0.000000000000000
 10
349.0343175951990
 20
47.50712226975915
 30
0.000000000000000
 10
348.3190549921011
 20
47.06127558295131
 30
0.000000000000000
 10
347.6384211956423
 20
46.65549461570967
 30
0.000000000000000
 10
347.0784006449009
 20
46.33511234487079
 30
0.000000000000000
 10
346.6341288896705
 20
46.08866706947649
 30
0.000000000000000
 10
346.3030507542354
 20
45.90894714972703
 30
0.000000000000000
 10
346.0169199433660
 20
45.75659134728718
 30
0.000000000000000
 10
345.7775219365866
 20
45.63111053185818
 30
0.000000000000000
 10
345.5513014036898
 20
45.51398668889462
 30
0.000000000000000
 10
345.2982735674778
 20
45.38461013267235
 30
0.000000000000000
 10
344.9900652764442
 20
45.22934125336243
 30
0.000000000000000
 10
344.5895445194670
 20
45.03096720182563
 30
0.000000000000000
 10
344.1103959559513
 20
44.79871736376910
 30
0.000000000000000
 10
343.5751406506164
 20
44.54565146438617
 30
0.000000000000000
 10
343.0457869843625
 20
44.30149609554812
 30
0.000000000000000
 10
342.5359811596455
 20
44.07213119879927
 30
0.000000000000000
 10
341.9978371535918
 20
43.83617157286139
 30
0.000000000000000
 10
341.4338533454221
 20
43.59709936053375
 30
0.000000000000000
 10
340.8383498961183
 20
43.35561291212159
 30
0.000000000000000
 10
340.2954334938112
 20
43.14533593130929
 30
0.000000000000000
 10
339.7846104597792
 20
42.95487747856575
 30
0.000000000000000
 10
339.2785702201029
 20
42.77145813686431
 30
0.000000000000000
 10
338.7372834794477
 20
42.58051687560439
 30
0.000000000000000
 10
338.1546522438956
 20
42.38141710163515
 30
0.000000000000000
 10
337.5396957684096
 20
42.17871933851094
 30
0.000000000000000
 10
336.8775941004177
 20
41.97027570140946
 30
0.000000000000000
 10
336.1672250947664
 20
41.75900515707085
 30
0.000000000000000
 10
335.4075434617124
 20
41.54315410270530
 30
0.000000000000000
 10
334.5683594007679
 20
41.31778181028423
 30
0.000000000000000
 10
333.6474326986082
 20
41.08514047434571
 30
0.000000000000000
 10
332.6408158370128
 20
40.84846980831148
 30
0.000000000000000
 10
331.5719830523175
 20
40.61644831774569
 30
0.000000000000000
 10
330.4405660215616
 20
40.39203076125202
 30
0.000000000000000
 10
329.2463802233673
 20
40.17803289957507
 30
0.000000000000000
 10
327.9893413341003
 20
39.97749987542917
 30
0.000000000000000
 10
326.7084959203092
 20
39.79908578403271
 30
0.000000000000000
 10
325.4074729025800
 20
39.64370562079043
 30
0.000000000000000
 10
324.0899403705619
 20
39.51201252981841
 30
0.000000000000000
 10
322.7202562548188
 20
39.40238166636024
 30
0.000000000000000
 10
321.2989258842007
 20
39.31753720216520
 30
0.000000000000000
 10
319.8266335962720
 20
39.26029377386496
 30
0.000000000000000
 10
318.8280080583002
 20
39.24263358849404
 30
0.000000000000000
 10
318.3204661436881
 20
39.23914382544714
 30
0.000000000000000
  0
LINE
  5
81
100
AcDbEntity
  8
A12
  6
CONTINUOUS
 62
7
100
AcDbLine
 10
364.7163915068810
 20
97.23914364394386
 30
0.000000000000000
 11
364.7163915068810
 21
79.73915796895793
 31
0.000000000000000
  0
LINE
  5
82
100
AcDbEntity
  8
A12
  6
CONTINUOUS
 62
7
100
AcDbLine
 10
340.7163915068812
 20
97.23914364394386
 30
0.000000000000000
 11
340.7163915068812
 21
79.74206908558156
 31
0.000000000000000
  0
LINE
  5
83
100
AcDbEntity
  8
A12
  6
CONTINUOUS
 62
7
100
AcDbLine
 10
76.71639150701969
 20
97.23914364394389
 30
0.000000000000000
 11
76.71639150701969
 21
79.74206908558827
 31
0.000000000000000
  0
LINE
  5
84
100
AcDbEntity
  8
A12
  6
CONTINUOUS
 62
7
100
AcDbLine
 10
52.71639150701992
 20
97.23914364394389
 30
0.000000000000000
 11
52.71639150701992
 21
79.73915796895946
 31
0.000000000000000
  0
LINE
  5
85
100
AcDbEntity
  8
A12
  6
CENTER
 62
1
100
AcDbLine
 10
208.7163911048831
 20
66.50016241065154
 30
0.000000000000000
 11
208.7163911048831
 21
37.73914382544714
 31
0.000000000000000
  0
LINE
  5
86
100
AcDbEntity
  8
A12
  6
CONTINUOUS
 62
7
100
AcDbLine
 10
360.2588638396010
 20
82.57247697725954
 30
0.000000000000000
 11
364.0301000059261
 21
93.23914364383963
 31
0.000000000000000
  0
LINE
  5
87
100
AcDbEntity
  8
A12
  6
CONTINUOUS
 62
7
100
AcDbLine
 10
345.1739191743002
 20
82.57247697725956
 30
0.000000000000000
 11
341.4026830079750
 21
93.23914364383961
 31
0.000000000000000
  0
ARC
  5
88
100
AcDbEntity
  8
A12
  6
CONTINUOUS
 62
7
100
AcDbCircle
 10
352.7163915069506
 20
97.23914364386573
 30
0.000000000000000
 40
12.00000000000000
100
AcDbArc
 50
340.5287793653777
 51
559.4712206346220
  0
ARC
  5
89
100
AcDbEntity
  8
A12
  6
CONTINUOUS
 62
7
100
AcDbCircle
 10
352.7163915069506
 20
85.23914364394372
 30
0.000000000000000
 40
8.000000000000000
100
AcDbArc
 50
199.4712206346221
 51
340.5287793653779
  0
ARC
  5
8A
100
AcDbEntity
  8
A12
  6
CONTINUOUS
 62
7
100
AcDbCircle
 10
64.71639150695057
 20
85.23914364394372
 30
0.000000000000000
 40
8.000000000000000
100
AcDbArc
 50
199.4712206346221
 51
340.5287793653779
  0
LINE
  5
8B
100
AcDbEntity
  8
A12
  6
CONTINUOUS
 62
7
100
AcDbLine
 10
57.17391917430026
 20
82.57247697725965
 30
0.000000000000000
 11
53.40268300797513
 21
93.23914364383961
 31
0.000000000000000
  0
LINE
  5
8C
100
AcDbEntity
  8
A12
  6
CONTINUOUS
 62
7
100
AcDbLine
 10
72.25886383960099
 20
82.57247697725958
 30
0.000000000000000
 11
76.03010000592612
 21
93.23914364383954
 31
0.000000000000000
  0
ARC
  5
8D
100
AcDbEntity
  8
A12
  6
CONTINUOUS
 62
7
100
AcDbCircle
 10
64.71639150695057
 20
97.23914364386573
 30
0.000000000000000
 40
12.00000000000000
100
AcDbArc
 50
340.5287793653781
 51
559.4712206346222
  0
LINE
  5
8E
100
AcDbEntity
  8
A8
  6
CENTER
 62
1
100
AcDbLine
 10
51.21639150695047
 20
97.23914364386573
 30
0.000000000000000
 11
78.21639150695053
 21
97.23914364386573
 31
0.000000000000000
  0
CIRCLE
  5
8F
100
AcDbEntity
  8
A12
  6
CONTINUOUS
 62
7
100
AcDbCircle
 10
64.71639150695069
 20
97.23914364386573
 30
0.000000000000000
 40
3.323500000016338
  0
CIRCLE
  5
90
100
AcDbEntity
  8
A12
  6
CONTINUOUS
 62
1
100
AcDbCircle
 10
64.71639150695069
 20
97.23914364386573
 30
0.000000000000000
 40
4.000000000075943
  0
CIRCLE
  5
91
100
AcDbEntity
  8
A12
  6
CONTINUOUS
 62
7
100
AcDbCircle
 10
352.7163915069506
 20
97.23914364386573
 30
0.000000000000000
 40
3.323500000016338
  0
CIRCLE
  5
92
100
AcDbEntity
  8
A12
  6
CONTINUOUS
 62
1
100
AcDbCircle
 10
352.7163915069506
 20
97.23914364386573
 30
0.000000000000000
 40
4.000000000075943
  0
LINE
  5
93
100
AcDbEntity
  8
A12
  6
CENTER
 62
1
100
AcDbLine
 10
339.2163915069506
 20
97.23914364386570
 30
0.000000000000000
 11
366.2163915069506
 21
97.23914364386570
 31
0.000000000000000
  0
ARC
  5
94
100
AcDbEntity
  8
A12
  6
CONTINUOUS
 62
1
100
AcDbCircle
 10
348.7164396820461
 20
86.73914364401136
 30
0.000000000000000
 40
1.718119093483294
100
AcDbArc
 50
125.5376777920008
 51
166.5374393917331
  0
ARC
  5
95
100
AcDbEntity
  8
A12
  6
CONTINUOUS
 62
1
100
AcDbCircle
 10
352.7163915069506
 20
81.13921108915056
 30
0.000000000000000
 40
8.599896423544767
100
AcDbArc
 50
54.46232220799912
 51
125.5376777920008
  0
ARC
  5
96
100
AcDbEntity
  8
A12
  6
CONTINUOUS
 62
1
100
AcDbCircle
 10
356.7163433318552
 20
86.73914364401136
 30
0.000000000000000
 40
1.718119093483296
100
AcDbArc
 50
332.2496545546281
 51
414.4623222079991
  0
ARC
  5
97
100
AcDbEntity
  8
A12
  6
CONTINUOUS
 62
1
100
AcDbCircle
 10
348.7164396820461
 20
86.73914364401136
 30
0.000000000000000
 40
1.718119093483294
100
AcDbArc
 50
180.0000000000000
 51
234.4623222080521
  0
ARC
  5
98
100
AcDbEntity
  8
A12
  6
CONTINUOUS
 62
1
100
AcDbCircle
 10
352.7163915069506
 20
92.33907619888313
 30
0.000000000000000
 40
8.599896423544767
100
AcDbArc
 50
234.4623222080520
 51
305.5376777919479
  0
ARC
  5
99
100
AcDbEntity
  8
A12
  6
CONTINUOUS
 62
1
100
AcDbCircle
 10
356.7163433318552
 20
86.73914364401136
 30
0.000000000000000
 40
1.718119093483296
100
AcDbArc
 50
305.5376777919479
 51
315.6988392796171
  0
LINE
  5
9A
100
AcDbEntity
  8
A12
  6
CONTINUOUS
 62
1
100
AcDbLine
 10
348.3831103633040
 20
88.56759537012411
 30
0.000000000000000
 11
348.3831103633040
 21
85.69385714302834
 31
0.000000000000000
  0
LINE
  5
9B
100
AcDbEntity
  8
A12
  6
CONTINUOUS
 62
1
100
AcDbLine
 10
349.0497690007881
 20
85.50915927125394
 30
0.000000000000000
 11
349.0497690007881
 21
87.96912801677976
 31
0.000000000000000
  0
ARC
  5
9C
100
AcDbEntity
  8
A12
  6
CONTINUOUS
 62
1
100
AcDbCircle
 10
349.3830983195302
 20
87.96912801677976
 30
0.000000000000000
 40
0.3333293187420452
100
AcDbArc
 50
116.0143659996366
 51
180.0000000000000
  0
ARC
  5
9D
100
AcDbEntity
  8
A12
  6
CONTINUOUS
 62
1
100
AcDbCircle
 10
352.7163915069506
 20
81.13921108915056
 30
0.000000000000000
 40
7.933237786060675
100
AcDbArc
 50
112.9439535565378
 51
116.0143659996366
  0
ARC
  5
9E
100
AcDbEntity
  8
A12
  6
CONTINUOUS
 62
1
100
AcDbCircle
 10
349.6497617745238
 20
88.38343195085176
 30
0.000000000000000
 40
0.06666586374840902
100
AcDbArc
 50
0.000000000000000
 51
112.9439535565375
  0
LINE
  5
9F
100
AcDbEntity
  8
A12
  6
CONTINUOUS
 62
1
100
AcDbLine
 10
349.7164276382722
 20
88.38343195085176
 30
0.000000000000000
 11
349.7164276382722
 21
85.09485533718188
 31
0.000000000000000
  0
ARC
  5
A0
100
AcDbEntity
  8
A12
  6
CONTINUOUS
 62
1
100
AcDbCircle
 10
349.6497617745238
 20
85.09485533718188
 30
0.000000000000000
 40
0.06666586374840902
100
AcDbArc
 50
247.0560464434623
 51
360.0000000000000
  0
ARC
  5
A1
100
AcDbEntity
  8
A12
  6
CONTINUOUS
 62
1
100
AcDbCircle
 10
352.7163915069506
 20
92.33907619888313
 30
0.000000000000000
 40
7.933237786060675
100
AcDbArc
 50
243.9856340003634
 51
247.0560464434622
  0
ARC
  5
A2
100
AcDbEntity
  8
A12
  6
CONTINUOUS
 62
1
100
AcDbCircle
 10
349.3830983195302
 20
85.50915927125394
 30
0.000000000000000
 40
0.3333293187420452
100
AcDbArc
 50
180.0000000000000
 51
243.9856340003634
  0
LINE
  5
A3
100
AcDbEntity
  8
A12
  6
CONTINUOUS
 62
1
100
AcDbLine
 10
351.0497449132404
 20
87.53913400899225
 30
0.000000000000000
 11
351.0497449132404
 21
88.81244911059426
 31
0.000000000000000
  0
ARC
  5
A4
100
AcDbEntity
  8
A12
  6
CONTINUOUS
 62
1
100
AcDbCircle
 10
350.9830790494920
 20
88.81244911059426
 30
0.000000000000000
 40
0.06666586374840902
100
AcDbArc
 50
0.000000000000000
 51
102.7289438731227
  0
ARC
  5
A5
100
AcDbEntity
  8
A12
  6
CONTINUOUS
 62
1
100
AcDbCircle
 10
352.7163915069506
 20
81.13921108915056
 30
0.000000000000000
 40
7.933237786060675
100
AcDbArc
 50
102.7289438731226
 51
103.2681189705562
  0
ARC
  5
A6
100
AcDbEntity
  8
A12
  6
CONTINUOUS
 62
1
100
AcDbCircle
 10
352.7163915069506
 20
81.13921108915056
 30
0.000000000000000
 40
7.933237786060675
100
AcDbArc
 50
103.2681189705562
 51
105.2575232904564
  0
ARC
  5
A7
100
AcDbEntity
  8
A12
  6
CONTINUOUS
 62
1
100
AcDbCircle
 10
350.7164155944983
 20
88.47124389467118
 30
0.000000000000000
 40
0.3333293187420452
100
AcDbArc
 50
105.2575232904564
 51
180.0000000000000
  0
LINE
  5
A8
100
AcDbEntity
  8
A12
  6
CONTINUOUS
 62
1
100
AcDbLine
 10
350.3830862757563
 20
88.47124389467118
 30
0.000000000000000
 11
350.3830862757563
 21
85.00704339336247
 31
0.000000000000000
  0
ARC
  5
A9
100
AcDbEntity
  8
A12
  6
CONTINUOUS
 62
1
100
AcDbCircle
 10
350.7164155944983
 20
85.00704339336247
 30
0.000000000000000
 40
0.3333293187420452
100
AcDbArc
 50
180.0000000000000
 51
254.7424767095436
  0
ARC
  5
AA
100
AcDbEntity
  8
A12
  6
CONTINUOUS
 62
1
100
AcDbCircle
 10
352.7163915069506
 20
92.33907619888313
 30
0.000000000000000
 40
7.933237786060675
100
AcDbArc
 50
254.7424767095436
 51
254.7937121239420
  0
ARC
  5
AB
100
AcDbEntity
  8
A12
  6
CONTINUOUS
 62
1
100
AcDbCircle
 10
352.7163915069506
 20
92.33907619888313
 30
0.000000000000000
 40
7.933237786060675
100
AcDbArc
 50
254.7937121239420
 51
257.2710561268773
  0
ARC
  5
AC
100
AcDbEntity
  8
A12
  6
CONTINUOUS
 62
1
100
AcDbCircle
 10
350.9830790494920
 20
84.66583817743938
 30
0.000000000000000
 40
0.06666586374840902
100
AcDbArc
 50
257.2710561268775
 51
360.0000000000000
  0
LINE
  5
AD
100
AcDbEntity
  8
A12
  6
CONTINUOUS
 62
1
100
AcDbLine
 10
351.0497449132404
 20
84.66583817743938
 30
0.000000000000000
 11
351.0497449132404
 21
85.93915327903048
 31
0.000000000000000
  0
LINE
  5
AE
100
AcDbEntity
  8
A12
  6
CONTINUOUS
 62
1
100
AcDbLine
 10
351.7164035507245
 20
89.00917207111124
 30
0.000000000000000
 11
351.7164035507245
 21
84.46911521692263
 31
0.000000000000000
  0
LINE
  5
AF
100
AcDbEntity
  8
A12
  6
CONTINUOUS
 62
1
100
AcDbLine
 10
352.3830621882086
 20
89.06544306502960
 30
0.000000000000000
 11
352.3830621882086
 21
84.41284422300416
 31
0.000000000000000
  0
LINE
  5
B0
100
AcDbEntity
  8
A12
  6
CONTINUOUS
 62
1
100
AcDbLine
 10
352.3830621882086
 20
86.73914364401136
 30
0.000000000000000
 11
351.7164035507245
 21
86.73914364401136
 31
0.000000000000000
  0
LINE
  5
B1
100
AcDbEntity
  8
A12
  6
CONTINUOUS
 62
1
100
AcDbLine
 10
353.0497208256926
 20
89.06544306502960
 30
0.000000000000000
 11
353.0497208256926
 21
84.41284422300416
 31
0.000000000000000
  0
LINE
  5
B2
100
AcDbEntity
  8
A12
  6
CONTINUOUS
 62
1
100
AcDbLine
 10
354.3830381006608
 20
87.53913400899225
 30
0.000000000000000
 11
354.3830381006608
 21
88.62124782762575
 31
0.000000000000000
  0
ARC
  5
B3
100
AcDbEntity
  8
A12
  6
CONTINUOUS
 62
1
100
AcDbCircle
 10
354.0497087819188
 20
88.62124782762575
 30
0.000000000000000
 40
0.3333293187420452
100
AcDbArc
 50
0.000000000000000
 51
79.89581728387491
  0
ARC
  5
B4
100
AcDbEntity
  8
A12
  6
CONTINUOUS
 62
1
100
AcDbCircle
 10
352.7163915069506
 20
81.13921108915056
 30
0.000000000000000
 40
7.933237786060675
100
AcDbArc
 50
79.89581728387498
 51
82.20707566457760
  0
ARC
  5
B5
100
AcDbEntity
  8
A12
  6
CONTINUOUS
 62
1
100
AcDbCircle
 10
353.7830453269252
 20
88.93313201749240
 30
0.000000000000000
 40
0.06666586374840902
100
AcDbArc
 50
82.20707566457730
 51
180.0000000000000
  0
LINE
  5
B6
100
AcDbEntity
  8
A12
  6
CONTINUOUS
 62
1
100
AcDbLine
 10
353.7163794631768
 20
88.93313201749240
 30
0.000000000000000
 11
353.7163794631768
 21
84.54515527054136
 31
0.000000000000000
  0
ARC
  5
B7
100
AcDbEntity
  8
A12
  6
CONTINUOUS
 62
1
100
AcDbCircle
 10
353.7830453269252
 20
84.54515527054136
 30
0.000000000000000
 40
0.06666586374840902
100
AcDbArc
 50
180.0000000000000
 51
277.7929243354228
  0
ARC
  5
B8
100
AcDbEntity
  8
A12
  6
CONTINUOUS
 62
1
100
AcDbCircle
 10
352.7163915069506
 20
92.33907619888313
 30
0.000000000000000
 40
7.933237786060675
100
AcDbArc
 50
277.7929243354224
 51
280.1041827161250
  0
ARC
  5
B9
100
AcDbEntity
  8
A12
  6
CONTINUOUS
 62
1
100
AcDbCircle
 10
354.0497087819188
 20
84.85703946040800
 30
0.000000000000000
 40
0.3333293187420452
100
AcDbArc
 50
280.1041827161250
 51
360.0000000000000
  0
LINE
  5
BA
100
AcDbEntity
  8
A12
  6
CONTINUOUS
 62
1
100
AcDbLine
 10
354.3830381006608
 20
84.85703946040800
 30
0.000000000000000
 11
354.3830381006608
 21
86.73914364401136
 31
0.000000000000000
  0
LINE
  5
BB
100
AcDbEntity
  8
A12
  6
CONTINUOUS
 62
1
100
AcDbLine
 10
354.3830381006608
 20
86.73914364401136
 30
0.000000000000000
 11
354.0497087819188
 21
86.73914364401136
 31
0.000000000000000
  0
LINE
  5
BC
100
AcDbEntity
  8
A12
  6
CONTINUOUS
 62
1
100
AcDbLine
 10
355.0496967381450
 20
88.93056555424462
 30
0.000000000000000
 11
355.0496967381450
 21
84.75673167569889
 31
0.000000000000000
  0
LINE
  5
BD
100
AcDbEntity
  8
A12
  6
CONTINUOUS
 62
1
100
AcDbLine
 10
355.7163553756290
 20
88.61649430952306
 30
0.000000000000000
 11
355.7163553756290
 21
87.07247296275349
 31
0.000000000000000
  0
ARC
  5
BE
100
AcDbEntity
  8
A12
  6
CONTINUOUS
 62
1
100
AcDbCircle
 10
356.0496846943710
 20
87.07247296275349
 30
0.000000000000000
 40
0.3333293187420467
100
AcDbArc
 50
180.0000000000000
 51
360.0000000000000
  0
LINE
  5
BF
100
AcDbEntity
  8
A12
  6
CONTINUOUS
 62
1
100
AcDbLine
 10
356.3830140131132
 20
87.07247296275349
 30
0.000000000000000
 11
356.3830140131132
 21
88.49665829602432
 31
0.000000000000000
  0
LINE
  5
C0
100
AcDbEntity
  8
A12
  6
CONTINUOUS
 62
1
100
AcDbLine
 10
356.0496846943710
 20
86.73914364401136
 30
0.000000000000000
 11
356.0496846943710
 21
85.14008888837370
 31
0.000000000000000
  0
LINE
  5
C1
100
AcDbEntity
  8
A12
  6
CONTINUOUS
 62
1
100
AcDbLine
 10
356.7224534130459
 20
85.49161464187451
 30
0.000000000000000
 11
357.4755513432010
 21
88.30221438027910
 31
0.000000000000000
  0
LINE
  5
C2
100
AcDbEntity
  8
A12
  6
CONTINUOUS
 62
1
100
AcDbLine
 10
358.4344624253384
 20
86.73914364401136
 30
0.000000000000000
 11
357.0567278017040
 21
86.73914364401136
 31
0.000000000000000
  0
LINE
  5
C3
100
AcDbEntity
  8
A12
  6
CENTER
 62
1
100
AcDbLine
 10
360.9163915069506
 20
86.73914364401688
 30
0.000000000000000
 11
344.5163915069506
 21
86.73914364401688
 31
0.000000000000000
  0
LINE
  5
C4
100
AcDbEntity
  8
A12
  6
CENTER
 62
1
100
AcDbLine
 10
352.7163915069506
 20
75.73914364394372
 30
0.000000000000000
 11
352.7163915069506
 21
110.7391436438657
 31
0.000000000000000
  0
LINE
  5
C5
100
AcDbEntity
  8
A12
  6
CENTER
 62
1
100
AcDbLine
 10
64.71639150695057
 20
75.73914364394372
 30
0.000000000000000
 11
64.71639150695057
 21
110.7391436438657
 31
0.000000000000000
  0
LINE
  5
C6
100
AcDbEntity
  8
A12
  6
CONTINUOUS
 62
7
100
AcDbLine
 10
58.68239150695047
 20
90.23914364386573
 30
0.000000000000000
 11
70.75039150695056
 21
90.23914364386573
 31
0.000000000000000
  0
CIRCLE
  5
C7
100
AcDbEntity
  8
A12
  6
CONTINUOUS
 62
7
100
AcDbCircle
 10
64.71639150695057
 20
97.23914364386573
 30
0.000000000000000
 40
5.500000000000000
  0
CIRCLE
  5
C8
100
AcDbEntity
  8
A12
  6
CONTINUOUS
 62
7
100
AcDbCircle
 10
64.71639150695057
 20
97.23914364386573
 30
0.000000000000000
 40
4.323500000000000
  0
CIRCLE
  5
C9
100
AcDbEntity
  8
A12
  6
CONTINUOUS
 62
7
100
AcDbCircle
 10
352.7163915069506
 20
97.23914364386573
 30
0.000000000000000
 40
4.323500000000000
  0
CIRCLE
  5
CA
100
AcDbEntity
  8
A12
  6
CONTINUOUS
 62
7
100
AcDbCircle
 10
352.7163915069506
 20
97.23914364386573
 30
0.000000000000000
 40
5.500000000000000
  0
LINE
  5
CB
100
AcDbEntity
  8
A12
  6
CONTINUOUS
 62
7
100
AcDbLine
 10
58.18239150695047
 20
87.73244364386571
 30
0.000000000000000
 11
58.18239150695047
 21
89.73914364386573
 31
0.000000000000000
  0
LINE
  5
CC
100
AcDbEntity
  8
A12
  6
CONTINUOUS
 62
7
100
AcDbLine
 10
71.25039150695056
 20
87.73244364386571
 30
0.000000000000000
 11
71.25039150695056
 21
89.73914364386573
 31
0.000000000000000
  0
LINE
  5
CD
100
AcDbEntity
  8
A12
  6
CONTINUOUS
 62
7
100
AcDbLine
 10
61.49839150695050
 20
84.59244364386572
 30
0.000000000000000
 11
67.93439150695053
 21
84.59244364386572
 31
0.000000000000000
  0
LINE
  5
CE
100
AcDbEntity
  8
A12
  6
CONTINUOUS
 62
7
100
AcDbLine
 10
60.99839150695050
 20
85.09244364386572
 30
0.000000000000000
 11
60.99839150695050
 21
86.73244364386571
 31
0.000000000000000
  0
LINE
  5
CF
100
AcDbEntity
  8
A12
  6
CONTINUOUS
 62
7
100
AcDbLine
 10
68.43439150695053
 20
85.09244364386572
 30
0.000000000000000
 11
68.43439150695053
 21
86.73244364386571
 31
0.000000000000000
  0
LINE
  5
D0
100
AcDbEntity
  8
A12
  6
CONTINUOUS
 62
7
100
AcDbLine
 10
58.68239150695047
 20
87.23244364386571
 30
0.000000000000000
 11
60.49839150695050
 21
87.23244364386571
 31
0.000000000000000
  0
LINE
  5
D1
100
AcDbEntity
  8
A12
  6
CONTINUOUS
 62
7
100
AcDbLine
 10
68.93439150695053
 20
87.23244364386571
 30
0.000000000000000
 11
70.75039150695056
 21
87.23244364386571
 31
0.000000000000000
  0
MTEXT
  5
D2
100
AcDbEntity
  8
DXF20
  6
CONTINUOUS
 62
1
100
AcDbMText
 10
58.73239150695053
 20
88.68274641466348
 30
0.000000000000000
 40
0.8400000333786011
 41
0.000000000000000
 44
3.214285586561481
 71
     1
 72
     1
  1
{THA-474}
 11
1.000000000000000
 21
0.000000000000000
 31
0.000000000000000
  7
STANDARD
  0
MTEXT
  5
D3
100
AcDbEntity
  8
DXF20
  6
CONTINUOUS
 62
1
100
AcDbMText
 10
61.40025615767900
 20
85.80894882218675
 30
0.000000000000000
 40
0.8400000333786011
 41
0.000000000000000
 44
3.214285586561481
 71
     1
 72
     1
  1
{>PP<}
 11
1.000000000000000
 21
0.000000000000000
 31
0.000000000000000
  7
STANDARD
  0
ARC
  5
D4
100
AcDbEntity
  8
A12
  6
CONTINUOUS
 62
7
100
AcDbCircle
 10
70.75039150695056
 20
89.73914364386573
 30
0.000000000000000
 40
0.5000000000000000
100
AcDbArc
 50
0.000000000000000
 51
90.00000000000000
  0
ARC
  5
D5
100
AcDbEntity
  8
A12
  6
CONTINUOUS
 62
7
100
AcDbCircle
 10
70.75039150695056
 20
87.73244364386571
 30
0.000000000000000
 40
0.5000000000000000
100
AcDbArc
 50
270.0000000000000
 51
360.0000000000000
  0
ARC
  5
D6
100
AcDbEntity
  8
A12
  6
CONTINUOUS
 62
7
100
AcDbCircle
 10
68.93439150695053
 20
86.73244364386571
 30
0.000000000000000
 40
0.5000000000000000
100
AcDbArc
 50
90.00000000000000
 51
180.0000000000000
  0
ARC
  5
D7
100
AcDbEntity
  8
A12
  6
CONTINUOUS
 62
7
100
AcDbCircle
 10
67.93439150695053
 20
85.09244364386572
 30
0.000000000000000
 40
0.5000000000000000
100
AcDbArc
 50
270.0000000000000
 51
360.0000000000000
  0
ARC
  5
D8
100
AcDbEntity
  8
A12
  6
CONTINUOUS
 62
7
100
AcDbCircle
 10
61.49839150695050
 20
85.09244364386572
 30
0.000000000000000
 40
0.5000000000000000
100
AcDbArc
 50
180.0000000000000
 51
270.0000000000000
  0
ARC
  5
D9
100
AcDbEntity
  8
A12
  6
CONTINUOUS
 62
7
100
AcDbCircle
 10
60.49839150695050
 20
86.73244364386571
 30
0.000000000000000
 40
0.5000000000000000
100
AcDbArc
 50
0.000000000000000
 51
90.00000000000000
  0
ARC
  5
DA
100
AcDbEntity
  8
A12
  6
CONTINUOUS
 62
7
100
AcDbCircle
 10
58.68239150695047
 20
87.73244364386571
 30
0.000000000000000
 40
0.5000000000000000
100
AcDbArc
 50
180.0000000000000
 51
270.0000000000000
  0
ARC
  5
DB
100
AcDbEntity
  8
A12
  6
CONTINUOUS
 62
7
100
AcDbCircle
 10
58.68239150695047
 20
89.73914364386573
 30
0.000000000000000
 40
0.5000000000000000
100
AcDbArc
 50
90.00000000000000
 51
180.0000000000000
  0
ARC
  5
DC
100
AcDbEntity
  8
DXF17
  6
CONTINUOUS
 62
7
100
AcDbCircle
 10
352.7163915069506
 20
92.02669766036567
 30
0.000000000000000
 40
9.071999999999999
100
AcDbArc
 50
234.4623222080000
 51
305.5377436641196
  0
ARC
  5
DD
100
AcDbEntity
  8
DXF17
  6
CONTINUOUS
 62
7
100
AcDbCircle
 10
352.7163915069506
 20
81.44269766036572
 30
0.000000000000000
 40
9.071999999999999
100
AcDbArc
 50
54.46225633588035
 51
125.5376777920000
  0
ARC
  5
DE
100
AcDbEntity
  8
A12
  6
CONTINUOUS
 62
7
100
AcDbCircle
 10
356.4964006952472
 20
86.73469766036570
 30
0.000000000000000
 40
2.568636757522537
100
AcDbArc
 50
305.5377436641195
 51
414.4622563358805
  0
ARC
  5
DF
100
AcDbEntity
  8
A12
  6
CONTINUOUS
 62
7
100
AcDbCircle
 10
348.9363134951540
 20
86.73469766036570
 30
0.000000000000000
 40
2.568596754370251
100
AcDbArc
 50
125.5382370656897
 51
234.4617629343103
  0
SPLINE
  5
E0
100
AcDbEntity
  8
A12
  6
CONTINUOUS
 62
7
100
AcDbSpline
210
0.000000000000000
220
0.000000000000000
230
1.000000000000000
 70
     8
 71
     3
 72
     9
 73
     5
 74
     0
 42
1.000000000000000e-07
 43
1.000000000000000e-07
 12
0.9998335514367955
 22
0.02736706410809275
 32
0.000000000000000
 13
0.9998335514367929
 23
-0.02736706410809253
 33
0.000000000000000
 40
0.000000000000000
 40
0.000000000000000
 40
0.000000000000000
 40
0.000000000000000
 40
109.6208196886150
 40
219.2416393772302
 40
219.2416393772302
 40
219.2416393772302
 40
219.2416393772302
 10
99.11381764420275
 20
39.23914382544714
 30
0.000000000000000
 10
135.6480087977629
 20
40.23914382544714
 30
0.000000000000000
 10
208.7163911048832
 20
42.23914382544714
 30
0.000000000000000
 10
281.7847734120036
 20
40.23914382544714
 30
0.000000000000000
 10
318.3189645655637
 20
39.23914382544714
 30
0.000000000000000
  0
SPLINE
  5
E1
100
AcDbEntity
  8
A6
  6
CONTINUOUS
 62
7
100
AcDbSpline
210
0.000000000000000
220
0.000000000000000
230
1.000000000000000
 70
     8
 71
     3
 72
    18
 73
    14
 74
     0
 42
1.000000000000000e-07
 43
1.000000000000000e-07
 12
0.6725684612922578
 22
0.01648392031665935
 32
0.000000000000000
 13
0.8653183203116441
 23
0.5012227095161279
 33
0.000000000000000
 40
0.000000000000000
 40
0.000000000000000
 40
0.000000000000000
 40
0.000000000000000
 40
0.9063500115113921
 40
1.639906379211853
 40
2.417045229807878
 40
3.237583783299750
 40
4.100715356832837
 40
4.856144548802929
 40
5.644036397638056
 40
6.458128901491978
 40
7.301047434471530
 40
8.175416795252115
 40
9.078728499670941
 40
9.078728499670941
 40
9.078728499670941
 40
9.078728499670941
 10
480.8832362889029
 20
200.7965291146225
 30
0.000000000000000
 10
481.0864304331144
 20
200.8015091817454
 30
0.000000000000000
 10
481.5363430137879
 20
200.8267043453633
 30
0.000000000000000
 10
482.2343044555728
 20
200.8870212033174
 30
0.000000000000000
 10
483.0048435603675
 20
200.9900367493474
 30
0.000000000000000
 10
483.8124048682549
 20
201.1354175070863
 30
0.000000000000000
 10
484.6051255035819
 20
201.3175475431381
 30
0.000000000000000
 10
485.3780770889697
 20
201.5328695272530
 30
0.000000000000000
 10
486.1256294263279
 20
201.7758249771731
 30
0.000000000000000
 10
486.8892674589764
 20
202.0613229450690
 30
0.000000000000000
 10
487.6648664681981
 20
202.3943667066977
 30
0.000000000000000
 10
488.4522852942504
 20
202.7732472040680
 30
0.000000000000000
 10
488.9725704586830
 20
203.0575265108655
 30
0.000000000000000
 10
489.2331211809447
 20
203.2084466242076
 30
0.000000000000000
  0
SPLINE
  5
E2
100
AcDbEntity
  8
A6
  6
CONTINUOUS
 62
7
100
AcDbSpline
210
0.000000000000000
220
0.000000000000000
230
1.000000000000000
 70
     8
 71
     3
 72
    44
 73
    40
 74
     0
 42
1.000000000000000e-07
 43
1.000000000000000e-07
 12
0.8640955213547841
 22
0.5033278553529499
 32
0.000000000000000
 13
-0.5225063805301033
 23
0.9163062962288677
 33
0.000000000000000
 40
0.000000000000000
 40
0.000000000000000
 40
0.000000000000000
 40
0.000000000000000
 40
0.8235243873713809
 40
1.615608088547928
 40
2.379080534805950
 40
3.112432744619948
 40
3.814996372803619
 40
4.487287799439581
 40
5.129783605280040
 40
5.742805140101234
 40
6.513547384095597
 40
7.229249243643759
 40
7.890043703309281
 40
8.497352089686281
 40
9.051523206851352
 40
9.552184420548228
 40
10.27251353388221
 40
11.01731068536055
 40
11.78675579540557
 40
12.58064578773457
 40
13.23318606327798
 40
13.90112068406644
 40
14.58463201884011
 40
15.28453391086618
 40
15.97621330557864
 40
16.79420831263499
 40
17.55973695051378
 40
18.27368004361597
 40
18.93669638381430
 40
19.18547612756365
 40
19.41071150490869
 40
19.61017605441773
 40
19.78379632749403
 40
19.93628642852485
 40
20.06405546376130
 40
20.23414017404262
 40
20.33265665229439
 40
20.41973234281905
 40
20.49298562702046
 40
20.49298562702046
 40
20.49298562702046
 40
20.49298562702046
 10
489.2331211809447
 20
203.2084466242076
 30
0.000000000000000
 10
489.4703224258961
 20
203.3466142121165
 30
0.000000000000000
 10
489.9252470404668
 20
203.6359290961182
 30
0.000000000000000
 10
490.5620402241001
 20
204.1098512245439
 30
0.000000000000000
 10
491.1357161319796
 20
204.6140484445503
 30
0.000000000000000
 10
491.6508165307617
 20
205.1365233346318
 30
0.000000000000000
 10
492.1095875153025
 20
205.6695241274857
 30
0.000000000000000
 10
492.5149688372070
 20
206.2065865952103
 30
0.000000000000000
 10
492.8707074546829
 20
206.7421821692499
 30
0.000000000000000
 10
493.2123064102658
 20
207.3252148276541
 30
0.000000000000000
 10
493.5291854707237
 20
207.9497887423472
 30
0.000000000000000
 10
493.8123857503432
 20
208.6075843305033
 30
0.000000000000000
 10
494.0388226232259
 20
209.2292219001243
 30
0.000000000000000
 10
494.2172898994423
 20
209.8100827370398
 30
0.000000000000000
 10
494.3557460683063
 20
210.3467301256932
 30
0.000000000000000
 10
494.4802670482635
 20
210.9253345530079
 30
0.000000000000000
 10
494.5884687545675
 20
211.5719398525115
 30
0.000000000000000
 10
494.6716861161084
 20
212.3124936248092
 30
0.000000000000000
 10
494.7161465181485
 20
213.0809613025724
 30
0.000000000000000
 10
494.7186589744455
 20
213.8199614623182
 30
0.000000000000000
 10
494.6864512612959
 20
214.5242284740419
 30
0.000000000000000
 10
494.6267044771536
 20
215.1897648936532
 30
0.000000000000000
 10
494.5356092596750
 20
215.8676761008085
 30
0.000000000000000
 10
494.4130523925215
 20
216.5486662640632
 30
0.000000000000000
 10
494.2508921334783
 20
217.2673435875938
 30
0.000000000000000
 10
494.0495540099913
 20
217.9988748057897
 30
0.000000000000000
 10
493.8106602476208
 20
218.7267769391549
 30
0.000000000000000
 10
493.5574006487467
 20
219.3947606837817
 30
0.000000000000000
 10
493.3444774798439
 20
219.8932556238116
 30
0.000000000000000
 10
493.1864309539241
 20
220.2377508763250
 30
0.000000000000000
 10
493.0900589058061
 20
220.4405136026913
 30
0.000000000000000
 10
493.0022229777800
 20
220.6195749967223
 30
0.000000000000000
 10
492.9233143612936
 20
220.7759932615428
 30
0.000000000000000
 10
492.8538248379156
 20
220.9103864193402
 30
0.000000000000000
 10
492.7837083914254
 20
221.0431211646891
 30
0.000000000000000
 10
492.7208851400297
 20
221.1593564135367
 30
0.000000000000000
 10
492.6635968473701
 20
221.2631564564452
 30
0.000000000000000
 10
492.6217660812684
 20
221.3378544934016
 30
0.000000000000000
 10
492.5957348191286
 20
221.3837616606750
 30
0.000000000000000
 10
492.5829763829985
 20
221.4061358091860
 30
0.000000000000000
  0
ARC
  5
E3
100
AcDbEntity
  8
A6
  6
CONTINUOUS
 62
7
100
AcDbCircle
 10
482.1899586831519
 20
215.4073721012480
 30
0.000000000000000
 40
12.00000000000003
100
AcDbArc
 50
29.99318501719175
 51
119.9999999998135
  0
LINE
  5
E4
100
AcDbEntity
  8
A6
  6
CONTINUOUS
 62
7
100
AcDbLine
 10
424.7148899294211
 20
157.4073721012484
 30
0.000000000000000
 11
456.7148899294211
 21
157.4073721012483
 31
0.000000000000000
  0
LINE
  5
E5
100
AcDbEntity
  8
A12
  6
CONTINUOUS
 62
7
100
AcDbLine
 10
424.7148899294209
 20
157.4073721012482
 30
0.000000000000000
 11
424.7148899294209
 21
187.4202781072957
 31
0.000000000000000
  0
LINE
  5
E6
100
AcDbEntity
  8
A12
  6
CONTINUOUS
 62
7
100
AcDbLine
 10
432.2148899294211
 20
200.4106591640622
 30
0.000000000000000
 11
476.1899586831518
 21
225.7996769466610
 31
0.000000000000000
  0
LINE
  5
E7
100
AcDbEntity
  8
A12
  6
CONTINUOUS
 62
7
100
AcDbLine
 10
464.2148899294211
 20
191.1730548570283
 30
0.000000000000000
 11
483.0829096580964
 21
202.0665111264542
 31
0.000000000000000
  0
ARC
  5
E8
100
AcDbEntity
  8
A12
  6
CONTINUOUS
 62
7
100
AcDbCircle
 10
439.7148899294209
 20
187.4202781072957
 30
0.000000000000000
 40
15.00000000000000
100
AcDbArc
 50
120.0000000000002
 51
180.0000000000000
  0
LINE
  5
E9
100
AcDbEntity
  8
A12
  6
CONTINUOUS
 62
7
100
AcDbLine
 10
456.7148899294209
 20
157.4073721012481
 30
0.000000000000000
 11
456.7148899294209
 21
178.1826738002617
 31
0.000000000000000
  0
ARC
  5
EA
100
AcDbEntity
  8
A12
  6
CONTINUOUS
 62
7
100
AcDbCircle
 10
471.7148899294211
 20
178.1826738002617
 30
0.000000000000000
 40
15.00000000000000
100
AcDbArc
 50
120.0000000000001
 51
180.0000000000000
  0
LINE
  5
EB
100
AcDbEntity
  8
A6
  6
CENTER
 62
1
100
AcDbLine
 10
436.7148897259918
 20
155.9073721012482
 30
0.000000000000000
 11
436.7148897259918
 21
173.9073721012482
 31
0.000000000000000
  0
LINE
  5
EC
100
AcDbEntity
  8
A12
  6
CENTER
 62
1
100
AcDbLine
 10
208.7163915069506
 20
201.0491627304041
 30
0.000000000000000
 11
208.7163915069506
 21
228.9073280807240
 31
0.000000000000000
  0
LINE
  5
ED
100
AcDbEntity
  8
A0
  6
CONTINUOUS
 62
7
100
AcDbLine
 10
210.1599134968326
 20
227.4068003426047
 30
0.000000000000000
 11
210.1622862282746
 21
227.4068012303154
 31
0.000000000000000
  0
SPLINE
  5
EE
100
AcDbEntity
  8
A0
  6
CONTINUOUS
 62
7
100
AcDbSpline
210
0.000000000000000
220
0.000000000000000
230
1.000000000000000
 70
     8
 71
     3
 72
    34
 73
    30
 74
     0
 42
1.000000000000000e-07
 43
1.000000000000000e-07
 12
1.499345323833950
 22
-0.0005858307586095179
 32
0.000000000000000
 13
1.211338224762585
 23
0.0004727837222162634
 33
0.000000000000000
 40
0.000000000000000
 40
0.000000000000000
 40
0.000000000000000
 40
0.000000000000000
 40
0.3234813594184857
 40
0.4854324771759019
 40
0.6459836924635061
 40
0.8066153924279971
 40
0.9673275494217900
 40
1.127330216186696
 40
1.287368952864742
 40
1.447443722053224
 40
1.607144230948422
 40
1.766823754469648
 40
1.926482226833865
 40
2.086859277476463
 40
2.247149404795362
 40
2.407352606633357
 40
2.487942296317724
 40
2.568500536109474
 40
2.684957752112960
 40
2.725373272768258
 40
2.797279683773988
 40
2.824281038381655
 40
2.858042722689879
 40
2.864807587184402
 40
2.874959860258351
 40
2.878347269401237
 40
2.883438381048494
 40
2.885142083691615
 40
2.889462574091989
 40
2.889462574091989
 40
2.889462574091989
 40
2.889462574091989
 10
207.2704510831468
 20
227.4067447776001
 30
0.000000000000000
 10
207.4321211710106
 20
227.4066816091567
 30
0.000000000000000
 10
207.5939324244673
 20
227.4067247736036
 30
0.000000000000000
 10
207.7558835297234
 20
227.4067884069855
 30
0.000000000000000
 10
207.9164347326177
 20
227.4068514903215
 30
0.000000000000000
 10
208.0770664112466
 20
227.4069342812269
 30
0.000000000000000
 10
208.2377785559404
 20
227.4069971584313
 30
0.000000000000000
 10
208.3977812104595
 20
227.4070597580539
 30
0.000000000000000
 10
208.5578199414301
 20
227.4071024994320
 30
0.000000000000000
 10
208.7178947105305
 20
227.4071078118693
 30
0.000000000000000
 10
208.8775952193376
 20
227.4071131118859
 30
0.000000000000000
 10
209.0372747396501
 20
227.4070810999409
 30
0.000000000000000
 10
209.1969332026957
 20
227.4070265510098
 30
0.000000000000000
 10
209.3573102439777
 20
227.4069717565692
 30
0.000000000000000
 10
209.5176003526366
 20
227.4068944127611
 30
0.000000000000000
 10
209.6778035437543
 20
227.4068358052108
 30
0.000000000000000
 10
209.7583932280459
 20
227.4068063228768
 30
0.000000000000000
 10
209.8389514640368
 20
227.4067815765688
 30
0.000000000000000
 10
209.9554086792577
 20
227.4067680763438
 30
0.000000000000000
 10
209.9958241998722
 20
227.4067662601046
 30
0.000000000000000
 10
210.0677306104550
 20
227.4067740594486
 30
0.000000000000000
 10
210.0947319645528
 20
227.4067793066495
 30
0.000000000000000
 10
210.1284936473974
 20
227.4067892480554
 30
0.000000000000000
 10
210.1352585115465
 20
227.4067914097533
 30
0.000000000000000
 10
210.1454107840144
 20
227.4067949176548
 30
0.000000000000000
 10
210.1487981929396
 20
227.4067961321701
 30
0.000000000000000
 10
210.1538893042350
 20
227.4067980248947
 30
0.000000000000000
 10
210.1555930067561
 20
227.4067986696193
 30
0.000000000000000
 10
210.1581689717754
 20
227.4067996617189
 30
0.000000000000000
 10
210.1599134968326
 20
227.4068003426047
 30
0.000000000000000
  0
SPLINE
  5
EF
100
AcDbEntity
  8
A0
  6
CONTINUOUS
 62
7
100
AcDbSpline
210
0.000000000000000
220
0.000000000000000
230
1.000000000000000
 70
     8
 71
     3
 72
     8
 73
     4
 74
     0
 42
1.000000000000000e-07
 43
1.000000000000000e-07
 12
1.007737078156651
 22
-0.0001706964408185740
 32
0.000000000000000
 13
0.9922606968314085
 23
0.0006780619060009485
 33
0.000000000000000
 40
0.000000000000000
 40
0.000000000000000
 40
0.000000000000000
 40
0.000000000000000
 40
0.4776677035443231
 40
0.4776677035443231
 40
0.4776677035443231
 40
0.4776677035443231
 10
229.6879383315853
 20
227.4071157461232
 30
0.000000000000000
 10
229.8483928168852
 20
227.4070885673975
 30
0.000000000000000
 10
230.0076155742918
 20
227.4070910114699
 30
0.000000000000000
 10
230.1656058704160
 20
227.4071989742278
 30
0.000000000000000
  0
SPLINE
  5
F0
100
AcDbEntity
  8
A0
  6
CONTINUOUS
 62
7
100
AcDbSpline
210
0.000000000000000
220
0.000000000000000
230
1.000000000000000
 70
     8
 71
     3
 72
     8
 73
     4
 74
     0
 42
1.000000000000000e-07
 43
1.000000000000000e-07
 12
0.9999997016711859
 22
-0.0001756477868184447
 32
0.000000000000000
 13
0.9999997125851223
 23
-0.0001693858648650348
 33
0.000000000000000
 40
0.000000000000000
 40
0.000000000000000
 40
0.000000000000000
 40
0.000000000000000
 40
0.008753188863483086
 40
0.008753188863483086
 40
0.008753188863483086
 40
0.008753188863483086
 10
229.6791851452851
 20
227.4071172564460
 30
0.000000000000000
 10
229.6821028740359
 20
227.4071167439532
 30
0.000000000000000
 10
229.6850206028028
 20
227.4071162403453
 30
0.000000000000000
 10
229.6879383315853
 20
227.4071157461232
 30
0.000000000000000
  0
SPLINE
  5
F1
100
AcDbEntity
  8
A0
  6
CONTINUOUS
 62
7
100
AcDbSpline
210
0.000000000000000
220
0.000000000000000
230
1.000000000000000
 70
     8
 71
     3
 72
    20
 73
    16
 74
     0
 42
1.000000000000000e-07
 43
1.000000000000000e-07
 12
1.499332671839966
 22
-0.001239233815795160
 32
0.000000000000000
 13
1.499668887824100
 23
-0.0002634135666994553
 33
0.000000000000000
 40
0.000000000000000
 40
0.000000000000000
 40
0.000000000000000
 40
0.000000000000000
 40
0.3227008548675257
 40
0.4842650807843161
 40
0.6443618529434462
 40
0.8045542714032590
 40
0.9648422730964736
 40
1.124395218612216
 40
1.283948601135040
 40
1.443502356986991
 40
1.603994835488831
 40
1.764430766857669
 40
1.924810124771746
 40
2.085876906545893
 40
2.407797199055440
 40
2.407797199055440
 40
2.407797199055440
 40
2.407797199055440
 10
227.2713880475851
 20
227.4073395695029
 30
0.000000000000000
 10
227.4326666925630
 20
227.4072062688990
 30
0.000000000000000
 10
227.5940888465599
 20
227.4071901507136
 30
0.000000000000000
 10
227.7556530717611
 20
227.4072053565418
 30
0.000000000000000
 10
227.9157498432112
 20
227.4072204242586
 30
0.000000000000000
 10
228.0759422552270
 20
227.4072658616707
 30
0.000000000000000
 10
228.2362302536982
 20
227.4072980005244
 30
0.000000000000000
 10
228.3957831960066
 20
227.4073299919944
 30
0.000000000000000
 10
228.5553365774489
 20
227.4073485616382
 30
0.000000000000000
 10
228.7148903330417
 20
227.4073394680230
 30
0.000000000000000
 10
228.8753828112829
 20
227.4073303209061
 30
0.000000000000000
 10
229.0358187383913
 20
227.4072933473373
 30
0.000000000000000
 10
229.1961980896817
 20
227.4072472540100
 30
0.000000000000000
 10
229.3572648648038
 20
227.4072009631160
 30
0.000000000000000
 10
229.5182605296066
 20
227.4071455225035
 30
0.000000000000000
 10
229.6791851452851
 20
227.4071172564460
 30
0.000000000000000
  0
SPLINE
  5
F2
100
AcDbEntity
  8
A0
  6
CONTINUOUS
 62
7
100
AcDbSpline
210
0.000000000000000
220
0.000000000000000
230
1.000000000000000
 70
     8
 71
     3
 72
    20
 73
    16
 74
     0
 42
1.000000000000000e-07
 43
1.000000000000000e-07
 12
1.499668845734050
 22
0.0002634135594234976
 32
0.000000000000000
 13
1.499332954721922
 23
0.001239234049535298
 33
0.000000000000000
 40
0.000000000000000
 40
0.000000000000000
 40
0.000000000000000
 40
0.000000000000000
 40
0.3219202990975294
 40
0.4829870742836299
 40
0.6433664413498467
 40
0.8038023666293965
 40
0.9642948420683920
 40
1.123848603100541
 40
1.283401990870638
 40
1.442954925958917
 40
1.603242934542002
 40
1.763435344082173
 40
1.923532118271182
 40
2.085096531541835
 40
2.407797199055371
 40
2.407797199055371
 40
2.407797199055371
 40
2.407797199055371
 10
187.7535978684706
 20
227.4071172564460
 30
0.000000000000000
 10
187.9145224829259
 20
227.4071455225032
 30
0.000000000000000
 10
188.0755181555400
 20
227.4072009631179
 30
0.000000000000000
 10
188.2365849240740
 20
227.4072472540100
 30
0.000000000000000
 10
188.3969642845166
 20
227.4072933473399
 30
0.000000000000000
 10
188.5574002055357
 20
227.4073303209063
 30
0.000000000000000
 10
188.7178926807140
 20
227.4073394680230
 30
0.000000000000000
 10
188.8774464414870
 20
227.4073485616384
 30
0.000000000000000
 10
189.0369998281765
 20
227.4073299919922
 30
0.000000000000000
 10
189.1965527600576
 20
227.4072980005244
 30
0.000000000000000
 10
189.3568407654186
 20
227.4072658616693
 30
0.000000000000000
 10
189.5170331685148
 20
227.4072204242589
 30
0.000000000000000
 10
189.6771299419947
 20
227.4072053565418
 30
0.000000000000000
 10
189.8386943545498
 20
227.4071901506960
 30
0.000000000000000
 10
190.0001163843993
 20
227.4072062689513
 30
0.000000000000000
 10
190.1613949661706
 20
227.4073395695029
 30
0.000000000000000
  0
SPLINE
  5
F3
100
AcDbEntity
  8
A0
  6
CONTINUOUS
 62
7
100
AcDbSpline
210
0.000000000000000
220
0.000000000000000
230
1.000000000000000
 70
     8
 71
     3
 72
     8
 73
     4
 74
     0
 42
1.000000000000000e-07
 43
1.000000000000000e-07
 12
0.9999997126360540
 22
0.0001693858648650348
 32
0.000000000000000
 13
0.9999997016420821
 23
0.0001756477868184447
 33
0.000000000000000
 40
0.000000000000000
 40
0.000000000000000
 40
0.000000000000000
 40
0.000000000000000
 40
0.008753188907380027
 40
0.008753188907380027
 40
0.008753188907380027
 40
0.008753188907380027
 10
187.7448446821265
 20
227.4071157461232
 30
0.000000000000000
 10
187.7477624109239
 20
227.4071162403453
 30
0.000000000000000
 10
187.7506801397053
 20
227.4071167439532
 30
0.000000000000000
 10
187.7535978684706
 20
227.4071172564460
 30
0.000000000000000
  0
SPLINE
  5
F4
100
AcDbEntity
  8
A0
  6
CONTINUOUS
 62
7
100
AcDbSpline
210
0.000000000000000
220
0.000000000000000
230
1.000000000000000
 70
     8
 71
     3
 72
     8
 73
     4
 74
     0
 42
1.000000000000000e-07
 43
1.000000000000000e-07
 12
0.9922610363389595
 22
-0.0006780621381494711
 32
0.000000000000000
 13
1.007736067015912
 23
0.0001706962696061964
 33
0.000000000000000
 40
0.000000000000000
 40
0.000000000000000
 40
0.000000000000000
 40
0.000000000000000
 40
0.4776677035004542
 40
0.4776677035004542
 40
0.4776677035004542
 40
0.4776677035004542
 10
187.2671771433398
 20
227.4071989742278
 30
0.000000000000000
 10
187.4251674935068
 20
227.4070910114330
 30
0.000000000000000
 10
187.5843903578378
 20
227.4070885674248
 30
0.000000000000000
 10
187.7448446821265
 20
227.4071157461232
 30
0.000000000000000
  0
SPLINE
  5
F5
100
AcDbEntity
  8
A0
  6
CONTINUOUS
 62
7
100
AcDbSpline
210
0.000000000000000
220
0.000000000000000
230
1.000000000000000
 70
     8
 71
     3
 72
    14
 73
    10
 74
     0
 42
1.000000000000000e-07
 43
1.000000000000000e-07
 12
1.497167546846271
 22
-0.06323570822195279
 32
0.000000000000000
 13
1.504263246618564
 23
0.06227519871600862
 33
0.000000000000000
 40
0.000000000000000
 40
0.000000000000000
 40
0.000000000000000
 40
0.000000000000000
 40
3.805758246476133
 40
5.712164786928156
 40
7.615002960755472
 40
9.490209901040425
 40
11.39300666794939
 40
13.31240969731915
 40
17.12679512577804
 40
17.12679512577804
 40
17.12679512577804
 40
17.12679512577804
 10
270.1701440962401
 20
227.4073568795205
 30
0.000000000000000
 10
272.0694300088289
 20
227.3271369401747
 30
0.000000000000000
 10
273.9734132763130
 20
227.2720857381374
 30
0.000000000000000
 10
275.8796259458962
 20
227.2448983182775
 30
0.000000000000000
 10
277.7822706117377
 20
227.2177617871863
 30
0.000000000000000
 10
279.6574775115169
 20
227.2181515475911
 30
0.000000000000000
 10
281.5600764469109
 20
227.2455892442296
 30
0.000000000000000
 10
283.4792799182324
 20
227.2732663976507
 30
0.000000000000000
 10
285.3786223841283
 20
227.3281013730963
 30
0.000000000000000
 10
287.2912356536177
 20
227.4072819099418
 30
0.000000000000000
  0
SPLINE
  5
F6
100
AcDbEntity
  8
A0
  6
CONTINUOUS
 62
7
100
AcDbSpline
210
0.000000000000000
220
0.000000000000000
230
1.000000000000000
 70
     8
 71
     3
 72
    29
 73
    25
 74
     0
 42
1.000000000000000e-07
 43
1.000000000000000e-07
 12
1.468700486946204
 22
-0.05992470056526145
 32
0.000000000000000
 13
1.499793007655171
 23
0.01838833745733837
 33
0.000000000000000
 40
0.000000000000000
 40
0.000000000000000
 40
0.000000000000000
 40
0.000000000000000
 40
2.380896057146269
 40
3.550515721506807
 40
4.728624799438499
 40
5.889472637039876
 40
7.068103153976172
 40
8.239128716061360
 40
9.410165382919054
 40
10.58114623949385
 40
11.75199066604095
 40
12.92284646601605
 40
14.09368688530283
 40
15.26460343139409
 40
16.43548765580621
 40
17.60631291951849
 40
18.77748730582873
 40
19.94861404166606
 40
21.11966706847780
 40
22.29125729209383
 40
23.46276115499882
 40
24.63415550938468
 40
25.80655849157030
 40
28.15101252788550
 40
28.15101252788550
 40
28.15101252788550
 40
28.15101252788550
 10
290.1704941152876
 20
227.4073459790980
 30
0.000000000000000
 10
291.3361018481206
 20
227.3597878179975
 30
0.000000000000000
 10
292.5497644595105
 20
227.3198814557495
 30
0.000000000000000
 10
293.7192018965443
 20
227.2992358721380
 30
0.000000000000000
 10
294.8971274244944
 20
227.2784404373372
 30
0.000000000000000
 10
296.0579717446449
 20
227.2755827392529
 30
0.000000000000000
 10
297.2366021677090
 20
227.2751123338487
 30
0.000000000000000
 10
298.4076276365276
 20
227.2746449636721
 30
0.000000000000000
 10
299.5786625873436
 20
227.2766497311878
 30
0.000000000000000
 10
300.7496400023471
 20
227.2794887479787
 30
0.000000000000000
 10
301.9204809877239
 20
227.2823274339981
 30
0.000000000000000
 10
303.0913310391022
 20
227.2859964287560
 30
0.000000000000000
 10
304.2621610278139
 20
227.2909385911356
 30
0.000000000000000
 10
305.4330671426520
 20
227.2958810748496
 30
0.000000000000000
 10
306.6039348625425
 20
227.3020979467000
 30
0.000000000000000
 10
307.7747369444535
 20
227.3094656559626
 30
0.000000000000000
 10
308.9458881420500
 20
227.3168355621661
 30
0.000000000000000
 10
310.1169838776789
 20
227.3253566762119
 30
0.000000000000000
 10
311.2879966716466
 20
227.3350637854054
 30
0.000000000000000
 10
312.4595466439627
 20
227.3447753475382
 30
0.000000000000000
 10
313.6309998083573
 20
227.3556741745826
 30
0.000000000000000
 10
314.8023321722387
 20
227.3677251833083
 30
0.000000000000000
 10
315.9746731105429
 20
227.3797865685415
 30
0.000000000000000
 10
317.1468993093541
 20
227.3930018962052
 30
0.000000000000000
 10
318.3189645661656
 20
227.4073721001962
 30
0.000000000000000
  0
SPLINE
  5
F7
100
AcDbEntity
  8
A0
  6
CONTINUOUS
 62
7
100
AcDbSpline
210
0.000000000000000
220
0.000000000000000
230
1.000000000000000
 70
     8
 71
     3
 72
    23
 73
    19
 74
     0
 42
1.000000000000000e-07
 43
1.000000000000000e-07
 12
1.499258032487433
 22
-0.001034399887885229
 32
0.000000000000000
 13
1.499492572433155
 23
0.001544228523471247
 33
0.000000000000000
 40
0.000000000000000
 40
0.000000000000000
 40
0.000000000000000
 40
0.000000000000000
 40
0.3207972205511656
 40
0.4814309414776745
 40
0.6402090665517285
 40
0.7991700470982177
 40
0.9583138988176186
 40
1.116536627527975
 40
1.274560882676264
 40
1.432386548786528
 40
1.593952698591680
 40
1.755268421142579
 40
1.916333741321382
 40
2.077827134161930
 40
2.239344775582296
 40
2.400886557891072
 40
2.563244201309163
 40
2.887633076875245
 40
2.887633076875245
 40
2.887633076875245
 40
2.887633076875245
 10
267.2825112038686
 20
227.4073651127881
 30
0.000000000000000
 10
267.4428304737722
 20
227.4072545019184
 30
0.000000000000000
 10
267.6033083862620
 20
227.4072547697236
 30
0.000000000000000
 10
267.7639421053549
 20
227.4072790409544
 30
0.000000000000000
 10
267.9227202286165
 20
227.4073030318107
 30
0.000000000000000
 10
268.0816812021795
 20
227.4073501508167
 30
0.000000000000000
 10
268.2408250528196
 20
227.4073686855220
 30
0.000000000000000
 10
268.3990477804568
 20
227.4073871129485
 30
0.000000000000000
 10
268.5570720352282
 20
227.4073761984163
 30
0.000000000000000
 10
268.7148976968544
 20
227.4073385765670
 30
0.000000000000000
 10
268.8764638420692
 20
227.4073000630761
 30
0.000000000000000
 10
269.0377795514603
 20
227.4072349036594
 30
0.000000000000000
 10
269.1988448650316
 20
227.4071887681142
 30
0.000000000000000
 10
269.3603382512471
 20
227.4071425099519
 30
0.000000000000000
 10
269.5218558903456
 20
227.4071151231255
 30
0.000000000000000
 10
269.6833976721878
 20
227.4071274012122
 30
0.000000000000000
 10
269.8457553151369
 20
227.4071397413088
 30
0.000000000000000
 10
270.0080045264095
 20
227.4071922102811
 30
0.000000000000000
 10
270.1701440962399
 20
227.4073591871326
 30
0.000000000000000
  0
SPLINE
  5
F8
100
AcDbEntity
  8
A0
  6
CONTINUOUS
 62
7
100
AcDbSpline
210
0.000000000000000
220
0.000000000000000
230
1.000000000000000
 70
     8
 71
     3
 72
    23
 73
    19
 74
     0
 42
1.000000000000000e-07
 43
1.000000000000000e-07
 12
1.499365607395703
 22
-0.001226462632985204
 32
0.000000000000000
 13
1.499455956237853
 23
0.001016483454804984
 33
0.000000000000000
 40
0.000000000000000
 40
0.000000000000000
 40
0.000000000000000
 40
0.000000000000000
 40
0.3183470292592493
 40
0.4777205017103394
 40
0.6356017406507998
 40
0.7936117636532185
 40
0.9517503783753217
 40
1.109154465451836
 40
1.266455934481555
 40
1.423654755642577
 40
1.585010725993266
 40
1.746210628799515
 40
1.907254488862197
 40
2.068832498388037
 40
2.230391486741700
 40
2.391931361314006
 40
2.554490865721127
 40
2.879258589276981
 40
2.879258589276981
 40
2.879258589276981
 40
2.879258589276981
 10
287.2912356536177
 20
227.4072794939382
 30
0.000000000000000
 10
287.4503418492470
 20
227.4071493470262
 30
0.000000000000000
 10
287.6095826291265
 20
227.4071364636028
 30
0.000000000000000
 10
287.7689561001770
 20
227.4071575929015
 30
0.000000000000000
 10
287.9268373377299
 20
227.4071785243640
 30
0.000000000000000
 10
288.0848473515225
 20
227.4072324733219
 30
0.000000000000000
 10
288.2429859610195
 20
227.4072731253782
 30
0.000000000000000
 10
288.4003900428951
 20
227.4073135886124
 30
0.000000000000000
 10
288.5576915096577
 20
227.4073402952688
 30
0.000000000000000
 10
288.7148903308037
 20
227.4073381167063
 30
0.000000000000000
 10
288.8762463011388
 20
227.4073358805314
 30
0.000000000000000
 10
289.0374462007976
 20
227.4073040253667
 30
0.000000000000000
 10
289.1984900582142
 20
227.4072748319346
 30
0.000000000000000
 10
289.3600680650853
 20
227.4072455416740
 30
0.000000000000000
 10
289.5216270512088
 20
227.4072186979681
 30
0.000000000000000
 10
289.6831669257182
 20
227.4072141877970
 30
0.000000000000000
 10
289.8457264300620
 20
227.4072096491579
 30
0.000000000000000
 10
290.0081691494610
 20
227.4072279599259
 30
0.000000000000000
 10
290.1704941152875
 20
227.4073380002651
 30
0.000000000000000
  0
SPLINE
  5
F9
100
AcDbEntity
  8
A0
  6
CONTINUOUS
 62
7
100
AcDbSpline
210
0.000000000000000
220
0.000000000000000
230
1.000000000000000
 70
     8
 71
     3
 72
    20
 73
    16
 74
     0
 42
1.000000000000000e-07
 43
1.000000000000000e-07
 12
1.498552978173393
 22
-0.06564960591276758
 32
0.000000000000000
 13
1.498596588338842
 23
0.06475552729534684
 33
0.000000000000000
 40
0.000000000000000
 40
0.000000000000000
 40
0.000000000000000
 40
0.000000000000000
 40
0.03014001921067962
 40
0.04521031924041834
 40
1.938458033497369
 40
3.814773214171054
 40
5.713864831751748
 40
7.616100278271256
 40
9.489187367087215
 40
11.39141099923697
 40
13.30123460649508
 40
15.19130995872097
 40
17.09549870442536
 40
17.10381383425672
 40
17.12044392832000
 40
17.12044392832000
 40
17.12044392832000
 40
17.12044392832000
 10
250.1682310267693
 20
227.4073396434758
 30
0.000000000000000
 10
250.1832864986194
 20
227.4066800833480
 30
0.000000000000000
 10
250.1983422367937
 20
227.4060221510838
 30
0.000000000000000
 10
250.2133982392454
 20
227.4053658484403
 30
0.000000000000000
 10
252.1048497811082
 20
227.3229160314364
 30
0.000000000000000
 10
253.9803240899152
 20
227.2667486545039
 30
0.000000000000000
 10
255.8792063362799
 20
227.2385496047668
 30
0.000000000000000
 10
257.7812320649824
 20
227.2103038732437
 30
0.000000000000000
 10
259.6543191317915
 20
227.2105909996203
 30
0.000000000000000
 10
261.5563296402660
 20
227.2390650643375
 30
0.000000000000000
 10
263.4659392723535
 20
227.2676528918003
 30
0.000000000000000
 10
265.3551662284787
 20
227.3242774919451
 30
0.000000000000000
 10
267.2575891564469
 20
227.4062639689287
 30
0.000000000000000
 10
267.2658965753810
 20
227.4066219839638
 30
0.000000000000000
 10
267.2742039186985
 20
227.4069804734089
 30
0.000000000000000
 10
267.2825111861075
 20
227.4073394369123
 30
0.000000000000000
  0
SPLINE
  5
FA
100
AcDbEntity
  8
A0
  6
CONTINUOUS
 62
7
100
AcDbSpline
210
0.000000000000000
220
0.000000000000000
230
1.000000000000000
 70
     8
 71
     3
 72
    23
 73
    19
 74
     0
 42
1.000000000000000e-07
 43
1.000000000000000e-07
 12
1.499327730868572
 22
-0.001326167378920218
 32
0.000000000000000
 13
1.499378573378181
 23
0.001187827883768477
 33
0.000000000000000
 40
0.000000000000000
 40
0.000000000000000
 40
0.000000000000000
 40
0.000000000000000
 40
0.3215925262377382
 40
0.4826005620231820
 40
0.6421176155687692
 40
0.8017409742942471
 40
0.9614705745260750
 40
1.120455077940509
 40
1.279410552176786
 40
1.438336986340885
 40
1.599244409145566
 40
1.760066553978467
 40
1.920803395398745
 40
2.082187482981372
 40
2.243514871246919
 40
2.404785492330508
 40
2.567326280555444
 40
2.892006636810326
 40
2.892006636810326
 40
2.892006636810326
 40
2.892006636810326
 10
247.2762245372193
 20
227.4073393697248
 30
0.000000000000000
 10
247.4369487347620
 20
227.4071972078856
 30
0.000000000000000
 10
247.5978169991433
 20
227.4071756682361
 30
0.000000000000000
 10
247.7588250343903
 20
227.4071888367686
 30
0.000000000000000
 10
247.9183420874023
 20
227.4072018833566
 30
0.000000000000000
 10
248.0779654392836
 20
227.4072486271613
 30
0.000000000000000
 10
248.2376950356654
 20
227.4072836975330
 30
0.000000000000000
 10
248.3966795352477
 20
227.4073186043106
 30
0.000000000000000
 10
248.5556350078185
 20
227.4073416148270
 30
0.000000000000000
 10
248.7145614419644
 20
227.4073392086050
 30
0.000000000000000
 10
248.8754688647506
 20
227.4073367723900
 30
0.000000000000000
 10
249.0362910071141
 20
227.4073085892086
 30
0.000000000000000
 10
249.1970278453130
 20
227.4072764085464
 30
0.000000000000000
 10
249.3584119296612
 20
227.4072440983008
 30
0.000000000000000
 10
249.5197393138262
 20
227.4072077244825
 30
0.000000000000000
 10
249.6810099346881
 20
227.4071992682045
 30
0.000000000000000
 10
249.8435507226895
 20
227.4071907453250
 30
0.000000000000000
 10
250.0059581036476
 20
227.4072109249780
 30
0.000000000000000
 10
250.1682310267694
 20
227.4073394797715
 30
0.000000000000000
  0
SPLINE
  5
FB
100
AcDbEntity
  8
A0
  6
CONTINUOUS
 62
7
100
AcDbSpline
210
0.000000000000000
220
0.000000000000000
230
1.000000000000000
 70
     8
 71
     3
 72
    14
 73
    10
 74
     0
 42
1.000000000000000e-07
 43
1.000000000000000e-07
 12
1.505258118314487
 22
-0.06745691318906211
 32
0.000000000000000
 13
1.504487844556934
 23
0.06689084562245284
 33
0.000000000000000
 40
0.000000000000000
 40
0.000000000000000
 40
0.000000000000000
 40
0.000000000000000
 40
3.800963214813246
 40
5.716219499720609
 40
7.618022730337028
 40
9.490068314583043
 40
11.39186116141271
 40
13.30937123286169
 40
17.11710888035161
 40
17.11710888035161
 40
17.11710888035161
 40
17.11710888035161
 10
230.1656058705024
 20
227.4071991501735
 30
0.000000000000000
 10
232.0727494493399
 20
227.3217320683013
 30
0.000000000000000
 10
233.9637567543473
 20
227.2634405724477
 30
0.000000000000000
 10
235.8787904797605
 20
227.2342435279534
 30
0.000000000000000
 10
237.7803727141747
 20
227.2052515679835
 30
0.000000000000000
 10
239.6524182899709
 20
227.2054294366113
 30
0.000000000000000
 10
241.5539878775082
 20
227.2345693749321
 30
0.000000000000000
 10
243.4712728445553
 20
227.2639501380918
 30
0.000000000000000
 10
245.3666594596111
 20
227.3223530779750
 30
0.000000000000000
 10
247.2762244615813
 20
227.4072540083580
 30
0.000000000000000
  0
SPLINE
  5
FC
100
AcDbEntity
  8
A0
  6
CONTINUOUS
 62
7
100
AcDbSpline
210
0.000000000000000
220
0.000000000000000
230
1.000000000000000
 70
     8
 71
     3
 72
    20
 73
    16
 74
     0
 42
1.000000000000000e-07
 43
1.000000000000000e-07
 12
1.498459171765717
 22
-0.06780957179216784
 32
0.000000000000000
 13
1.498467819976213
 23
0.06763698241411475
 33
0.000000000000000
 40
0.000000000000000
 40
0.000000000000000
 40
0.000000000000000
 40
0.000000000000000
 40
0.02169177968526571
 40
0.03253782769566038
 40
1.931327611309817
 40
3.813923476788284
 40
5.718999083021623
 40
7.620677754627422
 40
9.492098767939206
 40
11.39377496756228
 40
13.30075536009540
 40
15.18584377886958
 40
17.08657991696421
 40
17.09628733354232
 40
17.11570191618523
 40
17.11570191618523
 40
17.11570191618523
 40
17.11570191618523
 10
210.1623319306090
 20
227.4073395124839
 30
0.000000000000000
 10
210.1731666793494
 20
227.4068492090532
 30
0.000000000000000
 10
210.1840015730435
 20
227.4063597666363
 30
0.000000000000000
 10
210.1948366109473
 20
227.4058711859706
 30
0.000000000000000
 10
212.0916988834631
 20
227.3203366229939
 30
0.000000000000000
 10
213.9733840372102
 20
227.2617860048547
 30
0.000000000000000
 10
215.8782319471399
 20
227.2323325585091
 30
0.000000000000000
 10
217.7796833284467
 20
227.2029316305160
 30
0.000000000000000
 10
219.6511043410151
 20
227.2029843800381
 30
0.000000000000000
 10
221.5525525944953
 20
227.2324276738386
 30
0.000000000000000
 10
223.4593044050937
 20
227.2619530914574
 30
0.000000000000000
 10
225.3434806102950
 20
227.3205907444589
 30
0.000000000000000
 10
227.2422955763917
 20
227.4060283894767
 30
0.000000000000000
 10
227.2519931811835
 20
227.4064647355823
 30
0.000000000000000
 10
227.2616906717261
 20
227.4069017662060
 30
0.000000000000000
 10
227.2713880475023
 20
227.4073394808009
 30
0.000000000000000
  0
SPLINE
  5
FD
100
AcDbEntity
  8
A0
  6
CONTINUOUS
 62
7
100
AcDbSpline
210
0.000000000000000
220
0.000000000000000
230
1.000000000000000
 70
     8
 71
     3
 72
    14
 73
    10
 74
     0
 42
1.000000000000000e-07
 43
1.000000000000000e-07
 12
1.504263246619544
 22
-0.06227519871600862
 32
0.000000000000000
 13
1.497167546849283
 23
0.06323570822203806
 33
0.000000000000000
 40
0.000000000000000
 40
0.000000000000000
 40
0.000000000000000
 40
0.000000000000000
 40
3.814385428457995
 40
5.733788457828657
 40
7.636585224738926
 40
9.511792165021150
 40
11.41463033884983
 40
13.32103687930435
 40
17.12679512577805
 40
17.12679512577805
 40
17.12679512577805
 40
17.12679512577805
 10
130.1415473601381
 20
227.4072819099418
 30
0.000000000000000
 10
132.0541606296283
 20
227.3281013730963
 30
0.000000000000000
 10
133.9535030955226
 20
227.2732663976507
 30
0.000000000000000
 10
135.8727065668450
 20
227.2455892442296
 30
0.000000000000000
 10
137.7753055022403
 20
227.2181515475910
 30
0.000000000000000
 10
139.6505124020167
 20
227.2177617871863
 30
0.000000000000000
 10
141.5531570678595
 20
227.2448983182775
 30
0.000000000000000
 10
143.4593697374453
 20
227.2720857381374
 30
0.000000000000000
 10
145.3633530049243
 20
227.3271369401747
 30
0.000000000000000
 10
147.2626389175158
 20
227.4073568795205
 30
0.000000000000000
  0
SPLINE
  5
FE
100
AcDbEntity
  8
A0
  6
CONTINUOUS
 62
7
100
AcDbSpline
210
0.000000000000000
220
0.000000000000000
230
1.000000000000000
 70
     8
 71
     3
 72
    29
 73
    25
 74
     0
 42
1.000000000000000e-07
 43
1.000000000000000e-07
 12
1.499793529172607
 22
-0.01838834385137034
 32
0.000000000000000
 13
1.468700486939326
 23
0.05992470056497723
 33
0.000000000000000
 40
0.000000000000000
 40
0.000000000000000
 40
0.000000000000000
 40
0.000000000000000
 40
2.344457236317344
 40
3.516857018500311
 40
4.688254710140297
 40
5.859758425402749
 40
7.031345459407153
 40
8.202401833732720
 40
9.373528618871413
 40
10.54469960836654
 40
11.71552894377884
 40
12.88641269133956
 40
14.05732564258203
 40
15.22816827608113
 40
16.39902530378028
 40
17.56986628839154
 40
18.74085978032215
 40
19.91188806810773
 40
21.08290937390283
 40
22.26153989084336
 40
23.42238772843630
 40
24.60049680637226
 40
25.77011647072917
 40
28.15101252787910
 40
28.15101252787910
 40
28.15101252787910
 40
28.15101252787910
 10
99.11381844759001
 20
227.4073721001962
 30
0.000000000000000
 10
100.2858857117402
 20
227.3930018715942
 30
0.000000000000000
 10
101.4581131030462
 20
227.3797865356206
 30
0.000000000000000
 10
102.6304508415171
 20
227.3677251833083
 30
0.000000000000000
 10
103.8017865424760
 20
227.3556741402499
 30
0.000000000000000
 10
104.9732395592952
 20
227.3447753210987
 30
0.000000000000000
 10
106.1447863421091
 20
227.3350637854054
 30
0.000000000000000
 10
107.3158024834756
 20
227.3253566484636
 30
0.000000000000000
 10
108.4868982684536
 20
227.3168355407909
 30
0.000000000000000
 10
109.6580460693023
 20
227.3094656559626
 30
0.000000000000000
 10
110.8288522228327
 20
227.3020979210778
 30
0.000000000000000
 10
111.9997194659205
 20
227.2958810596756
 30
0.000000000000000
 10
113.1706219859418
 20
227.2909385911356
 30
0.000000000000000
 10
114.3414541888461
 20
227.2859964194097
 30
0.000000000000000
 10
115.5123054679577
 20
227.2823274256533
 30
0.000000000000000
 10
116.6831430114088
 20
227.2794887479787
 30
0.000000000000000
 10
117.8541330617310
 20
227.2766497005537
 30
0.000000000000000
 10
119.0251596335178
 20
227.2746449653708
 30
0.000000000000000
 10
120.1961808460468
 20
227.2751123338487
 30
0.000000000000000
 10
121.3748112691151
 20
227.2755827392529
 30
0.000000000000000
 10
122.5356555892571
 20
227.2784404373372
 30
0.000000000000000
 10
123.7135811172114
 20
227.2992358721380
 30
0.000000000000000
 10
124.8830185542416
 20
227.3198814557494
 30
0.000000000000000
 10
126.0966811656388
 20
227.3597878179976
 30
0.000000000000000
 10
127.2622888984681
 20
227.4073459790980
 30
0.000000000000000
  0
SPLINE
  5
FF
100
AcDbEntity
  8
A0
  6
CONTINUOUS
 62
7
100
AcDbSpline
210
0.000000000000000
220
0.000000000000000
230
1.000000000000000
 70
     8
 71
     3
 72
    23
 73
    19
 74
     0
 42
1.000000000000000e-07
 43
1.000000000000000e-07
 12
1.499486671917794
 22
-0.001544222447137145
 32
0.000000000000000
 13
1.499263949238184
 23
0.001034403969242703
 33
0.000000000000000
 40
0.000000000000000
 40
0.000000000000000
 40
0.000000000000000
 40
0.000000000000000
 40
0.3243891376103569
 40
0.4867465189840376
 40
0.6482883125876584
 40
0.8098059656346008
 40
0.9712993355537283
 40
1.132364657764286
 40
1.293680376950281
 40
1.455246528088589
 40
1.613072209441921
 40
1.771096464278935
 40
1.929319178057491
 40
2.088463029902232
 40
2.247424010301781
 40
2.406202135397379
 40
2.566836100770039
 40
2.887633076875235
 40
2.887633076875235
 40
2.887633076875235
 40
2.887633076875235
 10
147.2626389175158
 20
227.4073591871326
 30
0.000000000000000
 10
147.4247779803030
 20
227.4071922108033
 30
0.000000000000000
 10
147.5870279606632
 20
227.4071397412889
 30
0.000000000000000
 10
147.7493853415680
 20
227.4071274012122
 30
0.000000000000000
 10
147.9109271347050
 20
227.4071151231248
 30
0.000000000000000
 10
148.0724447854301
 20
227.4071425099585
 30
0.000000000000000
 10
148.2339381487242
 20
227.4071887681142
 30
0.000000000000000
 10
148.3950034643271
 20
227.4072349036600
 30
0.000000000000000
 10
148.5563191703534
 20
227.4073000630758
 30
0.000000000000000
 10
148.7178853169014
 20
227.4073385765670
 30
0.000000000000000
 10
148.8757109937707
 20
227.4073761984199
 30
0.000000000000000
 10
149.0337352482308
 20
227.4073871129468
 30
0.000000000000000
 10
149.1919579609362
 20
227.4073686855220
 30
0.000000000000000
 10
149.3511018117016
 20
227.4073501508167
 30
0.000000000000000
 10
149.5100627851177
 20
227.4073030318107
 30
0.000000000000000
 10
149.6688409084009
 20
227.4072790409544
 30
0.000000000000000
 10
149.8294748719399
 20
227.4072547696867
 30
0.000000000000000
 10
149.9899520294541
 20
227.4072545015662
 30
0.000000000000000
 10
150.1502718098872
 20
227.4073651127879
 30
0.000000000000000
  0
SPLINE
  5
100
100
AcDbEntity
  8
A0
  6
CONTINUOUS
 62
7
100
AcDbSpline
210
0.000000000000000
220
0.000000000000000
230
1.000000000000000
 70
     8
 71
     3
 72
    23
 73
    19
 74
     0
 42
1.000000000000000e-07
 43
1.000000000000000e-07
 12
1.499451434620141
 22
-0.001016480389353092
 32
0.000000000000000
 13
1.499365791751188
 23
0.001226462783506577
 33
0.000000000000000
 40
0.000000000000000
 40
0.000000000000000
 40
0.000000000000000
 40
0.000000000000000
 40
0.3247679363887565
 40
0.4873272279629397
 40
0.6488671121591776
 40
0.8104261099589601
 40
0.9720041004148061
 40
1.133047961703146
 40
1.294247863999112
 40
1.455603833634426
 40
1.612802656193171
 40
1.770104127828883
 40
1.927508210901618
 40
2.085646847087924
 40
2.243656850249076
 40
2.401538087566664
 40
2.560911795101900
 40
2.879258589276982
 40
2.879258589276982
 40
2.879258589276982
 40
2.879258589276982
 10
127.2622888984682
 20
227.4073380002651
 30
0.000000000000000
 10
127.4246134811805
 20
227.4072279601857
 30
0.000000000000000
 10
127.5870567965268
 20
227.4072096491640
 30
0.000000000000000
 10
127.7496160880376
 20
227.4072141877970
 30
0.000000000000000
 10
127.9111559721708
 20
227.4072186979683
 30
0.000000000000000
 10
128.0727149677406
 20
227.4072455416775
 30
0.000000000000000
 10
128.2342929555416
 20
227.4072748319346
 30
0.000000000000000
 10
128.3953368141839
 20
227.4073040253669
 30
0.000000000000000
 10
128.5565367133323
 20
227.4073358805314
 30
0.000000000000000
 10
128.7178926829522
 20
227.4073381167063
 30
0.000000000000000
 10
128.8750915054958
 20
227.4073402952688
 30
0.000000000000000
 10
129.0323929748644
 20
227.4073135886114
 30
0.000000000000000
 10
129.1897970527363
 20
227.4072731253782
 30
0.000000000000000
 10
129.3479356836974
 20
227.4072324733164
 30
0.000000000000000
 10
129.5059456776488
 20
227.4071785243638
 30
0.000000000000000
 10
129.6638269135789
 20
227.4071575929015
 30
0.000000000000000
 10
129.8232006197135
 20
227.4071364635716
 30
0.000000000000000
 10
129.9824412624382
 20
227.4071493471064
 30
0.000000000000000
 10
130.1415473601381
 20
227.4072794939382
 30
0.000000000000000
  0
SPLINE
  5
101
100
AcDbEntity
  8
A0
  6
CONTINUOUS
 62
7
100
AcDbSpline
210
0.000000000000000
220
0.000000000000000
230
1.000000000000000
 70
     8
 71
     3
 72
    20
 73
    16
 74
     0
 42
1.000000000000000e-07
 43
1.000000000000000e-07
 12
1.498596593861294
 22
-0.06475552753545344
 32
0.000000000000000
 13
1.498552958026266
 23
0.06564960503965267
 33
0.000000000000000
 40
0.000000000000000
 40
0.000000000000000
 40
0.000000000000000
 40
0.000000000000000
 40
0.01663009412763063
 40
0.02494522389936179
 40
1.929133969598292
 40
3.819209321830368
 40
5.729032929083127
 40
7.631256561230958
 40
9.504343650050725
 40
11.40657909656830
 40
13.30567071414558
 40
15.18198589482694
 40
17.07523360908048
 40
17.09030390951202
 40
17.12044392831999
 40
17.12044392831999
 40
17.12044392831999
 40
17.12044392831999
 10
150.1502718276482
 20
227.4073394369123
 30
0.000000000000000
 10
150.1585790951200
 20
227.4069804734062
 30
0.000000000000000
 10
150.1668864384390
 20
227.4066219839610
 30
0.000000000000000
 10
150.1751938573135
 20
227.4062639689286
 30
0.000000000000000
 10
152.0776167852763
 20
227.3242774919452
 30
0.000000000000000
 10
153.9668437414077
 20
227.2676528918003
 30
0.000000000000000
 10
155.8764533734899
 20
227.2390650643375
 30
0.000000000000000
 10
157.7784638819625
 20
227.2105909996203
 30
0.000000000000000
 10
159.6515509487754
 20
227.2103038732437
 30
0.000000000000000
 10
161.5535766774758
 20
227.2385496047668
 30
0.000000000000000
 10
163.4524589238372
 20
227.2667486545038
 30
0.000000000000000
 10
165.3279332326518
 20
227.3229160314365
 30
0.000000000000000
 10
167.2193847745112
 20
227.4053658484404
 30
0.000000000000000
 10
167.2344407773644
 20
227.4060221511013
 30
0.000000000000000
 10
167.2494965155399
 20
227.4066800833656
 30
0.000000000000000
 10
167.2645519869865
 20
227.4073396434758
 30
0.000000000000000
  0
SPLINE
  5
102
100
AcDbEntity
  8
A0
  6
CONTINUOUS
 62
7
100
AcDbSpline
210
0.000000000000000
220
0.000000000000000
230
1.000000000000000
 70
     8
 71
     3
 72
    23
 73
    19
 74
     0
 42
1.000000000000000e-07
 43
1.000000000000000e-07
 12
1.499378355915951
 22
-0.001187827711419231
 32
0.000000000000000
 13
1.499335744923656
 23
0.001326174466612429
 33
0.000000000000000
 40
0.000000000000000
 40
0.000000000000000
 40
0.000000000000000
 40
0.000000000000000
 40
0.3246805337525054
 40
0.4872211444797662
 40
0.6484917677836195
 40
0.8098191675825792
 40
0.9712032414114684
 40
1.131940086266127
 40
1.292762227645901
 40
1.453669650469393
 40
1.612596086455209
 40
1.771551563941850
 40
1.930536062284199
 40
2.090265677916903
 40
2.249889020684955
 40
2.409406074787092
 40
2.570414447471718
 40
2.892006636810367
 40
2.892006636810367
 40
2.892006636810367
 40
2.892006636810367
 10
167.2645519869865
 20
227.4073394797715
 30
0.000000000000000
 10
167.4268249752851
 20
227.4072109249264
 30
0.000000000000000
 10
167.5892324685639
 20
227.4071907453342
 30
0.000000000000000
 10
167.7517730790677
 20
227.4071992682045
 30
0.000000000000000
 10
167.9130437021498
 20
227.4072077244826
 30
0.000000000000000
 10
168.0743710978483
 20
227.4072440983035
 30
0.000000000000000
 10
168.2357551684428
 20
227.4072764085464
 30
0.000000000000000
 10
168.3964920100760
 20
227.4073085892093
 30
0.000000000000000
 10
168.5573141489863
 20
227.4073367723900
 30
0.000000000000000
 10
168.7182215717913
 20
227.4073392086050
 30
0.000000000000000
 10
168.8771480077589
 20
227.4073416148270
 30
0.000000000000000
 10
169.0361034835801
 20
227.4073186043095
 30
0.000000000000000
 10
169.1950879780903
 20
227.4072836975330
 30
0.000000000000000
 10
169.3548175898731
 20
227.4072486271579
 30
0.000000000000000
 10
169.5144409257969
 20
227.4072018833567
 30
0.000000000000000
 10
169.6739579793655
 20
227.4071888367686
 30
0.000000000000000
 10
169.8349663515116
 20
227.4071756682084
 30
0.000000000000000
 10
169.9958335882818
 20
227.4071972072747
 30
0.000000000000000
 10
170.1565584765364
 20
227.4073393697248
 30
0.000000000000000
  0
SPLINE
  5
103
100
AcDbEntity
  8
A0
  6
CONTINUOUS
 62
7
100
AcDbSpline
210
0.000000000000000
220
0.000000000000000
230
1.000000000000000
 70
     8
 71
     3
 72
    14
 73
    10
 74
     0
 42
1.000000000000000e-07
 43
1.000000000000000e-07
 12
1.504487844554973
 22
-0.06689084562242442
 32
0.000000000000000
 13
1.505258118317556
 23
0.06745691318917579
 33
0.000000000000000
 40
0.000000000000000
 40
0.000000000000000
 40
0.000000000000000
 40
0.000000000000000
 40
3.807737647491632
 40
5.725247718938919
 40
7.627040565770498
 40
9.499086150012653
 40
11.40088938063095
 40
13.31614566554093
 40
17.11710888035162
 40
17.11710888035162
 40
17.11710888035162
 40
17.11710888035162
 10
170.1565585521745
 20
227.4072540083580
 30
0.000000000000000
 10
172.0661235541430
 20
227.3223530779750
 30
0.000000000000000
 10
173.9615101692021
 20
227.2639501380918
 30
0.000000000000000
 10
175.8787951362475
 20
227.2345693749321
 30
0.000000000000000
 10
177.7803647237868
 20
227.2054294366113
 30
0.000000000000000
 10
179.6524102995791
 20
227.2052515679835
 30
0.000000000000000
 10
181.5539925339953
 20
227.2342435279534
 30
0.000000000000000
 10
183.4690262594111
 20
227.2634405724478
 30
0.000000000000000
 10
185.3600335644132
 20
227.3217320683012
 30
0.000000000000000
 10
187.2671771432533
 20
227.4071991501735
 30
0.000000000000000
  0
SPLINE
  5
104
100
AcDbEntity
  8
A0
  6
CONTINUOUS
 62
7
100
AcDbSpline
210
0.000000000000000
220
0.000000000000000
230
1.000000000000000
 70
     8
 71
     3
 72
    20
 73
    16
 74
     0
 42
1.000000000000000e-07
 43
1.000000000000000e-07
 12
1.498467828383582
 22
-0.06763698277063668
 32
0.000000000000000
 13
1.498459176105825
 23
0.06780937356961658
 33
0.000000000000000
 40
0.000000000000000
 40
0.000000000000000
 40
0.000000000000000
 40
0.000000000000000
 40
0.01941458275044409
 40
0.02912199921965779
 40
1.929858137313832
 40
3.814946556090277
 40
5.721926948622952
 40
7.623603148250681
 40
9.495024161553030
 40
11.39670283316355
 40
13.30177843940297
 40
15.18437430487035
 40
17.08316408849059
 40
17.09400116846317
 40
17.11567501213448
 40
17.11567501213448
 40
17.11567501213448
 40
17.11567501213448
 10
190.1613949662535
 20
227.4073394808009
 30
0.000000000000000
 10
190.1710923421379
 20
227.4069017662013
 30
0.000000000000000
 10
190.1807898326798
 20
227.4064647355775
 30
0.000000000000000
 10
190.1904874373628
 20
227.4060283894768
 30
0.000000000000000
 10
192.0893024034590
 20
227.3205907444589
 30
0.000000000000000
 10
193.9734786086626
 20
227.2619530914574
 30
0.000000000000000
 10
195.8802304192606
 20
227.2324276738386
 30
0.000000000000000
 10
197.7816786727454
 20
227.2029843800379
 30
0.000000000000000
 10
199.6530996853044
 20
227.2029316305159
 30
0.000000000000000
 10
201.5545510666159
 20
227.2323325585091
 30
0.000000000000000
 10
203.4593989765517
 20
227.2617860048548
 30
0.000000000000000
 10
205.3410841302876
 20
227.3203366229936
 30
0.000000000000000
 10
207.2379464028096
 20
227.4058711859707
 30
0.000000000000000
 10
207.2487724817793
 20
227.4063593626543
 30
0.000000000000000
 10
207.2595984166243
 20
227.4068483996575
 30
0.000000000000000
 10
207.2704242066012
 20
227.4073382962449
 30
0.000000000000000
  0
LINE
  5
105
100
AcDbEntity
  8
A12
  6
CONTINUOUS
 62
7
100
AcDbLine
 10
318.3189645661656
 20
227.4073721001962
 30
0.000000000000000
 11
318.3204661436124
 21
227.4073721001962
 31
0.000000000000000
  0
LINE
  5
106
100
AcDbEntity
  8
A12
  6
CONTINUOUS
 62
7
100
AcDbLine
 10
340.7145526989767
 20
199.6329833948620
 30
0.000000000000000
 11
340.7163915068237
 21
199.6311728749186
 31
0.000000000000000
  0
LINE
  5
107
100
AcDbEntity
  8
A12
  6
CONTINUOUS
 62
7
100
AcDbLine
 10
76.71789228171623
 20
199.6325683046821
 30
0.000000000000000
 11
76.71639150702002
 21
199.6311956117855
 31
0.000000000000000
  0
LINE
  5
108
100
AcDbEntity
  8
A12
  6
CONTINUOUS
 62
7
100
AcDbLine
 10
99.11231687011909
 20
227.4073721001962
 30
0.000000000000000
 11
99.11381844758998
 21
227.4073721001962
 31
0.000000000000000
  0
LINE
  5
109
100
AcDbEntity
  8
A12
  6
CONTINUOUS
 62
7
100
AcDbLine
 10
318.3189645655637
 20
39.23914382544714
 30
0.000000000000000
 11
318.3204661436881
 21
39.23914382544714
 31
0.000000000000000
  0
LINE
  5
10A
100
AcDbEntity
  8
A12
  6
CONTINUOUS
 62
7
100
AcDbLine
 10
99.11231687021279
 20
39.23914382544714
 30
0.000000000000000
 11
99.11381764420275
 21
39.23914382544714
 31
0.000000000000000
  0
ENDSEC
  0
SECTION
  2
OBJECTS
  0
DICTIONARY
  5
13C
100
AcDbDictionary
  3
ACAD_GROUP
350
13D
  3
ACAD_LAYOUT
350
13E
  3
ACAD_MLINESTYLE
350
13F
  0
DICTIONARY
  5
13D
102
{ACAD_REACTORS
330
13C
102
}
330
13C
100
AcDbDictionary
  0
DICTIONARY
  5
13E
102
{ACAD_REACTORS
330
13C
102
}
330
13C
100
AcDbDictionary
  3
Model
350
140
  3
ﾚｲｱｳﾄ1
350
141
  3
ﾚｲｱｳﾄ2
350
142
  0
DICTIONARY
  5
13F
102
{ACAD_REACTORS
330
13C
102
}
330
13C
100
AcDbDictionary
  3
STANDARD
350
143
  0
LAYOUT
  5
140
102
{ACAD_REACTORS
330
13E
102
}
330
13E
100
AcDbPlotSettings
 70
11952
  4
A3
 44
297.000000
 45
420.000000
 73
  1
 72
  1
100
AcDbLayout
  1
Model
 71
0
330
133
  0
LAYOUT
  5
141
102
{ACAD_REACTORS
330
13E
102
}
330
13E
100
AcDbPlotSettings
100
AcDbLayout
  1
ﾚｲｱｳﾄ1
 71
1
330
134
  0
LAYOUT
  5
142
102
{ACAD_REACTORS
330
13E
102
}
330
13E
100
AcDbPlotSettings
100
AcDbLayout
  1
ﾚｲｱｳﾄ2
 71
2
330
135
  0
MLINESTYLE
  5
143
102
{ACAD_REACTORS
330
13F
102
}
330
13F
100
AcDbMlineStyle
  2
STANDARD
 70
     0
  3

 62
   256
 51
90.00
 52
90.00
 71
     2
 49
0.50
 62
   256
  6
BYLAYER
 49
-0.50
 62
   256
  6
BYLAYER
  0
ENDSEC
  0
EOF
