  0
SECTION
  2
HEADER
  9
$ACADVER
  1
AC1015
  9
$ACADMAINTVER
 70
    20
  9
$DWGCODEPAGE
  3
ANSI_932
  9
$INSBASE
 10
0.0
 20
0.0
 30
0.0
  9
$EXTMIN
 10
15.96469899999999
 20
9.999999999999998
 30
0.0
  9
$EXTMAX
 10
698.174633
 20
405.968439
 30
0.0
  9
$LIMMIN
 10
0.0
 20
0.0
  9
$LIMMAX
 10
792.0
 20
546.0
  9
$ORTHOMODE
 70
     0
  9
$REGENMODE
 70
     1
  9
$FILLMODE
 70
     1
  9
$QTEXTMODE
 70
     0
  9
$MIRRTEXT
 70
     1
  9
$LTSCALE
 40
20.0
  9
$ATTMODE
 70
     1
  9
$TEXTSIZE
 40
5.0
  9
$TRACEWID
 40
1.0
  9
$TEXTSTYLE
  7
STANDARD
  9
$CLAYER
  8
0
  9
$CELTYPE
  6
BYLAYER
  9
$CECOLOR
 62
   256
  9
$CELTSCALE
 40
1.0
  9
$DISPSILH
 70
     0
  9
$DIMSCALE
 40
1.0
  9
$DIMASZ
 40
2.5
  9
$DIMEXO
 40
1.0
  9
$DIMDLI
 40
10.0
  9
$DIMRND
 40
0.0
  9
$DIMDLE
 40
0.0
  9
$DIMEXE
 40
1.0
  9
$DIMTP
 40
0.0
  9
$DIMTM
 40
0.0
  9
$DIMTXT
 40
3.2
  9
$DIMCEN
 40
0.0
  9
$DIMTSZ
 40
0.0
  9
$DIMTOL
 70
     0
  9
$DIMLIM
 70
     0
  9
$DIMTIH
 70
     0
  9
$DIMTOH
 70
     0
  9
$DIMSE1
 70
     0
  9
$DIMSE2
 70
     0
  9
$DIMTAD
 70
     3
  9
$DIMZIN
 70
     8
  9
$DIMBLK
  1

  9
$DIMASO
 70
     1
  9
$DIMSHO
 70
     1
  9
$DIMPOST
  1

  9
$DIMAPOST
  1

  9
$DIMALT
 70
     0
  9
$DIMALTD
 70
     2
  9
$DIMALTF
 40
25.4
  9
$DIMLFAC
 40
1.0
  9
$DIMTOFL
 70
     1
  9
$DIMTVP
 40
0.0
  9
$DIMTIX
 70
     0
  9
$DIMSOXD
 70
     0
  9
$DIMSAH
 70
     1
  9
$DIMBLK1
  1
OPEN
  9
$DIMBLK2
  1
OPEN
  9
$DIMSTYLE
  2
STANDARD
  9
$DIMCLRD
 70
     0
  9
$DIMCLRE
 70
     0
  9
$DIMCLRT
 70
     0
  9
$DIMTFAC
 40
1.0
  9
$DIMGAP
 40
1.0
  9
$DIMJUST
 70
     0
  9
$DIMSD1
 70
     0
  9
$DIMSD2
 70
     0
  9
$DIMTOLJ
 70
     1
  9
$DIMTZIN
 70
     0
  9
$DIMALTZ
 70
     0
  9
$DIMALTTZ
 70
     0
  9
$DIMUPT
 70
     0
  9
$DIMDEC
 70
     4
  9
$DIMTDEC
 70
     4
  9
$DIMALTU
 70
     2
  9
$DIMALTTD
 70
     2
  9
$DIMTXSTY
  7
STANDARD
  9
$DIMAUNIT
 70
     0
  9
$DIMADEC
 70
     0
  9
$DIMALTRND
 40
0.0
  9
$DIMAZIN
 70
     0
  9
$DIMDSEP
 70
    46
  9
$DIMATFIT
 70
     3
  9
$DIMFRAC
 70
     0
  9
$DIMLDRBLK
  1
OPEN
  9
$DIMLUNIT
 70
     2
  9
$DIMLWD
 70
    -2
  9
$DIMLWE
 70
    -2
  9
$DIMTMOVE
 70
     0
  9
$LUNITS
 70
     2
  9
$LUPREC
 70
     4
  9
$SKETCHINC
 40
1.0
  9
$FILLETRAD
 40
2.5
  9
$AUNITS
 70
     0
  9
$AUPREC
 70
     2
  9
$MENU
  1
.
  9
$ELEVATION
 40
0.0
  9
$PELEVATION
 40
0.0
  9
$THICKNESS
 40
0.0
  9
$LIMCHECK
 70
     0
  9
$CHAMFERA
 40
10.0
  9
$CHAMFERB
 40
10.0
  9
$CHAMFERC
 40
0.0
  9
$CHAMFERD
 40
0.0
  9
$SKPOLY
 70
     0
  9
$TDCREATE
 40
2451345.426399190
  9
$TDUCREATE
 40
2451345.051399190
  9
$TDUPDATE
 40
2457192.643574861
  9
$TDUUPDATE
 40
2457192.268574861
  9
$TDINDWG
 40
0.0000147106
  9
$TDUSRTIMER
 40
0.0000143981
  9
$USRTIMER
 70
     1
  9
$ANGBASE
 50
0.0
  9
$ANGDIR
 70
     0
  9
$PDMODE
 70
     0
  9
$PDSIZE
 40
0.0
  9
$PLINEWID
 40
0.0
  9
$SPLFRAME
 70
     0
  9
$SPLINETYPE
 70
     6
  9
$SPLINESEGS
 70
     8
  9
$HANDSEED
  5
C25E
  9
$SURFTAB1
 70
     6
  9
$SURFTAB2
 70
     6
  9
$SURFTYPE
 70
     6
  9
$SURFU
 70
     6
  9
$SURFV
 70
     6
  9
$UCSBASE
  2

  9
$UCSNAME
  2

  9
$UCSORG
 10
0.0
 20
0.0
 30
0.0
  9
$UCSXDIR
 10
1.0
 20
0.0
 30
0.0
  9
$UCSYDIR
 10
0.0
 20
1.0
 30
0.0
  9
$UCSORTHOREF
  2

  9
$UCSORTHOVIEW
 70
     0
  9
$UCSORGTOP
 10
0.0
 20
0.0
 30
0.0
  9
$UCSORGBOTTOM
 10
0.0
 20
0.0
 30
0.0
  9
$UCSORGLEFT
 10
0.0
 20
0.0
 30
0.0
  9
$UCSORGRIGHT
 10
0.0
 20
0.0
 30
0.0
  9
$UCSORGFRONT
 10
0.0
 20
0.0
 30
0.0
  9
$UCSORGBACK
 10
0.0
 20
0.0
 30
0.0
  9
$PUCSBASE
  2

  9
$PUCSNAME
  2

  9
$PUCSORG
 10
0.0
 20
0.0
 30
0.0
  9
$PUCSXDIR
 10
1.0
 20
0.0
 30
0.0
  9
$PUCSYDIR
 10
0.0
 20
1.0
 30
0.0
  9
$PUCSORTHOREF
  2

  9
$PUCSORTHOVIEW
 70
     0
  9
$PUCSORGTOP
 10
0.0
 20
0.0
 30
0.0
  9
$PUCSORGBOTTOM
 10
0.0
 20
0.0
 30
0.0
  9
$PUCSORGLEFT
 10
0.0
 20
0.0
 30
0.0
  9
$PUCSORGRIGHT
 10
0.0
 20
0.0
 30
0.0
  9
$PUCSORGFRONT
 10
0.0
 20
0.0
 30
0.0
  9
$PUCSORGBACK
 10
0.0
 20
0.0
 30
0.0
  9
$USERI1
 70
     0
  9
$USERI2
 70
     0
  9
$USERI3
 70
     0
  9
$USERI4
 70
     0
  9
$USERI5
 70
     0
  9
$USERR1
 40
0.0
  9
$USERR2
 40
0.0
  9
$USERR3
 40
0.0
  9
$USERR4
 40
0.0
  9
$USERR5
 40
0.0
  9
$WORLDVIEW
 70
     1
  9
$SHADEDGE
 70
     3
  9
$SHADEDIF
 70
    70
  9
$TILEMODE
 70
     1
  9
$MAXACTVP
 70
    16
  9
$PINSBASE
 10
0.0
 20
0.0
 30
0.0
  9
$PLIMCHECK
 70
     0
  9
$PEXTMIN
 10
1.000000000000000E+20
 20
1.000000000000000E+20
 30
1.000000000000000E+20
  9
$PEXTMAX
 10
-1.000000000000000E+20
 20
-1.000000000000000E+20
 30
-1.000000000000000E+20
  9
$PLIMMIN
 10
0.0
 20
0.0
  9
$PLIMMAX
 10
420.0
 20
297.0
  9
$UNITMODE
 70
     0
  9
$VISRETAIN
 70
     0
  9
$PLINEGEN
 70
     0
  9
$PSLTSCALE
 70
     0
  9
$TREEDEPTH
 70
  3020
  9
$CMLSTYLE
  2
STANDARD
  9
$CMLJUST
 70
     0
  9
$CMLSCALE
 40
1.0
  9
$PROXYGRAPHICS
 70
     1
  9
$MEASUREMENT
 70
     0
  9
$CELWEIGHT
370
    -1
  9
$ENDCAPS
280
     0
  9
$JOINSTYLE
280
     0
  9
$LWDISPLAY
290
     0
  9
$INSUNITS
 70
     0
  9
$HYPERLINKBASE
  1

  9
$STYLESHEET
  1

  9
$XEDIT
290
     1
  9
$CEPSNTYPE
380
     0
  9
$PSTYLEMODE
290
     1
  9
$FINGERPRINTGUID
  2
{F612D901-8B6C-47E0-844D-4DEF0817EA5A}
  9
$VERSIONGUID
  2
{8363D466-4EBA-4AFC-B7AD-35014ADCD394}
  9
$EXTNAMES
290
     1
  9
$PSVPSCALE
 40
0.0
  9
$OLESTARTUP
290
     0
  0
ENDSEC
  0
SECTION
  2
CLASSES
  0
CLASS
  1
ACDBDICTIONARYWDFLT
  2
AcDbDictionaryWithDefault
  3
ObjectDBX Classes
 90
        0
280
     0
281
     0
  0
CLASS
  1
ACDBPLACEHOLDER
  2
AcDbPlaceHolder
  3
ObjectDBX Classes
 90
        0
280
     0
281
     0
  0
CLASS
  1
LAYOUT
  2
AcDbLayout
  3
ObjectDBX Classes
 90
        0
280
     0
281
     0
  0
CLASS
  1
DICTIONARYVAR
  2
AcDbDictionaryVar
  3
ObjectDBX Classes
 90
        0
280
     0
281
     0
  0
CLASS
  1
MATERIAL
  2
AcDbMaterial
  3
ObjectDBX Classes
 90
     1153
280
     0
281
     0
  0
CLASS
  1
VISUALSTYLE
  2
AcDbVisualStyle
  3
ObjectDBX Classes
 90
     4095
280
     0
281
     0
  0
CLASS
  1
TABLESTYLE
  2
AcDbTableStyle
  3
ObjectDBX Classes
 90
     4095
280
     0
281
     0
  0
CLASS
  1
SCALE
  2
AcDbScale
  3
ObjectDBX Classes
 90
     1153
280
     0
281
     0
  0
CLASS
  1
MLEADERSTYLE
  2
AcDbMLeaderStyle
  3
ACDB_MLEADERSTYLE_CLASS
 90
     4095
280
     0
281
     0
  0
CLASS
  1
ACDBSECTIONVIEWSTYLE
  2
AcDbSectionViewStyle
  3
ObjectDBX Classes
 90
     1025
280
     0
281
     0
  0
CLASS
  1
ACDBDETAILVIEWSTYLE
  2
AcDbDetailViewStyle
  3
ObjectDBX Classes
 90
     1025
280
     0
281
     0
  0
CLASS
  1
CELLSTYLEMAP
  2
AcDbCellStyleMap
  3
ObjectDBX Classes
 90
     1152
280
     0
281
     0
  0
ENDSEC
  0
SECTION
  2
TABLES
  0
TABLE
  2
VPORT
  5
BF1F
330
0
100
AcDbSymbolTable
 70
     1
  0
VPORT
  5
C1A7
330
BF1F
100
AcDbSymbolTableRecord
100
AcDbViewportTableRecord
  2
*ACTIVE
 70
     0
 10
0.0
 20
0.0
 11
1.0
 21
1.0
 12
477.0060380882496
 22
207.9950420891342
 13
0.0
 23
0.0
 14
10.0
 24
10.0
 15
10.0
 25
10.0
 16
0.0
 26
0.0
 36
1.0
 17
0.0
 27
0.0
 37
0.0
 40
400.4576354249272
 41
1.899603698811096
 42
50.0
 43
0.0
 44
0.0
 50
0.0
 51
0.0
 71
     0
 72
   100
 73
     1
 74
     0
 75
     0
 76
     0
 77
     0
 78
     0
281
     0
 65
     1
110
0.0
120
0.0
130
0.0
111
1.0
121
0.0
131
0.0
112
0.0
122
1.0
132
0.0
 79
     0
146
0.0
1001
ACAD_NAV_VCDISPLAY
1070
     3
  0
ENDTAB
  0
TABLE
  2
LTYPE
  5
BF1C
330
0
100
AcDbSymbolTable
 70
     4
  0
LTYPE
  5
BF2A
330
BF1C
100
AcDbSymbolTableRecord
100
AcDbLinetypeTableRecord
  2
BYBLOCK
 70
     0
  3

 72
    65
 73
     0
 40
0.0
  0
LTYPE
  5
BF2B
330
BF1C
100
AcDbSymbolTableRecord
100
AcDbLinetypeTableRecord
  2
BYLAYER
 70
     0
  3

 72
    65
 73
     0
 40
0.0
  0
LTYPE
  5
BF2C
330
BF1C
100
AcDbSymbolTableRecord
100
AcDbLinetypeTableRecord
  2
CONTINUOUS
 70
     0
  3
Solid line
 72
    65
 73
     0
 40
0.0
  0
LTYPE
  5
BF3A
330
BF1C
100
AcDbSymbolTableRecord
100
AcDbLinetypeTableRecord
  2
DASHED
 70
     0
  3
__ __ __ __ __ __ __ __ __ __ __ __ __ __ __ __
 72
    65
 73
     2
 40
0.75
 49
0.5
 74
     0
 49
-0.25
 74
     0
  0
LTYPE
  5
BF3B
330
BF1C
100
AcDbSymbolTableRecord
100
AcDbLinetypeTableRecord
  2
CENTER
 70
     0
  3
____ _ ____ _ ____ _ ____ _ ____ _ ____ _ ____ 
 72
    65
 73
     4
 40
2.0
 49
1.25
 74
     0
 49
-0.25
 74
     0
 49
0.25
 74
     0
 49
-0.25
 74
     0
  0
LTYPE
  5
BF3C
330
BF1C
100
AcDbSymbolTableRecord
100
AcDbLinetypeTableRecord
  2
PHANTOM
 70
     0
  3
______  __  __  ______  __  __  ______  __  __ 
 72
    65
 73
     6
 40
2.5
 49
1.25
 74
     0
 49
-0.25
 74
     0
 49
0.25
 74
     0
 49
-0.25
 74
     0
 49
0.25
 74
     0
 49
-0.25
 74
     0
  0
ENDTAB
  0
TABLE
  2
LAYER
  5
BF19
330
0
100
AcDbSymbolTable
 70
     8
  0
LAYER
  5
BF27
102
{ACAD_XDICTIONARY
360
C202
102
}
330
BF19
100
AcDbSymbolTableRecord
100
AcDbLayerTableRecord
  2
0
 70
     0
 62
     7
  6
CONTINUOUS
370
    -3
390
C1B0
  0
LAYER
  5
BF3D
102
{ACAD_XDICTIONARY
360
C204
102
}
330
BF19
100
AcDbSymbolTableRecord
100
AcDbLayerTableRecord
  2
4
 70
     0
 62
     1
  6
CENTER
370
    -3
390
C1B0
  0
LAYER
  5
BF3E
102
{ACAD_XDICTIONARY
360
C206
102
}
330
BF19
100
AcDbSymbolTableRecord
100
AcDbLayerTableRecord
  2
5
 70
     0
 62
     6
  6
PHANTOM
370
    -3
390
C1B0
  0
LAYER
  5
BF3F
102
{ACAD_XDICTIONARY
360
C208
102
}
330
BF19
100
AcDbSymbolTableRecord
100
AcDbLayerTableRecord
  2
1
 70
     0
 62
     7
  6
CONTINUOUS
370
    -3
390
C1B0
  0
LAYER
  5
BF40
102
{ACAD_XDICTIONARY
360
C20A
102
}
330
BF19
100
AcDbSymbolTableRecord
100
AcDbLayerTableRecord
  2
2
 70
     0
 62
     4
  6
CONTINUOUS
370
    -3
390
C1B0
  0
LAYER
  5
BF41
102
{ACAD_XDICTIONARY
360
C20C
102
}
330
BF19
100
AcDbSymbolTableRecord
100
AcDbLayerTableRecord
  2
3
 70
     0
 62
     2
  6
DASHED
370
    -3
390
C1B0
  0
LAYER
  5
BF42
102
{ACAD_XDICTIONARY
360
C20E
102
}
330
BF19
100
AcDbSymbolTableRecord
100
AcDbLayerTableRecord
  2
6
 70
     0
 62
     5
  6
CONTINUOUS
370
    -3
390
C1B0
  0
LAYER
  5
BF43
102
{ACAD_XDICTIONARY
360
C210
102
}
330
BF19
100
AcDbSymbolTableRecord
100
AcDbLayerTableRecord
  2
7
 70
     0
 62
     3
  6
CONTINUOUS
370
    -3
390
C1B0
  0
ENDTAB
  0
TABLE
  2
STYLE
  5
BF1A
330
0
100
AcDbSymbolTable
 70
     1
  0
STYLE
  5
BF28
330
BF1A
100
AcDbSymbolTableRecord
100
AcDbTextStyleTableRecord
  2
STANDARD
 70
     0
 40
0.0
 41
1.0
 50
0.0
 71
     0
 42
5.0
  3
txt
  4

  0
ENDTAB
  0
TABLE
  2
VIEW
  5
BF1D
330
0
100
AcDbSymbolTable
 70
     0
  0
ENDTAB
  0
TABLE
  2
UCS
  5
BF1E
330
0
100
AcDbSymbolTable
 70
     0
  0
ENDTAB
  0
TABLE
  2
APPID
  5
BF20
330
0
100
AcDbSymbolTable
 70
     3
  0
APPID
  5
BF29
330
BF20
100
AcDbSymbolTableRecord
100
AcDbRegAppTableRecord
  2
ACAD
 70
     0
  0
APPID
  5
C21C
330
BF20
100
AcDbSymbolTableRecord
100
AcDbRegAppTableRecord
  2
ACAD_NAV_VCDISPLAY
 70
     0
  0
APPID
  5
C255
330
BF20
100
AcDbSymbolTableRecord
100
AcDbRegAppTableRecord
  2
ACAD_MLEADERVER
 70
     0
  0
ENDTAB
  0
TABLE
  2
DIMSTYLE
  5
BF21
330
0
100
AcDbSymbolTable
 70
     1
100
AcDbDimStyleTable
 71
     0
  0
DIMSTYLE
105
BF45
330
BF21
100
AcDbSymbolTableRecord
100
AcDbDimStyleTableRecord
  2
STANDARD
 70
     0
 41
2.5
 42
1.0
 43
10.0
 44
1.0
 73
     0
 74
     0
 77
     3
 78
     8
140
3.2
141
0.0
147
1.0
172
     1
173
     1
284
     8
285
     8
286
     8
340
BF28
  0
ENDTAB
  0
TABLE
  2
BLOCK_RECORD
  5
BF18
330
0
100
AcDbSymbolTable
 70
     1
  0
BLOCK_RECORD
  5
BF35
102
{ACAD_XDICTIONARY
360
C1AA
102
}
330
BF18
100
AcDbSymbolTableRecord
100
AcDbBlockTableRecord
  2
*MODEL_SPACE
340
C1FE
  0
BLOCK_RECORD
  5
BF31
102
{ACAD_XDICTIONARY
360
C1A8
102
}
330
BF18
100
AcDbSymbolTableRecord
100
AcDbBlockTableRecord
  2
*PAPER_SPACE
340
C1FF
  0
BLOCK_RECORD
  5
BF4D
330
BF18
100
AcDbSymbolTableRecord
100
AcDbBlockTableRecord
  2
_OPEN
340
0
  0
ENDTAB
  0
ENDSEC
  0
SECTION
  2
BLOCKS
  0
BLOCK
  5
BF36
330
BF35
100
AcDbEntity
  8
0
100
AcDbBlockBegin
  2
*MODEL_SPACE
 70
     0
 10
0.0
 20
0.0
 30
0.0
  3
*MODEL_SPACE
  1

  0
ENDBLK
  5
BF37
330
BF35
100
AcDbEntity
  8
0
100
AcDbBlockEnd
  0
BLOCK
  5
BF32
330
BF31
100
AcDbEntity
 67
     1
  8
0
100
AcDbBlockBegin
  2
*PAPER_SPACE
 70
     0
 10
0.0
 20
0.0
 30
0.0
  3
*PAPER_SPACE
  1

  0
ENDBLK
  5
BF33
330
BF31
100
AcDbEntity
 67
     1
  8
0
100
AcDbBlockEnd
  0
BLOCK
  5
BF4E
330
BF4D
100
AcDbEntity
  8
0
100
AcDbBlockBegin
  2
_OPEN
 70
     0
 10
0.0
 20
0.0
 30
0.0
  3
_OPEN
  1

  0
LINE
  5
BF4F
330
BF4D
100
AcDbEntity
  8
0
  6
ByBlock
 62
     0
100
AcDbLine
 10
-1.0
 20
0.166667
 30
0.0
 11
0.0
 21
0.0
 31
0.0
  0
LINE
  5
BF50
330
BF4D
100
AcDbEntity
  8
0
  6
ByBlock
 62
     0
100
AcDbLine
 10
0.0
 20
0.0
 30
0.0
 11
-1.0
 21
-0.166667
 31
0.0
  0
LINE
  5
BF51
330
BF4D
100
AcDbEntity
  8
0
  6
ByBlock
 62
     0
100
AcDbLine
 10
0.0
 20
0.0
 30
0.0
 11
-1.0
 21
0.0
 31
0.0
  0
ENDBLK
  5
BF52
330
BF4D
100
AcDbEntity
  8
0
100
AcDbBlockEnd
  0
ENDSEC
  0
SECTION
  2
ENTITIES
  0
LINE
  5
BF53
330
BF35
100
AcDbEntity
  8
1
  6
Continuous
100
AcDbLine
 10
248.6367459999999
 20
193.968433
 30
0.0
 11
248.6367459999999
 21
175.2113469999999
 31
0.0
  0
LINE
  5
BF54
330
BF35
100
AcDbEntity
  8
1
  6
Continuous
100
AcDbLine
 10
230.0367459999999
 20
245.7552299999999
 30
0.0
 11
230.0367459999999
 21
174.468433
 31
0.0
  0
LINE
  5
BF55
330
BF35
100
AcDbEntity
  8
1
  6
Continuous
100
AcDbLine
 10
232.5367459999999
 20
276.968433
 30
0.0
 11
232.5367459999999
 21
157.968433
 31
0.0
  0
LINE
  5
BF56
330
BF35
100
AcDbEntity
  8
1
  6
Continuous
100
AcDbLine
 10
234.0367459999999
 20
276.968433
 30
0.0
 11
234.0367459999999
 21
157.968433
 31
0.0
  0
LINE
  5
BF57
330
BF35
100
AcDbEntity
  8
1
  6
Continuous
100
AcDbLine
 10
231.036746
 20
273.968433
 30
0.0
 11
231.036746
 21
160.968433
 31
0.0
  0
LINE
  5
BF58
330
BF35
100
AcDbEntity
  8
1
  6
Continuous
100
AcDbLine
 10
54.364699
 20
251.968433
 30
0.0
 11
54.364699
 21
175.468433
 31
0.0
  0
LINE
  5
BF59
330
BF35
100
AcDbEntity
  8
1
  6
Continuous
100
AcDbLine
 10
35.56469899999999
 20
251.968433
 30
0.0
 11
35.56469899999999
 21
175.468433
 31
0.0
  0
LINE
  5
BF5A
330
BF35
100
AcDbEntity
  8
1
  6
Continuous
100
AcDbLine
 10
54.864699
 20
252.0184329999999
 30
0.0
 11
54.864699
 21
174.968433
 31
0.0
  0
LINE
  5
BF5B
330
BF35
100
AcDbEntity
  8
1
  6
Continuous
100
AcDbLine
 10
35.06469899999999
 20
252.0184329999999
 30
0.0
 11
35.06469899999999
 21
174.968433
 31
0.0
  0
LINE
  5
BF5C
330
BF35
100
AcDbEntity
  8
1
  6
Continuous
100
AcDbLine
 10
33.96469899999999
 20
271.968433
 30
0.0
 11
33.96469899999999
 21
162.968433
 31
0.0
  0
LINE
  5
BF5D
330
BF35
100
AcDbEntity
  8
1
  6
Continuous
100
AcDbLine
 10
55.96469899999998
 20
162.968433
 30
0.0
 11
55.96469899999998
 21
271.968433
 31
0.0
  0
LINE
  5
BF5E
330
BF35
100
AcDbEntity
  8
1
  6
Continuous
100
AcDbLine
 10
58.96469899999999
 20
271.968433
 30
0.0
 11
58.96469899999999
 21
162.968433
 31
0.0
  0
LINE
  5
BF5F
330
BF35
100
AcDbEntity
  8
1
  6
Continuous
100
AcDbLine
 10
30.964699
 20
271.968433
 30
0.0
 11
30.964699
 21
162.968433
 31
0.0
  0
LINE
  5
BF60
330
BF35
100
AcDbEntity
  8
1
  6
Continuous
100
AcDbLine
 10
235.036746
 20
276.968433
 30
0.0
 11
235.036746
 21
157.968433
 31
0.0
  0
LINE
  5
BF61
330
BF35
100
AcDbEntity
  8
4
  6
CENTER
100
AcDbLine
 10
44.964699
 20
280.6947019999999
 30
0.0
 11
44.964699
 21
156.5380089999999
 31
0.0
  0
TEXT
  5
BF62
330
BF35
100
AcDbEntity
  8
7
  6
Continuous
100
AcDbText
 10
15.96469899999999
 20
18.0
 30
0.0
 40
3.0
  1
TYPE No.THA-505-2
100
AcDbText
  0
TEXT
  5
BF63
330
BF35
100
AcDbEntity
  8
7
  6
Continuous
100
AcDbText
 10
15.96469899999999
 20
26.0
 30
0.0
 40
3.0
  1
CODE No.13097
100
AcDbText
  0
TEXT
  5
BF64
330
BF35
100
AcDbEntity
  8
1
  6
Continuous
100
AcDbText
 10
15.96469899999999
 20
10.0
 30
0.0
 40
1.399999999999999
  1
LAYER
100
AcDbText
  0
TEXT
  5
BF65
330
BF35
100
AcDbEntity
  8
7
  6
Continuous
100
AcDbText
 10
35.94421
 20
10.04873699999998
 30
0.0
 40
1.399999999999999
  1
7
100
AcDbText
  0
TEXT
  5
BF66
330
BF35
100
AcDbEntity
  8
6
  6
Continuous
100
AcDbText
 10
33.94420999999999
 20
10.04873699999998
 30
0.0
 40
1.399999999999999
  1
6
100
AcDbText
  0
TEXT
  5
BF67
330
BF35
100
AcDbEntity
  8
4
  6
CENTER
100
AcDbText
 10
29.94420999999999
 20
10.04873699999998
 30
0.0
 40
1.399999999999999
  1
4
100
AcDbText
  0
TEXT
  5
BF68
330
BF35
100
AcDbEntity
  8
5
  6
PHANTOM
100
AcDbText
 10
31.94421
 20
10.04873699999998
 30
0.0
 40
1.399999999999999
  1
5
100
AcDbText
  0
TEXT
  5
BF69
330
BF35
100
AcDbEntity
  8
3
  6
DASHED
100
AcDbText
 10
27.94420999999999
 20
10.04873699999998
 30
0.0
 40
1.399999999999999
  1
3
100
AcDbText
  0
TEXT
  5
BF6A
330
BF35
100
AcDbEntity
  8
1
  6
Continuous
100
AcDbText
 10
23.94421
 20
10.04873699999998
 30
0.0
 40
1.399999999999999
  1
1
100
AcDbText
  0
TEXT
  5
BF6B
330
BF35
100
AcDbEntity
  8
2
  6
Continuous
100
AcDbText
 10
25.94421
 20
10.04873699999998
 30
0.0
 40
1.399999999999999
  1
2
100
AcDbText
  0
LINE
  5
BF6C
330
BF35
100
AcDbEntity
  8
1
  6
Continuous
100
AcDbLine
 10
52.364699
 20
173.468433
 30
0.0
 11
37.56469899999999
 21
173.468433
 31
0.0
  0
LINE
  5
BF6D
330
BF35
100
AcDbEntity
  8
1
  6
Continuous
100
AcDbLine
 10
52.364699
 20
172.468433
 30
0.0
 11
37.56469899999999
 21
172.468433
 31
0.0
  0
LINE
  5
BF6E
330
BF35
100
AcDbEntity
  8
1
  6
Continuous
100
AcDbLine
 10
35.96469899999997
 20
160.968433
 30
0.0
 11
53.96469899999999
 21
160.968433
 31
0.0
  0
LINE
  5
BF6F
330
BF35
100
AcDbEntity
  8
1
  6
Continuous
100
AcDbLine
 10
53.96469899999999
 20
157.968433
 30
0.0
 11
35.96469899999997
 21
157.968433
 31
0.0
  0
ARC
  5
BF70
330
BF35
100
AcDbEntity
  8
1
  6
Continuous
100
AcDbCircle
 10
37.56469899999999
 20
175.468433
 30
0.0
 40
2.0
100
AcDbArc
 50
180.0
 51
270.0
  0
ARC
  5
BF71
330
BF35
100
AcDbEntity
  8
1
  6
Continuous
100
AcDbCircle
 10
37.56469899999999
 20
174.968433
 30
0.0
 40
2.5
100
AcDbArc
 50
180.0
 51
270.0
  0
ARC
  5
BF72
330
BF35
100
AcDbEntity
  8
1
  6
Continuous
100
AcDbCircle
 10
35.96469899999997
 20
162.968433
 30
0.0
 40
2.0
100
AcDbArc
 50
180.0
 51
270.0
  0
ARC
  5
BF73
330
BF35
100
AcDbEntity
  8
1
  6
Continuous
100
AcDbCircle
 10
35.96469899999997
 20
162.968433
 30
0.0
 40
5.0
100
AcDbArc
 50
180.0
 51
270.0
  0
ARC
  5
BF74
330
BF35
100
AcDbEntity
  8
1
  6
Continuous
100
AcDbCircle
 10
52.364699
 20
175.468433
 30
0.0
 40
2.0
100
AcDbArc
 50
270.0
 51
0.0
  0
ARC
  5
BF75
330
BF35
100
AcDbEntity
  8
1
  6
Continuous
100
AcDbCircle
 10
52.364699
 20
174.968433
 30
0.0
 40
2.5
100
AcDbArc
 50
270.0
 51
0.0
  0
LINE
  5
BF76
330
BF35
100
AcDbEntity
  8
4
  6
CENTER
100
AcDbLine
 10
51.108584
 20
164.968433
 30
0.0
 11
38.375591
 21
164.968433
 31
0.0
  0
ARC
  5
BF77
330
BF35
100
AcDbEntity
  8
1
  6
Continuous
100
AcDbCircle
 10
53.96469899999999
 20
162.968433
 30
0.0
 40
2.0
100
AcDbArc
 50
270.0
 51
0.0
  0
ARC
  5
BF78
330
BF35
100
AcDbEntity
  8
1
  6
Continuous
100
AcDbCircle
 10
53.96469899999999
 20
162.968433
 30
0.0
 40
5.0
100
AcDbArc
 50
270.0
 51
0.0
  0
ARC
  5
BF79
330
BF35
100
AcDbEntity
  8
1
  6
Continuous
100
AcDbCircle
 10
250.2367459999999
 20
44.50000099999999
 30
0.0
 40
1.0
100
AcDbArc
 50
270.0
 51
0.0
  0
ARC
  5
BF7A
330
BF35
100
AcDbEntity
  8
1
  6
Continuous
100
AcDbCircle
 10
246.1367459999999
 20
46.00000099999999
 30
0.0
 40
2.5
100
AcDbArc
 50
270.0
 51
0.0
  0
LINE
  5
BF7B
330
BF35
100
AcDbEntity
  8
1
  6
Continuous
100
AcDbLine
 10
251.636746
 20
43.750001
 30
0.0
 11
251.636746
 21
64.742001
 31
0.0
  0
LINE
  5
BF7C
330
BF35
100
AcDbEntity
  8
1
  6
Continuous
100
AcDbLine
 10
235.036746
 20
41.00000099999999
 30
0.0
 11
235.036746
 21
69.00000099999998
 31
0.0
  0
LINE
  5
BF7D
330
BF35
100
AcDbEntity
  8
1
  6
Continuous
100
AcDbLine
 10
232.5367459999999
 20
41.00000099999999
 30
0.0
 11
232.5367459999999
 21
69.00000099999998
 31
0.0
  0
LINE
  5
BF7E
330
BF35
100
AcDbEntity
  8
1
  6
Continuous
100
AcDbLine
 10
234.0367459999999
 20
41.00000099999999
 30
0.0
 11
234.0367459999999
 21
69.00000099999998
 31
0.0
  0
LINE
  5
BF7F
330
BF35
100
AcDbEntity
  8
1
  6
Continuous
100
AcDbLine
 10
231.036746
 20
44.00000099999998
 30
0.0
 11
231.036746
 21
66.00000099999999
 31
0.0
  0
LINE
  5
BF80
330
BF35
100
AcDbEntity
  8
1
  6
Continuous
100
AcDbLine
 10
253.736746
 20
43.750001
 30
0.0
 11
253.736746
 21
64.742001
 31
0.0
  0
LINE
  5
BF81
330
BF35
100
AcDbEntity
  8
1
  6
Continuous
100
AcDbLine
 10
250.2367459999999
 20
43.50000099999999
 30
0.0
 11
235.036746
 21
43.50000099999999
 31
0.0
  0
LINE
  5
BF82
330
BF35
100
AcDbEntity
  8
1
  6
Continuous
100
AcDbLine
 10
232.5367459999999
 20
41.00000099999999
 30
0.0
 11
231.036746
 21
44.00000099999998
 31
0.0
  0
LINE
  5
BF83
330
BF35
100
AcDbEntity
  8
1
  6
Continuous
100
AcDbLine
 10
234.0367459999999
 20
41.00000099999999
 30
0.0
 11
232.5367459999999
 21
41.00000099999999
 31
0.0
  0
LINE
  5
BF84
330
BF35
100
AcDbEntity
  8
1
  6
Continuous
100
AcDbLine
 10
235.036746
 20
41.00000099999999
 30
0.0
 11
234.0367459999999
 21
41.00000099999999
 31
0.0
  0
LINE
  5
BF85
330
BF35
100
AcDbEntity
  8
1
  6
Continuous
100
AcDbLine
 10
253.736746
 20
43.750001
 30
0.0
 11
251.636746
 21
43.750001
 31
0.0
  0
ARC
  5
BF86
330
BF35
100
AcDbEntity
  8
1
  6
Continuous
100
AcDbCircle
 10
235.81202
 20
55.000001
 30
0.0
 40
10.54339799999998
100
AcDbArc
 50
116.930926
 51
243.0690740000001
  0
LINE
  5
BF87
330
BF35
100
AcDbEntity
  8
4
  6
CENTER
100
AcDbLine
 10
260.848968
 20
55.000001
 30
0.0
 11
222.585895
 21
55.000001
 31
0.0
  0
ARC
  5
BF88
330
BF35
100
AcDbEntity
  8
1
  6
Continuous
100
AcDbCircle
 10
250.2367459999999
 20
65.500001
 30
0.0
 40
1.0
100
AcDbArc
 50
0.0
 51
90.0
  0
ARC
  5
BF89
330
BF35
100
AcDbEntity
  8
1
  6
Continuous
100
AcDbCircle
 10
246.1367459999999
 20
64.00000099999998
 30
0.0
 40
2.5
100
AcDbArc
 50
0.0
 51
90.0
  0
LINE
  5
BF8A
330
BF35
100
AcDbEntity
  8
1
  6
Continuous
100
AcDbLine
 10
232.5367459999999
 20
69.00000099999998
 30
0.0
 11
231.036746
 21
66.00000099999999
 31
0.0
  0
LINE
  5
BF8B
330
BF35
100
AcDbEntity
  8
1
  6
Continuous
100
AcDbLine
 10
230.0367459999999
 20
46.179034
 30
0.0
 11
230.0367459999999
 21
63.820967
 31
0.0
  0
LINE
  5
BF8C
330
BF35
100
AcDbEntity
  8
1
  6
Continuous
100
AcDbLine
 10
239.0367459999999
 20
58.000001
 30
0.0
 11
239.0367459999999
 21
52.000001
 31
0.0
  0
LINE
  5
BF8D
330
BF35
100
AcDbEntity
  8
1
  6
Continuous
100
AcDbLine
 10
238.5367459999999
 20
51.50000099999999
 30
0.0
 11
235.036746
 21
51.50000099999999
 31
0.0
  0
LINE
  5
BF8E
330
BF35
100
AcDbEntity
  8
1
  6
Continuous
100
AcDbLine
 10
238.5367459999999
 20
51.50000099999999
 30
0.0
 11
239.0367459999999
 21
52.000001
 31
0.0
  0
LINE
  5
BF8F
330
BF35
100
AcDbEntity
  8
1
  6
Continuous
100
AcDbLine
 10
238.5367459999999
 20
58.50000099999999
 30
0.0
 11
235.036746
 21
58.50000099999999
 31
0.0
  0
LINE
  5
BF90
330
BF35
100
AcDbEntity
  8
1
  6
Continuous
100
AcDbLine
 10
238.5367459999999
 20
51.50000099999999
 30
0.0
 11
238.5367459999999
 21
58.50000099999999
 31
0.0
  0
LINE
  5
BF91
330
BF35
100
AcDbEntity
  8
1
  6
Continuous
100
AcDbLine
 10
239.0367459999999
 20
58.000001
 30
0.0
 11
238.5367459999999
 21
58.50000099999999
 31
0.0
  0
LINE
  5
BF92
330
BF35
100
AcDbEntity
  8
1
  6
Continuous
100
AcDbLine
 10
248.6367459999999
 20
46.00000099999999
 30
0.0
 11
248.6367459999999
 21
64.00000099999998
 31
0.0
  0
LINE
  5
BF93
330
BF35
100
AcDbEntity
  8
1
  6
Continuous
100
AcDbLine
 10
251.636746
 20
45.669851
 30
0.0
 11
251.2367459999999
 21
45.669851
 31
0.0
  0
LINE
  5
BF94
330
BF35
100
AcDbEntity
  8
1
  6
Continuous
100
AcDbLine
 10
255.736746
 20
50.000001
 30
0.0
 11
255.736746
 21
60.000001
 31
0.0
  0
LINE
  5
BF95
330
BF35
100
AcDbEntity
  8
1
  6
Continuous
100
AcDbLine
 10
255.736746
 20
60.000001
 30
0.0
 11
253.736746
 21
60.000001
 31
0.0
  0
LINE
  5
BF96
330
BF35
100
AcDbEntity
  8
1
  6
Continuous
100
AcDbLine
 10
255.736746
 20
54.34314699999998
 30
0.0
 11
253.736746
 21
54.34314699999998
 31
0.0
  0
LINE
  5
BF97
330
BF35
100
AcDbEntity
  8
1
  6
Continuous
100
AcDbLine
 10
255.736746
 20
55.656855
 30
0.0
 11
253.736746
 21
55.656855
 31
0.0
  0
LINE
  5
BF98
330
BF35
100
AcDbEntity
  8
1
  6
Continuous
100
AcDbLine
 10
255.736746
 20
50.000001
 30
0.0
 11
253.736746
 21
50.000001
 31
0.0
  0
LINE
  5
BF99
330
BF35
100
AcDbEntity
  8
1
  6
Continuous
100
AcDbLine
 10
251.636746
 20
64.330151
 30
0.0
 11
251.2367459999999
 21
64.330151
 31
0.0
  0
LINE
  5
BF9A
330
BF35
100
AcDbEntity
  8
1
  6
Continuous
100
AcDbLine
 10
253.736746
 20
64.742001
 30
0.0
 11
251.636746
 21
64.742001
 31
0.0
  0
LINE
  5
BF9B
330
BF35
100
AcDbEntity
  8
1
  6
Continuous
100
AcDbLine
 10
251.2367459999999
 20
44.50000099999999
 30
0.0
 11
251.2367459999999
 21
65.500001
 31
0.0
  0
LINE
  5
BF9C
330
BF35
100
AcDbEntity
  8
1
  6
Continuous
100
AcDbLine
 10
250.2367459999999
 20
66.50000099999998
 30
0.0
 11
235.036746
 21
66.50000099999998
 31
0.0
  0
LINE
  5
BF9D
330
BF35
100
AcDbEntity
  8
1
  6
Continuous
100
AcDbLine
 10
234.0367459999999
 20
69.00000099999998
 30
0.0
 11
232.5367459999999
 21
69.00000099999998
 31
0.0
  0
LINE
  5
BF9E
330
BF35
100
AcDbEntity
  8
1
  6
Continuous
100
AcDbLine
 10
235.036746
 20
69.00000099999998
 30
0.0
 11
234.0367459999999
 21
69.00000099999998
 31
0.0
  0
ARC
  5
BF9F
330
BF35
100
AcDbEntity
  8
1
  6
Continuous
100
AcDbCircle
 10
242.6367459999999
 20
177.857098
 30
0.0
 40
7.0
100
AcDbArc
 50
275.855124
 51
318.5903779999998
  0
LINE
  5
BFA0
330
BF35
100
AcDbEntity
  8
1
  6
Continuous
100
AcDbLine
 10
238.5367459999999
 20
168.468433
 30
0.0
 11
239.0367459999999
 21
167.968433
 31
0.0
  0
ARC
  5
BFA1
330
BF35
100
AcDbEntity
  8
1
  6
Continuous
100
AcDbCircle
 10
231.036746
 20
174.468433
 30
0.0
 40
1.0
100
AcDbArc
 50
180.0
 51
270.0
  0
ARC
  5
BFA2
330
BF35
100
AcDbEntity
  8
1
  6
Continuous
100
AcDbCircle
 10
235.036746
 20
251.968433
 30
0.0
 40
81.5
100
AcDbArc
 50
270.0
 51
275.855124
  0
LINE
  5
BFA3
330
BF35
100
AcDbEntity
  8
4
  6
CENTER
100
AcDbLine
 10
241.080986
 20
164.968433
 30
0.0
 11
229.8837989999999
 21
164.968433
 31
0.0
  0
LINE
  5
BFA4
330
BF35
100
AcDbEntity
  8
1
  6
Continuous
100
AcDbLine
 10
238.5367459999999
 20
168.468433
 30
0.0
 11
235.036746
 21
168.468433
 31
0.0
  0
LINE
  5
BFA5
330
BF35
100
AcDbEntity
  8
1
  6
Continuous
100
AcDbLine
 10
239.0367459999999
 20
161.968433
 30
0.0
 11
238.5367459999999
 21
161.468433
 31
0.0
  0
LINE
  5
BFA6
330
BF35
100
AcDbEntity
  8
1
  6
Continuous
100
AcDbLine
 10
235.036746
 20
157.968433
 30
0.0
 11
234.0367459999999
 21
157.968433
 31
0.0
  0
LINE
  5
BFA7
330
BF35
100
AcDbEntity
  8
1
  6
Continuous
100
AcDbLine
 10
234.0367459999999
 20
157.968433
 30
0.0
 11
232.5367459999999
 21
157.968433
 31
0.0
  0
LINE
  5
BFA8
330
BF35
100
AcDbEntity
  8
1
  6
Continuous
100
AcDbLine
 10
232.5367459999999
 20
157.968433
 30
0.0
 11
231.036746
 21
160.968433
 31
0.0
  0
LINE
  5
BFA9
330
BF35
100
AcDbEntity
  8
1
  6
Continuous
100
AcDbLine
 10
238.5367459999999
 20
161.468433
 30
0.0
 11
235.036746
 21
161.468433
 31
0.0
  0
LINE
  5
BFAA
330
BF35
100
AcDbEntity
  8
1
  6
Continuous
100
AcDbLine
 10
238.5367459999999
 20
168.468433
 30
0.0
 11
238.5367459999999
 21
161.468433
 31
0.0
  0
LINE
  5
BFAB
330
BF35
100
AcDbEntity
  8
1
  6
Continuous
100
AcDbLine
 10
239.0367459999999
 20
161.968433
 30
0.0
 11
239.0367459999999
 21
167.968433
 31
0.0
  0
ARC
  5
BFAC
330
BF35
100
AcDbEntity
  8
1
  6
Continuous
100
AcDbCircle
 10
245.636746
 20
175.2113469999999
 30
0.0
 40
3.0
100
AcDbArc
 50
318.5903779999998
 51
0.0
  0
LINE
  5
BFAD
330
BF35
100
AcDbEntity
  8
4
  6
CENTER
100
AcDbLine
 10
131.97106
 20
251.968433
 30
0.0
 11
30.305107
 21
251.968433
 31
0.0
  0
LINE
  5
BFAE
330
BF35
100
AcDbEntity
  8
5
  6
PHANTOM
100
AcDbLine
 10
44.964699
 20
261.3684329999999
 30
0.0
 11
121.464699
 21
261.3684329999999
 31
0.0
  0
LINE
  5
BFAF
330
BF35
100
AcDbEntity
  8
5
  6
PHANTOM
100
AcDbLine
 10
44.964699
 20
242.568433
 30
0.0
 11
121.464699
 21
242.568433
 31
0.0
  0
ARC
  5
BFB0
330
BF35
100
AcDbEntity
  8
1
  6
Continuous
100
AcDbCircle
 10
37.56469899999999
 20
192.968433
 30
0.0
 40
2.5
100
AcDbArc
 50
143.130102
 51
180.0
  0
ARC
  5
BFB1
330
BF35
100
AcDbEntity
  8
1
  6
Continuous
100
AcDbCircle
 10
52.364699
 20
192.968433
 30
0.0
 40
2.5
100
AcDbArc
 50
0.0
 51
36.869898
  0
ARC
  5
BFB2
330
BF35
100
AcDbEntity
  8
1
  6
Continuous
100
AcDbCircle
 10
44.964699
 20
244.832739
 30
0.0
 40
10.246964
100
AcDbArc
 50
23.459044
 51
156.5409559999999
  0
ARC
  5
BFB3
330
BF35
100
AcDbEntity
  8
1
  6
Continuous
100
AcDbCircle
 10
44.964699
 20
251.968433
 30
0.0
 40
9.4
100
AcDbArc
 50
102.865072
 51
180.0
  0
ARC
  5
BFB4
330
BF35
100
AcDbEntity
  8
1
  6
Continuous
100
AcDbCircle
 10
44.964699
 20
252.0184329999999
 30
0.0
 40
9.9
100
AcDbArc
 50
341.7126809999999
 51
198.287319
  0
ARC
  5
BFB5
330
BF35
100
AcDbEntity
  8
1
  6
Continuous
100
AcDbCircle
 10
44.964699
 20
251.968433
 30
0.0
 40
9.4
100
AcDbArc
 50
0.0
 51
77.134928
  0
LINE
  5
BFB6
330
BF35
100
AcDbEntity
  8
1
  6
Continuous
100
AcDbLine
 10
47.057664
 20
261.132466
 30
0.0
 11
42.87173399999999
 21
261.132466
 31
0.0
  0
ARC
  5
BFB7
330
BF35
100
AcDbEntity
  8
5
  6
PHANTOM
100
AcDbCircle
 10
121.464699
 20
259.3684329999999
 30
0.0
 40
2.0
100
AcDbArc
 50
0.0
 51
90.0
  0
ARC
  5
BFB8
330
BF35
100
AcDbEntity
  8
5
  6
PHANTOM
100
AcDbCircle
 10
121.464699
 20
244.568433
 30
0.0
 40
2.0
100
AcDbArc
 50
270.0
 51
0.0
  0
LINE
  5
BFB9
330
BF35
100
AcDbEntity
  8
5
  6
PHANTOM
100
AcDbLine
 10
123.4646989999999
 20
259.3684329999999
 30
0.0
 11
123.4646989999999
 21
244.568433
 31
0.0
  0
LINE
  5
BFBA
330
BF35
100
AcDbEntity
  8
1
  6
Continuous
100
AcDbLine
 10
53.96469899999999
 20
273.968433
 30
0.0
 11
35.96469899999997
 21
273.968433
 31
0.0
  0
LINE
  5
BFBB
330
BF35
100
AcDbEntity
  8
1
  6
Continuous
100
AcDbLine
 10
53.96469899999999
 20
276.968433
 30
0.0
 11
35.96469899999997
 21
276.968433
 31
0.0
  0
ARC
  5
BFBC
330
BF35
100
AcDbEntity
  8
1
  6
Continuous
100
AcDbCircle
 10
35.96469899999997
 20
271.968433
 30
0.0
 40
2.0
100
AcDbArc
 50
90.0
 51
180.0
  0
ARC
  5
BFBD
330
BF35
100
AcDbEntity
  8
1
  6
Continuous
100
AcDbCircle
 10
35.96469899999997
 20
271.968433
 30
0.0
 40
5.0
100
AcDbArc
 50
90.0
 51
180.0
  0
LINE
  5
BFBE
330
BF35
100
AcDbEntity
  8
4
  6
CENTER
100
AcDbLine
 10
51.108584
 20
269.968433
 30
0.0
 11
38.375591
 21
269.968433
 31
0.0
  0
ARC
  5
BFBF
330
BF35
100
AcDbEntity
  8
1
  6
Continuous
100
AcDbCircle
 10
53.96469899999999
 20
271.968433
 30
0.0
 40
2.0
100
AcDbArc
 50
0.0
 51
90.0
  0
ARC
  5
BFC0
330
BF35
100
AcDbEntity
  8
1
  6
Continuous
100
AcDbCircle
 10
53.96469899999999
 20
271.968433
 30
0.0
 40
5.0
100
AcDbArc
 50
0.0
 51
90.0
  0
LINE
  5
BFC1
330
BF35
100
AcDbEntity
  8
1
  6
Continuous
100
AcDbLine
 10
253.4367459999999
 20
264.268433
 30
0.0
 11
253.4367459999999
 21
259.721679
 31
0.0
  0
ARC
  5
BFC2
330
BF35
100
AcDbEntity
  8
1
  6
Continuous
100
AcDbCircle
 10
235.036746
 20
263.468433
 30
0.0
 40
1.0
100
AcDbArc
 50
0.0
 51
90.0
  0
LINE
  5
BFC3
330
BF35
100
AcDbEntity
  8
5
  6
PHANTOM
100
AcDbLine
 10
201.166331
 20
201.693141
 30
0.0
 11
190.8345569999999
 21
191.361367
 31
0.0
  0
LINE
  5
BFC4
330
BF35
100
AcDbEntity
  8
5
  6
PHANTOM
100
AcDbLine
 10
227.1078139999999
 20
251.1105689999999
 30
0.0
 11
176.7004369999999
 21
200.703192
 31
0.0
  0
LINE
  5
BFC5
330
BF35
100
AcDbEntity
  8
5
  6
PHANTOM
100
AcDbLine
 10
176.7004369999999
 20
199.2889779999999
 30
0.0
 11
179.528864
 21
196.460551
 31
0.0
  0
ARC
  5
BFC6
330
BF35
100
AcDbEntity
  8
5
  6
PHANTOM
100
AcDbCircle
 10
235.036746
 20
251.968433
 30
0.0
 40
78.5
100
AcDbArc
 50
225.0
 51
230.8551239999999
  0
ARC
  5
BFC7
330
BF35
100
AcDbEntity
  8
5
  6
PHANTOM
100
AcDbCircle
 10
188.00613
 20
194.189794
 30
0.0
 40
4.0
100
AcDbArc
 50
230.8551239999999
 51
315.0
  0
ARC
  5
BFC8
330
BF35
100
AcDbEntity
  8
5
  6
PHANTOM
100
AcDbCircle
 10
177.407543
 20
199.9960849999999
 30
0.0
 40
1.0
100
AcDbArc
 50
135.0
 51
225.0
  0
LINE
  5
BFC9
330
BF35
100
AcDbEntity
  8
5
  6
PHANTOM
100
AcDbLine
 10
228.865173
 20
244.3826469999999
 30
0.0
 11
199.327854
 21
214.845327
 31
0.0
  0
LINE
  5
BFCA
330
BF35
100
AcDbEntity
  8
1
  6
Continuous
100
AcDbLine
 10
239.0367459999999
 20
237.0179709999999
 30
0.0
 11
239.0367459999999
 21
199.968433
 31
0.0
  0
ARC
  5
BFCB
330
BF35
100
AcDbEntity
  8
5
  6
PHANTOM
100
AcDbCircle
 10
199.7521179999999
 20
203.107355
 30
0.0
 40
2.0
100
AcDbArc
 50
315.0
 51
45.0
  0
LINE
  5
BFCC
330
BF35
100
AcDbEntity
  8
5
  6
PHANTOM
100
AcDbLine
 10
201.166331
 20
204.521568
 30
0.0
 11
199.327854
 21
206.3600459999999
 31
0.0
  0
ARC
  5
BFCD
330
BF35
100
AcDbEntity
  8
5
  6
PHANTOM
100
AcDbCircle
 10
203.570494
 20
210.6026869999999
 30
0.0
 40
6.0
100
AcDbArc
 50
135.0
 51
225.0
  0
ARC
  5
BFCE
330
BF35
100
AcDbEntity
  8
1
  6
Continuous
100
AcDbCircle
 10
242.036746
 20
199.968433
 30
0.0
 40
3.0
100
AcDbArc
 50
180.0
 51
270.0
  0
LINE
  5
BFCF
330
BF35
100
AcDbEntity
  8
1
  6
Continuous
100
AcDbLine
 10
245.636746
 20
196.9684329999998
 30
0.0
 11
242.036746
 21
196.9684329999998
 31
0.0
  0
ARC
  5
BFD0
330
BF35
100
AcDbEntity
  8
1
  6
Continuous
100
AcDbCircle
 10
245.636746
 20
193.968433
 30
0.0
 40
3.0
100
AcDbArc
 50
0.0
 51
90.0
  0
ARC
  5
BFD1
330
BF35
100
AcDbEntity
  8
5
  6
PHANTOM
100
AcDbCircle
 10
220.0367459999999
 20
258.181637
 30
0.0
 40
10.0
100
AcDbArc
 50
315.0
 51
0.0
  0
ARC
  5
BFD2
330
BF35
100
AcDbEntity
  8
1
  6
Continuous
100
AcDbCircle
 10
235.036746
 20
251.968433
 30
0.0
 40
9.4
100
AcDbArc
 50
115.184337
 51
135.0
  0
LINE
  5
BFD3
330
BF35
100
AcDbEntity
  8
5
  6
PHANTOM
100
AcDbLine
 10
230.0367459999999
 20
242.568433
 30
0.0
 11
227.05096
 21
242.568433
 31
0.0
  0
ARC
  5
BFD4
330
BF35
100
AcDbEntity
  8
5
  6
PHANTOM
100
AcDbCircle
 10
226.0367459999999
 20
247.211074
 30
0.0
 40
4.0
100
AcDbArc
 50
315.0
 51
351.9013289999999
  0
ARC
  5
BFD5
330
BF35
100
AcDbEntity
  8
1
  6
Continuous
100
AcDbCircle
 10
220.0367459999999
 20
245.7552299999999
 30
0.0
 40
10.0
100
AcDbArc
 50
0.0
 51
45.0
  0
LINE
  5
BFD6
330
BF35
100
AcDbEntity
  8
4
  6
CENTER
100
AcDbLine
 10
224.6328879999999
 20
251.968433
 30
0.0
 11
258.774477
 21
251.968433
 31
0.0
  0
LINE
  5
BFD7
330
BF35
100
AcDbEntity
  8
1
  6
Continuous
100
AcDbLine
 10
228.389942
 20
258.6152369999999
 30
0.0
 11
225.561515
 21
255.7868099999998
 31
0.0
  0
LINE
  5
BFD8
330
BF35
100
AcDbEntity
  8
1
  6
Continuous
100
AcDbLine
 10
225.561515
 20
254.3725959999999
 30
0.0
 11
227.1078139999999
 21
252.826298
 31
0.0
  0
ARC
  5
BFD9
330
BF35
100
AcDbEntity
  8
1
  6
Continuous
100
AcDbCircle
 10
226.2686219999999
 20
255.0797029999999
 30
0.0
 40
1.0
100
AcDbArc
 50
135.0
 51
225.0
  0
LINE
  5
BFDA
330
BF35
100
AcDbEntity
  8
1
  6
Continuous
100
AcDbLine
 10
253.736746
 20
261.7112189999999
 30
0.0
 11
253.736746
 21
240.718433
 31
0.0
  0
ARC
  5
BFDB
330
BF35
100
AcDbEntity
  8
1
  6
Continuous
100
AcDbCircle
 10
251.3804959999999
 20
242.2184329999998
 30
0.0
 40
0.25625
100
AcDbArc
 50
282.680383
 51
0.0
  0
LINE
  5
BFDC
330
BF35
100
AcDbEntity
  8
1
  6
Continuous
100
AcDbLine
 10
251.736746
 20
259.521679
 30
0.0
 11
251.736746
 21
240.718433
 31
0.0
  0
LINE
  5
BFDD
330
BF35
100
AcDbEntity
  8
1
  6
Continuous
100
AcDbLine
 10
251.2367459999999
 20
262.668308
 30
0.0
 11
251.2367459999999
 21
240.468433
 31
0.0
  0
LINE
  5
BFDE
330
BF35
100
AcDbEntity
  8
1
  6
Continuous
100
AcDbLine
 10
241.487208
 20
249.6482419999999
 30
0.0
 11
241.487208
 21
239.468433
 31
0.0
  0
LINE
  5
BFDF
330
BF35
100
AcDbEntity
  8
1
  6
Continuous
100
AcDbLine
 10
241.487208
 20
239.468433
 30
0.0
 11
250.2367459999999
 21
239.468433
 31
0.0
  0
LINE
  5
BFE0
330
BF35
100
AcDbEntity
  8
1
  6
Continuous
100
AcDbLine
 10
241.487208
 20
239.468433
 30
0.0
 11
239.0367459999999
 21
237.0179709999999
 31
0.0
  0
LINE
  5
BFE1
330
BF35
100
AcDbEntity
  8
1
  6
Continuous
100
AcDbLine
 10
251.2367459999999
 20
241.9684329999999
 30
0.0
 11
251.4367459999998
 21
241.9684329999999
 31
0.0
  0
ARC
  5
BFE2
330
BF35
100
AcDbEntity
  8
1
  6
Continuous
100
AcDbCircle
 10
250.2367459999999
 20
240.468433
 30
0.0
 40
1.0
100
AcDbArc
 50
270.0
 51
0.0
  0
LINE
  5
BFE3
330
BF35
100
AcDbEntity
  8
1
  6
Continuous
100
AcDbLine
 10
253.736746
 20
240.718433
 30
0.0
 11
251.736746
 21
240.718433
 31
0.0
  0
ARC
  5
BFE4
330
BF35
100
AcDbEntity
  8
5
  6
PHANTOM
100
AcDbCircle
 10
231.036746
 20
260.3684329999999
 30
0.0
 40
1.0
100
AcDbArc
 50
90.0
 51
180.0
  0
LINE
  5
BFE5
330
BF35
100
AcDbEntity
  8
1
  6
Continuous
100
AcDbLine
 10
236.0367459999999
 20
263.468433
 30
0.0
 11
236.0367459999999
 21
252.968433
 31
0.0
  0
LINE
  5
BFE6
330
BF35
100
AcDbEntity
  8
5
  6
PHANTOM
100
AcDbLine
 10
230.0367459999999
 20
260.3684329999999
 30
0.0
 11
230.0367459999999
 21
258.181637
 31
0.0
  0
ARC
  5
BFE7
330
BF35
100
AcDbEntity
  8
1
  6
Continuous
100
AcDbCircle
 10
253.2367459999999
 20
262.868308
 30
0.0
 40
0.2
100
AcDbArc
 50
270.0
 51
0.0
  0
LINE
  5
BFE8
330
BF35
100
AcDbEntity
  8
1
  6
Continuous
100
AcDbLine
 10
253.736746
 20
260.268433
 30
0.0
 11
253.4367459999999
 21
260.268433
 31
0.0
  0
LINE
  5
BFE9
330
BF35
100
AcDbEntity
  8
1
  6
Continuous
100
AcDbLine
 10
253.736746
 20
261.7112189999999
 30
0.0
 11
253.4367459999999
 21
261.7112189999999
 31
0.0
  0
LINE
  5
BFEA
330
BF35
100
AcDbEntity
  8
1
  6
Continuous
100
AcDbLine
 10
255.736746
 20
256.968433
 30
0.0
 11
253.736746
 21
256.968433
 31
0.0
  0
ARC
  5
BFEB
330
BF35
100
AcDbEntity
  8
1
  6
Continuous
100
AcDbCircle
 10
253.2367459999999
 20
259.721679
 30
0.0
 40
0.2
100
AcDbArc
 50
270.0
 51
0.0
  0
LINE
  5
BFEC
330
BF35
100
AcDbEntity
  8
1
  6
Continuous
100
AcDbLine
 10
255.736746
 20
251.311579
 30
0.0
 11
253.736746
 21
251.311579
 31
0.0
  0
LINE
  5
BFED
330
BF35
100
AcDbEntity
  8
1
  6
Continuous
100
AcDbLine
 10
255.736746
 20
252.6252869999999
 30
0.0
 11
253.736746
 21
252.6252869999999
 31
0.0
  0
LINE
  5
BFEE
330
BF35
100
AcDbEntity
  8
1
  6
Continuous
100
AcDbLine
 10
255.736746
 20
246.968433
 30
0.0
 11
253.736746
 21
246.968433
 31
0.0
  0
LINE
  5
BFEF
330
BF35
100
AcDbEntity
  8
1
  6
Continuous
100
AcDbLine
 10
255.736746
 20
256.968433
 30
0.0
 11
255.736746
 21
246.968433
 31
0.0
  0
ARC
  5
BFF0
330
BF35
100
AcDbEntity
  8
1
  6
Continuous
100
AcDbCircle
 10
251.4367459999998
 20
260.428687
 30
0.0
 40
0.2
100
AcDbArc
 50
0.0
 51
90.0
  0
LINE
  5
BFF1
330
BF35
100
AcDbEntity
  8
1
  6
Continuous
100
AcDbLine
 10
251.4367459999998
 20
260.628687
 30
0.0
 11
251.2367459999999
 21
260.628687
 31
0.0
  0
LINE
  5
BFF2
330
BF35
100
AcDbEntity
  8
1
  6
Continuous
100
AcDbLine
 10
251.636746
 20
257.8684329999999
 30
0.0
 11
251.736746
 21
257.8684329999999
 31
0.0
  0
LINE
  5
BFF3
330
BF35
100
AcDbEntity
  8
1
  6
Continuous
100
AcDbLine
 10
251.636746
 20
246.0684329999998
 30
0.0
 11
251.736746
 21
246.0684329999998
 31
0.0
  0
LINE
  5
BFF4
330
BF35
100
AcDbEntity
  8
1
  6
Continuous
100
AcDbLine
 10
251.636746
 20
260.428687
 30
0.0
 11
251.636746
 21
242.2184329999998
 31
0.0
  0
LINE
  5
BFF5
330
BF35
100
AcDbEntity
  8
1
  6
Continuous
100
AcDbLine
 10
253.2367459999999
 20
259.521679
 30
0.0
 11
251.636746
 21
259.521679
 31
0.0
  0
LINE
  5
BFF6
330
BF35
100
AcDbEntity
  8
1
  6
Continuous
100
AcDbLine
 10
253.2367459999999
 20
262.668308
 30
0.0
 11
251.2367459999999
 21
262.668308
 31
0.0
  0
LINE
  5
BFF7
330
BF35
100
AcDbEntity
  8
1
  6
Continuous
100
AcDbLine
 10
253.736746
 20
246.343433
 30
0.0
 11
251.736746
 21
246.343433
 31
0.0
  0
LINE
  5
BFF8
330
BF35
100
AcDbEntity
  8
1
  6
Continuous
100
AcDbLine
 10
253.736746
 20
247.8184329999999
 30
0.0
 11
251.736746
 21
247.8184329999999
 31
0.0
  0
LINE
  5
BFF9
330
BF35
100
AcDbEntity
  8
1
  6
Continuous
100
AcDbLine
 10
235.036746
 20
264.468433
 30
0.0
 11
253.2367459999999
 21
264.468433
 31
0.0
  0
LINE
  5
BFFA
330
BF35
100
AcDbEntity
  8
1
  6
Continuous
100
AcDbLine
 10
238.5367459999999
 20
273.4684329999998
 30
0.0
 11
239.0367459999999
 21
272.9684329999999
 31
0.0
  0
LINE
  5
BFFB
330
BF35
100
AcDbEntity
  8
1
  6
Continuous
100
AcDbLine
 10
235.036746
 20
276.968433
 30
0.0
 11
234.0367459999999
 21
276.968433
 31
0.0
  0
LINE
  5
BFFC
330
BF35
100
AcDbEntity
  8
1
  6
Continuous
100
AcDbLine
 10
234.0367459999999
 20
276.968433
 30
0.0
 11
232.5367459999999
 21
276.968433
 31
0.0
  0
LINE
  5
BFFD
330
BF35
100
AcDbEntity
  8
1
  6
Continuous
100
AcDbLine
 10
232.5367459999999
 20
276.968433
 30
0.0
 11
231.036746
 21
273.968433
 31
0.0
  0
LINE
  5
BFFE
330
BF35
100
AcDbEntity
  8
1
  6
Continuous
100
AcDbLine
 10
238.5367459999999
 20
273.4684329999998
 30
0.0
 11
235.036746
 21
273.4684329999998
 31
0.0
  0
LINE
  5
BFFF
330
BF35
100
AcDbEntity
  8
1
  6
Continuous
100
AcDbLine
 10
239.0367459999999
 20
266.9684329999999
 30
0.0
 11
238.5367459999999
 21
266.468433
 31
0.0
  0
LINE
  5
C000
330
BF35
100
AcDbEntity
  8
4
  6
CENTER
100
AcDbLine
 10
241.766235
 20
269.968433
 30
0.0
 11
229.8837989999999
 21
269.968433
 31
0.0
  0
LINE
  5
C001
330
BF35
100
AcDbEntity
  8
1
  6
Continuous
100
AcDbLine
 10
238.5367459999999
 20
266.468433
 30
0.0
 11
235.036746
 21
266.468433
 31
0.0
  0
LINE
  5
C002
330
BF35
100
AcDbEntity
  8
1
  6
Continuous
100
AcDbLine
 10
238.5367459999999
 20
273.4684329999998
 30
0.0
 11
238.5367459999999
 21
266.468433
 31
0.0
  0
LINE
  5
C003
330
BF35
100
AcDbEntity
  8
1
  6
Continuous
100
AcDbLine
 10
239.0367459999999
 20
266.9684329999999
 30
0.0
 11
239.0367459999999
 21
272.9684329999999
 31
0.0
  0
ARC
  5
C004
330
BF35
100
AcDbEntity
  8
1
  6
Continuous
100
AcDbCircle
 10
253.2367459999999
 20
264.268433
 30
0.0
 40
0.2
100
AcDbArc
 50
0.0
 51
90.0
  0
LINE
  5
C005
330
BF35
100
AcDbEntity
  8
1
  6
Continuous
100
AcDbLine
 10
439.791088
 20
261.968433
 30
0.0
 11
439.791088
 21
172.9684329999998
 31
0.0
  0
LINE
  5
C006
330
BF35
100
AcDbEntity
  8
1
  6
Continuous
100
AcDbLine
 10
416.7910879999998
 20
261.968433
 30
0.0
 11
416.7910879999998
 21
172.9684329999998
 31
0.0
  0
LINE
  5
C007
330
BF35
100
AcDbEntity
  8
1
  6
Continuous
100
AcDbLine
 10
442.2910879999998
 20
271.968433
 30
0.0
 11
442.2910879999998
 21
162.968433
 31
0.0
  0
LINE
  5
C008
330
BF35
100
AcDbEntity
  8
1
  6
Continuous
100
AcDbLine
 10
414.291088
 20
271.968433
 30
0.0
 11
414.291088
 21
162.968433
 31
0.0
  0
LINE
  5
C009
330
BF35
100
AcDbEntity
  8
4
  6
CENTER
100
AcDbLine
 10
428.291088
 20
277.4684329999999
 30
0.0
 11
428.291088
 21
153.712818
 31
0.0
  0
ARC
  5
C00A
330
BF35
100
AcDbEntity
  8
1
  6
Continuous
100
AcDbCircle
 10
308.5158009999998
 20
57.77825400000001
 30
0.0
 40
1.6
100
AcDbArc
 50
15.493968
 51
85.0
  0
ARC
  5
C00B
330
BF35
100
AcDbEntity
  8
1
  6
Continuous
100
AcDbCircle
 10
308.5158009999998
 20
52.221806
 30
0.0
 40
1.6
100
AcDbArc
 50
275.0
 51
344.506032
  0
LINE
  5
C00C
330
BF35
100
AcDbEntity
  8
4
  6
CENTER
100
AcDbLine
 10
312.193752
 20
55.00003
 30
0.0
 11
302.2189399999998
 21
55.00003
 31
0.0
  0
LINE
  5
C00D
330
BF35
100
AcDbEntity
  8
1
  6
Continuous
100
AcDbLine
 10
305.893752
 20
61.00003
 30
0.0
 11
305.093752
 21
61.00003
 31
0.0
  0
LINE
  5
C00E
330
BF35
100
AcDbEntity
  8
1
  6
Continuous
100
AcDbLine
 10
307.193752
 20
59.60003
 30
0.0
 11
305.893752
 21
59.60003
 31
0.0
  0
LINE
  5
C00F
330
BF35
100
AcDbEntity
  8
1
  6
Continuous
100
AcDbLine
 10
307.193752
 20
50.40003
 30
0.0
 11
305.893752
 21
50.40003
 31
0.0
  0
LINE
  5
C010
330
BF35
100
AcDbEntity
  8
1
  6
Continuous
100
AcDbLine
 10
307.193752
 20
59.60003
 30
0.0
 11
307.193752
 21
50.40003
 31
0.0
  0
LINE
  5
C011
330
BF35
100
AcDbEntity
  8
1
  6
Continuous
100
AcDbLine
 10
305.893752
 20
55.00003
 30
0.0
 11
307.193752
 21
56.30003000000001
 31
0.0
  0
LINE
  5
C012
330
BF35
100
AcDbEntity
  8
1
  6
Continuous
100
AcDbLine
 10
307.193752
 20
55.00003
 30
0.0
 11
305.893752
 21
53.70003
 31
0.0
  0
LINE
  5
C013
330
BF35
100
AcDbEntity
  8
1
  6
Continuous
100
AcDbLine
 10
307.193752
 20
59.50003
 30
0.0
 11
308.6552509999999
 21
59.372166
 31
0.0
  0
LINE
  5
C014
330
BF35
100
AcDbEntity
  8
1
  6
Continuous
100
AcDbLine
 10
307.193752
 20
50.50003
 30
0.0
 11
308.6552509999999
 21
50.627895
 31
0.0
  0
LINE
  5
C015
330
BF35
100
AcDbEntity
  8
1
  6
Continuous
100
AcDbLine
 10
305.893752
 20
49.00002999999998
 30
0.0
 11
305.093752
 21
49.00002999999998
 31
0.0
  0
LINE
  5
C016
330
BF35
100
AcDbEntity
  8
1
  6
Continuous
100
AcDbLine
 10
305.893752
 20
61.00003
 30
0.0
 11
305.893752
 21
49.00002999999998
 31
0.0
  0
LINE
  5
C017
330
BF35
100
AcDbEntity
  8
1
  6
Continuous
100
AcDbLine
 10
305.093752
 20
61.00003
 30
0.0
 11
305.093752
 21
49.00002999999998
 31
0.0
  0
ARC
  5
C018
330
BF35
100
AcDbEntity
  8
1
  6
Continuous
100
AcDbCircle
 10
298.4937519999999
 20
55.00003
 30
0.0
 40
12.0
100
AcDbArc
 50
344.506032
 51
15.493968
  0
LINE
  5
C019
330
BF35
100
AcDbEntity
  8
4
  6
CENTER
100
AcDbLine
 10
348.548917
 20
54.98869499999999
 30
0.0
 11
334.59415
 21
54.98869499999999
 31
0.0
  0
LINE
  5
C01A
330
BF35
100
AcDbEntity
  8
1
  6
Continuous
100
AcDbLine
 10
342.408263
 20
61.98869499999999
 30
0.0
 11
337.4082629999999
 21
61.98869499999999
 31
0.0
  0
LINE
  5
C01B
330
BF35
100
AcDbEntity
  8
1
  6
Continuous
100
AcDbLine
 10
342.408263
 20
47.988695
 30
0.0
 11
337.4082629999999
 21
47.988695
 31
0.0
  0
LINE
  5
C01C
330
BF35
100
AcDbEntity
  8
1
  6
Continuous
100
AcDbLine
 10
337.4082629999999
 20
61.98869499999999
 30
0.0
 11
337.4082629999999
 21
47.988695
 31
0.0
  0
ARC
  5
C01D
330
BF35
100
AcDbEntity
  8
1
  6
Continuous
100
AcDbCircle
 10
337.008263
 20
54.98869499999999
 30
0.0
 40
9.0
100
AcDbArc
 50
344.1191499999998
 51
15.88085
  0
LINE
  5
C01E
330
BF35
100
AcDbEntity
  8
1
  6
Continuous
100
AcDbLine
 10
343.4082629999999
 20
58.788695
 30
0.0
 11
343.4082629999999
 21
51.188695
 31
0.0
  0
LINE
  5
C01F
330
BF35
100
AcDbEntity
  8
1
  6
Continuous
100
AcDbLine
 10
343.4082629999999
 20
51.188695
 30
0.0
 11
342.408263
 21
51.188695
 31
0.0
  0
LINE
  5
C020
330
BF35
100
AcDbEntity
  8
1
  6
Continuous
100
AcDbLine
 10
343.4082629999999
 20
54.98869499999999
 30
0.0
 11
342.408263
 21
53.98869499999999
 31
0.0
  0
LINE
  5
C021
330
BF35
100
AcDbEntity
  8
1
  6
Continuous
100
AcDbLine
 10
342.408263
 20
54.98869499999999
 30
0.0
 11
343.4082629999999
 21
55.98869499999999
 31
0.0
  0
LINE
  5
C022
330
BF35
100
AcDbEntity
  8
1
  6
Continuous
100
AcDbLine
 10
343.4082629999999
 20
58.788695
 30
0.0
 11
342.408263
 21
58.788695
 31
0.0
  0
LINE
  5
C023
330
BF35
100
AcDbEntity
  8
1
  6
Continuous
100
AcDbLine
 10
343.4082629999999
 20
58.48869499999999
 30
0.0
 11
344.5276779999999
 21
58.390759
 31
0.0
  0
LINE
  5
C024
330
BF35
100
AcDbEntity
  8
1
  6
Continuous
100
AcDbLine
 10
343.4082629999999
 20
51.48869499999999
 30
0.0
 11
344.5276779999999
 21
51.586631
 31
0.0
  0
ARC
  5
C025
330
BF35
100
AcDbEntity
  8
1
  6
Continuous
100
AcDbCircle
 10
344.414375
 20
57.09570600000001
 30
0.0
 40
1.3
100
AcDbArc
 50
15.88085
 51
85.0
  0
ARC
  5
C026
330
BF35
100
AcDbEntity
  8
1
  6
Continuous
100
AcDbCircle
 10
344.414375
 20
52.88168399999999
 30
0.0
 40
1.3
100
AcDbArc
 50
275.0
 51
344.1191499999998
  0
LINE
  5
C027
330
BF35
100
AcDbEntity
  8
1
  6
Continuous
100
AcDbLine
 10
342.408263
 20
61.98869499999999
 30
0.0
 11
342.408263
 21
47.988695
 31
0.0
  0
LINE
  5
C028
330
BF35
100
AcDbEntity
  8
1
  6
Continuous
100
AcDbLine
 10
337.4082629999999
 20
158.968411
 30
0.0
 11
341.9082629999999
 21
158.968411
 31
0.0
  0
LINE
  5
C029
330
BF35
100
AcDbEntity
  8
4
  6
CENTER
100
AcDbLine
 10
348.548917
 20
164.968411
 30
0.0
 11
334.59415
 21
164.968411
 31
0.0
  0
LINE
  5
C02A
330
BF35
100
AcDbEntity
  8
1
  6
Continuous
100
AcDbLine
 10
337.4082629999999
 20
169.9684109999998
 30
0.0
 11
341.9082629999999
 21
169.9684109999998
 31
0.0
  0
LINE
  5
C02B
330
BF35
100
AcDbEntity
  8
1
  6
Continuous
100
AcDbLine
 10
337.4082629999999
 20
169.9684109999998
 30
0.0
 11
337.4082629999999
 21
158.968411
 31
0.0
  0
ARC
  5
C02C
330
BF35
100
AcDbEntity
  8
1
  6
Continuous
100
AcDbCircle
 10
337.008263
 20
164.968411
 30
0.0
 40
9.0
100
AcDbArc
 50
344.1191499999998
 51
15.88085
  0
LINE
  5
C02D
330
BF35
100
AcDbEntity
  8
1
  6
Continuous
100
AcDbLine
 10
343.4082629999999
 20
168.468411
 30
0.0
 11
344.5276779999999
 21
168.3704749999999
 31
0.0
  0
ARC
  5
C02E
330
BF35
100
AcDbEntity
  8
1
  6
Continuous
100
AcDbCircle
 10
344.414375
 20
167.075422
 30
0.0
 40
1.3
100
AcDbArc
 50
15.88085
 51
85.0
  0
LINE
  5
C02F
330
BF35
100
AcDbEntity
  8
1
  6
Continuous
100
AcDbLine
 10
343.4082629999999
 20
161.4684109999998
 30
0.0
 11
344.5276779999999
 21
161.566347
 31
0.0
  0
ARC
  5
C030
330
BF35
100
AcDbEntity
  8
1
  6
Continuous
100
AcDbCircle
 10
344.414375
 20
162.8613999999998
 30
0.0
 40
1.3
100
AcDbArc
 50
275.0
 51
344.1191499999998
  0
LINE
  5
C031
330
BF35
100
AcDbEntity
  8
1
  6
Continuous
100
AcDbLine
 10
343.4082629999999
 20
161.1684109999999
 30
0.0
 11
342.408263
 21
161.1684109999999
 31
0.0
  0
ARC
  5
C032
330
BF35
100
AcDbEntity
  8
1
  6
Continuous
100
AcDbCircle
 10
341.9082629999999
 20
159.468411
 30
0.0
 40
0.5
100
AcDbArc
 50
270.0
 51
0.0
  0
LINE
  5
C033
330
BF35
100
AcDbEntity
  8
1
  6
Continuous
100
AcDbLine
 10
342.408263
 20
164.968411
 30
0.0
 11
343.4082629999999
 21
165.968411
 31
0.0
  0
LINE
  5
C034
330
BF35
100
AcDbEntity
  8
1
  6
Continuous
100
AcDbLine
 10
343.4082629999999
 20
164.968411
 30
0.0
 11
342.408263
 21
163.968411
 31
0.0
  0
LINE
  5
C035
330
BF35
100
AcDbEntity
  8
1
  6
Continuous
100
AcDbLine
 10
343.4082629999999
 20
168.768411
 30
0.0
 11
342.408263
 21
168.768411
 31
0.0
  0
ARC
  5
C036
330
BF35
100
AcDbEntity
  8
1
  6
Continuous
100
AcDbCircle
 10
341.9082629999999
 20
169.468411
 30
0.0
 40
0.5
100
AcDbArc
 50
0.0
 51
90.0
  0
LINE
  5
C037
330
BF35
100
AcDbEntity
  8
1
  6
Continuous
100
AcDbLine
 10
342.408263
 20
161.1684109999999
 30
0.0
 11
342.408263
 21
168.768411
 31
0.0
  0
LINE
  5
C038
330
BF35
100
AcDbEntity
  8
1
  6
Continuous
100
AcDbLine
 10
342.408263
 20
169.468411
 30
0.0
 11
342.408263
 21
159.468411
 31
0.0
  0
LINE
  5
C039
330
BF35
100
AcDbEntity
  8
1
  6
Continuous
100
AcDbLine
 10
343.4082629999999
 20
161.1684109999999
 30
0.0
 11
343.4082629999999
 21
168.768411
 31
0.0
  0
ARC
  5
C03A
330
BF35
100
AcDbEntity
  8
1
  6
Continuous
100
AcDbCircle
 10
426.703978
 20
164.968433
 30
0.0
 40
5.412889999999999
100
AcDbArc
 50
112.5237199999998
 51
229.3987049999998
  0
LINE
  5
C03B
330
BF35
100
AcDbEntity
  8
1
  6
Continuous
100
AcDbLine
 10
437.291088
 20
174.6776669999999
 30
0.0
 11
419.291088
 21
174.6776669999999
 31
0.0
  0
LINE
  5
C03C
330
BF35
100
AcDbEntity
  8
1
  6
Continuous
100
AcDbLine
 10
437.291088
 20
170.468433
 30
0.0
 11
419.291088
 21
170.468433
 31
0.0
  0
LINE
  5
C03D
330
BF35
100
AcDbEntity
  8
4
  6
CENTER
100
AcDbLine
 10
419.6874509999998
 20
164.968433
 30
0.0
 11
437.2276229999997
 21
164.968433
 31
0.0
  0
LINE
  5
C03E
330
BF35
100
AcDbEntity
  8
1
  6
Continuous
100
AcDbLine
 10
437.291088
 20
157.968433
 30
0.0
 11
419.291088
 21
157.968433
 31
0.0
  0
ARC
  5
C03F
330
BF35
100
AcDbEntity
  8
1
  6
Continuous
100
AcDbCircle
 10
419.291088
 20
172.9684329999998
 30
0.0
 40
2.5
100
AcDbArc
 50
180.0
 51
270.0
  0
ARC
  5
C040
330
BF35
100
AcDbEntity
  8
1
  6
Continuous
100
AcDbCircle
 10
419.291088
 20
162.968433
 30
0.0
 40
5.0
100
AcDbArc
 50
180.0
 51
270.0
  0
LINE
  5
C041
330
BF35
100
AcDbEntity
  8
1
  6
Continuous
100
AcDbLine
 10
424.6304849999998
 20
169.968433
 30
0.0
 11
432.1255709999999
 21
169.968433
 31
0.0
  0
ARC
  5
C042
330
BF35
100
AcDbEntity
  8
1
  6
Continuous
100
AcDbCircle
 10
429.878199
 20
164.968433
 30
0.0
 40
5.412889999999999
100
AcDbArc
 50
310.601295
 51
49.39870500000001
  0
ARC
  5
C043
330
BF35
100
AcDbEntity
  8
1
  6
Continuous
100
AcDbCircle
 10
428.291088
 20
166.820062
 30
0.0
 40
7.851628999999997
100
AcDbArc
 50
229.3987049999998
 51
310.601295
  0
ARC
  5
C044
330
BF35
100
AcDbEntity
  8
1
  6
Continuous
100
AcDbCircle
 10
428.291088
 20
163.116804
 30
0.0
 40
7.851628999999997
100
AcDbArc
 50
49.39870500000001
 51
60.766642
  0
ARC
  5
C045
330
BF35
100
AcDbEntity
  8
1
  6
Continuous
100
AcDbCircle
 10
428.291088
 20
164.968433
 30
0.0
 40
2.1
100
AcDbArc
 50
303.4629999999999
 51
326.5369999999998
  0
ARC
  5
C046
330
BF35
100
AcDbEntity
  8
1
  6
Continuous
100
AcDbCircle
 10
428.291088
 20
164.968433
 30
0.0
 40
2.1
100
AcDbArc
 50
213.463
 51
236.5369999999999
  0
ARC
  5
C047
330
BF35
100
AcDbEntity
  8
1
  6
Continuous
100
AcDbCircle
 10
428.291088
 20
164.968433
 30
0.0
 40
2.1
100
AcDbArc
 50
123.4629999999998
 51
146.537
  0
ARC
  5
C048
330
BF35
100
AcDbEntity
  8
1
  6
Continuous
100
AcDbCircle
 10
428.291088
 20
164.968433
 30
0.0
 40
2.1
100
AcDbArc
 50
33.463
 51
56.537
  0
LINE
  5
C049
330
BF35
100
AcDbEntity
  8
1
  6
Continuous
100
AcDbLine
 10
428.291088
 20
164.0186469999999
 30
0.0
 11
428.816469
 21
163.8274449999999
 31
0.0
  0
LINE
  5
C04A
330
BF35
100
AcDbEntity
  8
1
  6
Continuous
100
AcDbLine
 10
428.816469
 20
163.8274449999999
 30
0.0
 11
429.449046
 21
163.216505
 31
0.0
  0
LINE
  5
C04B
330
BF35
100
AcDbEntity
  8
1
  6
Continuous
100
AcDbLine
 10
429.4321459999999
 20
164.4431229999999
 30
0.0
 11
430.043016
 21
163.810475
 31
0.0
  0
LINE
  5
C04C
330
BF35
100
AcDbEntity
  8
1
  6
Continuous
100
AcDbLine
 10
429.2408739999998
 20
164.968433
 30
0.0
 11
429.4321459999999
 21
164.4431229999999
 31
0.0
  0
LINE
  5
C04D
330
BF35
100
AcDbEntity
  8
1
  6
Continuous
100
AcDbLine
 10
427.3413019999998
 20
164.968433
 30
0.0
 11
427.1500299999998
 21
164.4431229999999
 31
0.0
  0
LINE
  5
C04E
330
BF35
100
AcDbEntity
  8
1
  6
Continuous
100
AcDbLine
 10
427.1500299999998
 20
164.4431229999999
 30
0.0
 11
426.53916
 21
163.810475
 31
0.0
  0
LINE
  5
C04F
330
BF35
100
AcDbEntity
  8
1
  6
Continuous
100
AcDbLine
 10
427.765708
 20
163.8274449999999
 30
0.0
 11
427.1331299999998
 21
163.216505
 31
0.0
  0
LINE
  5
C050
330
BF35
100
AcDbEntity
  8
1
  6
Continuous
100
AcDbLine
 10
428.291088
 20
164.0186469999999
 30
0.0
 11
427.765708
 21
163.8274449999999
 31
0.0
  0
LINE
  5
C051
330
BF35
100
AcDbEntity
  8
1
  6
Continuous
100
AcDbLine
 10
428.291088
 20
165.9182189999999
 30
0.0
 11
427.765779
 21
166.1094909999999
 31
0.0
  0
LINE
  5
C052
330
BF35
100
AcDbEntity
  8
1
  6
Continuous
100
AcDbLine
 10
427.765708
 20
166.109562
 30
0.0
 11
427.1331299999998
 21
166.720361
 31
0.0
  0
LINE
  5
C053
330
BF35
100
AcDbEntity
  8
1
  6
Continuous
100
AcDbLine
 10
427.1501009999998
 20
165.4938129999998
 30
0.0
 11
426.53916
 21
166.1263909999999
 31
0.0
  0
LINE
  5
C054
330
BF35
100
AcDbEntity
  8
1
  6
Continuous
100
AcDbLine
 10
427.3413019999998
 20
164.968433
 30
0.0
 11
427.1500299999998
 21
165.4938839999998
 31
0.0
  0
LINE
  5
C055
330
BF35
100
AcDbEntity
  8
1
  6
Continuous
100
AcDbLine
 10
428.291088
 20
165.9182189999999
 30
0.0
 11
428.816469
 21
166.109562
 31
0.0
  0
LINE
  5
C056
330
BF35
100
AcDbEntity
  8
1
  6
Continuous
100
AcDbLine
 10
428.816469
 20
166.109562
 30
0.0
 11
429.449046
 21
166.720361
 31
0.0
  0
LINE
  5
C057
330
BF35
100
AcDbEntity
  8
1
  6
Continuous
100
AcDbLine
 10
429.4321459999999
 20
165.4938839999998
 30
0.0
 11
430.043016
 21
166.1263909999999
 31
0.0
  0
LINE
  5
C058
330
BF35
100
AcDbEntity
  8
1
  6
Continuous
100
AcDbLine
 10
429.2408739999998
 20
164.968433
 30
0.0
 11
429.4321459999999
 21
165.4938839999998
 31
0.0
  0
CIRCLE
  5
C059
330
BF35
100
AcDbEntity
  8
1
  6
Continuous
100
AcDbCircle
 10
428.291088
 20
164.968433
 30
0.0
 40
3.799999999999998
  0
CIRCLE
  5
C05A
330
BF35
100
AcDbEntity
  8
1
  6
Continuous
100
AcDbCircle
 10
428.291088
 20
164.968433
 30
0.0
 40
3.5
  0
ARC
  5
C05B
330
BF35
100
AcDbEntity
  8
1
  6
Continuous
100
AcDbCircle
 10
437.291088
 20
172.9684329999998
 30
0.0
 40
2.5
100
AcDbArc
 50
270.0
 51
0.0
  0
ARC
  5
C05C
330
BF35
100
AcDbEntity
  8
1
  6
Continuous
100
AcDbCircle
 10
437.291088
 20
162.968433
 30
0.0
 40
5.0
100
AcDbArc
 50
270.0
 51
0.0
  0
ARC
  5
C05D
330
BF35
100
AcDbEntity
  8
1
  6
Continuous
100
AcDbCircle
 10
308.5158009999998
 20
254.7466569999999
 30
0.0
 40
1.6
100
AcDbArc
 50
15.493968
 51
85.0
  0
LINE
  5
C05E
330
BF35
100
AcDbEntity
  8
4
  6
CENTER
100
AcDbLine
 10
312.193752
 20
251.968433
 30
0.0
 11
302.773686
 21
251.968433
 31
0.0
  0
ARC
  5
C05F
330
BF35
100
AcDbEntity
  8
1
  6
Continuous
100
AcDbCircle
 10
308.5158009999998
 20
249.1902089999999
 30
0.0
 40
1.6
100
AcDbArc
 50
275.0
 51
344.506032
  0
LINE
  5
C060
330
BF35
100
AcDbEntity
  8
1
  6
Continuous
100
AcDbLine
 10
307.193752
 20
253.2684329999999
 30
0.0
 11
305.893752
 21
251.968433
 31
0.0
  0
LINE
  5
C061
330
BF35
100
AcDbEntity
  8
1
  6
Continuous
100
AcDbLine
 10
307.193752
 20
251.968433
 30
0.0
 11
305.893752
 21
250.668433
 31
0.0
  0
LINE
  5
C062
330
BF35
100
AcDbEntity
  8
1
  6
Continuous
100
AcDbLine
 10
307.193752
 20
256.4684329999999
 30
0.0
 11
308.6552509999999
 21
256.340569
 31
0.0
  0
LINE
  5
C063
330
BF35
100
AcDbEntity
  8
1
  6
Continuous
100
AcDbLine
 10
305.893752
 20
257.968433
 30
0.0
 11
305.093752
 21
257.968433
 31
0.0
  0
LINE
  5
C064
330
BF35
100
AcDbEntity
  8
1
  6
Continuous
100
AcDbLine
 10
307.193752
 20
256.568433
 30
0.0
 11
305.893752
 21
256.568433
 31
0.0
  0
LINE
  5
C065
330
BF35
100
AcDbEntity
  8
1
  6
Continuous
100
AcDbLine
 10
307.193752
 20
247.468433
 30
0.0
 11
308.6552509999999
 21
247.5962979999999
 31
0.0
  0
LINE
  5
C066
330
BF35
100
AcDbEntity
  8
1
  6
Continuous
100
AcDbLine
 10
305.893752
 20
245.9684329999999
 30
0.0
 11
305.093752
 21
245.9684329999999
 31
0.0
  0
LINE
  5
C067
330
BF35
100
AcDbEntity
  8
1
  6
Continuous
100
AcDbLine
 10
307.193752
 20
247.368433
 30
0.0
 11
305.893752
 21
247.368433
 31
0.0
  0
LINE
  5
C068
330
BF35
100
AcDbEntity
  8
1
  6
Continuous
100
AcDbLine
 10
305.893752
 20
257.968433
 30
0.0
 11
305.893752
 21
245.9684329999999
 31
0.0
  0
LINE
  5
C069
330
BF35
100
AcDbEntity
  8
1
  6
Continuous
100
AcDbLine
 10
307.193752
 20
256.568433
 30
0.0
 11
307.193752
 21
247.368433
 31
0.0
  0
LINE
  5
C06A
330
BF35
100
AcDbEntity
  8
1
  6
Continuous
100
AcDbLine
 10
305.093752
 20
257.968433
 30
0.0
 11
305.093752
 21
245.9684329999999
 31
0.0
  0
ARC
  5
C06B
330
BF35
100
AcDbEntity
  8
1
  6
Continuous
100
AcDbCircle
 10
298.4937519999999
 20
251.968433
 30
0.0
 40
12.0
100
AcDbArc
 50
344.506032
 51
15.493968
  0
LINE
  5
C06C
330
BF35
100
AcDbEntity
  8
1
  6
Continuous
100
AcDbLine
 10
337.4082629999999
 20
275.968402
 30
0.0
 11
341.9082629999999
 21
275.968402
 31
0.0
  0
LINE
  5
C06D
330
BF35
100
AcDbEntity
  8
1
  6
Continuous
100
AcDbLine
 10
337.4082629999999
 20
264.968402
 30
0.0
 11
341.9082629999999
 21
264.968402
 31
0.0
  0
LINE
  5
C06E
330
BF35
100
AcDbEntity
  8
4
  6
CENTER
100
AcDbLine
 10
348.548917
 20
269.968402
 30
0.0
 11
334.59415
 21
269.968402
 31
0.0
  0
LINE
  5
C06F
330
BF35
100
AcDbEntity
  8
1
  6
Continuous
100
AcDbLine
 10
337.4082629999999
 20
264.968402
 30
0.0
 11
337.4082629999999
 21
275.968402
 31
0.0
  0
LINE
  5
C070
330
BF35
100
AcDbEntity
  8
1
  6
Continuous
100
AcDbLine
 10
343.4082629999999
 20
269.968402
 30
0.0
 11
342.408263
 21
268.968402
 31
0.0
  0
LINE
  5
C071
330
BF35
100
AcDbEntity
  8
1
  6
Continuous
100
AcDbLine
 10
342.408263
 20
269.968402
 30
0.0
 11
343.4082629999999
 21
270.968402
 31
0.0
  0
LINE
  5
C072
330
BF35
100
AcDbEntity
  8
1
  6
Continuous
100
AcDbLine
 10
343.4082629999999
 20
273.7684019999999
 30
0.0
 11
342.408263
 21
273.7684019999999
 31
0.0
  0
ARC
  5
C073
330
BF35
100
AcDbEntity
  8
1
  6
Continuous
100
AcDbCircle
 10
344.414375
 20
272.0754129999999
 30
0.0
 40
1.3
100
AcDbArc
 50
15.88085
 51
85.0
  0
LINE
  5
C074
330
BF35
100
AcDbEntity
  8
1
  6
Continuous
100
AcDbLine
 10
343.4082629999999
 20
273.468402
 30
0.0
 11
344.5276779999999
 21
273.370466
 31
0.0
  0
LINE
  5
C075
330
BF35
100
AcDbEntity
  8
1
  6
Continuous
100
AcDbLine
 10
343.4082629999999
 20
266.168402
 30
0.0
 11
342.408263
 21
266.168402
 31
0.0
  0
ARC
  5
C076
330
BF35
100
AcDbEntity
  8
1
  6
Continuous
100
AcDbCircle
 10
344.414375
 20
267.861391
 30
0.0
 40
1.3
100
AcDbArc
 50
275.0
 51
344.1191499999998
  0
LINE
  5
C077
330
BF35
100
AcDbEntity
  8
1
  6
Continuous
100
AcDbLine
 10
343.4082629999999
 20
266.468402
 30
0.0
 11
344.5276779999999
 21
266.5663379999999
 31
0.0
  0
LINE
  5
C078
330
BF35
100
AcDbEntity
  8
1
  6
Continuous
100
AcDbLine
 10
342.408263
 20
273.7684019999999
 30
0.0
 11
342.408263
 21
266.168402
 31
0.0
  0
LINE
  5
C079
330
BF35
100
AcDbEntity
  8
1
  6
Continuous
100
AcDbLine
 10
343.4082629999999
 20
273.7684019999999
 30
0.0
 11
343.4082629999999
 21
266.168402
 31
0.0
  0
ARC
  5
C07A
330
BF35
100
AcDbEntity
  8
1
  6
Continuous
100
AcDbCircle
 10
337.008263
 20
269.968402
 30
0.0
 40
9.0
100
AcDbArc
 50
344.1191499999998
 51
15.88085
  0
ARC
  5
C07B
330
BF35
100
AcDbEntity
  8
1
  6
Continuous
100
AcDbCircle
 10
341.9082629999999
 20
275.468402
 30
0.0
 40
0.5
100
AcDbArc
 50
0.0
 51
90.0
  0
ARC
  5
C07C
330
BF35
100
AcDbEntity
  8
1
  6
Continuous
100
AcDbCircle
 10
341.9082629999999
 20
265.468402
 30
0.0
 40
0.5
100
AcDbArc
 50
270.0
 51
0.0
  0
LINE
  5
C07D
330
BF35
100
AcDbEntity
  8
1
  6
Continuous
100
AcDbLine
 10
342.408263
 20
265.468402
 30
0.0
 11
342.408263
 21
275.468402
 31
0.0
  0
ARC
  5
C07E
330
BF35
100
AcDbEntity
  8
1
  6
Continuous
100
AcDbCircle
 10
437.291088
 20
261.968433
 30
0.0
 40
2.5
100
AcDbArc
 50
0.0
 51
90.0
  0
ARC
  5
C07F
330
BF35
100
AcDbEntity
  8
1
  6
Continuous
100
AcDbCircle
 10
419.291088
 20
261.968433
 30
0.0
 40
2.5
100
AcDbArc
 50
90.0
 51
180.0
  0
ARC
  5
C080
330
BF35
100
AcDbEntity
  8
1
  6
Continuous
100
AcDbCircle
 10
428.291088
 20
252.968433
 30
0.0
 40
11.5
100
AcDbArc
 50
0.0
 51
180.0
  0
LINE
  5
C081
330
BF35
100
AcDbEntity
  8
1
  6
Continuous
100
AcDbLine
 10
437.291088
 20
196.9684329999998
 30
0.0
 11
419.291088
 21
196.9684329999998
 31
0.0
  0
ARC
  5
C082
330
BF35
100
AcDbEntity
  8
1
  6
Continuous
100
AcDbCircle
 10
419.291088
 20
194.468433
 30
0.0
 40
2.5
100
AcDbArc
 50
90.0
 51
180.0
  0
ARC
  5
C083
330
BF35
100
AcDbEntity
  8
1
  6
Continuous
100
AcDbCircle
 10
437.291088
 20
194.468433
 30
0.0
 40
2.5
100
AcDbArc
 50
0.0
 51
90.0
  0
LINE
  5
C084
330
BF35
100
AcDbEntity
  8
4
  6
CENTER
100
AcDbLine
 10
444.389337
 20
251.968433
 30
0.0
 11
413.6314959999998
 21
251.968433
 31
0.0
  0
LINE
  5
C085
330
BF35
100
AcDbEntity
  8
1
  6
Continuous
100
AcDbLine
 10
421.1030779999998
 20
247.8184329999999
 30
0.0
 11
418.5483029999998
 21
246.343433
 31
0.0
  0
LINE
  5
C086
330
BF35
100
AcDbEntity
  8
1
  6
Continuous
100
AcDbLine
 10
438.7910879999998
 20
237.0179709999999
 30
0.0
 11
417.7910879999997
 21
237.0179709999999
 31
0.0
  0
LINE
  5
C087
330
BF35
100
AcDbEntity
  8
1
  6
Continuous
100
AcDbLine
 10
438.7910879999998
 20
239.468433
 30
0.0
 11
417.7910879999997
 21
239.468433
 31
0.0
  0
ARC
  5
C088
330
BF35
100
AcDbEntity
  8
1
  6
Continuous
100
AcDbCircle
 10
428.291088
 20
251.968433
 30
0.0
 40
11.25
100
AcDbArc
 50
210.0
 51
60.0
  0
ARC
  5
C089
330
BF35
100
AcDbEntity
  8
1
  6
Continuous
100
AcDbCircle
 10
428.291088
 20
250.968433
 30
0.0
 40
11.5
100
AcDbArc
 50
180.0
 51
0.0
  0
ARC
  5
C08A
330
BF35
100
AcDbEntity
  8
1
  6
Continuous
100
AcDbCircle
 10
428.291088
 20
251.968433
 30
0.0
 40
8.3
100
AcDbArc
 50
60.0
 51
210.0
  0
ARC
  5
C08B
330
BF35
100
AcDbEntity
  8
1
  6
Continuous
100
AcDbCircle
 10
428.291088
 20
251.968433
 30
0.0
 40
9.5
100
AcDbArc
 50
119.9999999999999
 51
210.0
  0
ARC
  5
C08C
330
BF35
100
AcDbEntity
  8
1
  6
Continuous
100
AcDbCircle
 10
428.291088
 20
251.968433
 30
0.0
 40
10.0
100
AcDbArc
 50
119.9999999999999
 51
210.0
  0
ARC
  5
C08D
330
BF35
100
AcDbEntity
  8
1
  6
Continuous
100
AcDbCircle
 10
417.7910879999997
 20
240.468433
 30
0.0
 40
1.0
100
AcDbArc
 50
180.0
 51
270.0
  0
ARC
  5
C08E
330
BF35
100
AcDbEntity
  8
1
  6
Continuous
100
AcDbCircle
 10
417.7910879999997
 20
238.0179709999999
 30
0.0
 40
1.0
100
AcDbArc
 50
180.0
 51
270.0
  0
ARC
  5
C08F
330
BF35
100
AcDbEntity
  8
1
  6
Continuous
100
AcDbCircle
 10
438.7910879999998
 20
240.468433
 30
0.0
 40
1.0
100
AcDbArc
 50
270.0
 51
0.0
  0
ARC
  5
C090
330
BF35
100
AcDbEntity
  8
1
  6
Continuous
100
AcDbCircle
 10
438.7910879999998
 20
238.0179709999999
 30
0.0
 40
1.0
100
AcDbArc
 50
270.0
 51
0.0
  0
CIRCLE
  5
C091
330
BF35
100
AcDbEntity
  8
1
  6
Continuous
100
AcDbCircle
 10
428.291088
 20
251.968433
 30
0.0
 40
6.0
  0
CIRCLE
  5
C092
330
BF35
100
AcDbEntity
  8
1
  6
Continuous
100
AcDbCircle
 10
428.291088
 20
251.968433
 30
0.0
 40
4.599999999999997
  0
ARC
  5
C093
330
BF35
100
AcDbEntity
  8
1
  6
Continuous
100
AcDbCircle
 10
428.291088
 20
251.968433
 30
0.0
 40
2.45
100
AcDbArc
 50
305.129
 51
324.8709999999999
  0
ARC
  5
C094
330
BF35
100
AcDbEntity
  8
1
  6
Continuous
100
AcDbCircle
 10
428.291088
 20
251.968433
 30
0.0
 40
2.45
100
AcDbArc
 50
215.1289999999999
 51
234.871
  0
ARC
  5
C095
330
BF35
100
AcDbEntity
  8
1
  6
Continuous
100
AcDbCircle
 10
428.291088
 20
251.968433
 30
0.0
 40
2.45
100
AcDbArc
 50
125.1291
 51
144.8709
  0
ARC
  5
C096
330
BF35
100
AcDbEntity
  8
1
  6
Continuous
100
AcDbCircle
 10
428.291088
 20
251.968433
 30
0.0
 40
2.45
100
AcDbArc
 50
35.129
 51
54.87089
  0
LINE
  5
C097
330
BF35
100
AcDbEntity
  8
1
  6
Continuous
100
AcDbLine
 10
429.540404
 20
251.3399559999998
 30
0.0
 11
430.294887
 21
250.5586029999999
 31
0.0
  0
LINE
  5
C098
330
BF35
100
AcDbEntity
  8
1
  6
Continuous
100
AcDbLine
 10
429.3115849999998
 20
251.968433
 30
0.0
 11
429.540404
 21
251.3399559999998
 31
0.0
  0
LINE
  5
C099
330
BF35
100
AcDbEntity
  8
1
  6
Continuous
100
AcDbLine
 10
428.291088
 20
250.9479359999999
 30
0.0
 11
428.919635
 21
250.719187
 31
0.0
  0
LINE
  5
C09A
330
BF35
100
AcDbEntity
  8
1
  6
Continuous
100
AcDbLine
 10
428.919635
 20
250.719187
 30
0.0
 11
429.7009179999998
 21
249.9646339999999
 31
0.0
  0
LINE
  5
C09B
330
BF35
100
AcDbEntity
  8
1
  6
Continuous
100
AcDbLine
 10
427.662682
 20
250.719187
 30
0.0
 11
426.8813289999997
 21
249.964704
 31
0.0
  0
LINE
  5
C09C
330
BF35
100
AcDbEntity
  8
1
  6
Continuous
100
AcDbLine
 10
428.291088
 20
250.9479359999999
 30
0.0
 11
427.662682
 21
250.719187
 31
0.0
  0
LINE
  5
C09D
330
BF35
100
AcDbEntity
  8
1
  6
Continuous
100
AcDbLine
 10
427.2705919999999
 20
251.968433
 30
0.0
 11
427.0419129999998
 21
251.3399559999998
 31
0.0
  0
LINE
  5
C09E
330
BF35
100
AcDbEntity
  8
1
  6
Continuous
100
AcDbLine
 10
427.0419129999998
 20
251.3399559999998
 30
0.0
 11
426.2873599999998
 21
250.558674
 31
0.0
  0
LINE
  5
C09F
330
BF35
100
AcDbEntity
  8
1
  6
Continuous
100
AcDbLine
 10
427.0419129999998
 20
252.5969089999999
 30
0.0
 11
426.2873599999998
 21
253.378192
 31
0.0
  0
LINE
  5
C0A0
330
BF35
100
AcDbEntity
  8
1
  6
Continuous
100
AcDbLine
 10
427.2705919999999
 20
251.968433
 30
0.0
 11
427.0418429999998
 21
252.5969799999999
 31
0.0
  0
LINE
  5
C0A1
330
BF35
100
AcDbEntity
  8
1
  6
Continuous
100
AcDbLine
 10
428.291088
 20
252.988929
 30
0.0
 11
427.662612
 21
253.217749
 31
0.0
  0
LINE
  5
C0A2
330
BF35
100
AcDbEntity
  8
1
  6
Continuous
100
AcDbLine
 10
427.662612
 20
253.217749
 30
0.0
 11
426.8813289999997
 21
253.9721609999999
 31
0.0
  0
LINE
  5
C0A3
330
BF35
100
AcDbEntity
  8
1
  6
Continuous
100
AcDbLine
 10
428.291088
 20
252.988929
 30
0.0
 11
428.919635
 21
253.217679
 31
0.0
  0
LINE
  5
C0A4
330
BF35
100
AcDbEntity
  8
1
  6
Continuous
100
AcDbLine
 10
428.919635
 20
253.217679
 30
0.0
 11
429.7009179999998
 21
253.972232
 31
0.0
  0
LINE
  5
C0A5
330
BF35
100
AcDbEntity
  8
1
  6
Continuous
100
AcDbLine
 10
429.540404
 20
252.5969089999999
 30
0.0
 11
430.294887
 21
253.378262
 31
0.0
  0
LINE
  5
C0A6
330
BF35
100
AcDbEntity
  8
1
  6
Continuous
100
AcDbLine
 10
429.3115849999998
 20
251.968433
 30
0.0
 11
429.540404
 21
252.5969089999999
 31
0.0
  0
CIRCLE
  5
C0A7
330
BF35
100
AcDbEntity
  8
1
  6
Continuous
100
AcDbCircle
 10
428.291088
 20
251.968433
 30
0.0
 40
4.5
  0
LINE
  5
C0A8
330
BF35
100
AcDbEntity
  8
1
  6
Continuous
100
AcDbLine
 10
432.441088
 20
259.156444
 30
0.0
 11
432.7385599999998
 21
259.6716789999999
 31
0.0
  0
ARC
  5
C0A9
330
BF35
100
AcDbEntity
  8
1
  6
Continuous
100
AcDbCircle
 10
432.4787519999999
 20
259.821679
 30
0.0
 40
0.3
100
AcDbArc
 50
241.931684
 51
330.0
  0
ARC
  5
C0AA
330
BF35
100
AcDbEntity
  8
1
  6
Continuous
100
AcDbCircle
 10
424.103425
 20
259.821679
 30
0.0
 40
0.3
100
AcDbArc
 50
210.0
 51
298.0683159999998
  0
ARC
  5
C0AB
330
BF35
100
AcDbEntity
  8
1
  6
Continuous
100
AcDbCircle
 10
428.291088
 20
251.968433
 30
0.0
 40
8.599999999999997
100
AcDbArc
 50
61.931684
 51
118.068316
  0
LINE
  5
C0AC
330
BF35
100
AcDbEntity
  8
1
  6
Continuous
100
AcDbLine
 10
423.8436169999998
 20
259.6716789999999
 30
0.0
 11
422.113513
 21
262.668308
 31
0.0
  0
LINE
  5
C0AD
330
BF35
100
AcDbEntity
  8
1
  6
Continuous
100
AcDbLine
 10
432.7385599999998
 20
259.6716789999999
 30
0.0
 11
434.4686639999998
 21
262.668308
 31
0.0
  0
ARC
  5
C0AE
330
BF35
100
AcDbEntity
  8
1
  6
Continuous
100
AcDbCircle
 10
426.703978
 20
269.968433
 30
0.0
 40
5.412889999999999
100
AcDbArc
 50
130.6012949999999
 51
247.4762799999998
  0
LINE
  5
C0AF
330
BF35
100
AcDbEntity
  8
1
  6
Continuous
100
AcDbLine
 10
437.291088
 20
264.468433
 30
0.0
 11
419.291088
 21
264.468433
 31
0.0
  0
LINE
  5
C0B0
330
BF35
100
AcDbEntity
  8
1
  6
Continuous
100
AcDbLine
 10
437.291088
 20
276.968433
 30
0.0
 11
419.291088
 21
276.968433
 31
0.0
  0
LINE
  5
C0B1
330
BF35
100
AcDbEntity
  8
4
  6
CENTER
100
AcDbLine
 10
419.629733
 20
269.968433
 30
0.0
 11
437.345545
 21
269.968433
 31
0.0
  0
ARC
  5
C0B2
330
BF35
100
AcDbEntity
  8
1
  6
Continuous
100
AcDbCircle
 10
419.291088
 20
271.968433
 30
0.0
 40
5.0
100
AcDbArc
 50
90.0
 51
180.0
  0
ARC
  5
C0B3
330
BF35
100
AcDbEntity
  8
1
  6
Continuous
100
AcDbCircle
 10
428.291088
 20
268.116804
 30
0.0
 40
7.851628999999997
100
AcDbArc
 50
49.39870500000001
 51
130.6012949999999
  0
ARC
  5
C0B4
330
BF35
100
AcDbEntity
  8
1
  6
Continuous
100
AcDbCircle
 10
428.291088
 20
271.820062
 30
0.0
 40
7.851628999999997
100
AcDbArc
 50
299.233358
 51
310.601295
  0
ARC
  5
C0B5
330
BF35
100
AcDbEntity
  8
1
  6
Continuous
100
AcDbCircle
 10
429.878199
 20
269.968433
 30
0.0
 40
5.412889999999999
100
AcDbArc
 50
310.601295
 51
49.39870500000001
  0
LINE
  5
C0B6
330
BF35
100
AcDbEntity
  8
1
  6
Continuous
100
AcDbLine
 10
424.6304849999998
 20
264.9684329999999
 30
0.0
 11
432.1255709999999
 21
264.9684329999999
 31
0.0
  0
ARC
  5
C0B7
330
BF35
100
AcDbEntity
  8
1
  6
Continuous
100
AcDbCircle
 10
428.291088
 20
269.968433
 30
0.0
 40
2.1
100
AcDbArc
 50
303.4629999999999
 51
326.5369999999998
  0
ARC
  5
C0B8
330
BF35
100
AcDbEntity
  8
1
  6
Continuous
100
AcDbCircle
 10
428.291088
 20
269.968433
 30
0.0
 40
2.1
100
AcDbArc
 50
213.463
 51
236.5369999999999
  0
ARC
  5
C0B9
330
BF35
100
AcDbEntity
  8
1
  6
Continuous
100
AcDbCircle
 10
428.291088
 20
269.968433
 30
0.0
 40
2.1
100
AcDbArc
 50
123.4629999999998
 51
146.537
  0
ARC
  5
C0BA
330
BF35
100
AcDbEntity
  8
1
  6
Continuous
100
AcDbCircle
 10
428.291088
 20
269.968433
 30
0.0
 40
2.1
100
AcDbArc
 50
33.463
 51
56.537
  0
LINE
  5
C0BB
330
BF35
100
AcDbEntity
  8
1
  6
Continuous
100
AcDbLine
 10
428.291088
 20
269.0186469999999
 30
0.0
 11
428.816469
 21
268.827445
 31
0.0
  0
LINE
  5
C0BC
330
BF35
100
AcDbEntity
  8
1
  6
Continuous
100
AcDbLine
 10
428.816469
 20
268.827445
 30
0.0
 11
429.449046
 21
268.216505
 31
0.0
  0
LINE
  5
C0BD
330
BF35
100
AcDbEntity
  8
1
  6
Continuous
100
AcDbLine
 10
429.4321459999999
 20
269.443123
 30
0.0
 11
430.043016
 21
268.8104749999999
 31
0.0
  0
LINE
  5
C0BE
330
BF35
100
AcDbEntity
  8
1
  6
Continuous
100
AcDbLine
 10
429.2408739999998
 20
269.968433
 30
0.0
 11
429.4321459999999
 21
269.443123
 31
0.0
  0
LINE
  5
C0BF
330
BF35
100
AcDbEntity
  8
1
  6
Continuous
100
AcDbLine
 10
427.3413019999998
 20
269.968433
 30
0.0
 11
427.1500299999998
 21
269.443123
 31
0.0
  0
LINE
  5
C0C0
330
BF35
100
AcDbEntity
  8
1
  6
Continuous
100
AcDbLine
 10
427.1500299999998
 20
269.443123
 30
0.0
 11
426.53916
 21
268.8104749999999
 31
0.0
  0
LINE
  5
C0C1
330
BF35
100
AcDbEntity
  8
1
  6
Continuous
100
AcDbLine
 10
427.765708
 20
268.827445
 30
0.0
 11
427.1331299999998
 21
268.216505
 31
0.0
  0
LINE
  5
C0C2
330
BF35
100
AcDbEntity
  8
1
  6
Continuous
100
AcDbLine
 10
428.291088
 20
269.0186469999999
 30
0.0
 11
427.765708
 21
268.827445
 31
0.0
  0
LINE
  5
C0C3
330
BF35
100
AcDbEntity
  8
1
  6
Continuous
100
AcDbLine
 10
428.291088
 20
270.918219
 30
0.0
 11
427.765779
 21
271.1094909999999
 31
0.0
  0
LINE
  5
C0C4
330
BF35
100
AcDbEntity
  8
1
  6
Continuous
100
AcDbLine
 10
427.765708
 20
271.109562
 30
0.0
 11
427.1331299999998
 21
271.7203609999998
 31
0.0
  0
LINE
  5
C0C5
330
BF35
100
AcDbEntity
  8
1
  6
Continuous
100
AcDbLine
 10
427.1501009999998
 20
270.4938129999998
 30
0.0
 11
426.53916
 21
271.1263909999999
 31
0.0
  0
LINE
  5
C0C6
330
BF35
100
AcDbEntity
  8
1
  6
Continuous
100
AcDbLine
 10
427.3413019999998
 20
269.968433
 30
0.0
 11
427.1500299999998
 21
270.493884
 31
0.0
  0
LINE
  5
C0C7
330
BF35
100
AcDbEntity
  8
1
  6
Continuous
100
AcDbLine
 10
428.291088
 20
270.918219
 30
0.0
 11
428.816469
 21
271.109562
 31
0.0
  0
LINE
  5
C0C8
330
BF35
100
AcDbEntity
  8
1
  6
Continuous
100
AcDbLine
 10
428.816469
 20
271.109562
 30
0.0
 11
429.449046
 21
271.7203609999998
 31
0.0
  0
LINE
  5
C0C9
330
BF35
100
AcDbEntity
  8
1
  6
Continuous
100
AcDbLine
 10
429.4321459999999
 20
270.493884
 30
0.0
 11
430.043016
 21
271.1263909999999
 31
0.0
  0
LINE
  5
C0CA
330
BF35
100
AcDbEntity
  8
1
  6
Continuous
100
AcDbLine
 10
429.2408739999998
 20
269.968433
 30
0.0
 11
429.4321459999999
 21
270.493884
 31
0.0
  0
CIRCLE
  5
C0CB
330
BF35
100
AcDbEntity
  8
1
  6
Continuous
100
AcDbCircle
 10
428.291088
 20
269.968433
 30
0.0
 40
3.799999999999998
  0
CIRCLE
  5
C0CC
330
BF35
100
AcDbEntity
  8
1
  6
Continuous
100
AcDbCircle
 10
428.291088
 20
269.968433
 30
0.0
 40
3.5
  0
ARC
  5
C0CD
330
BF35
100
AcDbEntity
  8
1
  6
Continuous
100
AcDbCircle
 10
437.291088
 20
271.968433
 30
0.0
 40
5.0
100
AcDbArc
 50
0.0
 51
90.0
  0
ARC
  5
C0CE
330
BF35
100
AcDbEntity
  8
1
  6
Continuous
100
AcDbCircle
 10
235.81202
 20
391.968439
 30
0.0
 40
10.54339799999998
100
AcDbArc
 50
116.930926
 51
243.0690740000001
  0
LINE
  5
C0CF
330
BF35
100
AcDbEntity
  8
1
  6
Continuous
100
AcDbLine
 10
255.736746
 20
396.9684389999999
 30
0.0
 11
255.736746
 21
386.968439
 31
0.0
  0
LINE
  5
C0D0
330
BF35
100
AcDbEntity
  8
1
  6
Continuous
100
AcDbLine
 10
253.736746
 20
403.218439
 30
0.0
 11
253.736746
 21
382.226439
 31
0.0
  0
LINE
  5
C0D1
330
BF35
100
AcDbEntity
  8
1
  6
Continuous
100
AcDbLine
 10
253.4367459999999
 20
398.1460389999999
 30
0.0
 11
253.4367459999999
 21
385.790839
 31
0.0
  0
LINE
  5
C0D2
330
BF35
100
AcDbEntity
  8
1
  6
Continuous
100
AcDbLine
 10
236.0367459999999
 20
395.468439
 30
0.0
 11
236.0367459999999
 21
403.4684389999998
 31
0.0
  0
LINE
  5
C0D3
330
BF35
100
AcDbEntity
  8
1
  6
Continuous
100
AcDbLine
 10
231.036746
 20
402.9684389999999
 30
0.0
 11
231.036746
 21
380.968439
 31
0.0
  0
LINE
  5
C0D4
330
BF35
100
AcDbEntity
  8
1
  6
Continuous
100
AcDbLine
 10
234.0367459999999
 20
405.968439
 30
0.0
 11
234.0367459999999
 21
377.9684389999999
 31
0.0
  0
LINE
  5
C0D5
330
BF35
100
AcDbEntity
  8
1
  6
Continuous
100
AcDbLine
 10
232.5367459999999
 20
405.968439
 30
0.0
 11
232.5367459999999
 21
377.9684389999999
 31
0.0
  0
LINE
  5
C0D6
330
BF35
100
AcDbEntity
  8
1
  6
Continuous
100
AcDbLine
 10
235.036746
 20
405.968439
 30
0.0
 11
235.036746
 21
377.9684389999999
 31
0.0
  0
LINE
  5
C0D7
330
BF35
100
AcDbEntity
  8
4
  6
CENTER
100
AcDbLine
 10
260.848968
 20
391.968439
 30
0.0
 11
222.585895
 21
391.968439
 31
0.0
  0
LINE
  5
C0D8
330
BF35
100
AcDbEntity
  8
1
  6
Continuous
100
AcDbLine
 10
250.2367459999999
 20
380.4684389999999
 30
0.0
 11
235.036746
 21
380.4684389999999
 31
0.0
  0
LINE
  5
C0D9
330
BF35
100
AcDbEntity
  8
1
  6
Continuous
100
AcDbLine
 10
236.0367459999999
 20
380.4684389999999
 30
0.0
 11
236.0367459999999
 21
388.4684389999999
 31
0.0
  0
LINE
  5
C0DA
330
BF35
100
AcDbEntity
  8
1
  6
Continuous
100
AcDbLine
 10
235.036746
 20
377.9684389999999
 30
0.0
 11
234.0367459999999
 21
377.9684389999999
 31
0.0
  0
LINE
  5
C0DB
330
BF35
100
AcDbEntity
  8
1
  6
Continuous
100
AcDbLine
 10
234.0367459999999
 20
377.9684389999999
 30
0.0
 11
232.5367459999999
 21
377.9684389999999
 31
0.0
  0
LINE
  5
C0DC
330
BF35
100
AcDbEntity
  8
1
  6
Continuous
100
AcDbLine
 10
232.5367459999999
 20
377.9684389999999
 30
0.0
 11
231.036746
 21
380.968439
 31
0.0
  0
LINE
  5
C0DD
330
BF35
100
AcDbEntity
  8
1
  6
Continuous
100
AcDbLine
 10
239.0367459999999
 20
388.9684389999999
 30
0.0
 11
238.5367459999999
 21
388.4684389999999
 31
0.0
  0
LINE
  5
C0DE
330
BF35
100
AcDbEntity
  8
1
  6
Continuous
100
AcDbLine
 10
238.5367459999999
 20
395.468439
 30
0.0
 11
238.5367459999999
 21
388.4684389999999
 31
0.0
  0
LINE
  5
C0DF
330
BF35
100
AcDbEntity
  8
1
  6
Continuous
100
AcDbLine
 10
238.5367459999999
 20
388.4684389999999
 30
0.0
 11
235.036746
 21
388.4684389999999
 31
0.0
  0
LINE
  5
C0E0
330
BF35
100
AcDbEntity
  8
1
  6
Continuous
100
AcDbLine
 10
238.5367459999999
 20
395.468439
 30
0.0
 11
239.0367459999999
 21
394.9684389999999
 31
0.0
  0
LINE
  5
C0E1
330
BF35
100
AcDbEntity
  8
1
  6
Continuous
100
AcDbLine
 10
238.5367459999999
 20
395.468439
 30
0.0
 11
235.036746
 21
395.468439
 31
0.0
  0
LINE
  5
C0E2
330
BF35
100
AcDbEntity
  8
1
  6
Continuous
100
AcDbLine
 10
239.0367459999999
 20
388.9684389999999
 30
0.0
 11
239.0367459999999
 21
394.9684389999999
 31
0.0
  0
LINE
  5
C0E3
330
BF35
100
AcDbEntity
  8
1
  6
Continuous
100
AcDbLine
 10
251.2367459999999
 20
385.790839
 30
0.0
 11
251.2367459999999
 21
381.468439
 31
0.0
  0
ARC
  5
C0E4
330
BF35
100
AcDbEntity
  8
1
  6
Continuous
100
AcDbCircle
 10
250.2367459999999
 20
381.468439
 30
0.0
 40
1.0
100
AcDbArc
 50
270.0
 51
0.0
  0
LINE
  5
C0E5
330
BF35
100
AcDbEntity
  8
1
  6
Continuous
100
AcDbLine
 10
253.736746
 20
382.226439
 30
0.0
 11
251.636746
 21
382.226439
 31
0.0
  0
LINE
  5
C0E6
330
BF35
100
AcDbEntity
  8
1
  6
Continuous
100
AcDbLine
 10
253.736746
 20
384.780439
 30
0.0
 11
251.636746
 21
384.780439
 31
0.0
  0
LINE
  5
C0E7
330
BF35
100
AcDbEntity
  8
1
  6
Continuous
100
AcDbLine
 10
255.736746
 20
391.311585
 30
0.0
 11
253.736746
 21
391.311585
 31
0.0
  0
LINE
  5
C0E8
330
BF35
100
AcDbEntity
  8
1
  6
Continuous
100
AcDbLine
 10
255.736746
 20
392.625293
 30
0.0
 11
253.736746
 21
392.625293
 31
0.0
  0
LINE
  5
C0E9
330
BF35
100
AcDbEntity
  8
1
  6
Continuous
100
AcDbLine
 10
255.736746
 20
386.968439
 30
0.0
 11
253.736746
 21
386.968439
 31
0.0
  0
LINE
  5
C0EA
330
BF35
100
AcDbEntity
  8
1
  6
Continuous
100
AcDbLine
 10
251.636746
 20
385.790839
 30
0.0
 11
251.636746
 21
382.226439
 31
0.0
  0
LINE
  5
C0EB
330
BF35
100
AcDbEntity
  8
1
  6
Continuous
100
AcDbLine
 10
251.636746
 20
382.638289
 30
0.0
 11
251.2367459999999
 21
382.638289
 31
0.0
  0
LINE
  5
C0EC
330
BF35
100
AcDbEntity
  8
1
  6
Continuous
100
AcDbLine
 10
253.4367459999999
 20
385.790839
 30
0.0
 11
251.2367459999999
 21
385.790839
 31
0.0
  0
LINE
  5
C0ED
330
BF35
100
AcDbEntity
  8
1
  6
Continuous
100
AcDbLine
 10
250.2367459999999
 20
403.4684389999998
 30
0.0
 11
235.036746
 21
403.4684389999998
 31
0.0
  0
LINE
  5
C0EE
330
BF35
100
AcDbEntity
  8
1
  6
Continuous
100
AcDbLine
 10
235.036746
 20
405.968439
 30
0.0
 11
234.0367459999999
 21
405.968439
 31
0.0
  0
LINE
  5
C0EF
330
BF35
100
AcDbEntity
  8
1
  6
Continuous
100
AcDbLine
 10
234.0367459999999
 20
405.968439
 30
0.0
 11
232.5367459999999
 21
405.968439
 31
0.0
  0
LINE
  5
C0F0
330
BF35
100
AcDbEntity
  8
1
  6
Continuous
100
AcDbLine
 10
232.5367459999999
 20
405.968439
 30
0.0
 11
231.036746
 21
402.9684389999999
 31
0.0
  0
ARC
  5
C0F1
330
BF35
100
AcDbEntity
  8
1
  6
Continuous
100
AcDbCircle
 10
250.2367459999999
 20
402.468439
 30
0.0
 40
1.0
100
AcDbArc
 50
0.0
 51
90.0
  0
LINE
  5
C0F2
330
BF35
100
AcDbEntity
  8
1
  6
Continuous
100
AcDbLine
 10
253.736746
 20
403.218439
 30
0.0
 11
251.636746
 21
403.218439
 31
0.0
  0
LINE
  5
C0F3
330
BF35
100
AcDbEntity
  8
1
  6
Continuous
100
AcDbLine
 10
255.736746
 20
396.9684389999999
 30
0.0
 11
253.736746
 21
396.9684389999999
 31
0.0
  0
LINE
  5
C0F4
330
BF35
100
AcDbEntity
  8
1
  6
Continuous
100
AcDbLine
 10
251.636746
 20
401.298589
 30
0.0
 11
251.2367459999999
 21
401.298589
 31
0.0
  0
LINE
  5
C0F5
330
BF35
100
AcDbEntity
  8
1
  6
Continuous
100
AcDbLine
 10
253.4367459999999
 20
398.1460389999999
 30
0.0
 11
251.2367459999999
 21
398.1460389999999
 31
0.0
  0
LINE
  5
C0F6
330
BF35
100
AcDbEntity
  8
1
  6
Continuous
100
AcDbLine
 10
251.2367459999999
 20
402.468439
 30
0.0
 11
251.2367459999999
 21
398.1460389999999
 31
0.0
  0
LINE
  5
C0F7
330
BF35
100
AcDbEntity
  8
1
  6
Continuous
100
AcDbLine
 10
251.636746
 20
403.218439
 30
0.0
 11
251.636746
 21
398.1460389999999
 31
0.0
  0
LINE
  5
C0F8
330
BF35
100
AcDbEntity
  8
1
  6
Continuous
100
AcDbLine
 10
305.093752
 20
397.968439
 30
0.0
 11
305.093752
 21
385.9684389999999
 31
0.0
  0
LINE
  5
C0F9
330
BF35
100
AcDbEntity
  8
1
  6
Continuous
100
AcDbLine
 10
307.193752
 20
396.568439
 30
0.0
 11
307.193752
 21
387.368439
 31
0.0
  0
LINE
  5
C0FA
330
BF35
100
AcDbEntity
  8
1
  6
Continuous
100
AcDbLine
 10
305.893752
 20
397.968439
 30
0.0
 11
305.893752
 21
385.9684389999999
 31
0.0
  0
ARC
  5
C0FB
330
BF35
100
AcDbEntity
  8
1
  6
Continuous
100
AcDbCircle
 10
308.5158009999998
 20
394.746663
 30
0.0
 40
1.6
100
AcDbArc
 50
15.493968
 51
85.0
  0
ARC
  5
C0FC
330
BF35
100
AcDbEntity
  8
1
  6
Continuous
100
AcDbCircle
 10
308.5158009999998
 20
389.1902149999999
 30
0.0
 40
1.6
100
AcDbArc
 50
275.0
 51
344.506032
  0
LINE
  5
C0FD
330
BF35
100
AcDbEntity
  8
4
  6
CENTER
100
AcDbLine
 10
312.193752
 20
391.968439
 30
0.0
 11
302.2189399999998
 21
391.968439
 31
0.0
  0
LINE
  5
C0FE
330
BF35
100
AcDbEntity
  8
1
  6
Continuous
100
AcDbLine
 10
307.193752
 20
391.968439
 30
0.0
 11
305.893752
 21
390.6684389999999
 31
0.0
  0
LINE
  5
C0FF
330
BF35
100
AcDbEntity
  8
1
  6
Continuous
100
AcDbLine
 10
305.893752
 20
391.968439
 30
0.0
 11
307.193752
 21
393.268439
 31
0.0
  0
LINE
  5
C100
330
BF35
100
AcDbEntity
  8
1
  6
Continuous
100
AcDbLine
 10
307.193752
 20
387.368439
 30
0.0
 11
305.893752
 21
387.368439
 31
0.0
  0
LINE
  5
C101
330
BF35
100
AcDbEntity
  8
1
  6
Continuous
100
AcDbLine
 10
305.893752
 20
385.9684389999999
 30
0.0
 11
305.093752
 21
385.9684389999999
 31
0.0
  0
LINE
  5
C102
330
BF35
100
AcDbEntity
  8
1
  6
Continuous
100
AcDbLine
 10
307.193752
 20
387.468439
 30
0.0
 11
308.6552509999999
 21
387.5963039999999
 31
0.0
  0
ARC
  5
C103
330
BF35
100
AcDbEntity
  8
1
  6
Continuous
100
AcDbCircle
 10
298.4937519999999
 20
391.968439
 30
0.0
 40
12.0
100
AcDbArc
 50
344.506032
 51
15.493968
  0
LINE
  5
C104
330
BF35
100
AcDbEntity
  8
1
  6
Continuous
100
AcDbLine
 10
307.193752
 20
396.568439
 30
0.0
 11
305.893752
 21
396.568439
 31
0.0
  0
LINE
  5
C105
330
BF35
100
AcDbEntity
  8
1
  6
Continuous
100
AcDbLine
 10
305.893752
 20
397.968439
 30
0.0
 11
305.093752
 21
397.968439
 31
0.0
  0
LINE
  5
C106
330
BF35
100
AcDbEntity
  8
1
  6
Continuous
100
AcDbLine
 10
307.193752
 20
396.468439
 30
0.0
 11
308.6552509999999
 21
396.340575
 31
0.0
  0
LINE
  5
C107
330
BF35
100
AcDbEntity
  8
1
  6
Continuous
100
AcDbLine
 10
337.4082629999999
 20
398.957104
 30
0.0
 11
337.4082629999999
 21
384.957104
 31
0.0
  0
LINE
  5
C108
330
BF35
100
AcDbEntity
  8
1
  6
Continuous
100
AcDbLine
 10
342.408263
 20
398.957104
 30
0.0
 11
342.408263
 21
384.957104
 31
0.0
  0
LINE
  5
C109
330
BF35
100
AcDbEntity
  8
1
  6
Continuous
100
AcDbLine
 10
342.408263
 20
384.957104
 30
0.0
 11
337.4082629999999
 21
384.957104
 31
0.0
  0
LINE
  5
C10A
330
BF35
100
AcDbEntity
  8
4
  6
CENTER
100
AcDbLine
 10
348.548917
 20
391.957104
 30
0.0
 11
334.59415
 21
391.957104
 31
0.0
  0
ARC
  5
C10B
330
BF35
100
AcDbEntity
  8
1
  6
Continuous
100
AcDbCircle
 10
344.414375
 20
389.850093
 30
0.0
 40
1.3
100
AcDbArc
 50
275.0
 51
344.1191499999998
  0
ARC
  5
C10C
330
BF35
100
AcDbEntity
  8
1
  6
Continuous
100
AcDbCircle
 10
344.414375
 20
394.064115
 30
0.0
 40
1.3
100
AcDbArc
 50
15.88085
 51
85.0
  0
LINE
  5
C10D
330
BF35
100
AcDbEntity
  8
1
  6
Continuous
100
AcDbLine
 10
343.4082629999999
 20
388.457104
 30
0.0
 11
344.5276779999999
 21
388.5550399999999
 31
0.0
  0
LINE
  5
C10E
330
BF35
100
AcDbEntity
  8
1
  6
Continuous
100
AcDbLine
 10
343.4082629999999
 20
395.457104
 30
0.0
 11
344.5276779999999
 21
395.359168
 31
0.0
  0
LINE
  5
C10F
330
BF35
100
AcDbEntity
  8
1
  6
Continuous
100
AcDbLine
 10
343.4082629999999
 20
395.757104
 30
0.0
 11
342.408263
 21
395.757104
 31
0.0
  0
LINE
  5
C110
330
BF35
100
AcDbEntity
  8
1
  6
Continuous
100
AcDbLine
 10
342.408263
 20
391.957104
 30
0.0
 11
343.4082629999999
 21
392.957104
 31
0.0
  0
LINE
  5
C111
330
BF35
100
AcDbEntity
  8
1
  6
Continuous
100
AcDbLine
 10
343.4082629999999
 20
391.957104
 30
0.0
 11
342.408263
 21
390.957104
 31
0.0
  0
LINE
  5
C112
330
BF35
100
AcDbEntity
  8
1
  6
Continuous
100
AcDbLine
 10
343.4082629999999
 20
388.157104
 30
0.0
 11
342.408263
 21
388.157104
 31
0.0
  0
LINE
  5
C113
330
BF35
100
AcDbEntity
  8
1
  6
Continuous
100
AcDbLine
 10
343.4082629999999
 20
395.757104
 30
0.0
 11
343.4082629999999
 21
388.157104
 31
0.0
  0
ARC
  5
C114
330
BF35
100
AcDbEntity
  8
1
  6
Continuous
100
AcDbCircle
 10
337.008263
 20
391.957104
 30
0.0
 40
9.0
100
AcDbArc
 50
344.1191499999998
 51
15.88085
  0
LINE
  5
C115
330
BF35
100
AcDbEntity
  8
1
  6
Continuous
100
AcDbLine
 10
342.408263
 20
398.957104
 30
0.0
 11
337.4082629999999
 21
398.957104
 31
0.0
  0
LINE
  5
C116
330
BF35
100
AcDbEntity
  8
1
  6
Continuous
100
AcDbLine
 10
639.5454299999999
 20
276.968433
 30
0.0
 11
639.5454299999999
 21
157.968433
 31
0.0
  0
LINE
  5
C117
330
BF35
100
AcDbEntity
  8
1
  6
Continuous
100
AcDbLine
 10
643.5454299999999
 20
273.968433
 30
0.0
 11
643.5454299999999
 21
160.968433
 31
0.0
  0
LINE
  5
C118
330
BF35
100
AcDbEntity
  8
1
  6
Continuous
100
AcDbLine
 10
640.54543
 20
276.968433
 30
0.0
 11
640.54543
 21
157.968433
 31
0.0
  0
LINE
  5
C119
330
BF35
100
AcDbEntity
  8
1
  6
Continuous
100
AcDbLine
 10
642.04543
 20
276.968433
 30
0.0
 11
642.04543
 21
157.968433
 31
0.0
  0
LINE
  5
C11A
330
BF35
100
AcDbEntity
  8
1
  6
Continuous
100
AcDbLine
 10
644.54543
 20
245.7552299999999
 30
0.0
 11
644.54543
 21
174.468433
 31
0.0
  0
LINE
  5
C11B
330
BF35
100
AcDbEntity
  8
1
  6
Continuous
100
AcDbLine
 10
625.9454299999998
 20
193.968433
 30
0.0
 11
625.9454299999998
 21
175.2113469999999
 31
0.0
  0
LINE
  5
C11C
330
BF35
100
AcDbEntity
  8
4
  6
CENTER
100
AcDbLine
 10
633.5011899999998
 20
164.968433
 30
0.0
 11
644.6983770000001
 21
164.968433
 31
0.0
  0
ARC
  5
C11D
330
BF35
100
AcDbEntity
  8
1
  6
Continuous
100
AcDbCircle
 10
643.5454299999999
 20
174.468433
 30
0.0
 40
1.0
100
AcDbArc
 50
270.0
 51
0.0
  0
LINE
  5
C11E
330
BF35
100
AcDbEntity
  8
4
  6
CENTER
100
AcDbLine
 10
541.0332599999998
 20
164.968411
 30
0.0
 11
554.988027
 21
164.968411
 31
0.0
  0
LINE
  5
C11F
330
BF35
100
AcDbEntity
  8
1
  6
Continuous
100
AcDbLine
 10
552.173914
 20
158.968411
 30
0.0
 11
547.6739139999998
 21
158.968411
 31
0.0
  0
LINE
  5
C120
330
BF35
100
AcDbEntity
  8
1
  6
Continuous
100
AcDbLine
 10
552.173914
 20
169.9684109999998
 30
0.0
 11
547.6739139999998
 21
169.9684109999998
 31
0.0
  0
LINE
  5
C121
330
BF35
100
AcDbEntity
  8
1
  6
Continuous
100
AcDbLine
 10
547.1739139999998
 20
164.968411
 30
0.0
 11
546.1739139999998
 21
163.968411
 31
0.0
  0
ARC
  5
C122
330
BF35
100
AcDbEntity
  8
1
  6
Continuous
100
AcDbCircle
 10
547.6739139999998
 20
159.468411
 30
0.0
 40
0.5
100
AcDbArc
 50
180.0
 51
270.0
  0
LINE
  5
C123
330
BF35
100
AcDbEntity
  8
1
  6
Continuous
100
AcDbLine
 10
546.1739139999998
 20
161.1684109999999
 30
0.0
 11
547.1739139999998
 21
161.1684109999999
 31
0.0
  0
ARC
  5
C124
330
BF35
100
AcDbEntity
  8
1
  6
Continuous
100
AcDbCircle
 10
545.1678020000001
 20
162.8613999999998
 30
0.0
 40
1.3
100
AcDbArc
 50
195.88085
 51
265.0
  0
LINE
  5
C125
330
BF35
100
AcDbEntity
  8
1
  6
Continuous
100
AcDbLine
 10
546.1739139999998
 20
161.4684109999998
 30
0.0
 11
545.054499
 21
161.566347
 31
0.0
  0
ARC
  5
C126
330
BF35
100
AcDbEntity
  8
1
  6
Continuous
100
AcDbCircle
 10
547.6739139999998
 20
169.468411
 30
0.0
 40
0.5
100
AcDbArc
 50
90.0
 51
180.0
  0
LINE
  5
C127
330
BF35
100
AcDbEntity
  8
1
  6
Continuous
100
AcDbLine
 10
546.1739139999998
 20
168.768411
 30
0.0
 11
547.1739139999998
 21
168.768411
 31
0.0
  0
ARC
  5
C128
330
BF35
100
AcDbEntity
  8
1
  6
Continuous
100
AcDbCircle
 10
545.1678020000001
 20
167.075422
 30
0.0
 40
1.3
100
AcDbArc
 50
95.0
 51
164.1191499999998
  0
LINE
  5
C129
330
BF35
100
AcDbEntity
  8
1
  6
Continuous
100
AcDbLine
 10
546.1739139999998
 20
168.468411
 30
0.0
 11
545.054499
 21
168.3704749999999
 31
0.0
  0
LINE
  5
C12A
330
BF35
100
AcDbEntity
  8
1
  6
Continuous
100
AcDbLine
 10
546.1739139999998
 20
161.1684109999999
 30
0.0
 11
546.1739139999998
 21
168.768411
 31
0.0
  0
LINE
  5
C12B
330
BF35
100
AcDbEntity
  8
1
  6
Continuous
100
AcDbLine
 10
547.1739139999998
 20
169.468411
 30
0.0
 11
547.1739139999998
 21
159.468411
 31
0.0
  0
LINE
  5
C12C
330
BF35
100
AcDbEntity
  8
1
  6
Continuous
100
AcDbLine
 10
547.1739139999998
 20
161.1684109999999
 30
0.0
 11
547.1739139999998
 21
168.768411
 31
0.0
  0
LINE
  5
C12D
330
BF35
100
AcDbEntity
  8
1
  6
Continuous
100
AcDbLine
 10
546.1739139999998
 20
164.968411
 30
0.0
 11
547.1739139999998
 21
165.968411
 31
0.0
  0
ARC
  5
C12E
330
BF35
100
AcDbEntity
  8
1
  6
Continuous
100
AcDbCircle
 10
552.5739139999997
 20
164.968411
 30
0.0
 40
9.0
100
AcDbArc
 50
164.1191499999998
 51
195.88085
  0
LINE
  5
C12F
330
BF35
100
AcDbEntity
  8
1
  6
Continuous
100
AcDbLine
 10
552.173914
 20
169.9684109999998
 30
0.0
 11
552.173914
 21
158.968411
 31
0.0
  0
ARC
  5
C130
330
BF35
100
AcDbEntity
  8
1
  6
Continuous
100
AcDbCircle
 10
631.94543
 20
177.857098
 30
0.0
 40
7.0
100
AcDbArc
 50
221.409622
 51
264.1448759999998
  0
ARC
  5
C131
330
BF35
100
AcDbEntity
  8
1
  6
Continuous
100
AcDbCircle
 10
628.94543
 20
175.2113469999999
 30
0.0
 40
3.0
100
AcDbArc
 50
180.0
 51
221.409622
  0
LINE
  5
C132
330
BF35
100
AcDbEntity
  8
1
  6
Continuous
100
AcDbLine
 10
636.04543
 20
168.468433
 30
0.0
 11
639.5454299999999
 21
168.468433
 31
0.0
  0
ARC
  5
C133
330
BF35
100
AcDbEntity
  8
1
  6
Continuous
100
AcDbCircle
 10
639.5454299999999
 20
251.968433
 30
0.0
 40
81.5
100
AcDbArc
 50
264.1448759999998
 51
270.0
  0
LINE
  5
C134
330
BF35
100
AcDbEntity
  8
1
  6
Continuous
100
AcDbLine
 10
636.04543
 20
168.468433
 30
0.0
 11
635.5454299999999
 21
167.968433
 31
0.0
  0
LINE
  5
C135
330
BF35
100
AcDbEntity
  8
1
  6
Continuous
100
AcDbLine
 10
636.04543
 20
161.468433
 30
0.0
 11
639.5454299999999
 21
161.468433
 31
0.0
  0
LINE
  5
C136
330
BF35
100
AcDbEntity
  8
1
  6
Continuous
100
AcDbLine
 10
642.04543
 20
157.968433
 30
0.0
 11
643.5454299999999
 21
160.968433
 31
0.0
  0
LINE
  5
C137
330
BF35
100
AcDbEntity
  8
1
  6
Continuous
100
AcDbLine
 10
640.54543
 20
157.968433
 30
0.0
 11
642.04543
 21
157.968433
 31
0.0
  0
LINE
  5
C138
330
BF35
100
AcDbEntity
  8
1
  6
Continuous
100
AcDbLine
 10
639.5454299999999
 20
157.968433
 30
0.0
 11
640.54543
 21
157.968433
 31
0.0
  0
LINE
  5
C139
330
BF35
100
AcDbEntity
  8
1
  6
Continuous
100
AcDbLine
 10
635.5454299999999
 20
161.968433
 30
0.0
 11
636.04543
 21
161.468433
 31
0.0
  0
LINE
  5
C13A
330
BF35
100
AcDbEntity
  8
1
  6
Continuous
100
AcDbLine
 10
635.5454299999999
 20
161.968433
 30
0.0
 11
635.5454299999999
 21
167.968433
 31
0.0
  0
LINE
  5
C13B
330
BF35
100
AcDbEntity
  8
1
  6
Continuous
100
AcDbLine
 10
636.04543
 20
168.468433
 30
0.0
 11
636.04543
 21
161.468433
 31
0.0
  0
LINE
  5
C13C
330
BF35
100
AcDbEntity
  8
4
  6
CENTER
100
AcDbLine
 10
632.8159409999998
 20
269.968433
 30
0.0
 11
644.6983770000001
 21
269.968433
 31
0.0
  0
ARC
  5
C13D
330
BF35
100
AcDbEntity
  8
5
  6
PHANTOM
100
AcDbCircle
 10
643.5454299999999
 20
260.3684329999999
 30
0.0
 40
1.0
100
AcDbArc
 50
0.0
 51
90.0
  0
LINE
  5
C13E
330
BF35
100
AcDbEntity
  8
4
  6
CENTER
100
AcDbLine
 10
650.4572809999999
 20
251.968433
 30
0.0
 11
615.3557499999998
 21
251.968433
 31
0.0
  0
ARC
  5
C13F
330
BF35
100
AcDbEntity
  8
1
  6
Continuous
100
AcDbCircle
 10
654.54543
 20
245.7552299999999
 30
0.0
 40
10.0
100
AcDbArc
 50
135.0
 51
180.0
  0
ARC
  5
C140
330
BF35
100
AcDbEntity
  8
1
  6
Continuous
100
AcDbCircle
 10
639.5454299999999
 20
251.968433
 30
0.0
 40
9.4
100
AcDbArc
 50
45.0
 51
64.815663
  0
ARC
  5
C141
330
BF35
100
AcDbEntity
  8
5
  6
PHANTOM
100
AcDbCircle
 10
654.54543
 20
258.181637
 30
0.0
 40
10.0
100
AcDbArc
 50
180.0
 51
225.0
  0
LINE
  5
C142
330
BF35
100
AcDbEntity
  8
1
  6
Continuous
100
AcDbLine
 10
621.14543
 20
264.268433
 30
0.0
 11
621.14543
 21
261.7112189999999
 31
0.0
  0
ARC
  5
C143
330
BF35
100
AcDbEntity
  8
1
  6
Continuous
100
AcDbCircle
 10
639.5454299999999
 20
263.468433
 30
0.0
 40
1.0
100
AcDbArc
 50
90.0
 51
180.0
  0
ARC
  5
C144
330
BF35
100
AcDbEntity
  8
1
  6
Continuous
100
AcDbCircle
 10
566.066375
 20
254.7466569999999
 30
0.0
 40
1.6
100
AcDbArc
 50
95.0
 51
164.5060319999998
  0
ARC
  5
C145
330
BF35
100
AcDbEntity
  8
1
  6
Continuous
100
AcDbCircle
 10
566.066375
 20
249.1902089999999
 30
0.0
 40
1.6
100
AcDbArc
 50
195.4939679999999
 51
265.0
  0
LINE
  5
C146
330
BF35
100
AcDbEntity
  8
4
  6
CENTER
100
AcDbLine
 10
562.3884239999998
 20
251.968433
 30
0.0
 11
571.8084909999999
 21
251.968433
 31
0.0
  0
ARC
  5
C147
330
BF35
100
AcDbEntity
  8
1
  6
Continuous
100
AcDbCircle
 10
576.088424
 20
251.968433
 30
0.0
 40
12.0
100
AcDbArc
 50
164.5060319999998
 51
195.4939679999999
  0
LINE
  5
C148
330
BF35
100
AcDbEntity
  8
1
  6
Continuous
100
AcDbLine
 10
567.3884239999997
 20
256.568433
 30
0.0
 11
568.6884240000003
 21
256.568433
 31
0.0
  0
LINE
  5
C149
330
BF35
100
AcDbEntity
  8
1
  6
Continuous
100
AcDbLine
 10
568.6884240000003
 20
257.968433
 30
0.0
 11
569.488424
 21
257.968433
 31
0.0
  0
LINE
  5
C14A
330
BF35
100
AcDbEntity
  8
1
  6
Continuous
100
AcDbLine
 10
567.3884239999997
 20
256.4684329999999
 30
0.0
 11
565.926925
 21
256.340569
 31
0.0
  0
LINE
  5
C14B
330
BF35
100
AcDbEntity
  8
1
  6
Continuous
100
AcDbLine
 10
567.3884239999997
 20
247.368433
 30
0.0
 11
568.6884240000003
 21
247.368433
 31
0.0
  0
LINE
  5
C14C
330
BF35
100
AcDbEntity
  8
1
  6
Continuous
100
AcDbLine
 10
568.6884240000003
 20
245.9684329999999
 30
0.0
 11
569.488424
 21
245.9684329999999
 31
0.0
  0
LINE
  5
C14D
330
BF35
100
AcDbEntity
  8
1
  6
Continuous
100
AcDbLine
 10
567.3884239999997
 20
247.468433
 30
0.0
 11
565.926925
 21
247.5962979999999
 31
0.0
  0
LINE
  5
C14E
330
BF35
100
AcDbEntity
  8
1
  6
Continuous
100
AcDbLine
 10
567.3884239999997
 20
251.968433
 30
0.0
 11
568.6884240000003
 21
253.2684329999999
 31
0.0
  0
LINE
  5
C14F
330
BF35
100
AcDbEntity
  8
1
  6
Continuous
100
AcDbLine
 10
569.488424
 20
257.968433
 30
0.0
 11
569.488424
 21
245.9684329999999
 31
0.0
  0
LINE
  5
C150
330
BF35
100
AcDbEntity
  8
1
  6
Continuous
100
AcDbLine
 10
567.3884239999997
 20
256.568433
 30
0.0
 11
567.3884239999997
 21
247.368433
 31
0.0
  0
LINE
  5
C151
330
BF35
100
AcDbEntity
  8
1
  6
Continuous
100
AcDbLine
 10
568.6884240000003
 20
257.968433
 30
0.0
 11
568.6884240000003
 21
245.9684329999999
 31
0.0
  0
LINE
  5
C152
330
BF35
100
AcDbEntity
  8
1
  6
Continuous
100
AcDbLine
 10
567.3884239999997
 20
250.668433
 30
0.0
 11
568.6884240000003
 21
251.968433
 31
0.0
  0
LINE
  5
C153
330
BF35
100
AcDbEntity
  8
1
  6
Continuous
100
AcDbLine
 10
635.5454299999999
 20
237.0179709999999
 30
0.0
 11
635.5454299999999
 21
199.968433
 31
0.0
  0
ARC
  5
C154
330
BF35
100
AcDbEntity
  8
1
  6
Continuous
100
AcDbCircle
 10
632.54543
 20
199.968433
 30
0.0
 40
3.0
100
AcDbArc
 50
270.0
 51
0.0
  0
ARC
  5
C155
330
BF35
100
AcDbEntity
  8
1
  6
Continuous
100
AcDbCircle
 10
628.94543
 20
193.968433
 30
0.0
 40
3.0
100
AcDbArc
 50
90.0
 51
180.0
  0
LINE
  5
C156
330
BF35
100
AcDbEntity
  8
1
  6
Continuous
100
AcDbLine
 10
628.94543
 20
196.9684329999998
 30
0.0
 11
632.54543
 21
196.9684329999998
 31
0.0
  0
ARC
  5
C157
330
BF35
100
AcDbEntity
  8
1
  6
Continuous
100
AcDbCircle
 10
623.20168
 20
242.2184329999998
 30
0.0
 40
0.25625
100
AcDbArc
 50
180.0
 51
257.319617
  0
LINE
  5
C158
330
BF35
100
AcDbEntity
  8
1
  6
Continuous
100
AcDbLine
 10
631.5454299999998
 20
250.6482419999999
 30
0.0
 11
631.5454299999998
 21
240.468433
 31
0.0
  0
LINE
  5
C159
330
BF35
100
AcDbEntity
  8
1
  6
Continuous
100
AcDbLine
 10
623.34543
 20
262.668308
 30
0.0
 11
623.34543
 21
240.468433
 31
0.0
  0
LINE
  5
C15A
330
BF35
100
AcDbEntity
  8
1
  6
Continuous
100
AcDbLine
 10
622.84543
 20
261.7112189999999
 30
0.0
 11
622.84543
 21
240.718433
 31
0.0
  0
LINE
  5
C15B
330
BF35
100
AcDbEntity
  8
1
  6
Continuous
100
AcDbLine
 10
620.8454299999997
 20
261.7112189999999
 30
0.0
 11
620.8454299999997
 21
240.718433
 31
0.0
  0
LINE
  5
C15C
330
BF35
100
AcDbEntity
  8
1
  6
Continuous
100
AcDbLine
 10
633.0949679999998
 20
239.468433
 30
0.0
 11
624.3454299999997
 21
239.468433
 31
0.0
  0
LINE
  5
C15D
330
BF35
100
AcDbEntity
  8
1
  6
Continuous
100
AcDbLine
 10
620.8454299999997
 20
240.718433
 30
0.0
 11
622.84543
 21
240.718433
 31
0.0
  0
ARC
  5
C15E
330
BF35
100
AcDbEntity
  8
1
  6
Continuous
100
AcDbCircle
 10
624.3454299999997
 20
240.468433
 30
0.0
 40
1.0
100
AcDbArc
 50
180.0
 51
270.0
  0
LINE
  5
C15F
330
BF35
100
AcDbEntity
  8
1
  6
Continuous
100
AcDbLine
 10
623.34543
 20
241.9684329999999
 30
0.0
 11
623.14543
 21
241.9684329999999
 31
0.0
  0
LINE
  5
C160
330
BF35
100
AcDbEntity
  8
1
  6
Continuous
100
AcDbLine
 10
633.0949679999998
 20
239.468433
 30
0.0
 11
635.5454299999999
 21
237.0179709999999
 31
0.0
  0
ARC
  5
C161
330
BF35
100
AcDbEntity
  8
1
  6
Continuous
100
AcDbCircle
 10
632.54543
 20
240.468433
 30
0.0
 40
1.0
100
AcDbArc
 50
180.0
 51
270.0
  0
LINE
  5
C162
330
BF35
100
AcDbEntity
  8
1
  6
Continuous
100
AcDbLine
 10
621.14543
 20
262.668308
 30
0.0
 11
623.34543
 21
262.668308
 31
0.0
  0
LINE
  5
C163
330
BF35
100
AcDbEntity
  8
1
  6
Continuous
100
AcDbLine
 10
622.94543
 20
257.8684329999999
 30
0.0
 11
622.84543
 21
257.8684329999999
 31
0.0
  0
LINE
  5
C164
330
BF35
100
AcDbEntity
  8
1
  6
Continuous
100
AcDbLine
 10
623.14543
 20
260.628687
 30
0.0
 11
623.34543
 21
260.628687
 31
0.0
  0
ARC
  5
C165
330
BF35
100
AcDbEntity
  8
1
  6
Continuous
100
AcDbCircle
 10
623.14543
 20
260.428687
 30
0.0
 40
0.2
100
AcDbArc
 50
90.0
 51
180.0
  0
LINE
  5
C166
330
BF35
100
AcDbEntity
  8
1
  6
Continuous
100
AcDbLine
 10
618.84543
 20
252.6252869999999
 30
0.0
 11
620.8454299999997
 21
252.6252869999999
 31
0.0
  0
LINE
  5
C167
330
BF35
100
AcDbEntity
  8
1
  6
Continuous
100
AcDbLine
 10
618.84543
 20
256.968433
 30
0.0
 11
620.8454299999997
 21
256.968433
 31
0.0
  0
LINE
  5
C168
330
BF35
100
AcDbEntity
  8
1
  6
Continuous
100
AcDbLine
 10
620.8454299999997
 20
261.7112189999999
 30
0.0
 11
622.84543
 21
261.7112189999999
 31
0.0
  0
LINE
  5
C169
330
BF35
100
AcDbEntity
  8
1
  6
Continuous
100
AcDbLine
 10
622.94543
 20
246.0684329999998
 30
0.0
 11
622.84543
 21
246.0684329999998
 31
0.0
  0
LINE
  5
C16A
330
BF35
100
AcDbEntity
  8
1
  6
Continuous
100
AcDbLine
 10
618.84543
 20
246.968433
 30
0.0
 11
620.8454299999997
 21
246.968433
 31
0.0
  0
LINE
  5
C16B
330
BF35
100
AcDbEntity
  8
1
  6
Continuous
100
AcDbLine
 10
618.84543
 20
251.311579
 30
0.0
 11
620.8454299999997
 21
251.311579
 31
0.0
  0
LINE
  5
C16C
330
BF35
100
AcDbEntity
  8
1
  6
Continuous
100
AcDbLine
 10
622.94543
 20
260.428687
 30
0.0
 11
622.94543
 21
242.2184329999998
 31
0.0
  0
LINE
  5
C16D
330
BF35
100
AcDbEntity
  8
1
  6
Continuous
100
AcDbLine
 10
618.84543
 20
256.968433
 30
0.0
 11
618.84543
 21
246.968433
 31
0.0
  0
LINE
  5
C16E
330
BF35
100
AcDbEntity
  8
1
  6
Continuous
100
AcDbLine
 10
638.54543
 20
263.468433
 30
0.0
 11
638.54543
 21
252.968433
 31
0.0
  0
LINE
  5
C16F
330
BF35
100
AcDbEntity
  8
1
  6
Continuous
100
AcDbLine
 10
552.173914
 20
275.968402
 30
0.0
 11
547.6739139999998
 21
275.968402
 31
0.0
  0
LINE
  5
C170
330
BF35
100
AcDbEntity
  8
4
  6
CENTER
100
AcDbLine
 10
541.0332599999998
 20
269.968402
 30
0.0
 11
554.988027
 21
269.968402
 31
0.0
  0
LINE
  5
C171
330
BF35
100
AcDbEntity
  8
1
  6
Continuous
100
AcDbLine
 10
552.173914
 20
264.968402
 30
0.0
 11
547.6739139999998
 21
264.968402
 31
0.0
  0
ARC
  5
C172
330
BF35
100
AcDbEntity
  8
1
  6
Continuous
100
AcDbCircle
 10
547.6739139999998
 20
275.468402
 30
0.0
 40
0.5
100
AcDbArc
 50
90.0
 51
180.0
  0
ARC
  5
C173
330
BF35
100
AcDbEntity
  8
1
  6
Continuous
100
AcDbCircle
 10
547.6739139999998
 20
265.468402
 30
0.0
 40
0.5
100
AcDbArc
 50
180.0
 51
270.0
  0
ARC
  5
C174
330
BF35
100
AcDbEntity
  8
1
  6
Continuous
100
AcDbCircle
 10
552.5739139999997
 20
269.968402
 30
0.0
 40
9.0
100
AcDbArc
 50
164.1191499999998
 51
195.88085
  0
LINE
  5
C175
330
BF35
100
AcDbEntity
  8
1
  6
Continuous
100
AcDbLine
 10
546.1739139999998
 20
273.7684019999999
 30
0.0
 11
546.1739139999998
 21
266.168402
 31
0.0
  0
LINE
  5
C176
330
BF35
100
AcDbEntity
  8
1
  6
Continuous
100
AcDbLine
 10
547.1739139999998
 20
273.7684019999999
 30
0.0
 11
547.1739139999998
 21
266.168402
 31
0.0
  0
LINE
  5
C177
330
BF35
100
AcDbEntity
  8
1
  6
Continuous
100
AcDbLine
 10
546.1739139999998
 20
266.468402
 30
0.0
 11
545.054499
 21
266.5663379999999
 31
0.0
  0
ARC
  5
C178
330
BF35
100
AcDbEntity
  8
1
  6
Continuous
100
AcDbCircle
 10
545.1678020000001
 20
267.861391
 30
0.0
 40
1.3
100
AcDbArc
 50
195.88085
 51
265.0
  0
LINE
  5
C179
330
BF35
100
AcDbEntity
  8
1
  6
Continuous
100
AcDbLine
 10
546.1739139999998
 20
266.168402
 30
0.0
 11
547.1739139999998
 21
266.168402
 31
0.0
  0
LINE
  5
C17A
330
BF35
100
AcDbEntity
  8
1
  6
Continuous
100
AcDbLine
 10
546.1739139999998
 20
273.468402
 30
0.0
 11
545.054499
 21
273.370466
 31
0.0
  0
ARC
  5
C17B
330
BF35
100
AcDbEntity
  8
1
  6
Continuous
100
AcDbCircle
 10
545.1678020000001
 20
272.0754129999999
 30
0.0
 40
1.3
100
AcDbArc
 50
95.0
 51
164.1191499999998
  0
LINE
  5
C17C
330
BF35
100
AcDbEntity
  8
1
  6
Continuous
100
AcDbLine
 10
546.1739139999998
 20
273.7684019999999
 30
0.0
 11
547.1739139999998
 21
273.7684019999999
 31
0.0
  0
LINE
  5
C17D
330
BF35
100
AcDbEntity
  8
1
  6
Continuous
100
AcDbLine
 10
547.1739139999998
 20
269.968402
 30
0.0
 11
546.1739139999998
 21
268.968402
 31
0.0
  0
LINE
  5
C17E
330
BF35
100
AcDbEntity
  8
1
  6
Continuous
100
AcDbLine
 10
546.1739139999998
 20
269.968402
 30
0.0
 11
547.1739139999998
 21
270.968402
 31
0.0
  0
LINE
  5
C17F
330
BF35
100
AcDbEntity
  8
1
  6
Continuous
100
AcDbLine
 10
547.1739139999998
 20
265.468402
 30
0.0
 11
547.1739139999998
 21
275.468402
 31
0.0
  0
LINE
  5
C180
330
BF35
100
AcDbEntity
  8
1
  6
Continuous
100
AcDbLine
 10
552.173914
 20
264.968402
 30
0.0
 11
552.173914
 21
275.968402
 31
0.0
  0
LINE
  5
C181
330
BF35
100
AcDbEntity
  8
1
  6
Continuous
100
AcDbLine
 10
639.5454299999999
 20
264.468433
 30
0.0
 11
621.3454299999997
 21
264.468433
 31
0.0
  0
ARC
  5
C182
330
BF35
100
AcDbEntity
  8
1
  6
Continuous
100
AcDbCircle
 10
621.3454299999997
 20
264.268433
 30
0.0
 40
0.2
100
AcDbArc
 50
90.0
 51
180.0
  0
LINE
  5
C183
330
BF35
100
AcDbEntity
  8
1
  6
Continuous
100
AcDbLine
 10
640.54543
 20
276.968433
 30
0.0
 11
642.04543
 21
276.968433
 31
0.0
  0
LINE
  5
C184
330
BF35
100
AcDbEntity
  8
1
  6
Continuous
100
AcDbLine
 10
639.5454299999999
 20
276.968433
 30
0.0
 11
640.54543
 21
276.968433
 31
0.0
  0
LINE
  5
C185
330
BF35
100
AcDbEntity
  8
1
  6
Continuous
100
AcDbLine
 10
635.5454299999999
 20
266.9684329999999
 30
0.0
 11
635.5454299999999
 21
272.9684329999999
 31
0.0
  0
LINE
  5
C186
330
BF35
100
AcDbEntity
  8
1
  6
Continuous
100
AcDbLine
 10
636.04543
 20
273.4684329999998
 30
0.0
 11
636.04543
 21
266.468433
 31
0.0
  0
LINE
  5
C187
330
BF35
100
AcDbEntity
  8
1
  6
Continuous
100
AcDbLine
 10
636.04543
 20
266.468433
 30
0.0
 11
639.5454299999999
 21
266.468433
 31
0.0
  0
LINE
  5
C188
330
BF35
100
AcDbEntity
  8
1
  6
Continuous
100
AcDbLine
 10
635.5454299999999
 20
266.9684329999999
 30
0.0
 11
636.04543
 21
266.468433
 31
0.0
  0
LINE
  5
C189
330
BF35
100
AcDbEntity
  8
1
  6
Continuous
100
AcDbLine
 10
636.04543
 20
273.4684329999998
 30
0.0
 11
639.5454299999999
 21
273.4684329999998
 31
0.0
  0
LINE
  5
C18A
330
BF35
100
AcDbEntity
  8
1
  6
Continuous
100
AcDbLine
 10
636.04543
 20
273.4684329999998
 30
0.0
 11
635.5454299999999
 21
272.9684329999999
 31
0.0
  0
LINE
  5
C18B
330
BF35
100
AcDbEntity
  8
1
  6
Continuous
100
AcDbLine
 10
642.04543
 20
276.968433
 30
0.0
 11
643.5454299999999
 21
273.968433
 31
0.0
  0
LINE
  5
C18C
330
BF35
100
AcDbEntity
  8
5
  6
PHANTOM
100
AcDbLine
 10
645.717003
 20
244.3826469999999
 30
0.0
 11
675.2543219999997
 21
214.845327
 31
0.0
  0
LINE
  5
C18D
330
BF35
100
AcDbEntity
  8
5
  6
PHANTOM
100
AcDbLine
 10
647.474362
 20
251.1105689999999
 30
0.0
 11
697.8817389999997
 21
200.703192
 31
0.0
  0
ARC
  5
C18E
330
BF35
100
AcDbEntity
  8
5
  6
PHANTOM
100
AcDbCircle
 10
671.0116819999998
 20
210.6026869999999
 30
0.0
 40
6.0
100
AcDbArc
 50
315.0
 51
45.0
  0
LINE
  5
C18F
330
BF35
100
AcDbEntity
  8
5
  6
PHANTOM
100
AcDbLine
 10
673.4158449999998
 20
201.693141
 30
0.0
 11
683.747619
 21
191.361367
 31
0.0
  0
LINE
  5
C190
330
BF35
100
AcDbEntity
  8
5
  6
PHANTOM
100
AcDbLine
 10
673.4158449999998
 20
204.521568
 30
0.0
 11
675.2543219999997
 21
206.3600459999999
 31
0.0
  0
ARC
  5
C191
330
BF35
100
AcDbEntity
  8
5
  6
PHANTOM
100
AcDbCircle
 10
674.830058
 20
203.107355
 30
0.0
 40
2.0
100
AcDbArc
 50
135.0
 51
225.0
  0
LINE
  5
C192
330
BF35
100
AcDbEntity
  8
5
  6
PHANTOM
100
AcDbLine
 10
697.8817389999997
 20
199.2889779999999
 30
0.0
 11
695.053312
 21
196.460551
 31
0.0
  0
ARC
  5
C193
330
BF35
100
AcDbEntity
  8
5
  6
PHANTOM
100
AcDbCircle
 10
639.5454299999999
 20
251.968433
 30
0.0
 40
78.5
100
AcDbArc
 50
309.1448759999999
 51
315.0
  0
ARC
  5
C194
330
BF35
100
AcDbEntity
  8
5
  6
PHANTOM
100
AcDbCircle
 10
686.576046
 20
194.189794
 30
0.0
 40
4.0
100
AcDbArc
 50
225.0
 51
309.1448759999999
  0
ARC
  5
C195
330
BF35
100
AcDbEntity
  8
5
  6
PHANTOM
100
AcDbCircle
 10
697.174633
 20
199.9960849999999
 30
0.0
 40
1.0
100
AcDbArc
 50
315.0
 51
45.0
  0
LINE
  5
C196
330
BF35
100
AcDbEntity
  8
5
  6
PHANTOM
100
AcDbLine
 10
644.54543
 20
260.3684329999999
 30
0.0
 11
644.54543
 21
258.181637
 31
0.0
  0
ARC
  5
C197
330
BF35
100
AcDbEntity
  8
1
  6
Continuous
100
AcDbCircle
 10
648.3135539999998
 20
255.0797029999999
 30
0.0
 40
1.0
100
AcDbArc
 50
315.0
 51
45.0
  0
LINE
  5
C198
330
BF35
100
AcDbEntity
  8
1
  6
Continuous
100
AcDbLine
 10
649.020661
 20
254.3725959999999
 30
0.0
 11
647.474362
 21
252.826298
 31
0.0
  0
LINE
  5
C199
330
BF35
100
AcDbEntity
  8
1
  6
Continuous
100
AcDbLine
 10
646.192234
 20
258.6152369999999
 30
0.0
 11
649.020661
 21
255.7868099999998
 31
0.0
  0
ARC
  5
C19A
330
BF35
100
AcDbEntity
  8
5
  6
PHANTOM
100
AcDbCircle
 10
648.54543
 20
247.211074
 30
0.0
 40
4.0
100
AcDbArc
 50
188.0986709999998
 51
225.0
  0
LINE
  5
C19B
330
BF35
100
AcDbEntity
  8
5
  6
PHANTOM
100
AcDbLine
 10
644.54543
 20
242.568433
 30
0.0
 11
647.5312159999997
 21
242.568433
 31
0.0
  0
ENDSEC
  0
SECTION
  2
OBJECTS
  0
DICTIONARY
  5
BF23
330
0
100
AcDbDictionary
281
     1
  3
ACAD_CIP_PREVIOUS_PRODUCT_INFO
350
C201
  3
ACAD_COLOR
350
C1E3
  3
ACAD_DETAILVIEWSTYLE
350
C1FC
  3
ACAD_GROUP
350
BF24
  3
ACAD_LAYOUT
350
BF30
  3
ACAD_MATERIAL
350
C1B1
  3
ACAD_MLEADERSTYLE
350
C1F8
  3
ACAD_MLINESTYLE
350
BF2D
  3
ACAD_PLOTSETTINGS
350
BF2F
  3
ACAD_PLOTSTYLENAME
350
C1AF
  3
ACAD_SCALELIST
350
C1E6
  3
ACAD_SECTIONVIEWSTYLE
350
C1FA
  3
ACAD_TABLESTYLE
350
C1E4
  3
ACAD_VISUALSTYLE
350
C1CA
  3
ACDB_RECOMPOSE_DATA
350
C21F
  3
AcDbVariableDictionary
350
C212
  3
DWGPROPS
350
C220
  0
DICTIONARY
  5
C202
330
BF27
100
AcDbDictionary
280
     1
281
     1
  3
ADSK_XREC_LAYER_RECONCILED
360
C203
  0
DICTIONARY
  5
C204
330
BF3D
100
AcDbDictionary
280
     1
281
     1
  3
ADSK_XREC_LAYER_RECONCILED
360
C205
  0
DICTIONARY
  5
C206
330
BF3E
100
AcDbDictionary
280
     1
281
     1
  3
ADSK_XREC_LAYER_RECONCILED
360
C207
  0
DICTIONARY
  5
C208
330
BF3F
100
AcDbDictionary
280
     1
281
     1
  3
ADSK_XREC_LAYER_RECONCILED
360
C209
  0
DICTIONARY
  5
C20A
330
BF40
100
AcDbDictionary
280
     1
281
     1
  3
ADSK_XREC_LAYER_RECONCILED
360
C20B
  0
DICTIONARY
  5
C20C
330
BF41
100
AcDbDictionary
280
     1
281
     1
  3
ADSK_XREC_LAYER_RECONCILED
360
C20D
  0
DICTIONARY
  5
C20E
330
BF42
100
AcDbDictionary
280
     1
281
     1
  3
ADSK_XREC_LAYER_RECONCILED
360
C20F
  0
DICTIONARY
  5
C210
330
BF43
100
AcDbDictionary
280
     1
281
     1
  3
ADSK_XREC_LAYER_RECONCILED
360
C211
  0
DICTIONARY
  5
C1AA
330
BF35
100
AcDbDictionary
281
     1
  3
ACAD_LAYOUTSELFREF
350
C1AB
  0
DICTIONARY
  5
C1A8
330
BF31
100
AcDbDictionary
281
     1
  3
ACAD_LAYOUTSELFREF
350
C1A9
  0
XRECORD
  5
C201
102
{ACAD_REACTORS
330
BF23
102
}
330
BF23
100
AcDbXrecord
280
     1
300
ACDLT
300
2014
300
ACDLT_F_S
  0
DICTIONARY
  5
C1E3
102
{ACAD_REACTORS
330
BF23
102
}
330
BF23
100
AcDbDictionary
281
     1
  0
DICTIONARY
  5
C1FC
102
{ACAD_REACTORS
330
BF23
102
}
330
BF23
100
AcDbDictionary
281
     1
  3
Imperial24
350
C1FD
  0
DICTIONARY
  5
BF24
102
{ACAD_REACTORS
330
BF23
102
}
330
BF23
100
AcDbDictionary
281
     1
  0
DICTIONARY
  5
BF30
102
{ACAD_REACTORS
330
BF23
102
}
330
BF23
100
AcDbDictionary
281
     1
  3
Model
350
C1FE
  3
レイアウト1
350
C1FF
  0
DICTIONARY
  5
C1B1
102
{ACAD_REACTORS
330
BF23
102
}
330
BF23
100
AcDbDictionary
281
     1
  3
ByBlock
350
C1BA
  3
ByLayer
350
C1B2
  3
Global
350
C1C2
  0
DICTIONARY
  5
C1F8
102
{ACAD_REACTORS
330
BF23
102
}
330
BF23
100
AcDbDictionary
281
     1
  3
Standard
350
C1F9
  0
DICTIONARY
  5
BF2D
102
{ACAD_REACTORS
330
BF23
102
}
330
BF23
100
AcDbDictionary
281
     1
  3
STANDARD
350
BF2E
  0
DICTIONARY
  5
BF2F
102
{ACAD_REACTORS
330
BF23
102
}
330
BF23
100
AcDbDictionary
281
     1
  0
ACDBDICTIONARYWDFLT
  5
C1AF
102
{ACAD_REACTORS
330
BF23
102
}
330
BF23
100
AcDbDictionary
281
     1
  3
Normal
350
C1B0
100
AcDbDictionaryWithDefault
340
C1B0
  0
DICTIONARY
  5
C1E6
102
{ACAD_REACTORS
330
BF23
102
}
330
BF23
100
AcDbDictionary
281
     1
  3
A0
350
C1E7
  3
A1
350
C1E8
  3
A2
350
C1E9
  3
A3
350
C1EA
  3
A4
350
C1EB
  3
A5
350
C1EC
  3
A6
350
C1ED
  3
A7
350
C1EE
  3
A8
350
C1EF
  3
A9
350
C1F0
  3
B0
350
C1F1
  3
B1
350
C1F2
  3
B2
350
C1F3
  3
B3
350
C1F4
  3
B4
350
C1F5
  3
B5
350
C1F6
  3
B6
350
C1F7
  0
DICTIONARY
  5
C1FA
102
{ACAD_REACTORS
330
BF23
102
}
330
BF23
100
AcDbDictionary
281
     1
  3
Imperial24
350
C1FB
  0
DICTIONARY
  5
C1E4
102
{ACAD_REACTORS
330
BF23
102
}
330
BF23
100
AcDbDictionary
281
     1
  3
Standard
350
C1E5
  0
DICTIONARY
  5
C1CA
102
{ACAD_REACTORS
330
BF23
102
}
330
BF23
100
AcDbDictionary
281
     1
  3
2dWireframe
350
C1D0
  3
Basic
350
C1CF
  3
Brighten
350
C1D6
  3
ColorChange
350
C1DA
  3
Conceptual
350
C1D3
  3
Dim
350
C1D5
  3
EdgeColorOff
350
C1E2
  3
Facepattern
350
C1D9
  3
Flat
350
C1CB
  3
FlatWithEdges
350
C1CC
  3
Gouraud
350
C1CD
  3
GouraudWithEdges
350
C1CE
  3
Hidden
350
C1D2
  3
JitterOff
350
C1E0
  3
Linepattern
350
C1D8
  3
OverhangOff
350
C1E1
  3
Realistic
350
C1D4
  3
Shaded
350
C1DF
  3
Shaded with edges
350
C1DE
  3
Shades of Gray
350
C1DB
  3
Sketchy
350
C1DC
  3
Thicken
350
C1D7
  3
Wireframe
350
C1D1
  3
X-Ray
350
C1DD
  0
XRECORD
  5
C21F
102
{ACAD_REACTORS
330
BF23
102
}
330
BF23
100
AcDbXrecord
280
     1
 90
        1
330
C1E5
  0
DICTIONARY
  5
C212
102
{ACAD_REACTORS
330
BF23
102
}
330
BF23
100
AcDbDictionary
281
     1
  3
CANNOSCALE
350
C217
  3
CMLEADERSTYLE
350
C214
  3
CTABLESTYLE
350
C213
  3
CVIEWDETAILSTYLE
350
C215
  3
CVIEWSECTIONSTYLE
350
C216
  3
DIMASSOC
350
C21A
  3
INDEXCTL
350
C219
  3
SORTENTS
350
C218
  3
XCLIPFRAME
350
C21B
  0
XRECORD
  5
C220
102
{ACAD_REACTORS
330
BF23
102
}
330
BF23
100
AcDbXrecord
280
     1
  1
DWGPROPS COOKIE
  2

  3

  4

  6

  7

  8
Yoshitsune
  9

300
=
301
=
302
=
303
=
304
=
305
=
306
=
307
=
308
=
309
=
 40
0.0000140162037037
 41
2451345.42639919
 42
2457192.643574861
  1

 90
        0
  0
XRECORD
  5
C203
102
{ACAD_REACTORS
330
C202
102
}
330
C202
100
AcDbXrecord
280
     1
290
     1
  0
XRECORD
  5
C205
102
{ACAD_REACTORS
330
C204
102
}
330
C204
100
AcDbXrecord
280
     1
290
     1
  0
XRECORD
  5
C207
102
{ACAD_REACTORS
330
C206
102
}
330
C206
100
AcDbXrecord
280
     1
290
     1
  0
XRECORD
  5
C209
102
{ACAD_REACTORS
330
C208
102
}
330
C208
100
AcDbXrecord
280
     1
290
     1
  0
XRECORD
  5
C20B
102
{ACAD_REACTORS
330
C20A
102
}
330
C20A
100
AcDbXrecord
280
     1
290
     1
  0
XRECORD
  5
C20D
102
{ACAD_REACTORS
330
C20C
102
}
330
C20C
100
AcDbXrecord
280
     1
290
     1
  0
XRECORD
  5
C20F
102
{ACAD_REACTORS
330
C20E
102
}
330
C20E
100
AcDbXrecord
280
     1
290
     1
  0
XRECORD
  5
C211
102
{ACAD_REACTORS
330
C210
102
}
330
C210
100
AcDbXrecord
280
     1
290
     1
  0
XRECORD
  5
C1AB
102
{ACAD_REACTORS
330
C1AA
102
}
330
C1AA
100
AcDbXrecord
280
     1
340
BF35
  0
XRECORD
  5
C1A9
102
{ACAD_REACTORS
330
C1A8
102
}
330
C1A8
100
AcDbXrecord
280
     1
340
BF31
  0
ACDBDETAILVIEWSTYLE
  5
C1FD
102
{ACAD_XDICTIONARY
360
C258
102
}
102
{ACAD_REACTORS
330
C1FC
102
}
330
C1FC
100
AcDbModelDocViewStyle
 70
     0
  3
Imperial24
290
     0
100
AcDbDetailViewStyle
 70
     0
 71
     0
 90
        3
 71
     1
340
BF28
 40
0.24
340
0
 40
0.24
300

 40
0.36
280
     3
 71
     2
340
BF2C
 90
       25
 71
     3
340
BF28
 40
0.24
 90
        1
 40
0.75
 90
        1
300
%<\AcVar ViewType \f "%tc1">% %<\AcVar ViewDetailId>%\PSCALE %<\AcVar ViewScale \f "%sn">%
 71
     4
340
BF2C
 90
       25
340
BF2C
 90
       25
280
     0
  0
LAYOUT
  5
C1FE
102
{ACAD_XDICTIONARY
360
C25A
102
}
102
{ACAD_REACTORS
330
BF30
102
}
330
BF30
100
AcDbPlotSettings
  1

  2
Canon LBP9100C
  4

  6

 40
0.0
 41
0.0
 42
0.0
 43
0.0
 44
0.0
 45
0.0
 46
0.0
 47
0.0
 48
0.0
 49
0.0
140
0.0
141
0.0
142
1.0
143
1.0
 70
  1712
 72
     0
 73
     0
 74
     0
  7

 75
     0
147
1.0
148
0.0
149
0.0
100
AcDbLayout
  1
Model
 70
     1
 71
     0
 10
0.0
 20
0.0
 11
12.0
 21
9.0
 12
0.0
 22
0.0
 32
0.0
 14
0.0
 24
0.0
 34
0.0
 15
0.0
 25
0.0
 35
0.0
146
0.0
 13
0.0
 23
0.0
 33
0.0
 16
1.0
 26
0.0
 36
0.0
 17
0.0
 27
1.0
 37
0.0
 76
     0
330
BF35
331
C1A7
  0
LAYOUT
  5
C1FF
102
{ACAD_XDICTIONARY
360
C25C
102
}
102
{ACAD_REACTORS
330
BF30
102
}
330
BF30
100
AcDbPlotSettings
  1

  2
Canon LBP9100C
  4

  6

 40
0.0
 41
0.0
 42
0.0
 43
0.0
 44
0.0
 45
0.0
 46
0.0
 47
0.0
 48
0.0
 49
0.0
140
0.0
141
0.0
142
1.0
143
1.0
 70
   688
 72
     0
 73
     0
 74
     5
  7

 75
    16
147
1.0
148
0.0
149
0.0
100
AcDbLayout
  1
レイアウト1
 70
     0
 71
     1
 10
0.0
 20
0.0
 11
420.0
 21
297.0
 12
0.0
 22
0.0
 32
0.0
 14
1.000000000000000E+20
 24
1.000000000000000E+20
 34
1.000000000000000E+20
 15
-1.000000000000000E+20
 25
-1.000000000000000E+20
 35
-1.000000000000000E+20
146
0.0
 13
0.0
 23
0.0
 33
0.0
 16
1.0
 26
0.0
 36
0.0
 17
0.0
 27
1.0
 37
0.0
 76
     0
330
BF31
  0
MATERIAL
  5
C1BA
102
{ACAD_XDICTIONARY
360
C1BB
102
}
102
{ACAD_REACTORS
330
C1B1
102
}
330
C1B1
100
AcDbMaterial
  1
ByBlock
 72
     0
 43
0.0208333333333333
 43
0.0
 43
0.0
 43
0.0
 43
0.0
 43
0.0208333333333333
 43
0.0
 43
0.0
 43
0.0
 43
0.0
 43
1.0
 43
0.0
 43
0.0
 43
0.0
 43
0.0
 43
1.0
 77
     0
 47
0.0208333333333333
 47
0.0
 47
0.0
 47
0.0
 47
0.0
 47
0.0208333333333333
 47
0.0
 47
0.0
 47
0.0
 47
0.0
 47
1.0
 47
0.0
 47
0.0
 47
0.0
 47
0.0
 47
1.0
171
     0
 49
0.0208333333333333
 49
0.0
 49
0.0
 49
0.0
 49
0.0
 49
0.0208333333333333
 49
0.0
 49
0.0
 49
0.0
 49
0.0
 49
1.0
 49
0.0
 49
0.0
 49
0.0
 49
0.0
 49
1.0
175
     0
142
0.0208333333333333
142
0.0
142
0.0
142
0.0
142
0.0
142
0.0208333333333333
142
0.0
142
0.0
142
0.0
142
0.0
142
1.0
142
0.0
142
0.0
142
0.0
142
0.0
142
1.0
179
     0
144
0.0208333333333333
144
0.0
144
0.0
144
0.0
144
0.0
144
0.0208333333333333
144
0.0
144
0.0
144
0.0
144
0.0
144
1.0
144
0.0
144
0.0
144
0.0
144
0.0
144
1.0
147
0.0208333333333333
147
0.0
147
0.0
147
0.0
147
0.0
147
0.0208333333333333
147
0.0
147
0.0
147
0.0
147
0.0
147
1.0
147
0.0
147
0.0
147
0.0
147
0.0
147
1.0
  0
MATERIAL
  5
C1B2
102
{ACAD_XDICTIONARY
360
C1B3
102
}
102
{ACAD_REACTORS
330
C1B1
102
}
330
C1B1
100
AcDbMaterial
  1
ByLayer
 72
     0
 43
0.0208333333333333
 43
0.0
 43
0.0
 43
0.0
 43
0.0
 43
0.0208333333333333
 43
0.0
 43
0.0
 43
0.0
 43
0.0
 43
1.0
 43
0.0
 43
0.0
 43
0.0
 43
0.0
 43
1.0
 77
     0
 47
0.0208333333333333
 47
0.0
 47
0.0
 47
0.0
 47
0.0
 47
0.0208333333333333
 47
0.0
 47
0.0
 47
0.0
 47
0.0
 47
1.0
 47
0.0
 47
0.0
 47
0.0
 47
0.0
 47
1.0
171
     0
 49
0.0208333333333333
 49
0.0
 49
0.0
 49
0.0
 49
0.0
 49
0.0208333333333333
 49
0.0
 49
0.0
 49
0.0
 49
0.0
 49
1.0
 49
0.0
 49
0.0
 49
0.0
 49
0.0
 49
1.0
175
     0
142
0.0208333333333333
142
0.0
142
0.0
142
0.0
142
0.0
142
0.0208333333333333
142
0.0
142
0.0
142
0.0
142
0.0
142
1.0
142
0.0
142
0.0
142
0.0
142
0.0
142
1.0
179
     0
144
0.0208333333333333
144
0.0
144
0.0
144
0.0
144
0.0
144
0.0208333333333333
144
0.0
144
0.0
144
0.0
144
0.0
144
1.0
144
0.0
144
0.0
144
0.0
144
0.0
144
1.0
147
0.0208333333333333
147
0.0
147
0.0
147
0.0
147
0.0
147
0.0208333333333333
147
0.0
147
0.0
147
0.0
147
0.0
147
1.0
147
0.0
147
0.0
147
0.0
147
0.0
147
1.0
  0
MATERIAL
  5
C1C2
102
{ACAD_XDICTIONARY
360
C1C3
102
}
102
{ACAD_REACTORS
330
C1B1
102
}
330
C1B1
100
AcDbMaterial
  1
Global
 72
     0
 43
0.0208333333333333
 43
0.0
 43
0.0
 43
0.0
 43
0.0
 43
0.0208333333333333
 43
0.0
 43
0.0
 43
0.0
 43
0.0
 43
1.0
 43
0.0
 43
0.0
 43
0.0
 43
0.0
 43
1.0
 77
     0
 47
0.0208333333333333
 47
0.0
 47
0.0
 47
0.0
 47
0.0
 47
0.0208333333333333
 47
0.0
 47
0.0
 47
0.0
 47
0.0
 47
1.0
 47
0.0
 47
0.0
 47
0.0
 47
0.0
 47
1.0
171
     0
 49
0.0208333333333333
 49
0.0
 49
0.0
 49
0.0
 49
0.0
 49
0.0208333333333333
 49
0.0
 49
0.0
 49
0.0
 49
0.0
 49
1.0
 49
0.0
 49
0.0
 49
0.0
 49
0.0
 49
1.0
175
     0
142
0.0208333333333333
142
0.0
142
0.0
142
0.0
142
0.0
142
0.0208333333333333
142
0.0
142
0.0
142
0.0
142
0.0
142
1.0
142
0.0
142
0.0
142
0.0
142
0.0
142
1.0
179
     0
144
0.0208333333333333
144
0.0
144
0.0
144
0.0
144
0.0
144
0.0208333333333333
144
0.0
144
0.0
144
0.0
144
0.0
144
1.0
144
0.0
144
0.0
144
0.0
144
0.0
144
1.0
147
0.0208333333333333
147
0.0
147
0.0
147
0.0
147
0.0
147
0.0208333333333333
147
0.0
147
0.0
147
0.0
147
0.0
147
1.0
147
0.0
147
0.0
147
0.0
147
0.0
147
1.0
  0
MLEADERSTYLE
  5
C1F9
102
{ACAD_REACTORS
330
C1F8
102
}
330
C1F8
100
AcDbMLeaderStyle
170
     2
171
     1
172
     0
 90
        2
 40
0.0
 41
0.0
173
     1
 91
-1056964608
340
BF2A
 92
       -2
290
     1
 42
0.09
291
     1
 43
0.36
  3
Standard
 44
0.18
300

342
BF28
174
     1
178
     6
175
     1
176
     0
 93
-1056964608
 45
0.18
292
     0
297
     0
 46
0.18
 94
-1056964608
 47
1.0
 49
1.0
140
1.0
293
     1
141
0.0
294
     1
177
     0
142
1.0
295
     0
296
     0
143
0.125
1001
ACAD_MLEADERVER
1070
     2
  0
MLINESTYLE
  5
BF2E
102
{ACAD_REACTORS
330
BF2D
102
}
330
BF2D
100
AcDbMlineStyle
  2
STANDARD
 70
     0
  3

 62
   256
 51
90.0
 52
90.0
 71
     2
 49
0.5
 62
   256
  6
BYLAYER
 49
-0.5
 62
   256
  6
BYLAYER
  0
ACDBPLACEHOLDER
  5
C1B0
102
{ACAD_REACTORS
330
C1AF
102
}
330
C1AF
  0
SCALE
  5
C1E7
102
{ACAD_REACTORS
330
C1E6
102
}
330
C1E6
100
AcDbScale
 70
     0
300
1:1
140
1.0
141
1.0
290
     1
  0
SCALE
  5
C1E8
102
{ACAD_REACTORS
330
C1E6
102
}
330
C1E6
100
AcDbScale
 70
     0
300
1/128" = 1'-0"
140
0.0078125
141
12.0
290
     0
  0
SCALE
  5
C1E9
102
{ACAD_REACTORS
330
C1E6
102
}
330
C1E6
100
AcDbScale
 70
     0
300
1/64" = 1'-0"
140
0.015625
141
12.0
290
     0
  0
SCALE
  5
C1EA
102
{ACAD_REACTORS
330
C1E6
102
}
330
C1E6
100
AcDbScale
 70
     0
300
1/32" = 1'-0"
140
0.03125
141
12.0
290
     0
  0
SCALE
  5
C1EB
102
{ACAD_REACTORS
330
C1E6
102
}
330
C1E6
100
AcDbScale
 70
     0
300
1/16" = 1'-0"
140
0.0625
141
12.0
290
     0
  0
SCALE
  5
C1EC
102
{ACAD_REACTORS
330
C1E6
102
}
330
C1E6
100
AcDbScale
 70
     0
300
3/32" = 1'-0"
140
0.09375
141
12.0
290
     0
  0
SCALE
  5
C1ED
102
{ACAD_REACTORS
330
C1E6
102
}
330
C1E6
100
AcDbScale
 70
     0
300
1/8" = 1'-0"
140
0.125
141
12.0
290
     0
  0
SCALE
  5
C1EE
102
{ACAD_REACTORS
330
C1E6
102
}
330
C1E6
100
AcDbScale
 70
     0
300
3/16" = 1'-0"
140
0.1875
141
12.0
290
     0
  0
SCALE
  5
C1EF
102
{ACAD_REACTORS
330
C1E6
102
}
330
C1E6
100
AcDbScale
 70
     0
300
1/4" = 1'-0"
140
0.25
141
12.0
290
     0
  0
SCALE
  5
C1F0
102
{ACAD_REACTORS
330
C1E6
102
}
330
C1E6
100
AcDbScale
 70
     0
300
3/8" = 1'-0"
140
0.375
141
12.0
290
     0
  0
SCALE
  5
C1F1
102
{ACAD_REACTORS
330
C1E6
102
}
330
C1E6
100
AcDbScale
 70
     0
300
1/2" = 1'-0"
140
0.5
141
12.0
290
     0
  0
SCALE
  5
C1F2
102
{ACAD_REACTORS
330
C1E6
102
}
330
C1E6
100
AcDbScale
 70
     0
300
3/4" = 1'-0"
140
0.75
141
12.0
290
     0
  0
SCALE
  5
C1F3
102
{ACAD_REACTORS
330
C1E6
102
}
330
C1E6
100
AcDbScale
 70
     0
300
1" = 1'-0"
140
1.0
141
12.0
290
     0
  0
SCALE
  5
C1F4
102
{ACAD_REACTORS
330
C1E6
102
}
330
C1E6
100
AcDbScale
 70
     0
300
1-1/2" = 1'-0"
140
1.5
141
12.0
290
     0
  0
SCALE
  5
C1F5
102
{ACAD_REACTORS
330
C1E6
102
}
330
C1E6
100
AcDbScale
 70
     0
300
3" = 1'-0"
140
3.0
141
12.0
290
     0
  0
SCALE
  5
C1F6
102
{ACAD_REACTORS
330
C1E6
102
}
330
C1E6
100
AcDbScale
 70
     0
300
6" = 1'-0"
140
6.0
141
12.0
290
     0
  0
SCALE
  5
C1F7
102
{ACAD_REACTORS
330
C1E6
102
}
330
C1E6
100
AcDbScale
 70
     0
300
1'-0" = 1'-0"
140
12.0
141
12.0
290
     0
  0
ACDBSECTIONVIEWSTYLE
  5
C1FB
102
{ACAD_XDICTIONARY
360
C256
102
}
102
{ACAD_REACTORS
330
C1FA
102
}
330
C1FA
100
AcDbModelDocViewStyle
 70
     0
  3
Imperial24
290
     0
100
AcDbSectionViewStyle
 70
     0
 71
     0
 90
       78
 71
     1
340
BF28
 40
0.24
340
0
340
0
 40
0.24
300
I, O, Q, S, X, Z
 40
0.48
 90
        3
 40
0.18
 90
        1
 71
     2
340
BF2C
 90
       25
340
BF2C
 90
       50
 40
0.24
 40
0.0
 40
0.24
 71
     3
340
BF28
 40
0.24
 90
        1
 40
0.75
 90
        1
300
%<\AcVar ViewType \f "%tc1">% %<\AcVar ViewSectionStartId>%-%<\AcVar ViewSectionEndId>%\PSCALE %<\AcVar ViewScale \f "%sn">%
 71
     4
300
ANSI31
 40
1.0
 90
        0
290
     0
290
     0
 90
        6
 40
0.0
 40
1.570796326794896
 40
0.2617993877991494
 40
1.308996938995747
 40
-0.2617993877991494
 40
1.832595714594046
  0
TABLESTYLE
  5
C1E5
102
{ACAD_XDICTIONARY
360
C21D
102
}
102
{ACAD_REACTORS
330
C1E4
102
}
330
C1E4
100
AcDbTableStyle
  3
Standard
 70
     0
 71
     0
 40
0.06
 41
0.06
280
     0
281
     0
  7
STANDARD
140
0.18
170
     2
 62
     0
 63
     7
283
     0
274
    -2
284
     1
 64
     0
275
    -2
285
     1
 65
     0
276
    -2
286
     1
 66
     0
277
    -2
287
     1
 67
     0
278
    -2
288
     1
 68
     0
279
    -2
289
     1
 69
     0
  7
STANDARD
140
0.25
170
     5
 62
     0
 63
     7
283
     0
274
    -2
284
     1
 64
     0
275
    -2
285
     1
 65
     0
276
    -2
286
     1
 66
     0
277
    -2
287
     1
 67
     0
278
    -2
288
     1
 68
     0
279
    -2
289
     1
 69
     0
  7
STANDARD
140
0.18
170
     5
 62
     0
 63
     7
283
     0
274
    -2
284
     1
 64
     0
275
    -2
285
     1
 65
     0
276
    -2
286
     1
 66
     0
277
    -2
287
     1
 67
     0
278
    -2
288
     1
 68
     0
279
    -2
289
     1
 69
     0
  0
VISUALSTYLE
  5
C1D0
102
{ACAD_XDICTIONARY
360
C22E
102
}
102
{ACAD_REACTORS
330
C1CA
102
}
330
C1CA
100
AcDbVisualStyle
  2
2dWireframe
 70
     4
 71
     0
 72
     2
 73
     0
 90
        0
 40
-0.6
 41
-30.0
 62
     5
 63
     7
 74
     1
 91
        4
 64
     7
 65
   257
 75
     1
175
     1
 42
1.0
 92
        0
 66
   257
 43
1.0
 76
     1
 77
     6
 78
     2
 67
     7
 79
     5
170
     0
171
     0
290
     0
174
     0
 93
        1
 44
0.0
173
     0
291
     0
 45
0.0
1001
ACAD
1000
AcDbSavedByObjectVersion
1070
     0
  0
VISUALSTYLE
  5
C1CF
102
{ACAD_XDICTIONARY
360
C22C
102
}
102
{ACAD_REACTORS
330
C1CA
102
}
330
C1CA
100
AcDbVisualStyle
  2
Basic
 70
     7
 71
     1
 72
     0
 73
     1
 90
        0
 40
-0.6
 41
-30.0
 62
     5
 63
     7
 74
     0
 91
        4
 64
     7
 65
   257
 75
     1
175
     1
 42
1.0
 92
        8
 66
     7
 43
1.0
 76
     1
 77
     6
 78
     2
 67
     7
 79
     5
170
     0
171
     0
290
     0
174
     0
 93
        1
 44
0.0
173
     0
291
     1
 45
0.0
1001
ACAD
1000
AcDbSavedByObjectVersion
1070
     0
  0
VISUALSTYLE
  5
C1D6
102
{ACAD_XDICTIONARY
360
C23A
102
}
102
{ACAD_REACTORS
330
C1CA
102
}
330
C1CA
100
AcDbVisualStyle
  2
Brighten
 70
    12
 71
     2
 72
     2
 73
     0
 90
        0
 40
-0.6
 41
-30.0
 62
     5
 63
     7
 74
     1
 91
        4
 64
     7
 65
   257
 75
     1
175
     1
 42
1.0
 92
        8
 66
     7
 43
1.0
 76
     1
 77
     6
 78
     2
 67
     7
 79
     5
170
     0
171
     0
290
     0
174
     0
 93
        1
 44
50.0
173
     0
291
     1
 45
0.0
1001
ACAD
1000
AcDbSavedByObjectVersion
1070
     0
  0
VISUALSTYLE
  5
C1DA
102
{ACAD_XDICTIONARY
360
C242
102
}
102
{ACAD_REACTORS
330
C1CA
102
}
330
C1CA
100
AcDbVisualStyle
  2
ColorChange
 70
    16
 71
     2
 72
     2
 73
     3
 90
        0
 40
-0.6
 41
-30.0
 62
     5
 63
     8
 74
     1
 91
        4
 64
     7
 65
   257
 75
     1
175
     1
 42
1.0
 92
        8
 66
     8
 43
1.0
 76
     1
 77
     6
 78
     2
 67
     7
 79
     5
170
     0
171
     0
290
     0
174
     0
 93
        1
 44
0.0
173
     0
291
     1
 45
0.0
1001
ACAD
1000
AcDbSavedByObjectVersion
1070
     0
  0
VISUALSTYLE
  5
C1D3
102
{ACAD_XDICTIONARY
360
C234
102
}
102
{ACAD_REACTORS
330
C1CA
102
}
330
C1CA
100
AcDbVisualStyle
  2
Conceptual
 70
     9
 71
     3
 72
     2
 73
     0
 90
        0
 40
-0.6
 41
-30.0
 62
     5
 63
     7
 74
     2
 91
        2
 64
     7
 65
   257
 75
     1
175
     1
 42
179.0
 92
        8
 66
     7
 43
1.0
 76
     1
 77
     6
 78
     2
 67
     7
 79
     3
170
     0
171
     0
290
     0
174
     0
 93
        1
 44
0.0
173
     0
291
     0
 45
0.0
1001
ACAD
1000
AcDbSavedByObjectVersion
1070
     0
  0
VISUALSTYLE
  5
C1D5
102
{ACAD_XDICTIONARY
360
C238
102
}
102
{ACAD_REACTORS
330
C1CA
102
}
330
C1CA
100
AcDbVisualStyle
  2
Dim
 70
    11
 71
     2
 72
     2
 73
     0
 90
        0
 40
-0.6
 41
-30.0
 62
     5
 63
     7
 74
     1
 91
        4
 64
     7
 65
   257
 75
     1
175
     1
 42
1.0
 92
        8
 66
     7
 43
1.0
 76
     1
 77
     6
 78
     2
 67
     7
 79
     5
170
     0
171
     0
290
     0
174
     0
 93
        1
 44
-50.0
173
     0
291
     1
 45
0.0
1001
ACAD
1000
AcDbSavedByObjectVersion
1070
     0
  0
VISUALSTYLE
  5
C1E2
102
{ACAD_XDICTIONARY
360
C252
102
}
102
{ACAD_REACTORS
330
C1CA
102
}
330
C1CA
100
AcDbVisualStyle
  2
EdgeColorOff
 70
    22
 71
     2
 72
     2
 73
     0
 90
        0
 40
-0.6
 41
-30.0
 62
     5
 63
     7
 74
     1
 91
        4
 64
     7
 65
   257
 75
     1
175
     1
 42
1.0
 92
        8
 66
     7
 43
1.0
 76
     1
 77
     6
 78
     2
 67
     7
 79
     5
170
     0
171
     0
290
     0
174
     0
 93
        1
 44
0.0
173
     0
291
     1
 45
0.0
1001
ACAD
1000
AcDbSavedByObjectVersion
1070
     0
  0
VISUALSTYLE
  5
C1D9
102
{ACAD_XDICTIONARY
360
C240
102
}
102
{ACAD_REACTORS
330
C1CA
102
}
330
C1CA
100
AcDbVisualStyle
  2
Facepattern
 70
    15
 71
     2
 72
     2
 73
     0
 90
        0
 40
-0.6
 41
-30.0
 62
     5
 63
     7
 74
     1
 91
        4
 64
     7
 65
   257
 75
     1
175
     1
 42
1.0
 92
        8
 66
     7
 43
1.0
 76
     1
 77
     6
 78
     2
 67
     7
 79
     5
170
     0
171
     0
290
     0
174
     0
 93
        1
 44
0.0
173
     0
291
     1
 45
0.0
1001
ACAD
1000
AcDbSavedByObjectVersion
1070
     0
  0
VISUALSTYLE
  5
C1CB
102
{ACAD_XDICTIONARY
360
C224
102
}
102
{ACAD_REACTORS
330
C1CA
102
}
330
C1CA
100
AcDbVisualStyle
  2
Flat
 70
     0
 71
     2
 72
     1
 73
     1
 90
        2
 40
-0.6
 41
30.0
 62
     5
 63
     7
 74
     0
 91
        0
 64
     7
 65
   257
 75
     1
175
     1
 42
1.0
 92
        8
 66
     7
 43
1.0
 76
     1
 77
     6
 78
     2
 67
     7
 79
     5
170
     0
171
     0
290
     0
174
     0
 93
       13
 44
0.0
173
     0
291
     1
 45
0.0
1001
ACAD
1000
AcDbSavedByObjectVersion
1070
     0
  0
VISUALSTYLE
  5
C1CC
102
{ACAD_XDICTIONARY
360
C226
102
}
102
{ACAD_REACTORS
330
C1CA
102
}
330
C1CA
100
AcDbVisualStyle
  2
FlatWithEdges
 70
     1
 71
     2
 72
     1
 73
     1
 90
        2
 40
-0.6
 41
30.0
 62
     5
 63
     7
 74
     1
 91
        0
 64
     7
 65
   257
 75
     1
175
     1
 42
1.0
 92
        0
 66
   257
 43
1.0
 76
     1
 77
     6
 78
     2
 67
     7
 79
     5
170
     0
171
     0
290
     0
174
     0
 93
       13
 44
0.0
173
     0
291
     1
 45
0.0
1001
ACAD
1000
AcDbSavedByObjectVersion
1070
     0
  0
VISUALSTYLE
  5
C1CD
102
{ACAD_XDICTIONARY
360
C228
102
}
102
{ACAD_REACTORS
330
C1CA
102
}
330
C1CA
100
AcDbVisualStyle
  2
Gouraud
 70
     2
 71
     2
 72
     2
 73
     1
 90
        2
 40
-0.6
 41
30.0
 62
     5
 63
     7
 74
     0
 91
        0
 64
     7
 65
   257
 75
     1
175
     1
 42
1.0
 92
        0
 66
     7
 43
1.0
 76
     1
 77
     6
 78
     2
 67
     7
 79
     5
170
     0
171
     0
290
     0
174
     0
 93
       13
 44
0.0
173
     0
291
     1
 45
0.0
1001
ACAD
1000
AcDbSavedByObjectVersion
1070
     0
  0
VISUALSTYLE
  5
C1CE
102
{ACAD_XDICTIONARY
360
C22A
102
}
102
{ACAD_REACTORS
330
C1CA
102
}
330
C1CA
100
AcDbVisualStyle
  2
GouraudWithEdges
 70
     3
 71
     2
 72
     2
 73
     1
 90
        2
 40
-0.6
 41
30.0
 62
     5
 63
     7
 74
     1
 91
        0
 64
     7
 65
   257
 75
     1
175
     1
 42
1.0
 92
        0
 66
   257
 43
1.0
 76
     1
 77
     6
 78
     2
 67
     7
 79
     5
170
     0
171
     0
290
     0
174
     0
 93
       13
 44
0.0
173
     0
291
     1
 45
0.0
1001
ACAD
1000
AcDbSavedByObjectVersion
1070
     0
  0
VISUALSTYLE
  5
C1D2
102
{ACAD_XDICTIONARY
360
C232
102
}
102
{ACAD_REACTORS
330
C1CA
102
}
330
C1CA
100
AcDbVisualStyle
  2
Hidden
 70
     6
 71
     1
 72
     2
 73
     2
 90
        0
 40
-0.6
 41
-30.0
 62
     5
 63
     7
 74
     2
 91
        2
 64
     7
 65
   257
 75
     2
175
     1
 42
40.0
 92
        0
 66
   257
 43
1.0
 76
     1
 77
     6
 78
     2
 67
     7
 79
     3
170
     0
171
     0
290
     0
174
     0
 93
        1
 44
0.0
173
     0
291
     0
 45
0.0
1001
ACAD
1000
AcDbSavedByObjectVersion
1070
     0
  0
VISUALSTYLE
  5
C1E0
102
{ACAD_XDICTIONARY
360
C24E
102
}
102
{ACAD_REACTORS
330
C1CA
102
}
330
C1CA
100
AcDbVisualStyle
  2
JitterOff
 70
    20
 71
     2
 72
     2
 73
     0
 90
        0
 40
-0.6
 41
-30.0
 62
     5
 63
     7
 74
     1
 91
        4
 64
     7
 65
   257
 75
     1
175
     1
 42
1.0
 92
       10
 66
     7
 43
1.0
 76
     1
 77
     6
 78
     2
 67
     7
 79
     5
170
     0
171
     0
290
     0
174
     0
 93
        1
 44
0.0
173
     0
291
     1
 45
0.0
1001
ACAD
1000
AcDbSavedByObjectVersion
1070
     0
  0
VISUALSTYLE
  5
C1D8
102
{ACAD_XDICTIONARY
360
C23E
102
}
102
{ACAD_REACTORS
330
C1CA
102
}
330
C1CA
100
AcDbVisualStyle
  2
Linepattern
 70
    14
 71
     2
 72
     2
 73
     0
 90
        0
 40
-0.6
 41
-30.0
 62
     5
 63
     7
 74
     1
 91
        4
 64
     7
 65
   257
 75
     7
175
     7
 42
1.0
 92
        8
 66
     7
 43
1.0
 76
     1
 77
     6
 78
     2
 67
     7
 79
     5
170
     0
171
     0
290
     0
174
     0
 93
        1
 44
0.0
173
     0
291
     1
 45
0.0
1001
ACAD
1000
AcDbSavedByObjectVersion
1070
     0
  0
VISUALSTYLE
  5
C1E1
102
{ACAD_XDICTIONARY
360
C250
102
}
102
{ACAD_REACTORS
330
C1CA
102
}
330
C1CA
100
AcDbVisualStyle
  2
OverhangOff
 70
    21
 71
     2
 72
     2
 73
     0
 90
        0
 40
-0.6
 41
-30.0
 62
     5
 63
     7
 74
     1
 91
        4
 64
     7
 65
   257
 75
     1
175
     1
 42
1.0
 92
        9
 66
     7
 43
1.0
 76
     1
 77
     6
 78
     2
 67
     7
 79
     5
170
     0
171
     0
290
     0
174
     0
 93
        1
 44
0.0
173
     0
291
     1
 45
0.0
1001
ACAD
1000
AcDbSavedByObjectVersion
1070
     0
  0
VISUALSTYLE
  5
C1D4
102
{ACAD_XDICTIONARY
360
C236
102
}
102
{ACAD_REACTORS
330
C1CA
102
}
330
C1CA
100
AcDbVisualStyle
  2
Realistic
 70
     8
 71
     2
 72
     3
 73
     0
 90
        2
 40
-0.6
 41
30.0
 62
     5
 63
     7
 74
     0
 91
        0
 64
     7
 65
   257
 75
     1
175
     1
 42
1.0
 92
        8
 66
   257
 43
1.0
 76
     1
 77
     6
 78
     2
 67
     7
 79
     3
170
     0
171
     0
290
     0
174
     0
 93
       13
 44
0.0
173
     0
291
     0
 45
0.0
1001
ACAD
1000
AcDbSavedByObjectVersion
1070
     0
  0
VISUALSTYLE
  5
C1DF
102
{ACAD_XDICTIONARY
360
C24C
102
}
102
{ACAD_REACTORS
330
C1CA
102
}
330
C1CA
100
AcDbVisualStyle
  2
Shaded
 70
    27
 71
     2
 72
     2
 73
     1
 90
        2
 40
-0.6
 41
30.0
 62
     5
 63
     7
 74
     0
 91
        4
 64
     7
 65
   257
 75
     1
175
     1
 42
1.0
 92
        8
 66
   257
 43
1.0
 76
     1
 77
     6
 78
     2
 67
     8
 79
     3
170
     0
171
     0
290
     0
174
     0
 93
        5
 44
0.0
173
     0
291
     0
 45
0.0
1001
ACAD
1000
AcDbSavedByObjectVersion
1070
     0
  0
VISUALSTYLE
  5
C1DE
102
{ACAD_XDICTIONARY
360
C24A
102
}
102
{ACAD_REACTORS
330
C1CA
102
}
330
C1CA
100
AcDbVisualStyle
  2
Shaded with edges
 70
    26
 71
     2
 72
     2
 73
     1
 90
        2
 40
-0.6
 41
30.0
 62
     5
 63
     7
 74
     1
 91
       10
 64
     7
 65
   257
 75
     2
175
     1
 42
1.0
 92
        8
 66
   257
 43
1.0
 76
     1
 77
     6
 78
     2
 67
     7
 79
     3
170
     0
171
     0
290
     0
174
     0
 93
        5
 44
0.0
173
     0
291
     0
 45
0.0
1001
ACAD
1000
AcDbSavedByObjectVersion
1070
     0
  0
VISUALSTYLE
  5
C1DB
102
{ACAD_XDICTIONARY
360
C244
102
}
102
{ACAD_REACTORS
330
C1CA
102
}
330
C1CA
100
AcDbVisualStyle
  2
Shades of Gray
 70
    23
 71
     2
 72
     2
 73
     3
 90
        0
 40
-0.6
 41
-30.0
 62
     5
 63
     7
 74
     2
 91
        2
 64
     7
 65
     7
 75
     1
175
     1
 42
40.0
 92
        8
 66
     7
 43
1.0
 76
     1
 77
     6
 78
     2
 67
     7
 79
     3
170
     0
171
     0
290
     0
174
     0
 93
        1
 44
0.0
173
     0
291
     0
 45
0.0
1001
ACAD
1000
AcDbSavedByObjectVersion
1070
     0
  0
VISUALSTYLE
  5
C1DC
102
{ACAD_XDICTIONARY
360
C246
102
}
102
{ACAD_REACTORS
330
C1CA
102
}
330
C1CA
100
AcDbVisualStyle
  2
Sketchy
 70
    24
 71
     1
 72
     2
 73
     2
 90
        0
 40
-0.6
 41
-30.0
 62
     5
 63
     7
 74
     2
 91
        2
 64
     7
 65
     7
 75
     1
175
     1
 42
40.0
 92
       11
 66
     7
 43
1.0
 76
     1
 77
     6
 78
     2
 67
     7
 79
     6
170
     0
171
     0
290
     0
174
     0
 93
        1
 44
0.0
173
     0
291
     0
 45
0.0
1001
ACAD
1000
AcDbSavedByObjectVersion
1070
     0
  0
VISUALSTYLE
  5
C1D7
102
{ACAD_XDICTIONARY
360
C23C
102
}
102
{ACAD_REACTORS
330
C1CA
102
}
330
C1CA
100
AcDbVisualStyle
  2
Thicken
 70
    13
 71
     2
 72
     2
 73
     0
 90
        0
 40
-0.6
 41
-30.0
 62
     5
 63
     7
 74
     1
 91
        4
 64
     7
 65
   257
 75
     1
175
     1
 42
1.0
 92
       12
 66
     7
 43
1.0
 76
     1
 77
     6
 78
     2
 67
     7
 79
     5
170
     0
171
     0
290
     0
174
     0
 93
        1
 44
0.0
173
     0
291
     1
 45
0.0
1001
ACAD
1000
AcDbSavedByObjectVersion
1070
     0
  0
VISUALSTYLE
  5
C1D1
102
{ACAD_XDICTIONARY
360
C230
102
}
102
{ACAD_REACTORS
330
C1CA
102
}
330
C1CA
100
AcDbVisualStyle
  2
Wireframe
 70
     5
 71
     0
 72
     2
 73
     0
 90
        0
 40
-0.6
 41
-30.0
 62
     5
 63
     7
 74
     1
 91
        4
 64
     7
 65
   257
 75
     1
175
     1
 42
1.0
 92
        0
 66
   257
 43
1.0
 76
     1
 77
     6
 78
     2
 67
     7
 79
     3
170
     0
171
     0
290
     0
174
     0
 93
        1
 44
0.0
173
     0
291
     0
 45
0.0
1001
ACAD
1000
AcDbSavedByObjectVersion
1070
     0
  0
VISUALSTYLE
  5
C1DD
102
{ACAD_XDICTIONARY
360
C248
102
}
102
{ACAD_REACTORS
330
C1CA
102
}
330
C1CA
100
AcDbVisualStyle
  2
X-Ray
 70
    25
 71
     2
 72
     2
 73
     1
 90
        1
 40
0.5
 41
-30.0
 62
     5
 63
     7
 74
     1
 91
        0
 64
     7
 65
   257
 75
     1
175
     1
 42
1.0
 92
        8
 66
     7
 43
1.0
 76
     1
 77
     6
 78
     2
 67
     7
 79
     3
170
     0
171
     0
290
     0
174
     0
 93
       13
 44
0.0
173
     0
291
     0
 45
0.0
1001
ACAD
1000
AcDbSavedByObjectVersion
1070
     0
  0
DICTIONARYVAR
  5
C217
102
{ACAD_REACTORS
330
C212
102
}
330
C212
100
DictionaryVariables
280
     0
  1
1:1
  0
DICTIONARYVAR
  5
C214
102
{ACAD_REACTORS
330
C212
102
}
330
C212
100
DictionaryVariables
280
     0
  1
STANDARD
  0
DICTIONARYVAR
  5
C213
102
{ACAD_REACTORS
330
C212
102
}
330
C212
100
DictionaryVariables
280
     0
  1
STANDARD
  0
DICTIONARYVAR
  5
C215
102
{ACAD_REACTORS
330
C212
102
}
330
C212
100
DictionaryVariables
280
     0
  1
Imperial24
  0
DICTIONARYVAR
  5
C216
102
{ACAD_REACTORS
330
C212
102
}
330
C212
100
DictionaryVariables
280
     0
  1
Imperial24
  0
DICTIONARYVAR
  5
C21A
102
{ACAD_REACTORS
330
C212
102
}
330
C212
100
DictionaryVariables
280
     0
  1
1
  0
DICTIONARYVAR
  5
C219
102
{ACAD_REACTORS
330
C212
102
}
330
C212
100
DictionaryVariables
280
     0
  1
0
  0
DICTIONARYVAR
  5
C218
102
{ACAD_REACTORS
330
C212
102
}
330
C212
100
DictionaryVariables
280
     0
  1
127
  0
DICTIONARYVAR
  5
C21B
102
{ACAD_REACTORS
330
C212
102
}
330
C212
100
DictionaryVariables
280
     0
  1
2
  0
DICTIONARY
  5
C258
330
C1FD
100
AcDbDictionary
280
     1
281
     1
  3
ACAD_XREC_ROUNDTRIP
360
C259
  0
DICTIONARY
  5
C25A
330
C1FE
100
AcDbDictionary
280
     1
281
     1
  3
ACAD_XREC_ROUNDTRIP
360
C25B
  0
DICTIONARY
  5
C25C
330
C1FF
100
AcDbDictionary
280
     1
281
     1
  3
ACAD_XREC_ROUNDTRIP
360
C25D
  0
DICTIONARY
  5
C1BB
330
C1BA
100
AcDbDictionary
280
     1
281
     1
  3
ACAD_XREC_ROUNDTRIP
360
C222
  3
BUMPTILE
360
C1BD
  3
DIFFUSETILE
360
C1BC
  3
OPACITYTILE
360
C1C0
  3
REFLECTIONTILE
360
C1BF
  3
REFRACTIONTILE
360
C1C1
  3
SPECULARTILE
360
C1BE
  0
DICTIONARY
  5
C1B3
330
C1B2
100
AcDbDictionary
280
     1
281
     1
  3
ACAD_XREC_ROUNDTRIP
360
C221
  3
BUMPTILE
360
C1B5
  3
DIFFUSETILE
360
C1B4
  3
OPACITYTILE
360
C1B8
  3
REFLECTIONTILE
360
C1B7
  3
REFRACTIONTILE
360
C1B9
  3
SPECULARTILE
360
C1B6
  0
DICTIONARY
  5
C1C3
330
C1C2
100
AcDbDictionary
280
     1
281
     1
  3
ACAD_XREC_ROUNDTRIP
360
C223
  3
BUMPTILE
360
C1C5
  3
DIFFUSETILE
360
C1C4
  3
OPACITYTILE
360
C1C8
  3
REFLECTIONTILE
360
C1C7
  3
REFRACTIONTILE
360
C1C9
  3
SPECULARTILE
360
C1C6
  0
DICTIONARY
  5
C256
330
C1FB
100
AcDbDictionary
280
     1
281
     1
  3
ACAD_XREC_ROUNDTRIP
360
C257
  0
DICTIONARY
  5
C21D
330
C1E5
100
AcDbDictionary
280
     1
281
     1
  3
ACAD_ROUNDTRIP_2008_TABLESTYLE_CELLSTYLEMAP
360
C21E
  3
ACAD_XREC_ROUNDTRIP
360
C254
  0
DICTIONARY
  5
C22E
330
C1D0
100
AcDbDictionary
280
     1
281
     1
  3
ACAD_XREC_ROUNDTRIP
360
C22F
  0
DICTIONARY
  5
C22C
330
C1CF
100
AcDbDictionary
280
     1
281
     1
  3
ACAD_XREC_ROUNDTRIP
360
C22D
  0
DICTIONARY
  5
C23A
330
C1D6
100
AcDbDictionary
280
     1
281
     1
  3
ACAD_XREC_ROUNDTRIP
360
C23B
  0
DICTIONARY
  5
C242
330
C1DA
100
AcDbDictionary
280
     1
281
     1
  3
ACAD_XREC_ROUNDTRIP
360
C243
  0
DICTIONARY
  5
C234
330
C1D3
100
AcDbDictionary
280
     1
281
     1
  3
ACAD_XREC_ROUNDTRIP
360
C235
  0
DICTIONARY
  5
C238
330
C1D5
100
AcDbDictionary
280
     1
281
     1
  3
ACAD_XREC_ROUNDTRIP
360
C239
  0
DICTIONARY
  5
C252
330
C1E2
100
AcDbDictionary
280
     1
281
     1
  3
ACAD_XREC_ROUNDTRIP
360
C253
  0
DICTIONARY
  5
C240
330
C1D9
100
AcDbDictionary
280
     1
281
     1
  3
ACAD_XREC_ROUNDTRIP
360
C241
  0
DICTIONARY
  5
C224
330
C1CB
100
AcDbDictionary
280
     1
281
     1
  3
ACAD_XREC_ROUNDTRIP
360
C225
  0
DICTIONARY
  5
C226
330
C1CC
100
AcDbDictionary
280
     1
281
     1
  3
ACAD_XREC_ROUNDTRIP
360
C227
  0
DICTIONARY
  5
C228
330
C1CD
100
AcDbDictionary
280
     1
281
     1
  3
ACAD_XREC_ROUNDTRIP
360
C229
  0
DICTIONARY
  5
C22A
330
C1CE
100
AcDbDictionary
280
     1
281
     1
  3
ACAD_XREC_ROUNDTRIP
360
C22B
  0
DICTIONARY
  5
C232
330
C1D2
100
AcDbDictionary
280
     1
281
     1
  3
ACAD_XREC_ROUNDTRIP
360
C233
  0
DICTIONARY
  5
C24E
330
C1E0
100
AcDbDictionary
280
     1
281
     1
  3
ACAD_XREC_ROUNDTRIP
360
C24F
  0
DICTIONARY
  5
C23E
330
C1D8
100
AcDbDictionary
280
     1
281
     1
  3
ACAD_XREC_ROUNDTRIP
360
C23F
  0
DICTIONARY
  5
C250
330
C1E1
100
AcDbDictionary
280
     1
281
     1
  3
ACAD_XREC_ROUNDTRIP
360
C251
  0
DICTIONARY
  5
C236
330
C1D4
100
AcDbDictionary
280
     1
281
     1
  3
ACAD_XREC_ROUNDTRIP
360
C237
  0
DICTIONARY
  5
C24C
330
C1DF
100
AcDbDictionary
280
     1
281
     1
  3
ACAD_XREC_ROUNDTRIP
360
C24D
  0
DICTIONARY
  5
C24A
330
C1DE
100
AcDbDictionary
280
     1
281
     1
  3
ACAD_XREC_ROUNDTRIP
360
C24B
  0
DICTIONARY
  5
C244
330
C1DB
100
AcDbDictionary
280
     1
281
     1
  3
ACAD_XREC_ROUNDTRIP
360
C245
  0
DICTIONARY
  5
C246
330
C1DC
100
AcDbDictionary
280
     1
281
     1
  3
ACAD_XREC_ROUNDTRIP
360
C247
  0
DICTIONARY
  5
C23C
330
C1D7
100
AcDbDictionary
280
     1
281
     1
  3
ACAD_XREC_ROUNDTRIP
360
C23D
  0
DICTIONARY
  5
C230
330
C1D1
100
AcDbDictionary
280
     1
281
     1
  3
ACAD_XREC_ROUNDTRIP
360
C231
  0
DICTIONARY
  5
C248
330
C1DD
100
AcDbDictionary
280
     1
281
     1
  3
ACAD_XREC_ROUNDTRIP
360
C249
  0
XRECORD
  5
C259
102
{ACAD_REACTORS
330
C258
102
}
330
C258
100
AcDbXrecord
280
     1
102
DISPLAYNAME
  1
Imperial24
102
FLAGS
 90
        0
  0
XRECORD
  5
C25B
102
{ACAD_REACTORS
330
C25A
102
}
330
C25A
100
AcDbXrecord
280
     1
102
SHADEPLOT
 70
     0
102
SHADEPLOTRESLEVEL
 70
     2
102
SHADEPLOTCUSTOMDPI
 70
   300
  0
XRECORD
  5
C25D
102
{ACAD_REACTORS
330
C25C
102
}
330
C25C
100
AcDbXrecord
280
     1
102
SHADEPLOT
 70
     0
102
SHADEPLOTRESLEVEL
 70
     2
102
SHADEPLOTCUSTOMDPI
 70
   300
  0
XRECORD
  5
C222
102
{ACAD_REACTORS
330
C1BB
102
}
330
C1BB
100
AcDbXrecord
280
     1
102
MATERIAL
148
0.0
149
0.0
149
0.0
 93
        0
 94
      127
282
     0
 72
     0
 77
     0
171
     0
175
     0
179
     0
273
     0
  0
XRECORD
  5
C1BD
102
{ACAD_REACTORS
330
C1BB
102
}
330
C1BB
100
AcDbXrecord
280
     1
270
     1
271
     1
  0
XRECORD
  5
C1BC
102
{ACAD_REACTORS
330
C1BB
102
}
330
C1BB
100
AcDbXrecord
280
     1
270
     1
271
     1
  0
XRECORD
  5
C1C0
102
{ACAD_REACTORS
330
C1BB
102
}
330
C1BB
100
AcDbXrecord
280
     1
270
     1
271
     1
  0
XRECORD
  5
C1BF
102
{ACAD_REACTORS
330
C1BB
102
}
330
C1BB
100
AcDbXrecord
280
     1
270
     1
271
     1
  0
XRECORD
  5
C1C1
102
{ACAD_REACTORS
330
C1BB
102
}
330
C1BB
100
AcDbXrecord
280
     1
270
     1
271
     1
  0
XRECORD
  5
C1BE
102
{ACAD_REACTORS
330
C1BB
102
}
330
C1BB
100
AcDbXrecord
280
     1
270
     1
271
     1
  0
XRECORD
  5
C221
102
{ACAD_REACTORS
330
C1B3
102
}
330
C1B3
100
AcDbXrecord
280
     1
102
MATERIAL
148
0.0
149
0.0
149
0.0
 93
        0
 94
      127
282
     0
 72
     0
 77
     0
171
     0
175
     0
179
     0
273
     0
  0
XRECORD
  5
C1B5
102
{ACAD_REACTORS
330
C1B3
102
}
330
C1B3
100
AcDbXrecord
280
     1
270
     1
271
     1
  0
XRECORD
  5
C1B4
102
{ACAD_REACTORS
330
C1B3
102
}
330
C1B3
100
AcDbXrecord
280
     1
270
     1
271
     1
  0
XRECORD
  5
C1B8
102
{ACAD_REACTORS
330
C1B3
102
}
330
C1B3
100
AcDbXrecord
280
     1
270
     1
271
     1
  0
XRECORD
  5
C1B7
102
{ACAD_REACTORS
330
C1B3
102
}
330
C1B3
100
AcDbXrecord
280
     1
270
     1
271
     1
  0
XRECORD
  5
C1B9
102
{ACAD_REACTORS
330
C1B3
102
}
330
C1B3
100
AcDbXrecord
280
     1
270
     1
271
     1
  0
XRECORD
  5
C1B6
102
{ACAD_REACTORS
330
C1B3
102
}
330
C1B3
100
AcDbXrecord
280
     1
270
     1
271
     1
  0
XRECORD
  5
C223
102
{ACAD_REACTORS
330
C1C3
102
}
330
C1C3
100
AcDbXrecord
280
     1
102
MATERIAL
148
0.0
149
0.0
149
0.0
 93
        0
 94
      127
282
     0
 72
     0
 77
     0
171
     0
175
     0
179
     0
273
     0
  0
XRECORD
  5
C1C5
102
{ACAD_REACTORS
330
C1C3
102
}
330
C1C3
100
AcDbXrecord
280
     1
270
     1
271
     1
  0
XRECORD
  5
C1C4
102
{ACAD_REACTORS
330
C1C3
102
}
330
C1C3
100
AcDbXrecord
280
     1
270
     1
271
     1
  0
XRECORD
  5
C1C8
102
{ACAD_REACTORS
330
C1C3
102
}
330
C1C3
100
AcDbXrecord
280
     1
270
     1
271
     1
  0
XRECORD
  5
C1C7
102
{ACAD_REACTORS
330
C1C3
102
}
330
C1C3
100
AcDbXrecord
280
     1
270
     1
271
     1
  0
XRECORD
  5
C1C9
102
{ACAD_REACTORS
330
C1C3
102
}
330
C1C3
100
AcDbXrecord
280
     1
270
     1
271
     1
  0
XRECORD
  5
C1C6
102
{ACAD_REACTORS
330
C1C3
102
}
330
C1C3
100
AcDbXrecord
280
     1
270
     1
271
     1
  0
XRECORD
  5
C257
102
{ACAD_REACTORS
330
C256
102
}
330
C256
100
AcDbXrecord
280
     1
102
DISPLAYNAME
  1
Imperial24
102
FLAGS
 90
        0
  0
CELLSTYLEMAP
  5
C21E
102
{ACAD_REACTORS
330
C21D
102
}
330
C21D
100
AcDbCellStyleMap
 90
        3
300
CELLSTYLE
  1
TABLEFORMAT_BEGIN
 90
        5
170
     1
 91
        0
 92
    32768
 62
   257
 93
        1
300
CONTENTFORMAT
  1
CONTENTFORMAT_BEGIN
 90
        0
 91
        0
 92
      512
 93
        0
300

 40
0.0
140
1.0
 94
        5
 62
     0
340
BF28
144
0.25
309
CONTENTFORMAT_END
171
     0
 94
        0
309
TABLEFORMAT_END
  1
CELLSTYLE_BEGIN
 90
        1
 91
        1
300
_TITLE
309
CELLSTYLE_END
300
CELLSTYLE
  1
TABLEFORMAT_BEGIN
 90
        5
170
     1
 91
        0
 92
        0
 62
   257
 93
        1
300
CONTENTFORMAT
  1
CONTENTFORMAT_BEGIN
 90
        0
 91
        0
 92
      512
 93
        0
300

 40
0.0
140
1.0
 94
        5
 62
     0
340
BF28
144
0.18
309
CONTENTFORMAT_END
171
     0
 94
        0
309
TABLEFORMAT_END
  1
CELLSTYLE_BEGIN
 90
        2
 91
        1
300
_HEADER
309
CELLSTYLE_END
300
CELLSTYLE
  1
TABLEFORMAT_BEGIN
 90
        5
170
     1
 91
        0
 92
        0
 62
   257
 93
        1
300
CONTENTFORMAT
  1
CONTENTFORMAT_BEGIN
 90
        0
 91
        0
 92
      512
 93
        0
300

 40
0.0
140
1.0
 94
        2
 62
     0
340
BF28
144
0.18
309
CONTENTFORMAT_END
171
     0
 94
        0
309
TABLEFORMAT_END
  1
CELLSTYLE_BEGIN
 90
        3
 91
        2
300
_DATA
309
CELLSTYLE_END
  0
XRECORD
  5
C254
102
{ACAD_REACTORS
330
C21D
102
}
330
C21D
100
AcDbXrecord
280
     1
102
ACAD_ROUNDTRIP_PRE2007_TABLESTYLE
 90
      512
 91
        0
  1

 92
      512
 93
        0
  2

 94
      512
 95
        0
  3

  0
XRECORD
  5
C22F
102
{ACAD_REACTORS
330
C22E
102
}
330
C22E
100
AcDbXrecord
280
     1
102
RTVSPost2010Prop28
280
     1
102
RTVSPost2010PropOp28
 70
     1
102
RTVSPost2010Prop29
280
     1
102
RTVSPost2010PropOp29
 70
     1
102
RTVSPost2010Prop30
280
     0
102
RTVSPost2010PropOp30
 70
     1
102
RTVSPost2010Prop31
280
     0
102
RTVSPost2010PropOp31
 70
     1
102
RTVSPost2010Prop32
280
     0
102
RTVSPost2010PropOp32
 70
     1
102
RTVSPost2010Prop33
280
     0
102
RTVSPost2010PropOp33
 70
     1
102
RTVSPost2010Prop34
280
     0
102
RTVSPost2010PropOp34
 70
     1
102
RTVSPost2010Prop35
280
     0
102
RTVSPost2010PropOp35
 70
     1
102
RTVSPost2010Prop36
280
     0
102
RTVSPost2010PropOp36
 70
     1
102
RTVSPost2010Prop37
 90
       50
102
RTVSPost2010PropOp37
 70
     1
102
RTVSPost2010Prop38
140
0.0
102
RTVSPost2010PropOp38
 70
     1
102
RTVSPost2010Prop39
140
1.0
102
RTVSPost2010PropOp39
 70
     1
102
RTVSPost2010Prop40
 90
        0
102
RTVSPost2010PropOp40
 70
     1
102
RTVSPost2010Prop41ColorIndex
 90
       18
102
RTVSPost2010Prop41ColorRGB
 90
        0
102
RTVSPost2010PropOp41
 70
     1
102
RTVSPost2010Prop42
 90
       50
102
RTVSPost2010PropOp42
 70
     1
102
RTVSPost2010Prop43
 90
        3
102
RTVSPost2010PropOp43
 70
     1
102
RTVSPost2010Prop44ColorIndex
 90
        5
102
RTVSPost2010Prop44ColorRGB
 90
      255
102
RTVSPost2010PropOp44
 70
     1
102
RTVSPost2010Prop45
280
     0
102
RTVSPost2010PropOp45
 70
     1
102
RTVSPost2010Prop46
 90
       50
102
RTVSPost2010PropOp46
 70
     1
102
RTVSPost2010Prop47
 90
       50
102
RTVSPost2010PropOp47
 70
     1
102
RTVSPost2010Prop48
 90
       50
102
RTVSPost2010PropOp48
 70
     1
102
RTVSPost2010Prop49
280
     0
102
RTVSPost2010PropOp49
 70
     1
102
RTVSPost2010Prop50
 90
       50
102
RTVSPost2010PropOp50
 70
     1
102
RTVSPost2010Prop51ColorIndex
 90
      256
102
RTVSPost2010Prop51ColorRGB
 90
-16777216
102
RTVSPost2010PropOp51
 70
     0
102
RTVSPost2010Prop52
140
1.0
102
RTVSPost2010PropOp52
 70
     0
102
RTVSPost2010Prop53
 90
        2
102
RTVSPost2010PropOp53
 70
     1
102
RTVSPost2010Prop54
  1
strokes_ogs.tif
102
RTVSPost2010PropOp54
 70
     1
102
RTVSPost2010Prop55
280
     0
102
RTVSPost2010PropOp55
 70
     1
102
RTVSPost2010Prop56
140
1.0
102
RTVSPost2010PropOp56
 70
     1
102
RTVSPost2010Prop57
140
1.0
102
RTVSPost2010PropOp57
 70
     1
102
RTVSPropertyOp0
 70
     1
102
RTVSPropertyOp1
 70
     1
102
RTVSPropertyOp2
 70
     1
102
RTVSPropertyOp3
 70
     1
102
RTVSPropertyOp4
 70
     1
102
RTVSPropertyOp5
 70
     1
102
RTVSPropertyOp6
 70
     1
102
RTVSPropertyOp7
 70
     1
102
RTVSPropertyOp8
 70
     1
102
RTVSPropertyOp9
 70
     1
102
RTVSPropertyOp10
 70
     1
102
RTVSPropertyOp11
 70
     1
102
RTVSPropertyOp12
 70
     1
102
RTVSPropertyOp13
 70
     1
102
RTVSPropertyOp14
 70
     1
102
RTVSPropertyOp15
 70
     1
102
RTVSPropertyOp16
 70
     1
102
RTVSPropertyOp17
 70
     1
102
RTVSPropertyOp18
 70
     1
102
RTVSPropertyOp19
 70
     1
102
RTVSPropertyOp20
 70
     1
102
RTVSPropertyOp21
 70
     1
102
RTVSPropertyOp22
 70
     1
102
RTVSPropertyOp23
 70
     1
102
RTVSPropertyOp24
 70
     1
102
RTVSPropertyOp25
 70
     1
102
RTVSPropertyOp26
 70
     1
102
RTVSPropertyOp27
 70
     1
102
RTVSPropertyOp28
 70
     1
102
RTVSPropertyOp29
 70
     1
102
RTVSPropertyOp30
 70
     1
102
RTVSPropertyOp31
 70
     1
102
RTVSPropertyOp32
 70
     1
102
RTVSPropertyOp33
 70
     1
102
RTVSPropertyOp34
 70
     1
102
RTVSPropertyOp35
 70
     1
102
RTVSPropertyOp36
 70
     1
102
RTVSPropertyOp37
 70
     1
102
RTVSPropertyOp38
 70
     1
102
RTVSPropertyOp39
 70
     1
102
RTVSPropertyOp40
 70
     1
102
RTVSPropertyOp41
 70
     1
102
RTVSPropertyOp42
 70
     1
102
RTVSPropertyOp43
 70
     1
102
RTVSPropertyOp44
 70
     1
102
RTVSPropertyOp45
 70
     1
102
RTVSPropertyOp46
 70
     1
102
RTVSPropertyOp47
 70
     1
102
RTVSPropertyOp48
 70
     1
102
RTVSPropertyOp49
 70
     1
102
RTVSPropertyOp50
 70
     1
102
RTVSPropertyOp51
 70
     0
102
RTVSPropertyOp52
 70
     0
102
RTVSPropertyOp53
 70
     1
102
RTVSPropertyOp54
 70
     1
102
RTVSPropertyOp55
 70
     1
102
RTVSPropertyOp56
 70
     1
102
RTVSPropertyOp57
 70
     1
102
RTVSPropertyOp58
 70
     1
102
RTVSPropertyOp59
 70
     1
102
RTVSPropertyOp60
 70
     1
102
RTVSPropertyOp61
 70
     1
102
RTVSPropertyOp62
 70
     1
  0
XRECORD
  5
C22D
102
{ACAD_REACTORS
330
C22C
102
}
330
C22C
100
AcDbXrecord
280
     1
102
RTVSPost2010Prop28
280
     0
102
RTVSPost2010PropOp28
 70
     1
102
RTVSPost2010Prop29
280
     1
102
RTVSPost2010PropOp29
 70
     1
102
RTVSPost2010Prop30
280
     1
102
RTVSPost2010PropOp30
 70
     1
102
RTVSPost2010Prop31
280
     0
102
RTVSPost2010PropOp31
 70
     1
102
RTVSPost2010Prop32
280
     0
102
RTVSPost2010PropOp32
 70
     1
102
RTVSPost2010Prop33
280
     0
102
RTVSPost2010PropOp33
 70
     1
102
RTVSPost2010Prop34
280
     0
102
RTVSPost2010PropOp34
 70
     1
102
RTVSPost2010Prop35
280
     0
102
RTVSPost2010PropOp35
 70
     1
102
RTVSPost2010Prop36
280
     0
102
RTVSPost2010PropOp36
 70
     1
102
RTVSPost2010Prop37
 90
       50
102
RTVSPost2010PropOp37
 70
     1
102
RTVSPost2010Prop38
140
0.0
102
RTVSPost2010PropOp38
 70
     1
102
RTVSPost2010Prop39
140
1.0
102
RTVSPost2010PropOp39
 70
     1
102
RTVSPost2010Prop40
 90
        0
102
RTVSPost2010PropOp40
 70
     1
102
RTVSPost2010Prop41ColorIndex
 90
       18
102
RTVSPost2010Prop41ColorRGB
 90
        0
102
RTVSPost2010PropOp41
 70
     1
102
RTVSPost2010Prop42
 90
       50
102
RTVSPost2010PropOp42
 70
     1
102
RTVSPost2010Prop43
 90
        3
102
RTVSPost2010PropOp43
 70
     1
102
RTVSPost2010Prop44ColorIndex
 90
        5
102
RTVSPost2010Prop44ColorRGB
 90
      255
102
RTVSPost2010PropOp44
 70
     1
102
RTVSPost2010Prop45
280
     0
102
RTVSPost2010PropOp45
 70
     1
102
RTVSPost2010Prop46
 90
       50
102
RTVSPost2010PropOp46
 70
     1
102
RTVSPost2010Prop47
 90
       50
102
RTVSPost2010PropOp47
 70
     1
102
RTVSPost2010Prop48
 90
       50
102
RTVSPost2010PropOp48
 70
     1
102
RTVSPost2010Prop49
280
     0
102
RTVSPost2010PropOp49
 70
     1
102
RTVSPost2010Prop50
 90
       50
102
RTVSPost2010PropOp50
 70
     1
102
RTVSPost2010Prop51ColorIndex
 90
      256
102
RTVSPost2010Prop51ColorRGB
 90
-16777216
102
RTVSPost2010PropOp51
 70
     0
102
RTVSPost2010Prop52
140
1.0
102
RTVSPost2010PropOp52
 70
     0
102
RTVSPost2010Prop53
 90
        2
102
RTVSPost2010PropOp53
 70
     1
102
RTVSPost2010Prop54
  1
strokes_ogs.tif
102
RTVSPost2010PropOp54
 70
     1
102
RTVSPost2010Prop55
280
     0
102
RTVSPost2010PropOp55
 70
     1
102
RTVSPost2010Prop56
140
1.0
102
RTVSPost2010PropOp56
 70
     1
102
RTVSPost2010Prop57
140
1.0
102
RTVSPost2010PropOp57
 70
     1
102
RTVSPropertyOp0
 70
     1
102
RTVSPropertyOp1
 70
     1
102
RTVSPropertyOp2
 70
     1
102
RTVSPropertyOp3
 70
     1
102
RTVSPropertyOp4
 70
     1
102
RTVSPropertyOp5
 70
     1
102
RTVSPropertyOp6
 70
     1
102
RTVSPropertyOp7
 70
     1
102
RTVSPropertyOp8
 70
     1
102
RTVSPropertyOp9
 70
     1
102
RTVSPropertyOp10
 70
     1
102
RTVSPropertyOp11
 70
     1
102
RTVSPropertyOp12
 70
     1
102
RTVSPropertyOp13
 70
     1
102
RTVSPropertyOp14
 70
     1
102
RTVSPropertyOp15
 70
     1
102
RTVSPropertyOp16
 70
     1
102
RTVSPropertyOp17
 70
     1
102
RTVSPropertyOp18
 70
     1
102
RTVSPropertyOp19
 70
     1
102
RTVSPropertyOp20
 70
     1
102
RTVSPropertyOp21
 70
     1
102
RTVSPropertyOp22
 70
     1
102
RTVSPropertyOp23
 70
     1
102
RTVSPropertyOp24
 70
     1
102
RTVSPropertyOp25
 70
     1
102
RTVSPropertyOp26
 70
     1
102
RTVSPropertyOp27
 70
     1
102
RTVSPropertyOp28
 70
     1
102
RTVSPropertyOp29
 70
     1
102
RTVSPropertyOp30
 70
     1
102
RTVSPropertyOp31
 70
     1
102
RTVSPropertyOp32
 70
     1
102
RTVSPropertyOp33
 70
     1
102
RTVSPropertyOp34
 70
     1
102
RTVSPropertyOp35
 70
     1
102
RTVSPropertyOp36
 70
     1
102
RTVSPropertyOp37
 70
     1
102
RTVSPropertyOp38
 70
     1
102
RTVSPropertyOp39
 70
     1
102
RTVSPropertyOp40
 70
     1
102
RTVSPropertyOp41
 70
     1
102
RTVSPropertyOp42
 70
     1
102
RTVSPropertyOp43
 70
     1
102
RTVSPropertyOp44
 70
     1
102
RTVSPropertyOp45
 70
     1
102
RTVSPropertyOp46
 70
     1
102
RTVSPropertyOp47
 70
     1
102
RTVSPropertyOp48
 70
     1
102
RTVSPropertyOp49
 70
     1
102
RTVSPropertyOp50
 70
     1
102
RTVSPropertyOp51
 70
     0
102
RTVSPropertyOp52
 70
     0
102
RTVSPropertyOp53
 70
     1
102
RTVSPropertyOp54
 70
     1
102
RTVSPropertyOp55
 70
     1
102
RTVSPropertyOp56
 70
     1
102
RTVSPropertyOp57
 70
     1
102
RTVSPropertyOp58
 70
     1
102
RTVSPropertyOp59
 70
     1
102
RTVSPropertyOp60
 70
     1
102
RTVSPropertyOp61
 70
     1
102
RTVSPropertyOp62
 70
     1
  0
XRECORD
  5
C23B
102
{ACAD_REACTORS
330
C23A
102
}
330
C23A
100
AcDbXrecord
280
     1
102
RTVSPost2010Prop28
280
     0
102
RTVSPost2010PropOp28
 70
     1
102
RTVSPost2010Prop29
280
     1
102
RTVSPost2010PropOp29
 70
     1
102
RTVSPost2010Prop30
280
     1
102
RTVSPost2010PropOp30
 70
     1
102
RTVSPost2010Prop31
280
     0
102
RTVSPost2010PropOp31
 70
     1
102
RTVSPost2010Prop32
280
     0
102
RTVSPost2010PropOp32
 70
     1
102
RTVSPost2010Prop33
280
     0
102
RTVSPost2010PropOp33
 70
     1
102
RTVSPost2010Prop34
280
     0
102
RTVSPost2010PropOp34
 70
     1
102
RTVSPost2010Prop35
280
     0
102
RTVSPost2010PropOp35
 70
     1
102
RTVSPost2010Prop36
280
     0
102
RTVSPost2010PropOp36
 70
     1
102
RTVSPost2010Prop37
 90
       50
102
RTVSPost2010PropOp37
 70
     1
102
RTVSPost2010Prop38
140
0.0
102
RTVSPost2010PropOp38
 70
     1
102
RTVSPost2010Prop39
140
1.0
102
RTVSPost2010PropOp39
 70
     1
102
RTVSPost2010Prop40
 90
        0
102
RTVSPost2010PropOp40
 70
     1
102
RTVSPost2010Prop41ColorIndex
 90
       18
102
RTVSPost2010Prop41ColorRGB
 90
        0
102
RTVSPost2010PropOp41
 70
     1
102
RTVSPost2010Prop42
 90
       50
102
RTVSPost2010PropOp42
 70
     1
102
RTVSPost2010Prop43
 90
        3
102
RTVSPost2010PropOp43
 70
     1
102
RTVSPost2010Prop44ColorIndex
 90
        5
102
RTVSPost2010Prop44ColorRGB
 90
      255
102
RTVSPost2010PropOp44
 70
     1
102
RTVSPost2010Prop45
280
     0
102
RTVSPost2010PropOp45
 70
     1
102
RTVSPost2010Prop46
 90
       50
102
RTVSPost2010PropOp46
 70
     1
102
RTVSPost2010Prop47
 90
       50
102
RTVSPost2010PropOp47
 70
     1
102
RTVSPost2010Prop48
 90
       50
102
RTVSPost2010PropOp48
 70
     1
102
RTVSPost2010Prop49
280
     0
102
RTVSPost2010PropOp49
 70
     1
102
RTVSPost2010Prop50
 90
       50
102
RTVSPost2010PropOp50
 70
     1
102
RTVSPost2010Prop51ColorIndex
 90
      256
102
RTVSPost2010Prop51ColorRGB
 90
-16777216
102
RTVSPost2010PropOp51
 70
     0
102
RTVSPost2010Prop52
140
1.0
102
RTVSPost2010PropOp52
 70
     0
102
RTVSPost2010Prop53
 90
        2
102
RTVSPost2010PropOp53
 70
     1
102
RTVSPost2010Prop54
  1
strokes_ogs.tif
102
RTVSPost2010PropOp54
 70
     1
102
RTVSPost2010Prop55
280
     0
102
RTVSPost2010PropOp55
 70
     1
102
RTVSPost2010Prop56
140
1.0
102
RTVSPost2010PropOp56
 70
     1
102
RTVSPost2010Prop57
140
1.0
102
RTVSPost2010PropOp57
 70
     1
102
RTVSPropertyOp0
 70
     1
102
RTVSPropertyOp1
 70
     1
102
RTVSPropertyOp2
 70
     1
102
RTVSPropertyOp3
 70
     1
102
RTVSPropertyOp4
 70
     1
102
RTVSPropertyOp5
 70
     1
102
RTVSPropertyOp6
 70
     1
102
RTVSPropertyOp7
 70
     1
102
RTVSPropertyOp8
 70
     1
102
RTVSPropertyOp9
 70
     1
102
RTVSPropertyOp10
 70
     1
102
RTVSPropertyOp11
 70
     1
102
RTVSPropertyOp12
 70
     1
102
RTVSPropertyOp13
 70
     1
102
RTVSPropertyOp14
 70
     1
102
RTVSPropertyOp15
 70
     1
102
RTVSPropertyOp16
 70
     1
102
RTVSPropertyOp17
 70
     1
102
RTVSPropertyOp18
 70
     1
102
RTVSPropertyOp19
 70
     1
102
RTVSPropertyOp20
 70
     1
102
RTVSPropertyOp21
 70
     1
102
RTVSPropertyOp22
 70
     1
102
RTVSPropertyOp23
 70
     1
102
RTVSPropertyOp24
 70
     1
102
RTVSPropertyOp25
 70
     1
102
RTVSPropertyOp26
 70
     1
102
RTVSPropertyOp27
 70
     1
102
RTVSPropertyOp28
 70
     1
102
RTVSPropertyOp29
 70
     1
102
RTVSPropertyOp30
 70
     1
102
RTVSPropertyOp31
 70
     1
102
RTVSPropertyOp32
 70
     1
102
RTVSPropertyOp33
 70
     1
102
RTVSPropertyOp34
 70
     1
102
RTVSPropertyOp35
 70
     1
102
RTVSPropertyOp36
 70
     1
102
RTVSPropertyOp37
 70
     1
102
RTVSPropertyOp38
 70
     1
102
RTVSPropertyOp39
 70
     1
102
RTVSPropertyOp40
 70
     1
102
RTVSPropertyOp41
 70
     1
102
RTVSPropertyOp42
 70
     1
102
RTVSPropertyOp43
 70
     1
102
RTVSPropertyOp44
 70
     1
102
RTVSPropertyOp45
 70
     1
102
RTVSPropertyOp46
 70
     1
102
RTVSPropertyOp47
 70
     1
102
RTVSPropertyOp48
 70
     1
102
RTVSPropertyOp49
 70
     1
102
RTVSPropertyOp50
 70
     1
102
RTVSPropertyOp51
 70
     0
102
RTVSPropertyOp52
 70
     0
102
RTVSPropertyOp53
 70
     1
102
RTVSPropertyOp54
 70
     1
102
RTVSPropertyOp55
 70
     1
102
RTVSPropertyOp56
 70
     1
102
RTVSPropertyOp57
 70
     1
102
RTVSPropertyOp58
 70
     1
102
RTVSPropertyOp59
 70
     1
102
RTVSPropertyOp60
 70
     1
102
RTVSPropertyOp61
 70
     1
102
RTVSPropertyOp62
 70
     1
  0
XRECORD
  5
C243
102
{ACAD_REACTORS
330
C242
102
}
330
C242
100
AcDbXrecord
280
     1
102
RTVSPost2010Prop28
280
     0
102
RTVSPost2010PropOp28
 70
     1
102
RTVSPost2010Prop29
280
     1
102
RTVSPost2010PropOp29
 70
     1
102
RTVSPost2010Prop30
280
     1
102
RTVSPost2010PropOp30
 70
     1
102
RTVSPost2010Prop31
280
     0
102
RTVSPost2010PropOp31
 70
     1
102
RTVSPost2010Prop32
280
     0
102
RTVSPost2010PropOp32
 70
     1
102
RTVSPost2010Prop33
280
     0
102
RTVSPost2010PropOp33
 70
     1
102
RTVSPost2010Prop34
280
     0
102
RTVSPost2010PropOp34
 70
     1
102
RTVSPost2010Prop35
280
     0
102
RTVSPost2010PropOp35
 70
     1
102
RTVSPost2010Prop36
280
     0
102
RTVSPost2010PropOp36
 70
     1
102
RTVSPost2010Prop37
 90
       50
102
RTVSPost2010PropOp37
 70
     1
102
RTVSPost2010Prop38
140
0.0
102
RTVSPost2010PropOp38
 70
     1
102
RTVSPost2010Prop39
140
1.0
102
RTVSPost2010PropOp39
 70
     1
102
RTVSPost2010Prop40
 90
        0
102
RTVSPost2010PropOp40
 70
     1
102
RTVSPost2010Prop41ColorIndex
 90
       18
102
RTVSPost2010Prop41ColorRGB
 90
        0
102
RTVSPost2010PropOp41
 70
     1
102
RTVSPost2010Prop42
 90
       50
102
RTVSPost2010PropOp42
 70
     1
102
RTVSPost2010Prop43
 90
        3
102
RTVSPost2010PropOp43
 70
     1
102
RTVSPost2010Prop44ColorIndex
 90
        5
102
RTVSPost2010Prop44ColorRGB
 90
      255
102
RTVSPost2010PropOp44
 70
     1
102
RTVSPost2010Prop45
280
     0
102
RTVSPost2010PropOp45
 70
     1
102
RTVSPost2010Prop46
 90
       50
102
RTVSPost2010PropOp46
 70
     1
102
RTVSPost2010Prop47
 90
       50
102
RTVSPost2010PropOp47
 70
     1
102
RTVSPost2010Prop48
 90
       50
102
RTVSPost2010PropOp48
 70
     1
102
RTVSPost2010Prop49
280
     0
102
RTVSPost2010PropOp49
 70
     1
102
RTVSPost2010Prop50
 90
       50
102
RTVSPost2010PropOp50
 70
     1
102
RTVSPost2010Prop51ColorIndex
 90
      256
102
RTVSPost2010Prop51ColorRGB
 90
-16777216
102
RTVSPost2010PropOp51
 70
     0
102
RTVSPost2010Prop52
140
1.0
102
RTVSPost2010PropOp52
 70
     0
102
RTVSPost2010Prop53
 90
        2
102
RTVSPost2010PropOp53
 70
     1
102
RTVSPost2010Prop54
  1
strokes_ogs.tif
102
RTVSPost2010PropOp54
 70
     1
102
RTVSPost2010Prop55
280
     0
102
RTVSPost2010PropOp55
 70
     1
102
RTVSPost2010Prop56
140
1.0
102
RTVSPost2010PropOp56
 70
     1
102
RTVSPost2010Prop57
140
1.0
102
RTVSPost2010PropOp57
 70
     1
102
RTVSPropertyOp0
 70
     1
102
RTVSPropertyOp1
 70
     1
102
RTVSPropertyOp2
 70
     1
102
RTVSPropertyOp3
 70
     1
102
RTVSPropertyOp4
 70
     1
102
RTVSPropertyOp5
 70
     1
102
RTVSPropertyOp6
 70
     1
102
RTVSPropertyOp7
 70
     1
102
RTVSPropertyOp8
 70
     1
102
RTVSPropertyOp9
 70
     1
102
RTVSPropertyOp10
 70
     1
102
RTVSPropertyOp11
 70
     1
102
RTVSPropertyOp12
 70
     1
102
RTVSPropertyOp13
 70
     1
102
RTVSPropertyOp14
 70
     1
102
RTVSPropertyOp15
 70
     1
102
RTVSPropertyOp16
 70
     1
102
RTVSPropertyOp17
 70
     1
102
RTVSPropertyOp18
 70
     1
102
RTVSPropertyOp19
 70
     1
102
RTVSPropertyOp20
 70
     1
102
RTVSPropertyOp21
 70
     1
102
RTVSPropertyOp22
 70
     1
102
RTVSPropertyOp23
 70
     1
102
RTVSPropertyOp24
 70
     1
102
RTVSPropertyOp25
 70
     1
102
RTVSPropertyOp26
 70
     1
102
RTVSPropertyOp27
 70
     1
102
RTVSPropertyOp28
 70
     1
102
RTVSPropertyOp29
 70
     1
102
RTVSPropertyOp30
 70
     1
102
RTVSPropertyOp31
 70
     1
102
RTVSPropertyOp32
 70
     1
102
RTVSPropertyOp33
 70
     1
102
RTVSPropertyOp34
 70
     1
102
RTVSPropertyOp35
 70
     1
102
RTVSPropertyOp36
 70
     1
102
RTVSPropertyOp37
 70
     1
102
RTVSPropertyOp38
 70
     1
102
RTVSPropertyOp39
 70
     1
102
RTVSPropertyOp40
 70
     1
102
RTVSPropertyOp41
 70
     1
102
RTVSPropertyOp42
 70
     1
102
RTVSPropertyOp43
 70
     1
102
RTVSPropertyOp44
 70
     1
102
RTVSPropertyOp45
 70
     1
102
RTVSPropertyOp46
 70
     1
102
RTVSPropertyOp47
 70
     1
102
RTVSPropertyOp48
 70
     1
102
RTVSPropertyOp49
 70
     1
102
RTVSPropertyOp50
 70
     1
102
RTVSPropertyOp51
 70
     0
102
RTVSPropertyOp52
 70
     0
102
RTVSPropertyOp53
 70
     1
102
RTVSPropertyOp54
 70
     1
102
RTVSPropertyOp55
 70
     1
102
RTVSPropertyOp56
 70
     1
102
RTVSPropertyOp57
 70
     1
102
RTVSPropertyOp58
 70
     1
102
RTVSPropertyOp59
 70
     1
102
RTVSPropertyOp60
 70
     1
102
RTVSPropertyOp61
 70
     1
102
RTVSPropertyOp62
 70
     1
  0
XRECORD
  5
C235
102
{ACAD_REACTORS
330
C234
102
}
330
C234
100
AcDbXrecord
280
     1
102
RTVSPost2010Prop28
280
     0
102
RTVSPost2010PropOp28
 70
     1
102
RTVSPost2010Prop29
280
     1
102
RTVSPost2010PropOp29
 70
     1
102
RTVSPost2010Prop30
280
     1
102
RTVSPost2010PropOp30
 70
     1
102
RTVSPost2010Prop31
280
     0
102
RTVSPost2010PropOp31
 70
     1
102
RTVSPost2010Prop32
280
     0
102
RTVSPost2010PropOp32
 70
     1
102
RTVSPost2010Prop33
280
     0
102
RTVSPost2010PropOp33
 70
     1
102
RTVSPost2010Prop34
280
     0
102
RTVSPost2010PropOp34
 70
     1
102
RTVSPost2010Prop35
280
     0
102
RTVSPost2010PropOp35
 70
     1
102
RTVSPost2010Prop36
280
     0
102
RTVSPost2010PropOp36
 70
     1
102
RTVSPost2010Prop37
 90
       50
102
RTVSPost2010PropOp37
 70
     1
102
RTVSPost2010Prop38
140
0.0
102
RTVSPost2010PropOp38
 70
     1
102
RTVSPost2010Prop39
140
1.0
102
RTVSPost2010PropOp39
 70
     1
102
RTVSPost2010Prop40
 90
        0
102
RTVSPost2010PropOp40
 70
     1
102
RTVSPost2010Prop41ColorIndex
 90
       18
102
RTVSPost2010Prop41ColorRGB
 90
        0
102
RTVSPost2010PropOp41
 70
     1
102
RTVSPost2010Prop42
 90
       50
102
RTVSPost2010PropOp42
 70
     1
102
RTVSPost2010Prop43
 90
        3
102
RTVSPost2010PropOp43
 70
     1
102
RTVSPost2010Prop44ColorIndex
 90
        5
102
RTVSPost2010Prop44ColorRGB
 90
      255
102
RTVSPost2010PropOp44
 70
     1
102
RTVSPost2010Prop45
280
     0
102
RTVSPost2010PropOp45
 70
     1
102
RTVSPost2010Prop46
 90
       50
102
RTVSPost2010PropOp46
 70
     1
102
RTVSPost2010Prop47
 90
       50
102
RTVSPost2010PropOp47
 70
     1
102
RTVSPost2010Prop48
 90
       50
102
RTVSPost2010PropOp48
 70
     1
102
RTVSPost2010Prop49
280
     0
102
RTVSPost2010PropOp49
 70
     1
102
RTVSPost2010Prop50
 90
       50
102
RTVSPost2010PropOp50
 70
     1
102
RTVSPost2010Prop51ColorIndex
 90
      256
102
RTVSPost2010Prop51ColorRGB
 90
-16777216
102
RTVSPost2010PropOp51
 70
     0
102
RTVSPost2010Prop52
140
1.0
102
RTVSPost2010PropOp52
 70
     0
102
RTVSPost2010Prop53
 90
        2
102
RTVSPost2010PropOp53
 70
     1
102
RTVSPost2010Prop54
  1
strokes_ogs.tif
102
RTVSPost2010PropOp54
 70
     1
102
RTVSPost2010Prop55
280
     0
102
RTVSPost2010PropOp55
 70
     1
102
RTVSPost2010Prop56
140
1.0
102
RTVSPost2010PropOp56
 70
     1
102
RTVSPost2010Prop57
140
1.0
102
RTVSPost2010PropOp57
 70
     1
102
RTVSPropertyOp0
 70
     1
102
RTVSPropertyOp1
 70
     1
102
RTVSPropertyOp2
 70
     1
102
RTVSPropertyOp3
 70
     1
102
RTVSPropertyOp4
 70
     1
102
RTVSPropertyOp5
 70
     1
102
RTVSPropertyOp6
 70
     1
102
RTVSPropertyOp7
 70
     1
102
RTVSPropertyOp8
 70
     1
102
RTVSPropertyOp9
 70
     1
102
RTVSPropertyOp10
 70
     1
102
RTVSPropertyOp11
 70
     1
102
RTVSPropertyOp12
 70
     1
102
RTVSPropertyOp13
 70
     1
102
RTVSPropertyOp14
 70
     1
102
RTVSPropertyOp15
 70
     1
102
RTVSPropertyOp16
 70
     1
102
RTVSPropertyOp17
 70
     1
102
RTVSPropertyOp18
 70
     1
102
RTVSPropertyOp19
 70
     1
102
RTVSPropertyOp20
 70
     1
102
RTVSPropertyOp21
 70
     1
102
RTVSPropertyOp22
 70
     1
102
RTVSPropertyOp23
 70
     1
102
RTVSPropertyOp24
 70
     1
102
RTVSPropertyOp25
 70
     1
102
RTVSPropertyOp26
 70
     1
102
RTVSPropertyOp27
 70
     1
102
RTVSPropertyOp28
 70
     1
102
RTVSPropertyOp29
 70
     1
102
RTVSPropertyOp30
 70
     1
102
RTVSPropertyOp31
 70
     1
102
RTVSPropertyOp32
 70
     1
102
RTVSPropertyOp33
 70
     1
102
RTVSPropertyOp34
 70
     1
102
RTVSPropertyOp35
 70
     1
102
RTVSPropertyOp36
 70
     1
102
RTVSPropertyOp37
 70
     1
102
RTVSPropertyOp38
 70
     1
102
RTVSPropertyOp39
 70
     1
102
RTVSPropertyOp40
 70
     1
102
RTVSPropertyOp41
 70
     1
102
RTVSPropertyOp42
 70
     1
102
RTVSPropertyOp43
 70
     1
102
RTVSPropertyOp44
 70
     1
102
RTVSPropertyOp45
 70
     1
102
RTVSPropertyOp46
 70
     1
102
RTVSPropertyOp47
 70
     1
102
RTVSPropertyOp48
 70
     1
102
RTVSPropertyOp49
 70
     1
102
RTVSPropertyOp50
 70
     1
102
RTVSPropertyOp51
 70
     0
102
RTVSPropertyOp52
 70
     0
102
RTVSPropertyOp53
 70
     1
102
RTVSPropertyOp54
 70
     1
102
RTVSPropertyOp55
 70
     1
102
RTVSPropertyOp56
 70
     1
102
RTVSPropertyOp57
 70
     1
102
RTVSPropertyOp58
 70
     1
102
RTVSPropertyOp59
 70
     1
102
RTVSPropertyOp60
 70
     1
102
RTVSPropertyOp61
 70
     1
102
RTVSPropertyOp62
 70
     1
  0
XRECORD
  5
C239
102
{ACAD_REACTORS
330
C238
102
}
330
C238
100
AcDbXrecord
280
     1
102
RTVSPost2010Prop28
280
     0
102
RTVSPost2010PropOp28
 70
     1
102
RTVSPost2010Prop29
280
     1
102
RTVSPost2010PropOp29
 70
     1
102
RTVSPost2010Prop30
280
     1
102
RTVSPost2010PropOp30
 70
     1
102
RTVSPost2010Prop31
280
     0
102
RTVSPost2010PropOp31
 70
     1
102
RTVSPost2010Prop32
280
     0
102
RTVSPost2010PropOp32
 70
     1
102
RTVSPost2010Prop33
280
     0
102
RTVSPost2010PropOp33
 70
     1
102
RTVSPost2010Prop34
280
     0
102
RTVSPost2010PropOp34
 70
     1
102
RTVSPost2010Prop35
280
     0
102
RTVSPost2010PropOp35
 70
     1
102
RTVSPost2010Prop36
280
     0
102
RTVSPost2010PropOp36
 70
     1
102
RTVSPost2010Prop37
 90
       50
102
RTVSPost2010PropOp37
 70
     1
102
RTVSPost2010Prop38
140
0.0
102
RTVSPost2010PropOp38
 70
     1
102
RTVSPost2010Prop39
140
1.0
102
RTVSPost2010PropOp39
 70
     1
102
RTVSPost2010Prop40
 90
        0
102
RTVSPost2010PropOp40
 70
     1
102
RTVSPost2010Prop41ColorIndex
 90
       18
102
RTVSPost2010Prop41ColorRGB
 90
        0
102
RTVSPost2010PropOp41
 70
     1
102
RTVSPost2010Prop42
 90
       50
102
RTVSPost2010PropOp42
 70
     1
102
RTVSPost2010Prop43
 90
        3
102
RTVSPost2010PropOp43
 70
     1
102
RTVSPost2010Prop44ColorIndex
 90
        5
102
RTVSPost2010Prop44ColorRGB
 90
      255
102
RTVSPost2010PropOp44
 70
     1
102
RTVSPost2010Prop45
280
     0
102
RTVSPost2010PropOp45
 70
     1
102
RTVSPost2010Prop46
 90
       50
102
RTVSPost2010PropOp46
 70
     1
102
RTVSPost2010Prop47
 90
       50
102
RTVSPost2010PropOp47
 70
     1
102
RTVSPost2010Prop48
 90
       50
102
RTVSPost2010PropOp48
 70
     1
102
RTVSPost2010Prop49
280
     0
102
RTVSPost2010PropOp49
 70
     1
102
RTVSPost2010Prop50
 90
       50
102
RTVSPost2010PropOp50
 70
     1
102
RTVSPost2010Prop51ColorIndex
 90
      256
102
RTVSPost2010Prop51ColorRGB
 90
-16777216
102
RTVSPost2010PropOp51
 70
     0
102
RTVSPost2010Prop52
140
1.0
102
RTVSPost2010PropOp52
 70
     0
102
RTVSPost2010Prop53
 90
        2
102
RTVSPost2010PropOp53
 70
     1
102
RTVSPost2010Prop54
  1
strokes_ogs.tif
102
RTVSPost2010PropOp54
 70
     1
102
RTVSPost2010Prop55
280
     0
102
RTVSPost2010PropOp55
 70
     1
102
RTVSPost2010Prop56
140
1.0
102
RTVSPost2010PropOp56
 70
     1
102
RTVSPost2010Prop57
140
1.0
102
RTVSPost2010PropOp57
 70
     1
102
RTVSPropertyOp0
 70
     1
102
RTVSPropertyOp1
 70
     1
102
RTVSPropertyOp2
 70
     1
102
RTVSPropertyOp3
 70
     1
102
RTVSPropertyOp4
 70
     1
102
RTVSPropertyOp5
 70
     1
102
RTVSPropertyOp6
 70
     1
102
RTVSPropertyOp7
 70
     1
102
RTVSPropertyOp8
 70
     1
102
RTVSPropertyOp9
 70
     1
102
RTVSPropertyOp10
 70
     1
102
RTVSPropertyOp11
 70
     1
102
RTVSPropertyOp12
 70
     1
102
RTVSPropertyOp13
 70
     1
102
RTVSPropertyOp14
 70
     1
102
RTVSPropertyOp15
 70
     1
102
RTVSPropertyOp16
 70
     1
102
RTVSPropertyOp17
 70
     1
102
RTVSPropertyOp18
 70
     1
102
RTVSPropertyOp19
 70
     1
102
RTVSPropertyOp20
 70
     1
102
RTVSPropertyOp21
 70
     1
102
RTVSPropertyOp22
 70
     1
102
RTVSPropertyOp23
 70
     1
102
RTVSPropertyOp24
 70
     1
102
RTVSPropertyOp25
 70
     1
102
RTVSPropertyOp26
 70
     1
102
RTVSPropertyOp27
 70
     1
102
RTVSPropertyOp28
 70
     1
102
RTVSPropertyOp29
 70
     1
102
RTVSPropertyOp30
 70
     1
102
RTVSPropertyOp31
 70
     1
102
RTVSPropertyOp32
 70
     1
102
RTVSPropertyOp33
 70
     1
102
RTVSPropertyOp34
 70
     1
102
RTVSPropertyOp35
 70
     1
102
RTVSPropertyOp36
 70
     1
102
RTVSPropertyOp37
 70
     1
102
RTVSPropertyOp38
 70
     1
102
RTVSPropertyOp39
 70
     1
102
RTVSPropertyOp40
 70
     1
102
RTVSPropertyOp41
 70
     1
102
RTVSPropertyOp42
 70
     1
102
RTVSPropertyOp43
 70
     1
102
RTVSPropertyOp44
 70
     1
102
RTVSPropertyOp45
 70
     1
102
RTVSPropertyOp46
 70
     1
102
RTVSPropertyOp47
 70
     1
102
RTVSPropertyOp48
 70
     1
102
RTVSPropertyOp49
 70
     1
102
RTVSPropertyOp50
 70
     1
102
RTVSPropertyOp51
 70
     0
102
RTVSPropertyOp52
 70
     0
102
RTVSPropertyOp53
 70
     1
102
RTVSPropertyOp54
 70
     1
102
RTVSPropertyOp55
 70
     1
102
RTVSPropertyOp56
 70
     1
102
RTVSPropertyOp57
 70
     1
102
RTVSPropertyOp58
 70
     1
102
RTVSPropertyOp59
 70
     1
102
RTVSPropertyOp60
 70
     1
102
RTVSPropertyOp61
 70
     1
102
RTVSPropertyOp62
 70
     1
  0
XRECORD
  5
C253
102
{ACAD_REACTORS
330
C252
102
}
330
C252
100
AcDbXrecord
280
     1
102
RTVSPost2010Prop28
280
     0
102
RTVSPost2010PropOp28
 70
     1
102
RTVSPost2010Prop29
280
     1
102
RTVSPost2010PropOp29
 70
     1
102
RTVSPost2010Prop30
280
     1
102
RTVSPost2010PropOp30
 70
     1
102
RTVSPost2010Prop31
280
     0
102
RTVSPost2010PropOp31
 70
     1
102
RTVSPost2010Prop32
280
     0
102
RTVSPost2010PropOp32
 70
     1
102
RTVSPost2010Prop33
280
     0
102
RTVSPost2010PropOp33
 70
     1
102
RTVSPost2010Prop34
280
     0
102
RTVSPost2010PropOp34
 70
     1
102
RTVSPost2010Prop35
280
     0
102
RTVSPost2010PropOp35
 70
     1
102
RTVSPost2010Prop36
280
     0
102
RTVSPost2010PropOp36
 70
     1
102
RTVSPost2010Prop37
 90
       50
102
RTVSPost2010PropOp37
 70
     0
102
RTVSPost2010Prop38
140
0.0
102
RTVSPost2010PropOp38
 70
     0
102
RTVSPost2010Prop39
140
1.0
102
RTVSPost2010PropOp39
 70
     0
102
RTVSPost2010Prop40
 90
        0
102
RTVSPost2010PropOp40
 70
     0
102
RTVSPost2010Prop41ColorIndex
 90
       18
102
RTVSPost2010Prop41ColorRGB
 90
        0
102
RTVSPost2010PropOp41
 70
     0
102
RTVSPost2010Prop42
 90
       50
102
RTVSPost2010PropOp42
 70
     0
102
RTVSPost2010Prop43
 90
        3
102
RTVSPost2010PropOp43
 70
     0
102
RTVSPost2010Prop44ColorIndex
 90
        5
102
RTVSPost2010Prop44ColorRGB
 90
      255
102
RTVSPost2010PropOp44
 70
     0
102
RTVSPost2010Prop45
280
     0
102
RTVSPost2010PropOp45
 70
     1
102
RTVSPost2010Prop46
 90
       50
102
RTVSPost2010PropOp46
 70
     0
102
RTVSPost2010Prop47
 90
       50
102
RTVSPost2010PropOp47
 70
     0
102
RTVSPost2010Prop48
 90
       50
102
RTVSPost2010PropOp48
 70
     0
102
RTVSPost2010Prop49
280
     0
102
RTVSPost2010PropOp49
 70
     1
102
RTVSPost2010Prop50
 90
       50
102
RTVSPost2010PropOp50
 70
     0
102
RTVSPost2010Prop51ColorIndex
 90
      256
102
RTVSPost2010Prop51ColorRGB
 90
-16777216
102
RTVSPost2010PropOp51
 70
     0
102
RTVSPost2010Prop52
140
1.0
102
RTVSPost2010PropOp52
 70
     0
102
RTVSPost2010Prop53
 90
        2
102
RTVSPost2010PropOp53
 70
     0
102
RTVSPost2010Prop54
  1
strokes_ogs.tif
102
RTVSPost2010PropOp54
 70
     0
102
RTVSPost2010Prop55
280
     0
102
RTVSPost2010PropOp55
 70
     1
102
RTVSPost2010Prop56
140
1.0
102
RTVSPost2010PropOp56
 70
     0
102
RTVSPost2010Prop57
140
1.0
102
RTVSPost2010PropOp57
 70
     0
102
RTVSPropertyOp0
 70
     0
102
RTVSPropertyOp1
 70
     0
102
RTVSPropertyOp2
 70
     0
102
RTVSPropertyOp3
 70
     0
102
RTVSPropertyOp4
 70
     0
102
RTVSPropertyOp5
 70
     0
102
RTVSPropertyOp6
 70
     0
102
RTVSPropertyOp7
 70
     0
102
RTVSPropertyOp8
 70
     0
102
RTVSPropertyOp9
 70
     0
102
RTVSPropertyOp10
 70
     0
102
RTVSPropertyOp11
 70
     0
102
RTVSPropertyOp12
 70
     0
102
RTVSPropertyOp13
 70
     0
102
RTVSPropertyOp14
 70
     2
102
RTVSPropertyOp15
 70
     0
102
RTVSPropertyOp16
 70
     0
102
RTVSPropertyOp17
 70
     0
102
RTVSPropertyOp18
 70
     0
102
RTVSPropertyOp19
 70
     0
102
RTVSPropertyOp20
 70
     0
102
RTVSPropertyOp21
 70
     0
102
RTVSPropertyOp22
 70
     0
102
RTVSPropertyOp23
 70
     0
102
RTVSPropertyOp24
 70
     0
102
RTVSPropertyOp25
 70
     0
102
RTVSPropertyOp26
 70
     0
102
RTVSPropertyOp27
 70
     0
102
RTVSPropertyOp28
 70
     1
102
RTVSPropertyOp29
 70
     1
102
RTVSPropertyOp30
 70
     1
102
RTVSPropertyOp31
 70
     1
102
RTVSPropertyOp32
 70
     1
102
RTVSPropertyOp33
 70
     1
102
RTVSPropertyOp34
 70
     1
102
RTVSPropertyOp35
 70
     1
102
RTVSPropertyOp36
 70
     1
102
RTVSPropertyOp37
 70
     0
102
RTVSPropertyOp38
 70
     0
102
RTVSPropertyOp39
 70
     0
102
RTVSPropertyOp40
 70
     0
102
RTVSPropertyOp41
 70
     0
102
RTVSPropertyOp42
 70
     0
102
RTVSPropertyOp43
 70
     0
102
RTVSPropertyOp44
 70
     0
102
RTVSPropertyOp45
 70
     1
102
RTVSPropertyOp46
 70
     0
102
RTVSPropertyOp47
 70
     0
102
RTVSPropertyOp48
 70
     0
102
RTVSPropertyOp49
 70
     1
102
RTVSPropertyOp50
 70
     0
102
RTVSPropertyOp51
 70
     0
102
RTVSPropertyOp52
 70
     0
102
RTVSPropertyOp53
 70
     0
102
RTVSPropertyOp54
 70
     0
102
RTVSPropertyOp55
 70
     1
102
RTVSPropertyOp56
 70
     0
102
RTVSPropertyOp57
 70
     0
102
RTVSPropertyOp58
 70
     0
102
RTVSPropertyOp59
 70
     0
102
RTVSPropertyOp60
 70
     0
102
RTVSPropertyOp61
 70
     0
102
RTVSPropertyOp62
 70
     0
  0
XRECORD
  5
C241
102
{ACAD_REACTORS
330
C240
102
}
330
C240
100
AcDbXrecord
280
     1
102
RTVSPost2010Prop28
280
     0
102
RTVSPost2010PropOp28
 70
     1
102
RTVSPost2010Prop29
280
     1
102
RTVSPost2010PropOp29
 70
     1
102
RTVSPost2010Prop30
280
     1
102
RTVSPost2010PropOp30
 70
     1
102
RTVSPost2010Prop31
280
     0
102
RTVSPost2010PropOp31
 70
     1
102
RTVSPost2010Prop32
280
     0
102
RTVSPost2010PropOp32
 70
     1
102
RTVSPost2010Prop33
280
     0
102
RTVSPost2010PropOp33
 70
     1
102
RTVSPost2010Prop34
280
     0
102
RTVSPost2010PropOp34
 70
     1
102
RTVSPost2010Prop35
280
     0
102
RTVSPost2010PropOp35
 70
     1
102
RTVSPost2010Prop36
280
     0
102
RTVSPost2010PropOp36
 70
     1
102
RTVSPost2010Prop37
 90
       50
102
RTVSPost2010PropOp37
 70
     1
102
RTVSPost2010Prop38
140
0.0
102
RTVSPost2010PropOp38
 70
     1
102
RTVSPost2010Prop39
140
1.0
102
RTVSPost2010PropOp39
 70
     1
102
RTVSPost2010Prop40
 90
        0
102
RTVSPost2010PropOp40
 70
     1
102
RTVSPost2010Prop41ColorIndex
 90
       18
102
RTVSPost2010Prop41ColorRGB
 90
        0
102
RTVSPost2010PropOp41
 70
     1
102
RTVSPost2010Prop42
 90
       50
102
RTVSPost2010PropOp42
 70
     1
102
RTVSPost2010Prop43
 90
        3
102
RTVSPost2010PropOp43
 70
     1
102
RTVSPost2010Prop44ColorIndex
 90
        5
102
RTVSPost2010Prop44ColorRGB
 90
      255
102
RTVSPost2010PropOp44
 70
     1
102
RTVSPost2010Prop45
280
     0
102
RTVSPost2010PropOp45
 70
     1
102
RTVSPost2010Prop46
 90
       50
102
RTVSPost2010PropOp46
 70
     1
102
RTVSPost2010Prop47
 90
       50
102
RTVSPost2010PropOp47
 70
     1
102
RTVSPost2010Prop48
 90
       50
102
RTVSPost2010PropOp48
 70
     1
102
RTVSPost2010Prop49
280
     0
102
RTVSPost2010PropOp49
 70
     1
102
RTVSPost2010Prop50
 90
       50
102
RTVSPost2010PropOp50
 70
     1
102
RTVSPost2010Prop51ColorIndex
 90
      256
102
RTVSPost2010Prop51ColorRGB
 90
-16777216
102
RTVSPost2010PropOp51
 70
     0
102
RTVSPost2010Prop52
140
1.0
102
RTVSPost2010PropOp52
 70
     0
102
RTVSPost2010Prop53
 90
        2
102
RTVSPost2010PropOp53
 70
     1
102
RTVSPost2010Prop54
  1
strokes_ogs.tif
102
RTVSPost2010PropOp54
 70
     1
102
RTVSPost2010Prop55
280
     0
102
RTVSPost2010PropOp55
 70
     1
102
RTVSPost2010Prop56
140
1.0
102
RTVSPost2010PropOp56
 70
     1
102
RTVSPost2010Prop57
140
1.0
102
RTVSPost2010PropOp57
 70
     1
102
RTVSPropertyOp0
 70
     1
102
RTVSPropertyOp1
 70
     1
102
RTVSPropertyOp2
 70
     1
102
RTVSPropertyOp3
 70
     1
102
RTVSPropertyOp4
 70
     1
102
RTVSPropertyOp5
 70
     1
102
RTVSPropertyOp6
 70
     1
102
RTVSPropertyOp7
 70
     1
102
RTVSPropertyOp8
 70
     1
102
RTVSPropertyOp9
 70
     1
102
RTVSPropertyOp10
 70
     1
102
RTVSPropertyOp11
 70
     1
102
RTVSPropertyOp12
 70
     1
102
RTVSPropertyOp13
 70
     1
102
RTVSPropertyOp14
 70
     1
102
RTVSPropertyOp15
 70
     1
102
RTVSPropertyOp16
 70
     1
102
RTVSPropertyOp17
 70
     1
102
RTVSPropertyOp18
 70
     1
102
RTVSPropertyOp19
 70
     1
102
RTVSPropertyOp20
 70
     1
102
RTVSPropertyOp21
 70
     1
102
RTVSPropertyOp22
 70
     1
102
RTVSPropertyOp23
 70
     1
102
RTVSPropertyOp24
 70
     1
102
RTVSPropertyOp25
 70
     1
102
RTVSPropertyOp26
 70
     1
102
RTVSPropertyOp27
 70
     1
102
RTVSPropertyOp28
 70
     1
102
RTVSPropertyOp29
 70
     1
102
RTVSPropertyOp30
 70
     1
102
RTVSPropertyOp31
 70
     1
102
RTVSPropertyOp32
 70
     1
102
RTVSPropertyOp33
 70
     1
102
RTVSPropertyOp34
 70
     1
102
RTVSPropertyOp35
 70
     1
102
RTVSPropertyOp36
 70
     1
102
RTVSPropertyOp37
 70
     1
102
RTVSPropertyOp38
 70
     1
102
RTVSPropertyOp39
 70
     1
102
RTVSPropertyOp40
 70
     1
102
RTVSPropertyOp41
 70
     1
102
RTVSPropertyOp42
 70
     1
102
RTVSPropertyOp43
 70
     1
102
RTVSPropertyOp44
 70
     1
102
RTVSPropertyOp45
 70
     1
102
RTVSPropertyOp46
 70
     1
102
RTVSPropertyOp47
 70
     1
102
RTVSPropertyOp48
 70
     1
102
RTVSPropertyOp49
 70
     1
102
RTVSPropertyOp50
 70
     1
102
RTVSPropertyOp51
 70
     0
102
RTVSPropertyOp52
 70
     0
102
RTVSPropertyOp53
 70
     1
102
RTVSPropertyOp54
 70
     1
102
RTVSPropertyOp55
 70
     1
102
RTVSPropertyOp56
 70
     1
102
RTVSPropertyOp57
 70
     1
102
RTVSPropertyOp58
 70
     1
102
RTVSPropertyOp59
 70
     1
102
RTVSPropertyOp60
 70
     1
102
RTVSPropertyOp61
 70
     1
102
RTVSPropertyOp62
 70
     1
  0
XRECORD
  5
C225
102
{ACAD_REACTORS
330
C224
102
}
330
C224
100
AcDbXrecord
280
     1
102
RTVSPost2010Prop28
280
     0
102
RTVSPost2010PropOp28
 70
     1
102
RTVSPost2010Prop29
280
     1
102
RTVSPost2010PropOp29
 70
     1
102
RTVSPost2010Prop30
280
     1
102
RTVSPost2010PropOp30
 70
     1
102
RTVSPost2010Prop31
280
     0
102
RTVSPost2010PropOp31
 70
     1
102
RTVSPost2010Prop32
280
     0
102
RTVSPost2010PropOp32
 70
     1
102
RTVSPost2010Prop33
280
     0
102
RTVSPost2010PropOp33
 70
     1
102
RTVSPost2010Prop34
280
     0
102
RTVSPost2010PropOp34
 70
     1
102
RTVSPost2010Prop35
280
     0
102
RTVSPost2010PropOp35
 70
     1
102
RTVSPost2010Prop36
280
     0
102
RTVSPost2010PropOp36
 70
     1
102
RTVSPost2010Prop37
 90
       50
102
RTVSPost2010PropOp37
 70
     1
102
RTVSPost2010Prop38
140
0.0
102
RTVSPost2010PropOp38
 70
     1
102
RTVSPost2010Prop39
140
1.0
102
RTVSPost2010PropOp39
 70
     1
102
RTVSPost2010Prop40
 90
        0
102
RTVSPost2010PropOp40
 70
     1
102
RTVSPost2010Prop41ColorIndex
 90
       18
102
RTVSPost2010Prop41ColorRGB
 90
        0
102
RTVSPost2010PropOp41
 70
     1
102
RTVSPost2010Prop42
 90
       50
102
RTVSPost2010PropOp42
 70
     1
102
RTVSPost2010Prop43
 90
        3
102
RTVSPost2010PropOp43
 70
     1
102
RTVSPost2010Prop44ColorIndex
 90
        5
102
RTVSPost2010Prop44ColorRGB
 90
      255
102
RTVSPost2010PropOp44
 70
     1
102
RTVSPost2010Prop45
280
     0
102
RTVSPost2010PropOp45
 70
     1
102
RTVSPost2010Prop46
 90
       50
102
RTVSPost2010PropOp46
 70
     1
102
RTVSPost2010Prop47
 90
       50
102
RTVSPost2010PropOp47
 70
     1
102
RTVSPost2010Prop48
 90
       50
102
RTVSPost2010PropOp48
 70
     1
102
RTVSPost2010Prop49
280
     0
102
RTVSPost2010PropOp49
 70
     1
102
RTVSPost2010Prop50
 90
       50
102
RTVSPost2010PropOp50
 70
     1
102
RTVSPost2010Prop51ColorIndex
 90
      256
102
RTVSPost2010Prop51ColorRGB
 90
-16777216
102
RTVSPost2010PropOp51
 70
     0
102
RTVSPost2010Prop52
140
1.0
102
RTVSPost2010PropOp52
 70
     0
102
RTVSPost2010Prop53
 90
        2
102
RTVSPost2010PropOp53
 70
     1
102
RTVSPost2010Prop54
  1
strokes_ogs.tif
102
RTVSPost2010PropOp54
 70
     1
102
RTVSPost2010Prop55
280
     0
102
RTVSPost2010PropOp55
 70
     1
102
RTVSPost2010Prop56
140
1.0
102
RTVSPost2010PropOp56
 70
     1
102
RTVSPost2010Prop57
140
1.0
102
RTVSPost2010PropOp57
 70
     1
102
RTVSPropertyOp0
 70
     1
102
RTVSPropertyOp1
 70
     1
102
RTVSPropertyOp2
 70
     1
102
RTVSPropertyOp3
 70
     1
102
RTVSPropertyOp4
 70
     1
102
RTVSPropertyOp5
 70
     1
102
RTVSPropertyOp6
 70
     1
102
RTVSPropertyOp7
 70
     1
102
RTVSPropertyOp8
 70
     1
102
RTVSPropertyOp9
 70
     1
102
RTVSPropertyOp10
 70
     1
102
RTVSPropertyOp11
 70
     1
102
RTVSPropertyOp12
 70
     1
102
RTVSPropertyOp13
 70
     1
102
RTVSPropertyOp14
 70
     1
102
RTVSPropertyOp15
 70
     1
102
RTVSPropertyOp16
 70
     1
102
RTVSPropertyOp17
 70
     1
102
RTVSPropertyOp18
 70
     1
102
RTVSPropertyOp19
 70
     1
102
RTVSPropertyOp20
 70
     1
102
RTVSPropertyOp21
 70
     1
102
RTVSPropertyOp22
 70
     1
102
RTVSPropertyOp23
 70
     1
102
RTVSPropertyOp24
 70
     1
102
RTVSPropertyOp25
 70
     1
102
RTVSPropertyOp26
 70
     1
102
RTVSPropertyOp27
 70
     1
102
RTVSPropertyOp28
 70
     1
102
RTVSPropertyOp29
 70
     1
102
RTVSPropertyOp30
 70
     1
102
RTVSPropertyOp31
 70
     1
102
RTVSPropertyOp32
 70
     1
102
RTVSPropertyOp33
 70
     1
102
RTVSPropertyOp34
 70
     1
102
RTVSPropertyOp35
 70
     1
102
RTVSPropertyOp36
 70
     1
102
RTVSPropertyOp37
 70
     1
102
RTVSPropertyOp38
 70
     1
102
RTVSPropertyOp39
 70
     1
102
RTVSPropertyOp40
 70
     1
102
RTVSPropertyOp41
 70
     1
102
RTVSPropertyOp42
 70
     1
102
RTVSPropertyOp43
 70
     1
102
RTVSPropertyOp44
 70
     1
102
RTVSPropertyOp45
 70
     1
102
RTVSPropertyOp46
 70
     1
102
RTVSPropertyOp47
 70
     1
102
RTVSPropertyOp48
 70
     1
102
RTVSPropertyOp49
 70
     1
102
RTVSPropertyOp50
 70
     1
102
RTVSPropertyOp51
 70
     0
102
RTVSPropertyOp52
 70
     0
102
RTVSPropertyOp53
 70
     1
102
RTVSPropertyOp54
 70
     1
102
RTVSPropertyOp55
 70
     1
102
RTVSPropertyOp56
 70
     1
102
RTVSPropertyOp57
 70
     1
102
RTVSPropertyOp58
 70
     1
102
RTVSPropertyOp59
 70
     1
102
RTVSPropertyOp60
 70
     1
102
RTVSPropertyOp61
 70
     1
102
RTVSPropertyOp62
 70
     1
  0
XRECORD
  5
C227
102
{ACAD_REACTORS
330
C226
102
}
330
C226
100
AcDbXrecord
280
     1
102
RTVSPost2010Prop28
280
     0
102
RTVSPost2010PropOp28
 70
     1
102
RTVSPost2010Prop29
280
     1
102
RTVSPost2010PropOp29
 70
     1
102
RTVSPost2010Prop30
280
     1
102
RTVSPost2010PropOp30
 70
     1
102
RTVSPost2010Prop31
280
     0
102
RTVSPost2010PropOp31
 70
     1
102
RTVSPost2010Prop32
280
     0
102
RTVSPost2010PropOp32
 70
     1
102
RTVSPost2010Prop33
280
     0
102
RTVSPost2010PropOp33
 70
     1
102
RTVSPost2010Prop34
280
     0
102
RTVSPost2010PropOp34
 70
     1
102
RTVSPost2010Prop35
280
     0
102
RTVSPost2010PropOp35
 70
     1
102
RTVSPost2010Prop36
280
     0
102
RTVSPost2010PropOp36
 70
     1
102
RTVSPost2010Prop37
 90
       50
102
RTVSPost2010PropOp37
 70
     1
102
RTVSPost2010Prop38
140
0.0
102
RTVSPost2010PropOp38
 70
     1
102
RTVSPost2010Prop39
140
1.0
102
RTVSPost2010PropOp39
 70
     1
102
RTVSPost2010Prop40
 90
        0
102
RTVSPost2010PropOp40
 70
     1
102
RTVSPost2010Prop41ColorIndex
 90
       18
102
RTVSPost2010Prop41ColorRGB
 90
        0
102
RTVSPost2010PropOp41
 70
     1
102
RTVSPost2010Prop42
 90
       50
102
RTVSPost2010PropOp42
 70
     1
102
RTVSPost2010Prop43
 90
        3
102
RTVSPost2010PropOp43
 70
     1
102
RTVSPost2010Prop44ColorIndex
 90
        5
102
RTVSPost2010Prop44ColorRGB
 90
      255
102
RTVSPost2010PropOp44
 70
     1
102
RTVSPost2010Prop45
280
     0
102
RTVSPost2010PropOp45
 70
     1
102
RTVSPost2010Prop46
 90
       50
102
RTVSPost2010PropOp46
 70
     1
102
RTVSPost2010Prop47
 90
       50
102
RTVSPost2010PropOp47
 70
     1
102
RTVSPost2010Prop48
 90
       50
102
RTVSPost2010PropOp48
 70
     1
102
RTVSPost2010Prop49
280
     0
102
RTVSPost2010PropOp49
 70
     1
102
RTVSPost2010Prop50
 90
       50
102
RTVSPost2010PropOp50
 70
     1
102
RTVSPost2010Prop51ColorIndex
 90
      256
102
RTVSPost2010Prop51ColorRGB
 90
-16777216
102
RTVSPost2010PropOp51
 70
     0
102
RTVSPost2010Prop52
140
1.0
102
RTVSPost2010PropOp52
 70
     0
102
RTVSPost2010Prop53
 90
        2
102
RTVSPost2010PropOp53
 70
     1
102
RTVSPost2010Prop54
  1
strokes_ogs.tif
102
RTVSPost2010PropOp54
 70
     1
102
RTVSPost2010Prop55
280
     0
102
RTVSPost2010PropOp55
 70
     1
102
RTVSPost2010Prop56
140
1.0
102
RTVSPost2010PropOp56
 70
     1
102
RTVSPost2010Prop57
140
1.0
102
RTVSPost2010PropOp57
 70
     1
102
RTVSPropertyOp0
 70
     1
102
RTVSPropertyOp1
 70
     1
102
RTVSPropertyOp2
 70
     1
102
RTVSPropertyOp3
 70
     1
102
RTVSPropertyOp4
 70
     1
102
RTVSPropertyOp5
 70
     1
102
RTVSPropertyOp6
 70
     1
102
RTVSPropertyOp7
 70
     1
102
RTVSPropertyOp8
 70
     1
102
RTVSPropertyOp9
 70
     1
102
RTVSPropertyOp10
 70
     1
102
RTVSPropertyOp11
 70
     1
102
RTVSPropertyOp12
 70
     1
102
RTVSPropertyOp13
 70
     1
102
RTVSPropertyOp14
 70
     1
102
RTVSPropertyOp15
 70
     1
102
RTVSPropertyOp16
 70
     1
102
RTVSPropertyOp17
 70
     1
102
RTVSPropertyOp18
 70
     1
102
RTVSPropertyOp19
 70
     1
102
RTVSPropertyOp20
 70
     1
102
RTVSPropertyOp21
 70
     1
102
RTVSPropertyOp22
 70
     1
102
RTVSPropertyOp23
 70
     1
102
RTVSPropertyOp24
 70
     1
102
RTVSPropertyOp25
 70
     1
102
RTVSPropertyOp26
 70
     1
102
RTVSPropertyOp27
 70
     1
102
RTVSPropertyOp28
 70
     1
102
RTVSPropertyOp29
 70
     1
102
RTVSPropertyOp30
 70
     1
102
RTVSPropertyOp31
 70
     1
102
RTVSPropertyOp32
 70
     1
102
RTVSPropertyOp33
 70
     1
102
RTVSPropertyOp34
 70
     1
102
RTVSPropertyOp35
 70
     1
102
RTVSPropertyOp36
 70
     1
102
RTVSPropertyOp37
 70
     1
102
RTVSPropertyOp38
 70
     1
102
RTVSPropertyOp39
 70
     1
102
RTVSPropertyOp40
 70
     1
102
RTVSPropertyOp41
 70
     1
102
RTVSPropertyOp42
 70
     1
102
RTVSPropertyOp43
 70
     1
102
RTVSPropertyOp44
 70
     1
102
RTVSPropertyOp45
 70
     1
102
RTVSPropertyOp46
 70
     1
102
RTVSPropertyOp47
 70
     1
102
RTVSPropertyOp48
 70
     1
102
RTVSPropertyOp49
 70
     1
102
RTVSPropertyOp50
 70
     1
102
RTVSPropertyOp51
 70
     0
102
RTVSPropertyOp52
 70
     0
102
RTVSPropertyOp53
 70
     1
102
RTVSPropertyOp54
 70
     1
102
RTVSPropertyOp55
 70
     1
102
RTVSPropertyOp56
 70
     1
102
RTVSPropertyOp57
 70
     1
102
RTVSPropertyOp58
 70
     1
102
RTVSPropertyOp59
 70
     1
102
RTVSPropertyOp60
 70
     1
102
RTVSPropertyOp61
 70
     1
102
RTVSPropertyOp62
 70
     1
  0
XRECORD
  5
C229
102
{ACAD_REACTORS
330
C228
102
}
330
C228
100
AcDbXrecord
280
     1
102
RTVSPost2010Prop28
280
     0
102
RTVSPost2010PropOp28
 70
     1
102
RTVSPost2010Prop29
280
     1
102
RTVSPost2010PropOp29
 70
     1
102
RTVSPost2010Prop30
280
     1
102
RTVSPost2010PropOp30
 70
     1
102
RTVSPost2010Prop31
280
     0
102
RTVSPost2010PropOp31
 70
     1
102
RTVSPost2010Prop32
280
     0
102
RTVSPost2010PropOp32
 70
     1
102
RTVSPost2010Prop33
280
     0
102
RTVSPost2010PropOp33
 70
     1
102
RTVSPost2010Prop34
280
     0
102
RTVSPost2010PropOp34
 70
     1
102
RTVSPost2010Prop35
280
     0
102
RTVSPost2010PropOp35
 70
     1
102
RTVSPost2010Prop36
280
     0
102
RTVSPost2010PropOp36
 70
     1
102
RTVSPost2010Prop37
 90
       50
102
RTVSPost2010PropOp37
 70
     1
102
RTVSPost2010Prop38
140
0.0
102
RTVSPost2010PropOp38
 70
     1
102
RTVSPost2010Prop39
140
1.0
102
RTVSPost2010PropOp39
 70
     1
102
RTVSPost2010Prop40
 90
        0
102
RTVSPost2010PropOp40
 70
     1
102
RTVSPost2010Prop41ColorIndex
 90
       18
102
RTVSPost2010Prop41ColorRGB
 90
        0
102
RTVSPost2010PropOp41
 70
     1
102
RTVSPost2010Prop42
 90
       50
102
RTVSPost2010PropOp42
 70
     1
102
RTVSPost2010Prop43
 90
        3
102
RTVSPost2010PropOp43
 70
     1
102
RTVSPost2010Prop44ColorIndex
 90
        5
102
RTVSPost2010Prop44ColorRGB
 90
      255
102
RTVSPost2010PropOp44
 70
     1
102
RTVSPost2010Prop45
280
     0
102
RTVSPost2010PropOp45
 70
     1
102
RTVSPost2010Prop46
 90
       50
102
RTVSPost2010PropOp46
 70
     1
102
RTVSPost2010Prop47
 90
       50
102
RTVSPost2010PropOp47
 70
     1
102
RTVSPost2010Prop48
 90
       50
102
RTVSPost2010PropOp48
 70
     1
102
RTVSPost2010Prop49
280
     0
102
RTVSPost2010PropOp49
 70
     1
102
RTVSPost2010Prop50
 90
       50
102
RTVSPost2010PropOp50
 70
     1
102
RTVSPost2010Prop51ColorIndex
 90
      256
102
RTVSPost2010Prop51ColorRGB
 90
-16777216
102
RTVSPost2010PropOp51
 70
     0
102
RTVSPost2010Prop52
140
1.0
102
RTVSPost2010PropOp52
 70
     0
102
RTVSPost2010Prop53
 90
        2
102
RTVSPost2010PropOp53
 70
     1
102
RTVSPost2010Prop54
  1
strokes_ogs.tif
102
RTVSPost2010PropOp54
 70
     1
102
RTVSPost2010Prop55
280
     0
102
RTVSPost2010PropOp55
 70
     1
102
RTVSPost2010Prop56
140
1.0
102
RTVSPost2010PropOp56
 70
     1
102
RTVSPost2010Prop57
140
1.0
102
RTVSPost2010PropOp57
 70
     1
102
RTVSPropertyOp0
 70
     1
102
RTVSPropertyOp1
 70
     1
102
RTVSPropertyOp2
 70
     1
102
RTVSPropertyOp3
 70
     1
102
RTVSPropertyOp4
 70
     1
102
RTVSPropertyOp5
 70
     1
102
RTVSPropertyOp6
 70
     1
102
RTVSPropertyOp7
 70
     1
102
RTVSPropertyOp8
 70
     1
102
RTVSPropertyOp9
 70
     1
102
RTVSPropertyOp10
 70
     1
102
RTVSPropertyOp11
 70
     1
102
RTVSPropertyOp12
 70
     1
102
RTVSPropertyOp13
 70
     1
102
RTVSPropertyOp14
 70
     1
102
RTVSPropertyOp15
 70
     1
102
RTVSPropertyOp16
 70
     1
102
RTVSPropertyOp17
 70
     1
102
RTVSPropertyOp18
 70
     1
102
RTVSPropertyOp19
 70
     1
102
RTVSPropertyOp20
 70
     1
102
RTVSPropertyOp21
 70
     1
102
RTVSPropertyOp22
 70
     1
102
RTVSPropertyOp23
 70
     1
102
RTVSPropertyOp24
 70
     1
102
RTVSPropertyOp25
 70
     1
102
RTVSPropertyOp26
 70
     1
102
RTVSPropertyOp27
 70
     1
102
RTVSPropertyOp28
 70
     1
102
RTVSPropertyOp29
 70
     1
102
RTVSPropertyOp30
 70
     1
102
RTVSPropertyOp31
 70
     1
102
RTVSPropertyOp32
 70
     1
102
RTVSPropertyOp33
 70
     1
102
RTVSPropertyOp34
 70
     1
102
RTVSPropertyOp35
 70
     1
102
RTVSPropertyOp36
 70
     1
102
RTVSPropertyOp37
 70
     1
102
RTVSPropertyOp38
 70
     1
102
RTVSPropertyOp39
 70
     1
102
RTVSPropertyOp40
 70
     1
102
RTVSPropertyOp41
 70
     1
102
RTVSPropertyOp42
 70
     1
102
RTVSPropertyOp43
 70
     1
102
RTVSPropertyOp44
 70
     1
102
RTVSPropertyOp45
 70
     1
102
RTVSPropertyOp46
 70
     1
102
RTVSPropertyOp47
 70
     1
102
RTVSPropertyOp48
 70
     1
102
RTVSPropertyOp49
 70
     1
102
RTVSPropertyOp50
 70
     1
102
RTVSPropertyOp51
 70
     0
102
RTVSPropertyOp52
 70
     0
102
RTVSPropertyOp53
 70
     1
102
RTVSPropertyOp54
 70
     1
102
RTVSPropertyOp55
 70
     1
102
RTVSPropertyOp56
 70
     1
102
RTVSPropertyOp57
 70
     1
102
RTVSPropertyOp58
 70
     1
102
RTVSPropertyOp59
 70
     1
102
RTVSPropertyOp60
 70
     1
102
RTVSPropertyOp61
 70
     1
102
RTVSPropertyOp62
 70
     1
  0
XRECORD
  5
C22B
102
{ACAD_REACTORS
330
C22A
102
}
330
C22A
100
AcDbXrecord
280
     1
102
RTVSPost2010Prop28
280
     0
102
RTVSPost2010PropOp28
 70
     1
102
RTVSPost2010Prop29
280
     1
102
RTVSPost2010PropOp29
 70
     1
102
RTVSPost2010Prop30
280
     1
102
RTVSPost2010PropOp30
 70
     1
102
RTVSPost2010Prop31
280
     0
102
RTVSPost2010PropOp31
 70
     1
102
RTVSPost2010Prop32
280
     0
102
RTVSPost2010PropOp32
 70
     1
102
RTVSPost2010Prop33
280
     0
102
RTVSPost2010PropOp33
 70
     1
102
RTVSPost2010Prop34
280
     0
102
RTVSPost2010PropOp34
 70
     1
102
RTVSPost2010Prop35
280
     0
102
RTVSPost2010PropOp35
 70
     1
102
RTVSPost2010Prop36
280
     0
102
RTVSPost2010PropOp36
 70
     1
102
RTVSPost2010Prop37
 90
       50
102
RTVSPost2010PropOp37
 70
     1
102
RTVSPost2010Prop38
140
0.0
102
RTVSPost2010PropOp38
 70
     1
102
RTVSPost2010Prop39
140
1.0
102
RTVSPost2010PropOp39
 70
     1
102
RTVSPost2010Prop40
 90
        0
102
RTVSPost2010PropOp40
 70
     1
102
RTVSPost2010Prop41ColorIndex
 90
       18
102
RTVSPost2010Prop41ColorRGB
 90
        0
102
RTVSPost2010PropOp41
 70
     1
102
RTVSPost2010Prop42
 90
       50
102
RTVSPost2010PropOp42
 70
     1
102
RTVSPost2010Prop43
 90
        3
102
RTVSPost2010PropOp43
 70
     1
102
RTVSPost2010Prop44ColorIndex
 90
        5
102
RTVSPost2010Prop44ColorRGB
 90
      255
102
RTVSPost2010PropOp44
 70
     1
102
RTVSPost2010Prop45
280
     0
102
RTVSPost2010PropOp45
 70
     1
102
RTVSPost2010Prop46
 90
       50
102
RTVSPost2010PropOp46
 70
     1
102
RTVSPost2010Prop47
 90
       50
102
RTVSPost2010PropOp47
 70
     1
102
RTVSPost2010Prop48
 90
       50
102
RTVSPost2010PropOp48
 70
     1
102
RTVSPost2010Prop49
280
     0
102
RTVSPost2010PropOp49
 70
     1
102
RTVSPost2010Prop50
 90
       50
102
RTVSPost2010PropOp50
 70
     1
102
RTVSPost2010Prop51ColorIndex
 90
      256
102
RTVSPost2010Prop51ColorRGB
 90
-16777216
102
RTVSPost2010PropOp51
 70
     0
102
RTVSPost2010Prop52
140
1.0
102
RTVSPost2010PropOp52
 70
     0
102
RTVSPost2010Prop53
 90
        2
102
RTVSPost2010PropOp53
 70
     1
102
RTVSPost2010Prop54
  1
strokes_ogs.tif
102
RTVSPost2010PropOp54
 70
     1
102
RTVSPost2010Prop55
280
     0
102
RTVSPost2010PropOp55
 70
     1
102
RTVSPost2010Prop56
140
1.0
102
RTVSPost2010PropOp56
 70
     1
102
RTVSPost2010Prop57
140
1.0
102
RTVSPost2010PropOp57
 70
     1
102
RTVSPropertyOp0
 70
     1
102
RTVSPropertyOp1
 70
     1
102
RTVSPropertyOp2
 70
     1
102
RTVSPropertyOp3
 70
     1
102
RTVSPropertyOp4
 70
     1
102
RTVSPropertyOp5
 70
     1
102
RTVSPropertyOp6
 70
     1
102
RTVSPropertyOp7
 70
     1
102
RTVSPropertyOp8
 70
     1
102
RTVSPropertyOp9
 70
     1
102
RTVSPropertyOp10
 70
     1
102
RTVSPropertyOp11
 70
     1
102
RTVSPropertyOp12
 70
     1
102
RTVSPropertyOp13
 70
     1
102
RTVSPropertyOp14
 70
     1
102
RTVSPropertyOp15
 70
     1
102
RTVSPropertyOp16
 70
     1
102
RTVSPropertyOp17
 70
     1
102
RTVSPropertyOp18
 70
     1
102
RTVSPropertyOp19
 70
     1
102
RTVSPropertyOp20
 70
     1
102
RTVSPropertyOp21
 70
     1
102
RTVSPropertyOp22
 70
     1
102
RTVSPropertyOp23
 70
     1
102
RTVSPropertyOp24
 70
     1
102
RTVSPropertyOp25
 70
     1
102
RTVSPropertyOp26
 70
     1
102
RTVSPropertyOp27
 70
     1
102
RTVSPropertyOp28
 70
     1
102
RTVSPropertyOp29
 70
     1
102
RTVSPropertyOp30
 70
     1
102
RTVSPropertyOp31
 70
     1
102
RTVSPropertyOp32
 70
     1
102
RTVSPropertyOp33
 70
     1
102
RTVSPropertyOp34
 70
     1
102
RTVSPropertyOp35
 70
     1
102
RTVSPropertyOp36
 70
     1
102
RTVSPropertyOp37
 70
     1
102
RTVSPropertyOp38
 70
     1
102
RTVSPropertyOp39
 70
     1
102
RTVSPropertyOp40
 70
     1
102
RTVSPropertyOp41
 70
     1
102
RTVSPropertyOp42
 70
     1
102
RTVSPropertyOp43
 70
     1
102
RTVSPropertyOp44
 70
     1
102
RTVSPropertyOp45
 70
     1
102
RTVSPropertyOp46
 70
     1
102
RTVSPropertyOp47
 70
     1
102
RTVSPropertyOp48
 70
     1
102
RTVSPropertyOp49
 70
     1
102
RTVSPropertyOp50
 70
     1
102
RTVSPropertyOp51
 70
     0
102
RTVSPropertyOp52
 70
     0
102
RTVSPropertyOp53
 70
     1
102
RTVSPropertyOp54
 70
     1
102
RTVSPropertyOp55
 70
     1
102
RTVSPropertyOp56
 70
     1
102
RTVSPropertyOp57
 70
     1
102
RTVSPropertyOp58
 70
     1
102
RTVSPropertyOp59
 70
     1
102
RTVSPropertyOp60
 70
     1
102
RTVSPropertyOp61
 70
     1
102
RTVSPropertyOp62
 70
     1
  0
XRECORD
  5
C233
102
{ACAD_REACTORS
330
C232
102
}
330
C232
100
AcDbXrecord
280
     1
102
RTVSPost2010Prop28
280
     0
102
RTVSPost2010PropOp28
 70
     1
102
RTVSPost2010Prop29
280
     1
102
RTVSPost2010PropOp29
 70
     1
102
RTVSPost2010Prop30
280
     1
102
RTVSPost2010PropOp30
 70
     1
102
RTVSPost2010Prop31
280
     0
102
RTVSPost2010PropOp31
 70
     1
102
RTVSPost2010Prop32
280
     0
102
RTVSPost2010PropOp32
 70
     1
102
RTVSPost2010Prop33
280
     0
102
RTVSPost2010PropOp33
 70
     1
102
RTVSPost2010Prop34
280
     0
102
RTVSPost2010PropOp34
 70
     1
102
RTVSPost2010Prop35
280
     0
102
RTVSPost2010PropOp35
 70
     1
102
RTVSPost2010Prop36
280
     0
102
RTVSPost2010PropOp36
 70
     1
102
RTVSPost2010Prop37
 90
       50
102
RTVSPost2010PropOp37
 70
     1
102
RTVSPost2010Prop38
140
0.0
102
RTVSPost2010PropOp38
 70
     1
102
RTVSPost2010Prop39
140
1.0
102
RTVSPost2010PropOp39
 70
     1
102
RTVSPost2010Prop40
 90
        0
102
RTVSPost2010PropOp40
 70
     1
102
RTVSPost2010Prop41ColorIndex
 90
       18
102
RTVSPost2010Prop41ColorRGB
 90
        0
102
RTVSPost2010PropOp41
 70
     1
102
RTVSPost2010Prop42
 90
       50
102
RTVSPost2010PropOp42
 70
     1
102
RTVSPost2010Prop43
 90
        3
102
RTVSPost2010PropOp43
 70
     1
102
RTVSPost2010Prop44ColorIndex
 90
        5
102
RTVSPost2010Prop44ColorRGB
 90
      255
102
RTVSPost2010PropOp44
 70
     1
102
RTVSPost2010Prop45
280
     0
102
RTVSPost2010PropOp45
 70
     1
102
RTVSPost2010Prop46
 90
       50
102
RTVSPost2010PropOp46
 70
     1
102
RTVSPost2010Prop47
 90
       50
102
RTVSPost2010PropOp47
 70
     1
102
RTVSPost2010Prop48
 90
       50
102
RTVSPost2010PropOp48
 70
     1
102
RTVSPost2010Prop49
280
     0
102
RTVSPost2010PropOp49
 70
     1
102
RTVSPost2010Prop50
 90
       50
102
RTVSPost2010PropOp50
 70
     1
102
RTVSPost2010Prop51ColorIndex
 90
      256
102
RTVSPost2010Prop51ColorRGB
 90
-16777216
102
RTVSPost2010PropOp51
 70
     0
102
RTVSPost2010Prop52
140
1.0
102
RTVSPost2010PropOp52
 70
     0
102
RTVSPost2010Prop53
 90
        2
102
RTVSPost2010PropOp53
 70
     1
102
RTVSPost2010Prop54
  1
strokes_ogs.tif
102
RTVSPost2010PropOp54
 70
     1
102
RTVSPost2010Prop55
280
     0
102
RTVSPost2010PropOp55
 70
     1
102
RTVSPost2010Prop56
140
1.0
102
RTVSPost2010PropOp56
 70
     1
102
RTVSPost2010Prop57
140
1.0
102
RTVSPost2010PropOp57
 70
     1
102
RTVSPropertyOp0
 70
     1
102
RTVSPropertyOp1
 70
     1
102
RTVSPropertyOp2
 70
     1
102
RTVSPropertyOp3
 70
     1
102
RTVSPropertyOp4
 70
     1
102
RTVSPropertyOp5
 70
     1
102
RTVSPropertyOp6
 70
     1
102
RTVSPropertyOp7
 70
     1
102
RTVSPropertyOp8
 70
     1
102
RTVSPropertyOp9
 70
     1
102
RTVSPropertyOp10
 70
     1
102
RTVSPropertyOp11
 70
     1
102
RTVSPropertyOp12
 70
     1
102
RTVSPropertyOp13
 70
     1
102
RTVSPropertyOp14
 70
     1
102
RTVSPropertyOp15
 70
     1
102
RTVSPropertyOp16
 70
     1
102
RTVSPropertyOp17
 70
     1
102
RTVSPropertyOp18
 70
     1
102
RTVSPropertyOp19
 70
     1
102
RTVSPropertyOp20
 70
     1
102
RTVSPropertyOp21
 70
     1
102
RTVSPropertyOp22
 70
     1
102
RTVSPropertyOp23
 70
     1
102
RTVSPropertyOp24
 70
     1
102
RTVSPropertyOp25
 70
     1
102
RTVSPropertyOp26
 70
     1
102
RTVSPropertyOp27
 70
     1
102
RTVSPropertyOp28
 70
     1
102
RTVSPropertyOp29
 70
     1
102
RTVSPropertyOp30
 70
     1
102
RTVSPropertyOp31
 70
     1
102
RTVSPropertyOp32
 70
     1
102
RTVSPropertyOp33
 70
     1
102
RTVSPropertyOp34
 70
     1
102
RTVSPropertyOp35
 70
     1
102
RTVSPropertyOp36
 70
     1
102
RTVSPropertyOp37
 70
     1
102
RTVSPropertyOp38
 70
     1
102
RTVSPropertyOp39
 70
     1
102
RTVSPropertyOp40
 70
     1
102
RTVSPropertyOp41
 70
     1
102
RTVSPropertyOp42
 70
     1
102
RTVSPropertyOp43
 70
     1
102
RTVSPropertyOp44
 70
     1
102
RTVSPropertyOp45
 70
     1
102
RTVSPropertyOp46
 70
     1
102
RTVSPropertyOp47
 70
     1
102
RTVSPropertyOp48
 70
     1
102
RTVSPropertyOp49
 70
     1
102
RTVSPropertyOp50
 70
     1
102
RTVSPropertyOp51
 70
     0
102
RTVSPropertyOp52
 70
     0
102
RTVSPropertyOp53
 70
     1
102
RTVSPropertyOp54
 70
     1
102
RTVSPropertyOp55
 70
     1
102
RTVSPropertyOp56
 70
     1
102
RTVSPropertyOp57
 70
     1
102
RTVSPropertyOp58
 70
     1
102
RTVSPropertyOp59
 70
     1
102
RTVSPropertyOp60
 70
     1
102
RTVSPropertyOp61
 70
     1
102
RTVSPropertyOp62
 70
     1
  0
XRECORD
  5
C24F
102
{ACAD_REACTORS
330
C24E
102
}
330
C24E
100
AcDbXrecord
280
     1
102
RTVSPost2010Prop28
280
     0
102
RTVSPost2010PropOp28
 70
     1
102
RTVSPost2010Prop29
280
     1
102
RTVSPost2010PropOp29
 70
     1
102
RTVSPost2010Prop30
280
     1
102
RTVSPost2010PropOp30
 70
     1
102
RTVSPost2010Prop31
280
     0
102
RTVSPost2010PropOp31
 70
     1
102
RTVSPost2010Prop32
280
     0
102
RTVSPost2010PropOp32
 70
     1
102
RTVSPost2010Prop33
280
     0
102
RTVSPost2010PropOp33
 70
     1
102
RTVSPost2010Prop34
280
     0
102
RTVSPost2010PropOp34
 70
     1
102
RTVSPost2010Prop35
280
     0
102
RTVSPost2010PropOp35
 70
     1
102
RTVSPost2010Prop36
280
     0
102
RTVSPost2010PropOp36
 70
     1
102
RTVSPost2010Prop37
 90
       50
102
RTVSPost2010PropOp37
 70
     0
102
RTVSPost2010Prop38
140
0.0
102
RTVSPost2010PropOp38
 70
     0
102
RTVSPost2010Prop39
140
1.0
102
RTVSPost2010PropOp39
 70
     0
102
RTVSPost2010Prop40
 90
        0
102
RTVSPost2010PropOp40
 70
     0
102
RTVSPost2010Prop41ColorIndex
 90
       18
102
RTVSPost2010Prop41ColorRGB
 90
        0
102
RTVSPost2010PropOp41
 70
     0
102
RTVSPost2010Prop42
 90
       50
102
RTVSPost2010PropOp42
 70
     0
102
RTVSPost2010Prop43
 90
        3
102
RTVSPost2010PropOp43
 70
     0
102
RTVSPost2010Prop44ColorIndex
 90
        5
102
RTVSPost2010Prop44ColorRGB
 90
      255
102
RTVSPost2010PropOp44
 70
     0
102
RTVSPost2010Prop45
280
     0
102
RTVSPost2010PropOp45
 70
     1
102
RTVSPost2010Prop46
 90
       50
102
RTVSPost2010PropOp46
 70
     0
102
RTVSPost2010Prop47
 90
       50
102
RTVSPost2010PropOp47
 70
     0
102
RTVSPost2010Prop48
 90
       50
102
RTVSPost2010PropOp48
 70
     0
102
RTVSPost2010Prop49
280
     0
102
RTVSPost2010PropOp49
 70
     1
102
RTVSPost2010Prop50
 90
       50
102
RTVSPost2010PropOp50
 70
     0
102
RTVSPost2010Prop51ColorIndex
 90
      256
102
RTVSPost2010Prop51ColorRGB
 90
-16777216
102
RTVSPost2010PropOp51
 70
     0
102
RTVSPost2010Prop52
140
1.0
102
RTVSPost2010PropOp52
 70
     0
102
RTVSPost2010Prop53
 90
        2
102
RTVSPost2010PropOp53
 70
     0
102
RTVSPost2010Prop54
  1
strokes_ogs.tif
102
RTVSPost2010PropOp54
 70
     0
102
RTVSPost2010Prop55
280
     0
102
RTVSPost2010PropOp55
 70
     1
102
RTVSPost2010Prop56
140
1.0
102
RTVSPost2010PropOp56
 70
     0
102
RTVSPost2010Prop57
140
1.0
102
RTVSPost2010PropOp57
 70
     0
102
RTVSPropertyOp0
 70
     0
102
RTVSPropertyOp1
 70
     0
102
RTVSPropertyOp2
 70
     0
102
RTVSPropertyOp3
 70
     0
102
RTVSPropertyOp4
 70
     0
102
RTVSPropertyOp5
 70
     0
102
RTVSPropertyOp6
 70
     0
102
RTVSPropertyOp7
 70
     0
102
RTVSPropertyOp8
 70
     0
102
RTVSPropertyOp9
 70
     0
102
RTVSPropertyOp10
 70
     0
102
RTVSPropertyOp11
 70
     0
102
RTVSPropertyOp12
 70
     0
102
RTVSPropertyOp13
 70
     0
102
RTVSPropertyOp14
 70
     2
102
RTVSPropertyOp15
 70
     0
102
RTVSPropertyOp16
 70
     0
102
RTVSPropertyOp17
 70
     0
102
RTVSPropertyOp18
 70
     0
102
RTVSPropertyOp19
 70
     0
102
RTVSPropertyOp20
 70
     0
102
RTVSPropertyOp21
 70
     0
102
RTVSPropertyOp22
 70
     0
102
RTVSPropertyOp23
 70
     0
102
RTVSPropertyOp24
 70
     0
102
RTVSPropertyOp25
 70
     0
102
RTVSPropertyOp26
 70
     0
102
RTVSPropertyOp27
 70
     0
102
RTVSPropertyOp28
 70
     1
102
RTVSPropertyOp29
 70
     1
102
RTVSPropertyOp30
 70
     1
102
RTVSPropertyOp31
 70
     1
102
RTVSPropertyOp32
 70
     1
102
RTVSPropertyOp33
 70
     1
102
RTVSPropertyOp34
 70
     1
102
RTVSPropertyOp35
 70
     1
102
RTVSPropertyOp36
 70
     1
102
RTVSPropertyOp37
 70
     0
102
RTVSPropertyOp38
 70
     0
102
RTVSPropertyOp39
 70
     0
102
RTVSPropertyOp40
 70
     0
102
RTVSPropertyOp41
 70
     0
102
RTVSPropertyOp42
 70
     0
102
RTVSPropertyOp43
 70
     0
102
RTVSPropertyOp44
 70
     0
102
RTVSPropertyOp45
 70
     1
102
RTVSPropertyOp46
 70
     0
102
RTVSPropertyOp47
 70
     0
102
RTVSPropertyOp48
 70
     0
102
RTVSPropertyOp49
 70
     1
102
RTVSPropertyOp50
 70
     0
102
RTVSPropertyOp51
 70
     0
102
RTVSPropertyOp52
 70
     0
102
RTVSPropertyOp53
 70
     0
102
RTVSPropertyOp54
 70
     0
102
RTVSPropertyOp55
 70
     1
102
RTVSPropertyOp56
 70
     0
102
RTVSPropertyOp57
 70
     0
102
RTVSPropertyOp58
 70
     0
102
RTVSPropertyOp59
 70
     0
102
RTVSPropertyOp60
 70
     0
102
RTVSPropertyOp61
 70
     0
102
RTVSPropertyOp62
 70
     0
  0
XRECORD
  5
C23F
102
{ACAD_REACTORS
330
C23E
102
}
330
C23E
100
AcDbXrecord
280
     1
102
RTVSPost2010Prop28
280
     0
102
RTVSPost2010PropOp28
 70
     1
102
RTVSPost2010Prop29
280
     1
102
RTVSPost2010PropOp29
 70
     1
102
RTVSPost2010Prop30
280
     1
102
RTVSPost2010PropOp30
 70
     1
102
RTVSPost2010Prop31
280
     0
102
RTVSPost2010PropOp31
 70
     1
102
RTVSPost2010Prop32
280
     0
102
RTVSPost2010PropOp32
 70
     1
102
RTVSPost2010Prop33
280
     0
102
RTVSPost2010PropOp33
 70
     1
102
RTVSPost2010Prop34
280
     0
102
RTVSPost2010PropOp34
 70
     1
102
RTVSPost2010Prop35
280
     0
102
RTVSPost2010PropOp35
 70
     1
102
RTVSPost2010Prop36
280
     0
102
RTVSPost2010PropOp36
 70
     1
102
RTVSPost2010Prop37
 90
       50
102
RTVSPost2010PropOp37
 70
     1
102
RTVSPost2010Prop38
140
0.0
102
RTVSPost2010PropOp38
 70
     1
102
RTVSPost2010Prop39
140
1.0
102
RTVSPost2010PropOp39
 70
     1
102
RTVSPost2010Prop40
 90
        0
102
RTVSPost2010PropOp40
 70
     1
102
RTVSPost2010Prop41ColorIndex
 90
       18
102
RTVSPost2010Prop41ColorRGB
 90
        0
102
RTVSPost2010PropOp41
 70
     1
102
RTVSPost2010Prop42
 90
       50
102
RTVSPost2010PropOp42
 70
     1
102
RTVSPost2010Prop43
 90
        3
102
RTVSPost2010PropOp43
 70
     1
102
RTVSPost2010Prop44ColorIndex
 90
        5
102
RTVSPost2010Prop44ColorRGB
 90
      255
102
RTVSPost2010PropOp44
 70
     1
102
RTVSPost2010Prop45
280
     0
102
RTVSPost2010PropOp45
 70
     1
102
RTVSPost2010Prop46
 90
       50
102
RTVSPost2010PropOp46
 70
     1
102
RTVSPost2010Prop47
 90
       50
102
RTVSPost2010PropOp47
 70
     1
102
RTVSPost2010Prop48
 90
       50
102
RTVSPost2010PropOp48
 70
     1
102
RTVSPost2010Prop49
280
     0
102
RTVSPost2010PropOp49
 70
     1
102
RTVSPost2010Prop50
 90
       50
102
RTVSPost2010PropOp50
 70
     1
102
RTVSPost2010Prop51ColorIndex
 90
      256
102
RTVSPost2010Prop51ColorRGB
 90
-16777216
102
RTVSPost2010PropOp51
 70
     0
102
RTVSPost2010Prop52
140
1.0
102
RTVSPost2010PropOp52
 70
     0
102
RTVSPost2010Prop53
 90
        2
102
RTVSPost2010PropOp53
 70
     1
102
RTVSPost2010Prop54
  1
strokes_ogs.tif
102
RTVSPost2010PropOp54
 70
     1
102
RTVSPost2010Prop55
280
     0
102
RTVSPost2010PropOp55
 70
     1
102
RTVSPost2010Prop56
140
1.0
102
RTVSPost2010PropOp56
 70
     1
102
RTVSPost2010Prop57
140
1.0
102
RTVSPost2010PropOp57
 70
     1
102
RTVSPropertyOp0
 70
     1
102
RTVSPropertyOp1
 70
     1
102
RTVSPropertyOp2
 70
     1
102
RTVSPropertyOp3
 70
     1
102
RTVSPropertyOp4
 70
     1
102
RTVSPropertyOp5
 70
     1
102
RTVSPropertyOp6
 70
     1
102
RTVSPropertyOp7
 70
     1
102
RTVSPropertyOp8
 70
     1
102
RTVSPropertyOp9
 70
     1
102
RTVSPropertyOp10
 70
     1
102
RTVSPropertyOp11
 70
     1
102
RTVSPropertyOp12
 70
     1
102
RTVSPropertyOp13
 70
     1
102
RTVSPropertyOp14
 70
     1
102
RTVSPropertyOp15
 70
     1
102
RTVSPropertyOp16
 70
     1
102
RTVSPropertyOp17
 70
     1
102
RTVSPropertyOp18
 70
     1
102
RTVSPropertyOp19
 70
     1
102
RTVSPropertyOp20
 70
     1
102
RTVSPropertyOp21
 70
     1
102
RTVSPropertyOp22
 70
     1
102
RTVSPropertyOp23
 70
     1
102
RTVSPropertyOp24
 70
     1
102
RTVSPropertyOp25
 70
     1
102
RTVSPropertyOp26
 70
     1
102
RTVSPropertyOp27
 70
     1
102
RTVSPropertyOp28
 70
     1
102
RTVSPropertyOp29
 70
     1
102
RTVSPropertyOp30
 70
     1
102
RTVSPropertyOp31
 70
     1
102
RTVSPropertyOp32
 70
     1
102
RTVSPropertyOp33
 70
     1
102
RTVSPropertyOp34
 70
     1
102
RTVSPropertyOp35
 70
     1
102
RTVSPropertyOp36
 70
     1
102
RTVSPropertyOp37
 70
     1
102
RTVSPropertyOp38
 70
     1
102
RTVSPropertyOp39
 70
     1
102
RTVSPropertyOp40
 70
     1
102
RTVSPropertyOp41
 70
     1
102
RTVSPropertyOp42
 70
     1
102
RTVSPropertyOp43
 70
     1
102
RTVSPropertyOp44
 70
     1
102
RTVSPropertyOp45
 70
     1
102
RTVSPropertyOp46
 70
     1
102
RTVSPropertyOp47
 70
     1
102
RTVSPropertyOp48
 70
     1
102
RTVSPropertyOp49
 70
     1
102
RTVSPropertyOp50
 70
     1
102
RTVSPropertyOp51
 70
     0
102
RTVSPropertyOp52
 70
     0
102
RTVSPropertyOp53
 70
     1
102
RTVSPropertyOp54
 70
     1
102
RTVSPropertyOp55
 70
     1
102
RTVSPropertyOp56
 70
     1
102
RTVSPropertyOp57
 70
     1
102
RTVSPropertyOp58
 70
     1
102
RTVSPropertyOp59
 70
     1
102
RTVSPropertyOp60
 70
     1
102
RTVSPropertyOp61
 70
     1
102
RTVSPropertyOp62
 70
     1
  0
XRECORD
  5
C251
102
{ACAD_REACTORS
330
C250
102
}
330
C250
100
AcDbXrecord
280
     1
102
RTVSPost2010Prop28
280
     0
102
RTVSPost2010PropOp28
 70
     1
102
RTVSPost2010Prop29
280
     1
102
RTVSPost2010PropOp29
 70
     1
102
RTVSPost2010Prop30
280
     1
102
RTVSPost2010PropOp30
 70
     1
102
RTVSPost2010Prop31
280
     0
102
RTVSPost2010PropOp31
 70
     1
102
RTVSPost2010Prop32
280
     0
102
RTVSPost2010PropOp32
 70
     1
102
RTVSPost2010Prop33
280
     0
102
RTVSPost2010PropOp33
 70
     1
102
RTVSPost2010Prop34
280
     0
102
RTVSPost2010PropOp34
 70
     1
102
RTVSPost2010Prop35
280
     0
102
RTVSPost2010PropOp35
 70
     1
102
RTVSPost2010Prop36
280
     0
102
RTVSPost2010PropOp36
 70
     1
102
RTVSPost2010Prop37
 90
       50
102
RTVSPost2010PropOp37
 70
     0
102
RTVSPost2010Prop38
140
0.0
102
RTVSPost2010PropOp38
 70
     0
102
RTVSPost2010Prop39
140
1.0
102
RTVSPost2010PropOp39
 70
     0
102
RTVSPost2010Prop40
 90
        0
102
RTVSPost2010PropOp40
 70
     0
102
RTVSPost2010Prop41ColorIndex
 90
       18
102
RTVSPost2010Prop41ColorRGB
 90
        0
102
RTVSPost2010PropOp41
 70
     0
102
RTVSPost2010Prop42
 90
       50
102
RTVSPost2010PropOp42
 70
     0
102
RTVSPost2010Prop43
 90
        3
102
RTVSPost2010PropOp43
 70
     0
102
RTVSPost2010Prop44ColorIndex
 90
        5
102
RTVSPost2010Prop44ColorRGB
 90
      255
102
RTVSPost2010PropOp44
 70
     0
102
RTVSPost2010Prop45
280
     0
102
RTVSPost2010PropOp45
 70
     1
102
RTVSPost2010Prop46
 90
       50
102
RTVSPost2010PropOp46
 70
     0
102
RTVSPost2010Prop47
 90
       50
102
RTVSPost2010PropOp47
 70
     0
102
RTVSPost2010Prop48
 90
       50
102
RTVSPost2010PropOp48
 70
     0
102
RTVSPost2010Prop49
280
     0
102
RTVSPost2010PropOp49
 70
     1
102
RTVSPost2010Prop50
 90
       50
102
RTVSPost2010PropOp50
 70
     0
102
RTVSPost2010Prop51ColorIndex
 90
      256
102
RTVSPost2010Prop51ColorRGB
 90
-16777216
102
RTVSPost2010PropOp51
 70
     0
102
RTVSPost2010Prop52
140
1.0
102
RTVSPost2010PropOp52
 70
     0
102
RTVSPost2010Prop53
 90
        2
102
RTVSPost2010PropOp53
 70
     0
102
RTVSPost2010Prop54
  1
strokes_ogs.tif
102
RTVSPost2010PropOp54
 70
     0
102
RTVSPost2010Prop55
280
     0
102
RTVSPost2010PropOp55
 70
     1
102
RTVSPost2010Prop56
140
1.0
102
RTVSPost2010PropOp56
 70
     0
102
RTVSPost2010Prop57
140
1.0
102
RTVSPost2010PropOp57
 70
     0
102
RTVSPropertyOp0
 70
     0
102
RTVSPropertyOp1
 70
     0
102
RTVSPropertyOp2
 70
     0
102
RTVSPropertyOp3
 70
     0
102
RTVSPropertyOp4
 70
     0
102
RTVSPropertyOp5
 70
     0
102
RTVSPropertyOp6
 70
     0
102
RTVSPropertyOp7
 70
     0
102
RTVSPropertyOp8
 70
     0
102
RTVSPropertyOp9
 70
     0
102
RTVSPropertyOp10
 70
     0
102
RTVSPropertyOp11
 70
     0
102
RTVSPropertyOp12
 70
     0
102
RTVSPropertyOp13
 70
     0
102
RTVSPropertyOp14
 70
     2
102
RTVSPropertyOp15
 70
     0
102
RTVSPropertyOp16
 70
     0
102
RTVSPropertyOp17
 70
     0
102
RTVSPropertyOp18
 70
     0
102
RTVSPropertyOp19
 70
     0
102
RTVSPropertyOp20
 70
     0
102
RTVSPropertyOp21
 70
     0
102
RTVSPropertyOp22
 70
     0
102
RTVSPropertyOp23
 70
     0
102
RTVSPropertyOp24
 70
     0
102
RTVSPropertyOp25
 70
     0
102
RTVSPropertyOp26
 70
     0
102
RTVSPropertyOp27
 70
     0
102
RTVSPropertyOp28
 70
     1
102
RTVSPropertyOp29
 70
     1
102
RTVSPropertyOp30
 70
     1
102
RTVSPropertyOp31
 70
     1
102
RTVSPropertyOp32
 70
     1
102
RTVSPropertyOp33
 70
     1
102
RTVSPropertyOp34
 70
     1
102
RTVSPropertyOp35
 70
     1
102
RTVSPropertyOp36
 70
     1
102
RTVSPropertyOp37
 70
     0
102
RTVSPropertyOp38
 70
     0
102
RTVSPropertyOp39
 70
     0
102
RTVSPropertyOp40
 70
     0
102
RTVSPropertyOp41
 70
     0
102
RTVSPropertyOp42
 70
     0
102
RTVSPropertyOp43
 70
     0
102
RTVSPropertyOp44
 70
     0
102
RTVSPropertyOp45
 70
     1
102
RTVSPropertyOp46
 70
     0
102
RTVSPropertyOp47
 70
     0
102
RTVSPropertyOp48
 70
     0
102
RTVSPropertyOp49
 70
     1
102
RTVSPropertyOp50
 70
     0
102
RTVSPropertyOp51
 70
     0
102
RTVSPropertyOp52
 70
     0
102
RTVSPropertyOp53
 70
     0
102
RTVSPropertyOp54
 70
     0
102
RTVSPropertyOp55
 70
     1
102
RTVSPropertyOp56
 70
     0
102
RTVSPropertyOp57
 70
     0
102
RTVSPropertyOp58
 70
     0
102
RTVSPropertyOp59
 70
     0
102
RTVSPropertyOp60
 70
     0
102
RTVSPropertyOp61
 70
     0
102
RTVSPropertyOp62
 70
     0
  0
XRECORD
  5
C237
102
{ACAD_REACTORS
330
C236
102
}
330
C236
100
AcDbXrecord
280
     1
102
RTVSPost2010Prop28
280
     0
102
RTVSPost2010PropOp28
 70
     1
102
RTVSPost2010Prop29
280
     1
102
RTVSPost2010PropOp29
 70
     1
102
RTVSPost2010Prop30
280
     1
102
RTVSPost2010PropOp30
 70
     1
102
RTVSPost2010Prop31
280
     0
102
RTVSPost2010PropOp31
 70
     1
102
RTVSPost2010Prop32
280
     0
102
RTVSPost2010PropOp32
 70
     1
102
RTVSPost2010Prop33
280
     0
102
RTVSPost2010PropOp33
 70
     1
102
RTVSPost2010Prop34
280
     0
102
RTVSPost2010PropOp34
 70
     1
102
RTVSPost2010Prop35
280
     0
102
RTVSPost2010PropOp35
 70
     1
102
RTVSPost2010Prop36
280
     0
102
RTVSPost2010PropOp36
 70
     1
102
RTVSPost2010Prop37
 90
       50
102
RTVSPost2010PropOp37
 70
     1
102
RTVSPost2010Prop38
140
0.0
102
RTVSPost2010PropOp38
 70
     1
102
RTVSPost2010Prop39
140
1.0
102
RTVSPost2010PropOp39
 70
     1
102
RTVSPost2010Prop40
 90
        0
102
RTVSPost2010PropOp40
 70
     1
102
RTVSPost2010Prop41ColorIndex
 90
       18
102
RTVSPost2010Prop41ColorRGB
 90
        0
102
RTVSPost2010PropOp41
 70
     1
102
RTVSPost2010Prop42
 90
       50
102
RTVSPost2010PropOp42
 70
     1
102
RTVSPost2010Prop43
 90
        3
102
RTVSPost2010PropOp43
 70
     1
102
RTVSPost2010Prop44ColorIndex
 90
        5
102
RTVSPost2010Prop44ColorRGB
 90
      255
102
RTVSPost2010PropOp44
 70
     1
102
RTVSPost2010Prop45
280
     0
102
RTVSPost2010PropOp45
 70
     1
102
RTVSPost2010Prop46
 90
       50
102
RTVSPost2010PropOp46
 70
     1
102
RTVSPost2010Prop47
 90
       50
102
RTVSPost2010PropOp47
 70
     1
102
RTVSPost2010Prop48
 90
       50
102
RTVSPost2010PropOp48
 70
     1
102
RTVSPost2010Prop49
280
     0
102
RTVSPost2010PropOp49
 70
     1
102
RTVSPost2010Prop50
 90
       50
102
RTVSPost2010PropOp50
 70
     1
102
RTVSPost2010Prop51ColorIndex
 90
      256
102
RTVSPost2010Prop51ColorRGB
 90
-16777216
102
RTVSPost2010PropOp51
 70
     0
102
RTVSPost2010Prop52
140
1.0
102
RTVSPost2010PropOp52
 70
     0
102
RTVSPost2010Prop53
 90
        2
102
RTVSPost2010PropOp53
 70
     1
102
RTVSPost2010Prop54
  1
strokes_ogs.tif
102
RTVSPost2010PropOp54
 70
     1
102
RTVSPost2010Prop55
280
     0
102
RTVSPost2010PropOp55
 70
     1
102
RTVSPost2010Prop56
140
1.0
102
RTVSPost2010PropOp56
 70
     1
102
RTVSPost2010Prop57
140
1.0
102
RTVSPost2010PropOp57
 70
     1
102
RTVSPropertyOp0
 70
     1
102
RTVSPropertyOp1
 70
     1
102
RTVSPropertyOp2
 70
     1
102
RTVSPropertyOp3
 70
     1
102
RTVSPropertyOp4
 70
     1
102
RTVSPropertyOp5
 70
     1
102
RTVSPropertyOp6
 70
     1
102
RTVSPropertyOp7
 70
     1
102
RTVSPropertyOp8
 70
     1
102
RTVSPropertyOp9
 70
     1
102
RTVSPropertyOp10
 70
     1
102
RTVSPropertyOp11
 70
     1
102
RTVSPropertyOp12
 70
     1
102
RTVSPropertyOp13
 70
     1
102
RTVSPropertyOp14
 70
     1
102
RTVSPropertyOp15
 70
     1
102
RTVSPropertyOp16
 70
     1
102
RTVSPropertyOp17
 70
     1
102
RTVSPropertyOp18
 70
     1
102
RTVSPropertyOp19
 70
     1
102
RTVSPropertyOp20
 70
     1
102
RTVSPropertyOp21
 70
     1
102
RTVSPropertyOp22
 70
     1
102
RTVSPropertyOp23
 70
     1
102
RTVSPropertyOp24
 70
     1
102
RTVSPropertyOp25
 70
     1
102
RTVSPropertyOp26
 70
     1
102
RTVSPropertyOp27
 70
     1
102
RTVSPropertyOp28
 70
     1
102
RTVSPropertyOp29
 70
     1
102
RTVSPropertyOp30
 70
     1
102
RTVSPropertyOp31
 70
     1
102
RTVSPropertyOp32
 70
     1
102
RTVSPropertyOp33
 70
     1
102
RTVSPropertyOp34
 70
     1
102
RTVSPropertyOp35
 70
     1
102
RTVSPropertyOp36
 70
     1
102
RTVSPropertyOp37
 70
     1
102
RTVSPropertyOp38
 70
     1
102
RTVSPropertyOp39
 70
     1
102
RTVSPropertyOp40
 70
     1
102
RTVSPropertyOp41
 70
     1
102
RTVSPropertyOp42
 70
     1
102
RTVSPropertyOp43
 70
     1
102
RTVSPropertyOp44
 70
     1
102
RTVSPropertyOp45
 70
     1
102
RTVSPropertyOp46
 70
     1
102
RTVSPropertyOp47
 70
     1
102
RTVSPropertyOp48
 70
     1
102
RTVSPropertyOp49
 70
     1
102
RTVSPropertyOp50
 70
     1
102
RTVSPropertyOp51
 70
     0
102
RTVSPropertyOp52
 70
     0
102
RTVSPropertyOp53
 70
     1
102
RTVSPropertyOp54
 70
     1
102
RTVSPropertyOp55
 70
     1
102
RTVSPropertyOp56
 70
     1
102
RTVSPropertyOp57
 70
     1
102
RTVSPropertyOp58
 70
     1
102
RTVSPropertyOp59
 70
     1
102
RTVSPropertyOp60
 70
     1
102
RTVSPropertyOp61
 70
     1
102
RTVSPropertyOp62
 70
     1
  0
XRECORD
  5
C24D
102
{ACAD_REACTORS
330
C24C
102
}
330
C24C
100
AcDbXrecord
280
     1
102
RTVSPost2010Prop28
280
     0
102
RTVSPost2010PropOp28
 70
     1
102
RTVSPost2010Prop29
280
     1
102
RTVSPost2010PropOp29
 70
     1
102
RTVSPost2010Prop30
280
     1
102
RTVSPost2010PropOp30
 70
     1
102
RTVSPost2010Prop31
280
     0
102
RTVSPost2010PropOp31
 70
     1
102
RTVSPost2010Prop32
280
     0
102
RTVSPost2010PropOp32
 70
     1
102
RTVSPost2010Prop33
280
     0
102
RTVSPost2010PropOp33
 70
     1
102
RTVSPost2010Prop34
280
     0
102
RTVSPost2010PropOp34
 70
     1
102
RTVSPost2010Prop35
280
     0
102
RTVSPost2010PropOp35
 70
     1
102
RTVSPost2010Prop36
280
     0
102
RTVSPost2010PropOp36
 70
     1
102
RTVSPost2010Prop37
 90
       50
102
RTVSPost2010PropOp37
 70
     1
102
RTVSPost2010Prop38
140
0.0
102
RTVSPost2010PropOp38
 70
     1
102
RTVSPost2010Prop39
140
1.0
102
RTVSPost2010PropOp39
 70
     1
102
RTVSPost2010Prop40
 90
        0
102
RTVSPost2010PropOp40
 70
     1
102
RTVSPost2010Prop41ColorIndex
 90
       18
102
RTVSPost2010Prop41ColorRGB
 90
        0
102
RTVSPost2010PropOp41
 70
     1
102
RTVSPost2010Prop42
 90
       50
102
RTVSPost2010PropOp42
 70
     1
102
RTVSPost2010Prop43
 90
        3
102
RTVSPost2010PropOp43
 70
     1
102
RTVSPost2010Prop44ColorIndex
 90
        5
102
RTVSPost2010Prop44ColorRGB
 90
      255
102
RTVSPost2010PropOp44
 70
     1
102
RTVSPost2010Prop45
280
     0
102
RTVSPost2010PropOp45
 70
     1
102
RTVSPost2010Prop46
 90
       50
102
RTVSPost2010PropOp46
 70
     1
102
RTVSPost2010Prop47
 90
       50
102
RTVSPost2010PropOp47
 70
     1
102
RTVSPost2010Prop48
 90
       50
102
RTVSPost2010PropOp48
 70
     1
102
RTVSPost2010Prop49
280
     0
102
RTVSPost2010PropOp49
 70
     1
102
RTVSPost2010Prop50
 90
       50
102
RTVSPost2010PropOp50
 70
     1
102
RTVSPost2010Prop51ColorIndex
 90
      256
102
RTVSPost2010Prop51ColorRGB
 90
-16777216
102
RTVSPost2010PropOp51
 70
     0
102
RTVSPost2010Prop52
140
1.0
102
RTVSPost2010PropOp52
 70
     0
102
RTVSPost2010Prop53
 90
        2
102
RTVSPost2010PropOp53
 70
     1
102
RTVSPost2010Prop54
  1
strokes_ogs.tif
102
RTVSPost2010PropOp54
 70
     1
102
RTVSPost2010Prop55
280
     0
102
RTVSPost2010PropOp55
 70
     1
102
RTVSPost2010Prop56
140
1.0
102
RTVSPost2010PropOp56
 70
     1
102
RTVSPost2010Prop57
140
1.0
102
RTVSPost2010PropOp57
 70
     1
102
RTVSPropertyOp0
 70
     1
102
RTVSPropertyOp1
 70
     1
102
RTVSPropertyOp2
 70
     1
102
RTVSPropertyOp3
 70
     1
102
RTVSPropertyOp4
 70
     1
102
RTVSPropertyOp5
 70
     1
102
RTVSPropertyOp6
 70
     1
102
RTVSPropertyOp7
 70
     1
102
RTVSPropertyOp8
 70
     1
102
RTVSPropertyOp9
 70
     1
102
RTVSPropertyOp10
 70
     1
102
RTVSPropertyOp11
 70
     1
102
RTVSPropertyOp12
 70
     1
102
RTVSPropertyOp13
 70
     1
102
RTVSPropertyOp14
 70
     1
102
RTVSPropertyOp15
 70
     1
102
RTVSPropertyOp16
 70
     1
102
RTVSPropertyOp17
 70
     1
102
RTVSPropertyOp18
 70
     1
102
RTVSPropertyOp19
 70
     1
102
RTVSPropertyOp20
 70
     1
102
RTVSPropertyOp21
 70
     1
102
RTVSPropertyOp22
 70
     1
102
RTVSPropertyOp23
 70
     1
102
RTVSPropertyOp24
 70
     1
102
RTVSPropertyOp25
 70
     1
102
RTVSPropertyOp26
 70
     1
102
RTVSPropertyOp27
 70
     1
102
RTVSPropertyOp28
 70
     1
102
RTVSPropertyOp29
 70
     1
102
RTVSPropertyOp30
 70
     1
102
RTVSPropertyOp31
 70
     1
102
RTVSPropertyOp32
 70
     1
102
RTVSPropertyOp33
 70
     1
102
RTVSPropertyOp34
 70
     1
102
RTVSPropertyOp35
 70
     1
102
RTVSPropertyOp36
 70
     1
102
RTVSPropertyOp37
 70
     1
102
RTVSPropertyOp38
 70
     1
102
RTVSPropertyOp39
 70
     1
102
RTVSPropertyOp40
 70
     1
102
RTVSPropertyOp41
 70
     1
102
RTVSPropertyOp42
 70
     1
102
RTVSPropertyOp43
 70
     1
102
RTVSPropertyOp44
 70
     1
102
RTVSPropertyOp45
 70
     1
102
RTVSPropertyOp46
 70
     1
102
RTVSPropertyOp47
 70
     1
102
RTVSPropertyOp48
 70
     1
102
RTVSPropertyOp49
 70
     1
102
RTVSPropertyOp50
 70
     1
102
RTVSPropertyOp51
 70
     0
102
RTVSPropertyOp52
 70
     0
102
RTVSPropertyOp53
 70
     1
102
RTVSPropertyOp54
 70
     1
102
RTVSPropertyOp55
 70
     1
102
RTVSPropertyOp56
 70
     1
102
RTVSPropertyOp57
 70
     1
102
RTVSPropertyOp58
 70
     1
102
RTVSPropertyOp59
 70
     1
102
RTVSPropertyOp60
 70
     1
102
RTVSPropertyOp61
 70
     1
102
RTVSPropertyOp62
 70
     1
  0
XRECORD
  5
C24B
102
{ACAD_REACTORS
330
C24A
102
}
330
C24A
100
AcDbXrecord
280
     1
102
RTVSPost2010Prop28
280
     0
102
RTVSPost2010PropOp28
 70
     1
102
RTVSPost2010Prop29
280
     1
102
RTVSPost2010PropOp29
 70
     1
102
RTVSPost2010Prop30
280
     1
102
RTVSPost2010PropOp30
 70
     1
102
RTVSPost2010Prop31
280
     0
102
RTVSPost2010PropOp31
 70
     1
102
RTVSPost2010Prop32
280
     0
102
RTVSPost2010PropOp32
 70
     1
102
RTVSPost2010Prop33
280
     0
102
RTVSPost2010PropOp33
 70
     1
102
RTVSPost2010Prop34
280
     0
102
RTVSPost2010PropOp34
 70
     1
102
RTVSPost2010Prop35
280
     0
102
RTVSPost2010PropOp35
 70
     1
102
RTVSPost2010Prop36
280
     0
102
RTVSPost2010PropOp36
 70
     1
102
RTVSPost2010Prop37
 90
       50
102
RTVSPost2010PropOp37
 70
     1
102
RTVSPost2010Prop38
140
0.0
102
RTVSPost2010PropOp38
 70
     1
102
RTVSPost2010Prop39
140
1.0
102
RTVSPost2010PropOp39
 70
     1
102
RTVSPost2010Prop40
 90
        0
102
RTVSPost2010PropOp40
 70
     1
102
RTVSPost2010Prop41ColorIndex
 90
       18
102
RTVSPost2010Prop41ColorRGB
 90
        0
102
RTVSPost2010PropOp41
 70
     1
102
RTVSPost2010Prop42
 90
       50
102
RTVSPost2010PropOp42
 70
     1
102
RTVSPost2010Prop43
 90
        3
102
RTVSPost2010PropOp43
 70
     1
102
RTVSPost2010Prop44ColorIndex
 90
        5
102
RTVSPost2010Prop44ColorRGB
 90
      255
102
RTVSPost2010PropOp44
 70
     1
102
RTVSPost2010Prop45
280
     0
102
RTVSPost2010PropOp45
 70
     1
102
RTVSPost2010Prop46
 90
       50
102
RTVSPost2010PropOp46
 70
     1
102
RTVSPost2010Prop47
 90
       50
102
RTVSPost2010PropOp47
 70
     1
102
RTVSPost2010Prop48
 90
       50
102
RTVSPost2010PropOp48
 70
     1
102
RTVSPost2010Prop49
280
     0
102
RTVSPost2010PropOp49
 70
     1
102
RTVSPost2010Prop50
 90
       50
102
RTVSPost2010PropOp50
 70
     1
102
RTVSPost2010Prop51ColorIndex
 90
      256
102
RTVSPost2010Prop51ColorRGB
 90
-16777216
102
RTVSPost2010PropOp51
 70
     0
102
RTVSPost2010Prop52
140
1.0
102
RTVSPost2010PropOp52
 70
     0
102
RTVSPost2010Prop53
 90
        2
102
RTVSPost2010PropOp53
 70
     1
102
RTVSPost2010Prop54
  1
strokes_ogs.tif
102
RTVSPost2010PropOp54
 70
     1
102
RTVSPost2010Prop55
280
     0
102
RTVSPost2010PropOp55
 70
     1
102
RTVSPost2010Prop56
140
1.0
102
RTVSPost2010PropOp56
 70
     1
102
RTVSPost2010Prop57
140
1.0
102
RTVSPost2010PropOp57
 70
     1
102
RTVSPropertyOp0
 70
     1
102
RTVSPropertyOp1
 70
     1
102
RTVSPropertyOp2
 70
     1
102
RTVSPropertyOp3
 70
     1
102
RTVSPropertyOp4
 70
     1
102
RTVSPropertyOp5
 70
     1
102
RTVSPropertyOp6
 70
     1
102
RTVSPropertyOp7
 70
     1
102
RTVSPropertyOp8
 70
     1
102
RTVSPropertyOp9
 70
     1
102
RTVSPropertyOp10
 70
     1
102
RTVSPropertyOp11
 70
     1
102
RTVSPropertyOp12
 70
     1
102
RTVSPropertyOp13
 70
     1
102
RTVSPropertyOp14
 70
     1
102
RTVSPropertyOp15
 70
     1
102
RTVSPropertyOp16
 70
     1
102
RTVSPropertyOp17
 70
     1
102
RTVSPropertyOp18
 70
     1
102
RTVSPropertyOp19
 70
     1
102
RTVSPropertyOp20
 70
     1
102
RTVSPropertyOp21
 70
     1
102
RTVSPropertyOp22
 70
     1
102
RTVSPropertyOp23
 70
     1
102
RTVSPropertyOp24
 70
     1
102
RTVSPropertyOp25
 70
     1
102
RTVSPropertyOp26
 70
     1
102
RTVSPropertyOp27
 70
     1
102
RTVSPropertyOp28
 70
     1
102
RTVSPropertyOp29
 70
     1
102
RTVSPropertyOp30
 70
     1
102
RTVSPropertyOp31
 70
     1
102
RTVSPropertyOp32
 70
     1
102
RTVSPropertyOp33
 70
     1
102
RTVSPropertyOp34
 70
     1
102
RTVSPropertyOp35
 70
     1
102
RTVSPropertyOp36
 70
     1
102
RTVSPropertyOp37
 70
     1
102
RTVSPropertyOp38
 70
     1
102
RTVSPropertyOp39
 70
     1
102
RTVSPropertyOp40
 70
     1
102
RTVSPropertyOp41
 70
     1
102
RTVSPropertyOp42
 70
     1
102
RTVSPropertyOp43
 70
     1
102
RTVSPropertyOp44
 70
     1
102
RTVSPropertyOp45
 70
     1
102
RTVSPropertyOp46
 70
     1
102
RTVSPropertyOp47
 70
     1
102
RTVSPropertyOp48
 70
     1
102
RTVSPropertyOp49
 70
     1
102
RTVSPropertyOp50
 70
     1
102
RTVSPropertyOp51
 70
     0
102
RTVSPropertyOp52
 70
     0
102
RTVSPropertyOp53
 70
     1
102
RTVSPropertyOp54
 70
     1
102
RTVSPropertyOp55
 70
     1
102
RTVSPropertyOp56
 70
     1
102
RTVSPropertyOp57
 70
     1
102
RTVSPropertyOp58
 70
     1
102
RTVSPropertyOp59
 70
     1
102
RTVSPropertyOp60
 70
     1
102
RTVSPropertyOp61
 70
     1
102
RTVSPropertyOp62
 70
     1
  0
XRECORD
  5
C245
102
{ACAD_REACTORS
330
C244
102
}
330
C244
100
AcDbXrecord
280
     1
102
RTVSPost2010Prop28
280
     0
102
RTVSPost2010PropOp28
 70
     1
102
RTVSPost2010Prop29
280
     1
102
RTVSPost2010PropOp29
 70
     1
102
RTVSPost2010Prop30
280
     1
102
RTVSPost2010PropOp30
 70
     1
102
RTVSPost2010Prop31
280
     0
102
RTVSPost2010PropOp31
 70
     1
102
RTVSPost2010Prop32
280
     0
102
RTVSPost2010PropOp32
 70
     1
102
RTVSPost2010Prop33
280
     0
102
RTVSPost2010PropOp33
 70
     1
102
RTVSPost2010Prop34
280
     0
102
RTVSPost2010PropOp34
 70
     1
102
RTVSPost2010Prop35
280
     0
102
RTVSPost2010PropOp35
 70
     1
102
RTVSPost2010Prop36
280
     0
102
RTVSPost2010PropOp36
 70
     1
102
RTVSPost2010Prop37
 90
       50
102
RTVSPost2010PropOp37
 70
     1
102
RTVSPost2010Prop38
140
0.0
102
RTVSPost2010PropOp38
 70
     1
102
RTVSPost2010Prop39
140
1.0
102
RTVSPost2010PropOp39
 70
     1
102
RTVSPost2010Prop40
 90
        0
102
RTVSPost2010PropOp40
 70
     1
102
RTVSPost2010Prop41ColorIndex
 90
       18
102
RTVSPost2010Prop41ColorRGB
 90
        0
102
RTVSPost2010PropOp41
 70
     1
102
RTVSPost2010Prop42
 90
       50
102
RTVSPost2010PropOp42
 70
     1
102
RTVSPost2010Prop43
 90
        3
102
RTVSPost2010PropOp43
 70
     1
102
RTVSPost2010Prop44ColorIndex
 90
        5
102
RTVSPost2010Prop44ColorRGB
 90
      255
102
RTVSPost2010PropOp44
 70
     1
102
RTVSPost2010Prop45
280
     0
102
RTVSPost2010PropOp45
 70
     1
102
RTVSPost2010Prop46
 90
       50
102
RTVSPost2010PropOp46
 70
     1
102
RTVSPost2010Prop47
 90
       50
102
RTVSPost2010PropOp47
 70
     1
102
RTVSPost2010Prop48
 90
       50
102
RTVSPost2010PropOp48
 70
     1
102
RTVSPost2010Prop49
280
     0
102
RTVSPost2010PropOp49
 70
     1
102
RTVSPost2010Prop50
 90
       50
102
RTVSPost2010PropOp50
 70
     1
102
RTVSPost2010Prop51ColorIndex
 90
      256
102
RTVSPost2010Prop51ColorRGB
 90
-16777216
102
RTVSPost2010PropOp51
 70
     0
102
RTVSPost2010Prop52
140
1.0
102
RTVSPost2010PropOp52
 70
     0
102
RTVSPost2010Prop53
 90
        2
102
RTVSPost2010PropOp53
 70
     1
102
RTVSPost2010Prop54
  1
strokes_ogs.tif
102
RTVSPost2010PropOp54
 70
     1
102
RTVSPost2010Prop55
280
     0
102
RTVSPost2010PropOp55
 70
     1
102
RTVSPost2010Prop56
140
1.0
102
RTVSPost2010PropOp56
 70
     1
102
RTVSPost2010Prop57
140
1.0
102
RTVSPost2010PropOp57
 70
     1
102
RTVSPropertyOp0
 70
     1
102
RTVSPropertyOp1
 70
     1
102
RTVSPropertyOp2
 70
     1
102
RTVSPropertyOp3
 70
     1
102
RTVSPropertyOp4
 70
     1
102
RTVSPropertyOp5
 70
     1
102
RTVSPropertyOp6
 70
     1
102
RTVSPropertyOp7
 70
     1
102
RTVSPropertyOp8
 70
     1
102
RTVSPropertyOp9
 70
     1
102
RTVSPropertyOp10
 70
     1
102
RTVSPropertyOp11
 70
     1
102
RTVSPropertyOp12
 70
     1
102
RTVSPropertyOp13
 70
     1
102
RTVSPropertyOp14
 70
     1
102
RTVSPropertyOp15
 70
     1
102
RTVSPropertyOp16
 70
     1
102
RTVSPropertyOp17
 70
     1
102
RTVSPropertyOp18
 70
     1
102
RTVSPropertyOp19
 70
     1
102
RTVSPropertyOp20
 70
     1
102
RTVSPropertyOp21
 70
     1
102
RTVSPropertyOp22
 70
     1
102
RTVSPropertyOp23
 70
     1
102
RTVSPropertyOp24
 70
     1
102
RTVSPropertyOp25
 70
     1
102
RTVSPropertyOp26
 70
     1
102
RTVSPropertyOp27
 70
     1
102
RTVSPropertyOp28
 70
     1
102
RTVSPropertyOp29
 70
     1
102
RTVSPropertyOp30
 70
     1
102
RTVSPropertyOp31
 70
     1
102
RTVSPropertyOp32
 70
     1
102
RTVSPropertyOp33
 70
     1
102
RTVSPropertyOp34
 70
     1
102
RTVSPropertyOp35
 70
     1
102
RTVSPropertyOp36
 70
     1
102
RTVSPropertyOp37
 70
     1
102
RTVSPropertyOp38
 70
     1
102
RTVSPropertyOp39
 70
     1
102
RTVSPropertyOp40
 70
     1
102
RTVSPropertyOp41
 70
     1
102
RTVSPropertyOp42
 70
     1
102
RTVSPropertyOp43
 70
     1
102
RTVSPropertyOp44
 70
     1
102
RTVSPropertyOp45
 70
     1
102
RTVSPropertyOp46
 70
     1
102
RTVSPropertyOp47
 70
     1
102
RTVSPropertyOp48
 70
     1
102
RTVSPropertyOp49
 70
     1
102
RTVSPropertyOp50
 70
     1
102
RTVSPropertyOp51
 70
     0
102
RTVSPropertyOp52
 70
     0
102
RTVSPropertyOp53
 70
     1
102
RTVSPropertyOp54
 70
     1
102
RTVSPropertyOp55
 70
     1
102
RTVSPropertyOp56
 70
     1
102
RTVSPropertyOp57
 70
     1
102
RTVSPropertyOp58
 70
     1
102
RTVSPropertyOp59
 70
     1
102
RTVSPropertyOp60
 70
     1
102
RTVSPropertyOp61
 70
     1
102
RTVSPropertyOp62
 70
     1
  0
XRECORD
  5
C247
102
{ACAD_REACTORS
330
C246
102
}
330
C246
100
AcDbXrecord
280
     1
102
RTVSPost2010Prop28
280
     0
102
RTVSPost2010PropOp28
 70
     1
102
RTVSPost2010Prop29
280
     1
102
RTVSPost2010PropOp29
 70
     1
102
RTVSPost2010Prop30
280
     1
102
RTVSPost2010PropOp30
 70
     1
102
RTVSPost2010Prop31
280
     0
102
RTVSPost2010PropOp31
 70
     1
102
RTVSPost2010Prop32
280
     0
102
RTVSPost2010PropOp32
 70
     1
102
RTVSPost2010Prop33
280
     0
102
RTVSPost2010PropOp33
 70
     1
102
RTVSPost2010Prop34
280
     0
102
RTVSPost2010PropOp34
 70
     1
102
RTVSPost2010Prop35
280
     0
102
RTVSPost2010PropOp35
 70
     1
102
RTVSPost2010Prop36
280
     0
102
RTVSPost2010PropOp36
 70
     1
102
RTVSPost2010Prop37
 90
       50
102
RTVSPost2010PropOp37
 70
     1
102
RTVSPost2010Prop38
140
0.0
102
RTVSPost2010PropOp38
 70
     1
102
RTVSPost2010Prop39
140
1.0
102
RTVSPost2010PropOp39
 70
     1
102
RTVSPost2010Prop40
 90
        0
102
RTVSPost2010PropOp40
 70
     1
102
RTVSPost2010Prop41ColorIndex
 90
       18
102
RTVSPost2010Prop41ColorRGB
 90
        0
102
RTVSPost2010PropOp41
 70
     1
102
RTVSPost2010Prop42
 90
       50
102
RTVSPost2010PropOp42
 70
     1
102
RTVSPost2010Prop43
 90
        3
102
RTVSPost2010PropOp43
 70
     1
102
RTVSPost2010Prop44ColorIndex
 90
        5
102
RTVSPost2010Prop44ColorRGB
 90
      255
102
RTVSPost2010PropOp44
 70
     1
102
RTVSPost2010Prop45
280
     0
102
RTVSPost2010PropOp45
 70
     1
102
RTVSPost2010Prop46
 90
       50
102
RTVSPost2010PropOp46
 70
     1
102
RTVSPost2010Prop47
 90
       50
102
RTVSPost2010PropOp47
 70
     1
102
RTVSPost2010Prop48
 90
       50
102
RTVSPost2010PropOp48
 70
     1
102
RTVSPost2010Prop49
280
     0
102
RTVSPost2010PropOp49
 70
     1
102
RTVSPost2010Prop50
 90
       50
102
RTVSPost2010PropOp50
 70
     1
102
RTVSPost2010Prop51ColorIndex
 90
      256
102
RTVSPost2010Prop51ColorRGB
 90
-16777216
102
RTVSPost2010PropOp51
 70
     0
102
RTVSPost2010Prop52
140
1.0
102
RTVSPost2010PropOp52
 70
     0
102
RTVSPost2010Prop53
 90
        2
102
RTVSPost2010PropOp53
 70
     1
102
RTVSPost2010Prop54
  1
strokes_ogs.tif
102
RTVSPost2010PropOp54
 70
     1
102
RTVSPost2010Prop55
280
     0
102
RTVSPost2010PropOp55
 70
     1
102
RTVSPost2010Prop56
140
1.0
102
RTVSPost2010PropOp56
 70
     1
102
RTVSPost2010Prop57
140
1.0
102
RTVSPost2010PropOp57
 70
     1
102
RTVSPropertyOp0
 70
     1
102
RTVSPropertyOp1
 70
     1
102
RTVSPropertyOp2
 70
     1
102
RTVSPropertyOp3
 70
     1
102
RTVSPropertyOp4
 70
     1
102
RTVSPropertyOp5
 70
     1
102
RTVSPropertyOp6
 70
     1
102
RTVSPropertyOp7
 70
     1
102
RTVSPropertyOp8
 70
     1
102
RTVSPropertyOp9
 70
     1
102
RTVSPropertyOp10
 70
     1
102
RTVSPropertyOp11
 70
     1
102
RTVSPropertyOp12
 70
     1
102
RTVSPropertyOp13
 70
     1
102
RTVSPropertyOp14
 70
     1
102
RTVSPropertyOp15
 70
     1
102
RTVSPropertyOp16
 70
     1
102
RTVSPropertyOp17
 70
     1
102
RTVSPropertyOp18
 70
     1
102
RTVSPropertyOp19
 70
     1
102
RTVSPropertyOp20
 70
     1
102
RTVSPropertyOp21
 70
     1
102
RTVSPropertyOp22
 70
     1
102
RTVSPropertyOp23
 70
     1
102
RTVSPropertyOp24
 70
     1
102
RTVSPropertyOp25
 70
     1
102
RTVSPropertyOp26
 70
     1
102
RTVSPropertyOp27
 70
     1
102
RTVSPropertyOp28
 70
     1
102
RTVSPropertyOp29
 70
     1
102
RTVSPropertyOp30
 70
     1
102
RTVSPropertyOp31
 70
     1
102
RTVSPropertyOp32
 70
     1
102
RTVSPropertyOp33
 70
     1
102
RTVSPropertyOp34
 70
     1
102
RTVSPropertyOp35
 70
     1
102
RTVSPropertyOp36
 70
     1
102
RTVSPropertyOp37
 70
     1
102
RTVSPropertyOp38
 70
     1
102
RTVSPropertyOp39
 70
     1
102
RTVSPropertyOp40
 70
     1
102
RTVSPropertyOp41
 70
     1
102
RTVSPropertyOp42
 70
     1
102
RTVSPropertyOp43
 70
     1
102
RTVSPropertyOp44
 70
     1
102
RTVSPropertyOp45
 70
     1
102
RTVSPropertyOp46
 70
     1
102
RTVSPropertyOp47
 70
     1
102
RTVSPropertyOp48
 70
     1
102
RTVSPropertyOp49
 70
     1
102
RTVSPropertyOp50
 70
     1
102
RTVSPropertyOp51
 70
     0
102
RTVSPropertyOp52
 70
     0
102
RTVSPropertyOp53
 70
     1
102
RTVSPropertyOp54
 70
     1
102
RTVSPropertyOp55
 70
     1
102
RTVSPropertyOp56
 70
     1
102
RTVSPropertyOp57
 70
     1
102
RTVSPropertyOp58
 70
     1
102
RTVSPropertyOp59
 70
     1
102
RTVSPropertyOp60
 70
     1
102
RTVSPropertyOp61
 70
     1
102
RTVSPropertyOp62
 70
     1
  0
XRECORD
  5
C23D
102
{ACAD_REACTORS
330
C23C
102
}
330
C23C
100
AcDbXrecord
280
     1
102
RTVSPost2010Prop28
280
     0
102
RTVSPost2010PropOp28
 70
     1
102
RTVSPost2010Prop29
280
     1
102
RTVSPost2010PropOp29
 70
     1
102
RTVSPost2010Prop30
280
     1
102
RTVSPost2010PropOp30
 70
     1
102
RTVSPost2010Prop31
280
     0
102
RTVSPost2010PropOp31
 70
     1
102
RTVSPost2010Prop32
280
     0
102
RTVSPost2010PropOp32
 70
     1
102
RTVSPost2010Prop33
280
     0
102
RTVSPost2010PropOp33
 70
     1
102
RTVSPost2010Prop34
280
     0
102
RTVSPost2010PropOp34
 70
     1
102
RTVSPost2010Prop35
280
     0
102
RTVSPost2010PropOp35
 70
     1
102
RTVSPost2010Prop36
280
     0
102
RTVSPost2010PropOp36
 70
     1
102
RTVSPost2010Prop37
 90
       50
102
RTVSPost2010PropOp37
 70
     1
102
RTVSPost2010Prop38
140
0.0
102
RTVSPost2010PropOp38
 70
     1
102
RTVSPost2010Prop39
140
1.0
102
RTVSPost2010PropOp39
 70
     1
102
RTVSPost2010Prop40
 90
        0
102
RTVSPost2010PropOp40
 70
     1
102
RTVSPost2010Prop41ColorIndex
 90
       18
102
RTVSPost2010Prop41ColorRGB
 90
        0
102
RTVSPost2010PropOp41
 70
     1
102
RTVSPost2010Prop42
 90
       50
102
RTVSPost2010PropOp42
 70
     1
102
RTVSPost2010Prop43
 90
        3
102
RTVSPost2010PropOp43
 70
     1
102
RTVSPost2010Prop44ColorIndex
 90
        5
102
RTVSPost2010Prop44ColorRGB
 90
      255
102
RTVSPost2010PropOp44
 70
     1
102
RTVSPost2010Prop45
280
     0
102
RTVSPost2010PropOp45
 70
     1
102
RTVSPost2010Prop46
 90
       50
102
RTVSPost2010PropOp46
 70
     1
102
RTVSPost2010Prop47
 90
       50
102
RTVSPost2010PropOp47
 70
     1
102
RTVSPost2010Prop48
 90
       50
102
RTVSPost2010PropOp48
 70
     1
102
RTVSPost2010Prop49
280
     0
102
RTVSPost2010PropOp49
 70
     1
102
RTVSPost2010Prop50
 90
       50
102
RTVSPost2010PropOp50
 70
     1
102
RTVSPost2010Prop51ColorIndex
 90
      256
102
RTVSPost2010Prop51ColorRGB
 90
-16777216
102
RTVSPost2010PropOp51
 70
     0
102
RTVSPost2010Prop52
140
1.0
102
RTVSPost2010PropOp52
 70
     0
102
RTVSPost2010Prop53
 90
        2
102
RTVSPost2010PropOp53
 70
     1
102
RTVSPost2010Prop54
  1
strokes_ogs.tif
102
RTVSPost2010PropOp54
 70
     1
102
RTVSPost2010Prop55
280
     0
102
RTVSPost2010PropOp55
 70
     1
102
RTVSPost2010Prop56
140
1.0
102
RTVSPost2010PropOp56
 70
     1
102
RTVSPost2010Prop57
140
1.0
102
RTVSPost2010PropOp57
 70
     1
102
RTVSPropertyOp0
 70
     1
102
RTVSPropertyOp1
 70
     1
102
RTVSPropertyOp2
 70
     1
102
RTVSPropertyOp3
 70
     1
102
RTVSPropertyOp4
 70
     1
102
RTVSPropertyOp5
 70
     1
102
RTVSPropertyOp6
 70
     1
102
RTVSPropertyOp7
 70
     1
102
RTVSPropertyOp8
 70
     1
102
RTVSPropertyOp9
 70
     1
102
RTVSPropertyOp10
 70
     1
102
RTVSPropertyOp11
 70
     1
102
RTVSPropertyOp12
 70
     1
102
RTVSPropertyOp13
 70
     1
102
RTVSPropertyOp14
 70
     1
102
RTVSPropertyOp15
 70
     1
102
RTVSPropertyOp16
 70
     1
102
RTVSPropertyOp17
 70
     1
102
RTVSPropertyOp18
 70
     1
102
RTVSPropertyOp19
 70
     1
102
RTVSPropertyOp20
 70
     1
102
RTVSPropertyOp21
 70
     1
102
RTVSPropertyOp22
 70
     1
102
RTVSPropertyOp23
 70
     1
102
RTVSPropertyOp24
 70
     1
102
RTVSPropertyOp25
 70
     1
102
RTVSPropertyOp26
 70
     1
102
RTVSPropertyOp27
 70
     1
102
RTVSPropertyOp28
 70
     1
102
RTVSPropertyOp29
 70
     1
102
RTVSPropertyOp30
 70
     1
102
RTVSPropertyOp31
 70
     1
102
RTVSPropertyOp32
 70
     1
102
RTVSPropertyOp33
 70
     1
102
RTVSPropertyOp34
 70
     1
102
RTVSPropertyOp35
 70
     1
102
RTVSPropertyOp36
 70
     1
102
RTVSPropertyOp37
 70
     1
102
RTVSPropertyOp38
 70
     1
102
RTVSPropertyOp39
 70
     1
102
RTVSPropertyOp40
 70
     1
102
RTVSPropertyOp41
 70
     1
102
RTVSPropertyOp42
 70
     1
102
RTVSPropertyOp43
 70
     1
102
RTVSPropertyOp44
 70
     1
102
RTVSPropertyOp45
 70
     1
102
RTVSPropertyOp46
 70
     1
102
RTVSPropertyOp47
 70
     1
102
RTVSPropertyOp48
 70
     1
102
RTVSPropertyOp49
 70
     1
102
RTVSPropertyOp50
 70
     1
102
RTVSPropertyOp51
 70
     0
102
RTVSPropertyOp52
 70
     0
102
RTVSPropertyOp53
 70
     1
102
RTVSPropertyOp54
 70
     1
102
RTVSPropertyOp55
 70
     1
102
RTVSPropertyOp56
 70
     1
102
RTVSPropertyOp57
 70
     1
102
RTVSPropertyOp58
 70
     1
102
RTVSPropertyOp59
 70
     1
102
RTVSPropertyOp60
 70
     1
102
RTVSPropertyOp61
 70
     1
102
RTVSPropertyOp62
 70
     1
  0
XRECORD
  5
C231
102
{ACAD_REACTORS
330
C230
102
}
330
C230
100
AcDbXrecord
280
     1
102
RTVSPost2010Prop28
280
     0
102
RTVSPost2010PropOp28
 70
     1
102
RTVSPost2010Prop29
280
     1
102
RTVSPost2010PropOp29
 70
     1
102
RTVSPost2010Prop30
280
     1
102
RTVSPost2010PropOp30
 70
     1
102
RTVSPost2010Prop31
280
     0
102
RTVSPost2010PropOp31
 70
     1
102
RTVSPost2010Prop32
280
     0
102
RTVSPost2010PropOp32
 70
     1
102
RTVSPost2010Prop33
280
     0
102
RTVSPost2010PropOp33
 70
     1
102
RTVSPost2010Prop34
280
     0
102
RTVSPost2010PropOp34
 70
     1
102
RTVSPost2010Prop35
280
     0
102
RTVSPost2010PropOp35
 70
     1
102
RTVSPost2010Prop36
280
     0
102
RTVSPost2010PropOp36
 70
     1
102
RTVSPost2010Prop37
 90
       50
102
RTVSPost2010PropOp37
 70
     1
102
RTVSPost2010Prop38
140
0.0
102
RTVSPost2010PropOp38
 70
     1
102
RTVSPost2010Prop39
140
1.0
102
RTVSPost2010PropOp39
 70
     1
102
RTVSPost2010Prop40
 90
        0
102
RTVSPost2010PropOp40
 70
     1
102
RTVSPost2010Prop41ColorIndex
 90
       18
102
RTVSPost2010Prop41ColorRGB
 90
        0
102
RTVSPost2010PropOp41
 70
     1
102
RTVSPost2010Prop42
 90
       50
102
RTVSPost2010PropOp42
 70
     1
102
RTVSPost2010Prop43
 90
        3
102
RTVSPost2010PropOp43
 70
     1
102
RTVSPost2010Prop44ColorIndex
 90
        5
102
RTVSPost2010Prop44ColorRGB
 90
      255
102
RTVSPost2010PropOp44
 70
     1
102
RTVSPost2010Prop45
280
     0
102
RTVSPost2010PropOp45
 70
     1
102
RTVSPost2010Prop46
 90
       50
102
RTVSPost2010PropOp46
 70
     1
102
RTVSPost2010Prop47
 90
       50
102
RTVSPost2010PropOp47
 70
     1
102
RTVSPost2010Prop48
 90
       50
102
RTVSPost2010PropOp48
 70
     1
102
RTVSPost2010Prop49
280
     0
102
RTVSPost2010PropOp49
 70
     1
102
RTVSPost2010Prop50
 90
       50
102
RTVSPost2010PropOp50
 70
     1
102
RTVSPost2010Prop51ColorIndex
 90
      256
102
RTVSPost2010Prop51ColorRGB
 90
-16777216
102
RTVSPost2010PropOp51
 70
     0
102
RTVSPost2010Prop52
140
1.0
102
RTVSPost2010PropOp52
 70
     0
102
RTVSPost2010Prop53
 90
        2
102
RTVSPost2010PropOp53
 70
     1
102
RTVSPost2010Prop54
  1
strokes_ogs.tif
102
RTVSPost2010PropOp54
 70
     1
102
RTVSPost2010Prop55
280
     0
102
RTVSPost2010PropOp55
 70
     1
102
RTVSPost2010Prop56
140
1.0
102
RTVSPost2010PropOp56
 70
     1
102
RTVSPost2010Prop57
140
1.0
102
RTVSPost2010PropOp57
 70
     1
102
RTVSPropertyOp0
 70
     1
102
RTVSPropertyOp1
 70
     1
102
RTVSPropertyOp2
 70
     1
102
RTVSPropertyOp3
 70
     1
102
RTVSPropertyOp4
 70
     1
102
RTVSPropertyOp5
 70
     1
102
RTVSPropertyOp6
 70
     1
102
RTVSPropertyOp7
 70
     1
102
RTVSPropertyOp8
 70
     1
102
RTVSPropertyOp9
 70
     1
102
RTVSPropertyOp10
 70
     1
102
RTVSPropertyOp11
 70
     1
102
RTVSPropertyOp12
 70
     1
102
RTVSPropertyOp13
 70
     1
102
RTVSPropertyOp14
 70
     1
102
RTVSPropertyOp15
 70
     1
102
RTVSPropertyOp16
 70
     1
102
RTVSPropertyOp17
 70
     1
102
RTVSPropertyOp18
 70
     1
102
RTVSPropertyOp19
 70
     1
102
RTVSPropertyOp20
 70
     1
102
RTVSPropertyOp21
 70
     1
102
RTVSPropertyOp22
 70
     1
102
RTVSPropertyOp23
 70
     1
102
RTVSPropertyOp24
 70
     1
102
RTVSPropertyOp25
 70
     1
102
RTVSPropertyOp26
 70
     1
102
RTVSPropertyOp27
 70
     1
102
RTVSPropertyOp28
 70
     1
102
RTVSPropertyOp29
 70
     1
102
RTVSPropertyOp30
 70
     1
102
RTVSPropertyOp31
 70
     1
102
RTVSPropertyOp32
 70
     1
102
RTVSPropertyOp33
 70
     1
102
RTVSPropertyOp34
 70
     1
102
RTVSPropertyOp35
 70
     1
102
RTVSPropertyOp36
 70
     1
102
RTVSPropertyOp37
 70
     1
102
RTVSPropertyOp38
 70
     1
102
RTVSPropertyOp39
 70
     1
102
RTVSPropertyOp40
 70
     1
102
RTVSPropertyOp41
 70
     1
102
RTVSPropertyOp42
 70
     1
102
RTVSPropertyOp43
 70
     1
102
RTVSPropertyOp44
 70
     1
102
RTVSPropertyOp45
 70
     1
102
RTVSPropertyOp46
 70
     1
102
RTVSPropertyOp47
 70
     1
102
RTVSPropertyOp48
 70
     1
102
RTVSPropertyOp49
 70
     1
102
RTVSPropertyOp50
 70
     1
102
RTVSPropertyOp51
 70
     0
102
RTVSPropertyOp52
 70
     0
102
RTVSPropertyOp53
 70
     1
102
RTVSPropertyOp54
 70
     1
102
RTVSPropertyOp55
 70
     1
102
RTVSPropertyOp56
 70
     1
102
RTVSPropertyOp57
 70
     1
102
RTVSPropertyOp58
 70
     1
102
RTVSPropertyOp59
 70
     1
102
RTVSPropertyOp60
 70
     1
102
RTVSPropertyOp61
 70
     1
102
RTVSPropertyOp62
 70
     1
  0
XRECORD
  5
C249
102
{ACAD_REACTORS
330
C248
102
}
330
C248
100
AcDbXrecord
280
     1
102
RTVSPost2010Prop28
280
     0
102
RTVSPost2010PropOp28
 70
     1
102
RTVSPost2010Prop29
280
     1
102
RTVSPost2010PropOp29
 70
     1
102
RTVSPost2010Prop30
280
     1
102
RTVSPost2010PropOp30
 70
     1
102
RTVSPost2010Prop31
280
     0
102
RTVSPost2010PropOp31
 70
     1
102
RTVSPost2010Prop32
280
     0
102
RTVSPost2010PropOp32
 70
     1
102
RTVSPost2010Prop33
280
     0
102
RTVSPost2010PropOp33
 70
     1
102
RTVSPost2010Prop34
280
     0
102
RTVSPost2010PropOp34
 70
     1
102
RTVSPost2010Prop35
280
     0
102
RTVSPost2010PropOp35
 70
     1
102
RTVSPost2010Prop36
280
     0
102
RTVSPost2010PropOp36
 70
     1
102
RTVSPost2010Prop37
 90
       50
102
RTVSPost2010PropOp37
 70
     1
102
RTVSPost2010Prop38
140
0.0
102
RTVSPost2010PropOp38
 70
     1
102
RTVSPost2010Prop39
140
1.0
102
RTVSPost2010PropOp39
 70
     1
102
RTVSPost2010Prop40
 90
        0
102
RTVSPost2010PropOp40
 70
     1
102
RTVSPost2010Prop41ColorIndex
 90
       18
102
RTVSPost2010Prop41ColorRGB
 90
        0
102
RTVSPost2010PropOp41
 70
     1
102
RTVSPost2010Prop42
 90
       50
102
RTVSPost2010PropOp42
 70
     1
102
RTVSPost2010Prop43
 90
        3
102
RTVSPost2010PropOp43
 70
     1
102
RTVSPost2010Prop44ColorIndex
 90
        5
102
RTVSPost2010Prop44ColorRGB
 90
      255
102
RTVSPost2010PropOp44
 70
     1
102
RTVSPost2010Prop45
280
     0
102
RTVSPost2010PropOp45
 70
     1
102
RTVSPost2010Prop46
 90
       50
102
RTVSPost2010PropOp46
 70
     1
102
RTVSPost2010Prop47
 90
       50
102
RTVSPost2010PropOp47
 70
     1
102
RTVSPost2010Prop48
 90
       50
102
RTVSPost2010PropOp48
 70
     1
102
RTVSPost2010Prop49
280
     0
102
RTVSPost2010PropOp49
 70
     1
102
RTVSPost2010Prop50
 90
       50
102
RTVSPost2010PropOp50
 70
     1
102
RTVSPost2010Prop51ColorIndex
 90
      256
102
RTVSPost2010Prop51ColorRGB
 90
-16777216
102
RTVSPost2010PropOp51
 70
     0
102
RTVSPost2010Prop52
140
1.0
102
RTVSPost2010PropOp52
 70
     0
102
RTVSPost2010Prop53
 90
        2
102
RTVSPost2010PropOp53
 70
     1
102
RTVSPost2010Prop54
  1
strokes_ogs.tif
102
RTVSPost2010PropOp54
 70
     1
102
RTVSPost2010Prop55
280
     0
102
RTVSPost2010PropOp55
 70
     1
102
RTVSPost2010Prop56
140
1.0
102
RTVSPost2010PropOp56
 70
     1
102
RTVSPost2010Prop57
140
1.0
102
RTVSPost2010PropOp57
 70
     1
102
RTVSPropertyOp0
 70
     1
102
RTVSPropertyOp1
 70
     1
102
RTVSPropertyOp2
 70
     1
102
RTVSPropertyOp3
 70
     1
102
RTVSPropertyOp4
 70
     1
102
RTVSPropertyOp5
 70
     1
102
RTVSPropertyOp6
 70
     1
102
RTVSPropertyOp7
 70
     1
102
RTVSPropertyOp8
 70
     1
102
RTVSPropertyOp9
 70
     1
102
RTVSPropertyOp10
 70
     1
102
RTVSPropertyOp11
 70
     1
102
RTVSPropertyOp12
 70
     1
102
RTVSPropertyOp13
 70
     1
102
RTVSPropertyOp14
 70
     1
102
RTVSPropertyOp15
 70
     1
102
RTVSPropertyOp16
 70
     1
102
RTVSPropertyOp17
 70
     1
102
RTVSPropertyOp18
 70
     1
102
RTVSPropertyOp19
 70
     1
102
RTVSPropertyOp20
 70
     1
102
RTVSPropertyOp21
 70
     1
102
RTVSPropertyOp22
 70
     1
102
RTVSPropertyOp23
 70
     1
102
RTVSPropertyOp24
 70
     1
102
RTVSPropertyOp25
 70
     1
102
RTVSPropertyOp26
 70
     1
102
RTVSPropertyOp27
 70
     1
102
RTVSPropertyOp28
 70
     1
102
RTVSPropertyOp29
 70
     1
102
RTVSPropertyOp30
 70
     1
102
RTVSPropertyOp31
 70
     1
102
RTVSPropertyOp32
 70
     1
102
RTVSPropertyOp33
 70
     1
102
RTVSPropertyOp34
 70
     1
102
RTVSPropertyOp35
 70
     1
102
RTVSPropertyOp36
 70
     1
102
RTVSPropertyOp37
 70
     1
102
RTVSPropertyOp38
 70
     1
102
RTVSPropertyOp39
 70
     1
102
RTVSPropertyOp40
 70
     1
102
RTVSPropertyOp41
 70
     1
102
RTVSPropertyOp42
 70
     1
102
RTVSPropertyOp43
 70
     1
102
RTVSPropertyOp44
 70
     1
102
RTVSPropertyOp45
 70
     1
102
RTVSPropertyOp46
 70
     1
102
RTVSPropertyOp47
 70
     1
102
RTVSPropertyOp48
 70
     1
102
RTVSPropertyOp49
 70
     1
102
RTVSPropertyOp50
 70
     1
102
RTVSPropertyOp51
 70
     0
102
RTVSPropertyOp52
 70
     0
102
RTVSPropertyOp53
 70
     1
102
RTVSPropertyOp54
 70
     1
102
RTVSPropertyOp55
 70
     1
102
RTVSPropertyOp56
 70
     1
102
RTVSPropertyOp57
 70
     1
102
RTVSPropertyOp58
 70
     1
102
RTVSPropertyOp59
 70
     1
102
RTVSPropertyOp60
 70
     1
102
RTVSPropertyOp61
 70
     1
102
RTVSPropertyOp62
 70
     1
  0
ENDSEC
  0
EOF
