  0
SECTION
  2
HEADER
  9
$ACADVER
  1
AC1015
  9
$ACADMAINTVER
 70
    20
  9
$DWGCODEPAGE
  3
ANSI_932
  9
$INSBASE
 10
0.0
 20
0.0
 30
0.0
  9
$EXTMIN
 10
9.9999975266385
 20
10.0
 30
0.0
  9
$EXTMAX
 10
585.0907710975071
 20
369.674850559836
 30
0.0
  9
$LIMMIN
 10
0.0000015376081137
 20
-0.0000001931532552
  9
$LIMMAX
 10
595.0000015376081
 20
410.1893937462405
  9
$ORTHOMODE
 70
     1
  9
$REGENMODE
 70
     1
  9
$FILLMODE
 70
     1
  9
$QTEXTMODE
 70
     0
  9
$MIRRTEXT
 70
     1
  9
$LTSCALE
 40
0.3
  9
$ATTMODE
 70
     1
  9
$TEXTSIZE
 40
2.5
  9
$TRACEWID
 40
1.0
  9
$TEXTSTYLE
  7
STANDARD
  9
$CLAYER
  8
0
  9
$CELTYPE
  6
BYLAYER
  9
$CECOLOR
 62
   256
  9
$CELTSCALE
 40
1.0
  9
$DISPSILH
 70
     0
  9
$DIMSCALE
 40
1.0
  9
$DIMASZ
 40
3.0
  9
$DIMEXO
 40
1.0
  9
$DIMDLI
 40
8.0
  9
$DIMRND
 40
0.0
  9
$DIMDLE
 40
0.0
  9
$DIMEXE
 40
1.0
  9
$DIMTP
 40
0.0
  9
$DIMTM
 40
0.0
  9
$DIMTXT
 40
3.2
  9
$DIMCEN
 40
0.0
  9
$DIMTSZ
 40
0.0
  9
$DIMTOL
 70
     0
  9
$DIMLIM
 70
     0
  9
$DIMTIH
 70
     0
  9
$DIMTOH
 70
     0
  9
$DIMSE1
 70
     0
  9
$DIMSE2
 70
     0
  9
$DIMTAD
 70
     3
  9
$DIMZIN
 70
     8
  9
$DIMBLK
  1

  9
$DIMASO
 70
     1
  9
$DIMSHO
 70
     1
  9
$DIMPOST
  1

  9
$DIMAPOST
  1

  9
$DIMALT
 70
     0
  9
$DIMALTD
 70
     2
  9
$DIMALTF
 40
25.4
  9
$DIMLFAC
 40
1.0
  9
$DIMTOFL
 70
     1
  9
$DIMTVP
 40
0.0
  9
$DIMTIX
 70
     0
  9
$DIMSOXD
 70
     0
  9
$DIMSAH
 70
     1
  9
$DIMBLK1
  1
OPEN
  9
$DIMBLK2
  1
OPEN
  9
$DIMSTYLE
  2
STANDARD
  9
$DIMCLRD
 70
     0
  9
$DIMCLRE
 70
     0
  9
$DIMCLRT
 70
     0
  9
$DIMTFAC
 40
1.0
  9
$DIMGAP
 40
1.0
  9
$DIMJUST
 70
     0
  9
$DIMSD1
 70
     0
  9
$DIMSD2
 70
     0
  9
$DIMTOLJ
 70
     1
  9
$DIMTZIN
 70
     0
  9
$DIMALTZ
 70
     0
  9
$DIMALTTZ
 70
     0
  9
$DIMUPT
 70
     0
  9
$DIMDEC
 70
     4
  9
$DIMTDEC
 70
     4
  9
$DIMALTU
 70
     2
  9
$DIMALTTD
 70
     2
  9
$DIMTXSTY
  7
STANDARD
  9
$DIMAUNIT
 70
     0
  9
$DIMADEC
 70
     0
  9
$DIMALTRND
 40
0.0
  9
$DIMAZIN
 70
     0
  9
$DIMDSEP
 70
    46
  9
$DIMATFIT
 70
     3
  9
$DIMFRAC
 70
     0
  9
$DIMLDRBLK
  1
OPEN
  9
$DIMLUNIT
 70
     2
  9
$DIMLWD
 70
    -2
  9
$DIMLWE
 70
    -2
  9
$DIMTMOVE
 70
     0
  9
$LUNITS
 70
     2
  9
$LUPREC
 70
     4
  9
$SKETCHINC
 40
1.0
  9
$FILLETRAD
 40
2.0
  9
$AUNITS
 70
     0
  9
$AUPREC
 70
     0
  9
$MENU
  1
.
  9
$ELEVATION
 40
0.0
  9
$PELEVATION
 40
0.0
  9
$THICKNESS
 40
0.0
  9
$LIMCHECK
 70
     0
  9
$CHAMFERA
 40
10.0
  9
$CHAMFERB
 40
10.0
  9
$CHAMFERC
 40
20.0
  9
$CHAMFERD
 40
0.0
  9
$SKPOLY
 70
     0
  9
$TDCREATE
 40
2453031.601955290
  9
$TDUCREATE
 40
2453031.226955290
  9
$TDUPDATE
 40
2457192.643619433
  9
$TDUUPDATE
 40
2457192.268619433
  9
$TDINDWG
 40
0.1204344560
  9
$TDUSRTIMER
 40
0.1204344329
  9
$USRTIMER
 70
     1
  9
$ANGBASE
 50
0.0
  9
$ANGDIR
 70
     0
  9
$PDMODE
 70
     0
  9
$PDSIZE
 40
0.0
  9
$PLINEWID
 40
0.0
  9
$SPLFRAME
 70
     0
  9
$SPLINETYPE
 70
     6
  9
$SPLINESEGS
 70
     8
  9
$HANDSEED
  5
3038
  9
$SURFTAB1
 70
     6
  9
$SURFTAB2
 70
     6
  9
$SURFTYPE
 70
     6
  9
$SURFU
 70
     6
  9
$SURFV
 70
     6
  9
$UCSBASE
  2

  9
$UCSNAME
  2

  9
$UCSORG
 10
0.0
 20
0.0
 30
0.0
  9
$UCSXDIR
 10
1.0
 20
0.0
 30
0.0
  9
$UCSYDIR
 10
0.0
 20
1.0
 30
0.0
  9
$UCSORTHOREF
  2

  9
$UCSORTHOVIEW
 70
     0
  9
$UCSORGTOP
 10
0.0
 20
0.0
 30
0.0
  9
$UCSORGBOTTOM
 10
0.0
 20
0.0
 30
0.0
  9
$UCSORGLEFT
 10
0.0
 20
0.0
 30
0.0
  9
$UCSORGRIGHT
 10
0.0
 20
0.0
 30
0.0
  9
$UCSORGFRONT
 10
0.0
 20
0.0
 30
0.0
  9
$UCSORGBACK
 10
0.0
 20
0.0
 30
0.0
  9
$PUCSBASE
  2

  9
$PUCSNAME
  2

  9
$PUCSORG
 10
0.0
 20
0.0
 30
0.0
  9
$PUCSXDIR
 10
1.0
 20
0.0
 30
0.0
  9
$PUCSYDIR
 10
0.0
 20
1.0
 30
0.0
  9
$PUCSORTHOREF
  2

  9
$PUCSORTHOVIEW
 70
     0
  9
$PUCSORGTOP
 10
0.0
 20
0.0
 30
0.0
  9
$PUCSORGBOTTOM
 10
0.0
 20
0.0
 30
0.0
  9
$PUCSORGLEFT
 10
0.0
 20
0.0
 30
0.0
  9
$PUCSORGRIGHT
 10
0.0
 20
0.0
 30
0.0
  9
$PUCSORGFRONT
 10
0.0
 20
0.0
 30
0.0
  9
$PUCSORGBACK
 10
0.0
 20
0.0
 30
0.0
  9
$USERI1
 70
     0
  9
$USERI2
 70
     0
  9
$USERI3
 70
     0
  9
$USERI4
 70
     0
  9
$USERI5
 70
     0
  9
$USERR1
 40
0.0
  9
$USERR2
 40
0.0
  9
$USERR3
 40
0.0
  9
$USERR4
 40
0.0
  9
$USERR5
 40
0.0
  9
$WORLDVIEW
 70
     1
  9
$SHADEDGE
 70
     3
  9
$SHADEDIF
 70
    70
  9
$TILEMODE
 70
     1
  9
$MAXACTVP
 70
    48
  9
$PINSBASE
 10
0.0
 20
0.0
 30
0.0
  9
$PLIMCHECK
 70
     0
  9
$PEXTMIN
 10
1.000000000000000E+20
 20
1.000000000000000E+20
 30
1.000000000000000E+20
  9
$PEXTMAX
 10
-1.000000000000000E+20
 20
-1.000000000000000E+20
 30
-1.000000000000000E+20
  9
$PLIMMIN
 10
0.0
 20
0.0
  9
$PLIMMAX
 10
420.0
 20
297.0
  9
$UNITMODE
 70
     0
  9
$VISRETAIN
 70
     1
  9
$PLINEGEN
 70
     0
  9
$PSLTSCALE
 70
     1
  9
$TREEDEPTH
 70
  3020
  9
$CMLSTYLE
  2
STANDARD
  9
$CMLJUST
 70
     0
  9
$CMLSCALE
 40
20.0
  9
$PROXYGRAPHICS
 70
     1
  9
$MEASUREMENT
 70
     0
  9
$CELWEIGHT
370
    -1
  9
$ENDCAPS
280
     0
  9
$JOINSTYLE
280
     0
  9
$LWDISPLAY
290
     0
  9
$INSUNITS
 70
     0
  9
$HYPERLINKBASE
  1

  9
$STYLESHEET
  1

  9
$XEDIT
290
     1
  9
$CEPSNTYPE
380
     0
  9
$PSTYLEMODE
290
     1
  9
$FINGERPRINTGUID
  2
{8C6DF178-BAEB-4876-9F11-003F4DE6A4C6}
  9
$VERSIONGUID
  2
{C187B5AC-51B0-41E7-AB0E-C1F945CDBE38}
  9
$EXTNAMES
290
     1
  9
$PSVPSCALE
 40
0.0
  9
$OLESTARTUP
290
     0
  0
ENDSEC
  0
SECTION
  2
CLASSES
  0
CLASS
  1
ACDBDICTIONARYWDFLT
  2
AcDbDictionaryWithDefault
  3
ObjectDBX Classes
 90
        0
280
     0
281
     0
  0
CLASS
  1
ACDBPLACEHOLDER
  2
AcDbPlaceHolder
  3
ObjectDBX Classes
 90
        0
280
     0
281
     0
  0
CLASS
  1
LAYOUT
  2
AcDbLayout
  3
ObjectDBX Classes
 90
        0
280
     0
281
     0
  0
CLASS
  1
DICTIONARYVAR
  2
AcDbDictionaryVar
  3
ObjectDBX Classes
 90
        0
280
     0
281
     0
  0
CLASS
  1
MATERIAL
  2
AcDbMaterial
  3
ObjectDBX Classes
 90
     1153
280
     0
281
     0
  0
CLASS
  1
VISUALSTYLE
  2
AcDbVisualStyle
  3
ObjectDBX Classes
 90
     4095
280
     0
281
     0
  0
CLASS
  1
TABLESTYLE
  2
AcDbTableStyle
  3
ObjectDBX Classes
 90
     4095
280
     0
281
     0
  0
CLASS
  1
SCALE
  2
AcDbScale
  3
ObjectDBX Classes
 90
     1153
280
     0
281
     0
  0
CLASS
  1
MLEADERSTYLE
  2
AcDbMLeaderStyle
  3
ACDB_MLEADERSTYLE_CLASS
 90
     4095
280
     0
281
     0
  0
CLASS
  1
ACDBSECTIONVIEWSTYLE
  2
AcDbSectionViewStyle
  3
ObjectDBX Classes
 90
     1025
280
     0
281
     0
  0
CLASS
  1
ACDBDETAILVIEWSTYLE
  2
AcDbDetailViewStyle
  3
ObjectDBX Classes
 90
     1025
280
     0
281
     0
  0
CLASS
  1
CELLSTYLEMAP
  2
AcDbCellStyleMap
  3
ObjectDBX Classes
 90
     1152
280
     0
281
     0
  0
ENDSEC
  0
SECTION
  2
TABLES
  0
TABLE
  2
VPORT
  5
8
330
0
100
AcDbSymbolTable
 70
     1
  0
VPORT
  5
2F84
330
8
100
AcDbSymbolTableRecord
100
AcDbViewportTableRecord
  2
*ACTIVE
 70
     0
 10
0.0
 20
0.0
 11
1.0
 21
1.0
 12
451.5364012753614
 22
189.8227537255891
 13
0.0
 23
0.0
 14
10.0
 24
10.0
 15
10.0
 25
10.0
 16
0.0
 26
0.0
 36
1.0
 17
0.0
 27
0.0
 37
0.0
 40
377.062047702659
 41
1.899603698811096
 42
50.0
 43
0.0
 44
0.0
 50
0.0
 51
0.0
 71
     0
 72
   100
 73
     1
 74
     0
 75
     0
 76
     0
 77
     0
 78
     0
281
     0
 65
     1
110
0.0
120
0.0
130
0.0
111
1.0
121
0.0
131
0.0
112
0.0
122
1.0
132
0.0
 79
     0
146
0.0
1001
ACAD_NAV_VCDISPLAY
1070
     3
  0
ENDTAB
  0
TABLE
  2
LTYPE
  5
5
330
0
100
AcDbSymbolTable
 70
     4
  0
LTYPE
  5
12
330
5
100
AcDbSymbolTableRecord
100
AcDbLinetypeTableRecord
  2
BYBLOCK
 70
     0
  3

 72
    65
 73
     0
 40
0.0
  0
LTYPE
  5
13
330
5
100
AcDbSymbolTableRecord
100
AcDbLinetypeTableRecord
  2
BYLAYER
 70
     0
  3

 72
    65
 73
     0
 40
0.0
  0
LTYPE
  5
14
330
5
100
AcDbSymbolTableRecord
100
AcDbLinetypeTableRecord
  2
CONTINUOUS
 70
     0
  3
Solid line
 72
    65
 73
     0
 40
0.0
  0
LTYPE
  5
80C
330
5
100
AcDbSymbolTableRecord
100
AcDbLinetypeTableRecord
  2
DASHED
 70
     0
  3
Dashed __ __ __ __ __ __ __ __ __ __ __ __ __ _
 72
    65
 73
     2
 40
19.04999999999998
 49
12.7
 74
     0
 49
-6.349999999999997
 74
     0
  0
LTYPE
  5
80D
330
5
100
AcDbSymbolTableRecord
100
AcDbLinetypeTableRecord
  2
CENTER
 70
     0
  3
Center ____ _ ____ _ ____ _ ____ _ ____ _ ____
 72
    65
 73
     4
 40
50.8
 49
31.75
 74
     0
 49
-6.349999999999997
 74
     0
 49
6.349999999999997
 74
     0
 49
-6.349999999999997
 74
     0
  0
LTYPE
  5
80E
330
5
100
AcDbSymbolTableRecord
100
AcDbLinetypeTableRecord
  2
PHANTOM
 70
     0
  3
Phantom ______  __  __  ______  __  __  ______
 72
    65
 73
     6
 40
63.5
 49
31.75
 74
     0
 49
-6.349999999999997
 74
     0
 49
6.349999999999997
 74
     0
 49
-6.349999999999997
 74
     0
 49
6.349999999999997
 74
     0
 49
-6.349999999999997
 74
     0
  0
ENDTAB
  0
TABLE
  2
LAYER
  5
2
330
0
100
AcDbSymbolTable
 70
     8
  0
LAYER
  5
E
102
{ACAD_XDICTIONARY
360
2FDC
102
}
330
2
100
AcDbSymbolTableRecord
100
AcDbLayerTableRecord
  2
0
 70
     0
 62
     7
  6
CONTINUOUS
370
    -3
390
2F8B
  0
LAYER
  5
80F
102
{ACAD_XDICTIONARY
360
2FDE
102
}
330
2
100
AcDbSymbolTableRecord
100
AcDbLayerTableRecord
  2
4
 70
     0
 62
     1
  6
CENTER
370
    -3
390
2F8B
  0
LAYER
  5
810
102
{ACAD_XDICTIONARY
360
2FE0
102
}
330
2
100
AcDbSymbolTableRecord
100
AcDbLayerTableRecord
  2
5
 70
     0
 62
     6
  6
PHANTOM
370
    -3
390
2F8B
  0
LAYER
  5
811
102
{ACAD_XDICTIONARY
360
2FE2
102
}
330
2
100
AcDbSymbolTableRecord
100
AcDbLayerTableRecord
  2
1
 70
     0
 62
     7
  6
CONTINUOUS
370
    -3
390
2F8B
  0
LAYER
  5
812
102
{ACAD_XDICTIONARY
360
2FE4
102
}
330
2
100
AcDbSymbolTableRecord
100
AcDbLayerTableRecord
  2
2
 70
     0
 62
     4
  6
CONTINUOUS
370
    -3
390
2F8B
  0
LAYER
  5
813
102
{ACAD_XDICTIONARY
360
2FE6
102
}
330
2
100
AcDbSymbolTableRecord
100
AcDbLayerTableRecord
  2
3
 70
     0
 62
     2
  6
DASHED
370
    -3
390
2F8B
  0
LAYER
  5
814
102
{ACAD_XDICTIONARY
360
2FE8
102
}
330
2
100
AcDbSymbolTableRecord
100
AcDbLayerTableRecord
  2
6
 70
     0
 62
     5
  6
CONTINUOUS
370
    -3
390
2F8B
  0
LAYER
  5
815
102
{ACAD_XDICTIONARY
360
2FEA
102
}
330
2
100
AcDbSymbolTableRecord
100
AcDbLayerTableRecord
  2
7
 70
     0
 62
     3
  6
CONTINUOUS
370
    -3
390
2F8B
  0
ENDTAB
  0
TABLE
  2
STYLE
  5
3
330
0
100
AcDbSymbolTable
 70
     1
  0
STYLE
  5
F
330
3
100
AcDbSymbolTableRecord
100
AcDbTextStyleTableRecord
  2
STANDARD
 70
     0
 40
0.0
 41
1.0
 50
0.0
 71
     0
 42
2.5
  3
simplex.shx
  4

  0
ENDTAB
  0
TABLE
  2
VIEW
  5
6
330
0
100
AcDbSymbolTable
 70
     0
  0
ENDTAB
  0
TABLE
  2
UCS
  5
7
330
0
100
AcDbSymbolTable
 70
     0
  0
ENDTAB
  0
TABLE
  2
APPID
  5
9
330
0
100
AcDbSymbolTable
 70
     7
  0
APPID
  5
10
330
9
100
AcDbSymbolTableRecord
100
AcDbRegAppTableRecord
  2
ACAD
 70
     0
  0
APPID
  5
3E
330
9
100
AcDbSymbolTableRecord
100
AcDbRegAppTableRecord
  2
CONTENTTABDATA
 70
     0
  0
APPID
  5
3F
330
9
100
AcDbSymbolTableRecord
100
AcDbRegAppTableRecord
  2
CONTENTCURRENTTAB
 70
     0
  0
APPID
  5
1D5B
330
9
100
AcDbSymbolTableRecord
100
AcDbRegAppTableRecord
  2
CONTENTBLOCKICON
 70
     0
  0
APPID
  5
1D5C
330
9
100
AcDbSymbolTableRecord
100
AcDbRegAppTableRecord
  2
CONTENTBLOCKDESCRIPTION
 70
     0
  0
APPID
  5
2FF6
330
9
100
AcDbSymbolTableRecord
100
AcDbRegAppTableRecord
  2
ACAD_NAV_VCDISPLAY
 70
     0
  0
APPID
  5
302F
330
9
100
AcDbSymbolTableRecord
100
AcDbRegAppTableRecord
  2
ACAD_MLEADERVER
 70
     0
  0
ENDTAB
  0
TABLE
  2
DIMSTYLE
  5
A
330
0
100
AcDbSymbolTable
 70
     1
100
AcDbDimStyleTable
 71
     0
  0
DIMSTYLE
105
1D
330
A
100
AcDbSymbolTableRecord
100
AcDbDimStyleTableRecord
  2
STANDARD
 70
     0
 41
3.0
 42
1.0
 43
8.0
 44
1.0
 73
     0
 74
     0
 77
     3
 78
     8
140
3.2
141
0.0
147
1.0
172
     1
173
     1
340
F
341
2E
343
2E
344
2E
  0
ENDTAB
  0
TABLE
  2
BLOCK_RECORD
  5
1
330
0
100
AcDbSymbolTable
 70
     1
  0
BLOCK_RECORD
  5
18
102
{ACAD_XDICTIONARY
360
2312
102
}
330
1
100
AcDbSymbolTableRecord
100
AcDbBlockTableRecord
  2
*MODEL_SPACE
340
2FD9
  0
BLOCK_RECORD
  5
15
102
{ACAD_XDICTIONARY
360
2310
102
}
330
1
100
AcDbSymbolTableRecord
100
AcDbBlockTableRecord
  2
*PAPER_SPACE
340
2FDA
  0
BLOCK_RECORD
  5
2E
330
1
100
AcDbSymbolTableRecord
100
AcDbBlockTableRecord
  2
_OPEN
340
0
  0
ENDTAB
  0
ENDSEC
  0
SECTION
  2
BLOCKS
  0
BLOCK
  5
19
330
18
100
AcDbEntity
  8
0
100
AcDbBlockBegin
  2
*MODEL_SPACE
 70
     0
 10
0.0
 20
0.0
 30
0.0
  3
*MODEL_SPACE
  1

  0
ENDBLK
  5
1A
330
18
100
AcDbEntity
  8
0
100
AcDbBlockEnd
  0
BLOCK
  5
16
330
15
100
AcDbEntity
 67
     1
  8
0
100
AcDbBlockBegin
  2
*PAPER_SPACE
 70
     0
 10
0.0
 20
0.0
 30
0.0
  3
*PAPER_SPACE
  1

  0
ENDBLK
  5
17
330
15
100
AcDbEntity
 67
     1
  8
0
100
AcDbBlockEnd
  0
BLOCK
  5
2F
330
2E
100
AcDbEntity
  8
0
100
AcDbBlockBegin
  2
_OPEN
 70
     0
 10
0.0
 20
0.0
 30
0.0
  3
_OPEN
  1

  0
LINE
  5
30
330
2E
100
AcDbEntity
  8
0
  6
ByBlock
 62
     0
100
AcDbLine
 10
-1.0
 20
0.1666666666666666
 30
0.0
 11
0.0
 21
0.0
 31
0.0
  0
LINE
  5
31
330
2E
100
AcDbEntity
  8
0
  6
ByBlock
 62
     0
100
AcDbLine
 10
0.0
 20
0.0
 30
0.0
 11
-1.0
 21
-0.1666666666666666
 31
0.0
  0
LINE
  5
32
330
2E
100
AcDbEntity
  8
0
  6
ByBlock
 62
     0
100
AcDbLine
 10
0.0
 20
0.0
 30
0.0
 11
-1.0
 21
0.0
 31
0.0
  0
ENDBLK
  5
33
330
2E
100
AcDbEntity
  8
0
100
AcDbBlockEnd
  0
ENDSEC
  0
SECTION
  2
ENTITIES
  0
ARC
  5
BFB
330
18
100
AcDbEntity
  8
5
  6
PHANTOM
 48
0.5
100
AcDbCircle
 10
129.9687684265171
 20
245.7484957754045
 30
0.0
 40
28.0
100
AcDbArc
 50
345.1671520791929
 51
14.83284792081368
  0
ARC
  5
BFC
330
18
100
AcDbEntity
  8
5
  6
PHANTOM
 48
0.5
100
AcDbCircle
 10
37.46525093063451
 20
245.6981238907713
 30
0.0
 40
10.21051532818236
100
AcDbArc
 50
142.6740577821695
 51
217.3226234462146
  0
LINE
  5
C0A
330
18
100
AcDbEntity
  8
1
  6
Continuous
100
AcDbLine
 10
224.5923147192641
 20
244.6984957753304
 30
0.0
 11
224.5923147192641
 21
235.6760166252012
 31
0.0
  0
LINE
  5
C0B
330
18
100
AcDbEntity
  8
1
  6
Continuous
100
AcDbLine
 10
273.1385044494089
 20
251.6984957753189
 30
0.0
 11
273.1385044494089
 21
239.6984957753189
 31
0.0
  0
ARC
  5
C0C
330
18
100
AcDbEntity
  8
1
  6
Continuous
100
AcDbCircle
 10
276.5605537291004
 20
242.9202718399952
 30
0.0
 40
1.6
100
AcDbArc
 50
274.9999999999997
 51
344.5060324994776
  0
LINE
  5
C0D
330
18
100
AcDbEntity
  8
1
  6
Continuous
100
AcDbLine
 10
275.238504449409
 20
250.2984957753198
 30
0.0
 11
275.238504449409
 21
241.0984957753198
 31
0.0
  0
LINE
  5
C0E
330
18
100
AcDbEntity
  8
1
  6
Continuous
100
AcDbLine
 10
273.9385044494089
 20
251.6984957753189
 30
0.0
 11
273.9385044494089
 21
239.6984957753189
 31
0.0
  0
LINE
  5
C0F
330
18
100
AcDbEntity
  8
1
  6
Continuous
100
AcDbLine
 10
235.576525735304
 20
250.6984957753259
 30
0.0
 11
235.576525735304
 21
240.6984957753241
 31
0.0
  0
LINE
  5
C10
330
18
100
AcDbEntity
  8
1
  6
Continuous
100
AcDbLine
 10
231.5765257353029
 20
253.2517418444326
 30
0.0
 11
231.5765257353029
 21
234.4484957752045
 31
0.0
  0
LINE
  5
C12
330
18
100
AcDbEntity
  8
1
  6
Continuous
100
AcDbLine
 10
233.576525735304
 20
255.4412815678865
 30
0.0
 11
233.576525735304
 21
234.4484957752114
 31
0.0
  0
LINE
  5
C13
330
18
100
AcDbEntity
  8
1
  6
Continuous
100
AcDbLine
 10
231.4765257353041
 20
254.1587498131514
 30
0.0
 11
231.4765257353041
 21
235.9484957753227
 31
0.0
  0
LINE
  5
C14
330
18
100
AcDbEntity
  8
1
  6
Continuous
100
AcDbLine
 10
231.0765257353041
 20
256.3983701464016
 30
0.0
 11
231.0765257353041
 21
234.1984957753236
 31
0.0
  0
LINE
  5
C15
330
18
100
AcDbEntity
  8
4
  6
CENTER
100
AcDbLine
 10
214.8765257353038
 20
253.1220754803602
 30
0.0
 11
214.8765257353038
 21
239.0653361370996
 31
0.0
  0
LINE
  5
C16
330
18
100
AcDbEntity
  8
5
  6
PHANTOM
 48
0.5
100
AcDbLine
 10
209.8765257353047
 20
245.6984957753197
 30
0.0
 11
209.8765257352992
 21
240.9411364624297
 31
0.0
  0
LINE
  5
C17
330
18
100
AcDbEntity
  8
1
  6
Continuous
100
AcDbLine
 10
220.0765257353041
 20
257.1984957753213
 30
0.0
 11
220.0765257353041
 21
143.2493282027881
 31
0.0
  0
LINE
  5
C18
330
18
100
AcDbEntity
  8
1
  6
Continuous
100
AcDbLine
 10
218.0765257353041
 20
271.1984957753238
 30
0.0
 11
218.0765257353041
 21
129.1984957753239
 31
0.0
  0
LINE
  5
C19
330
18
100
AcDbEntity
  8
1
  6
Continuous
100
AcDbLine
 10
211.0765257353039
 20
263.926737910852
 30
0.0
 11
211.0765257353039
 21
136.4702536398118
 31
0.0
  0
LINE
  5
C1A
330
18
100
AcDbEntity
  8
1
  6
Continuous
100
AcDbLine
 10
208.0765257353037
 20
245.2804598907616
 30
0.0
 11
208.0765257353037
 21
125.1984957753222
 31
0.0
  0
ARC
  5
C1B
330
18
100
AcDbEntity
  8
1
  6
Continuous
100
AcDbCircle
 10
36.41876842647196
 20
245.748495775363
 30
0.0
 40
9.900000000005332
100
AcDbArc
 50
341.7126811218504
 51
198.2873188797464
  0
LINE
  5
C1C
330
18
100
AcDbEntity
  8
4
  6
CENTER
100
AcDbLine
 10
36.41876842651368
 20
274.9563665494704
 30
0.0
 11
36.41876842651368
 21
120.28389019756
 31
0.0
  0
LINE
  5
C1D
330
18
100
AcDbEntity
  8
1
  6
Continuous
100
AcDbLine
 10
27.01876842651529
 20
245.6984957753177
 30
0.0
 11
27.01876842651529
 21
128.0315762364103
 31
0.0
  0
LINE
  5
C1E
330
18
100
AcDbEntity
  8
1
  6
Continuous
100
AcDbLine
 10
45.81876842651524
 20
245.6984957753177
 30
0.0
 11
45.81876842651524
 21
128.0315762364114
 31
0.0
  0
LINE
  5
C1F
330
18
100
AcDbEntity
  8
1
  6
Continuous
100
AcDbLine
 10
20.41876842647735
 20
270.1984957752793
 30
0.0
 11
20.41876842647735
 21
130.1984957752793
 31
0.0
  0
LINE
  5
C20
330
18
100
AcDbEntity
  8
1
  6
Continuous
100
AcDbLine
 10
52.4187684264773
 20
270.1984957752951
 30
0.0
 11
52.4187684264773
 21
130.1984957752954
 31
0.0
  0
LINE
  5
C21
330
18
100
AcDbEntity
  8
1
  6
Continuous
100
AcDbLine
 10
26.51876842647733
 20
245.748495775363
 30
0.0
 11
26.51876842647733
 21
129.1984957752819
 31
0.0
  0
LINE
  5
C22
330
18
100
AcDbEntity
  8
1
  6
Continuous
100
AcDbLine
 10
46.31876842647733
 20
245.748495775363
 30
0.0
 11
46.31876842647733
 21
129.1984957752928
 31
0.0
  0
LINE
  5
C23
330
18
100
AcDbEntity
  8
5
  6
PHANTOM
100
AcDbLine
 10
209.772603614485
 20
250.211225878638
 30
0.0
 11
124.8618324902582
 21
165.3004547544109
 31
0.0
  0
LINE
  5
C24
330
18
100
AcDbEntity
  8
5
  6
PHANTOM
100
AcDbLine
 10
36.46876842651727
 20
236.3484957754062
 30
0.0
 11
154.1356879654246
 21
236.3484957754062
 31
0.0
  0
TEXT
  5
C25
330
18
100
AcDbEntity
  8
7
  6
Continuous
 48
0.25
100
AcDbText
 10
9.999997526638502
 20
18.00000076076889
 30
0.0
 40
3.0
  1
TYPE No.THA-506W-1K
100
AcDbText
  0
TEXT
  5
C26
330
18
100
AcDbEntity
  8
7
  6
Continuous
 48
0.25
100
AcDbText
 10
9.999997526638502
 20
26.0000007607689
 30
0.0
 40
3.0
  1
CODE No.13280
100
AcDbText
  0
TEXT
  5
C27
330
18
100
AcDbEntity
  8
4
  6
CENTER
 48
0.25
100
AcDbText
 10
23.97950852663849
 20
10.0
 30
0.0
 40
1.399999999999999
  1
4
100
AcDbText
  0
TEXT
  5
C28
330
18
100
AcDbEntity
  8
1
  6
Continuous
 48
0.25
100
AcDbText
 10
9.999997526638502
 20
10.00000076076889
 30
0.0
 40
1.399999999999999
  1
LAYER
100
AcDbText
  0
TEXT
  5
C29
330
18
100
AcDbEntity
  8
1
  6
Continuous
 48
0.25
100
AcDbText
 10
17.9795085266385
 20
10.0
 30
0.0
 40
1.399999999999999
  1
1
100
AcDbText
  0
TEXT
  5
C2A
330
18
100
AcDbEntity
  8
3
  6
DASHED
 48
0.25
100
AcDbText
 10
21.97950852663849
 20
10.0
 30
0.0
 40
1.399999999999999
  1
3
100
AcDbText
  0
TEXT
  5
C2B
330
18
100
AcDbEntity
  8
2
  6
Continuous
 48
0.25
100
AcDbText
 10
19.9795085266385
 20
10.0
 30
0.0
 40
1.399999999999999
  1
2
100
AcDbText
  0
TEXT
  5
C2C
330
18
100
AcDbEntity
  8
7
  6
Continuous
 48
0.25
100
AcDbText
 10
29.9795085266385
 20
10.0
 30
0.0
 40
1.399999999999999
  1
7
100
AcDbText
  0
TEXT
  5
C2D
330
18
100
AcDbEntity
  8
6
  6
Continuous
 48
0.25
100
AcDbText
 10
27.97950852663849
 20
10.0
 30
0.0
 40
1.399999999999999
  1
6
100
AcDbText
  0
TEXT
  5
C2E
330
18
100
AcDbEntity
  8
5
  6
PHANTOM
 48
0.25
100
AcDbText
 10
25.97950852663849
 20
10.0
 30
0.0
 40
1.399999999999999
  1
5
100
AcDbText
  0
LINE
  5
C2F
330
18
100
AcDbEntity
  8
1
  6
Continuous
100
AcDbLine
 10
35.36876842651355
 20
153.3484957753175
 30
0.0
 11
35.36876842651355
 21
160.3484957753176
 31
0.0
  0
LINE
  5
C30
330
18
100
AcDbEntity
  8
1
  6
Continuous
100
AcDbLine
 10
37.46876842651353
 20
153.3484957753175
 30
0.0
 11
37.46876842651353
 21
160.3484957753176
 31
0.0
  0
CIRCLE
  5
C31
330
18
100
AcDbEntity
  8
1
  6
Continuous
100
AcDbCircle
 10
36.41876842651527
 20
156.6984957753175
 30
0.0
 40
7.799999999999998
  0
CIRCLE
  5
C32
330
18
100
AcDbEntity
  8
1
  6
Continuous
100
AcDbCircle
 10
36.41876842651356
 20
156.6984957753174
 30
0.0
 40
7.65
  0
LINE
  5
C35
330
18
100
AcDbEntity
  8
4
  6
CENTER
100
AcDbLine
 10
48.93860511564593
 20
156.6984957753097
 30
0.0
 11
24.01876842647573
 21
156.6984957753097
 31
0.0
  0
ARC
  5
C36
330
18
100
AcDbEntity
  8
1
  6
Continuous
100
AcDbCircle
 10
36.41876842651356
 20
152.1984957753178
 30
0.0
 40
28.0
100
AcDbArc
 50
255.167152079193
 51
284.8328479208137
  0
LINE
  5
C37
330
18
100
AcDbEntity
  8
1
  6
Continuous
100
AcDbLine
 10
27.01876842651529
 20
129.1984957752822
 30
0.0
 11
21.41876842647786
 21
129.1984957752793
 31
0.0
  0
ARC
  5
C38
330
18
100
AcDbEntity
  8
1
  6
Continuous
100
AcDbCircle
 10
30.01876842651529
 20
128.0315762364103
 30
0.0
 40
3.0
100
AcDbArc
 50
180.0
 51
255.167152079193
  0
ARC
  5
C39
330
18
100
AcDbEntity
  8
1
  6
Continuous
100
AcDbCircle
 10
21.41876842647735
 20
130.1984957752793
 30
0.0
 40
1.0
100
AcDbArc
 50
180.0
 51
270.0
  0
ARC
  5
C3A
330
18
100
AcDbEntity
  8
1
  6
Continuous
100
AcDbCircle
 10
36.41876842647064
 20
114.4127814896854
 30
0.0
 40
21.78571428566616
100
AcDbArc
 50
117.0280229024764
 51
133.5380121013192
  0
ARC
  5
C3B
330
18
100
AcDbEntity
  8
1
  6
Continuous
100
AcDbCircle
 10
29.01876842647732
 20
146.7034220032153
 30
0.0
 40
2.5
100
AcDbArc
 50
180.0
 51
216.8698976473149
  0
LINE
  5
C3C
330
18
100
AcDbEntity
  8
1
  6
Continuous
100
AcDbLine
 10
37.46876842651353
 20
153.3484957753175
 30
0.0
 11
35.36876842651355
 21
153.3484957753175
 31
0.0
  0
ARC
  5
C3D
330
18
100
AcDbEntity
  8
1
  6
Continuous
100
AcDbCircle
 10
42.81876842651525
 20
128.0315762364114
 30
0.0
 40
3.0
100
AcDbArc
 50
284.8328479208137
 51
0.0
  0
ARC
  5
C3E
330
18
100
AcDbEntity
  8
1
  6
Continuous
100
AcDbCircle
 10
36.41876842647064
 20
114.4127814896854
 30
0.0
 40
21.78571428566616
100
AcDbArc
 50
46.43476497604373
 51
62.97197709748346
  0
LINE
  5
C3F
330
18
100
AcDbEntity
  8
1
  6
Continuous
100
AcDbLine
 10
51.41876842647797
 20
129.1984957752956
 30
0.0
 11
45.81876842651524
 21
129.1984957752924
 31
0.0
  0
ARC
  5
C40
330
18
100
AcDbEntity
  8
1
  6
Continuous
100
AcDbCircle
 10
51.4187684264773
 20
130.1984957752954
 30
0.0
 40
1.0
100
AcDbArc
 50
270.0
 51
0.0
  0
ARC
  5
C41
330
18
100
AcDbEntity
  8
1
  6
Continuous
100
AcDbCircle
 10
43.81876842647733
 20
146.7034220032231
 30
0.0
 40
2.5
100
AcDbArc
 50
323.1301023556111
 51
0.0
  0
ARC
  5
C42
330
18
100
AcDbEntity
  8
1
  6
Continuous
100
AcDbCircle
 10
29.01876842647732
 20
164.6984957752783
 30
0.0
 40
2.5
100
AcDbArc
 50
143.1301023527101
 51
180.0
  0
CIRCLE
  5
C43
330
18
100
AcDbEntity
  8
1
  6
Continuous
100
AcDbCircle
 10
36.41876842651356
 20
162.3984957753176
 30
0.0
 40
0.4500000000085933
  0
LINE
  5
C44
330
18
100
AcDbEntity
  8
1
  6
Continuous
100
AcDbLine
 10
37.46876842651353
 20
160.3484957753176
 30
0.0
 11
35.36876842651355
 21
160.3484957753176
 31
0.0
  0
ARC
  5
C45
330
18
100
AcDbEntity
  8
5
  6
PHANTOM
 48
0.5
100
AcDbCircle
 10
36.41876842649458
 20
245.698495775297
 30
0.0
 40
9.4
100
AcDbArc
 50
221.1947459530556
 51
270.0
  0
ARC
  5
C46
330
18
100
AcDbEntity
  8
1
  6
Continuous
100
AcDbCircle
 10
43.81876842647733
 20
164.6984957752861
 30
0.0
 40
2.5
100
AcDbArc
 50
0.0
 51
36.86989764438411
  0
LINE
  5
C48
330
18
100
AcDbEntity
  8
1
  6
Continuous
100
AcDbLine
 10
220.0765257352135
 20
45.14181385458471
 30
0.0
 11
230.0765257353036
 21
45.14181385458043
 31
0.0
  0
LINE
  5
C49
330
18
100
AcDbEntity
  8
1
  6
Continuous
100
AcDbLine
 10
220.0765257352235
 20
68.14181385474615
 30
0.0
 11
230.0765257353059
 21
68.14181385472619
 31
0.0
  0
LINE
  5
C4F
330
18
100
AcDbEntity
  8
4
  6
CENTER
100
AcDbLine
 10
240.7776411899539
 20
56.6418138547047
 30
0.0
 11
203.7993558057494
 21
56.64181385473376
 31
0.0
  0
LINE
  5
C51
330
18
100
AcDbEntity
  8
1
  6
Continuous
100
AcDbLine
 10
220.0765257352135
 20
44.941813854715
 30
0.0
 11
220.0765257352135
 21
45.14181385458472
 31
0.0
  0
LINE
  5
C55
330
18
100
AcDbEntity
  8
1
  6
Continuous
100
AcDbLine
 10
218.0765257353008
 20
40.64181385467759
 30
0.0
 11
218.0765257353008
 21
72.64181385467759
 31
0.0
  0
LINE
  5
C56
330
18
100
AcDbEntity
  8
1
  6
Continuous
100
AcDbLine
 10
214.0765257353042
 20
47.77431326575197
 30
0.0
 11
214.0765257353042
 21
65.50931444369815
 31
0.0
  0
LINE
  5
C57
330
18
100
AcDbEntity
  8
1
  6
Continuous
100
AcDbLine
 10
216.5765257353041
 20
47.84251756246635
 30
0.0
 11
216.5765257353041
 21
65.44111014698568
 31
0.0
  0
LINE
  5
C58
330
18
100
AcDbEntity
  8
1
  6
Continuous
100
AcDbLine
 10
226.6765257353041
 20
65.64181385474681
 30
0.0
 11
226.6765257353041
 21
47.64181385459187
 31
0.0
  0
ARC
  5
C59
330
18
100
AcDbEntity
  8
1
  6
Continuous
100
AcDbCircle
 10
268.0765257353042
 20
56.64181385473034
 30
0.0
 40
60.0
100
AcDbArc
 50
171.8148219823014
 51
188.1851780178825
  0
LINE
  5
C5A
330
18
100
AcDbEntity
  8
1
  6
Continuous
100
AcDbLine
 10
211.0765257353041
 20
48.24181385463788
 30
0.0
 11
211.0765257353041
 21
65.04181385463789
 31
0.0
  0
ARC
  5
C5C
330
18
100
AcDbEntity
  8
1
  6
Continuous
100
AcDbCircle
 10
216.5765257353005
 20
44.88897294557356
 30
0.0
 40
4.247159090896102
100
AcDbArc
 50
192.1693877305989
 51
270.0
  0
LINE
  5
C5D
330
18
100
AcDbEntity
  8
1
  6
Continuous
100
AcDbLine
 10
212.7960384462597
 20
47.24181385463634
 30
0.0
 11
209.6775531416154
 21
47.24181385463634
 31
0.0
  0
ARC
  5
C5E
330
18
100
AcDbEntity
  8
1
  6
Continuous
100
AcDbCircle
 10
271.0765257353008
 20
56.64181385472454
 30
0.0
 40
60.0
100
AcDbArc
 50
189.0134702623839
 51
192.1693877305973
  0
LINE
  5
C5F
330
18
100
AcDbEntity
  8
1
  6
Continuous
100
AcDbLine
 10
212.1290803952532
 20
46.74809325164789
 30
0.0
 11
215.6037973068692
 21
46.84288950094333
 31
0.0
  0
ARC
  5
C60
330
18
100
AcDbEntity
  8
1
  6
Continuous
100
AcDbCircle
 10
212.1345347095663
 20
46.54816763934326
 30
0.0
 40
0.2
100
AcDbArc
 50
91.5627397038388
 51
189.7174786546481
  0
ARC
  5
C61
330
18
100
AcDbEntity
  8
1
  6
Continuous
100
AcDbCircle
 10
209.6775531416154
 20
48.2418138546364
 30
0.0
 40
1.0
100
AcDbArc
 50
188.1851780178825
 51
270.0
  0
ARC
  5
C62
330
18
100
AcDbEntity
  8
1
  6
Continuous
100
AcDbCircle
 10
210.0765257353042
 20
48.24181385463788
 30
0.0
 40
1.0
100
AcDbArc
 50
270.0
 51
0.0
  0
ARC
  5
C63
330
18
100
AcDbEntity
  8
1
  6
Continuous
100
AcDbCircle
 10
219.0765257353004
 20
44.94181385472217
 30
0.0
 40
1.0
100
AcDbArc
 50
270.0
 51
0.0
  0
ARC
  5
C64
330
18
100
AcDbEntity
  8
1
  6
Continuous
100
AcDbCircle
 10
212.7960384462597
 20
48.2418138546364
 30
0.0
 40
1.0
100
AcDbArc
 50
270.0
 51
276.7539945882274
  0
ARC
  5
C65
330
18
100
AcDbEntity
  8
1
  6
Continuous
100
AcDbCircle
 10
215.5765257353042
 20
47.84251756246635
 30
0.0
 40
1.0
100
AcDbArc
 50
271.5627397038371
 51
0.0
  0
LINE
  5
C66
330
18
100
AcDbEntity
  8
1
  6
Continuous
100
AcDbLine
 10
219.0765257353008
 20
43.94181385472278
 30
0.0
 11
219.0765257352998
 21
43.94181385472211
 31
0.0
  0
LINE
  5
C67
330
18
100
AcDbEntity
  8
1
  6
Continuous
100
AcDbLine
 10
216.5765257353013
 20
40.64181385467747
 30
0.0
 11
219.0765257353008
 21
40.64181385467804
 31
0.0
  0
ARC
  5
C68
330
18
100
AcDbEntity
  8
1
  6
Continuous
100
AcDbCircle
 10
213.0765257353041
 20
47.77431326575197
 30
0.0
 40
1.0
100
AcDbArc
 50
271.5627397038371
 51
0.0
  0
LINE
  5
C69
330
18
100
AcDbEntity
  8
1
  6
Continuous
100
AcDbLine
 10
213.9940823700688
 20
47.37670815763634
 30
0.0
 11
212.9136450788904
 21
47.24875359465135
 31
0.0
  0
ARC
  5
C6A
330
18
100
AcDbEntity
  8
1
  6
Continuous
100
AcDbCircle
 10
224.1765257353041
 20
47.64181385459187
 30
0.0
 40
2.5
100
AcDbArc
 50
270.0
 51
0.0
  0
ARC
  5
C6C
330
18
100
AcDbEntity
  8
1
  6
Continuous
100
AcDbCircle
 10
216.5765257352911
 20
68.39465476387954
 30
0.0
 40
4.247159090896102
100
AcDbArc
 50
90.00000000004476
 51
167.830612269446
  0
LINE
  5
C6D
330
18
100
AcDbEntity
  8
1
  6
Continuous
100
AcDbLine
 10
212.7960384477999
 20
66.04181385463625
 30
0.0
 11
209.6775531415883
 21
66.04181385463625
 31
0.0
  0
ARC
  5
C6E
330
18
100
AcDbEntity
  8
1
  6
Continuous
100
AcDbCircle
 10
271.0765257353008
 20
56.64181385472454
 30
0.0
 40
60.0
100
AcDbArc
 50
167.8306122693994
 51
170.9865297377874
  0
LINE
  5
C6F
330
18
100
AcDbEntity
  8
1
  6
Continuous
100
AcDbLine
 10
212.1290803952455
 20
66.53553445780165
 30
0.0
 11
215.6037973068683
 21
66.44073820850872
 31
0.0
  0
LINE
  5
C70
330
18
100
AcDbEntity
  8
1
  6
Continuous
100
AcDbLine
 10
214.0765257353042
 20
64.04181385463624
 30
0.0
 11
211.5765257353042
 21
64.04181385463624
 31
0.0
  0
LINE
  5
C71
330
18
100
AcDbEntity
  8
1
  6
Continuous
100
AcDbLine
 10
214.0765257353042
 20
49.24181385463636
 30
0.0
 11
211.5765257353042
 21
49.24181385463636
 31
0.0
  0
ARC
  5
C72
330
18
100
AcDbEntity
  8
1
  6
Continuous
100
AcDbCircle
 10
211.5765257353042
 20
49.74181385463641
 30
0.0
 40
0.5
100
AcDbArc
 50
180.0
 51
270.0
  0
ARC
  5
C73
330
18
100
AcDbEntity
  8
1
  6
Continuous
100
AcDbCircle
 10
212.1345347095584
 20
66.7354600701064
 30
0.0
 40
0.2
100
AcDbArc
 50
170.2825213453961
 51
268.437260296206
  0
ARC
  5
C74
330
18
100
AcDbEntity
  8
1
  6
Continuous
100
AcDbCircle
 10
209.6775531415883
 20
65.04181385463624
 30
0.0
 40
1.0
100
AcDbArc
 50
90.0
 51
171.8148219823014
  0
ARC
  5
C75
330
18
100
AcDbEntity
  8
1
  6
Continuous
100
AcDbCircle
 10
210.0765257353042
 20
65.04181385463789
 30
0.0
 40
1.0
100
AcDbArc
 50
0.0
 51
90.0
  0
ARC
  5
C76
330
18
100
AcDbEntity
  8
1
  6
Continuous
100
AcDbCircle
 10
211.5765257353042
 20
63.54181385463625
 30
0.0
 40
0.5
100
AcDbArc
 50
90.0
 51
180.0
  0
LINE
  5
C78
330
18
100
AcDbEntity
  8
1
  6
Continuous
100
AcDbLine
 10
222.0765257353008
 20
59.64181385472056
 30
0.0
 11
221.5765257353008
 21
60.14181385472056
 31
0.0
  0
LINE
  5
C79
330
18
100
AcDbEntity
  8
1
  6
Continuous
100
AcDbLine
 10
221.5765257353008
 20
53.14181385472057
 30
0.0
 11
221.5765257353008
 21
60.14181385472056
 31
0.0
  0
LINE
  5
C7A
330
18
100
AcDbEntity
  8
1
  6
Continuous
100
AcDbLine
 10
221.5765257353008
 20
53.14181385472057
 30
0.0
 11
219.0765257353008
 21
53.14181385472114
 31
0.0
  0
LINE
  5
C7B
330
18
100
AcDbEntity
  8
1
  6
Continuous
100
AcDbLine
 10
221.5765257353008
 20
53.14181385472057
 30
0.0
 11
222.0765257353008
 21
53.64181385472058
 31
0.0
  0
LINE
  5
C7C
330
18
100
AcDbEntity
  8
1
  6
Continuous
100
AcDbLine
 10
222.0765257353008
 20
59.64181385472068
 30
0.0
 11
222.0765257353008
 21
53.64181385472068
 31
0.0
  0
ARC
  5
C7D
330
18
100
AcDbEntity
  8
1
  6
Continuous
100
AcDbCircle
 10
219.0765257353004
 20
68.34181385472215
 30
0.0
 40
1.0
100
AcDbArc
 50
0.0
 51
90.0
  0
LINE
  5
C7E
330
18
100
AcDbEntity
  8
1
  6
Continuous
100
AcDbLine
 10
221.5765257353008
 20
60.14181385472056
 30
0.0
 11
219.0765257353008
 21
60.14181385472113
 31
0.0
  0
ARC
  5
C7F
330
18
100
AcDbEntity
  8
1
  6
Continuous
100
AcDbCircle
 10
212.7960384477999
 20
65.04181385463624
 30
0.0
 40
1.0
100
AcDbArc
 50
83.24600541168235
 51
90.0
  0
LINE
  5
C80
330
18
100
AcDbEntity
  8
1
  6
Continuous
100
AcDbLine
 10
219.0765257353008
 20
69.34181385472277
 30
0.0
 11
219.076525735301
 21
69.34181385472213
 31
0.0
  0
ARC
  5
C81
330
18
100
AcDbEntity
  8
1
  6
Continuous
100
AcDbCircle
 10
215.5765257353042
 20
65.44111014698568
 30
0.0
 40
1.0
100
AcDbArc
 50
0.0
 51
88.43726029620762
  0
ARC
  5
C82
330
18
100
AcDbEntity
  8
1
  6
Continuous
100
AcDbCircle
 10
213.0765257353041
 20
65.50931444369815
 30
0.0
 40
1.0
100
AcDbArc
 50
0.0
 51
88.43726029620844
  0
LINE
  5
C83
330
18
100
AcDbEntity
  8
1
  6
Continuous
100
AcDbLine
 10
213.9940823700673
 20
65.90691955181704
 30
0.0
 11
212.913645080432
 21
66.03487411462106
 31
0.0
  0
LINE
  5
C84
330
18
100
AcDbEntity
  8
1
  6
Continuous
100
AcDbLine
 10
220.0765257352235
 20
68.14181385474613
 30
0.0
 11
220.0765257352236
 21
68.34181385471504
 31
0.0
  0
ARC
  5
C85
330
18
100
AcDbEntity
  8
1
  6
Continuous
100
AcDbCircle
 10
224.1765257353041
 20
65.64181385474689
 30
0.0
 40
2.5
100
AcDbArc
 50
0.0
 51
90.0
  0
LINE
  5
C86
330
18
100
AcDbEntity
  8
1
  6
Continuous
100
AcDbLine
 10
216.5765257353008
 20
72.64181385467736
 30
0.0
 11
219.0765257353009
 21
72.64181385467775
 31
0.0
  0
LINE
  5
C87
330
18
100
AcDbEntity
  8
1
  6
Continuous
100
AcDbLine
 10
231.0765257353041
 20
50.46423850627672
 30
0.0
 11
231.0765257353041
 21
46.14181385458045
 31
0.0
  0
LINE
  5
C88
330
18
100
AcDbEntity
  8
1
  6
Continuous
100
AcDbLine
 10
233.5765257353037
 20
45.39181385470118
 30
0.0
 11
233.5765257353037
 21
66.3845996472807
 31
0.0
  0
LINE
  5
C89
330
18
100
AcDbEntity
  8
1
  6
Continuous
100
AcDbLine
 10
231.0765257353041
 20
67.1418138547262
 30
0.0
 11
231.0765257353041
 21
46.64181385472398
 31
0.0
  0
LINE
  5
C8A
330
18
100
AcDbEntity
  8
1
  6
Continuous
100
AcDbLine
 10
231.5765257354533
 20
45.39181385470118
 30
0.0
 11
231.5765257354533
 21
66.3845996472807
 31
0.0
  0
LINE
  5
C8B
330
18
100
AcDbEntity
  8
1
  6
Continuous
100
AcDbLine
 10
231.4765257353041
 20
66.44181385470028
 30
0.0
 11
231.476525735304
 21
46.84181385472407
 31
0.0
  0
ARC
  5
C8C
330
18
100
AcDbEntity
  8
1
  6
Continuous
100
AcDbCircle
 10
231.2765257353039
 20
46.84181385472407
 30
0.0
 40
0.2
100
AcDbArc
 50
269.9999999999755
 51
0.0
  0
LINE
  5
C8D
330
18
100
AcDbEntity
  8
1
  6
Continuous
100
AcDbLine
 10
231.2765257353039
 20
46.64181385472409
 30
0.0
 11
231.0765257352883
 21
46.64181385472415
 31
0.0
  0
LINE
  5
C8E
330
18
100
AcDbEntity
  8
1
  6
Continuous
100
AcDbLine
 10
233.5765257353037
 20
45.39181385470118
 30
0.0
 11
231.5765257354533
 21
45.39181385470118
 31
0.0
  0
ARC
  5
C8F
330
18
100
AcDbEntity
  8
1
  6
Continuous
100
AcDbCircle
 10
230.0765257353041
 20
46.14181385458045
 30
0.0
 40
1.0
100
AcDbArc
 50
269.9999999999753
 51
359.9999999999998
  0
LINE
  5
C92
330
18
100
AcDbEntity
  8
1
  6
Continuous
100
AcDbLine
 10
235.5765257353037
 20
51.641813854723
 30
0.0
 11
235.5765257353037
 21
61.6418138547321
 31
0.0
  0
LINE
  5
C93
330
18
100
AcDbEntity
  8
1
  6
Continuous
100
AcDbLine
 10
235.5765257353037
 20
51.641813854723
 30
0.0
 11
233.5765257353037
 21
51.641813854723
 31
0.0
  0
LINE
  5
C94
330
18
100
AcDbEntity
  8
1
  6
Continuous
100
AcDbLine
 10
235.5765257353037
 20
56.05567028341027
 30
0.0
 11
233.5765257353037
 21
56.05567028341027
 31
0.0
  0
LINE
  5
C95
330
18
100
AcDbEntity
  8
1
  6
Continuous
100
AcDbLine
 10
235.5765257353037
 20
57.22795742609441
 30
0.0
 11
233.5765257353037
 21
57.22795742609441
 31
0.0
  0
LINE
  5
C96
330
18
100
AcDbEntity
  8
1
  6
Continuous
100
AcDbLine
 10
231.5765257354533
 20
49.64181385471192
 30
0.0
 11
231.4765257353041
 21
49.64181385471204
 31
0.0
  0
LINE
  5
C97
330
18
100
AcDbEntity
  8
1
  6
Continuous
100
AcDbLine
 10
235.5765257353037
 20
61.6418138547321
 30
0.0
 11
233.5765257353037
 21
61.6418138547321
 31
0.0
  0
LINE
  5
C98
330
18
100
AcDbEntity
  8
1
  6
Continuous
100
AcDbLine
 10
231.5765257354533
 20
63.64181385471193
 30
0.0
 11
231.4765257353041
 21
63.64181385471204
 31
0.0
  0
ARC
  5
C99
330
18
100
AcDbEntity
  8
1
  6
Continuous
100
AcDbCircle
 10
231.2765257353039
 20
66.44181385470028
 30
0.0
 40
0.2
100
AcDbArc
 50
0.0
 51
89.99999999993486
  0
ARC
  5
C9A
330
18
100
AcDbEntity
  8
1
  6
Continuous
100
AcDbCircle
 10
230.0765257353041
 20
67.1418138547262
 30
0.0
 40
1.0
100
AcDbArc
 50
359.9999999999998
 51
89.99999999988558
  0
LINE
  5
C9B
330
18
100
AcDbEntity
  8
1
  6
Continuous
100
AcDbLine
 10
233.5765257353037
 20
66.3845996472807
 30
0.0
 11
231.5765257354533
 21
66.3845996472807
 31
0.0
  0
LINE
  5
C9C
330
18
100
AcDbEntity
  8
1
  6
Continuous
100
AcDbLine
 10
231.2765257353041
 20
66.64181385470027
 30
0.0
 11
231.0765257353041
 21
66.6418138547005
 31
0.0
  0
ARC
  5
CA1
330
18
100
AcDbEntity
  8
1
  6
Continuous
100
AcDbCircle
 10
257.2385044494085
 20
56.64181385471278
 30
0.0
 40
9.0
100
AcDbArc
 50
344.1191499917205
 51
15.88085000827938
  0
LINE
  5
CA2
330
18
100
AcDbEntity
  8
4
  6
CENTER
 48
0.5
100
AcDbLine
 10
268.6385044494086
 20
56.64181385471278
 30
0.0
 11
255.0915506912545
 21
56.64181385471278
 31
0.0
  0
ARC
  5
CA3
330
18
100
AcDbEntity
  8
1
  6
Continuous
100
AcDbCircle
 10
264.6446171736175
 20
58.74882460829565
 30
0.0
 40
1.3
100
AcDbArc
 50
15.88085000827938
 51
85.00000000000019
  0
LINE
  5
CA4
330
18
100
AcDbEntity
  8
1
  6
Continuous
100
AcDbLine
 10
263.6385044494086
 20
60.44181385471285
 30
0.0
 11
263.6385044494086
 21
52.84181385471278
 31
0.0
  0
LINE
  5
CA5
330
18
100
AcDbEntity
  8
1
  6
Continuous
100
AcDbLine
 10
262.6385044494093
 20
50.14181385471172
 30
0.0
 11
262.6385044494081
 21
63.14181385471375
 31
0.0
  0
LINE
  5
CA6
330
18
100
AcDbEntity
  8
1
  6
Continuous
100
AcDbLine
 10
257.6385044494093
 20
49.64181385471204
 30
0.0
 11
257.6385044494081
 21
63.64181385471346
 31
0.0
  0
LINE
  5
CA7
330
18
100
AcDbEntity
  8
1
  6
Continuous
100
AcDbLine
 10
257.6385044494081
 20
49.64181385471204
 30
0.0
 11
262.1385044494081
 21
49.64181385471182
 31
0.0
  0
ARC
  5
CA8
330
18
100
AcDbEntity
  8
1
  6
Continuous
100
AcDbCircle
 10
264.6446171736313
 20
54.53480310112661
 30
0.0
 40
1.3
100
AcDbArc
 50
274.9999999999997
 51
344.1191499917205
  0
LINE
  5
CA9
330
18
100
AcDbEntity
  8
1
  6
Continuous
100
AcDbLine
 10
262.6385044494086
 20
55.64181385471282
 30
0.0
 11
263.6385044494086
 21
56.64181385471278
 31
0.0
  0
LINE
  5
CAA
330
18
100
AcDbEntity
  8
1
  6
Continuous
100
AcDbLine
 10
263.6385044494086
 20
52.84181385471278
 30
0.0
 11
262.6385044494086
 21
52.84181385471278
 31
0.0
  0
ARC
  5
CAB
330
18
100
AcDbEntity
  8
1
  6
Continuous
100
AcDbCircle
 10
262.138504449408
 20
50.14181385471175
 30
0.0
 40
0.5
100
AcDbArc
 50
269.999999999995
 51
359.9999999999951
  0
LINE
  5
CAC
330
18
100
AcDbEntity
  8
1
  6
Continuous
100
AcDbLine
 10
263.6385044494086
 20
53.14181385471278
 30
0.0
 11
264.757919639243
 21
53.23974999360196
 31
0.0
  0
LINE
  5
CAD
330
18
100
AcDbEntity
  8
1
  6
Continuous
100
AcDbLine
 10
262.6385044494086
 20
56.64181385471278
 30
0.0
 11
263.6385044494086
 21
57.64181385471271
 31
0.0
  0
LINE
  5
CAE
330
18
100
AcDbEntity
  8
1
  6
Continuous
100
AcDbLine
 10
257.6385044494081
 20
63.64181385471352
 30
0.0
 11
262.1385044494081
 21
63.64181385471376
 31
0.0
  0
LINE
  5
CAF
330
18
100
AcDbEntity
  8
1
  6
Continuous
100
AcDbLine
 10
263.6385044494086
 20
60.44181385471285
 30
0.0
 11
262.6385044494086
 21
60.44181385471285
 31
0.0
  0
ARC
  5
CB0
330
18
100
AcDbEntity
  8
1
  6
Continuous
100
AcDbCircle
 10
262.138504449408
 20
63.14181385471379
 30
0.0
 40
0.5
100
AcDbArc
 50
0.0000000000048853
 51
90.00000000000486
  0
LINE
  5
CB1
330
18
100
AcDbEntity
  8
1
  6
Continuous
100
AcDbLine
 10
263.6385044494086
 20
60.14181385471278
 30
0.0
 11
264.7579196392094
 21
60.04387771582639
 31
0.0
  0
LINE
  5
CB5
330
18
100
AcDbEntity
  8
1
  6
Continuous
100
AcDbLine
 10
222.5290074317583
 20
233.1984957753221
 30
0.0
 11
230.0765257353043
 21
233.1984957753236
 31
0.0
  0
LINE
  5
CB6
330
18
100
AcDbEntity
  8
1
  6
Continuous
100
AcDbLine
 10
226.6765257353041
 20
166.1632432729613
 30
0.0
 11
226.6765257353041
 21
147.0396774850441
 31
0.0
  0
LINE
  5
CBA
330
18
100
AcDbEntity
  8
1
  6
Continuous
100
AcDbLine
 10
222.0765257353041
 20
133.1984957753242
 30
0.0
 11
222.0765257353041
 21
139.1984957753242
 31
0.0
  0
LINE
  5
CBB
330
18
100
AcDbEntity
  8
1
  6
Continuous
100
AcDbLine
 10
221.576525735304
 20
139.6984957753242
 30
0.0
 11
221.576525735304
 21
132.698495775324
 31
0.0
  0
ARC
  5
CBC
330
18
100
AcDbEntity
  8
1
  6
Continuous
100
AcDbCircle
 10
221.0765257353037
 20
135.3725695385552
 30
0.0
 40
10.0
100
AcDbArc
 50
175.2070596831295
 51
180.0
  0
ARC
  5
CBD
330
18
100
AcDbEntity
  8
1
  6
Continuous
100
AcDbCircle
 10
238.744102798251
 20
152.2765920390676
 30
0.0
 40
32.0
100
AcDbArc
 50
210.6559624057083
 51
225.4139233241449
  0
ARC
  5
CBE
330
18
100
AcDbEntity
  8
1
  6
Continuous
100
AcDbCircle
 10
210.0765257353036
 20
125.1984957753222
 30
0.0
 40
1.0
100
AcDbArc
 50
270.0
 51
0.0
  0
ARC
  5
CBF
330
18
100
AcDbEntity
  8
1
  6
Continuous
100
AcDbCircle
 10
209.0765257353036
 20
125.1984957753222
 30
0.0
 40
1.0
100
AcDbArc
 50
180.0
 51
270.0
  0
LINE
  5
CC0
330
18
100
AcDbEntity
  8
1
  6
Continuous
100
AcDbLine
 10
209.0765257353036
 20
124.1984957753222
 30
0.0
 11
210.0765257353036
 21
124.1984957753222
 31
0.0
  0
LINE
  5
CC1
330
18
100
AcDbEntity
  8
1
  6
Continuous
100
AcDbLine
 10
211.0765257353036
 20
125.1984957753222
 30
0.0
 11
211.0765257353036
 21
135.3725695385552
 31
0.0
  0
LINE
  5
CC2
330
18
100
AcDbEntity
  8
1
  6
Continuous
100
AcDbLine
 10
221.576525735304
 20
132.698495775324
 30
0.0
 11
219.076525735304
 21
132.6984957753237
 31
0.0
  0
LINE
  5
CC3
330
18
100
AcDbEntity
  8
1
  6
Continuous
100
AcDbLine
 10
219.076525735304
 20
129.1984957753239
 30
0.0
 11
216.9827226634992
 21
129.1984957753239
 31
0.0
  0
ARC
  5
CC4
330
18
100
AcDbEntity
  8
1
  6
Continuous
100
AcDbCircle
 10
216.9827226634992
 20
130.1984957753305
 30
0.0
 40
1.0
100
AcDbArc
 50
225.4139233241449
 51
270.0
  0
LINE
  5
CC5
330
18
100
AcDbEntity
  8
1
  6
Continuous
100
AcDbLine
 10
222.0765257353039
 20
133.1984957753242
 30
0.0
 11
221.576525735304
 21
132.698495775324
 31
0.0
  0
ARC
  5
CC6
330
18
100
AcDbEntity
  8
1
  6
Continuous
100
AcDbCircle
 10
212.0765257353038
 20
136.4702536398118
 30
0.0
 40
1.0
100
AcDbArc
 50
180.0
 51
210.6559624057083
  0
ARC
  5
CC7
330
18
100
AcDbEntity
  8
1
  6
Continuous
100
AcDbCircle
 10
223.6765257353041
 20
147.0396774850441
 30
0.0
 40
3.0
100
AcDbArc
 50
325.2280559680503
 51
0.0
  0
LINE
  5
CC8
330
18
100
AcDbEntity
  8
4
  6
CENTER
 48
0.5
100
AcDbLine
 10
225.1207660390942
 20
136.1984957753242
 30
0.0
 11
213.9235785856034
 21
136.1984957753237
 31
0.0
  0
LINE
  5
CC9
330
18
100
AcDbEntity
  8
1
  6
Continuous
100
AcDbLine
 10
221.576525735304
 20
139.6984957753242
 30
0.0
 11
219.076525735304
 21
139.6984957753238
 31
0.0
  0
ARC
  5
CCA
330
18
100
AcDbEntity
  8
1
  6
Continuous
100
AcDbCircle
 10
214.8765257353041
 20
245.6632432729581
 30
0.0
 40
103.4999999999999
100
AcDbArc
 50
272.3256847123865
 51
273.2758289597978
  0
ARC
  5
CCB
330
18
100
AcDbEntity
  8
1
  6
Continuous
100
AcDbCircle
 10
219.0765257353041
 20
143.2493282027881
 30
0.0
 40
1.0
100
AcDbArc
 50
272.3483869720769
 51
0.0
  0
ARC
  5
CCC
330
18
100
AcDbEntity
  8
1
  6
Continuous
100
AcDbCircle
 10
220.3908114495899
 20
149.3209231168543
 30
0.0
 40
7.0
100
AcDbArc
 50
311.0823331404507
 51
325.2280559680507
  0
LINE
  5
CCD
330
18
100
AcDbEntity
  8
1
  6
Continuous
100
AcDbLine
 10
221.576525735304
 20
139.6984957753242
 30
0.0
 11
222.0765257353039
 21
139.1984957753242
 31
0.0
  0
ARC
  5
CCE
330
18
100
AcDbEntity
  8
1
  6
Continuous
100
AcDbCircle
 10
220.3908114495899
 20
149.3209231168543
 30
0.0
 40
7.0
100
AcDbArc
 50
273.2758289597978
 51
311.0823331404507
  0
LINE
  5
CCF
330
18
100
AcDbEntity
  8
5
  6
PHANTOM
100
AcDbLine
 10
208.3049528600452
 20
236.2984957753146
 30
0.0
 11
164.3166228372128
 21
192.3101657524824
 31
0.0
  0
LINE
  5
CD0
330
18
100
AcDbEntity
  8
5
  6
PHANTOM
100
AcDbLine
 10
208.7049528600455
 20
238.1127093376882
 30
0.0
 11
163.611284099279
 21
193.0190405769218
 31
0.0
  0
ARC
  5
CD1
330
18
100
AcDbEntity
  8
5
  6
PHANTOM
 48
0.5
100
AcDbCircle
 10
141.2483771959575
 20
163.30222314926
 30
0.0
 40
10.0
100
AcDbArc
 50
48.21647499751075
 51
134.9999999999996
  0
LINE
  5
CD2
330
18
100
AcDbEntity
  8
5
  6
PHANTOM
 48
0.5
100
AcDbLine
 10
126.9831528338178
 20
163.1791344108513
 30
0.0
 11
134.177309384092
 21
170.3732909611255
 31
0.0
  0
LINE
  5
CD3
330
18
100
AcDbEntity
  8
5
  6
PHANTOM
 48
0.5
100
AcDbLine
 10
124.8618324902581
 20
163.8862411920379
 30
0.0
 11
125.5689392714447
 21
163.1791344108513
 31
0.0
  0
ARC
  5
CD4
330
18
100
AcDbEntity
  8
5
  6
PHANTOM
 48
0.5
100
AcDbCircle
 10
125.5689392714447
 20
164.5933479732244
 30
0.0
 40
1.0
100
AcDbArc
 50
134.9999999999996
 51
225.0000000000003
  0
ARC
  5
CD5
330
18
100
AcDbEntity
  8
5
  6
PHANTOM
 48
0.5
100
AcDbCircle
 10
126.2760460526312
 20
163.8862411920379
 30
0.0
 40
1.0
100
AcDbArc
 50
225.0000000000003
 51
315.0
  0
LINE
  5
CD6
330
18
100
AcDbEntity
  8
5
  6
PHANTOM
 48
0.5
100
AcDbLine
 10
164.1769695242284
 20
181.1396466529878
 30
0.0
 11
153.6937283939283
 21
170.6564055226878
 31
0.0
  0
ARC
  5
CD7
330
18
100
AcDbEntity
  8
5
  6
PHANTOM
 48
0.5
100
AcDbCircle
 10
150.865301269182
 20
173.484832647434
 30
0.0
 40
4.0
100
AcDbArc
 50
233.6269265586793
 51
315.0
  0
ARC
  5
CD8
330
18
100
AcDbEntity
  8
5
  6
PHANTOM
 48
0.5
100
AcDbCircle
 10
150.865301269182
 20
173.484832647434
 30
0.0
 40
4.0
100
AcDbArc
 50
228.4457608888005
 51
233.6269265586793
  0
ARC
  5
CD9
330
18
100
AcDbEntity
  8
5
  6
PHANTOM
 48
0.5
100
AcDbCircle
 10
214.8765257353039
 20
245.6984957753197
 30
0.0
 40
100.5
100
AcDbArc
 50
228.2164749975109
 51
228.4457608888005
  0
ARC
  5
CDA
330
18
100
AcDbEntity
  8
5
  6
PHANTOM
 48
0.5
100
AcDbCircle
 10
168.559263524332
 20
188.067525065363
 30
0.0
 40
6.0
100
AcDbArc
 50
134.9999999999996
 51
223.5674562624328
  0
ARC
  5
CDB
330
18
100
AcDbEntity
  8
5
  6
PHANTOM
 48
0.5
100
AcDbCircle
 10
167.8539247863984
 20
188.7763998898025
 30
0.0
 40
6.0
100
AcDbArc
 50
134.9999999999996
 51
225.0000000000003
  0
ARC
  5
CDC
330
18
100
AcDbEntity
  8
5
  6
PHANTOM
 48
0.5
100
AcDbCircle
 10
162.7627559618552
 20
182.553860215361
 30
0.0
 40
2.0
100
AcDbArc
 50
315.0
 51
43.56745626243312
  0
LINE
  5
CDD
330
18
100
AcDbEntity
  8
5
  6
PHANTOM
 48
0.5
100
AcDbLine
 10
164.1769695242284
 20
183.9680737777341
 30
0.0
 11
163.611284099279
 21
184.5337592026833
 31
0.0
  0
ARC
  5
CDE
330
18
100
AcDbEntity
  8
5
  6
PHANTOM
 48
0.5
100
AcDbCircle
 10
154.1356879654246
 20
239.3484957754064
 30
0.0
 40
3.0
100
AcDbArc
 50
270.0
 51
345.1671520791929
  0
ARC
  5
CDF
330
18
100
AcDbEntity
  8
1
  6
Continuous
100
AcDbCircle
 10
223.6765257353041
 20
166.1632432729613
 30
0.0
 40
3.0
100
AcDbArc
 50
0.0
 51
90.0
  0
ARC
  5
CE0
330
18
100
AcDbEntity
  8
1
  6
Continuous
100
AcDbCircle
 10
223.0765257353043
 20
172.1632432729613
 30
0.0
 40
2.999999999999971
100
AcDbArc
 50
180.0
 51
270.0
  0
LINE
  5
CE1
330
18
100
AcDbEntity
  8
1
  6
Continuous
100
AcDbLine
 10
223.6765257353041
 20
169.1632432729613
 30
0.0
 11
223.0765257353043
 21
169.1632432729613
 31
0.0
  0
LINE
  5
CE2
330
18
100
AcDbEntity
  8
5
  6
PHANTOM
 48
0.5
100
AcDbLine
 10
210.3765257353036
 20
237.4730778528101
 30
0.0
 11
210.3765257353036
 21
236.2984957753163
 31
0.0
  0
LINE
  5
CE3
330
18
100
AcDbEntity
  8
5
  6
PHANTOM
 48
0.5
100
AcDbLine
 10
211.0765257353039
 20
237.4730778528098
 30
0.0
 11
210.3765257353685
 21
237.4730778528098
 31
0.0
  0
ARC
  5
CE4
330
18
100
AcDbEntity
  8
5
  6
PHANTOM
 48
0.5
100
AcDbCircle
 10
205.8765257352993
 20
240.9411364624345
 30
0.0
 40
4.0
100
AcDbArc
 50
315.0
 51
359.9999999999332
  0
LINE
  5
CE5
330
18
100
AcDbEntity
  8
5
  6
PHANTOM
 48
0.5
100
AcDbLine
 10
210.3765257353036
 20
236.2984957753163
 30
0.0
 11
206.890739297671
 21
236.2984957753136
 31
0.0
  0
LINE
  5
CE6
330
18
100
AcDbEntity
  8
1
  6
Continuous
100
AcDbLine
 10
224.2994215004508
 20
234.9689098440146
 30
0.0
 11
220.076525735305
 21
230.7460140788688
 31
0.0
  0
LINE
  5
CE7
330
18
100
AcDbEntity
  8
1
  6
Continuous
100
AcDbLine
 10
224.2994215004508
 20
234.9689098440146
 30
0.0
 11
220.076525735305
 21
230.7460140788688
 31
0.0
  0
ARC
  5
CE8
330
18
100
AcDbEntity
  8
1
  6
Continuous
100
AcDbCircle
 10
223.5923147192641
 20
235.6760166252012
 30
0.0
 40
1.0
100
AcDbArc
 50
315.0
 51
0.0
  0
LINE
  5
CEB
330
18
100
AcDbEntity
  8
1
  6
Continuous
100
AcDbLine
 10
262.6385044494786
 20
135.1984957753193
 30
0.0
 11
263.6385044494786
 21
136.1984957753193
 31
0.0
  0
ARC
  5
CEC
330
18
100
AcDbEntity
  8
1
  6
Continuous
100
AcDbCircle
 10
257.2385044494785
 20
136.1984957753193
 30
0.0
 40
9.0
100
AcDbArc
 50
344.1191499917205
 51
15.88085000827938
  0
LINE
  5
CED
330
18
100
AcDbEntity
  8
1
  6
Continuous
100
AcDbLine
 10
263.6385044494786
 20
139.9984957753193
 30
0.0
 11
263.6385044494786
 21
132.3984957753194
 31
0.0
  0
LINE
  5
CEE
330
18
100
AcDbEntity
  8
1
  6
Continuous
100
AcDbLine
 10
262.638504449479
 20
140.6984957753223
 30
0.0
 11
262.6385044494779
 21
130.6984957753225
 31
0.0
  0
LINE
  5
CEF
330
18
100
AcDbEntity
  8
1
  6
Continuous
100
AcDbLine
 10
257.6385044494788
 20
141.1984957753227
 30
0.0
 11
257.638504449478
 21
130.1984957753226
 31
0.0
  0
LINE
  5
CF2
330
18
100
AcDbEntity
  8
1
  6
Continuous
100
AcDbLine
 10
257.638504449478
 20
130.1984957753226
 30
0.0
 11
262.138504449478
 21
130.1984957753223
 31
0.0
  0
LINE
  5
CF3
330
18
100
AcDbEntity
  8
1
  6
Continuous
100
AcDbLine
 10
263.6385044494786
 20
132.6984957753194
 30
0.0
 11
264.757919639313
 21
132.7964319142087
 31
0.0
  0
ARC
  5
CF4
330
18
100
AcDbEntity
  8
1
  6
Continuous
100
AcDbCircle
 10
264.6446171737014
 20
134.0914850217332
 30
0.0
 40
1.3
100
AcDbArc
 50
274.9999999999997
 51
344.1191499917205
  0
LINE
  5
CF5
330
18
100
AcDbEntity
  8
1
  6
Continuous
100
AcDbLine
 10
263.6385044494786
 20
132.3984957753194
 30
0.0
 11
262.6385044494786
 21
132.3984957753194
 31
0.0
  0
ARC
  5
CF6
330
18
100
AcDbEntity
  8
1
  6
Continuous
100
AcDbCircle
 10
262.1385044494778
 20
130.6984957753225
 30
0.0
 40
0.5
100
AcDbArc
 50
269.999999999995
 51
359.9999999999951
  0
LINE
  5
CF7
330
18
100
AcDbEntity
  8
4
  6
CENTER
 48
0.5
100
AcDbLine
 10
268.6385044494786
 20
136.1984957753193
 30
0.0
 11
254.7701799852883
 21
136.1984957753193
 31
0.0
  0
LINE
  5
CF8
330
18
100
AcDbEntity
  8
1
  6
Continuous
100
AcDbLine
 10
257.6385044494788
 20
141.1984957753228
 30
0.0
 11
262.1385044494788
 21
141.1984957753225
 31
0.0
  0
LINE
  5
CF9
330
18
100
AcDbEntity
  8
1
  6
Continuous
100
AcDbLine
 10
262.6385044494786
 20
136.1984957753193
 30
0.0
 11
263.6385044494786
 21
137.1984957753192
 31
0.0
  0
LINE
  5
CFA
330
18
100
AcDbEntity
  8
1
  6
Continuous
100
AcDbLine
 10
263.6385044494786
 20
139.6984957753194
 30
0.0
 11
264.7579196392795
 21
139.6005596364329
 31
0.0
  0
ARC
  5
CFB
330
18
100
AcDbEntity
  8
1
  6
Continuous
100
AcDbCircle
 10
264.6446171736873
 20
138.3055065289021
 30
0.0
 40
1.3
100
AcDbArc
 50
15.88085000827938
 51
85.00000000000019
  0
LINE
  5
CFC
330
18
100
AcDbEntity
  8
1
  6
Continuous
100
AcDbLine
 10
263.6385044494786
 20
139.9984957753193
 30
0.0
 11
262.6385044494786
 21
139.9984957753193
 31
0.0
  0
ARC
  5
CFD
330
18
100
AcDbEntity
  8
1
  6
Continuous
100
AcDbCircle
 10
262.1385044494788
 20
140.6984957753223
 30
0.0
 40
0.5
100
AcDbArc
 50
359.9999999999951
 51
89.99999999999511
  0
LINE
  5
CFE
330
18
100
AcDbEntity
  8
1
  6
Continuous
100
AcDbLine
 10
235.5765257353011
 20
240.6984957753241
 30
0.0
 11
233.576525735304
 21
240.698495775325
 31
0.0
  0
LINE
  5
CFF
330
18
100
AcDbEntity
  8
1
  6
Continuous
100
AcDbLine
 10
231.4765257353039
 20
238.6984957753233
 30
0.0
 11
231.5765257353025
 21
238.6984957753234
 31
0.0
  0
LINE
  5
D00
330
18
100
AcDbEntity
  8
1
  6
Continuous
100
AcDbLine
 10
233.5765257353041
 20
234.4484957752114
 30
0.0
 11
231.5765257354533
 21
234.4484957752045
 31
0.0
  0
LINE
  5
D01
330
18
100
AcDbEntity
  8
1
  6
Continuous
100
AcDbLine
 10
233.5765257353081
 20
241.5484957753124
 30
0.0
 11
231.5765257352246
 21
241.548495775312
 31
0.0
  0
LINE
  5
D02
330
18
100
AcDbEntity
  8
1
  6
Continuous
100
AcDbLine
 10
233.5765257353086
 20
240.0734957753151
 30
0.0
 11
231.5765257352251
 21
240.0734957753146
 31
0.0
  0
LINE
  5
D03
330
18
100
AcDbEntity
  8
1
  6
Continuous
100
AcDbLine
 10
231.0765257353041
 20
235.6984957753228
 30
0.0
 11
231.2765257353041
 21
235.6984957753228
 31
0.0
  0
ARC
  5
D04
330
18
100
AcDbEntity
  8
1
  6
Continuous
100
AcDbCircle
 10
230.0765257353041
 20
234.1984957753236
 30
0.0
 40
1.0
100
AcDbArc
 50
270.0
 51
0.0
  0
ARC
  5
D05
330
18
100
AcDbEntity
  8
1
  6
Continuous
100
AcDbCircle
 10
231.2202757353041
 20
235.9484957753227
 30
0.0
 40
0.2562500000000227
100
AcDbArc
 50
282.6803834918263
 51
0.0
  0
LINE
  5
D07
330
18
100
AcDbEntity
  8
1
  6
Continuous
100
AcDbLine
 10
273.9385044494089
 20
239.6984957753193
 30
0.0
 11
273.1385044494089
 21
239.6984957753189
 31
0.0
  0
LINE
  5
D08
330
18
100
AcDbEntity
  8
1
  6
Continuous
100
AcDbLine
 10
275.238504449409
 20
241.1984957753197
 30
0.0
 11
276.7000029175454
 21
241.3263603230422
 31
0.0
  0
LINE
  5
D09
330
18
100
AcDbEntity
  8
1
  6
Continuous
100
AcDbLine
 10
275.238504449409
 20
241.0984957753198
 30
0.0
 11
273.9385044494089
 21
241.0984957753198
 31
0.0
  0
LINE
  5
D0A
330
18
100
AcDbEntity
  8
5
  6
PHANTOM
100
AcDbLine
 10
36.46876842651716
 20
255.1484957754063
 30
0.0
 11
154.1356879654235
 21
255.1484957754063
 31
0.0
  0
LINE
  5
D0B
330
18
100
AcDbEntity
  8
4
  6
CENTER
100
AcDbLine
 10
22.01449294711801
 20
245.698495775297
 30
0.0
 11
162.8995546258683
 21
245.6984957752968
 31
0.0
  0
ARC
  5
D0C
330
18
100
AcDbEntity
  8
1
  6
Continuous
100
AcDbCircle
 10
36.41839654198958
 20
244.6520132711778
 30
0.0
 40
10.21051532818227
100
AcDbArc
 50
52.63665458699405
 51
127.3226234462154
  0
LINE
  5
D0D
330
18
100
AcDbEntity
  8
1
  6
Continuous
100
AcDbLine
 10
51.41876842647672
 20
271.1984957752954
 30
0.0
 11
21.41876842647673
 21
271.1984957752793
 31
0.0
  0
ARC
  5
D0E
330
18
100
AcDbEntity
  8
1
  6
Continuous
100
AcDbCircle
 10
36.41876842647064
 20
285.984210060932
 30
0.0
 40
21.78571428566616
100
AcDbArc
 50
226.4619878986804
 51
313.5652350239563
  0
ARC
  5
D10
330
18
100
AcDbEntity
  8
1
  6
Continuous
100
AcDbCircle
 10
36.41876842651527
 20
245.6984957753177
 30
0.0
 40
9.4
100
AcDbArc
 50
131.1947459530566
 51
180.0
  0
ARC
  5
D11
330
18
100
AcDbEntity
  8
5
  6
PHANTOM
 48
0.5
100
AcDbCircle
 10
36.41876842649458
 20
245.698495775297
 30
0.0
 40
9.4
100
AcDbArc
 50
90.0
 51
138.7645320801528
  0
ARC
  5
D12
330
18
100
AcDbEntity
  8
1
  6
Continuous
100
AcDbCircle
 10
21.41876842647735
 20
270.1984957752793
 30
0.0
 40
1.0
100
AcDbArc
 50
90.0
 51
180.0
  0
ARC
  5
D13
330
18
100
AcDbEntity
  8
1
  6
Continuous
100
AcDbCircle
 10
36.41876842651527
 20
245.6984957753177
 30
0.0
 40
9.4
100
AcDbArc
 50
0.0
 51
48.76453208015315
  0
ARC
  5
D14
330
18
100
AcDbEntity
  8
1
  6
Continuous
100
AcDbCircle
 10
51.4187684264773
 20
270.1984957752951
 30
0.0
 40
1.0
100
AcDbArc
 50
0.0
 51
90.0
  0
LINE
  5
D15
330
18
100
AcDbEntity
  8
4
  6
CENTER
100
AcDbLine
 10
16.05870758223835
 20
353.6748505597743
 30
0.0
 11
71.47169074410886
 21
353.6748505597736
 31
0.0
  0
LINE
  5
D16
330
18
100
AcDbEntity
  8
1
  6
Continuous
100
AcDbLine
 10
40.98834006526209
 20
358.1748505597741
 30
0.0
 11
47.68834006526218
 21
358.1748505597741
 31
0.0
  0
LINE
  5
D17
330
18
100
AcDbEntity
  8
1
  6
Continuous
100
AcDbLine
 10
40.98834006526209
 20
349.1748505597743
 30
0.0
 11
47.68834006526218
 21
349.1748505597743
 31
0.0
  0
LINE
  5
D18
330
18
100
AcDbEntity
  8
1
  6
Continuous
100
AcDbLine
 10
20.98834006526243
 20
357.5692992843106
 30
0.0
 11
20.98834006526243
 21
349.7804018352383
 31
0.0
  0
LINE
  5
D19
330
18
100
AcDbEntity
  8
1
  6
Continuous
100
AcDbLine
 10
30.92167339859554
 20
342.8748505597742
 30
0.0
 11
40.98834006526232
 21
350.4248505597743
 31
0.0
  0
ARC
  5
D1A
330
18
100
AcDbEntity
  8
1
  6
Continuous
100
AcDbCircle
 10
28.19612758496077
 20
350.8089289517471
 30
0.0
 40
0.7113053508261391
100
AcDbArc
 50
122.0053832080826
 51
237.994616791917
  0
ARC
  5
D1B
330
18
100
AcDbEntity
  8
1
  6
Continuous
100
AcDbCircle
 10
29.7735168833085
 20
350.8089289517471
 30
0.0
 40
0.7113053508261391
100
AcDbArc
 50
302.0053832080829
 51
57.99461679191704
  0
LINE
  5
D1C
330
18
100
AcDbEntity
  8
1
  6
Continuous
100
AcDbLine
 10
19.98834006526243
 20
349.7804018352383
 30
0.0
 11
19.98834006526243
 21
357.5692992843102
 31
0.0
  0
LINE
  5
D1D
330
18
100
AcDbEntity
  8
1
  6
Continuous
100
AcDbLine
 10
31.98834006526209
 20
348.674850559774
 30
0.0
 11
31.98834006526209
 21
358.6748505597741
 31
0.0
  0
LINE
  5
D1E
330
18
100
AcDbEntity
  8
1
  6
Continuous
100
AcDbLine
 10
34.98834006526209
 20
358.6748505597741
 30
0.0
 11
34.98834006526209
 21
348.674850559774
 31
0.0
  0
LINE
  5
D1F
330
18
100
AcDbEntity
  8
1
  6
Continuous
100
AcDbLine
 10
25.9883400652622
 20
357.1748505597741
 30
0.0
 11
25.9883400652622
 21
350.1748505597743
 31
0.0
  0
LINE
  5
D20
330
18
100
AcDbEntity
  8
1
  6
Continuous
100
AcDbLine
 10
26.98834006526215
 20
345.6748505597741
 30
0.0
 11
26.98834006526215
 21
361.6748505597741
 31
0.0
  0
LINE
  5
D21
330
18
100
AcDbEntity
  8
1
  6
Continuous
100
AcDbLine
 10
30.98834006526209
 20
345.6748505597741
 30
0.0
 11
30.98834006526209
 21
361.6748505597741
 31
0.0
  0
LINE
  5
D22
330
18
100
AcDbEntity
  8
1
  6
Continuous
100
AcDbLine
 10
21.98834006526243
 20
357.1748505597743
 30
0.0
 11
21.98834006526243
 21
350.1748505597741
 31
0.0
  0
LINE
  5
D23
330
18
100
AcDbEntity
  8
1
  6
Continuous
100
AcDbLine
 10
26.05870758223807
 20
342.6748505597743
 30
0.0
 11
30.32167339859552
 21
342.6748505597743
 31
0.0
  0
LINE
  5
D24
330
18
100
AcDbEntity
  8
1
  6
Continuous
100
AcDbLine
 10
26.05870758223807
 20
341.6748505597743
 30
0.0
 11
30.32167339859552
 21
341.6748505597743
 31
0.0
  0
ARC
  5
D25
330
18
100
AcDbEntity
  8
1
  6
Continuous
100
AcDbCircle
 10
21.98834006526232
 20
349.7804018352383
 30
0.0
 40
1.0
100
AcDbArc
 50
180.0
 51
213.6900675259785
  0
ARC
  5
D26
330
18
100
AcDbEntity
  8
1
  6
Continuous
100
AcDbCircle
 10
26.05870758223829
 20
343.6748505597741
 30
0.0
 40
1.0
100
AcDbArc
 50
213.690067525982
 51
270.0
  0
LINE
  5
D27
330
18
100
AcDbEntity
  8
1
  6
Continuous
100
AcDbLine
 10
21.1562897709245
 20
349.2257016390132
 30
0.0
 11
25.22665728790048
 21
343.1201503635492
 31
0.0
  0
ARC
  5
D28
330
18
100
AcDbEntity
  8
1
  6
Continuous
100
AcDbCircle
 10
21.98834006526232
 20
349.7804018352383
 30
0.0
 40
2.0
100
AcDbArc
 50
180.0
 51
213.6900675259794
  0
LINE
  5
D29
330
18
100
AcDbEntity
  8
1
  6
Continuous
100
AcDbLine
 10
20.32423947658662
 20
348.6710014427877
 30
0.0
 11
24.39460699356255
 21
342.5654501673236
 31
0.0
  0
ARC
  5
D2A
330
18
100
AcDbEntity
  8
1
  6
Continuous
100
AcDbCircle
 10
25.48834006526232
 20
350.1748505597741
 30
0.0
 40
0.5
100
AcDbArc
 50
270.0
 51
0.0
  0
LINE
  5
D2B
330
18
100
AcDbEntity
  8
1
  6
Continuous
100
AcDbLine
 10
23.4883400652622
 20
349.6748505597743
 30
0.0
 11
24.9883400652622
 21
349.6748505597743
 31
0.0
  0
ARC
  5
D2C
330
18
100
AcDbEntity
  8
1
  6
Continuous
100
AcDbCircle
 10
22.48834006526231
 20
350.1748505597741
 30
0.0
 40
0.5
100
AcDbArc
 50
180.0
 51
270.0
  0
ARC
  5
D2D
330
18
100
AcDbEntity
  8
1
  6
Continuous
100
AcDbCircle
 10
26.05870758223829
 20
343.6748505597741
 30
0.0
 40
2.0
100
AcDbArc
 50
213.6900675259794
 51
270.0
  0
LINE
  5
D2E
330
18
100
AcDbEntity
  8
1
  6
Continuous
100
AcDbLine
 10
22.48834006526231
 20
349.6748505597744
 30
0.0
 11
25.48834006526232
 21
349.6748505597744
 31
0.0
  0
LINE
  5
D2F
330
18
100
AcDbEntity
  8
1
  6
Continuous
100
AcDbLine
 10
31.98834006526209
 20
348.674850559774
 30
0.0
 11
34.98834006526209
 21
348.674850559774
 31
0.0
  0
LINE
  5
D30
330
18
100
AcDbEntity
  8
1
  6
Continuous
100
AcDbLine
 10
31.52167339859551
 20
342.0748505597742
 30
0.0
 11
40.9883400652622
 21
349.1748505597743
 31
0.0
  0
ARC
  5
D31
330
18
100
AcDbEntity
  8
1
  6
Continuous
100
AcDbCircle
 10
30.32167339859552
 20
343.6748505597741
 30
0.0
 40
1.0
100
AcDbArc
 50
270.0
 51
306.8698976458446
  0
ARC
  5
D32
330
18
100
AcDbEntity
  8
1
  6
Continuous
100
AcDbCircle
 10
28.98482223413464
 20
347.3629503648912
 30
0.0
 40
2.199411438678188
100
AcDbArc
 50
57.99461679191704
 51
122.0053832080826
  0
ARC
  5
D33
330
18
100
AcDbEntity
  8
1
  6
Continuous
100
AcDbCircle
 10
28.98482223413464
 20
352.0708403904253
 30
0.0
 40
2.199411438678188
100
AcDbArc
 50
237.994616791917
 51
302.0053832080829
  0
ARC
  5
D34
330
18
100
AcDbEntity
  8
1
  6
Continuous
100
AcDbCircle
 10
28.98482223413464
 20
349.8867732422476
 30
0.0
 40
2.199411438678188
100
AcDbArc
 50
237.994616791917
 51
302.0053832080829
  0
LINE
  5
D35
330
18
100
AcDbEntity
  8
1
  6
Continuous
100
AcDbLine
 10
27.48482223413464
 20
346.9326831632628
 30
0.0
 11
30.48482223413464
 21
346.9326831632628
 31
0.0
  0
LINE
  5
D36
330
18
100
AcDbEntity
  8
1
  6
Continuous
100
AcDbLine
 10
27.48482223413464
 20
347.8326831632628
 30
0.0
 11
27.48482223413464
 21
346.0326831632628
 31
0.0
  0
ARC
  5
D37
330
18
100
AcDbEntity
  8
1
  6
Continuous
100
AcDbCircle
 10
28.19612758496077
 20
348.6248618035695
 30
0.0
 40
0.7113053508261391
100
AcDbArc
 50
122.0053832080826
 51
237.994616791917
  0
ARC
  5
D38
330
18
100
AcDbEntity
  8
1
  6
Continuous
100
AcDbCircle
 10
29.7735168833085
 20
348.6248618035695
 30
0.0
 40
0.7113053508261391
100
AcDbArc
 50
302.0053832080829
 51
57.99461679191704
  0
LINE
  5
D39
330
18
100
AcDbEntity
  8
1
  6
Continuous
100
AcDbLine
 10
26.98834006526215
 20
345.674850559774
 30
0.0
 11
30.98834006526209
 21
345.674850559774
 31
0.0
  0
ARC
  5
D3A
330
18
100
AcDbEntity
  8
1
  6
Continuous
100
AcDbCircle
 10
30.32167339859552
 20
343.6748505597741
 30
0.0
 40
2.0
100
AcDbArc
 50
270.0
 51
306.8698976458438
  0
LINE
  5
D3B
330
18
100
AcDbEntity
  8
1
  6
Continuous
100
AcDbLine
 10
30.32167339859558
 20
364.6748505597744
 30
0.0
 11
26.05870758223818
 21
364.6748505597744
 31
0.0
  0
LINE
  5
D3C
330
18
100
AcDbEntity
  8
1
  6
Continuous
100
AcDbLine
 10
26.05870758223818
 20
365.6748505597743
 30
0.0
 11
30.32167339859563
 21
365.6748505597743
 31
0.0
  0
LINE
  5
D3D
330
18
100
AcDbEntity
  8
1
  6
Continuous
100
AcDbLine
 10
25.22665728790036
 20
364.2295507559996
 30
0.0
 11
21.15628977092461
 21
358.1239994805359
 31
0.0
  0
LINE
  5
D3E
330
18
100
AcDbEntity
  8
1
  6
Continuous
100
AcDbLine
 10
20.32423947658662
 20
358.6786996767608
 30
0.0
 11
24.39460699356255
 21
364.7842509522247
 31
0.0
  0
ARC
  5
D3F
330
18
100
AcDbEntity
  8
1
  6
Continuous
100
AcDbCircle
 10
21.98834006526243
 20
357.5692992843106
 30
0.0
 40
1.0
100
AcDbArc
 50
146.3099324740207
 51
180.0
  0
ARC
  5
D40
330
18
100
AcDbEntity
  8
1
  6
Continuous
100
AcDbCircle
 10
22.48834006526243
 20
357.1748505597743
 30
0.0
 40
0.5
100
AcDbArc
 50
90.0
 51
180.0
  0
ARC
  5
D41
330
18
100
AcDbEntity
  8
1
  6
Continuous
100
AcDbCircle
 10
25.48834006526232
 20
357.174850559774
 30
0.0
 40
0.5
100
AcDbArc
 50
0.0
 51
90.0
  0
LINE
  5
D42
330
18
100
AcDbEntity
  8
1
  6
Continuous
100
AcDbLine
 10
23.4883400652622
 20
357.6748505597741
 30
0.0
 11
24.9883400652622
 21
357.6748505597741
 31
0.0
  0
ARC
  5
D43
330
18
100
AcDbEntity
  8
1
  6
Continuous
100
AcDbCircle
 10
21.98834006526232
 20
357.5692992843102
 30
0.0
 40
2.0
100
AcDbArc
 50
146.3099324740204
 51
180.0
  0
LINE
  5
D44
330
18
100
AcDbEntity
  8
1
  6
Continuous
100
AcDbLine
 10
22.48834006526243
 20
357.6748505597743
 30
0.0
 11
25.48834006526232
 21
357.6748505597743
 31
0.0
  0
ARC
  5
D45
330
18
100
AcDbEntity
  8
1
  6
Continuous
100
AcDbCircle
 10
26.05870758223829
 20
363.6748505597741
 30
0.0
 40
1.0
100
AcDbArc
 50
90.0
 51
146.3099324740213
  0
ARC
  5
D46
330
18
100
AcDbEntity
  8
1
  6
Continuous
100
AcDbCircle
 10
26.05870758223829
 20
363.674850559774
 30
0.0
 40
2.0
100
AcDbArc
 50
90.0
 51
146.3099324740204
  0
LINE
  5
D47
330
18
100
AcDbEntity
  8
1
  6
Continuous
100
AcDbLine
 10
40.98834006526209
 20
356.9248505597744
 30
0.0
 11
30.92167339859543
 21
364.4748505597743
 31
0.0
  0
LINE
  5
D48
330
18
100
AcDbEntity
  8
1
  6
Continuous
100
AcDbLine
 10
27.48482223413464
 20
360.3847197146081
 30
0.0
 11
30.48482223413464
 21
361.2847197146082
 31
0.0
  0
LINE
  5
D49
330
18
100
AcDbEntity
  8
1
  6
Continuous
100
AcDbLine
 10
31.52167339859556
 20
365.2748505597743
 30
0.0
 11
40.9883400652622
 21
358.1748505597743
 31
0.0
  0
ARC
  5
D4A
330
18
100
AcDbEntity
  8
1
  6
Continuous
100
AcDbCircle
 10
34.06281975625143
 20
353.6738194224955
 30
0.0
 40
0.5999999999999998
100
AcDbArc
 50
270.0
 51
90.0
  0
ARC
  5
D4B
330
18
100
AcDbEntity
  8
1
  6
Continuous
100
AcDbCircle
 10
34.06281975625143
 20
356.0978637850865
 30
0.0
 40
0.5999999999999998
100
AcDbArc
 50
270.0
 51
90.0
  0
LINE
  5
D4C
330
18
100
AcDbEntity
  8
1
  6
Continuous
100
AcDbLine
 10
33.22281975625145
 20
351.8958951701772
 30
0.0
 11
34.66281975625145
 21
350.8158951701771
 31
0.0
  0
LINE
  5
D4D
330
18
100
AcDbEntity
  8
1
  6
Continuous
100
AcDbLine
 10
31.98834006526209
 20
358.6748505597741
 30
0.0
 11
34.98834006526209
 21
358.6748505597741
 31
0.0
  0
LINE
  5
D4E
330
18
100
AcDbEntity
  8
1
  6
Continuous
100
AcDbLine
 10
32.86281975625144
 20
353.0738194224956
 30
0.0
 11
34.06281975625143
 21
353.0738194224956
 31
0.0
  0
LINE
  5
D4F
330
18
100
AcDbEntity
  8
1
  6
Continuous
100
AcDbLine
 10
32.86281975625144
 20
354.2738194224956
 30
0.0
 11
34.06281975625143
 21
354.2738194224956
 31
0.0
  0
ARC
  5
D50
330
18
100
AcDbEntity
  8
1
  6
Continuous
100
AcDbCircle
 10
32.86281975625144
 20
353.6738194224955
 30
0.0
 40
0.5999999999999998
100
AcDbArc
 50
90.0
 51
270.0
  0
LINE
  5
D51
330
18
100
AcDbEntity
  8
1
  6
Continuous
100
AcDbLine
 10
29.35982223413464
 20
359.8222197146081
 30
0.0
 11
29.35982223413464
 21
360.9472197146081
 31
0.0
  0
LINE
  5
D52
330
18
100
AcDbEntity
  8
1
  6
Continuous
100
AcDbLine
 10
27.48482223413464
 20
357.9618334148272
 30
0.0
 11
28.98482223413464
 21
358.8618334148271
 31
0.0
  0
LINE
  5
D53
330
18
100
AcDbEntity
  8
1
  6
Continuous
100
AcDbLine
 10
27.48482223413464
 20
357.5307619322933
 30
0.0
 11
30.48482223413464
 21
357.5307619322933
 31
0.0
  0
LINE
  5
D54
330
18
100
AcDbEntity
  8
1
  6
Continuous
100
AcDbLine
 10
28.98482223413464
 20
358.8618334148271
 30
0.0
 11
30.48482223413464
 21
358.8618334148271
 31
0.0
  0
LINE
  5
D55
330
18
100
AcDbEntity
  8
1
  6
Continuous
100
AcDbLine
 10
28.98482223413464
 20
358.8618334148271
 30
0.0
 11
27.48482223413464
 21
359.7618334148271
 31
0.0
  0
LINE
  5
D56
330
18
100
AcDbEntity
  8
1
  6
Continuous
100
AcDbLine
 10
30.48482223413464
 20
359.4847197146082
 30
0.0
 11
27.48482223413464
 21
360.3847197146081
 31
0.0
  0
ARC
  5
D57
330
18
100
AcDbEntity
  8
1
  6
Continuous
100
AcDbCircle
 10
28.98482223413464
 20
357.1208291146769
 30
0.0
 40
2.199411438678188
100
AcDbArc
 50
237.994616791917
 51
302.0053832080829
  0
LINE
  5
D58
330
18
100
AcDbEntity
  8
1
  6
Continuous
100
AcDbLine
 10
27.48482223413464
 20
354.2052006093289
 30
0.0
 11
30.48482223413464
 21
354.2052006093289
 31
0.0
  0
LINE
  5
D59
330
18
100
AcDbEntity
  8
1
  6
Continuous
100
AcDbLine
 10
27.48482223413464
 20
351.805200609329
 30
0.0
 11
30.48482223413464
 21
351.805200609329
 31
0.0
  0
LINE
  5
D5A
330
18
100
AcDbEntity
  8
1
  6
Continuous
100
AcDbLine
 10
27.48482223413464
 20
353.5302006093289
 30
0.0
 11
30.48482223413464
 21
353.5302006093289
 31
0.0
  0
LINE
  5
D5B
330
18
100
AcDbEntity
  8
1
  6
Continuous
100
AcDbLine
 10
28.98482223413464
 20
351.805200609329
 30
0.0
 11
28.98482223413464
 21
353.5302006093289
 31
0.0
  0
LINE
  5
D5C
330
18
100
AcDbEntity
  8
1
  6
Continuous
100
AcDbLine
 10
28.98482223413464
 20
356.9464176759988
 30
0.0
 11
30.33946000499298
 21
356.9464176759988
 31
0.0
  0
ARC
  5
D5D
330
18
100
AcDbEntity
  8
1
  6
Continuous
100
AcDbCircle
 10
29.70375441102078
 20
355.8964176759989
 30
0.0
 40
0.781067823113782
100
AcDbArc
 50
304.8882680994088
 51
55.11173190059107
  0
ARC
  5
D5E
330
18
100
AcDbEntity
  8
1
  6
Continuous
100
AcDbCircle
 10
28.26589005724838
 20
355.8964176759989
 30
0.0
 40
0.781067823113782
100
AcDbArc
 50
124.8882680994089
 51
235.111731900591
  0
ARC
  5
D5F
330
18
100
AcDbEntity
  8
1
  6
Continuous
100
AcDbCircle
 10
29.12951822671368
 20
354.6698032943284
 30
0.0
 40
2.281208007415607
100
AcDbArc
 50
115.7201063039166
 51
125.0593381436521
  0
LINE
  5
D60
330
18
100
AcDbEntity
  8
1
  6
Continuous
100
AcDbLine
 10
28.98482223413464
 20
356.9464176759988
 30
0.0
 11
28.98482223413464
 21
355.9127398593007
 31
0.0
  0
ARC
  5
D61
330
18
100
AcDbEntity
  8
1
  6
Continuous
100
AcDbCircle
 10
28.84012624155559
 20
354.6698032943284
 30
0.0
 40
2.281208007415607
100
AcDbArc
 50
54.94066185634784
 51
86.36331323835952
  0
ARC
  5
D62
330
18
100
AcDbEntity
  8
1
  6
Continuous
100
AcDbCircle
 10
32.86281975625144
 20
356.0978637850865
 30
0.0
 40
0.5999999999999998
100
AcDbArc
 50
90.0
 51
270.0
  0
LINE
  5
D63
330
18
100
AcDbEntity
  8
1
  6
Continuous
100
AcDbLine
 10
32.86281975625144
 20
355.4978637850865
 30
0.0
 11
34.06281975625143
 21
355.4978637850865
 31
0.0
  0
LINE
  5
D64
330
18
100
AcDbEntity
  8
1
  6
Continuous
100
AcDbLine
 10
32.86281975625144
 20
356.6978637850866
 30
0.0
 11
34.06281975625143
 21
356.6978637850866
 31
0.0
  0
ARC
  5
D65
330
18
100
AcDbEntity
  8
1
  6
Continuous
100
AcDbCircle
 10
32.86281975625144
 20
351.4158951701772
 30
0.0
 40
0.6000000000000007
100
AcDbArc
 50
53.13010235415486
 51
270.0
  0
LINE
  5
D66
330
18
100
AcDbEntity
  8
1
  6
Continuous
100
AcDbLine
 10
40.98834006526197
 20
356.9248505597743
 30
0.0
 11
40.98834006526197
 21
350.4248505597744
 31
0.0
  0
LINE
  5
D67
330
18
100
AcDbEntity
  8
1
  6
Continuous
100
AcDbLine
 10
34.66281975625145
 20
352.0158951701771
 30
0.0
 11
34.66281975625145
 21
350.8158951701771
 31
0.0
  0
ARC
  5
D68
330
18
100
AcDbEntity
  8
1
  6
Continuous
100
AcDbCircle
 10
30.32167339859574
 20
363.6748505597741
 30
0.0
 40
1.0
100
AcDbArc
 50
53.13010235415664
 51
90.0
  0
ARC
  5
D69
330
18
100
AcDbEntity
  8
1
  6
Continuous
100
AcDbCircle
 10
30.32167339859574
 20
363.674850559774
 30
0.0
 40
2.0
100
AcDbArc
 50
53.13010235415614
 51
90.0
  0
LINE
  5
D6A
330
18
100
AcDbEntity
  8
1
  6
Continuous
100
AcDbLine
 10
26.98834006526215
 20
361.674850559774
 30
0.0
 11
30.98834006526209
 21
361.674850559774
 31
0.0
  0
LINE
  5
D6B
330
18
100
AcDbEntity
  8
1
  6
Continuous
100
AcDbLine
 10
47.9883400652621
 20
350.5748505597741
 30
0.0
 11
47.9883400652621
 21
349.4748505597741
 31
0.0
  0
ARC
  5
D6C
330
18
100
AcDbEntity
  8
1
  6
Continuous
100
AcDbCircle
 10
47.68834006526242
 20
349.474850559774
 30
0.0
 40
0.3
100
AcDbArc
 50
270.0
 51
0.0
  0
LINE
  5
D6D
330
18
100
AcDbEntity
  8
1
  6
Continuous
100
AcDbLine
 10
47.9883400652621
 20
350.5748505597741
 30
0.0
 11
65.4883400652621
 21
350.5748505597741
 31
0.0
  0
LINE
  5
D6E
330
18
100
AcDbEntity
  8
1
  6
Continuous
100
AcDbLine
 10
44.4883400652621
 20
351.2748505597743
 30
0.0
 11
66.19046042617242
 21
351.2748505597743
 31
0.0
  0
LINE
  5
D6F
330
18
100
AcDbEntity
  8
1
  6
Continuous
100
AcDbLine
 10
44.4883400652621
 20
352.4748505597741
 30
0.0
 11
67.39409533059023
 21
352.4748505597741
 31
0.0
  0
LINE
  5
D70
330
18
100
AcDbEntity
  8
1
  6
Continuous
100
AcDbLine
 10
44.4883400652621
 20
354.5748505597742
 30
0.0
 11
66.83340950396632
 21
354.5748505597742
 31
0.0
  0
LINE
  5
D71
330
18
100
AcDbEntity
  8
1
  6
Continuous
100
AcDbLine
 10
47.9883400652621
 20
356.7748505597741
 30
0.0
 11
64.48834006526209
 21
356.7748505597741
 31
0.0
  0
LINE
  5
D72
330
18
100
AcDbEntity
  8
1
  6
Continuous
100
AcDbLine
 10
44.4883400652621
 20
357.0748505597741
 30
0.0
 11
47.9883400652621
 21
357.0748505597741
 31
0.0
  0
ARC
  5
D73
330
18
100
AcDbEntity
  8
1
  6
Continuous
100
AcDbCircle
 10
47.68834006526242
 20
357.874850559774
 30
0.0
 40
0.3
100
AcDbArc
 50
0.0
 51
90.0
  0
LINE
  5
D74
330
18
100
AcDbEntity
  8
1
  6
Continuous
100
AcDbLine
 10
44.4883400652621
 20
352.4748505597741
 30
0.0
 11
44.4883400652621
 21
351.2748505597743
 31
0.0
  0
LINE
  5
D75
330
18
100
AcDbEntity
  8
1
  6
Continuous
100
AcDbLine
 10
44.4883400652621
 20
357.0748505597741
 30
0.0
 11
44.4883400652621
 21
354.5748505597742
 31
0.0
  0
LINE
  5
D76
330
18
100
AcDbEntity
  8
1
  6
Continuous
100
AcDbLine
 10
47.9883400652621
 20
357.8748505597743
 30
0.0
 11
47.9883400652621
 21
356.7748505597741
 31
0.0
  0
LINE
  5
D77
330
18
100
AcDbEntity
  8
1
  6
Continuous
100
AcDbLine
 10
64.48834006526209
 20
356.7748505597741
 30
0.0
 11
67.83043453425847
 21
353.6395029617708
 31
0.0
  0
ARC
  5
D78
330
18
100
AcDbEntity
  8
1
  6
Continuous
100
AcDbCircle
 10
67.48834006526232
 20
353.2748505597741
 30
0.0
 40
0.5
100
AcDbArc
 50
314.9133543439016
 51
46.82814494213833
  0
LINE
  5
D79
330
18
100
AcDbEntity
  8
1
  6
Continuous
100
AcDbLine
 10
65.4883400652621
 20
350.5748505597741
 30
0.0
 11
67.84135838997207
 21
352.9207629118408
 31
0.0
  0
LINE
  5
D85
330
18
100
AcDbEntity
  8
1
  6
Continuous
100
AcDbLine
 10
220.0765257352236
 20
342.1748505597611
 30
0.0
 11
230.076525735306
 21
342.1748505597812
 31
0.0
  0
LINE
  5
D86
330
18
100
AcDbEntity
  8
4
  6
CENTER
100
AcDbLine
 10
240.0067459495024
 20
353.6748505598177
 30
0.0
 11
203.7993558056674
 21
353.6748505597736
 31
0.0
  0
LINE
  5
D87
330
18
100
AcDbEntity
  8
1
  6
Continuous
100
AcDbLine
 10
220.0765257352137
 20
365.1748505599226
 30
0.0
 11
230.0765257353036
 21
365.1748505599268
 31
0.0
  0
LINE
  5
D88
330
18
100
AcDbEntity
  8
1
  6
Continuous
100
AcDbLine
 10
219.076525735304
 20
258.1984957753212
 30
0.0
 11
233.0765257353041
 21
258.198495775324
 31
0.0
  0
LINE
  5
D89
330
18
100
AcDbEntity
  8
4
  6
CENTER
100
AcDbLine
 10
204.2495078744226
 20
245.6984957753181
 30
0.0
 11
240.2983160850364
 21
245.6984957753258
 31
0.0
  0
ARC
  5
D8A
330
18
100
AcDbEntity
  8
5
  6
PHANTOM
 48
0.5
100
AcDbCircle
 10
154.1356879654235
 20
252.1484957754063
 30
0.0
 40
3.0
100
AcDbArc
 50
14.83284792081368
 51
90.0
  0
LINE
  5
D8F
330
18
100
AcDbEntity
  8
1
  6
Continuous
100
AcDbLine
 10
222.0765257353041
 20
261.1984957753239
 30
0.0
 11
222.0765257353041
 21
267.1984957753239
 31
0.0
  0
LINE
  5
D90
330
18
100
AcDbEntity
  8
1
  6
Continuous
100
AcDbLine
 10
221.576525735304
 20
267.6984957753239
 30
0.0
 11
221.576525735304
 21
260.698495775324
 31
0.0
  0
ARC
  5
D91
330
18
100
AcDbEntity
  8
1
  6
Continuous
100
AcDbCircle
 10
212.0765257353036
 20
250.3158543275656
 30
0.0
 40
4.0
100
AcDbArc
 50
121.2329290155124
 51
138.590377890729
  0
ARC
  5
D92
330
18
100
AcDbEntity
  8
1
  6
Continuous
100
AcDbCircle
 10
238.0765257353036
 20
245.2804598907616
 30
0.0
 40
30.0
100
AcDbArc
 50
165.1648884180241
 51
180.0
  0
ARC
  5
D93
330
18
100
AcDbEntity
  8
5
  6
PHANTOM
 48
0.5
100
AcDbCircle
 10
230.9858070500815
 20
228.9980224430415
 30
0.0
 40
30.0
100
AcDbArc
 50
131.5782819119079
 51
134.9999999999996
  0
ARC
  5
D94
330
18
100
AcDbEntity
  8
1
  6
Continuous
100
AcDbCircle
 10
214.8765257353038
 20
245.6984957753196
 30
0.0
 40
9.4
100
AcDbArc
 50
113.8444700235039
 51
121.2329290155124
  0
ARC
  5
D95
330
18
100
AcDbEntity
  8
1
  6
Continuous
100
AcDbCircle
 10
219.0765257353041
 20
257.1984957753213
 30
0.0
 40
1.0
100
AcDbArc
 50
0.0
 51
90.0
  0
LINE
  5
D96
330
18
100
AcDbEntity
  8
1
  6
Continuous
100
AcDbLine
 10
221.576525735304
 20
260.6984957753239
 30
0.0
 11
219.076525735304
 21
260.6984957753238
 31
0.0
  0
LINE
  5
D97
330
18
100
AcDbEntity
  8
1
  6
Continuous
100
AcDbLine
 10
222.0765257353039
 20
261.1984957753238
 30
0.0
 11
221.5765257353039
 21
260.6984957753239
 31
0.0
  0
ARC
  5
D98
330
18
100
AcDbEntity
  8
1
  6
Continuous
100
AcDbCircle
 10
238.7441027982468
 20
248.1203995115897
 30
0.0
 40
32.0
100
AcDbArc
 50
134.5860766758447
 51
149.3440375942768
  0
ARC
  5
D99
330
18
100
AcDbEntity
  8
1
  6
Continuous
100
AcDbCircle
 10
212.0765257353038
 20
263.926737910852
 30
0.0
 40
1.0
100
AcDbArc
 50
149.3440375942777
 51
180.0
  0
LINE
  5
D9A
330
18
100
AcDbEntity
  8
4
  6
CENTER
 48
0.5
100
AcDbLine
 10
225.8060143354366
 20
264.1984957753241
 30
0.0
 11
213.9235785856036
 21
264.1984957753239
 31
0.0
  0
LINE
  5
D9B
330
18
100
AcDbEntity
  8
1
  6
Continuous
100
AcDbLine
 10
221.576525735304
 20
267.6984957753239
 30
0.0
 11
219.076525735304
 21
267.6984957753238
 31
0.0
  0
LINE
  5
D9C
330
18
100
AcDbEntity
  8
1
  6
Continuous
100
AcDbLine
 10
219.076525735304
 20
271.1984957753238
 30
0.0
 11
216.9827226634991
 21
271.1984957753238
 31
0.0
  0
ARC
  5
D9D
330
18
100
AcDbEntity
  8
1
  6
Continuous
100
AcDbCircle
 10
216.9827226634991
 20
270.1984957753305
 30
0.0
 40
1.0
100
AcDbArc
 50
90.0
 51
134.5860766758447
  0
LINE
  5
D9E
330
18
100
AcDbEntity
  8
1
  6
Continuous
100
AcDbLine
 10
221.5765257353039
 20
267.6984957753237
 30
0.0
 11
222.0765257353038
 21
267.1984957753235
 31
0.0
  0
LINE
  5
DA3
330
18
100
AcDbEntity
  8
4
  6
CENTER
100
AcDbLine
 10
214.8765257353038
 20
342.3846499888513
 30
0.0
 11
214.8765257353038
 21
364.9341065027748
 31
0.0
  0
LINE
  5
DA4
330
18
100
AcDbEntity
  8
1
  6
Continuous
100
AcDbLine
 10
222.0765257352202
 20
350.6748505597946
 30
0.0
 11
222.0765257352177
 21
356.6748505597946
 31
0.0
  0
LINE
  5
DA5
330
18
100
AcDbEntity
  8
1
  6
Continuous
100
AcDbLine
 10
221.5765257352174
 20
357.1748505597944
 30
0.0
 11
221.5765257352204
 21
350.1748505597944
 31
0.0
  0
ARC
  5
DA6
330
18
100
AcDbEntity
  8
1
  6
Continuous
100
AcDbCircle
 10
268.0765257352224
 20
353.6748505598046
 30
0.0
 40
60.0
100
AcDbArc
 50
171.8148219821419
 51
188.185178017723
  0
ARC
  5
DA7
330
18
100
AcDbEntity
  8
1
  6
Continuous
100
AcDbCircle
 10
271.076525735219
 20
353.6748505598117
 30
0.0
 40
60.0
100
AcDbArc
 50
167.8306122694271
 51
180.0000000000278
  0
LINE
  5
DA8
330
18
100
AcDbEntity
  8
1
  6
Continuous
100
AcDbLine
 10
218.0765257352121
 20
369.6748505598358
 30
0.0
 11
218.0765257352259
 21
337.674850559836
 31
0.0
  0
ARC
  5
DA9
330
18
100
AcDbEntity
  8
1
  6
Continuous
100
AcDbCircle
 10
216.5765257352144
 20
341.9220096506334
 30
0.0
 40
4.247159090896102
100
AcDbArc
 50
192.1693877305784
 51
269.9999999999798
  0
ARC
  5
DAA
330
18
100
AcDbEntity
  8
1
  6
Continuous
100
AcDbCircle
 10
271.076525735219
 20
353.6748505598117
 30
0.0
 40
60.0
100
AcDbArc
 50
180.0000000000278
 51
192.169387730625
  0
ARC
  5
DAB
330
18
100
AcDbEntity
  8
1
  6
Continuous
100
AcDbCircle
 10
209.67755314151
 20
345.2748505598736
 30
0.0
 40
1.0
100
AcDbArc
 50
188.185178017723
 51
270.0000000000246
  0
LINE
  5
DAC
330
18
100
AcDbEntity
  8
1
  6
Continuous
100
AcDbLine
 10
211.817433605815
 20
344.2748505598747
 30
0.0
 11
209.6775531415105
 21
344.2748505598737
 31
0.0
  0
LINE
  5
DAD
330
18
100
AcDbEntity
  8
1
  6
Continuous
100
AcDbLine
 10
220.0765257352213
 20
350.1748505597936
 30
0.0
 11
220.0765257352236
 21
341.9748505597921
 31
0.0
  0
ARC
  5
DAE
330
18
100
AcDbEntity
  8
1
  6
Continuous
100
AcDbCircle
 10
219.0765257352235
 20
341.9748505597917
 30
0.0
 40
1.0
100
AcDbArc
 50
270.0000000000246
 51
0.0000000000246178
  0
LINE
  5
DAF
330
18
100
AcDbEntity
  8
1
  6
Continuous
100
AcDbLine
 10
216.5765257352258
 20
337.6748505598357
 30
0.0
 11
219.0765257352122
 21
337.6748505598362
 31
0.0
  0
LINE
  5
DB0
330
18
100
AcDbEntity
  8
1
  6
Continuous
100
AcDbLine
 10
219.0765257352245
 20
340.9748505597907
 30
0.0
 11
219.0765257352246
 21
340.9748505597919
 31
0.0
  0
LINE
  5
DB1
330
18
100
AcDbEntity
  8
1
  6
Continuous
100
AcDbLine
 10
221.5765257352204
 20
350.1748505597944
 30
0.0
 11
219.0765257352204
 21
350.1748505597924
 31
0.0
  0
LINE
  5
DB2
330
18
100
AcDbEntity
  8
1
  6
Continuous
100
AcDbLine
 10
222.0765257352201
 20
350.6748505597947
 30
0.0
 11
221.5765257352205
 21
350.1748505597944
 31
0.0
  0
ARC
  5
DB3
330
18
100
AcDbEntity
  8
1
  6
Continuous
100
AcDbCircle
 10
216.5765257352135
 20
365.4276914689392
 30
0.0
 40
4.247159090896102
100
AcDbArc
 50
90.00000000002458
 51
167.8306122694256
  0
LINE
  5
DB4
330
18
100
AcDbEntity
  8
1
  6
Continuous
100
AcDbLine
 10
211.8174336058349
 20
363.0748505598745
 30
0.0
 11
209.6775531415295
 21
363.0748505598734
 31
0.0
  0
ARC
  5
DB5
330
18
100
AcDbEntity
  8
1
  6
Continuous
100
AcDbCircle
 10
209.6775531415299
 20
362.0748505598736
 30
0.0
 40
1.0
100
AcDbArc
 50
90.00000000002458
 51
171.8148219821419
  0
LINE
  5
DB6
330
18
100
AcDbEntity
  8
1
  6
Continuous
100
AcDbLine
 10
220.0765257352135
 20
365.3748505597923
 30
0.0
 11
220.0765257352182
 21
357.1748505597937
 31
0.0
  0
LINE
  5
DB7
330
18
100
AcDbEntity
  8
1
  6
Continuous
100
AcDbLine
 10
221.5765257352174
 20
357.1748505597944
 30
0.0
 11
219.0765257352174
 21
357.1748505597923
 31
0.0
  0
LINE
  5
DB8
330
18
100
AcDbEntity
  8
1
  6
Continuous
100
AcDbLine
 10
221.5765257352174
 20
357.1748505597944
 30
0.0
 11
222.0765257352177
 21
356.6748505597947
 31
0.0
  0
ARC
  5
DB9
330
18
100
AcDbEntity
  8
1
  6
Continuous
100
AcDbCircle
 10
219.0765257352135
 20
365.3748505597917
 30
0.0
 40
1.0
100
AcDbArc
 50
0.0000000000246178
 51
90.00000000002458
  0
LINE
  5
DBA
330
18
100
AcDbEntity
  8
1
  6
Continuous
100
AcDbLine
 10
216.5765257352126
 20
369.6748505598353
 30
0.0
 11
219.0765257352122
 21
369.674850559836
 31
0.0
  0
LINE
  5
DBB
330
18
100
AcDbEntity
  8
1
  6
Continuous
100
AcDbLine
 10
219.0765257352135
 20
366.3748505597907
 30
0.0
 11
219.0765257352125
 21
366.3748505597918
 31
0.0
  0
LINE
  5
DBD
330
18
100
AcDbEntity
  8
1
  6
Continuous
100
AcDbLine
 10
235.5765257353065
 20
250.6984957753259
 30
0.0
 11
233.576525735304
 21
250.698495775327
 31
0.0
  0
LINE
  5
DBE
330
18
100
AcDbEntity
  8
1
  6
Continuous
100
AcDbLine
 10
235.5765257353041
 20
246.3553500247737
 30
0.0
 11
233.576525735304
 21
246.3553500247749
 31
0.0
  0
LINE
  5
DBF
330
18
100
AcDbEntity
  8
1
  6
Continuous
100
AcDbLine
 10
235.5765257353034
 20
245.0416415258984
 30
0.0
 11
233.5765257353041
 21
245.0416415258994
 31
0.0
  0
LINE
  5
DC0
330
18
100
AcDbEntity
  8
1
  6
Continuous
100
AcDbLine
 10
231.4765257353039
 20
252.6984957753229
 30
0.0
 11
231.5765257353025
 21
252.6984957753229
 31
0.0
  0
LINE
  5
DC1
330
18
100
AcDbEntity
  8
1
  6
Continuous
100
AcDbLine
 10
233.5765257353041
 20
255.4412815678865
 30
0.0
 11
233.2765257353039
 21
255.4412815678865
 31
0.0
  0
LINE
  5
DC2
330
18
100
AcDbEntity
  8
1
  6
Continuous
100
AcDbLine
 10
233.5765257353044
 20
253.9984957753049
 30
0.0
 11
233.2765257353039
 21
253.9984957753049
 31
0.0
  0
LINE
  5
DC3
330
18
100
AcDbEntity
  8
1
  6
Continuous
100
AcDbLine
 10
233.2765257353041
 20
257.9984957753241
 30
0.0
 11
233.2765257353041
 21
253.4517418444326
 31
0.0
  0
LINE
  5
DC4
330
18
100
AcDbEntity
  8
1
  6
Continuous
100
AcDbLine
 10
233.0765257353039
 20
253.2517418444326
 30
0.0
 11
231.4765257353039
 21
253.2517418444326
 31
0.0
  0
ARC
  5
DC5
330
18
100
AcDbEntity
  8
1
  6
Continuous
100
AcDbCircle
 10
233.0765257353041
 20
257.9984957753241
 30
0.0
 40
0.2
100
AcDbArc
 50
0.0
 51
90.0
  0
ARC
  5
DC6
330
18
100
AcDbEntity
  8
1
  6
Continuous
100
AcDbCircle
 10
233.0765257353041
 20
256.598370146399
 30
0.0
 40
0.2
100
AcDbArc
 50
270.0
 51
0.0
  0
ARC
  5
DC7
330
18
100
AcDbEntity
  8
1
  6
Continuous
100
AcDbCircle
 10
233.0765257353041
 20
253.4517418444326
 30
0.0
 40
0.2
100
AcDbArc
 50
270.0
 51
0.0
  0
LINE
  5
DC8
330
18
100
AcDbEntity
  8
1
  6
Continuous
100
AcDbLine
 10
231.2765257353041
 20
254.3587498131515
 30
0.0
 11
231.0765257353041
 21
254.3587498131515
 31
0.0
  0
LINE
  5
DC9
330
18
100
AcDbEntity
  8
1
  6
Continuous
100
AcDbLine
 10
233.0765257353039
 20
256.3983701463988
 30
0.0
 11
231.0765257353041
 21
256.3983701464016
 31
0.0
  0
ARC
  5
DCA
330
18
100
AcDbEntity
  8
1
  6
Continuous
100
AcDbCircle
 10
231.2765257353041
 20
254.1587498131514
 30
0.0
 40
0.1999999999999886
100
AcDbArc
 50
0.0
 51
90.0
  0
LINE
  5
DCF
330
18
100
AcDbEntity
  8
1
  6
Continuous
100
AcDbLine
 10
262.6385044494091
 20
263.1984957753231
 30
0.0
 11
263.638504449409
 21
264.1984957753231
 31
0.0
  0
ARC
  5
DD0
330
18
100
AcDbEntity
  8
1
  6
Continuous
100
AcDbCircle
 10
257.2385044494089
 20
264.1984957753231
 30
0.0
 40
9.0
100
AcDbArc
 50
344.1191499917205
 51
15.88085000827938
  0
LINE
  5
DD1
330
18
100
AcDbEntity
  8
1
  6
Continuous
100
AcDbLine
 10
263.638504449409
 20
267.9984957753233
 30
0.0
 11
263.638504449409
 21
260.3984957753231
 31
0.0
  0
LINE
  5
DD2
330
18
100
AcDbEntity
  8
1
  6
Continuous
100
AcDbLine
 10
262.6385044494095
 20
259.6984957753241
 30
0.0
 11
262.6385044494086
 21
269.6984957753241
 31
0.0
  0
LINE
  5
DD3
330
18
100
AcDbEntity
  8
1
  6
Continuous
100
AcDbLine
 10
257.6385044494094
 20
259.1984957753239
 30
0.0
 11
257.6385044494086
 21
270.1984957753239
 31
0.0
  0
LINE
  5
DD4
330
18
100
AcDbEntity
  8
1
  6
Continuous
100
AcDbLine
 10
257.6385044494094
 20
259.1984957753239
 30
0.0
 11
262.1385044494094
 21
259.1984957753241
 31
0.0
  0
LINE
  5
DD5
330
18
100
AcDbEntity
  8
1
  6
Continuous
100
AcDbLine
 10
263.638504449409
 20
260.6984957753232
 30
0.0
 11
264.7579196392434
 21
260.7964319142124
 31
0.0
  0
ARC
  5
DD6
330
18
100
AcDbEntity
  8
1
  6
Continuous
100
AcDbCircle
 10
264.6446171736319
 20
262.0914850217369
 30
0.0
 40
1.3
100
AcDbArc
 50
274.9999999999997
 51
344.1191499917205
  0
LINE
  5
DD7
330
18
100
AcDbEntity
  8
1
  6
Continuous
100
AcDbLine
 10
263.638504449409
 20
260.3984957753231
 30
0.0
 11
262.6385044494091
 21
260.3984957753231
 31
0.0
  0
ARC
  5
DD8
330
18
100
AcDbEntity
  8
1
  6
Continuous
100
AcDbCircle
 10
262.1385044494096
 20
259.6984957753241
 30
0.0
 40
0.5
100
AcDbArc
 50
270.0000000000049
 51
0.0000000000048853
  0
LINE
  5
DD9
330
18
100
AcDbEntity
  8
1
  6
Continuous
100
AcDbLine
 10
273.9385044494089
 20
251.6984957753193
 30
0.0
 11
273.1385044494089
 21
251.6984957753189
 31
0.0
  0
LINE
  5
DDA
330
18
100
AcDbEntity
  8
4
  6
CENTER
 48
0.5
100
AcDbLine
 10
280.743367154135
 20
245.6984957753197
 30
0.0
 11
270.0044097860974
 21
245.6984957753197
 31
0.0
  0
LINE
  5
DDB
330
18
100
AcDbEntity
  8
1
  6
Continuous
100
AcDbLine
 10
273.9385044494089
 20
244.3984957753198
 30
0.0
 11
275.238504449409
 21
245.6984957753197
 31
0.0
  0
LINE
  5
DDC
330
18
100
AcDbEntity
  8
1
  6
Continuous
100
AcDbLine
 10
273.9385044494089
 20
245.6984957753197
 30
0.0
 11
275.238504449409
 21
246.9984957753196
 31
0.0
  0
ARC
  5
DDD
330
18
100
AcDbEntity
  8
1
  6
Continuous
100
AcDbCircle
 10
266.5385044494091
 20
245.6984957753197
 30
0.0
 40
12.0
100
AcDbArc
 50
344.5060324994776
 51
15.4939675005222
  0
LINE
  5
DDE
330
18
100
AcDbEntity
  8
1
  6
Continuous
100
AcDbLine
 10
275.2385044494088
 20
250.1984957753196
 30
0.0
 11
276.7000029175042
 21
250.070631227601
 31
0.0
  0
ARC
  5
DDF
330
18
100
AcDbEntity
  8
1
  6
Continuous
100
AcDbCircle
 10
276.5605537290831
 20
248.4767197106401
 30
0.0
 40
1.6
100
AcDbArc
 50
15.4939675005222
 51
85.00000000000019
  0
LINE
  5
DE0
330
18
100
AcDbEntity
  8
1
  6
Continuous
100
AcDbLine
 10
275.238504449409
 20
250.2984957753198
 30
0.0
 11
273.9385044494089
 21
250.2984957753198
 31
0.0
  0
LINE
  5
DE1
330
18
100
AcDbEntity
  8
4
  6
CENTER
 48
0.5
100
AcDbLine
 10
268.6385044494091
 20
264.1984957753231
 30
0.0
 11
255.0915506912551
 21
264.1984957753231
 31
0.0
  0
LINE
  5
DE2
330
18
100
AcDbEntity
  8
1
  6
Continuous
100
AcDbLine
 10
257.6385044494086
 20
270.1984957753239
 30
0.0
 11
262.1385044494086
 21
270.1984957753241
 31
0.0
  0
LINE
  5
DE3
330
18
100
AcDbEntity
  8
1
  6
Continuous
100
AcDbLine
 10
262.6385044494091
 20
264.1984957753231
 30
0.0
 11
263.638504449409
 21
265.1984957753231
 31
0.0
  0
LINE
  5
DE4
330
18
100
AcDbEntity
  8
1
  6
Continuous
100
AcDbLine
 10
263.638504449409
 20
267.6984957753231
 30
0.0
 11
264.75791963921
 21
267.6005596364368
 31
0.0
  0
ARC
  5
DE5
330
18
100
AcDbEntity
  8
1
  6
Continuous
100
AcDbCircle
 10
264.644617173618
 20
266.3055065289061
 30
0.0
 40
1.3
100
AcDbArc
 50
15.88085000827938
 51
85.00000000000019
  0
LINE
  5
DE6
330
18
100
AcDbEntity
  8
1
  6
Continuous
100
AcDbLine
 10
263.638504449409
 20
267.9984957753233
 30
0.0
 11
262.6385044494091
 21
267.9984957753233
 31
0.0
  0
ARC
  5
DE7
330
18
100
AcDbEntity
  8
1
  6
Continuous
100
AcDbCircle
 10
262.1385044494084
 20
269.6984957753241
 30
0.0
 40
0.5
100
AcDbArc
 50
0.0000000000048853
 51
90.00000000000486
  0
LINE
  5
DEA
330
18
100
AcDbEntity
  8
1
  6
Continuous
100
AcDbLine
 10
233.0765257353039
 20
347.4972752113817
 30
0.0
 11
233.0765257353039
 21
359.8524259082306
 31
0.0
  0
LINE
  5
DEB
330
18
100
AcDbEntity
  8
1
  6
Continuous
100
AcDbLine
 10
235.576525735304
 20
358.6748505597843
 30
0.0
 11
235.576525735304
 21
348.6748505597752
 31
0.0
  0
LINE
  5
DED
330
18
100
AcDbEntity
  8
1
  6
Continuous
100
AcDbLine
 10
231.4765257353041
 20
343.8748505598069
 30
0.0
 11
231.4765257353041
 21
347.4972752113817
 31
0.0
  0
LINE
  5
DEE
330
18
100
AcDbEntity
  8
1
  6
Continuous
100
AcDbLine
 10
233.576525735304
 20
348.6748505597752
 30
0.0
 11
233.576525735304
 21
343.9320647672266
 31
0.0
  0
LINE
  5
DEF
330
18
100
AcDbEntity
  8
1
  6
Continuous
100
AcDbLine
 10
231.5765257354533
 20
347.4972752113817
 30
0.0
 11
231.5765257354533
 21
343.9320647672266
 31
0.0
  0
LINE
  5
DF0
330
18
100
AcDbEntity
  8
1
  6
Continuous
100
AcDbLine
 10
231.0765257353041
 20
343.1748505597811
 30
0.0
 11
231.0765257353041
 21
347.4972752113817
 31
0.0
  0
ARC
  5
DF1
330
18
100
AcDbEntity
  8
1
  6
Continuous
100
AcDbCircle
 10
231.2765257353041
 20
343.8748505598069
 30
0.0
 40
0.2
100
AcDbArc
 50
270.000000000065
 51
0.0
  0
LINE
  5
DF2
330
18
100
AcDbEntity
  8
1
  6
Continuous
100
AcDbLine
 10
231.2765257353043
 20
343.674850559807
 30
0.0
 11
231.0765257353041
 21
343.6748505598068
 31
0.0
  0
LINE
  5
DF3
330
18
100
AcDbEntity
  8
1
  6
Continuous
100
AcDbLine
 10
233.576525735304
 20
343.9320647672266
 30
0.0
 11
231.5765257354533
 21
343.9320647672266
 31
0.0
  0
ARC
  5
DF4
330
18
100
AcDbEntity
  8
1
  6
Continuous
100
AcDbCircle
 10
230.0765257353041
 20
343.1748505597811
 30
0.0
 40
1.0
100
AcDbArc
 50
270.0000000001143
 51
0.0
  0
LINE
  5
DF5
330
18
100
AcDbEntity
  8
1
  6
Continuous
100
AcDbLine
 10
235.576525735304
 20
353.0887069884128
 30
0.0
 11
233.0765257353039
 21
353.0887069884128
 31
0.0
  0
LINE
  5
DF6
330
18
100
AcDbEntity
  8
1
  6
Continuous
100
AcDbLine
 10
235.576525735304
 20
354.2609941310971
 30
0.0
 11
233.0765257353039
 21
354.2609941310971
 31
0.0
  0
LINE
  5
DF7
330
18
100
AcDbEntity
  8
1
  6
Continuous
100
AcDbLine
 10
235.576525735304
 20
348.6748505597752
 30
0.0
 11
233.0765257353039
 21
348.6748505597752
 31
0.0
  0
LINE
  5
DF8
330
18
100
AcDbEntity
  8
1
  6
Continuous
100
AcDbLine
 10
231.5765257354534
 20
346.6748505598075
 30
0.0
 11
231.4765257352873
 21
346.6748505598072
 31
0.0
  0
LINE
  5
DF9
330
18
100
AcDbEntity
  8
1
  6
Continuous
100
AcDbLine
 10
233.576525735304
 20
346.486839708392
 30
0.0
 11
231.5765257354533
 21
346.486839708392
 31
0.0
  0
LINE
  5
DFA
330
18
100
AcDbEntity
  8
1
  6
Continuous
100
AcDbLine
 10
233.0765257353039
 20
347.4972752113817
 30
0.0
 11
231.0765257353041
 21
347.4972752113817
 31
0.0
  0
ARC
  5
DFB
330
18
100
AcDbEntity
  8
1
  6
Continuous
100
AcDbCircle
 10
230.0765257353041
 20
364.1748505599268
 30
0.0
 40
1.0
100
AcDbArc
 50
0.0
 51
90.00000000002458
  0
LINE
  5
DFC
330
18
100
AcDbEntity
  8
1
  6
Continuous
100
AcDbLine
 10
235.576525735304
 20
358.6748505597843
 30
0.0
 11
233.0765257353039
 21
358.6748505597843
 31
0.0
  0
LINE
  5
DFD
330
18
100
AcDbEntity
  8
1
  6
Continuous
100
AcDbLine
 10
231.5765257354534
 20
360.6748505598075
 30
0.0
 11
231.4765257352873
 21
360.6748505598072
 31
0.0
  0
LINE
  5
DFE
330
18
100
AcDbEntity
  8
1
  6
Continuous
100
AcDbLine
 10
231.4765257352804
 20
363.4748505598076
 30
0.0
 11
231.4765257352891
 21
359.852425908233
 31
0.0
  0
ARC
  5
DFF
330
18
100
AcDbEntity
  8
1
  6
Continuous
100
AcDbCircle
 10
231.2765257352805
 20
363.4748505598071
 30
0.0
 40
0.2
100
AcDbArc
 50
0.0000000001380921
 51
90.00000000007293
  0
LINE
  5
E00
330
18
100
AcDbEntity
  8
1
  6
Continuous
100
AcDbLine
 10
231.2765257352801
 20
363.6748505598071
 30
0.0
 11
231.0765257352799
 21
363.6748505598069
 31
0.0
  0
LINE
  5
E01
330
18
100
AcDbEntity
  8
1
  6
Continuous
100
AcDbLine
 10
231.5765257354533
 20
364.9248505598062
 30
0.0
 11
231.5765257354533
 21
359.8524259082306
 31
0.0
  0
LINE
  5
E02
330
18
100
AcDbEntity
  8
1
  6
Continuous
100
AcDbLine
 10
233.576525735304
 20
364.9248505598062
 30
0.0
 11
231.5765257354533
 21
364.9248505598062
 31
0.0
  0
LINE
  5
E03
330
18
100
AcDbEntity
  8
1
  6
Continuous
100
AcDbLine
 10
233.576525735304
 20
364.9248505598062
 30
0.0
 11
233.576525735304
 21
358.6748505597843
 31
0.0
  0
LINE
  5
E04
330
18
100
AcDbEntity
  8
1
  6
Continuous
100
AcDbLine
 10
231.0765257353041
 20
359.8524259082306
 30
0.0
 11
231.0765257353041
 21
364.1748505599268
 31
0.0
  0
LINE
  5
E05
330
18
100
AcDbEntity
  8
1
  6
Continuous
100
AcDbLine
 10
233.0765257353039
 20
359.8524259082306
 30
0.0
 11
231.0765257353041
 21
359.8524259082306
 31
0.0
  0
LINE
  5
E0A
330
18
100
AcDbEntity
  8
1
  6
Continuous
100
AcDbLine
 10
262.6385044494086
 20
353.6748505598177
 30
0.0
 11
263.6385044494086
 21
354.6748505598177
 31
0.0
  0
LINE
  5
E0B
330
18
100
AcDbEntity
  8
1
  6
Continuous
100
AcDbLine
 10
257.6385044494093
 20
346.6748505598169
 30
0.0
 11
257.6385044494081
 21
360.6748505598184
 31
0.0
  0
LINE
  5
E0C
330
18
100
AcDbEntity
  8
1
  6
Continuous
100
AcDbLine
 10
262.6385044494093
 20
347.1748505598166
 30
0.0
 11
262.6385044494081
 21
360.1748505598187
 31
0.0
  0
LINE
  5
E0D
330
18
100
AcDbEntity
  8
1
  6
Continuous
100
AcDbLine
 10
263.6385044494086
 20
357.4748505598176
 30
0.0
 11
263.6385044494086
 21
349.8748505598177
 31
0.0
  0
ARC
  5
E0E
330
18
100
AcDbEntity
  8
1
  6
Continuous
100
AcDbCircle
 10
257.2385044494085
 20
353.6748505598177
 30
0.0
 40
9.0
100
AcDbArc
 50
344.1191499917205
 51
15.88085000827938
  0
LINE
  5
E0F
330
18
100
AcDbEntity
  8
4
  6
CENTER
 48
0.5
100
AcDbLine
 10
268.6385044494086
 20
353.6748505598177
 30
0.0
 11
255.0915506912545
 21
353.6748505598177
 31
0.0
  0
LINE
  5
E10
330
18
100
AcDbEntity
  8
1
  6
Continuous
100
AcDbLine
 10
257.6385044494081
 20
346.6748505598169
 30
0.0
 11
262.1385044494081
 21
346.6748505598166
 31
0.0
  0
ARC
  5
E11
330
18
100
AcDbEntity
  8
1
  6
Continuous
100
AcDbCircle
 10
262.138504449408
 20
347.1748505598166
 30
0.0
 40
0.5
100
AcDbArc
 50
269.999999999995
 51
359.9999999999951
  0
ARC
  5
E12
330
18
100
AcDbEntity
  8
1
  6
Continuous
100
AcDbCircle
 10
264.6446171736313
 20
351.5678398062315
 30
0.0
 40
1.3
100
AcDbArc
 50
274.9999999999997
 51
344.1191499917205
  0
LINE
  5
E13
330
18
100
AcDbEntity
  8
1
  6
Continuous
100
AcDbLine
 10
263.6385044494086
 20
349.8748505598177
 30
0.0
 11
262.6385044494086
 21
349.8748505598177
 31
0.0
  0
LINE
  5
E14
330
18
100
AcDbEntity
  8
1
  6
Continuous
100
AcDbLine
 10
263.6385044494086
 20
350.1748505598177
 30
0.0
 11
264.757919639243
 21
350.2727866987068
 31
0.0
  0
LINE
  5
E15
330
18
100
AcDbEntity
  8
1
  6
Continuous
100
AcDbLine
 10
262.6385044494086
 20
352.6748505598177
 30
0.0
 11
263.6385044494086
 21
353.6748505598177
 31
0.0
  0
LINE
  5
E16
330
18
100
AcDbEntity
  8
1
  6
Continuous
100
AcDbLine
 10
257.6385044494081
 20
360.6748505598184
 30
0.0
 11
262.1385044494081
 21
360.6748505598186
 31
0.0
  0
ARC
  5
E17
330
18
100
AcDbEntity
  8
1
  6
Continuous
100
AcDbCircle
 10
264.6446171736175
 20
355.7818613134005
 30
0.0
 40
1.3
100
AcDbArc
 50
15.88085000827938
 51
85.00000000000019
  0
ARC
  5
E18
330
18
100
AcDbEntity
  8
1
  6
Continuous
100
AcDbCircle
 10
262.138504449408
 20
360.1748505598187
 30
0.0
 40
0.5
100
AcDbArc
 50
0.0000000000048853
 51
90.00000000000486
  0
LINE
  5
E19
330
18
100
AcDbEntity
  8
1
  6
Continuous
100
AcDbLine
 10
263.6385044494086
 20
357.4748505598176
 30
0.0
 11
262.6385044494086
 21
357.4748505598176
 31
0.0
  0
LINE
  5
E1A
330
18
100
AcDbEntity
  8
1
  6
Continuous
100
AcDbLine
 10
263.6385044494086
 20
357.1748505598177
 30
0.0
 11
264.7579196392094
 21
357.0769144209313
 31
0.0
  0
LINE
  5
E1F
330
18
100
AcDbEntity
  8
1
  6
Continuous
100
AcDbLine
 10
452.1585999637271
 20
251.6984957753225
 30
0.0
 11
452.1585999637271
 21
239.6984957753224
 31
0.0
  0
ARC
  5
E20
330
18
100
AcDbEntity
  8
1
  6
Continuous
100
AcDbCircle
 10
448.7365506840356
 20
242.9202718399988
 30
0.0
 40
1.6
100
AcDbArc
 50
195.4939675005221
 51
265.0000000000001
  0
LINE
  5
E21
330
18
100
AcDbEntity
  8
1
  6
Continuous
100
AcDbLine
 10
450.058599963727
 20
250.2984957753231
 30
0.0
 11
450.058599963727
 21
241.0984957753231
 31
0.0
  0
LINE
  5
E22
330
18
100
AcDbEntity
  8
1
  6
Continuous
100
AcDbLine
 10
451.358599963727
 20
251.6984957753225
 30
0.0
 11
451.358599963727
 21
239.6984957753224
 31
0.0
  0
LINE
  5
E36
330
18
100
AcDbEntity
  8
1
  6
Continuous
100
AcDbLine
 10
478.0831846336488
 20
255.4412815678924
 30
0.0
 11
478.0831846336488
 21
234.4484957752045
 31
0.0
  0
LINE
  5
E37
330
18
100
AcDbEntity
  8
1
  6
Continuous
100
AcDbLine
 10
474.0831846336478
 20
250.6984957753259
 30
0.0
 11
474.0831846336478
 21
240.6984957753241
 31
0.0
  0
LINE
  5
E38
330
18
100
AcDbEntity
  8
4
  6
CENTER
 48
0.5
100
AcDbLine
 10
494.7831846336478
 20
252.0625715211988
 30
0.0
 11
494.7831846336478
 21
239.3195062236866
 31
0.0
  0
LINE
  5
E39
330
18
100
AcDbEntity
  8
1
  6
Continuous
100
AcDbLine
 10
478.5831846336477
 20
256.3983701464016
 30
0.0
 11
478.5831846336477
 21
234.1984957753236
 31
0.0
  0
LINE
  5
E3A
330
18
100
AcDbEntity
  8
1
  6
Continuous
100
AcDbLine
 10
478.1831846336475
 20
254.1587498131514
 30
0.0
 11
478.1831846336475
 21
235.9484957753227
 31
0.0
  0
LINE
  5
E3B
330
18
100
AcDbEntity
  8
1
  6
Continuous
100
AcDbLine
 10
476.0831846336478
 20
255.4412815678865
 30
0.0
 11
476.0831846336478
 21
234.4484957752114
 31
0.0
  0
LINE
  5
E3D
330
18
100
AcDbEntity
  8
1
  6
Continuous
100
AcDbLine
 10
485.0673956496875
 20
244.6984957753304
 30
0.0
 11
485.0673956496875
 21
235.6760166252012
 31
0.0
  0
LINE
  5
E3E
330
18
100
AcDbEntity
  8
5
  6
PHANTOM
 48
0.5
100
AcDbLine
 10
499.7831846336468
 20
245.6984957753197
 30
0.0
 11
499.7831846336526
 21
240.9411364624297
 31
0.0
  0
LINE
  5
E3F
330
18
100
AcDbEntity
  8
1
  6
Continuous
100
AcDbLine
 10
489.5831846336478
 20
257.1984957753213
 30
0.0
 11
489.5831846336482
 21
143.2493282027881
 31
0.0
  0
LINE
  5
E40
330
18
100
AcDbEntity
  8
1
  6
Continuous
100
AcDbLine
 10
501.5831846336481
 20
245.2804598907616
 30
0.0
 11
501.5831846336481
 21
125.1984957753222
 31
0.0
  0
LINE
  5
E41
330
18
100
AcDbEntity
  8
5
  6
PHANTOM
100
AcDbLine
 10
499.8871067544667
 20
250.211225878638
 30
0.0
 11
584.7978778786933
 21
165.3004547544109
 31
0.0
  0
LINE
  5
E42
330
18
100
AcDbEntity
  8
1
  6
Continuous
100
AcDbLine
 10
498.583184633648
 20
263.926737910852
 30
0.0
 11
498.583184633648
 21
136.4702536398118
 31
0.0
  0
LINE
  5
E43
330
18
100
AcDbEntity
  8
1
  6
Continuous
100
AcDbLine
 10
491.5831846336477
 20
271.1984957753238
 30
0.0
 11
491.5831846336477
 21
129.1984957753239
 31
0.0
  0
ARC
  5
E44
330
18
100
AcDbEntity
  8
1
  6
Continuous
100
AcDbCircle
 10
361.7367827710824
 20
245.6984957753101
 30
0.0
 40
9.999999999988064
100
AcDbArc
 50
119.9999999999231
 51
209.9999999999567
  0
ARC
  5
E45
330
18
100
AcDbEntity
  8
1
  6
Continuous
100
AcDbCircle
 10
361.7367827710824
 20
245.6984957753101
 30
0.0
 40
9.499999999988006
100
AcDbArc
 50
119.9999999999227
 51
209.9999999999567
  0
LINE
  5
E46
330
18
100
AcDbEntity
  8
1
  6
Continuous
100
AcDbLine
 10
356.0799285215168
 20
245.6984957753113
 30
0.0
 11
361.7367827710093
 21
240.0416415258189
 31
0.0
  0
LINE
  5
E47
330
18
100
AcDbEntity
  8
1
  6
Continuous
100
AcDbLine
 10
356.7367827711017
 20
245.1123522039168
 30
0.0
 11
361.1506391996889
 21
240.6984957753295
 31
0.0
  0
ARC
  5
E48
330
18
100
AcDbEntity
  8
1
  6
Continuous
100
AcDbCircle
 10
361.7367827710824
 20
244.6984957753293
 30
0.0
 40
11.5
100
AcDbArc
 50
180.0
 51
0.0
  0
LINE
  5
E49
330
18
100
AcDbEntity
  8
1
  6
Continuous
100
AcDbLine
 10
361.7367827710093
 20
240.0416415258189
 30
0.0
 11
367.3936370205017
 21
245.6984957753113
 31
0.0
  0
ARC
  5
E4A
330
18
100
AcDbEntity
  8
1
  6
Continuous
100
AcDbCircle
 10
361.7367827710824
 20
245.6984957753098
 30
0.0
 40
11.25
100
AcDbArc
 50
209.9999999999567
 51
60.00000000008632
  0
ARC
  5
E4B
330
18
100
AcDbEntity
  8
1
  6
Continuous
100
AcDbCircle
 10
361.7367827710824
 20
245.6984957753098
 30
0.0
 40
8.3
100
AcDbArc
 50
60.0000000000845
 51
209.9999999999567
  0
LINE
  5
E4C
330
18
100
AcDbEntity
  8
1
  6
Continuous
100
AcDbLine
 10
366.7367827710626
 20
245.1123522039167
 30
0.0
 11
362.3229263424253
 21
240.6984957752794
 31
0.0
  0
LINE
  5
E4D
330
18
100
AcDbEntity
  8
1
  6
Continuous
100
AcDbLine
 10
345.7367827710462
 20
270.1984957752916
 30
0.0
 11
345.7367827710462
 21
130.1984957752918
 31
0.0
  0
LINE
  5
E4E
330
18
100
AcDbEntity
  8
1
  6
Continuous
100
AcDbLine
 10
377.7367827710461
 20
270.1984957753079
 30
0.0
 11
377.7367827710461
 21
130.1984957753077
 31
0.0
  0
LINE
  5
E4F
330
18
100
AcDbEntity
  8
1
  6
Continuous
100
AcDbLine
 10
350.2367827710823
 20
246.6984957753294
 30
0.0
 11
350.2367827710823
 21
144.7484957753245
 31
0.0
  0
LINE
  5
E50
330
18
100
AcDbEntity
  8
1
  6
Continuous
100
AcDbLine
 10
373.2367827710824
 20
246.6984957753294
 30
0.0
 11
373.2367827710824
 21
144.7484957753344
 31
0.0
  0
LINE
  5
E51
330
18
100
AcDbEntity
  8
1
  6
Continuous
100
AcDbLine
 10
349.0367827710821
 20
256.198495775322
 30
0.0
 11
349.0367827710821
 21
144.1984957753221
 31
0.0
  0
LINE
  5
E52
330
18
100
AcDbEntity
  8
1
  6
Continuous
100
AcDbLine
 10
374.4367827710823
 20
256.198495775322
 30
0.0
 11
374.4367827710823
 21
144.198495775322
 31
0.0
  0
LINE
  5
E53
330
18
100
AcDbEntity
  8
4
  6
CENTER
100
AcDbLine
 10
361.7367827710824
 20
274.9563665494704
 30
0.0
 11
361.7367827710824
 21
119.1050147378589
 31
0.0
  0
CIRCLE
  5
E5C
330
18
100
AcDbEntity
  8
1
  6
Continuous
 48
0.25
100
AcDbCircle
 10
361.7367827710824
 20
136.1984957753221
 30
0.0
 40
3.5
  0
CIRCLE
  5
E5D
330
18
100
AcDbEntity
  8
1
  6
Continuous
100
AcDbCircle
 10
361.7367827710824
 20
136.1984957753221
 30
0.0
 40
3.800000000001205
  0
LINE
  5
E5E
330
18
100
AcDbEntity
  8
1
  6
Continuous
 48
0.25
100
AcDbLine
 10
362.8770531159173
 20
136.724583220525
 30
0.0
 11
363.4879933748625
 21
137.3567366829057
 31
0.0
  0
LINE
  5
E5F
330
18
100
AcDbEntity
  8
1
  6
Continuous
 48
0.25
100
AcDbLine
 10
362.8770531159173
 20
135.6738225436816
 30
0.0
 11
363.4879933748625
 21
135.0402548677385
 31
0.0
  0
ARC
  5
E60
330
18
100
AcDbEntity
  8
1
  6
Continuous
 48
0.25
100
AcDbCircle
 10
361.7357827710823
 20
136.1984957753221
 30
0.0
 40
2.1
100
AcDbArc
 50
33.46300000000105
 51
56.53699999999894
  0
ARC
  5
E61
330
18
100
AcDbEntity
  8
1
  6
Continuous
 48
0.25
100
AcDbCircle
 10
361.7357827710823
 20
136.1984957753221
 30
0.0
 40
2.1
100
AcDbArc
 50
303.4630000000011
 51
326.5369999999989
  0
LINE
  5
E62
330
18
100
AcDbEntity
  8
1
  6
Continuous
100
AcDbLine
 10
370.7367827710397
 20
145.8932041983326
 30
0.0
 11
352.7367827710398
 21
145.8932041983229
 31
0.0
  0
ARC
  5
E63
330
18
100
AcDbEntity
  8
1
  6
Continuous
100
AcDbCircle
 10
361.7367827710824
 20
152.1984957754471
 30
0.0
 40
28.0
100
AcDbArc
 50
255.1671520791996
 51
284.8328479208203
  0
LINE
  5
E64
330
18
100
AcDbEntity
  8
1
  6
Continuous
100
AcDbLine
 10
376.7367827710466
 20
129.1984957753077
 30
0.0
 11
346.7367827710466
 21
129.1984957752918
 31
0.0
  0
LINE
  5
E65
330
18
100
AcDbEntity
  8
1
  6
Continuous
100
AcDbLine
 10
371.9367827710836
 20
142.2484957753349
 30
0.0
 11
351.5367827710836
 21
142.248495775324
 31
0.0
  0
LINE
  5
E67
330
18
100
AcDbEntity
  8
1
  6
Continuous
100
AcDbLine
 10
365.8262369439824
 20
141.1984957753221
 30
0.0
 11
357.6473285981823
 21
141.1984957753221
 31
0.0
  0
ARC
  5
E68
330
18
100
AcDbEntity
  8
1
  6
Continuous
100
AcDbCircle
 10
361.7367827710824
 20
139.1984957753221
 30
0.0
 40
9.0
100
AcDbArc
 50
247.3801350519594
 51
292.6198649480405
  0
LINE
  5
E69
330
18
100
AcDbEntity
  8
1
  6
Continuous
 48
0.25
100
AcDbLine
 10
360.5952195330283
 20
135.6731154369005
 30
0.0
 11
359.9842792740831
 21
135.0409619745197
 31
0.0
  0
ARC
  5
E6A
330
18
100
AcDbEntity
  8
1
  6
Continuous
100
AcDbCircle
 10
360.4867827710823
 20
136.1984957753221
 30
0.0
 40
5.750000000000002
100
AcDbArc
 50
119.5918457939503
 51
247.3801350519594
  0
ARC
  5
E6B
330
18
100
AcDbEntity
  8
1
  6
Continuous
100
AcDbCircle
 10
346.7367827710461
 20
130.1984957752918
 30
0.0
 40
1.0
100
AcDbArc
 50
180.0
 51
270.0
  0
ARC
  5
E6C
330
18
100
AcDbEntity
  8
1
  6
Continuous
100
AcDbCircle
 10
355.3367827710866
 20
128.031576236539
 30
0.0
 40
3.0
100
AcDbArc
 50
180.0
 51
255.1671520791996
  0
LINE
  5
E6D
330
18
100
AcDbEntity
  8
1
  6
Continuous
100
AcDbLine
 10
352.3367827710866
 20
129.1984957752946
 30
0.0
 11
352.3367827710866
 21
128.031576236539
 31
0.0
  0
LINE
  5
E6E
330
18
100
AcDbEntity
  8
1
  6
Continuous
 48
0.25
100
AcDbLine
 10
361.7364898778634
 20
135.2488513681885
 30
0.0
 11
362.2611631095038
 21
135.057932537268
 31
0.0
  0
LINE
  5
E6F
330
18
100
AcDbEntity
  8
1
  6
Continuous
 48
0.25
100
AcDbLine
 10
362.2611631095038
 20
135.057932537268
 30
0.0
 11
362.8947307854472
 21
134.4469922783229
 31
0.0
  0
LINE
  5
E70
330
18
100
AcDbEntity
  8
1
  6
Continuous
 48
0.25
100
AcDbLine
 10
361.2104024326606
 20
135.057932537268
 30
0.0
 11
360.5782489702798
 21
134.4469922783229
 31
0.0
  0
ARC
  5
E71
330
18
100
AcDbEntity
  8
1
  6
Continuous
 48
0.25
100
AcDbCircle
 10
361.7357827710823
 20
136.1984957753221
 30
0.0
 40
2.1
100
AcDbArc
 50
213.4630000000009
 51
236.5369999999989
  0
LINE
  5
E72
330
18
100
AcDbEntity
  8
1
  6
Continuous
 48
0.25
100
AcDbLine
 10
361.7364898778634
 20
135.2488513681885
 30
0.0
 11
361.2104024326606
 21
135.057932537268
 31
0.0
  0
ARC
  5
E73
330
18
100
AcDbEntity
  8
1
  6
Continuous
100
AcDbCircle
 10
352.7367827710822
 20
144.7484957753245
 30
0.0
 40
2.5
100
AcDbArc
 50
180.0
 51
270.0
  0
ARC
  5
E74
330
18
100
AcDbEntity
  8
1
  6
Continuous
100
AcDbCircle
 10
351.5367827710822
 20
144.748495775324
 30
0.0
 40
2.5
100
AcDbArc
 50
180.0
 51
270.0
  0
LINE
  5
E75
330
18
100
AcDbEntity
  8
1
  6
Continuous
 48
0.25
100
AcDbLine
 10
361.7357827710823
 20
137.1488472892369
 30
0.0
 11
362.2618702162851
 21
137.3397661201573
 31
0.0
  0
LINE
  5
E76
330
18
100
AcDbEntity
  8
1
  6
Continuous
 48
0.25
100
AcDbLine
 10
362.686134284997
 20
136.1984957753221
 30
0.0
 11
362.8770531159173
 21
136.724583220525
 31
0.0
  0
LINE
  5
E77
330
18
100
AcDbEntity
  8
1
  6
Continuous
 48
0.25
100
AcDbLine
 10
362.686134284997
 20
136.1984957753221
 30
0.0
 11
362.8770531159173
 21
135.6738225436816
 31
0.0
  0
LINE
  5
E78
330
18
100
AcDbEntity
  8
1
  6
Continuous
 48
0.25
100
AcDbLine
 10
362.2618702162851
 20
137.3397661201573
 30
0.0
 11
362.8940236786659
 21
137.9507063791024
 31
0.0
  0
LINE
  5
E79
330
18
100
AcDbEntity
  8
1
  6
Continuous
 48
0.25
100
AcDbLine
 10
360.7861383639487
 20
136.1992028821034
 30
0.0
 11
360.5952195330283
 21
136.7238761137437
 31
0.0
  0
LINE
  5
E7A
330
18
100
AcDbEntity
  8
1
  6
Continuous
 48
0.25
100
AcDbLine
 10
361.2111095394419
 20
137.3397661201572
 30
0.0
 11
360.57824897028
 21
137.9499992723212
 31
0.0
  0
LINE
  5
E7B
330
18
100
AcDbEntity
  8
1
  6
Continuous
 48
0.25
100
AcDbLine
 10
360.7861383639487
 20
136.1992028821034
 30
0.0
 11
360.5952195330283
 21
135.6731154369005
 31
0.0
  0
LINE
  5
E7C
330
18
100
AcDbEntity
  8
1
  6
Continuous
 48
0.25
100
AcDbLine
 10
360.5952195330283
 20
136.7238761137437
 30
0.0
 11
359.9842792740831
 21
137.3560295761244
 31
0.0
  0
ARC
  5
E7D
330
18
100
AcDbEntity
  8
1
  6
Continuous
 48
0.25
100
AcDbCircle
 10
361.7357827710823
 20
136.1984957753221
 30
0.0
 40
2.1
100
AcDbArc
 50
123.4630000000009
 51
146.5369999999989
  0
LINE
  5
E7E
330
18
100
AcDbEntity
  8
1
  6
Continuous
 48
0.25
100
AcDbLine
 10
361.7357827710823
 20
137.1488472892369
 30
0.0
 11
361.2111095394419
 21
137.3397661201572
 31
0.0
  0
LINE
  5
E7F
330
18
100
AcDbEntity
  8
1
  6
Continuous
100
AcDbLine
 10
354.465077148871
 20
156.195365126672
 30
0.0
 11
354.465077148871
 21
154.195365126692
 31
0.0
  0
LINE
  5
E80
330
18
100
AcDbEntity
  8
1
  6
Continuous
100
AcDbLine
 10
355.0650771488651
 20
156.195365126672
 30
0.0
 11
353.8650771488771
 21
156.195365126672
 31
0.0
  0
LINE
  5
E81
330
18
100
AcDbEntity
  8
1
  6
Continuous
100
AcDbLine
 10
358.6304434722801
 20
154.9453651266844
 30
0.0
 11
359.3804434722724
 21
154.9453651266844
 31
0.0
  0
LINE
  5
E82
330
18
100
AcDbEntity
  8
1
  6
Continuous
100
AcDbLine
 10
358.4054434722821
 20
154.195365126692
 30
0.0
 11
359.0054434722763
 21
156.195365126672
 31
0.0
  0
LINE
  5
E83
330
18
100
AcDbEntity
  8
1
  6
Continuous
100
AcDbLine
 10
359.0054434722763
 20
156.195365126672
 30
0.0
 11
359.6054434722702
 21
154.195365126692
 31
0.0
  0
LINE
  5
E84
330
18
100
AcDbEntity
  8
1
  6
Continuous
100
AcDbLine
 10
357.2768690604466
 20
156.195365126672
 30
0.0
 11
357.2768690604466
 21
154.195365126692
 31
0.0
  0
LINE
  5
E85
330
18
100
AcDbEntity
  8
1
  6
Continuous
100
AcDbLine
 10
356.1268690604582
 20
156.195365126672
 30
0.0
 11
356.1268690604582
 21
154.195365126692
 31
0.0
  0
LINE
  5
E86
330
18
100
AcDbEntity
  8
1
  6
Continuous
100
AcDbLine
 10
356.1268690604582
 20
155.1953651266819
 30
0.0
 11
357.2768690604466
 21
155.1953651266819
 31
0.0
  0
LINE
  5
E87
330
18
100
AcDbEntity
  8
1
  6
Continuous
100
AcDbLine
 10
361.1414405380299
 20
155.1953651266819
 30
0.0
 11
360.202321993574
 21
155.1953651266819
 31
0.0
  0
LINE
  5
E88
330
18
100
AcDbEntity
  8
1
  6
Continuous
100
AcDbLine
 10
362.1408552438658
 20
156.195365126672
 30
0.0
 11
362.1408552438658
 21
155.1953651266819
 31
0.0
  0
LINE
  5
E89
330
18
100
AcDbEntity
  8
1
  6
Continuous
100
AcDbLine
 10
362.6408552438607
 20
154.195365126692
 30
0.0
 11
362.1408552438658
 21
154.195365126692
 31
0.0
  0
LINE
  5
E8A
330
18
100
AcDbEntity
  8
1
  6
Continuous
100
AcDbLine
 10
362.6408552438607
 20
155.1953651266819
 30
0.0
 11
362.1408552438658
 21
155.1953651266819
 31
0.0
  0
ARC
  5
E8B
330
18
100
AcDbEntity
  8
1
  6
Continuous
100
AcDbCircle
 10
362.6408552438607
 20
154.695365126687
 30
0.0
 40
0.499999999995
100
AcDbArc
 50
270.0
 51
89.99999999999998
  0
LINE
  5
E8C
330
18
100
AcDbEntity
  8
1
  6
Continuous
100
AcDbLine
 10
363.1408552438557
 20
156.195365126672
 30
0.0
 11
362.1408552438658
 21
156.195365126672
 31
0.0
  0
ARC
  5
E8E
330
18
100
AcDbEntity
  8
1
  6
Continuous
100
AcDbCircle
 10
362.9867827710824
 20
136.1984957753221
 30
0.0
 40
5.750000000000013
100
AcDbArc
 50
292.6198649480405
 51
60.40815420604918
  0
ARC
  5
E8F
330
18
100
AcDbEntity
  8
1
  6
Continuous
100
AcDbCircle
 10
368.1367827710868
 20
128.0315762365414
 30
0.0
 40
3.0
100
AcDbArc
 50
284.8328479208203
 51
0.0
  0
LINE
  5
E90
330
18
100
AcDbEntity
  8
1
  6
Continuous
100
AcDbLine
 10
371.1367827710868
 20
129.1984957753047
 30
0.0
 11
371.1367827710868
 21
128.0315762365414
 31
0.0
  0
ARC
  5
E91
330
18
100
AcDbEntity
  8
1
  6
Continuous
100
AcDbCircle
 10
376.7367827710462
 20
130.1984957753077
 30
0.0
 40
1.0
100
AcDbArc
 50
270.0
 51
0.0
  0
ARC
  5
E92
330
18
100
AcDbEntity
  8
1
  6
Continuous
100
AcDbCircle
 10
370.7367827710823
 20
144.7484957753344
 30
0.0
 40
2.5
100
AcDbArc
 50
270.0
 51
0.0
  0
ARC
  5
E93
330
18
100
AcDbEntity
  8
1
  6
Continuous
100
AcDbCircle
 10
371.9367827710823
 20
144.7484957753349
 30
0.0
 40
2.5
100
AcDbArc
 50
270.0
 51
0.0
  0
LINE
  5
E94
330
18
100
AcDbEntity
  8
1
  6
Continuous
100
AcDbLine
 10
368.1609301182655
 20
155.1953651266819
 30
0.0
 11
367.2218115738095
 21
155.1953651266819
 31
0.0
  0
ARC
  5
E95
330
18
100
AcDbEntity
  8
1
  6
Continuous
100
AcDbCircle
 10
364.3219660370813
 20
155.6953651266769
 30
0.0
 40
0.4999999999949998
100
AcDbArc
 50
0.0
 51
180.0
  0
ARC
  5
E96
330
18
100
AcDbEntity
  8
1
  6
Continuous
100
AcDbCircle
 10
364.3219660370813
 20
154.695365126687
 30
0.0
 40
0.4999999999949998
100
AcDbArc
 50
180.0
 51
0.0
  0
LINE
  5
E97
330
18
100
AcDbEntity
  8
1
  6
Continuous
100
AcDbLine
 10
363.8219660370863
 20
155.6953651266769
 30
0.0
 11
363.8219660370863
 21
154.695365126687
 31
0.0
  0
LINE
  5
E98
330
18
100
AcDbEntity
  8
1
  6
Continuous
100
AcDbLine
 10
364.8219660370763
 20
155.6953651266769
 30
0.0
 11
364.8219660370763
 21
154.695365126687
 31
0.0
  0
LINE
  5
E99
330
18
100
AcDbEntity
  8
1
  6
Continuous
100
AcDbLine
 10
366.173232424962
 20
156.195365126672
 30
0.0
 11
365.7018279041758
 21
154.862031793352
 31
0.0
  0
CIRCLE
  5
E9A
330
18
100
AcDbEntity
  8
1
  6
Continuous
100
AcDbCircle
 10
366.173232424962
 20
154.695365126687
 30
0.0
 40
0.4999999999949998
  0
LINE
  5
E9B
330
18
100
AcDbEntity
  8
1
  6
Continuous
100
AcDbLine
 10
368.9833042898257
 20
156.195365126672
 30
0.0
 11
368.9833042898257
 21
154.195365126692
 31
0.0
  0
LINE
  5
E9C
330
18
100
AcDbEntity
  8
1
  6
Continuous
100
AcDbLine
 10
368.9833042898257
 20
156.195365126672
 30
0.0
 11
368.7393055226477
 21
155.672108081863
 31
0.0
  0
LINE
  5
E9E
330
18
100
AcDbEntity
  8
1
  6
Continuous
100
AcDbLine
 10
372.2367827710824
 20
230.7460140788688
 30
0.0
 11
351.2367827710824
 21
230.7460140788688
 31
0.0
  0
ARC
  5
E9F
330
18
100
AcDbEntity
  8
1
  6
Continuous
100
AcDbCircle
 10
361.7367827710824
 20
155.4657269787934
 30
0.0
 40
5.733264282363177
100
AcDbArc
 50
54.46232220799835
 51
125.537677792
  0
ARC
  5
EA0
330
18
100
AcDbEntity
  8
1
  6
Continuous
100
AcDbCircle
 10
361.7367827710824
 20
162.9323037186152
 30
0.0
 40
5.733264282363177
100
AcDbArc
 50
234.4623222080521
 51
305.5376777919478
  0
LINE
  5
EA1
330
18
100
AcDbEntity
  8
1
  6
Continuous
100
AcDbLine
 10
370.7367827710269
 20
169.1990153487054
 30
0.0
 11
352.7367827710272
 21
169.1990153486959
 31
0.0
  0
ARC
  5
EA2
330
18
100
AcDbEntity
  8
1
  6
Continuous
100
AcDbCircle
 10
352.7367827710822
 20
166.6990153486959
 30
0.0
 40
2.5
100
AcDbArc
 50
90.0
 51
180.0
  0
ARC
  5
EA3
330
18
100
AcDbEntity
  8
1
  6
Continuous
100
AcDbCircle
 10
361.7367827710824
 20
155.4657269787934
 30
0.0
 40
5.288825190707117
100
AcDbArc
 50
112.9439535565377
 51
116.014365999637
  0
ARC
  5
EA4
330
18
100
AcDbEntity
  8
1
  6
Continuous
100
AcDbCircle
 10
359.6923629494647
 20
160.2952075532609
 30
0.0
 40
0.044443909165606
100
AcDbArc
 50
0.0
 51
112.9439535565377
  0
ARC
  5
EA5
330
18
100
AcDbEntity
  8
1
  6
Continuous
100
AcDbCircle
 10
360.5812411327767
 20
160.5812189930892
 30
0.0
 40
0.044443909165606
100
AcDbArc
 50
0.0
 51
102.7289438731228
  0
ARC
  5
EA6
330
18
100
AcDbEntity
  8
1
  6
Continuous
100
AcDbCircle
 10
361.7367827710824
 20
155.4657269787934
 30
0.0
 40
5.288825190707117
100
AcDbArc
 50
102.7289438731228
 51
103.2681189705554
  0
ARC
  5
EA7
330
18
100
AcDbEntity
  8
1
  6
Continuous
100
AcDbCircle
 10
361.7367827710824
 20
155.4657269787934
 30
0.0
 40
5.288825190707117
100
AcDbArc
 50
103.2681189705554
 51
105.2575232904567
  0
ARC
  5
EA8
330
18
100
AcDbEntity
  8
1
  6
Continuous
100
AcDbCircle
 10
360.4034654961142
 20
160.3537488491405
 30
0.0
 40
0.2222195458280301
100
AcDbArc
 50
105.2575232904567
 51
180.0
  0
ARC
  5
EA9
330
18
100
AcDbEntity
  8
1
  6
Continuous
100
AcDbCircle
 10
362.6256609543945
 20
160.4537514711102
 30
0.0
 40
0.2222195458280301
100
AcDbArc
 50
0.0
 51
79.8958172838747
  0
ARC
  5
EAA
330
18
100
AcDbEntity
  8
1
  6
Continuous
100
AcDbCircle
 10
361.7367827710824
 20
155.4657269787934
 30
0.0
 40
5.288825190707117
100
AcDbArc
 50
79.8958172838747
 51
82.20707566457726
  0
ARC
  5
EAB
330
18
100
AcDbEntity
  8
1
  6
Continuous
100
AcDbCircle
 10
362.4478853177322
 20
160.6616742643545
 30
0.0
 40
0.044443909165606
100
AcDbArc
 50
82.20707566457726
 51
180.0
  0
ARC
  5
EAC
330
18
100
AcDbEntity
  8
1
  6
Continuous
100
AcDbCircle
 10
359.5145873128019
 20
160.0190049305464
 30
0.0
 40
0.2222195458280301
100
AcDbArc
 50
116.014365999637
 51
180.0
  0
ARC
  5
EAD
330
18
100
AcDbEntity
  8
1
  6
Continuous
100
AcDbCircle
 10
359.6923629494647
 20
158.1028231441476
 30
0.0
 40
0.044443909165606
100
AcDbArc
 50
247.0560464434621
 51
0.0
  0
ARC
  5
EAE
330
18
100
AcDbEntity
  8
1
  6
Continuous
100
AcDbCircle
 10
361.7367827710824
 20
162.9323037186152
 30
0.0
 40
5.288825190707117
100
AcDbArc
 50
243.9856340003628
 51
247.0560464434621
  0
ARC
  5
EAF
330
18
100
AcDbEntity
  8
1
  6
Continuous
100
AcDbCircle
 10
360.4034654961142
 20
158.0442818482679
 30
0.0
 40
0.2222195458280301
100
AcDbArc
 50
180.0
 51
254.742476709543
  0
ARC
  5
EB0
330
18
100
AcDbEntity
  8
1
  6
Continuous
100
AcDbCircle
 10
361.7367827710824
 20
162.9323037186152
 30
0.0
 40
5.288825190707117
100
AcDbArc
 50
254.742476709543
 51
254.793712123942
  0
ARC
  5
EB1
330
18
100
AcDbEntity
  8
1
  6
Continuous
100
AcDbCircle
 10
361.7367827710824
 20
162.9323037186152
 30
0.0
 40
5.288825190707117
100
AcDbArc
 50
254.793712123942
 51
257.2710561268771
  0
ARC
  5
EB2
330
18
100
AcDbEntity
  8
1
  6
Continuous
100
AcDbCircle
 10
360.5812411327767
 20
157.8168117043194
 30
0.0
 40
0.044443909165606
100
AcDbArc
 50
257.2710561268771
 51
0.0
  0
LINE
  5
EB3
330
18
100
AcDbEntity
  8
1
  6
Continuous
100
AcDbLine
 10
360.6256850419423
 20
157.8168117043194
 30
0.0
 11
360.6256850419423
 21
158.6656884387134
 31
0.0
  0
LINE
  5
EB4
330
18
100
AcDbEntity
  8
1
  6
Continuous
100
AcDbLine
 10
361.5145632252542
 20
159.1990153487006
 30
0.0
 11
361.0701241335982
 21
159.1990153487006
 31
0.0
  0
ARC
  5
EB5
330
18
100
AcDbEntity
  8
1
  6
Continuous
100
AcDbCircle
 10
362.4478853177322
 20
157.7363564330539
 30
0.0
 40
0.044443909165606
100
AcDbArc
 50
180.0
 51
277.7929243354226
  0
ARC
  5
EB6
330
18
100
AcDbEntity
  8
1
  6
Continuous
100
AcDbCircle
 10
361.7367827710824
 20
162.9323037186152
 30
0.0
 40
5.288825190707117
100
AcDbArc
 50
277.7929243354226
 51
280.1041827161252
  0
ARC
  5
EB7
330
18
100
AcDbEntity
  8
1
  6
Continuous
100
AcDbCircle
 10
362.6256609543945
 20
157.9442792262984
 30
0.0
 40
0.2222195458280301
100
AcDbArc
 50
280.1041827161252
 51
0.0
  0
LINE
  5
EB8
330
18
100
AcDbEntity
  8
1
  6
Continuous
100
AcDbLine
 10
362.8478805002224
 20
157.9442792262984
 30
0.0
 11
362.8478805002224
 21
159.1990153487006
 31
0.0
  0
LINE
  5
EB9
330
18
100
AcDbEntity
  8
1
  6
Continuous
100
AcDbLine
 10
362.8478805002224
 20
159.1990153487006
 30
0.0
 11
362.6256609543945
 21
159.1990153487006
 31
0.0
  0
ARC
  5
EBA
330
18
100
AcDbEntity
  8
1
  6
Continuous
100
AcDbCircle
 10
359.0701482211459
 20
159.1990153487006
 30
0.0
 40
1.145412728988863
100
AcDbArc
 50
180.0
 51
234.4623222080521
  0
ARC
  5
EBB
330
18
100
AcDbEntity
  8
1
  6
Continuous
100
AcDbCircle
 10
359.5145873128019
 20
158.3790257668622
 30
0.0
 40
0.2222195458280301
100
AcDbArc
 50
180.0
 51
243.9856340003628
  0
ARC
  5
EBC
330
18
100
AcDbEntity
  8
1
  6
Continuous
100
AcDbCircle
 10
359.0701482211459
 20
159.1990153487006
 30
0.0
 40
1.145412728988863
100
AcDbArc
 50
125.537677792
 51
166.5374393917331
  0
LINE
  5
EBD
330
18
100
AcDbEntity
  8
1
  6
Continuous
100
AcDbLine
 10
358.8479286753178
 20
160.4179831661092
 30
0.0
 11
358.8479286753178
 21
158.5021576813786
 31
0.0
  0
LINE
  5
EBE
330
18
100
AcDbEntity
  8
1
  6
Continuous
100
AcDbLine
 10
359.2923677669741
 20
158.3790257668622
 30
0.0
 11
359.2923677669741
 21
160.0190049305464
 31
0.0
  0
LINE
  5
EBF
330
18
100
AcDbEntity
  8
1
  6
Continuous
100
AcDbLine
 10
359.7368068586299
 20
160.2952075532609
 30
0.0
 11
359.7368068586299
 21
158.1028231441476
 31
0.0
  0
LINE
  5
EC0
330
18
100
AcDbEntity
  8
1
  6
Continuous
100
AcDbLine
 10
360.6256850419423
 20
159.732342258688
 30
0.0
 11
360.6256850419423
 21
160.5812189930892
 31
0.0
  0
LINE
  5
EC1
330
18
100
AcDbEntity
  8
1
  6
Continuous
100
AcDbLine
 10
360.1812459502861
 20
160.3537488491405
 30
0.0
 11
360.1812459502861
 21
158.0442818482679
 31
0.0
  0
LINE
  5
EC2
330
18
100
AcDbEntity
  8
1
  6
Continuous
100
AcDbLine
 10
361.0701241335982
 20
160.7123676334339
 30
0.0
 11
361.0701241335982
 21
157.6856630639747
 31
0.0
  0
LINE
  5
EC3
330
18
100
AcDbEntity
  8
1
  6
Continuous
100
AcDbLine
 10
361.5145632252542
 20
160.7498816293794
 30
0.0
 11
361.5145632252542
 21
157.6481490680292
 31
0.0
  0
LINE
  5
EC4
330
18
100
AcDbEntity
  8
1
  6
Continuous
100
AcDbLine
 10
361.9590023169104
 20
160.7498816293794
 30
0.0
 11
361.9590023169104
 21
157.6481490680292
 31
0.0
  0
LINE
  5
EC5
330
18
100
AcDbEntity
  8
1
  6
Continuous
100
AcDbLine
 10
362.8478805002224
 20
159.732342258688
 30
0.0
 11
362.8478805002224
 21
160.4537514711102
 31
0.0
  0
LINE
  5
EC6
330
18
100
AcDbEntity
  8
1
  6
Continuous
100
AcDbLine
 10
362.4034414085663
 20
160.6616742643545
 30
0.0
 11
362.4034414085663
 21
157.7363564330539
 31
0.0
  0
LINE
  5
EC7
330
18
100
AcDbEntity
  8
1
  6
Continuous
100
AcDbLine
 10
363.2923195918786
 20
160.6599632888561
 30
0.0
 11
363.2923195918786
 21
157.8774073698256
 31
0.0
  0
ARC
  5
EC8
330
18
100
AcDbEntity
  8
1
  6
Continuous
100
AcDbCircle
 10
351.2367827710824
 20
231.7460140788689
 30
0.0
 40
1.0
100
AcDbArc
 50
180.0
 51
270.0
  0
ARC
  5
EC9
330
18
100
AcDbEntity
  8
1
  6
Continuous
100
AcDbCircle
 10
351.2367827710824
 20
236.2618030628283
 30
0.0
 40
1.0
100
AcDbArc
 50
180.0
 51
270.0
  0
LINE
  5
ECA
330
18
100
AcDbEntity
  8
1
  6
Continuous
100
AcDbLine
 10
355.1642010371037
 20
235.2618030628284
 30
0.0
 11
351.2367827710824
 21
235.2618030628284
 31
0.0
  0
LINE
  5
ECB
330
18
100
AcDbEntity
  8
1
  6
Continuous
100
AcDbLine
 10
354.5487719196681
 20
241.5484957753153
 30
0.0
 11
351.9939969785028
 21
240.0734957753171
 31
0.0
  0
LINE
  5
ECC
330
18
100
AcDbEntity
  8
1
  6
Continuous
100
AcDbLine
 10
361.1506391996891
 20
240.6984957753298
 30
0.0
 11
362.3229263423732
 21
240.6984957753317
 31
0.0
  0
ARC
  5
ECD
330
18
100
AcDbEntity
  8
1
  6
Continuous
100
AcDbCircle
 10
370.7367827710823
 20
166.6990153487055
 30
0.0
 40
2.5
100
AcDbArc
 50
0.0
 51
90.0
  0
ARC
  5
ECE
330
18
100
AcDbEntity
  8
1
  6
Continuous
100
AcDbCircle
 10
363.9589782293626
 20
159.4212348945287
 30
0.0
 40
0.2222195458280311
100
AcDbArc
 50
180.0
 51
0.0
  0
LINE
  5
ECF
330
18
100
AcDbEntity
  8
1
  6
Continuous
100
AcDbLine
 10
363.9589782293626
 20
159.1990153487006
 30
0.0
 11
363.9589782293626
 21
158.1329788449421
 31
0.0
  0
LINE
  5
ED0
330
18
100
AcDbEntity
  8
1
  6
Continuous
100
AcDbLine
 10
363.7367586835346
 20
160.4505824590417
 30
0.0
 11
363.7367586835346
 21
159.4212348945287
 31
0.0
  0
LINE
  5
ED1
330
18
100
AcDbEntity
  8
1
  6
Continuous
100
AcDbLine
 10
364.1811977751907
 20
159.4212348945287
 30
0.0
 11
364.1811977751907
 21
160.3706917833759
 31
0.0
  0
LINE
  5
ED2
330
18
100
AcDbEntity
  8
1
  6
Continuous
100
AcDbLine
 10
364.4074907084791
 20
158.3673293472761
 30
0.0
 11
364.9095559952491
 21
160.2410625062125
 31
0.0
  0
ARC
  5
ED3
330
18
100
AcDbEntity
  8
1
  6
Continuous
100
AcDbCircle
 10
364.4034173210186
 20
159.1990153487006
 30
0.0
 40
1.145412728988864
100
AcDbArc
 50
332.2496545546282
 51
54.46232220799835
  0
ARC
  5
ED4
330
18
100
AcDbEntity
  8
1
  6
Continuous
100
AcDbCircle
 10
364.4034173210186
 20
159.1990153487006
 30
0.0
 40
1.145412728988864
100
AcDbArc
 50
305.5376777919478
 51
315.6988392796176
  0
LINE
  5
ED5
330
18
100
AcDbEntity
  8
1
  6
Continuous
100
AcDbLine
 10
365.5488300500077
 20
159.1990153487006
 30
0.0
 11
364.6303403009178
 21
159.1990153487006
 31
0.0
  0
ARC
  5
ED6
330
18
100
AcDbEntity
  8
1
  6
Continuous
100
AcDbCircle
 10
372.2367827710824
 20
231.7460140788689
 30
0.0
 40
1.0
100
AcDbArc
 50
270.0
 51
0.0
  0
LINE
  5
ED7
330
18
100
AcDbEntity
  8
1
  6
Continuous
100
AcDbLine
 10
372.2367827710824
 20
235.2618030628284
 30
0.0
 11
368.3093645050611
 21
235.2618030628284
 31
0.0
  0
ARC
  5
ED8
330
18
100
AcDbEntity
  8
1
  6
Continuous
100
AcDbCircle
 10
372.2367827710824
 20
236.2618030628283
 30
0.0
 40
1.0
100
AcDbArc
 50
270.0
 51
0.0
  0
LINE
  5
EDD
330
18
100
AcDbEntity
  8
4
  6
CENTER
 48
0.5
100
AcDbLine
 10
456.9853045491107
 20
136.1984957753193
 30
0.0
 11
470.8536290133007
 21
136.1984957753193
 31
0.0
  0
ARC
  5
EDE
330
18
100
AcDbEntity
  8
1
  6
Continuous
100
AcDbCircle
 10
468.3853045491107
 20
136.1984957753193
 30
0.0
 40
9.0
100
AcDbArc
 50
164.1191499917206
 51
195.8808500082794
  0
LINE
  5
EDF
330
18
100
AcDbEntity
  8
1
  6
Continuous
100
AcDbLine
 10
462.9853045491106
 20
136.1984957753193
 30
0.0
 11
461.9853045491106
 21
135.1984957753194
 31
0.0
  0
LINE
  5
EE1
330
18
100
AcDbEntity
  8
1
  6
Continuous
100
AcDbLine
 10
462.9853045491103
 20
140.6984957753223
 30
0.0
 11
462.9853045491111
 21
130.6984957753225
 31
0.0
  0
LINE
  5
EE2
330
18
100
AcDbEntity
  8
1
  6
Continuous
100
AcDbLine
 10
461.9853045491106
 20
139.9984957753193
 30
0.0
 11
461.9853045491106
 21
132.3984957753194
 31
0.0
  0
LINE
  5
EE3
330
18
100
AcDbEntity
  8
1
  6
Continuous
100
AcDbLine
 10
467.9853045491102
 20
141.1984957753227
 30
0.0
 11
467.9853045491113
 21
130.1984957753226
 31
0.0
  0
LINE
  5
EE4
330
18
100
AcDbEntity
  8
1
  6
Continuous
100
AcDbLine
 10
467.9853045491113
 20
130.1984957753226
 30
0.0
 11
463.485304549111
 21
130.1984957753223
 31
0.0
  0
LINE
  5
EE5
330
18
100
AcDbEntity
  8
1
  6
Continuous
100
AcDbLine
 10
461.9853045491106
 20
132.3984957753194
 30
0.0
 11
462.9853045491106
 21
132.3984957753194
 31
0.0
  0
ARC
  5
EE6
330
18
100
AcDbEntity
  8
1
  6
Continuous
100
AcDbCircle
 10
463.4853045491113
 20
130.6984957753225
 30
0.0
 40
0.5
100
AcDbArc
 50
180.0000000000049
 51
270.0000000000049
  0
LINE
  5
EE7
330
18
100
AcDbEntity
  8
1
  6
Continuous
100
AcDbLine
 10
461.9853045491106
 20
132.6984957753194
 30
0.0
 11
460.8658893592761
 21
132.7964319142087
 31
0.0
  0
ARC
  5
EE8
330
18
100
AcDbEntity
  8
1
  6
Continuous
100
AcDbCircle
 10
460.9791918248878
 20
134.0914850217332
 30
0.0
 40
1.3
100
AcDbArc
 50
195.8808500082794
 51
265.0000000000001
  0
LINE
  5
EE9
330
18
100
AcDbEntity
  8
1
  6
Continuous
100
AcDbLine
 10
467.9853045491102
 20
141.1984957753228
 30
0.0
 11
463.4853045491102
 21
141.1984957753225
 31
0.0
  0
LINE
  5
EEA
330
18
100
AcDbEntity
  8
1
  6
Continuous
100
AcDbLine
 10
461.9853045491106
 20
139.9984957753193
 30
0.0
 11
462.9853045491106
 21
139.9984957753193
 31
0.0
  0
ARC
  5
EEB
330
18
100
AcDbEntity
  8
1
  6
Continuous
100
AcDbCircle
 10
463.4853045491102
 20
140.6984957753223
 30
0.0
 40
0.5
100
AcDbArc
 50
90.00000000000486
 51
180.0000000000049
  0
LINE
  5
EEC
330
18
100
AcDbEntity
  8
1
  6
Continuous
100
AcDbLine
 10
461.9853045491106
 20
139.6984957753194
 30
0.0
 11
460.8658893593096
 21
139.6005596364329
 31
0.0
  0
LINE
  5
EED
330
18
100
AcDbEntity
  8
1
  6
Continuous
100
AcDbLine
 10
462.9853045491106
 20
137.1984957753193
 30
0.0
 11
461.9853045491106
 21
136.1984957753193
 31
0.0
  0
ARC
  5
EEE
330
18
100
AcDbEntity
  8
1
  6
Continuous
100
AcDbCircle
 10
460.9791918249016
 20
138.3055065289021
 30
0.0
 40
1.3
100
AcDbArc
 50
94.99999999999976
 51
164.1191499917206
  0
LINE
  5
EF1
330
18
100
AcDbEntity
  8
1
  6
Continuous
100
AcDbLine
 10
450.058599963727
 20
241.0984957753231
 30
0.0
 11
451.358599963727
 21
241.0984957753231
 31
0.0
  0
LINE
  5
EF2
330
18
100
AcDbEntity
  8
1
  6
Continuous
100
AcDbLine
 10
450.058599963727
 20
241.198495775323
 30
0.0
 11
448.5971014955905
 21
241.3263603230455
 31
0.0
  0
LINE
  5
EF3
330
18
100
AcDbEntity
  8
1
  6
Continuous
100
AcDbLine
 10
451.358599963727
 20
239.6984957753227
 30
0.0
 11
452.1585999637271
 21
239.6984957753224
 31
0.0
  0
ARC
  5
EF4
330
18
100
AcDbEntity
  8
5
  6
PHANTOM
 48
0.5
100
AcDbCircle
 10
583.3836643163206
 20
163.8862411920379
 30
0.0
 40
1.0
100
AcDbArc
 50
225.0
 51
314.9999999999997
  0
LINE
  5
EF6
330
18
100
AcDbEntity
  8
1
  6
Continuous
100
AcDbLine
 10
486.6831846336478
 20
161.9632432729557
 30
0.0
 11
486.6831846336478
 21
151.3632432729556
 31
0.0
  0
LINE
  5
EF7
330
18
100
AcDbEntity
  8
1
  6
Continuous
100
AcDbLine
 10
482.9831846336478
 20
166.1632432729613
 30
0.0
 11
482.9831846336478
 21
147.0396774850441
 31
0.0
  0
ARC
  5
EFC
330
18
100
AcDbEntity
  8
1
  6
Continuous
100
AcDbCircle
 10
490.583184633648
 20
143.2493282027881
 30
0.0
 40
1.0
100
AcDbArc
 50
180.0
 51
267.651613027923
  0
ARC
  5
EFD
330
18
100
AcDbEntity
  8
1
  6
Continuous
100
AcDbCircle
 10
494.7831846336478
 20
245.663243272958
 30
0.0
 40
103.4999999999999
100
AcDbArc
 50
266.724171040202
 51
267.6743152876134
  0
LINE
  5
EFE
330
18
100
AcDbEntity
  8
4
  6
CENTER
 48
0.5
100
AcDbLine
 10
485.5389443298577
 20
136.1984957753242
 30
0.0
 11
495.7361317833481
 21
136.1984957753237
 31
0.0
  0
LINE
  5
EFF
330
18
100
AcDbEntity
  8
1
  6
Continuous
100
AcDbLine
 10
488.0831846336477
 20
139.6984957753242
 30
0.0
 11
490.5831846336477
 21
139.6984957753238
 31
0.0
  0
LINE
  5
F00
330
18
100
AcDbEntity
  8
1
  6
Continuous
100
AcDbLine
 10
488.0831846336477
 20
132.698495775324
 30
0.0
 11
490.5831846336477
 21
132.6984957753237
 31
0.0
  0
LINE
  5
F01
330
18
100
AcDbEntity
  8
1
  6
Continuous
100
AcDbLine
 10
488.0831846336477
 20
139.6984957753242
 30
0.0
 11
488.0831846336477
 21
132.698495775324
 31
0.0
  0
LINE
  5
F02
330
18
100
AcDbEntity
  8
1
  6
Continuous
100
AcDbLine
 10
487.5831846336477
 20
133.1984957753242
 30
0.0
 11
487.5831846336477
 21
139.1984957753242
 31
0.0
  0
LINE
  5
F03
330
18
100
AcDbEntity
  8
1
  6
Continuous
100
AcDbLine
 10
487.5831846336478
 20
133.1984957753242
 30
0.0
 11
488.0831846336477
 21
132.698495775324
 31
0.0
  0
ARC
  5
F04
330
18
100
AcDbEntity
  8
1
  6
Continuous
100
AcDbCircle
 10
485.9831846336478
 20
147.0396774850441
 30
0.0
 40
3.0
100
AcDbArc
 50
180.0
 51
214.7719440319497
  0
ARC
  5
F05
330
18
100
AcDbEntity
  8
1
  6
Continuous
100
AcDbCircle
 10
489.268898919362
 20
149.3209231168543
 30
0.0
 40
7.0
100
AcDbArc
 50
228.9176668595491
 51
266.724171040202
  0
ARC
  5
F06
330
18
100
AcDbEntity
  8
1
  6
Continuous
100
AcDbCircle
 10
489.268898919362
 20
149.3209231168543
 30
0.0
 40
7.0
100
AcDbArc
 50
214.7719440319492
 51
228.9176668595491
  0
LINE
  5
F07
330
18
100
AcDbEntity
  8
1
  6
Continuous
100
AcDbLine
 10
488.0831846336477
 20
139.6984957753242
 30
0.0
 11
487.5831846336478
 21
139.1984957753242
 31
0.0
  0
LINE
  5
F08
330
18
100
AcDbEntity
  8
1
  6
Continuous
100
AcDbLine
 10
489.583184633648
 20
151.3632432729557
 30
0.0
 11
486.6831846336478
 21
151.3632432729557
 31
0.0
  0
ARC
  5
F09
330
18
100
AcDbEntity
  8
1
  6
Continuous
100
AcDbCircle
 10
488.5831846336481
 20
135.3725695385552
 30
0.0
 40
10.0
100
AcDbArc
 50
0.000000000000007
 51
4.792940316870502
  0
ARC
  5
F0A
330
18
100
AcDbEntity
  8
1
  6
Continuous
100
AcDbCircle
 10
470.9156075707008
 20
152.2765920390676
 30
0.0
 40
32.0
100
AcDbArc
 50
314.5860766758552
 51
329.3440375942917
  0
ARC
  5
F0B
330
18
100
AcDbEntity
  8
1
  6
Continuous
100
AcDbCircle
 10
500.5831846336477
 20
125.1984957753222
 30
0.0
 40
1.0
100
AcDbArc
 50
270.0
 51
0.000000000000007
  0
ARC
  5
F0C
330
18
100
AcDbEntity
  8
1
  6
Continuous
100
AcDbCircle
 10
499.5831846336478
 20
125.1984957753222
 30
0.0
 40
1.0
100
AcDbArc
 50
180.0
 51
270.0
  0
LINE
  5
F0D
330
18
100
AcDbEntity
  8
1
  6
Continuous
100
AcDbLine
 10
500.5831846336477
 20
124.1984957753222
 30
0.0
 11
499.5831846336478
 21
124.1984957753222
 31
0.0
  0
ARC
  5
F0E
330
18
100
AcDbEntity
  8
1
  6
Continuous
100
AcDbCircle
 10
492.6769877054526
 20
130.1984957753305
 30
0.0
 40
1.0
100
AcDbArc
 50
270.0
 51
314.5860766758552
  0
LINE
  5
F0F
330
18
100
AcDbEntity
  8
1
  6
Continuous
100
AcDbLine
 10
490.5831846336475
 20
129.1984957753239
 30
0.0
 11
492.6769877054526
 21
129.1984957753239
 31
0.0
  0
LINE
  5
F10
330
18
100
AcDbEntity
  8
1
  6
Continuous
100
AcDbLine
 10
498.5831846336481
 20
125.1984957753222
 30
0.0
 11
498.5831846336481
 21
135.3725695385552
 31
0.0
  0
ARC
  5
F11
330
18
100
AcDbEntity
  8
1
  6
Continuous
100
AcDbCircle
 10
497.5831846336478
 20
136.4702536398118
 30
0.0
 40
1.0
100
AcDbArc
 50
329.3440375942917
 51
0.000000000000007
  0
LINE
  5
F12
330
18
100
AcDbEntity
  8
5
  6
PHANTOM
100
AcDbLine
 10
500.9547575089062
 20
238.1127093376882
 30
0.0
 11
546.0484262696727
 21
193.0190405769218
 31
0.0
  0
LINE
  5
F13
330
18
100
AcDbEntity
  8
5
  6
PHANTOM
100
AcDbLine
 10
501.3547575089067
 20
236.2984957753146
 30
0.0
 11
545.343087531739
 21
192.3101657524824
 31
0.0
  0
ARC
  5
F15
330
18
100
AcDbEntity
  8
1
  6
Continuous
100
AcDbCircle
 10
486.5831846336478
 20
172.1632432729613
 30
0.0
 40
2.999999999999971
100
AcDbArc
 50
270.0
 51
0.000000000000007
  0
ARC
  5
F16
330
18
100
AcDbEntity
  8
1
  6
Continuous
100
AcDbCircle
 10
485.9831846336478
 20
166.1632432729613
 30
0.0
 40
3.0
100
AcDbArc
 50
90.0
 51
180.0
  0
LINE
  5
F17
330
18
100
AcDbEntity
  8
1
  6
Continuous
100
AcDbLine
 10
489.583184633648
 20
161.9632432729557
 30
0.0
 11
486.6831846336478
 21
161.9632432729557
 31
0.0
  0
LINE
  5
F18
330
18
100
AcDbEntity
  8
1
  6
Continuous
100
AcDbLine
 10
485.9831846336478
 20
169.1632432729613
 30
0.0
 11
486.5831846336478
 21
169.1632432729613
 31
0.0
  0
LINE
  5
F19
330
18
100
AcDbEntity
  8
1
  6
Continuous
100
AcDbLine
 10
474.0831846336504
 20
240.6984957753241
 30
0.0
 11
476.0831846336478
 21
240.698495775325
 31
0.0
  0
LINE
  5
F1A
330
18
100
AcDbEntity
  8
1
  6
Continuous
100
AcDbLine
 10
485.3602888685011
 20
234.9689098440146
 30
0.0
 11
489.5831846336466
 21
230.7460140788688
 31
0.0
  0
LINE
  5
F1B
330
18
100
AcDbEntity
  8
1
  6
Continuous
100
AcDbLine
 10
485.3602888685011
 20
234.9689098440146
 30
0.0
 11
489.5831846336468
 21
230.7460140788688
 31
0.0
  0
LINE
  5
F1C
330
18
100
AcDbEntity
  8
1
  6
Continuous
100
AcDbLine
 10
487.1307029371933
 20
233.1984957753221
 30
0.0
 11
479.5831846336475
 21
233.1984957753236
 31
0.0
  0
LINE
  5
F1D
330
18
100
AcDbEntity
  8
1
  6
Continuous
100
AcDbLine
 10
478.1831846336478
 20
238.6984957753233
 30
0.0
 11
478.0831846336492
 21
238.6984957753234
 31
0.0
  0
ARC
  5
F1E
330
18
100
AcDbEntity
  8
1
  6
Continuous
100
AcDbCircle
 10
478.4394346336478
 20
235.9484957753227
 30
0.0
 40
0.2562500000000227
100
AcDbArc
 50
180.0
 51
257.3196165081736
  0
ARC
  5
F1F
330
18
100
AcDbEntity
  8
1
  6
Continuous
100
AcDbCircle
 10
479.5831846336477
 20
234.1984957753236
 30
0.0
 40
1.0
100
AcDbArc
 50
180.0
 51
270.0
  0
LINE
  5
F20
330
18
100
AcDbEntity
  8
1
  6
Continuous
100
AcDbLine
 10
478.5831846336477
 20
235.6984957753228
 30
0.0
 11
478.3831846336477
 21
235.6984957753228
 31
0.0
  0
LINE
  5
F21
330
18
100
AcDbEntity
  8
1
  6
Continuous
100
AcDbLine
 10
476.0831846336478
 20
234.4484957752114
 30
0.0
 11
478.0831846334983
 21
234.4484957752045
 31
0.0
  0
ARC
  5
F22
330
18
100
AcDbEntity
  8
1
  6
Continuous
100
AcDbCircle
 10
486.0673956496873
 20
235.6760166252012
 30
0.0
 40
1.0
100
AcDbArc
 50
180.0
 51
225.0
  0
ARC
  5
F23
330
18
100
AcDbEntity
  8
5
  6
PHANTOM
 48
0.5
100
AcDbCircle
 10
503.7831846336526
 20
240.9411364624345
 30
0.0
 40
4.0
100
AcDbArc
 50
180.0000000000667
 51
225.0
  0
LINE
  5
F24
330
18
100
AcDbEntity
  8
5
  6
PHANTOM
 48
0.5
100
AcDbLine
 10
499.2831846336478
 20
236.2984957753163
 30
0.0
 11
502.7689710712809
 21
236.2984957753136
 31
0.0
  0
LINE
  5
F25
330
18
100
AcDbEntity
  8
5
  6
PHANTOM
 48
0.5
100
AcDbLine
 10
498.583184633648
 20
237.4730778528098
 30
0.0
 11
499.2831846335832
 21
237.4730778528098
 31
0.0
  0
LINE
  5
F26
330
18
100
AcDbEntity
  8
5
  6
PHANTOM
 48
0.5
100
AcDbLine
 10
499.2831846336478
 20
237.4730778528101
 30
0.0
 11
499.2831846336478
 21
236.2984957753163
 31
0.0
  0
LINE
  5
F27
330
18
100
AcDbEntity
  8
5
  6
PHANTOM
 48
0.5
100
AcDbLine
 10
545.4827408447232
 20
181.1396466529878
 30
0.0
 11
555.9659819750233
 21
170.6564055226878
 31
0.0
  0
ARC
  5
F28
330
18
100
AcDbEntity
  8
5
  6
PHANTOM
 48
0.5
100
AcDbCircle
 10
541.8057855825534
 20
188.7763998898025
 30
0.0
 40
6.0
100
AcDbArc
 50
314.9999999999997
 51
45.00000000000028
  0
ARC
  5
F29
330
18
100
AcDbEntity
  8
5
  6
PHANTOM
 48
0.5
100
AcDbCircle
 10
541.1004468446195
 20
188.067525065363
 30
0.0
 40
6.0
100
AcDbArc
 50
316.4325437375671
 51
45.00000000000028
  0
LINE
  5
F2A
330
18
100
AcDbEntity
  8
5
  6
PHANTOM
 48
0.5
100
AcDbLine
 10
545.4827408447232
 20
183.9680737777341
 30
0.0
 11
546.0484262696727
 21
184.5337592026833
 31
0.0
  0
ARC
  5
F2B
330
18
100
AcDbEntity
  8
5
  6
PHANTOM
 48
0.5
100
AcDbCircle
 10
546.8969544070963
 20
182.553860215361
 30
0.0
 40
2.0
100
AcDbArc
 50
136.4325437375667
 51
225.0
  0
ARC
  5
F2C
330
18
100
AcDbEntity
  8
5
  6
PHANTOM
 48
0.5
100
AcDbCircle
 10
568.4113331729942
 20
163.30222314926
 30
0.0
 40
10.0
100
AcDbArc
 50
45.00000000000028
 51
131.7835250024891
  0
ARC
  5
F2D
330
18
100
AcDbEntity
  8
5
  6
PHANTOM
 48
0.5
100
AcDbCircle
 10
558.7944090997694
 20
173.484832647434
 30
0.0
 40
4.0
100
AcDbArc
 50
225.0
 51
306.3730734413206
  0
ARC
  5
F2E
330
18
100
AcDbEntity
  8
5
  6
PHANTOM
 48
0.5
100
AcDbCircle
 10
494.7831846336478
 20
245.6984957753197
 30
0.0
 40
100.5
100
AcDbArc
 50
311.5542391111993
 51
311.7835250024889
  0
ARC
  5
F2F
330
18
100
AcDbEntity
  8
5
  6
PHANTOM
 48
0.5
100
AcDbCircle
 10
558.7944090997694
 20
173.484832647434
 30
0.0
 40
4.0
100
AcDbArc
 50
306.3730734413206
 51
311.5542391111993
  0
LINE
  5
F30
330
18
100
AcDbEntity
  8
5
  6
PHANTOM
 48
0.5
100
AcDbLine
 10
582.6765575351339
 20
163.1791344108513
 30
0.0
 11
575.4824009848597
 21
170.3732909611255
 31
0.0
  0
LINE
  5
F31
330
18
100
AcDbEntity
  8
5
  6
PHANTOM
 48
0.5
100
AcDbLine
 10
584.7978778786937
 20
163.8862411920379
 30
0.0
 11
584.090771097507
 21
163.1791344108513
 31
0.0
  0
ARC
  5
F32
330
18
100
AcDbEntity
  8
5
  6
PHANTOM
 48
0.5
100
AcDbCircle
 10
584.090771097507
 20
164.5933479732244
 30
0.0
 40
1.0
100
AcDbArc
 50
314.9999999999997
 51
45.00000000000028
  0
CIRCLE
  5
F41
330
18
100
AcDbEntity
  8
1
  6
Continuous
100
AcDbCircle
 10
361.7367827710824
 20
264.1984957753221
 30
0.0
 40
3.800000000001205
  0
LINE
  5
F42
330
18
100
AcDbEntity
  8
1
  6
Continuous
 48
0.25
100
AcDbLine
 10
362.8770531159173
 20
264.7245832205249
 30
0.0
 11
363.4879933748625
 21
265.3567366829057
 31
0.0
  0
LINE
  5
F43
330
18
100
AcDbEntity
  8
1
  6
Continuous
 48
0.25
100
AcDbLine
 10
362.8770531159173
 20
263.6738225436817
 30
0.0
 11
363.4879933748625
 21
263.0402548677386
 31
0.0
  0
ARC
  5
F44
330
18
100
AcDbEntity
  8
1
  6
Continuous
 48
0.25
100
AcDbCircle
 10
361.7357827710823
 20
264.1984957753221
 30
0.0
 40
2.1
100
AcDbArc
 50
33.46300000000105
 51
56.53699999999894
  0
ARC
  5
F45
330
18
100
AcDbEntity
  8
1
  6
Continuous
 48
0.25
100
AcDbCircle
 10
361.7357827710823
 20
264.1984957753221
 30
0.0
 40
2.1
100
AcDbArc
 50
303.4630000000011
 51
326.5369999999989
  0
CIRCLE
  5
F46
330
18
100
AcDbEntity
  8
1
  6
Continuous
 48
0.25
100
AcDbCircle
 10
361.7367827710824
 20
264.1984957753221
 30
0.0
 40
3.5
  0
CIRCLE
  5
F47
330
18
100
AcDbEntity
  8
1
  6
Continuous
100
AcDbCircle
 10
361.7367827710824
 20
296.0245042965614
 30
0.0
 40
6.000000000000683
  0
CIRCLE
  5
F48
330
18
100
AcDbEntity
  8
1
  6
Continuous
100
AcDbCircle
 10
361.7367827710824
 20
296.0245042965614
 30
0.0
 40
4.599999999999909
  0
LINE
  5
F49
330
18
100
AcDbEntity
  8
4
  6
CENTER
100
AcDbLine
 10
353.7367827710817
 20
296.0245042965614
 30
0.0
 11
369.7367827710831
 21
296.0245042965614
 31
0.0
  0
CIRCLE
  5
F4A
330
18
100
AcDbEntity
  8
1
  6
Continuous
 48
0.25
100
AcDbCircle
 10
361.7367827710824
 20
296.0245042965614
 30
0.0
 40
4.5
  0
ARC
  5
F4B
330
18
100
AcDbEntity
  8
1
  6
Continuous
 48
0.25
100
AcDbCircle
 10
361.7367827710824
 20
296.0245042965614
 30
0.0
 40
2.45
100
AcDbArc
 50
35.12899999999993
 51
54.87100000000009
  0
ARC
  5
F4C
330
18
100
AcDbEntity
  8
1
  6
Continuous
 48
0.25
100
AcDbCircle
 10
361.7367827710824
 20
296.0245042965614
 30
0.0
 40
2.45
100
AcDbArc
 50
305.1291099999996
 51
324.8709999999999
  0
LINE
  5
F4D
330
18
100
AcDbEntity
  8
1
  6
Continuous
 48
0.25
100
AcDbLine
 10
362.9862404534388
 20
296.6531222250362
 30
0.0
 11
363.740723388965
 21
297.4344752182473
 31
0.0
  0
LINE
  5
F4E
330
18
100
AcDbEntity
  8
1
  6
Continuous
 48
0.25
100
AcDbLine
 10
362.9862404534391
 20
295.3958863680863
 30
0.0
 11
363.7407233889649
 21
294.6145333748753
 31
0.0
  0
ARC
  5
F4F
330
18
100
AcDbEntity
  8
1
  6
Continuous
100
AcDbCircle
 10
361.7367827710824
 20
261.1984957753221
 30
0.0
 40
9.0
100
AcDbArc
 50
67.38013505195941
 51
112.6198649480405
  0
LINE
  5
F50
330
18
100
AcDbEntity
  8
1
  6
Continuous
100
AcDbLine
 10
365.8262369439824
 20
259.1984957753221
 30
0.0
 11
357.6473285981823
 21
259.1984957753221
 31
0.0
  0
CIRCLE
  5
F51
330
18
100
AcDbEntity
  8
1
  6
Continuous
100
AcDbCircle
 10
361.7367827710824
 20
245.6984957753101
 30
0.0
 40
2.066999999999999
  0
CIRCLE
  5
F52
330
18
100
AcDbEntity
  8
2
  6
Continuous
100
AcDbCircle
 10
361.7367827710824
 20
245.6984957753101
 30
0.0
 40
2.5
  0
LINE
  5
F53
330
18
100
AcDbEntity
  8
1
  6
Continuous
100
AcDbLine
 10
376.7367827710456
 20
271.1984957753078
 30
0.0
 11
346.7367827710456
 21
271.1984957752917
 31
0.0
  0
LINE
  5
F54
330
18
100
AcDbEntity
  8
4
  6
CENTER
100
AcDbLine
 10
376.4314798286036
 20
245.6984957753101
 30
0.0
 11
347.0771905386608
 21
245.6984957753101
 31
0.0
  0
ARC
  5
F55
330
18
100
AcDbEntity
  8
1
  6
Continuous
100
AcDbCircle
 10
361.7367827710824
 20
246.6984957753294
 30
0.0
 40
11.5
100
AcDbArc
 50
0.0
 51
180.0
  0
ARC
  5
F57
330
18
100
AcDbEntity
  8
1
  6
Continuous
100
AcDbCircle
 10
361.7367827710824
 20
245.6984957753101
 30
0.0
 40
8.600000000101516
100
AcDbArc
 50
61.93168433155769
 51
118.0683156684422
  0
LINE
  5
F58
330
18
100
AcDbEntity
  8
4
  6
CENTER
100
AcDbLine
 10
352.5809256637657
 20
264.1984957753221
 30
0.0
 11
371.018715622897
 21
264.1984957753221
 31
0.0
  0
LINE
  5
F59
330
18
100
AcDbEntity
  8
1
  6
Continuous
100
AcDbLine
 10
367.3936370205016
 20
245.6984957753113
 30
0.0
 11
361.7367827710091
 21
251.3553500248038
 31
0.0
  0
LINE
  5
F5A
330
18
100
AcDbEntity
  8
1
  6
Continuous
100
AcDbLine
 10
362.3229263424253
 20
250.6984957753406
 30
0.0
 11
366.7367827711126
 21
246.2846393466533
 31
0.0
  0
LINE
  5
F5F
330
18
100
AcDbEntity
  8
1
  6
Continuous
 48
0.25
100
AcDbLine
 10
360.5952195330283
 20
263.6731154369006
 30
0.0
 11
359.9842792740831
 21
263.0409619745197
 31
0.0
  0
ARC
  5
F60
330
18
100
AcDbEntity
  8
1
  6
Continuous
100
AcDbCircle
 10
360.4867827710823
 20
264.1984957753221
 30
0.0
 40
5.750000000000002
100
AcDbArc
 50
112.6198649480405
 51
240.4081542060495
  0
LINE
  5
F61
330
18
100
AcDbEntity
  8
1
  6
Continuous
100
AcDbLine
 10
361.1506391996891
 20
250.6984957752905
 30
0.0
 11
362.3229263423732
 21
250.6984957752885
 31
0.0
  0
LINE
  5
F62
330
18
100
AcDbEntity
  8
1
  6
Continuous
100
AcDbLine
 10
356.7367827711017
 20
245.1123522039168
 30
0.0
 11
356.7367827711036
 21
246.2846393466009
 31
0.0
  0
LINE
  5
F63
330
18
100
AcDbEntity
  8
1
  6
Continuous
100
AcDbLine
 10
361.7367827710091
 20
251.3553500248038
 30
0.0
 11
356.0799285215168
 21
245.6984957753113
 31
0.0
  0
LINE
  5
F64
330
18
100
AcDbEntity
  8
1
  6
Continuous
100
AcDbLine
 10
361.1506391996889
 20
250.6984957752905
 30
0.0
 11
356.7367827710514
 21
246.2846393466529
 31
0.0
  0
LINE
  5
F65
330
18
100
AcDbEntity
  8
1
  6
Continuous
100
AcDbLine
 10
357.2893115794544
 20
253.4017418444323
 30
0.0
 11
355.559207422658
 21
256.3983701463993
 31
0.0
  0
ARC
  5
F66
330
18
100
AcDbEntity
  8
1
  6
Continuous
100
AcDbCircle
 10
351.5367827710822
 20
255.6984957753255
 30
0.0
 40
2.5
100
AcDbArc
 50
90.0
 51
180.0
  0
LINE
  5
F67
330
18
100
AcDbEntity
  8
1
  6
Continuous
 48
0.25
100
AcDbLine
 10
361.7364898778634
 20
263.2488513681887
 30
0.0
 11
361.2104024326606
 21
263.0579325372683
 31
0.0
  0
LINE
  5
F68
330
18
100
AcDbEntity
  8
1
  6
Continuous
 48
0.25
100
AcDbLine
 10
361.2104024326606
 20
263.0579325372683
 30
0.0
 11
360.5782489702798
 21
262.4469922783229
 31
0.0
  0
LINE
  5
F69
330
18
100
AcDbEntity
  8
1
  6
Continuous
 48
0.25
100
AcDbLine
 10
361.7364898778634
 20
263.2488513681887
 30
0.0
 11
362.2611631095038
 21
263.0579325372683
 31
0.0
  0
ARC
  5
F6A
330
18
100
AcDbEntity
  8
1
  6
Continuous
 48
0.25
100
AcDbCircle
 10
361.7357827710823
 20
264.1984957753221
 30
0.0
 40
2.1
100
AcDbArc
 50
213.4630000000009
 51
236.5369999999989
  0
LINE
  5
F6B
330
18
100
AcDbEntity
  8
1
  6
Continuous
 48
0.25
100
AcDbLine
 10
362.2611631095038
 20
263.0579325372683
 30
0.0
 11
362.8947307854472
 21
262.4469922783229
 31
0.0
  0
ARC
  5
F6C
330
18
100
AcDbEntity
  8
1
  6
Continuous
100
AcDbCircle
 10
357.5491192005902
 20
253.5517418444319
 30
0.0
 40
0.3
100
AcDbArc
 50
209.9999999999228
 51
298.0683156684459
  0
ARC
  5
F6D
330
18
100
AcDbEntity
  8
1
  6
Continuous
100
AcDbCircle
 10
346.7367827710461
 20
270.1984957752916
 30
0.0
 40
1.0
100
AcDbArc
 50
90.0
 51
180.0
  0
LINE
  5
F6E
330
18
100
AcDbEntity
  8
1
  6
Continuous
 48
0.25
100
AcDbLine
 10
362.686134284997
 20
264.1984957753221
 30
0.0
 11
362.8770531159173
 21
264.7245832205249
 31
0.0
  0
LINE
  5
F6F
330
18
100
AcDbEntity
  8
1
  6
Continuous
 48
0.25
100
AcDbLine
 10
362.686134284997
 20
264.1984957753221
 30
0.0
 11
362.8770531159173
 21
263.6738225436817
 31
0.0
  0
LINE
  5
F70
330
18
100
AcDbEntity
  8
1
  6
Continuous
 48
0.25
100
AcDbLine
 10
361.7357827710823
 20
265.1488472892369
 30
0.0
 11
362.2618702162851
 21
265.3397661201573
 31
0.0
  0
LINE
  5
F71
330
18
100
AcDbEntity
  8
1
  6
Continuous
 48
0.25
100
AcDbLine
 10
360.7861383639487
 20
264.1992028821034
 30
0.0
 11
360.5952195330283
 21
264.7238761137436
 31
0.0
  0
LINE
  5
F72
330
18
100
AcDbEntity
  8
1
  6
Continuous
 48
0.25
100
AcDbLine
 10
361.2111095394419
 20
265.3397661201572
 30
0.0
 11
360.57824897028
 21
265.9499992723211
 31
0.0
  0
LINE
  5
F73
330
18
100
AcDbEntity
  8
1
  6
Continuous
 48
0.25
100
AcDbLine
 10
361.7357827710823
 20
265.1488472892369
 30
0.0
 11
361.2111095394419
 21
265.3397661201572
 31
0.0
  0
LINE
  5
F74
330
18
100
AcDbEntity
  8
1
  6
Continuous
 48
0.25
100
AcDbLine
 10
360.7861383639487
 20
264.1992028821034
 30
0.0
 11
360.5952195330283
 21
263.6731154369006
 31
0.0
  0
LINE
  5
F75
330
18
100
AcDbEntity
  8
1
  6
Continuous
 48
0.25
100
AcDbLine
 10
360.5952195330283
 20
264.7238761137436
 30
0.0
 11
359.9842792740831
 21
265.3560295761244
 31
0.0
  0
ARC
  5
F76
330
18
100
AcDbEntity
  8
1
  6
Continuous
 48
0.25
100
AcDbCircle
 10
361.7357827710823
 20
264.1984957753221
 30
0.0
 40
2.1
100
AcDbArc
 50
123.4630000000009
 51
146.5369999999989
  0
LINE
  5
F77
330
18
100
AcDbEntity
  8
1
  6
Continuous
 48
0.25
100
AcDbLine
 10
362.2618702162851
 20
265.3397661201573
 30
0.0
 11
362.8940236786659
 21
265.9507063791024
 31
0.0
  0
LINE
  5
F78
330
18
100
AcDbEntity
  8
4
  6
CENTER
100
AcDbLine
 10
361.7367827710824
 20
288.0245042965606
 30
0.0
 11
361.7367827710824
 21
304.024504296562
 31
0.0
  0
LINE
  5
F79
330
18
100
AcDbEntity
  8
1
  6
Continuous
 48
0.25
100
AcDbLine
 10
362.3654006995574
 20
294.7750466142046
 30
0.0
 11
363.1467536927682
 21
294.0205636786787
 31
0.0
  0
LINE
  5
F7A
330
18
100
AcDbEntity
  8
1
  6
Continuous
 48
0.25
100
AcDbLine
 10
361.1081648426075
 20
294.7750466142046
 30
0.0
 11
360.3268118493963
 21
294.0205636786787
 31
0.0
  0
ARC
  5
F7B
330
18
100
AcDbEntity
  8
1
  6
Continuous
 48
0.25
100
AcDbCircle
 10
361.7367827710824
 20
296.0245042965614
 30
0.0
 40
2.45
100
AcDbArc
 50
215.1291
 51
234.8708999999987
  0
LINE
  5
F7C
330
18
100
AcDbEntity
  8
1
  6
Continuous
 48
0.25
100
AcDbLine
 10
362.3654006995572
 20
297.273961978918
 30
0.0
 11
363.1467536927682
 21
298.028444914444
 31
0.0
  0
LINE
  5
F7D
330
18
100
AcDbEntity
  8
1
  6
Continuous
 48
0.25
100
AcDbLine
 10
361.7374898778635
 20
297.0448593818135
 30
0.0
 11
362.3654006995572
 21
297.273961978918
 31
0.0
  0
LINE
  5
F7E
330
18
100
AcDbEntity
  8
1
  6
Continuous
 48
0.25
100
AcDbLine
 10
361.7367827710824
 20
295.003442104528
 30
0.0
 11
362.3654006995574
 21
294.7750466142046
 31
0.0
  0
LINE
  5
F7F
330
18
100
AcDbEntity
  8
1
  6
Continuous
 48
0.25
100
AcDbLine
 10
362.7578449631156
 20
296.0245042965614
 30
0.0
 11
362.9862404534388
 21
296.6531222250362
 31
0.0
  0
LINE
  5
F80
330
18
100
AcDbEntity
  8
1
  6
Continuous
 48
0.25
100
AcDbLine
 10
362.7578449631156
 20
296.0245042965614
 30
0.0
 11
362.9862404534391
 21
295.3958863680863
 31
0.0
  0
LINE
  5
F81
330
18
100
AcDbEntity
  8
1
  6
Continuous
 48
0.25
100
AcDbLine
 10
361.1081648426077
 20
297.273961978918
 30
0.0
 11
360.3268118493963
 21
298.028444914444
 31
0.0
  0
LINE
  5
F82
330
18
100
AcDbEntity
  8
1
  6
Continuous
 48
0.25
100
AcDbLine
 10
360.4873250887258
 20
296.6531222250362
 30
0.0
 11
359.7328421531996
 21
297.4344752182473
 31
0.0
  0
LINE
  5
F83
330
18
100
AcDbEntity
  8
1
  6
Continuous
 48
0.25
100
AcDbLine
 10
360.4873250887258
 20
295.3958863680865
 30
0.0
 11
359.7328421531996
 21
294.6145333748753
 31
0.0
  0
ARC
  5
F84
330
18
100
AcDbEntity
  8
1
  6
Continuous
 48
0.25
100
AcDbCircle
 10
361.7367827710824
 20
296.0245042965614
 30
0.0
 40
2.45
100
AcDbArc
 50
125.1289999999999
 51
144.8710000000001
  0
LINE
  5
F85
330
18
100
AcDbEntity
  8
1
  6
Continuous
 48
0.25
100
AcDbLine
 10
360.7164276858301
 20
296.0237971897802
 30
0.0
 11
360.4873250887258
 21
296.6531222250362
 31
0.0
  0
LINE
  5
F86
330
18
100
AcDbEntity
  8
1
  6
Continuous
 48
0.25
100
AcDbLine
 10
360.7164276858301
 20
296.0237971897802
 30
0.0
 11
360.4873250887258
 21
295.3958863680865
 31
0.0
  0
LINE
  5
F87
330
18
100
AcDbEntity
  8
1
  6
Continuous
 48
0.25
100
AcDbLine
 10
361.7374898778635
 20
297.0448593818135
 30
0.0
 11
361.1081648426077
 21
297.273961978918
 31
0.0
  0
LINE
  5
F88
330
18
100
AcDbEntity
  8
1
  6
Continuous
 48
0.25
100
AcDbLine
 10
361.7367827710824
 20
295.003442104528
 30
0.0
 11
361.1081648426075
 21
294.7750466142046
 31
0.0
  0
ARC
  5
F89
330
18
100
AcDbEntity
  8
1
  6
Continuous
100
AcDbCircle
 10
362.9867827710824
 20
264.1984957753221
 30
0.0
 40
5.750000000000013
100
AcDbArc
 50
299.5918457939508
 51
67.38013505195941
  0
LINE
  5
F8B
330
18
100
AcDbEntity
  8
1
  6
Continuous
100
AcDbLine
 10
366.7367827710626
 20
245.1123522039168
 30
0.0
 11
366.7367827710604
 21
246.2846393466009
 31
0.0
  0
LINE
  5
F8C
330
18
100
AcDbEntity
  8
1
  6
Continuous
100
AcDbLine
 10
365.8867827710723
 20
252.8865066267264
 30
0.0
 11
367.9143581195069
 21
256.3983701463994
 31
0.0
  0
ARC
  5
F8D
330
18
100
AcDbEntity
  8
1
  6
Continuous
100
AcDbCircle
 10
365.9244463415747
 20
253.551741844432
 30
0.0
 40
0.3
100
AcDbArc
 50
241.9316843315558
 51
330.0000000000725
  0
ARC
  5
F8E
330
18
100
AcDbEntity
  8
1
  6
Continuous
100
AcDbCircle
 10
371.9367827710823
 20
255.6984957753332
 30
0.0
 40
2.5
100
AcDbArc
 50
0.0
 51
90.0
  0
ARC
  5
F8F
330
18
100
AcDbEntity
  8
1
  6
Continuous
100
AcDbCircle
 10
376.7367827710462
 20
270.1984957753079
 30
0.0
 40
1.0
100
AcDbArc
 50
0.0
 51
90.0
  0
LINE
  5
F94
330
18
100
AcDbEntity
  8
4
  6
CENTER
 48
0.5
100
AcDbLine
 10
456.9853045491798
 20
264.1984957753231
 30
0.0
 11
470.5322583073341
 21
264.1984957753231
 31
0.0
  0
LINE
  5
F95
330
18
100
AcDbEntity
  8
1
  6
Continuous
100
AcDbLine
 10
451.358599963727
 20
246.9984957753231
 30
0.0
 11
450.058599963727
 21
245.6984957753231
 31
0.0
  0
LINE
  5
F96
330
18
100
AcDbEntity
  8
1
  6
Continuous
100
AcDbLine
 10
451.358599963727
 20
245.6984957753231
 30
0.0
 11
450.058599963727
 21
244.3984957753231
 31
0.0
  0
LINE
  5
F97
330
18
100
AcDbEntity
  8
1
  6
Continuous
100
AcDbLine
 10
450.058599963727
 20
250.2984957753231
 30
0.0
 11
451.358599963727
 21
250.2984957753231
 31
0.0
  0
LINE
  5
F98
330
18
100
AcDbEntity
  8
4
  6
CENTER
 48
0.5
100
AcDbLine
 10
444.5537372590011
 20
245.6984957753231
 30
0.0
 11
455.2926946270386
 21
245.6984957753231
 31
0.0
  0
ARC
  5
F99
330
18
100
AcDbEntity
  8
1
  6
Continuous
100
AcDbCircle
 10
448.7365506840528
 20
248.4767197106434
 30
0.0
 40
1.6
100
AcDbArc
 50
94.99999999999976
 51
164.5060324994778
  0
LINE
  5
F9A
330
18
100
AcDbEntity
  8
1
  6
Continuous
100
AcDbLine
 10
450.0585999637272
 20
250.1984957753232
 30
0.0
 11
448.5971014956319
 21
250.0706312276042
 31
0.0
  0
ARC
  5
F9B
330
18
100
AcDbEntity
  8
1
  6
Continuous
100
AcDbCircle
 10
458.7585999637267
 20
245.6984957753231
 30
0.0
 40
12.0
100
AcDbArc
 50
164.5060324994778
 51
195.4939675005221
  0
LINE
  5
F9C
330
18
100
AcDbEntity
  8
1
  6
Continuous
100
AcDbLine
 10
451.358599963727
 20
251.6984957753226
 30
0.0
 11
452.1585999637271
 21
251.6984957753225
 31
0.0
  0
ARC
  5
F9D
330
18
100
AcDbEntity
  8
1
  6
Continuous
100
AcDbCircle
 10
468.3853045491802
 20
264.1984957753231
 30
0.0
 40
9.0
100
AcDbArc
 50
164.1191499917206
 51
195.8808500082794
  0
LINE
  5
F9E
330
18
100
AcDbEntity
  8
1
  6
Continuous
100
AcDbLine
 10
462.9853045491802
 20
264.1984957753231
 30
0.0
 11
461.9853045491801
 21
263.1984957753231
 31
0.0
  0
LINE
  5
FA0
330
18
100
AcDbEntity
  8
1
  6
Continuous
100
AcDbLine
 10
462.9853045491795
 20
259.6984957753241
 30
0.0
 11
462.9853045491806
 21
269.6984957753241
 31
0.0
  0
LINE
  5
FA1
330
18
100
AcDbEntity
  8
1
  6
Continuous
100
AcDbLine
 10
461.9853045491801
 20
267.9984957753233
 30
0.0
 11
461.9853045491801
 21
260.3984957753231
 31
0.0
  0
LINE
  5
FA2
330
18
100
AcDbEntity
  8
1
  6
Continuous
100
AcDbLine
 10
467.9853045491795
 20
259.1984957753239
 30
0.0
 11
467.9853045491806
 21
270.1984957753239
 31
0.0
  0
LINE
  5
FA3
330
18
100
AcDbEntity
  8
1
  6
Continuous
100
AcDbLine
 10
467.9853045491798
 20
259.1984957753239
 30
0.0
 11
463.4853045491798
 21
259.1984957753241
 31
0.0
  0
LINE
  5
FA4
330
18
100
AcDbEntity
  8
1
  6
Continuous
100
AcDbLine
 10
461.9853045491801
 20
260.3984957753231
 30
0.0
 11
462.9853045491802
 21
260.3984957753231
 31
0.0
  0
ARC
  5
FA5
330
18
100
AcDbEntity
  8
1
  6
Continuous
100
AcDbCircle
 10
463.4853045491795
 20
259.6984957753241
 30
0.0
 40
0.5
100
AcDbArc
 50
179.999999999995
 51
269.999999999995
  0
LINE
  5
FA6
330
18
100
AcDbEntity
  8
1
  6
Continuous
100
AcDbLine
 10
461.9853045491802
 20
260.6984957753232
 30
0.0
 11
460.8658893593458
 21
260.7964319142124
 31
0.0
  0
ARC
  5
FA7
330
18
100
AcDbEntity
  8
1
  6
Continuous
100
AcDbCircle
 10
460.9791918249575
 20
262.0914850217369
 30
0.0
 40
1.3
100
AcDbArc
 50
195.8808500082794
 51
265.0000000000001
  0
LINE
  5
FA8
330
18
100
AcDbEntity
  8
1
  6
Continuous
100
AcDbLine
 10
467.9853045491806
 20
270.1984957753239
 30
0.0
 11
463.4853045491806
 21
270.1984957753241
 31
0.0
  0
LINE
  5
FA9
330
18
100
AcDbEntity
  8
1
  6
Continuous
100
AcDbLine
 10
461.9853045491801
 20
267.9984957753233
 30
0.0
 11
462.9853045491802
 21
267.9984957753233
 31
0.0
  0
ARC
  5
FAA
330
18
100
AcDbEntity
  8
1
  6
Continuous
100
AcDbCircle
 10
463.4853045491809
 20
269.6984957753241
 30
0.0
 40
0.5
100
AcDbArc
 50
89.99999999999515
 51
179.999999999995
  0
LINE
  5
FAB
330
18
100
AcDbEntity
  8
1
  6
Continuous
100
AcDbLine
 10
461.9853045491801
 20
267.6984957753231
 30
0.0
 11
460.8658893593793
 21
267.6005596364368
 31
0.0
  0
LINE
  5
FAC
330
18
100
AcDbEntity
  8
1
  6
Continuous
100
AcDbLine
 10
462.9853045491802
 20
265.1984957753231
 30
0.0
 11
461.9853045491801
 21
264.1984957753231
 31
0.0
  0
ARC
  5
FAD
330
18
100
AcDbEntity
  8
1
  6
Continuous
100
AcDbCircle
 10
460.9791918249711
 20
266.3055065289061
 30
0.0
 40
1.3
100
AcDbArc
 50
94.99999999999976
 51
164.1191499917206
  0
LINE
  5
FB4
330
18
100
AcDbEntity
  8
4
  6
CENTER
 48
0.5
100
AcDbLine
 10
483.8536960335152
 20
264.1984957753241
 30
0.0
 11
495.7361317833481
 21
264.1984957753239
 31
0.0
  0
LINE
  5
FB5
330
18
100
AcDbEntity
  8
1
  6
Continuous
100
AcDbLine
 10
488.0831846336477
 20
260.6984957753239
 30
0.0
 11
490.5831846336477
 21
260.6984957753238
 31
0.0
  0
LINE
  5
FB6
330
18
100
AcDbEntity
  8
1
  6
Continuous
100
AcDbLine
 10
488.0831846336477
 20
267.6984957753239
 30
0.0
 11
490.5831846336477
 21
267.6984957753238
 31
0.0
  0
ARC
  5
FB7
330
18
100
AcDbEntity
  8
1
  6
Continuous
100
AcDbCircle
 10
490.5831846336477
 20
257.1984957753213
 30
0.0
 40
1.0
100
AcDbArc
 50
90.0
 51
180.0
  0
LINE
  5
FB8
330
18
100
AcDbEntity
  8
1
  6
Continuous
100
AcDbLine
 10
490.5831846336477
 20
258.1984957753212
 30
0.0
 11
476.5831846336475
 21
258.198495775324
 31
0.0
  0
LINE
  5
FB9
330
18
100
AcDbEntity
  8
4
  6
CENTER
100
AcDbLine
 10
506.3199849980128
 20
245.6984957753179
 30
0.0
 11
469.3613942839153
 21
245.6984957753258
 31
0.0
  0
LINE
  5
FBA
330
18
100
AcDbEntity
  8
1
  6
Continuous
100
AcDbLine
 10
488.0831846336477
 20
267.6984957753239
 30
0.0
 11
488.0831846336477
 21
260.698495775324
 31
0.0
  0
LINE
  5
FBB
330
18
100
AcDbEntity
  8
1
  6
Continuous
100
AcDbLine
 10
487.5831846336477
 20
261.1984957753239
 30
0.0
 11
487.5831846336477
 21
267.1984957753239
 31
0.0
  0
LINE
  5
FBC
330
18
100
AcDbEntity
  8
1
  6
Continuous
100
AcDbLine
 10
474.0831846336453
 20
250.6984957753259
 30
0.0
 11
476.0831846336478
 21
250.698495775327
 31
0.0
  0
LINE
  5
FBD
330
18
100
AcDbEntity
  8
1
  6
Continuous
100
AcDbLine
 10
474.0831846336482
 20
245.0416415258984
 30
0.0
 11
476.0831846336478
 21
245.0416415258994
 31
0.0
  0
LINE
  5
FBE
330
18
100
AcDbEntity
  8
1
  6
Continuous
100
AcDbLine
 10
474.0831846336477
 20
246.3553500247737
 30
0.0
 11
476.0831846336478
 21
246.3553500247749
 31
0.0
  0
LINE
  5
FBF
330
18
100
AcDbEntity
  8
1
  6
Continuous
100
AcDbLine
 10
478.1831846336478
 20
252.6984957753229
 30
0.0
 11
478.0831846336492
 21
252.6984957753229
 31
0.0
  0
LINE
  5
FC0
330
18
100
AcDbEntity
  8
1
  6
Continuous
100
AcDbLine
 10
478.0831846336478
 20
255.4412815678924
 30
0.0
 11
476.0831846336478
 21
255.4412815678924
 31
0.0
  0
ARC
  5
FC1
330
18
100
AcDbEntity
  8
1
  6
Continuous
100
AcDbCircle
 10
478.3831846336475
 20
254.1587498131514
 30
0.0
 40
0.1999999999999886
100
AcDbArc
 50
90.0
 51
180.0
  0
LINE
  5
FC2
330
18
100
AcDbEntity
  8
1
  6
Continuous
100
AcDbLine
 10
476.5831846336478
 20
256.3983701463988
 30
0.0
 11
478.5831846336477
 21
256.3983701464016
 31
0.0
  0
LINE
  5
FC3
330
18
100
AcDbEntity
  8
1
  6
Continuous
100
AcDbLine
 10
478.3831846336475
 20
254.3587498131515
 30
0.0
 11
478.5831846336477
 21
254.3587498131515
 31
0.0
  0
ARC
  5
FC4
330
18
100
AcDbEntity
  8
1
  6
Continuous
100
AcDbCircle
 10
476.5831846336475
 20
256.598370146399
 30
0.0
 40
0.2
100
AcDbArc
 50
180.0
 51
270.0
  0
ARC
  5
FC5
330
18
100
AcDbEntity
  8
1
  6
Continuous
100
AcDbCircle
 10
476.5831846336475
 20
257.9984957753241
 30
0.0
 40
0.2
100
AcDbArc
 50
90.0
 51
180.0
  0
LINE
  5
FC6
330
18
100
AcDbEntity
  8
1
  6
Continuous
100
AcDbLine
 10
478.0831846336478
 20
253.2517418444326
 30
0.0
 11
478.1831846336478
 21
253.2517418444326
 31
0.0
  0
LINE
  5
FC7
330
18
100
AcDbEntity
  8
1
  6
Continuous
100
AcDbLine
 10
476.3831846336477
 20
257.9984957753241
 30
0.0
 11
476.3831846336477
 21
255.4412815678924
 31
0.0
  0
LINE
  5
FC8
330
18
100
AcDbEntity
  8
1
  6
Continuous
100
AcDbLine
 10
476.0831846336478
 20
255.4412815678865
 30
0.0
 11
476.3831846336478
 21
255.4412815678865
 31
0.0
  0
LINE
  5
FC9
330
18
100
AcDbEntity
  8
1
  6
Continuous
100
AcDbLine
 10
487.5831846336478
 20
261.1984957753238
 30
0.0
 11
488.0831846336477
 21
260.6984957753239
 31
0.0
  0
LINE
  5
FCA
330
18
100
AcDbEntity
  8
1
  6
Continuous
100
AcDbLine
 10
488.0831846336477
 20
267.6984957753237
 30
0.0
 11
487.5831846336478
 21
267.1984957753235
 31
0.0
  0
ARC
  5
FCB
330
18
100
AcDbEntity
  8
1
  6
Continuous
100
AcDbCircle
 10
497.5831846336482
 20
250.3158543275656
 30
0.0
 40
4.0
100
AcDbArc
 50
41.40962210927095
 51
58.76707098448759
  0
ARC
  5
FCC
330
18
100
AcDbEntity
  8
1
  6
Continuous
100
AcDbCircle
 10
471.5831846336477
 20
245.2804598907616
 30
0.0
 40
30.0
100
AcDbArc
 50
0.000000000000007
 51
14.83511158197576
  0
ARC
  5
FCD
330
18
100
AcDbEntity
  8
5
  6
PHANTOM
 48
0.5
100
AcDbCircle
 10
478.6739033188703
 20
228.9980224430415
 30
0.0
 40
30.0
100
AcDbArc
 50
45.00000000000028
 51
48.42171808809201
  0
ARC
  5
FCE
330
18
100
AcDbEntity
  8
1
  6
Continuous
100
AcDbCircle
 10
494.7831846336478
 20
245.6984957753196
 30
0.0
 40
9.4
100
AcDbArc
 50
58.76707098448759
 51
66.15552997649611
  0
ARC
  5
FCF
330
18
100
AcDbEntity
  8
1
  6
Continuous
100
AcDbCircle
 10
470.9156075707051
 20
248.1203995115897
 30
0.0
 40
32.0
100
AcDbArc
 50
30.6559624057232
 51
45.41392332415525
  0
ARC
  5
FD0
330
18
100
AcDbEntity
  8
1
  6
Continuous
100
AcDbCircle
 10
492.6769877054526
 20
270.1984957753305
 30
0.0
 40
1.0
100
AcDbArc
 50
45.41392332415525
 51
90.0
  0
LINE
  5
FD1
330
18
100
AcDbEntity
  8
1
  6
Continuous
100
AcDbLine
 10
490.5831846336477
 20
271.1984957753238
 30
0.0
 11
492.6769877054526
 21
271.1984957753238
 31
0.0
  0
ARC
  5
FD2
330
18
100
AcDbEntity
  8
1
  6
Continuous
100
AcDbCircle
 10
497.5831846336478
 20
263.926737910852
 30
0.0
 40
1.0
100
AcDbArc
 50
0.000000000000007
 51
30.65596240572231
  0
LINE
  5
2285
330
18
100
AcDbEntity
  8
4
  6
CENTER
100
AcDbLine
 10
214.8765257353857
 20
45.35161328378296
 30
0.0
 11
214.8765257353857
 21
67.41475085030856
 31
0.0
  0
LINE
  5
229D
330
18
100
AcDbEntity
  8
4
  6
CENTER
 48
0.5
100
AcDbLine
 10
215.6377041448088
 20
156.6984957753097
 30
0.0
 11
203.8817050442746
 21
156.6984957753097
 31
0.0
  0
LINE
  5
229F
330
18
100
AcDbEntity
  8
4
  6
CENTER
 48
0.5
100
AcDbLine
 10
506.0709810468063
 20
156.6984957753097
 30
0.0
 11
495.2607090156158
 21
156.6984957753097
 31
0.0
  0
LINE
  5
231E
330
18
100
AcDbEntity
  8
1
  6
Continuous
100
AcDbLine
 10
219.076525735304
 20
271.1984957753238
 30
0.0
 11
219.076525735304
 21
129.1984957753238
 31
0.0
  0
LINE
  5
233C
330
18
100
AcDbEntity
  8
4
  6
CENTER
100
AcDbLine
 10
352.5809256637657
 20
136.1984957753221
 30
0.0
 11
371.018715622897
 21
136.1984957753221
 31
0.0
  0
LINE
  5
2356
330
18
100
AcDbEntity
  8
1
  6
Continuous
100
AcDbLine
 10
490.5831846336477
 20
271.1984957753238
 30
0.0
 11
490.5831846336477
 21
129.1984957753238
 31
0.0
  0
LINE
  5
2359
330
18
100
AcDbEntity
  8
1
  6
Continuous
100
AcDbLine
 10
219.0765257352122
 20
369.6748505598358
 30
0.0
 11
219.0765257352122
 21
337.6748505598358
 31
0.0
  0
LINE
  5
236D
330
18
100
AcDbEntity
  8
1
  6
Continuous
100
AcDbLine
 10
351.0367827710821
 20
142.1984957753221
 30
0.0
 11
372.4367827710823
 21
142.198495775322
 31
0.0
  0
ARC
  5
236E
330
18
100
AcDbEntity
  8
1
  6
Continuous
100
AcDbCircle
 10
351.0367827710823
 20
256.198495775322
 30
0.0
 40
2.0
100
AcDbArc
 50
90.0
 51
180.0
  0
ARC
  5
236F
330
18
100
AcDbEntity
  8
1
  6
Continuous
100
AcDbCircle
 10
372.4367827710823
 20
256.198495775322
 30
0.0
 40
2.0
100
AcDbArc
 50
0.0000000000000509
 51
90.0
  0
LINE
  5
2370
330
18
100
AcDbEntity
  8
1
  6
Continuous
100
AcDbLine
 10
351.0367827710815
 20
258.1984957753253
 30
0.0
 11
372.4367827710816
 21
258.1984957753334
 31
0.0
  0
ARC
  5
2371
330
18
100
AcDbEntity
  8
1
  6
Continuous
100
AcDbCircle
 10
351.0367827710821
 20
144.1984957753221
 30
0.0
 40
2.0
100
AcDbArc
 50
179.9999999999999
 51
270.0
  0
ARC
  5
2372
330
18
100
AcDbEntity
  8
1
  6
Continuous
100
AcDbCircle
 10
372.4367827710823
 20
144.198495775322
 30
0.0
 40
2.0
100
AcDbArc
 50
270.0
 51
0.0
  0
LINE
  5
2374
330
18
100
AcDbEntity
  8
1
  6
Continuous
100
AcDbLine
 10
219.0765257353008
 20
72.64181385467759
 30
0.0
 11
219.0765257353008
 21
40.64181385467759
 31
0.0
  0
ENDSEC
  0
SECTION
  2
OBJECTS
  0
DICTIONARY
  5
C
330
0
100
AcDbDictionary
281
     1
  3
ACAD_CIP_PREVIOUS_PRODUCT_INFO
350
2FDB
  3
ACAD_COLOR
350
2FBE
  3
ACAD_DETAILVIEWSTYLE
350
2FD7
  3
ACAD_GROUP
350
D
  3
ACAD_LAYOUT
350
5D
  3
ACAD_MATERIAL
350
2F8C
  3
ACAD_MLEADERSTYLE
350
2FD3
  3
ACAD_MLINESTYLE
350
1B
  3
ACAD_PLOTSETTINGS
350
5E
  3
ACAD_PLOTSTYLENAME
350
2F8A
  3
ACAD_SCALELIST
350
2FC1
  3
ACAD_SECTIONVIEWSTYLE
350
2FD5
  3
ACAD_TABLESTYLE
350
2FBF
  3
ACAD_VISUALSTYLE
350
2FA5
  3
ACDB_RECOMPOSE_DATA
350
2FF9
  3
AcDbVariableDictionary
350
2FEC
  3
CONTENTDICTIONARY
350
3D
  3
DWGPROPS
350
2FFA
  0
DICTIONARY
  5
2FDC
330
E
100
AcDbDictionary
280
     1
281
     1
  3
ADSK_XREC_LAYER_RECONCILED
360
2FDD
  0
DICTIONARY
  5
2FDE
330
80F
100
AcDbDictionary
280
     1
281
     1
  3
ADSK_XREC_LAYER_RECONCILED
360
2FDF
  0
DICTIONARY
  5
2FE0
330
810
100
AcDbDictionary
280
     1
281
     1
  3
ADSK_XREC_LAYER_RECONCILED
360
2FE1
  0
DICTIONARY
  5
2FE2
330
811
100
AcDbDictionary
280
     1
281
     1
  3
ADSK_XREC_LAYER_RECONCILED
360
2FE3
  0
DICTIONARY
  5
2FE4
330
812
100
AcDbDictionary
280
     1
281
     1
  3
ADSK_XREC_LAYER_RECONCILED
360
2FE5
  0
DICTIONARY
  5
2FE6
330
813
100
AcDbDictionary
280
     1
281
     1
  3
ADSK_XREC_LAYER_RECONCILED
360
2FE7
  0
DICTIONARY
  5
2FE8
330
814
100
AcDbDictionary
280
     1
281
     1
  3
ADSK_XREC_LAYER_RECONCILED
360
2FE9
  0
DICTIONARY
  5
2FEA
330
815
100
AcDbDictionary
280
     1
281
     1
  3
ADSK_XREC_LAYER_RECONCILED
360
2FEB
  0
DICTIONARY
  5
2312
330
18
100
AcDbDictionary
281
     1
  3
ACAD_LAYOUTSELFREF
350
2F86
  0
DICTIONARY
  5
2310
330
15
100
AcDbDictionary
281
     1
  3
ACAD_LAYOUTSELFREF
350
2F85
  0
XRECORD
  5
2FDB
102
{ACAD_REACTORS
330
C
102
}
330
C
100
AcDbXrecord
280
     1
300
ACDLT
300
2014
300
ACDLT_F_S
  0
DICTIONARY
  5
2FBE
102
{ACAD_REACTORS
330
C
102
}
330
C
100
AcDbDictionary
281
     1
  0
DICTIONARY
  5
2FD7
102
{ACAD_REACTORS
330
C
102
}
330
C
100
AcDbDictionary
281
     1
  3
Imperial24
350
2FD8
  0
DICTIONARY
  5
D
102
{ACAD_REACTORS
330
C
102
}
330
C
100
AcDbDictionary
281
     1
  0
DICTIONARY
  5
5D
102
{ACAD_REACTORS
330
C
102
}
330
C
100
AcDbDictionary
281
     1
  3
Model
350
2FD9
  3
レイアウト1
350
2FDA
  0
DICTIONARY
  5
2F8C
102
{ACAD_REACTORS
330
C
102
}
330
C
100
AcDbDictionary
281
     1
  3
ByBlock
350
2F95
  3
ByLayer
350
2F8D
  3
Global
350
2F9D
  0
DICTIONARY
  5
2FD3
102
{ACAD_REACTORS
330
C
102
}
330
C
100
AcDbDictionary
281
     1
  3
Standard
350
2FD4
  0
DICTIONARY
  5
1B
102
{ACAD_REACTORS
330
C
102
}
330
C
100
AcDbDictionary
281
     1
  3
STANDARD
350
1C
  0
DICTIONARY
  5
5E
102
{ACAD_REACTORS
330
C
102
}
330
C
100
AcDbDictionary
281
     1
  0
ACDBDICTIONARYWDFLT
  5
2F8A
102
{ACAD_REACTORS
330
C
102
}
330
C
100
AcDbDictionary
281
     1
  3
Normal
350
2F8B
100
AcDbDictionaryWithDefault
340
2F8B
  0
DICTIONARY
  5
2FC1
102
{ACAD_REACTORS
330
C
102
}
330
C
100
AcDbDictionary
281
     1
  3
A0
350
2FC2
  3
A1
350
2FC3
  3
A2
350
2FC4
  3
A3
350
2FC5
  3
A4
350
2FC6
  3
A5
350
2FC7
  3
A6
350
2FC8
  3
A7
350
2FC9
  3
A8
350
2FCA
  3
A9
350
2FCB
  3
B0
350
2FCC
  3
B1
350
2FCD
  3
B2
350
2FCE
  3
B3
350
2FCF
  3
B4
350
2FD0
  3
B5
350
2FD1
  3
B6
350
2FD2
  0
DICTIONARY
  5
2FD5
102
{ACAD_REACTORS
330
C
102
}
330
C
100
AcDbDictionary
281
     1
  3
Imperial24
350
2FD6
  0
DICTIONARY
  5
2FBF
102
{ACAD_REACTORS
330
C
102
}
330
C
100
AcDbDictionary
281
     1
  3
Standard
350
2FC0
  0
DICTIONARY
  5
2FA5
102
{ACAD_REACTORS
330
C
102
}
330
C
100
AcDbDictionary
281
     1
  3
2dWireframe
350
2FAB
  3
Basic
350
2FAA
  3
Brighten
350
2FB1
  3
ColorChange
350
2FB5
  3
Conceptual
350
2FAE
  3
Dim
350
2FB0
  3
EdgeColorOff
350
2FBD
  3
Facepattern
350
2FB4
  3
Flat
350
2FA6
  3
FlatWithEdges
350
2FA7
  3
Gouraud
350
2FA8
  3
GouraudWithEdges
350
2FA9
  3
Hidden
350
2FAD
  3
JitterOff
350
2FBB
  3
Linepattern
350
2FB3
  3
OverhangOff
350
2FBC
  3
Realistic
350
2FAF
  3
Shaded
350
2FBA
  3
Shaded with edges
350
2FB9
  3
Shades of Gray
350
2FB6
  3
Sketchy
350
2FB7
  3
Thicken
350
2FB2
  3
Wireframe
350
2FAC
  3
X-Ray
350
2FB8
  0
XRECORD
  5
2FF9
102
{ACAD_REACTORS
330
C
102
}
330
C
100
AcDbXrecord
280
     1
 90
        1
330
2FC0
  0
DICTIONARY
  5
2FEC
102
{ACAD_REACTORS
330
C
102
}
330
C
100
AcDbDictionary
281
     1
  3
CANNOSCALE
350
2FF1
  3
CMLEADERSTYLE
350
2FEE
  3
CTABLESTYLE
350
2FED
  3
CVIEWDETAILSTYLE
350
2FEF
  3
CVIEWSECTIONSTYLE
350
2FF0
  3
DIMASSOC
350
2FF4
  3
INDEXCTL
350
2FF3
  3
SORTENTS
350
2FF2
  3
XCLIPFRAME
350
2FF5
  0
DICTIONARY
  5
3D
102
{ACAD_REACTORS
330
C
102
}
330
C
100
AcDbDictionary
281
     1
  0
XRECORD
  5
2FFA
102
{ACAD_REACTORS
330
C
102
}
330
C
100
AcDbXrecord
280
     1
  1
DWGPROPS COOKIE
  2

  3

  4

  6

  7

  8
Yoshitsune
  9

300
=
301
=
302
=
303
=
304
=
305
=
306
=
307
=
308
=
309
=
 40
0.1204337731481482
 41
2453031.60195529
 42
2457192.643619433
  1

 90
        0
  0
XRECORD
  5
2FDD
102
{ACAD_REACTORS
330
2FDC
102
}
330
2FDC
100
AcDbXrecord
280
     1
290
     1
  0
XRECORD
  5
2FDF
102
{ACAD_REACTORS
330
2FDE
102
}
330
2FDE
100
AcDbXrecord
280
     1
290
     1
  0
XRECORD
  5
2FE1
102
{ACAD_REACTORS
330
2FE0
102
}
330
2FE0
100
AcDbXrecord
280
     1
290
     1
  0
XRECORD
  5
2FE3
102
{ACAD_REACTORS
330
2FE2
102
}
330
2FE2
100
AcDbXrecord
280
     1
290
     1
  0
XRECORD
  5
2FE5
102
{ACAD_REACTORS
330
2FE4
102
}
330
2FE4
100
AcDbXrecord
280
     1
290
     1
  0
XRECORD
  5
2FE7
102
{ACAD_REACTORS
330
2FE6
102
}
330
2FE6
100
AcDbXrecord
280
     1
290
     1
  0
XRECORD
  5
2FE9
102
{ACAD_REACTORS
330
2FE8
102
}
330
2FE8
100
AcDbXrecord
280
     1
290
     1
  0
XRECORD
  5
2FEB
102
{ACAD_REACTORS
330
2FEA
102
}
330
2FEA
100
AcDbXrecord
280
     1
290
     1
  0
XRECORD
  5
2F86
102
{ACAD_REACTORS
330
2312
102
}
330
2312
100
AcDbXrecord
280
     1
340
18
  0
XRECORD
  5
2F85
102
{ACAD_REACTORS
330
2310
102
}
330
2310
100
AcDbXrecord
280
     1
340
15
  0
ACDBDETAILVIEWSTYLE
  5
2FD8
102
{ACAD_XDICTIONARY
360
3032
102
}
102
{ACAD_REACTORS
330
2FD7
102
}
330
2FD7
100
AcDbModelDocViewStyle
 70
     0
  3
Imperial24
290
     0
100
AcDbDetailViewStyle
 70
     0
 71
     0
 90
        3
 71
     1
340
F
 40
0.24
340
0
 40
0.24
300

 40
0.36
280
     3
 71
     2
340
14
 90
       25
 71
     3
340
F
 40
0.24
 90
        1
 40
0.75
 90
        1
300
%<\AcVar ViewType \f "%tc1">% %<\AcVar ViewDetailId>%\PSCALE %<\AcVar ViewScale \f "%sn">%
 71
     4
340
14
 90
       25
340
14
 90
       25
280
     0
  0
LAYOUT
  5
2FD9
102
{ACAD_XDICTIONARY
360
3034
102
}
102
{ACAD_REACTORS
330
5D
102
}
330
5D
100
AcDbPlotSettings
  1

  2
Canon LBP9100C
  4

  6

 40
0.0
 41
0.0
 42
0.0
 43
0.0
 44
0.0
 45
0.0
 46
0.0
 47
0.0
 48
0.0
 49
0.0
140
0.0
141
0.0
142
1.0
143
1.0
 70
  1712
 72
     0
 73
     0
 74
     0
  7

 75
     0
147
1.0
148
0.0
149
0.0
100
AcDbLayout
  1
Model
 70
     1
 71
     0
 10
0.0
 20
0.0
 11
12.0
 21
9.0
 12
0.0
 22
0.0
 32
0.0
 14
0.0
 24
0.0
 34
0.0
 15
0.0
 25
0.0
 35
0.0
146
0.0
 13
0.0
 23
0.0
 33
0.0
 16
1.0
 26
0.0
 36
0.0
 17
0.0
 27
1.0
 37
0.0
 76
     0
330
18
331
2F84
  0
LAYOUT
  5
2FDA
102
{ACAD_XDICTIONARY
360
3036
102
}
102
{ACAD_REACTORS
330
5D
102
}
330
5D
100
AcDbPlotSettings
  1

  2
Canon LBP9100C
  4

  6

 40
0.0
 41
0.0
 42
0.0
 43
0.0
 44
0.0
 45
0.0
 46
0.0
 47
0.0
 48
0.0
 49
0.0
140
0.0
141
0.0
142
1.0
143
1.0
 70
   688
 72
     0
 73
     0
 74
     5
  7

 75
    16
147
1.0
148
0.0
149
0.0
100
AcDbLayout
  1
レイアウト1
 70
     1
 71
     1
 10
0.0
 20
0.0
 11
420.0
 21
297.0
 12
0.0
 22
0.0
 32
0.0
 14
1.000000000000000E+20
 24
1.000000000000000E+20
 34
1.000000000000000E+20
 15
-1.000000000000000E+20
 25
-1.000000000000000E+20
 35
-1.000000000000000E+20
146
0.0
 13
0.0
 23
0.0
 33
0.0
 16
1.0
 26
0.0
 36
0.0
 17
0.0
 27
1.0
 37
0.0
 76
     0
330
15
  0
MATERIAL
  5
2F95
102
{ACAD_XDICTIONARY
360
2F96
102
}
102
{ACAD_REACTORS
330
2F8C
102
}
330
2F8C
100
AcDbMaterial
  1
ByBlock
 72
     0
 43
0.0208333333333333
 43
0.0
 43
0.0
 43
0.0
 43
0.0
 43
0.0208333333333333
 43
0.0
 43
0.0
 43
0.0
 43
0.0
 43
1.0
 43
0.0
 43
0.0
 43
0.0
 43
0.0
 43
1.0
 77
     0
 47
0.0208333333333333
 47
0.0
 47
0.0
 47
0.0
 47
0.0
 47
0.0208333333333333
 47
0.0
 47
0.0
 47
0.0
 47
0.0
 47
1.0
 47
0.0
 47
0.0
 47
0.0
 47
0.0
 47
1.0
171
     0
 49
0.0208333333333333
 49
0.0
 49
0.0
 49
0.0
 49
0.0
 49
0.0208333333333333
 49
0.0
 49
0.0
 49
0.0
 49
0.0
 49
1.0
 49
0.0
 49
0.0
 49
0.0
 49
0.0
 49
1.0
175
     0
142
0.0208333333333333
142
0.0
142
0.0
142
0.0
142
0.0
142
0.0208333333333333
142
0.0
142
0.0
142
0.0
142
0.0
142
1.0
142
0.0
142
0.0
142
0.0
142
0.0
142
1.0
179
     0
144
0.0208333333333333
144
0.0
144
0.0
144
0.0
144
0.0
144
0.0208333333333333
144
0.0
144
0.0
144
0.0
144
0.0
144
1.0
144
0.0
144
0.0
144
0.0
144
0.0
144
1.0
147
0.0208333333333333
147
0.0
147
0.0
147
0.0
147
0.0
147
0.0208333333333333
147
0.0
147
0.0
147
0.0
147
0.0
147
1.0
147
0.0
147
0.0
147
0.0
147
0.0
147
1.0
  0
MATERIAL
  5
2F8D
102
{ACAD_XDICTIONARY
360
2F8E
102
}
102
{ACAD_REACTORS
330
2F8C
102
}
330
2F8C
100
AcDbMaterial
  1
ByLayer
 72
     0
 43
0.0208333333333333
 43
0.0
 43
0.0
 43
0.0
 43
0.0
 43
0.0208333333333333
 43
0.0
 43
0.0
 43
0.0
 43
0.0
 43
1.0
 43
0.0
 43
0.0
 43
0.0
 43
0.0
 43
1.0
 77
     0
 47
0.0208333333333333
 47
0.0
 47
0.0
 47
0.0
 47
0.0
 47
0.0208333333333333
 47
0.0
 47
0.0
 47
0.0
 47
0.0
 47
1.0
 47
0.0
 47
0.0
 47
0.0
 47
0.0
 47
1.0
171
     0
 49
0.0208333333333333
 49
0.0
 49
0.0
 49
0.0
 49
0.0
 49
0.0208333333333333
 49
0.0
 49
0.0
 49
0.0
 49
0.0
 49
1.0
 49
0.0
 49
0.0
 49
0.0
 49
0.0
 49
1.0
175
     0
142
0.0208333333333333
142
0.0
142
0.0
142
0.0
142
0.0
142
0.0208333333333333
142
0.0
142
0.0
142
0.0
142
0.0
142
1.0
142
0.0
142
0.0
142
0.0
142
0.0
142
1.0
179
     0
144
0.0208333333333333
144
0.0
144
0.0
144
0.0
144
0.0
144
0.0208333333333333
144
0.0
144
0.0
144
0.0
144
0.0
144
1.0
144
0.0
144
0.0
144
0.0
144
0.0
144
1.0
147
0.0208333333333333
147
0.0
147
0.0
147
0.0
147
0.0
147
0.0208333333333333
147
0.0
147
0.0
147
0.0
147
0.0
147
1.0
147
0.0
147
0.0
147
0.0
147
0.0
147
1.0
  0
MATERIAL
  5
2F9D
102
{ACAD_XDICTIONARY
360
2F9E
102
}
102
{ACAD_REACTORS
330
2F8C
102
}
330
2F8C
100
AcDbMaterial
  1
Global
 72
     0
 43
0.0208333333333333
 43
0.0
 43
0.0
 43
0.0
 43
0.0
 43
0.0208333333333333
 43
0.0
 43
0.0
 43
0.0
 43
0.0
 43
1.0
 43
0.0
 43
0.0
 43
0.0
 43
0.0
 43
1.0
 77
     0
 47
0.0208333333333333
 47
0.0
 47
0.0
 47
0.0
 47
0.0
 47
0.0208333333333333
 47
0.0
 47
0.0
 47
0.0
 47
0.0
 47
1.0
 47
0.0
 47
0.0
 47
0.0
 47
0.0
 47
1.0
171
     0
 49
0.0208333333333333
 49
0.0
 49
0.0
 49
0.0
 49
0.0
 49
0.0208333333333333
 49
0.0
 49
0.0
 49
0.0
 49
0.0
 49
1.0
 49
0.0
 49
0.0
 49
0.0
 49
0.0
 49
1.0
175
     0
142
0.0208333333333333
142
0.0
142
0.0
142
0.0
142
0.0
142
0.0208333333333333
142
0.0
142
0.0
142
0.0
142
0.0
142
1.0
142
0.0
142
0.0
142
0.0
142
0.0
142
1.0
179
     0
144
0.0208333333333333
144
0.0
144
0.0
144
0.0
144
0.0
144
0.0208333333333333
144
0.0
144
0.0
144
0.0
144
0.0
144
1.0
144
0.0
144
0.0
144
0.0
144
0.0
144
1.0
147
0.0208333333333333
147
0.0
147
0.0
147
0.0
147
0.0
147
0.0208333333333333
147
0.0
147
0.0
147
0.0
147
0.0
147
1.0
147
0.0
147
0.0
147
0.0
147
0.0
147
1.0
  0
MLEADERSTYLE
  5
2FD4
102
{ACAD_REACTORS
330
2FD3
102
}
330
2FD3
100
AcDbMLeaderStyle
170
     2
171
     1
172
     0
 90
        2
 40
0.0
 41
0.0
173
     1
 91
-1056964608
340
12
 92
       -2
290
     1
 42
0.09
291
     1
 43
0.36
  3
Standard
 44
0.18
300

342
F
174
     1
178
     6
175
     1
176
     0
 93
-1056964608
 45
0.18
292
     0
297
     0
 46
0.18
 94
-1056964608
 47
1.0
 49
1.0
140
1.0
293
     1
141
0.0
294
     1
177
     0
142
1.0
295
     0
296
     0
143
0.125
1001
ACAD_MLEADERVER
1070
     2
  0
MLINESTYLE
  5
1C
102
{ACAD_REACTORS
330
1B
102
}
330
1B
100
AcDbMlineStyle
  2
STANDARD
 70
     0
  3

 62
   256
 51
90.0
 52
90.0
 71
     2
 49
0.5
 62
   256
  6
BYLAYER
 49
-0.5
 62
   256
  6
BYLAYER
  0
ACDBPLACEHOLDER
  5
2F8B
102
{ACAD_REACTORS
330
2F8A
102
}
330
2F8A
  0
SCALE
  5
2FC2
102
{ACAD_REACTORS
330
2FC1
102
}
330
2FC1
100
AcDbScale
 70
     0
300
1:1
140
1.0
141
1.0
290
     1
  0
SCALE
  5
2FC3
102
{ACAD_REACTORS
330
2FC1
102
}
330
2FC1
100
AcDbScale
 70
     0
300
1/128" = 1'-0"
140
0.0078125
141
12.0
290
     0
  0
SCALE
  5
2FC4
102
{ACAD_REACTORS
330
2FC1
102
}
330
2FC1
100
AcDbScale
 70
     0
300
1/64" = 1'-0"
140
0.015625
141
12.0
290
     0
  0
SCALE
  5
2FC5
102
{ACAD_REACTORS
330
2FC1
102
}
330
2FC1
100
AcDbScale
 70
     0
300
1/32" = 1'-0"
140
0.03125
141
12.0
290
     0
  0
SCALE
  5
2FC6
102
{ACAD_REACTORS
330
2FC1
102
}
330
2FC1
100
AcDbScale
 70
     0
300
1/16" = 1'-0"
140
0.0625
141
12.0
290
     0
  0
SCALE
  5
2FC7
102
{ACAD_REACTORS
330
2FC1
102
}
330
2FC1
100
AcDbScale
 70
     0
300
3/32" = 1'-0"
140
0.09375
141
12.0
290
     0
  0
SCALE
  5
2FC8
102
{ACAD_REACTORS
330
2FC1
102
}
330
2FC1
100
AcDbScale
 70
     0
300
1/8" = 1'-0"
140
0.125
141
12.0
290
     0
  0
SCALE
  5
2FC9
102
{ACAD_REACTORS
330
2FC1
102
}
330
2FC1
100
AcDbScale
 70
     0
300
3/16" = 1'-0"
140
0.1875
141
12.0
290
     0
  0
SCALE
  5
2FCA
102
{ACAD_REACTORS
330
2FC1
102
}
330
2FC1
100
AcDbScale
 70
     0
300
1/4" = 1'-0"
140
0.25
141
12.0
290
     0
  0
SCALE
  5
2FCB
102
{ACAD_REACTORS
330
2FC1
102
}
330
2FC1
100
AcDbScale
 70
     0
300
3/8" = 1'-0"
140
0.375
141
12.0
290
     0
  0
SCALE
  5
2FCC
102
{ACAD_REACTORS
330
2FC1
102
}
330
2FC1
100
AcDbScale
 70
     0
300
1/2" = 1'-0"
140
0.5
141
12.0
290
     0
  0
SCALE
  5
2FCD
102
{ACAD_REACTORS
330
2FC1
102
}
330
2FC1
100
AcDbScale
 70
     0
300
3/4" = 1'-0"
140
0.75
141
12.0
290
     0
  0
SCALE
  5
2FCE
102
{ACAD_REACTORS
330
2FC1
102
}
330
2FC1
100
AcDbScale
 70
     0
300
1" = 1'-0"
140
1.0
141
12.0
290
     0
  0
SCALE
  5
2FCF
102
{ACAD_REACTORS
330
2FC1
102
}
330
2FC1
100
AcDbScale
 70
     0
300
1-1/2" = 1'-0"
140
1.5
141
12.0
290
     0
  0
SCALE
  5
2FD0
102
{ACAD_REACTORS
330
2FC1
102
}
330
2FC1
100
AcDbScale
 70
     0
300
3" = 1'-0"
140
3.0
141
12.0
290
     0
  0
SCALE
  5
2FD1
102
{ACAD_REACTORS
330
2FC1
102
}
330
2FC1
100
AcDbScale
 70
     0
300
6" = 1'-0"
140
6.0
141
12.0
290
     0
  0
SCALE
  5
2FD2
102
{ACAD_REACTORS
330
2FC1
102
}
330
2FC1
100
AcDbScale
 70
     0
300
1'-0" = 1'-0"
140
12.0
141
12.0
290
     0
  0
ACDBSECTIONVIEWSTYLE
  5
2FD6
102
{ACAD_XDICTIONARY
360
3030
102
}
102
{ACAD_REACTORS
330
2FD5
102
}
330
2FD5
100
AcDbModelDocViewStyle
 70
     0
  3
Imperial24
290
     0
100
AcDbSectionViewStyle
 70
     0
 71
     0
 90
       78
 71
     1
340
F
 40
0.24
340
0
340
0
 40
0.24
300
I, O, Q, S, X, Z
 40
0.48
 90
        3
 40
0.18
 90
        1
 71
     2
340
14
 90
       25
340
14
 90
       50
 40
0.24
 40
0.0
 40
0.24
 71
     3
340
F
 40
0.24
 90
        1
 40
0.75
 90
        1
300
%<\AcVar ViewType \f "%tc1">% %<\AcVar ViewSectionStartId>%-%<\AcVar ViewSectionEndId>%\PSCALE %<\AcVar ViewScale \f "%sn">%
 71
     4
300
ANSI31
 40
1.0
 90
        0
290
     0
290
     0
 90
        6
 40
0.0
 40
1.570796326794896
 40
0.2617993877991494
 40
1.308996938995747
 40
-0.2617993877991494
 40
1.832595714594046
  0
TABLESTYLE
  5
2FC0
102
{ACAD_XDICTIONARY
360
2FF7
102
}
102
{ACAD_REACTORS
330
2FBF
102
}
330
2FBF
100
AcDbTableStyle
  3
Standard
 70
     0
 71
     0
 40
0.06
 41
0.06
280
     0
281
     0
  7
STANDARD
140
0.18
170
     2
 62
     0
 63
     7
283
     0
274
    -2
284
     1
 64
     0
275
    -2
285
     1
 65
     0
276
    -2
286
     1
 66
     0
277
    -2
287
     1
 67
     0
278
    -2
288
     1
 68
     0
279
    -2
289
     1
 69
     0
  7
STANDARD
140
0.25
170
     5
 62
     0
 63
     7
283
     0
274
    -2
284
     1
 64
     0
275
    -2
285
     1
 65
     0
276
    -2
286
     1
 66
     0
277
    -2
287
     1
 67
     0
278
    -2
288
     1
 68
     0
279
    -2
289
     1
 69
     0
  7
STANDARD
140
0.18
170
     5
 62
     0
 63
     7
283
     0
274
    -2
284
     1
 64
     0
275
    -2
285
     1
 65
     0
276
    -2
286
     1
 66
     0
277
    -2
287
     1
 67
     0
278
    -2
288
     1
 68
     0
279
    -2
289
     1
 69
     0
  0
VISUALSTYLE
  5
2FAB
102
{ACAD_XDICTIONARY
360
3008
102
}
102
{ACAD_REACTORS
330
2FA5
102
}
330
2FA5
100
AcDbVisualStyle
  2
2dWireframe
 70
     4
 71
     0
 72
     2
 73
     0
 90
        0
 40
-0.6
 41
-30.0
 62
     5
 63
     7
 74
     1
 91
        4
 64
     7
 65
   257
 75
     1
175
     1
 42
1.0
 92
        0
 66
   257
 43
1.0
 76
     1
 77
     6
 78
     2
 67
     7
 79
     5
170
     0
171
     0
290
     0
174
     0
 93
        1
 44
0.0
173
     0
291
     0
 45
0.0
1001
ACAD
1000
AcDbSavedByObjectVersion
1070
     0
  0
VISUALSTYLE
  5
2FAA
102
{ACAD_XDICTIONARY
360
3006
102
}
102
{ACAD_REACTORS
330
2FA5
102
}
330
2FA5
100
AcDbVisualStyle
  2
Basic
 70
     7
 71
     1
 72
     0
 73
     1
 90
        0
 40
-0.6
 41
-30.0
 62
     5
 63
     7
 74
     0
 91
        4
 64
     7
 65
   257
 75
     1
175
     1
 42
1.0
 92
        8
 66
     7
 43
1.0
 76
     1
 77
     6
 78
     2
 67
     7
 79
     5
170
     0
171
     0
290
     0
174
     0
 93
        1
 44
0.0
173
     0
291
     1
 45
0.0
1001
ACAD
1000
AcDbSavedByObjectVersion
1070
     0
  0
VISUALSTYLE
  5
2FB1
102
{ACAD_XDICTIONARY
360
3014
102
}
102
{ACAD_REACTORS
330
2FA5
102
}
330
2FA5
100
AcDbVisualStyle
  2
Brighten
 70
    12
 71
     2
 72
     2
 73
     0
 90
        0
 40
-0.6
 41
-30.0
 62
     5
 63
     7
 74
     1
 91
        4
 64
     7
 65
   257
 75
     1
175
     1
 42
1.0
 92
        8
 66
     7
 43
1.0
 76
     1
 77
     6
 78
     2
 67
     7
 79
     5
170
     0
171
     0
290
     0
174
     0
 93
        1
 44
50.0
173
     0
291
     1
 45
0.0
1001
ACAD
1000
AcDbSavedByObjectVersion
1070
     0
  0
VISUALSTYLE
  5
2FB5
102
{ACAD_XDICTIONARY
360
301C
102
}
102
{ACAD_REACTORS
330
2FA5
102
}
330
2FA5
100
AcDbVisualStyle
  2
ColorChange
 70
    16
 71
     2
 72
     2
 73
     3
 90
        0
 40
-0.6
 41
-30.0
 62
     5
 63
     8
 74
     1
 91
        4
 64
     7
 65
   257
 75
     1
175
     1
 42
1.0
 92
        8
 66
     8
 43
1.0
 76
     1
 77
     6
 78
     2
 67
     7
 79
     5
170
     0
171
     0
290
     0
174
     0
 93
        1
 44
0.0
173
     0
291
     1
 45
0.0
1001
ACAD
1000
AcDbSavedByObjectVersion
1070
     0
  0
VISUALSTYLE
  5
2FAE
102
{ACAD_XDICTIONARY
360
300E
102
}
102
{ACAD_REACTORS
330
2FA5
102
}
330
2FA5
100
AcDbVisualStyle
  2
Conceptual
 70
     9
 71
     3
 72
     2
 73
     0
 90
        0
 40
-0.6
 41
-30.0
 62
     5
 63
     7
 74
     2
 91
        2
 64
     7
 65
   257
 75
     1
175
     1
 42
179.0
 92
        8
 66
     7
 43
1.0
 76
     1
 77
     6
 78
     2
 67
     7
 79
     3
170
     0
171
     0
290
     0
174
     0
 93
        1
 44
0.0
173
     0
291
     0
 45
0.0
1001
ACAD
1000
AcDbSavedByObjectVersion
1070
     0
  0
VISUALSTYLE
  5
2FB0
102
{ACAD_XDICTIONARY
360
3012
102
}
102
{ACAD_REACTORS
330
2FA5
102
}
330
2FA5
100
AcDbVisualStyle
  2
Dim
 70
    11
 71
     2
 72
     2
 73
     0
 90
        0
 40
-0.6
 41
-30.0
 62
     5
 63
     7
 74
     1
 91
        4
 64
     7
 65
   257
 75
     1
175
     1
 42
1.0
 92
        8
 66
     7
 43
1.0
 76
     1
 77
     6
 78
     2
 67
     7
 79
     5
170
     0
171
     0
290
     0
174
     0
 93
        1
 44
-50.0
173
     0
291
     1
 45
0.0
1001
ACAD
1000
AcDbSavedByObjectVersion
1070
     0
  0
VISUALSTYLE
  5
2FBD
102
{ACAD_XDICTIONARY
360
302C
102
}
102
{ACAD_REACTORS
330
2FA5
102
}
330
2FA5
100
AcDbVisualStyle
  2
EdgeColorOff
 70
    22
 71
     2
 72
     2
 73
     0
 90
        0
 40
-0.6
 41
-30.0
 62
     5
 63
     7
 74
     1
 91
        4
 64
     7
 65
   257
 75
     1
175
     1
 42
1.0
 92
        8
 66
     7
 43
1.0
 76
     1
 77
     6
 78
     2
 67
     7
 79
     5
170
     0
171
     0
290
     0
174
     0
 93
        1
 44
0.0
173
     0
291
     1
 45
0.0
1001
ACAD
1000
AcDbSavedByObjectVersion
1070
     0
  0
VISUALSTYLE
  5
2FB4
102
{ACAD_XDICTIONARY
360
301A
102
}
102
{ACAD_REACTORS
330
2FA5
102
}
330
2FA5
100
AcDbVisualStyle
  2
Facepattern
 70
    15
 71
     2
 72
     2
 73
     0
 90
        0
 40
-0.6
 41
-30.0
 62
     5
 63
     7
 74
     1
 91
        4
 64
     7
 65
   257
 75
     1
175
     1
 42
1.0
 92
        8
 66
     7
 43
1.0
 76
     1
 77
     6
 78
     2
 67
     7
 79
     5
170
     0
171
     0
290
     0
174
     0
 93
        1
 44
0.0
173
     0
291
     1
 45
0.0
1001
ACAD
1000
AcDbSavedByObjectVersion
1070
     0
  0
VISUALSTYLE
  5
2FA6
102
{ACAD_XDICTIONARY
360
2FFE
102
}
102
{ACAD_REACTORS
330
2FA5
102
}
330
2FA5
100
AcDbVisualStyle
  2
Flat
 70
     0
 71
     2
 72
     1
 73
     1
 90
        2
 40
-0.6
 41
30.0
 62
     5
 63
     7
 74
     0
 91
        0
 64
     7
 65
   257
 75
     1
175
     1
 42
1.0
 92
        8
 66
     7
 43
1.0
 76
     1
 77
     6
 78
     2
 67
     7
 79
     5
170
     0
171
     0
290
     0
174
     0
 93
       13
 44
0.0
173
     0
291
     1
 45
0.0
1001
ACAD
1000
AcDbSavedByObjectVersion
1070
     0
  0
VISUALSTYLE
  5
2FA7
102
{ACAD_XDICTIONARY
360
3000
102
}
102
{ACAD_REACTORS
330
2FA5
102
}
330
2FA5
100
AcDbVisualStyle
  2
FlatWithEdges
 70
     1
 71
     2
 72
     1
 73
     1
 90
        2
 40
-0.6
 41
30.0
 62
     5
 63
     7
 74
     1
 91
        0
 64
     7
 65
   257
 75
     1
175
     1
 42
1.0
 92
        0
 66
   257
 43
1.0
 76
     1
 77
     6
 78
     2
 67
     7
 79
     5
170
     0
171
     0
290
     0
174
     0
 93
       13
 44
0.0
173
     0
291
     1
 45
0.0
1001
ACAD
1000
AcDbSavedByObjectVersion
1070
     0
  0
VISUALSTYLE
  5
2FA8
102
{ACAD_XDICTIONARY
360
3002
102
}
102
{ACAD_REACTORS
330
2FA5
102
}
330
2FA5
100
AcDbVisualStyle
  2
Gouraud
 70
     2
 71
     2
 72
     2
 73
     1
 90
        2
 40
-0.6
 41
30.0
 62
     5
 63
     7
 74
     0
 91
        0
 64
     7
 65
   257
 75
     1
175
     1
 42
1.0
 92
        0
 66
     7
 43
1.0
 76
     1
 77
     6
 78
     2
 67
     7
 79
     5
170
     0
171
     0
290
     0
174
     0
 93
       13
 44
0.0
173
     0
291
     1
 45
0.0
1001
ACAD
1000
AcDbSavedByObjectVersion
1070
     0
  0
VISUALSTYLE
  5
2FA9
102
{ACAD_XDICTIONARY
360
3004
102
}
102
{ACAD_REACTORS
330
2FA5
102
}
330
2FA5
100
AcDbVisualStyle
  2
GouraudWithEdges
 70
     3
 71
     2
 72
     2
 73
     1
 90
        2
 40
-0.6
 41
30.0
 62
     5
 63
     7
 74
     1
 91
        0
 64
     7
 65
   257
 75
     1
175
     1
 42
1.0
 92
        0
 66
   257
 43
1.0
 76
     1
 77
     6
 78
     2
 67
     7
 79
     5
170
     0
171
     0
290
     0
174
     0
 93
       13
 44
0.0
173
     0
291
     1
 45
0.0
1001
ACAD
1000
AcDbSavedByObjectVersion
1070
     0
  0
VISUALSTYLE
  5
2FAD
102
{ACAD_XDICTIONARY
360
300C
102
}
102
{ACAD_REACTORS
330
2FA5
102
}
330
2FA5
100
AcDbVisualStyle
  2
Hidden
 70
     6
 71
     1
 72
     2
 73
     2
 90
        0
 40
-0.6
 41
-30.0
 62
     5
 63
     7
 74
     2
 91
        2
 64
     7
 65
   257
 75
     2
175
     1
 42
40.0
 92
        0
 66
   257
 43
1.0
 76
     1
 77
     6
 78
     2
 67
     7
 79
     3
170
     0
171
     0
290
     0
174
     0
 93
        1
 44
0.0
173
     0
291
     0
 45
0.0
1001
ACAD
1000
AcDbSavedByObjectVersion
1070
     0
  0
VISUALSTYLE
  5
2FBB
102
{ACAD_XDICTIONARY
360
3028
102
}
102
{ACAD_REACTORS
330
2FA5
102
}
330
2FA5
100
AcDbVisualStyle
  2
JitterOff
 70
    20
 71
     2
 72
     2
 73
     0
 90
        0
 40
-0.6
 41
-30.0
 62
     5
 63
     7
 74
     1
 91
        4
 64
     7
 65
   257
 75
     1
175
     1
 42
1.0
 92
       10
 66
     7
 43
1.0
 76
     1
 77
     6
 78
     2
 67
     7
 79
     5
170
     0
171
     0
290
     0
174
     0
 93
        1
 44
0.0
173
     0
291
     1
 45
0.0
1001
ACAD
1000
AcDbSavedByObjectVersion
1070
     0
  0
VISUALSTYLE
  5
2FB3
102
{ACAD_XDICTIONARY
360
3018
102
}
102
{ACAD_REACTORS
330
2FA5
102
}
330
2FA5
100
AcDbVisualStyle
  2
Linepattern
 70
    14
 71
     2
 72
     2
 73
     0
 90
        0
 40
-0.6
 41
-30.0
 62
     5
 63
     7
 74
     1
 91
        4
 64
     7
 65
   257
 75
     7
175
     7
 42
1.0
 92
        8
 66
     7
 43
1.0
 76
     1
 77
     6
 78
     2
 67
     7
 79
     5
170
     0
171
     0
290
     0
174
     0
 93
        1
 44
0.0
173
     0
291
     1
 45
0.0
1001
ACAD
1000
AcDbSavedByObjectVersion
1070
     0
  0
VISUALSTYLE
  5
2FBC
102
{ACAD_XDICTIONARY
360
302A
102
}
102
{ACAD_REACTORS
330
2FA5
102
}
330
2FA5
100
AcDbVisualStyle
  2
OverhangOff
 70
    21
 71
     2
 72
     2
 73
     0
 90
        0
 40
-0.6
 41
-30.0
 62
     5
 63
     7
 74
     1
 91
        4
 64
     7
 65
   257
 75
     1
175
     1
 42
1.0
 92
        9
 66
     7
 43
1.0
 76
     1
 77
     6
 78
     2
 67
     7
 79
     5
170
     0
171
     0
290
     0
174
     0
 93
        1
 44
0.0
173
     0
291
     1
 45
0.0
1001
ACAD
1000
AcDbSavedByObjectVersion
1070
     0
  0
VISUALSTYLE
  5
2FAF
102
{ACAD_XDICTIONARY
360
3010
102
}
102
{ACAD_REACTORS
330
2FA5
102
}
330
2FA5
100
AcDbVisualStyle
  2
Realistic
 70
     8
 71
     2
 72
     3
 73
     0
 90
        2
 40
-0.6
 41
30.0
 62
     5
 63
     7
 74
     0
 91
        0
 64
     7
 65
   257
 75
     1
175
     1
 42
1.0
 92
        8
 66
   257
 43
1.0
 76
     1
 77
     6
 78
     2
 67
     7
 79
     3
170
     0
171
     0
290
     0
174
     0
 93
       13
 44
0.0
173
     0
291
     0
 45
0.0
1001
ACAD
1000
AcDbSavedByObjectVersion
1070
     0
  0
VISUALSTYLE
  5
2FBA
102
{ACAD_XDICTIONARY
360
3026
102
}
102
{ACAD_REACTORS
330
2FA5
102
}
330
2FA5
100
AcDbVisualStyle
  2
Shaded
 70
    27
 71
     2
 72
     2
 73
     1
 90
        2
 40
-0.6
 41
30.0
 62
     5
 63
     7
 74
     0
 91
        4
 64
     7
 65
   257
 75
     1
175
     1
 42
1.0
 92
        8
 66
   257
 43
1.0
 76
     1
 77
     6
 78
     2
 67
     8
 79
     3
170
     0
171
     0
290
     0
174
     0
 93
        5
 44
0.0
173
     0
291
     0
 45
0.0
1001
ACAD
1000
AcDbSavedByObjectVersion
1070
     0
  0
VISUALSTYLE
  5
2FB9
102
{ACAD_XDICTIONARY
360
3024
102
}
102
{ACAD_REACTORS
330
2FA5
102
}
330
2FA5
100
AcDbVisualStyle
  2
Shaded with edges
 70
    26
 71
     2
 72
     2
 73
     1
 90
        2
 40
-0.6
 41
30.0
 62
     5
 63
     7
 74
     1
 91
       10
 64
     7
 65
   257
 75
     2
175
     1
 42
1.0
 92
        8
 66
   257
 43
1.0
 76
     1
 77
     6
 78
     2
 67
     7
 79
     3
170
     0
171
     0
290
     0
174
     0
 93
        5
 44
0.0
173
     0
291
     0
 45
0.0
1001
ACAD
1000
AcDbSavedByObjectVersion
1070
     0
  0
VISUALSTYLE
  5
2FB6
102
{ACAD_XDICTIONARY
360
301E
102
}
102
{ACAD_REACTORS
330
2FA5
102
}
330
2FA5
100
AcDbVisualStyle
  2
Shades of Gray
 70
    23
 71
     2
 72
     2
 73
     3
 90
        0
 40
-0.6
 41
-30.0
 62
     5
 63
     7
 74
     2
 91
        2
 64
     7
 65
     7
 75
     1
175
     1
 42
40.0
 92
        8
 66
     7
 43
1.0
 76
     1
 77
     6
 78
     2
 67
     7
 79
     3
170
     0
171
     0
290
     0
174
     0
 93
        1
 44
0.0
173
     0
291
     0
 45
0.0
1001
ACAD
1000
AcDbSavedByObjectVersion
1070
     0
  0
VISUALSTYLE
  5
2FB7
102
{ACAD_XDICTIONARY
360
3020
102
}
102
{ACAD_REACTORS
330
2FA5
102
}
330
2FA5
100
AcDbVisualStyle
  2
Sketchy
 70
    24
 71
     1
 72
     2
 73
     2
 90
        0
 40
-0.6
 41
-30.0
 62
     5
 63
     7
 74
     2
 91
        2
 64
     7
 65
     7
 75
     1
175
     1
 42
40.0
 92
       11
 66
     7
 43
1.0
 76
     1
 77
     6
 78
     2
 67
     7
 79
     6
170
     0
171
     0
290
     0
174
     0
 93
        1
 44
0.0
173
     0
291
     0
 45
0.0
1001
ACAD
1000
AcDbSavedByObjectVersion
1070
     0
  0
VISUALSTYLE
  5
2FB2
102
{ACAD_XDICTIONARY
360
3016
102
}
102
{ACAD_REACTORS
330
2FA5
102
}
330
2FA5
100
AcDbVisualStyle
  2
Thicken
 70
    13
 71
     2
 72
     2
 73
     0
 90
        0
 40
-0.6
 41
-30.0
 62
     5
 63
     7
 74
     1
 91
        4
 64
     7
 65
   257
 75
     1
175
     1
 42
1.0
 92
       12
 66
     7
 43
1.0
 76
     1
 77
     6
 78
     2
 67
     7
 79
     5
170
     0
171
     0
290
     0
174
     0
 93
        1
 44
0.0
173
     0
291
     1
 45
0.0
1001
ACAD
1000
AcDbSavedByObjectVersion
1070
     0
  0
VISUALSTYLE
  5
2FAC
102
{ACAD_XDICTIONARY
360
300A
102
}
102
{ACAD_REACTORS
330
2FA5
102
}
330
2FA5
100
AcDbVisualStyle
  2
Wireframe
 70
     5
 71
     0
 72
     2
 73
     0
 90
        0
 40
-0.6
 41
-30.0
 62
     5
 63
     7
 74
     1
 91
        4
 64
     7
 65
   257
 75
     1
175
     1
 42
1.0
 92
        0
 66
   257
 43
1.0
 76
     1
 77
     6
 78
     2
 67
     7
 79
     3
170
     0
171
     0
290
     0
174
     0
 93
        1
 44
0.0
173
     0
291
     0
 45
0.0
1001
ACAD
1000
AcDbSavedByObjectVersion
1070
     0
  0
VISUALSTYLE
  5
2FB8
102
{ACAD_XDICTIONARY
360
3022
102
}
102
{ACAD_REACTORS
330
2FA5
102
}
330
2FA5
100
AcDbVisualStyle
  2
X-Ray
 70
    25
 71
     2
 72
     2
 73
     1
 90
        1
 40
0.5
 41
-30.0
 62
     5
 63
     7
 74
     1
 91
        0
 64
     7
 65
   257
 75
     1
175
     1
 42
1.0
 92
        8
 66
     7
 43
1.0
 76
     1
 77
     6
 78
     2
 67
     7
 79
     3
170
     0
171
     0
290
     0
174
     0
 93
       13
 44
0.0
173
     0
291
     0
 45
0.0
1001
ACAD
1000
AcDbSavedByObjectVersion
1070
     0
  0
DICTIONARYVAR
  5
2FF1
102
{ACAD_REACTORS
330
2FEC
102
}
330
2FEC
100
DictionaryVariables
280
     0
  1
1:1
  0
DICTIONARYVAR
  5
2FEE
102
{ACAD_REACTORS
330
2FEC
102
}
330
2FEC
100
DictionaryVariables
280
     0
  1
STANDARD
  0
DICTIONARYVAR
  5
2FED
102
{ACAD_REACTORS
330
2FEC
102
}
330
2FEC
100
DictionaryVariables
280
     0
  1
STANDARD
  0
DICTIONARYVAR
  5
2FEF
102
{ACAD_REACTORS
330
2FEC
102
}
330
2FEC
100
DictionaryVariables
280
     0
  1
Imperial24
  0
DICTIONARYVAR
  5
2FF0
102
{ACAD_REACTORS
330
2FEC
102
}
330
2FEC
100
DictionaryVariables
280
     0
  1
Imperial24
  0
DICTIONARYVAR
  5
2FF4
102
{ACAD_REACTORS
330
2FEC
102
}
330
2FEC
100
DictionaryVariables
280
     0
  1
1
  0
DICTIONARYVAR
  5
2FF3
102
{ACAD_REACTORS
330
2FEC
102
}
330
2FEC
100
DictionaryVariables
280
     0
  1
0
  0
DICTIONARYVAR
  5
2FF2
102
{ACAD_REACTORS
330
2FEC
102
}
330
2FEC
100
DictionaryVariables
280
     0
  1
127
  0
DICTIONARYVAR
  5
2FF5
102
{ACAD_REACTORS
330
2FEC
102
}
330
2FEC
100
DictionaryVariables
280
     0
  1
2
  0
DICTIONARY
  5
3032
330
2FD8
100
AcDbDictionary
280
     1
281
     1
  3
ACAD_XREC_ROUNDTRIP
360
3033
  0
DICTIONARY
  5
3034
330
2FD9
100
AcDbDictionary
280
     1
281
     1
  3
ACAD_XREC_ROUNDTRIP
360
3035
  0
DICTIONARY
  5
3036
330
2FDA
100
AcDbDictionary
280
     1
281
     1
  3
ACAD_XREC_ROUNDTRIP
360
3037
  0
DICTIONARY
  5
2F96
330
2F95
100
AcDbDictionary
280
     1
281
     1
  3
ACAD_XREC_ROUNDTRIP
360
2FFC
  3
BUMPTILE
360
2F98
  3
DIFFUSETILE
360
2F97
  3
OPACITYTILE
360
2F9B
  3
REFLECTIONTILE
360
2F9A
  3
REFRACTIONTILE
360
2F9C
  3
SPECULARTILE
360
2F99
  0
DICTIONARY
  5
2F8E
330
2F8D
100
AcDbDictionary
280
     1
281
     1
  3
ACAD_XREC_ROUNDTRIP
360
2FFB
  3
BUMPTILE
360
2F90
  3
DIFFUSETILE
360
2F8F
  3
OPACITYTILE
360
2F93
  3
REFLECTIONTILE
360
2F92
  3
REFRACTIONTILE
360
2F94
  3
SPECULARTILE
360
2F91
  0
DICTIONARY
  5
2F9E
330
2F9D
100
AcDbDictionary
280
     1
281
     1
  3
ACAD_XREC_ROUNDTRIP
360
2FFD
  3
BUMPTILE
360
2FA0
  3
DIFFUSETILE
360
2F9F
  3
OPACITYTILE
360
2FA3
  3
REFLECTIONTILE
360
2FA2
  3
REFRACTIONTILE
360
2FA4
  3
SPECULARTILE
360
2FA1
  0
DICTIONARY
  5
3030
330
2FD6
100
AcDbDictionary
280
     1
281
     1
  3
ACAD_XREC_ROUNDTRIP
360
3031
  0
DICTIONARY
  5
2FF7
330
2FC0
100
AcDbDictionary
280
     1
281
     1
  3
ACAD_ROUNDTRIP_2008_TABLESTYLE_CELLSTYLEMAP
360
2FF8
  3
ACAD_XREC_ROUNDTRIP
360
302E
  0
DICTIONARY
  5
3008
330
2FAB
100
AcDbDictionary
280
     1
281
     1
  3
ACAD_XREC_ROUNDTRIP
360
3009
  0
DICTIONARY
  5
3006
330
2FAA
100
AcDbDictionary
280
     1
281
     1
  3
ACAD_XREC_ROUNDTRIP
360
3007
  0
DICTIONARY
  5
3014
330
2FB1
100
AcDbDictionary
280
     1
281
     1
  3
ACAD_XREC_ROUNDTRIP
360
3015
  0
DICTIONARY
  5
301C
330
2FB5
100
AcDbDictionary
280
     1
281
     1
  3
ACAD_XREC_ROUNDTRIP
360
301D
  0
DICTIONARY
  5
300E
330
2FAE
100
AcDbDictionary
280
     1
281
     1
  3
ACAD_XREC_ROUNDTRIP
360
300F
  0
DICTIONARY
  5
3012
330
2FB0
100
AcDbDictionary
280
     1
281
     1
  3
ACAD_XREC_ROUNDTRIP
360
3013
  0
DICTIONARY
  5
302C
330
2FBD
100
AcDbDictionary
280
     1
281
     1
  3
ACAD_XREC_ROUNDTRIP
360
302D
  0
DICTIONARY
  5
301A
330
2FB4
100
AcDbDictionary
280
     1
281
     1
  3
ACAD_XREC_ROUNDTRIP
360
301B
  0
DICTIONARY
  5
2FFE
330
2FA6
100
AcDbDictionary
280
     1
281
     1
  3
ACAD_XREC_ROUNDTRIP
360
2FFF
  0
DICTIONARY
  5
3000
330
2FA7
100
AcDbDictionary
280
     1
281
     1
  3
ACAD_XREC_ROUNDTRIP
360
3001
  0
DICTIONARY
  5
3002
330
2FA8
100
AcDbDictionary
280
     1
281
     1
  3
ACAD_XREC_ROUNDTRIP
360
3003
  0
DICTIONARY
  5
3004
330
2FA9
100
AcDbDictionary
280
     1
281
     1
  3
ACAD_XREC_ROUNDTRIP
360
3005
  0
DICTIONARY
  5
300C
330
2FAD
100
AcDbDictionary
280
     1
281
     1
  3
ACAD_XREC_ROUNDTRIP
360
300D
  0
DICTIONARY
  5
3028
330
2FBB
100
AcDbDictionary
280
     1
281
     1
  3
ACAD_XREC_ROUNDTRIP
360
3029
  0
DICTIONARY
  5
3018
330
2FB3
100
AcDbDictionary
280
     1
281
     1
  3
ACAD_XREC_ROUNDTRIP
360
3019
  0
DICTIONARY
  5
302A
330
2FBC
100
AcDbDictionary
280
     1
281
     1
  3
ACAD_XREC_ROUNDTRIP
360
302B
  0
DICTIONARY
  5
3010
330
2FAF
100
AcDbDictionary
280
     1
281
     1
  3
ACAD_XREC_ROUNDTRIP
360
3011
  0
DICTIONARY
  5
3026
330
2FBA
100
AcDbDictionary
280
     1
281
     1
  3
ACAD_XREC_ROUNDTRIP
360
3027
  0
DICTIONARY
  5
3024
330
2FB9
100
AcDbDictionary
280
     1
281
     1
  3
ACAD_XREC_ROUNDTRIP
360
3025
  0
DICTIONARY
  5
301E
330
2FB6
100
AcDbDictionary
280
     1
281
     1
  3
ACAD_XREC_ROUNDTRIP
360
301F
  0
DICTIONARY
  5
3020
330
2FB7
100
AcDbDictionary
280
     1
281
     1
  3
ACAD_XREC_ROUNDTRIP
360
3021
  0
DICTIONARY
  5
3016
330
2FB2
100
AcDbDictionary
280
     1
281
     1
  3
ACAD_XREC_ROUNDTRIP
360
3017
  0
DICTIONARY
  5
300A
330
2FAC
100
AcDbDictionary
280
     1
281
     1
  3
ACAD_XREC_ROUNDTRIP
360
300B
  0
DICTIONARY
  5
3022
330
2FB8
100
AcDbDictionary
280
     1
281
     1
  3
ACAD_XREC_ROUNDTRIP
360
3023
  0
XRECORD
  5
3033
102
{ACAD_REACTORS
330
3032
102
}
330
3032
100
AcDbXrecord
280
     1
102
DISPLAYNAME
  1
Imperial24
102
FLAGS
 90
        0
  0
XRECORD
  5
3035
102
{ACAD_REACTORS
330
3034
102
}
330
3034
100
AcDbXrecord
280
     1
102
SHADEPLOT
 70
     0
102
SHADEPLOTRESLEVEL
 70
     2
102
SHADEPLOTCUSTOMDPI
 70
   300
  0
XRECORD
  5
3037
102
{ACAD_REACTORS
330
3036
102
}
330
3036
100
AcDbXrecord
280
     1
102
SHADEPLOT
 70
     0
102
SHADEPLOTRESLEVEL
 70
     2
102
SHADEPLOTCUSTOMDPI
 70
   300
  0
XRECORD
  5
2FFC
102
{ACAD_REACTORS
330
2F96
102
}
330
2F96
100
AcDbXrecord
280
     1
102
MATERIAL
148
0.0
149
0.0
149
0.0
 93
        0
 94
      127
282
     0
 72
     0
 77
     0
171
     0
175
     0
179
     0
273
     0
  0
XRECORD
  5
2F98
102
{ACAD_REACTORS
330
2F96
102
}
330
2F96
100
AcDbXrecord
280
     1
270
     1
271
     1
  0
XRECORD
  5
2F97
102
{ACAD_REACTORS
330
2F96
102
}
330
2F96
100
AcDbXrecord
280
     1
270
     1
271
     1
  0
XRECORD
  5
2F9B
102
{ACAD_REACTORS
330
2F96
102
}
330
2F96
100
AcDbXrecord
280
     1
270
     1
271
     1
  0
XRECORD
  5
2F9A
102
{ACAD_REACTORS
330
2F96
102
}
330
2F96
100
AcDbXrecord
280
     1
270
     1
271
     1
  0
XRECORD
  5
2F9C
102
{ACAD_REACTORS
330
2F96
102
}
330
2F96
100
AcDbXrecord
280
     1
270
     1
271
     1
  0
XRECORD
  5
2F99
102
{ACAD_REACTORS
330
2F96
102
}
330
2F96
100
AcDbXrecord
280
     1
270
     1
271
     1
  0
XRECORD
  5
2FFB
102
{ACAD_REACTORS
330
2F8E
102
}
330
2F8E
100
AcDbXrecord
280
     1
102
MATERIAL
148
0.0
149
0.0
149
0.0
 93
        0
 94
      127
282
     0
 72
     0
 77
     0
171
     0
175
     0
179
     0
273
     0
  0
XRECORD
  5
2F90
102
{ACAD_REACTORS
330
2F8E
102
}
330
2F8E
100
AcDbXrecord
280
     1
270
     1
271
     1
  0
XRECORD
  5
2F8F
102
{ACAD_REACTORS
330
2F8E
102
}
330
2F8E
100
AcDbXrecord
280
     1
270
     1
271
     1
  0
XRECORD
  5
2F93
102
{ACAD_REACTORS
330
2F8E
102
}
330
2F8E
100
AcDbXrecord
280
     1
270
     1
271
     1
  0
XRECORD
  5
2F92
102
{ACAD_REACTORS
330
2F8E
102
}
330
2F8E
100
AcDbXrecord
280
     1
270
     1
271
     1
  0
XRECORD
  5
2F94
102
{ACAD_REACTORS
330
2F8E
102
}
330
2F8E
100
AcDbXrecord
280
     1
270
     1
271
     1
  0
XRECORD
  5
2F91
102
{ACAD_REACTORS
330
2F8E
102
}
330
2F8E
100
AcDbXrecord
280
     1
270
     1
271
     1
  0
XRECORD
  5
2FFD
102
{ACAD_REACTORS
330
2F9E
102
}
330
2F9E
100
AcDbXrecord
280
     1
102
MATERIAL
148
0.0
149
0.0
149
0.0
 93
        0
 94
      127
282
     0
 72
     0
 77
     0
171
     0
175
     0
179
     0
273
     0
  0
XRECORD
  5
2FA0
102
{ACAD_REACTORS
330
2F9E
102
}
330
2F9E
100
AcDbXrecord
280
     1
270
     1
271
     1
  0
XRECORD
  5
2F9F
102
{ACAD_REACTORS
330
2F9E
102
}
330
2F9E
100
AcDbXrecord
280
     1
270
     1
271
     1
  0
XRECORD
  5
2FA3
102
{ACAD_REACTORS
330
2F9E
102
}
330
2F9E
100
AcDbXrecord
280
     1
270
     1
271
     1
  0
XRECORD
  5
2FA2
102
{ACAD_REACTORS
330
2F9E
102
}
330
2F9E
100
AcDbXrecord
280
     1
270
     1
271
     1
  0
XRECORD
  5
2FA4
102
{ACAD_REACTORS
330
2F9E
102
}
330
2F9E
100
AcDbXrecord
280
     1
270
     1
271
     1
  0
XRECORD
  5
2FA1
102
{ACAD_REACTORS
330
2F9E
102
}
330
2F9E
100
AcDbXrecord
280
     1
270
     1
271
     1
  0
XRECORD
  5
3031
102
{ACAD_REACTORS
330
3030
102
}
330
3030
100
AcDbXrecord
280
     1
102
DISPLAYNAME
  1
Imperial24
102
FLAGS
 90
        0
  0
CELLSTYLEMAP
  5
2FF8
102
{ACAD_REACTORS
330
2FF7
102
}
330
2FF7
100
AcDbCellStyleMap
 90
        3
300
CELLSTYLE
  1
TABLEFORMAT_BEGIN
 90
        5
170
     1
 91
        0
 92
    32768
 62
   257
 93
        1
300
CONTENTFORMAT
  1
CONTENTFORMAT_BEGIN
 90
        0
 91
        0
 92
      512
 93
        0
300

 40
0.0
140
1.0
 94
        5
 62
     0
340
F
144
0.25
309
CONTENTFORMAT_END
171
     0
 94
        0
309
TABLEFORMAT_END
  1
CELLSTYLE_BEGIN
 90
        1
 91
        1
300
_TITLE
309
CELLSTYLE_END
300
CELLSTYLE
  1
TABLEFORMAT_BEGIN
 90
        5
170
     1
 91
        0
 92
        0
 62
   257
 93
        1
300
CONTENTFORMAT
  1
CONTENTFORMAT_BEGIN
 90
        0
 91
        0
 92
      512
 93
        0
300

 40
0.0
140
1.0
 94
        5
 62
     0
340
F
144
0.18
309
CONTENTFORMAT_END
171
     0
 94
        0
309
TABLEFORMAT_END
  1
CELLSTYLE_BEGIN
 90
        2
 91
        1
300
_HEADER
309
CELLSTYLE_END
300
CELLSTYLE
  1
TABLEFORMAT_BEGIN
 90
        5
170
     1
 91
        0
 92
        0
 62
   257
 93
        1
300
CONTENTFORMAT
  1
CONTENTFORMAT_BEGIN
 90
        0
 91
        0
 92
      512
 93
        0
300

 40
0.0
140
1.0
 94
        2
 62
     0
340
F
144
0.18
309
CONTENTFORMAT_END
171
     0
 94
        0
309
TABLEFORMAT_END
  1
CELLSTYLE_BEGIN
 90
        3
 91
        2
300
_DATA
309
CELLSTYLE_END
  0
XRECORD
  5
302E
102
{ACAD_REACTORS
330
2FF7
102
}
330
2FF7
100
AcDbXrecord
280
     1
102
ACAD_ROUNDTRIP_PRE2007_TABLESTYLE
 90
      512
 91
        0
  1

 92
      512
 93
        0
  2

 94
      512
 95
        0
  3

  0
XRECORD
  5
3009
102
{ACAD_REACTORS
330
3008
102
}
330
3008
100
AcDbXrecord
280
     1
102
RTVSPost2010Prop28
280
     1
102
RTVSPost2010PropOp28
 70
     1
102
RTVSPost2010Prop29
280
     1
102
RTVSPost2010PropOp29
 70
     1
102
RTVSPost2010Prop30
280
     0
102
RTVSPost2010PropOp30
 70
     1
102
RTVSPost2010Prop31
280
     0
102
RTVSPost2010PropOp31
 70
     1
102
RTVSPost2010Prop32
280
     0
102
RTVSPost2010PropOp32
 70
     1
102
RTVSPost2010Prop33
280
     0
102
RTVSPost2010PropOp33
 70
     1
102
RTVSPost2010Prop34
280
     0
102
RTVSPost2010PropOp34
 70
     1
102
RTVSPost2010Prop35
280
     0
102
RTVSPost2010PropOp35
 70
     1
102
RTVSPost2010Prop36
280
     0
102
RTVSPost2010PropOp36
 70
     1
102
RTVSPost2010Prop37
 90
       50
102
RTVSPost2010PropOp37
 70
     1
102
RTVSPost2010Prop38
140
0.0
102
RTVSPost2010PropOp38
 70
     1
102
RTVSPost2010Prop39
140
1.0
102
RTVSPost2010PropOp39
 70
     1
102
RTVSPost2010Prop40
 90
        0
102
RTVSPost2010PropOp40
 70
     1
102
RTVSPost2010Prop41ColorIndex
 90
       18
102
RTVSPost2010Prop41ColorRGB
 90
        0
102
RTVSPost2010PropOp41
 70
     1
102
RTVSPost2010Prop42
 90
       50
102
RTVSPost2010PropOp42
 70
     1
102
RTVSPost2010Prop43
 90
        3
102
RTVSPost2010PropOp43
 70
     1
102
RTVSPost2010Prop44ColorIndex
 90
        5
102
RTVSPost2010Prop44ColorRGB
 90
      255
102
RTVSPost2010PropOp44
 70
     1
102
RTVSPost2010Prop45
280
     0
102
RTVSPost2010PropOp45
 70
     1
102
RTVSPost2010Prop46
 90
       50
102
RTVSPost2010PropOp46
 70
     1
102
RTVSPost2010Prop47
 90
       50
102
RTVSPost2010PropOp47
 70
     1
102
RTVSPost2010Prop48
 90
       50
102
RTVSPost2010PropOp48
 70
     1
102
RTVSPost2010Prop49
280
     0
102
RTVSPost2010PropOp49
 70
     1
102
RTVSPost2010Prop50
 90
       50
102
RTVSPost2010PropOp50
 70
     1
102
RTVSPost2010Prop51ColorIndex
 90
      256
102
RTVSPost2010Prop51ColorRGB
 90
-16777216
102
RTVSPost2010PropOp51
 70
     0
102
RTVSPost2010Prop52
140
1.0
102
RTVSPost2010PropOp52
 70
     0
102
RTVSPost2010Prop53
 90
        2
102
RTVSPost2010PropOp53
 70
     1
102
RTVSPost2010Prop54
  1
strokes_ogs.tif
102
RTVSPost2010PropOp54
 70
     1
102
RTVSPost2010Prop55
280
     0
102
RTVSPost2010PropOp55
 70
     1
102
RTVSPost2010Prop56
140
1.0
102
RTVSPost2010PropOp56
 70
     1
102
RTVSPost2010Prop57
140
1.0
102
RTVSPost2010PropOp57
 70
     1
102
RTVSPropertyOp0
 70
     1
102
RTVSPropertyOp1
 70
     1
102
RTVSPropertyOp2
 70
     1
102
RTVSPropertyOp3
 70
     1
102
RTVSPropertyOp4
 70
     1
102
RTVSPropertyOp5
 70
     1
102
RTVSPropertyOp6
 70
     1
102
RTVSPropertyOp7
 70
     1
102
RTVSPropertyOp8
 70
     1
102
RTVSPropertyOp9
 70
     1
102
RTVSPropertyOp10
 70
     1
102
RTVSPropertyOp11
 70
     1
102
RTVSPropertyOp12
 70
     1
102
RTVSPropertyOp13
 70
     1
102
RTVSPropertyOp14
 70
     1
102
RTVSPropertyOp15
 70
     1
102
RTVSPropertyOp16
 70
     1
102
RTVSPropertyOp17
 70
     1
102
RTVSPropertyOp18
 70
     1
102
RTVSPropertyOp19
 70
     1
102
RTVSPropertyOp20
 70
     1
102
RTVSPropertyOp21
 70
     1
102
RTVSPropertyOp22
 70
     1
102
RTVSPropertyOp23
 70
     1
102
RTVSPropertyOp24
 70
     1
102
RTVSPropertyOp25
 70
     1
102
RTVSPropertyOp26
 70
     1
102
RTVSPropertyOp27
 70
     1
102
RTVSPropertyOp28
 70
     1
102
RTVSPropertyOp29
 70
     1
102
RTVSPropertyOp30
 70
     1
102
RTVSPropertyOp31
 70
     1
102
RTVSPropertyOp32
 70
     1
102
RTVSPropertyOp33
 70
     1
102
RTVSPropertyOp34
 70
     1
102
RTVSPropertyOp35
 70
     1
102
RTVSPropertyOp36
 70
     1
102
RTVSPropertyOp37
 70
     1
102
RTVSPropertyOp38
 70
     1
102
RTVSPropertyOp39
 70
     1
102
RTVSPropertyOp40
 70
     1
102
RTVSPropertyOp41
 70
     1
102
RTVSPropertyOp42
 70
     1
102
RTVSPropertyOp43
 70
     1
102
RTVSPropertyOp44
 70
     1
102
RTVSPropertyOp45
 70
     1
102
RTVSPropertyOp46
 70
     1
102
RTVSPropertyOp47
 70
     1
102
RTVSPropertyOp48
 70
     1
102
RTVSPropertyOp49
 70
     1
102
RTVSPropertyOp50
 70
     1
102
RTVSPropertyOp51
 70
     0
102
RTVSPropertyOp52
 70
     0
102
RTVSPropertyOp53
 70
     1
102
RTVSPropertyOp54
 70
     1
102
RTVSPropertyOp55
 70
     1
102
RTVSPropertyOp56
 70
     1
102
RTVSPropertyOp57
 70
     1
102
RTVSPropertyOp58
 70
     1
102
RTVSPropertyOp59
 70
     1
102
RTVSPropertyOp60
 70
     1
102
RTVSPropertyOp61
 70
     1
102
RTVSPropertyOp62
 70
     1
  0
XRECORD
  5
3007
102
{ACAD_REACTORS
330
3006
102
}
330
3006
100
AcDbXrecord
280
     1
102
RTVSPost2010Prop28
280
     0
102
RTVSPost2010PropOp28
 70
     1
102
RTVSPost2010Prop29
280
     1
102
RTVSPost2010PropOp29
 70
     1
102
RTVSPost2010Prop30
280
     1
102
RTVSPost2010PropOp30
 70
     1
102
RTVSPost2010Prop31
280
     0
102
RTVSPost2010PropOp31
 70
     1
102
RTVSPost2010Prop32
280
     0
102
RTVSPost2010PropOp32
 70
     1
102
RTVSPost2010Prop33
280
     0
102
RTVSPost2010PropOp33
 70
     1
102
RTVSPost2010Prop34
280
     0
102
RTVSPost2010PropOp34
 70
     1
102
RTVSPost2010Prop35
280
     0
102
RTVSPost2010PropOp35
 70
     1
102
RTVSPost2010Prop36
280
     0
102
RTVSPost2010PropOp36
 70
     1
102
RTVSPost2010Prop37
 90
       50
102
RTVSPost2010PropOp37
 70
     1
102
RTVSPost2010Prop38
140
0.0
102
RTVSPost2010PropOp38
 70
     1
102
RTVSPost2010Prop39
140
1.0
102
RTVSPost2010PropOp39
 70
     1
102
RTVSPost2010Prop40
 90
        0
102
RTVSPost2010PropOp40
 70
     1
102
RTVSPost2010Prop41ColorIndex
 90
       18
102
RTVSPost2010Prop41ColorRGB
 90
        0
102
RTVSPost2010PropOp41
 70
     1
102
RTVSPost2010Prop42
 90
       50
102
RTVSPost2010PropOp42
 70
     1
102
RTVSPost2010Prop43
 90
        3
102
RTVSPost2010PropOp43
 70
     1
102
RTVSPost2010Prop44ColorIndex
 90
        5
102
RTVSPost2010Prop44ColorRGB
 90
      255
102
RTVSPost2010PropOp44
 70
     1
102
RTVSPost2010Prop45
280
     0
102
RTVSPost2010PropOp45
 70
     1
102
RTVSPost2010Prop46
 90
       50
102
RTVSPost2010PropOp46
 70
     1
102
RTVSPost2010Prop47
 90
       50
102
RTVSPost2010PropOp47
 70
     1
102
RTVSPost2010Prop48
 90
       50
102
RTVSPost2010PropOp48
 70
     1
102
RTVSPost2010Prop49
280
     0
102
RTVSPost2010PropOp49
 70
     1
102
RTVSPost2010Prop50
 90
       50
102
RTVSPost2010PropOp50
 70
     1
102
RTVSPost2010Prop51ColorIndex
 90
      256
102
RTVSPost2010Prop51ColorRGB
 90
-16777216
102
RTVSPost2010PropOp51
 70
     0
102
RTVSPost2010Prop52
140
1.0
102
RTVSPost2010PropOp52
 70
     0
102
RTVSPost2010Prop53
 90
        2
102
RTVSPost2010PropOp53
 70
     1
102
RTVSPost2010Prop54
  1
strokes_ogs.tif
102
RTVSPost2010PropOp54
 70
     1
102
RTVSPost2010Prop55
280
     0
102
RTVSPost2010PropOp55
 70
     1
102
RTVSPost2010Prop56
140
1.0
102
RTVSPost2010PropOp56
 70
     1
102
RTVSPost2010Prop57
140
1.0
102
RTVSPost2010PropOp57
 70
     1
102
RTVSPropertyOp0
 70
     1
102
RTVSPropertyOp1
 70
     1
102
RTVSPropertyOp2
 70
     1
102
RTVSPropertyOp3
 70
     1
102
RTVSPropertyOp4
 70
     1
102
RTVSPropertyOp5
 70
     1
102
RTVSPropertyOp6
 70
     1
102
RTVSPropertyOp7
 70
     1
102
RTVSPropertyOp8
 70
     1
102
RTVSPropertyOp9
 70
     1
102
RTVSPropertyOp10
 70
     1
102
RTVSPropertyOp11
 70
     1
102
RTVSPropertyOp12
 70
     1
102
RTVSPropertyOp13
 70
     1
102
RTVSPropertyOp14
 70
     1
102
RTVSPropertyOp15
 70
     1
102
RTVSPropertyOp16
 70
     1
102
RTVSPropertyOp17
 70
     1
102
RTVSPropertyOp18
 70
     1
102
RTVSPropertyOp19
 70
     1
102
RTVSPropertyOp20
 70
     1
102
RTVSPropertyOp21
 70
     1
102
RTVSPropertyOp22
 70
     1
102
RTVSPropertyOp23
 70
     1
102
RTVSPropertyOp24
 70
     1
102
RTVSPropertyOp25
 70
     1
102
RTVSPropertyOp26
 70
     1
102
RTVSPropertyOp27
 70
     1
102
RTVSPropertyOp28
 70
     1
102
RTVSPropertyOp29
 70
     1
102
RTVSPropertyOp30
 70
     1
102
RTVSPropertyOp31
 70
     1
102
RTVSPropertyOp32
 70
     1
102
RTVSPropertyOp33
 70
     1
102
RTVSPropertyOp34
 70
     1
102
RTVSPropertyOp35
 70
     1
102
RTVSPropertyOp36
 70
     1
102
RTVSPropertyOp37
 70
     1
102
RTVSPropertyOp38
 70
     1
102
RTVSPropertyOp39
 70
     1
102
RTVSPropertyOp40
 70
     1
102
RTVSPropertyOp41
 70
     1
102
RTVSPropertyOp42
 70
     1
102
RTVSPropertyOp43
 70
     1
102
RTVSPropertyOp44
 70
     1
102
RTVSPropertyOp45
 70
     1
102
RTVSPropertyOp46
 70
     1
102
RTVSPropertyOp47
 70
     1
102
RTVSPropertyOp48
 70
     1
102
RTVSPropertyOp49
 70
     1
102
RTVSPropertyOp50
 70
     1
102
RTVSPropertyOp51
 70
     0
102
RTVSPropertyOp52
 70
     0
102
RTVSPropertyOp53
 70
     1
102
RTVSPropertyOp54
 70
     1
102
RTVSPropertyOp55
 70
     1
102
RTVSPropertyOp56
 70
     1
102
RTVSPropertyOp57
 70
     1
102
RTVSPropertyOp58
 70
     1
102
RTVSPropertyOp59
 70
     1
102
RTVSPropertyOp60
 70
     1
102
RTVSPropertyOp61
 70
     1
102
RTVSPropertyOp62
 70
     1
  0
XRECORD
  5
3015
102
{ACAD_REACTORS
330
3014
102
}
330
3014
100
AcDbXrecord
280
     1
102
RTVSPost2010Prop28
280
     0
102
RTVSPost2010PropOp28
 70
     1
102
RTVSPost2010Prop29
280
     1
102
RTVSPost2010PropOp29
 70
     1
102
RTVSPost2010Prop30
280
     1
102
RTVSPost2010PropOp30
 70
     1
102
RTVSPost2010Prop31
280
     0
102
RTVSPost2010PropOp31
 70
     1
102
RTVSPost2010Prop32
280
     0
102
RTVSPost2010PropOp32
 70
     1
102
RTVSPost2010Prop33
280
     0
102
RTVSPost2010PropOp33
 70
     1
102
RTVSPost2010Prop34
280
     0
102
RTVSPost2010PropOp34
 70
     1
102
RTVSPost2010Prop35
280
     0
102
RTVSPost2010PropOp35
 70
     1
102
RTVSPost2010Prop36
280
     0
102
RTVSPost2010PropOp36
 70
     1
102
RTVSPost2010Prop37
 90
       50
102
RTVSPost2010PropOp37
 70
     1
102
RTVSPost2010Prop38
140
0.0
102
RTVSPost2010PropOp38
 70
     1
102
RTVSPost2010Prop39
140
1.0
102
RTVSPost2010PropOp39
 70
     1
102
RTVSPost2010Prop40
 90
        0
102
RTVSPost2010PropOp40
 70
     1
102
RTVSPost2010Prop41ColorIndex
 90
       18
102
RTVSPost2010Prop41ColorRGB
 90
        0
102
RTVSPost2010PropOp41
 70
     1
102
RTVSPost2010Prop42
 90
       50
102
RTVSPost2010PropOp42
 70
     1
102
RTVSPost2010Prop43
 90
        3
102
RTVSPost2010PropOp43
 70
     1
102
RTVSPost2010Prop44ColorIndex
 90
        5
102
RTVSPost2010Prop44ColorRGB
 90
      255
102
RTVSPost2010PropOp44
 70
     1
102
RTVSPost2010Prop45
280
     0
102
RTVSPost2010PropOp45
 70
     1
102
RTVSPost2010Prop46
 90
       50
102
RTVSPost2010PropOp46
 70
     1
102
RTVSPost2010Prop47
 90
       50
102
RTVSPost2010PropOp47
 70
     1
102
RTVSPost2010Prop48
 90
       50
102
RTVSPost2010PropOp48
 70
     1
102
RTVSPost2010Prop49
280
     0
102
RTVSPost2010PropOp49
 70
     1
102
RTVSPost2010Prop50
 90
       50
102
RTVSPost2010PropOp50
 70
     1
102
RTVSPost2010Prop51ColorIndex
 90
      256
102
RTVSPost2010Prop51ColorRGB
 90
-16777216
102
RTVSPost2010PropOp51
 70
     0
102
RTVSPost2010Prop52
140
1.0
102
RTVSPost2010PropOp52
 70
     0
102
RTVSPost2010Prop53
 90
        2
102
RTVSPost2010PropOp53
 70
     1
102
RTVSPost2010Prop54
  1
strokes_ogs.tif
102
RTVSPost2010PropOp54
 70
     1
102
RTVSPost2010Prop55
280
     0
102
RTVSPost2010PropOp55
 70
     1
102
RTVSPost2010Prop56
140
1.0
102
RTVSPost2010PropOp56
 70
     1
102
RTVSPost2010Prop57
140
1.0
102
RTVSPost2010PropOp57
 70
     1
102
RTVSPropertyOp0
 70
     1
102
RTVSPropertyOp1
 70
     1
102
RTVSPropertyOp2
 70
     1
102
RTVSPropertyOp3
 70
     1
102
RTVSPropertyOp4
 70
     1
102
RTVSPropertyOp5
 70
     1
102
RTVSPropertyOp6
 70
     1
102
RTVSPropertyOp7
 70
     1
102
RTVSPropertyOp8
 70
     1
102
RTVSPropertyOp9
 70
     1
102
RTVSPropertyOp10
 70
     1
102
RTVSPropertyOp11
 70
     1
102
RTVSPropertyOp12
 70
     1
102
RTVSPropertyOp13
 70
     1
102
RTVSPropertyOp14
 70
     1
102
RTVSPropertyOp15
 70
     1
102
RTVSPropertyOp16
 70
     1
102
RTVSPropertyOp17
 70
     1
102
RTVSPropertyOp18
 70
     1
102
RTVSPropertyOp19
 70
     1
102
RTVSPropertyOp20
 70
     1
102
RTVSPropertyOp21
 70
     1
102
RTVSPropertyOp22
 70
     1
102
RTVSPropertyOp23
 70
     1
102
RTVSPropertyOp24
 70
     1
102
RTVSPropertyOp25
 70
     1
102
RTVSPropertyOp26
 70
     1
102
RTVSPropertyOp27
 70
     1
102
RTVSPropertyOp28
 70
     1
102
RTVSPropertyOp29
 70
     1
102
RTVSPropertyOp30
 70
     1
102
RTVSPropertyOp31
 70
     1
102
RTVSPropertyOp32
 70
     1
102
RTVSPropertyOp33
 70
     1
102
RTVSPropertyOp34
 70
     1
102
RTVSPropertyOp35
 70
     1
102
RTVSPropertyOp36
 70
     1
102
RTVSPropertyOp37
 70
     1
102
RTVSPropertyOp38
 70
     1
102
RTVSPropertyOp39
 70
     1
102
RTVSPropertyOp40
 70
     1
102
RTVSPropertyOp41
 70
     1
102
RTVSPropertyOp42
 70
     1
102
RTVSPropertyOp43
 70
     1
102
RTVSPropertyOp44
 70
     1
102
RTVSPropertyOp45
 70
     1
102
RTVSPropertyOp46
 70
     1
102
RTVSPropertyOp47
 70
     1
102
RTVSPropertyOp48
 70
     1
102
RTVSPropertyOp49
 70
     1
102
RTVSPropertyOp50
 70
     1
102
RTVSPropertyOp51
 70
     0
102
RTVSPropertyOp52
 70
     0
102
RTVSPropertyOp53
 70
     1
102
RTVSPropertyOp54
 70
     1
102
RTVSPropertyOp55
 70
     1
102
RTVSPropertyOp56
 70
     1
102
RTVSPropertyOp57
 70
     1
102
RTVSPropertyOp58
 70
     1
102
RTVSPropertyOp59
 70
     1
102
RTVSPropertyOp60
 70
     1
102
RTVSPropertyOp61
 70
     1
102
RTVSPropertyOp62
 70
     1
  0
XRECORD
  5
301D
102
{ACAD_REACTORS
330
301C
102
}
330
301C
100
AcDbXrecord
280
     1
102
RTVSPost2010Prop28
280
     0
102
RTVSPost2010PropOp28
 70
     1
102
RTVSPost2010Prop29
280
     1
102
RTVSPost2010PropOp29
 70
     1
102
RTVSPost2010Prop30
280
     1
102
RTVSPost2010PropOp30
 70
     1
102
RTVSPost2010Prop31
280
     0
102
RTVSPost2010PropOp31
 70
     1
102
RTVSPost2010Prop32
280
     0
102
RTVSPost2010PropOp32
 70
     1
102
RTVSPost2010Prop33
280
     0
102
RTVSPost2010PropOp33
 70
     1
102
RTVSPost2010Prop34
280
     0
102
RTVSPost2010PropOp34
 70
     1
102
RTVSPost2010Prop35
280
     0
102
RTVSPost2010PropOp35
 70
     1
102
RTVSPost2010Prop36
280
     0
102
RTVSPost2010PropOp36
 70
     1
102
RTVSPost2010Prop37
 90
       50
102
RTVSPost2010PropOp37
 70
     1
102
RTVSPost2010Prop38
140
0.0
102
RTVSPost2010PropOp38
 70
     1
102
RTVSPost2010Prop39
140
1.0
102
RTVSPost2010PropOp39
 70
     1
102
RTVSPost2010Prop40
 90
        0
102
RTVSPost2010PropOp40
 70
     1
102
RTVSPost2010Prop41ColorIndex
 90
       18
102
RTVSPost2010Prop41ColorRGB
 90
        0
102
RTVSPost2010PropOp41
 70
     1
102
RTVSPost2010Prop42
 90
       50
102
RTVSPost2010PropOp42
 70
     1
102
RTVSPost2010Prop43
 90
        3
102
RTVSPost2010PropOp43
 70
     1
102
RTVSPost2010Prop44ColorIndex
 90
        5
102
RTVSPost2010Prop44ColorRGB
 90
      255
102
RTVSPost2010PropOp44
 70
     1
102
RTVSPost2010Prop45
280
     0
102
RTVSPost2010PropOp45
 70
     1
102
RTVSPost2010Prop46
 90
       50
102
RTVSPost2010PropOp46
 70
     1
102
RTVSPost2010Prop47
 90
       50
102
RTVSPost2010PropOp47
 70
     1
102
RTVSPost2010Prop48
 90
       50
102
RTVSPost2010PropOp48
 70
     1
102
RTVSPost2010Prop49
280
     0
102
RTVSPost2010PropOp49
 70
     1
102
RTVSPost2010Prop50
 90
       50
102
RTVSPost2010PropOp50
 70
     1
102
RTVSPost2010Prop51ColorIndex
 90
      256
102
RTVSPost2010Prop51ColorRGB
 90
-16777216
102
RTVSPost2010PropOp51
 70
     0
102
RTVSPost2010Prop52
140
1.0
102
RTVSPost2010PropOp52
 70
     0
102
RTVSPost2010Prop53
 90
        2
102
RTVSPost2010PropOp53
 70
     1
102
RTVSPost2010Prop54
  1
strokes_ogs.tif
102
RTVSPost2010PropOp54
 70
     1
102
RTVSPost2010Prop55
280
     0
102
RTVSPost2010PropOp55
 70
     1
102
RTVSPost2010Prop56
140
1.0
102
RTVSPost2010PropOp56
 70
     1
102
RTVSPost2010Prop57
140
1.0
102
RTVSPost2010PropOp57
 70
     1
102
RTVSPropertyOp0
 70
     1
102
RTVSPropertyOp1
 70
     1
102
RTVSPropertyOp2
 70
     1
102
RTVSPropertyOp3
 70
     1
102
RTVSPropertyOp4
 70
     1
102
RTVSPropertyOp5
 70
     1
102
RTVSPropertyOp6
 70
     1
102
RTVSPropertyOp7
 70
     1
102
RTVSPropertyOp8
 70
     1
102
RTVSPropertyOp9
 70
     1
102
RTVSPropertyOp10
 70
     1
102
RTVSPropertyOp11
 70
     1
102
RTVSPropertyOp12
 70
     1
102
RTVSPropertyOp13
 70
     1
102
RTVSPropertyOp14
 70
     1
102
RTVSPropertyOp15
 70
     1
102
RTVSPropertyOp16
 70
     1
102
RTVSPropertyOp17
 70
     1
102
RTVSPropertyOp18
 70
     1
102
RTVSPropertyOp19
 70
     1
102
RTVSPropertyOp20
 70
     1
102
RTVSPropertyOp21
 70
     1
102
RTVSPropertyOp22
 70
     1
102
RTVSPropertyOp23
 70
     1
102
RTVSPropertyOp24
 70
     1
102
RTVSPropertyOp25
 70
     1
102
RTVSPropertyOp26
 70
     1
102
RTVSPropertyOp27
 70
     1
102
RTVSPropertyOp28
 70
     1
102
RTVSPropertyOp29
 70
     1
102
RTVSPropertyOp30
 70
     1
102
RTVSPropertyOp31
 70
     1
102
RTVSPropertyOp32
 70
     1
102
RTVSPropertyOp33
 70
     1
102
RTVSPropertyOp34
 70
     1
102
RTVSPropertyOp35
 70
     1
102
RTVSPropertyOp36
 70
     1
102
RTVSPropertyOp37
 70
     1
102
RTVSPropertyOp38
 70
     1
102
RTVSPropertyOp39
 70
     1
102
RTVSPropertyOp40
 70
     1
102
RTVSPropertyOp41
 70
     1
102
RTVSPropertyOp42
 70
     1
102
RTVSPropertyOp43
 70
     1
102
RTVSPropertyOp44
 70
     1
102
RTVSPropertyOp45
 70
     1
102
RTVSPropertyOp46
 70
     1
102
RTVSPropertyOp47
 70
     1
102
RTVSPropertyOp48
 70
     1
102
RTVSPropertyOp49
 70
     1
102
RTVSPropertyOp50
 70
     1
102
RTVSPropertyOp51
 70
     0
102
RTVSPropertyOp52
 70
     0
102
RTVSPropertyOp53
 70
     1
102
RTVSPropertyOp54
 70
     1
102
RTVSPropertyOp55
 70
     1
102
RTVSPropertyOp56
 70
     1
102
RTVSPropertyOp57
 70
     1
102
RTVSPropertyOp58
 70
     1
102
RTVSPropertyOp59
 70
     1
102
RTVSPropertyOp60
 70
     1
102
RTVSPropertyOp61
 70
     1
102
RTVSPropertyOp62
 70
     1
  0
XRECORD
  5
300F
102
{ACAD_REACTORS
330
300E
102
}
330
300E
100
AcDbXrecord
280
     1
102
RTVSPost2010Prop28
280
     0
102
RTVSPost2010PropOp28
 70
     1
102
RTVSPost2010Prop29
280
     1
102
RTVSPost2010PropOp29
 70
     1
102
RTVSPost2010Prop30
280
     1
102
RTVSPost2010PropOp30
 70
     1
102
RTVSPost2010Prop31
280
     0
102
RTVSPost2010PropOp31
 70
     1
102
RTVSPost2010Prop32
280
     0
102
RTVSPost2010PropOp32
 70
     1
102
RTVSPost2010Prop33
280
     0
102
RTVSPost2010PropOp33
 70
     1
102
RTVSPost2010Prop34
280
     0
102
RTVSPost2010PropOp34
 70
     1
102
RTVSPost2010Prop35
280
     0
102
RTVSPost2010PropOp35
 70
     1
102
RTVSPost2010Prop36
280
     0
102
RTVSPost2010PropOp36
 70
     1
102
RTVSPost2010Prop37
 90
       50
102
RTVSPost2010PropOp37
 70
     1
102
RTVSPost2010Prop38
140
0.0
102
RTVSPost2010PropOp38
 70
     1
102
RTVSPost2010Prop39
140
1.0
102
RTVSPost2010PropOp39
 70
     1
102
RTVSPost2010Prop40
 90
        0
102
RTVSPost2010PropOp40
 70
     1
102
RTVSPost2010Prop41ColorIndex
 90
       18
102
RTVSPost2010Prop41ColorRGB
 90
        0
102
RTVSPost2010PropOp41
 70
     1
102
RTVSPost2010Prop42
 90
       50
102
RTVSPost2010PropOp42
 70
     1
102
RTVSPost2010Prop43
 90
        3
102
RTVSPost2010PropOp43
 70
     1
102
RTVSPost2010Prop44ColorIndex
 90
        5
102
RTVSPost2010Prop44ColorRGB
 90
      255
102
RTVSPost2010PropOp44
 70
     1
102
RTVSPost2010Prop45
280
     0
102
RTVSPost2010PropOp45
 70
     1
102
RTVSPost2010Prop46
 90
       50
102
RTVSPost2010PropOp46
 70
     1
102
RTVSPost2010Prop47
 90
       50
102
RTVSPost2010PropOp47
 70
     1
102
RTVSPost2010Prop48
 90
       50
102
RTVSPost2010PropOp48
 70
     1
102
RTVSPost2010Prop49
280
     0
102
RTVSPost2010PropOp49
 70
     1
102
RTVSPost2010Prop50
 90
       50
102
RTVSPost2010PropOp50
 70
     1
102
RTVSPost2010Prop51ColorIndex
 90
      256
102
RTVSPost2010Prop51ColorRGB
 90
-16777216
102
RTVSPost2010PropOp51
 70
     0
102
RTVSPost2010Prop52
140
1.0
102
RTVSPost2010PropOp52
 70
     0
102
RTVSPost2010Prop53
 90
        2
102
RTVSPost2010PropOp53
 70
     1
102
RTVSPost2010Prop54
  1
strokes_ogs.tif
102
RTVSPost2010PropOp54
 70
     1
102
RTVSPost2010Prop55
280
     0
102
RTVSPost2010PropOp55
 70
     1
102
RTVSPost2010Prop56
140
1.0
102
RTVSPost2010PropOp56
 70
     1
102
RTVSPost2010Prop57
140
1.0
102
RTVSPost2010PropOp57
 70
     1
102
RTVSPropertyOp0
 70
     1
102
RTVSPropertyOp1
 70
     1
102
RTVSPropertyOp2
 70
     1
102
RTVSPropertyOp3
 70
     1
102
RTVSPropertyOp4
 70
     1
102
RTVSPropertyOp5
 70
     1
102
RTVSPropertyOp6
 70
     1
102
RTVSPropertyOp7
 70
     1
102
RTVSPropertyOp8
 70
     1
102
RTVSPropertyOp9
 70
     1
102
RTVSPropertyOp10
 70
     1
102
RTVSPropertyOp11
 70
     1
102
RTVSPropertyOp12
 70
     1
102
RTVSPropertyOp13
 70
     1
102
RTVSPropertyOp14
 70
     1
102
RTVSPropertyOp15
 70
     1
102
RTVSPropertyOp16
 70
     1
102
RTVSPropertyOp17
 70
     1
102
RTVSPropertyOp18
 70
     1
102
RTVSPropertyOp19
 70
     1
102
RTVSPropertyOp20
 70
     1
102
RTVSPropertyOp21
 70
     1
102
RTVSPropertyOp22
 70
     1
102
RTVSPropertyOp23
 70
     1
102
RTVSPropertyOp24
 70
     1
102
RTVSPropertyOp25
 70
     1
102
RTVSPropertyOp26
 70
     1
102
RTVSPropertyOp27
 70
     1
102
RTVSPropertyOp28
 70
     1
102
RTVSPropertyOp29
 70
     1
102
RTVSPropertyOp30
 70
     1
102
RTVSPropertyOp31
 70
     1
102
RTVSPropertyOp32
 70
     1
102
RTVSPropertyOp33
 70
     1
102
RTVSPropertyOp34
 70
     1
102
RTVSPropertyOp35
 70
     1
102
RTVSPropertyOp36
 70
     1
102
RTVSPropertyOp37
 70
     1
102
RTVSPropertyOp38
 70
     1
102
RTVSPropertyOp39
 70
     1
102
RTVSPropertyOp40
 70
     1
102
RTVSPropertyOp41
 70
     1
102
RTVSPropertyOp42
 70
     1
102
RTVSPropertyOp43
 70
     1
102
RTVSPropertyOp44
 70
     1
102
RTVSPropertyOp45
 70
     1
102
RTVSPropertyOp46
 70
     1
102
RTVSPropertyOp47
 70
     1
102
RTVSPropertyOp48
 70
     1
102
RTVSPropertyOp49
 70
     1
102
RTVSPropertyOp50
 70
     1
102
RTVSPropertyOp51
 70
     0
102
RTVSPropertyOp52
 70
     0
102
RTVSPropertyOp53
 70
     1
102
RTVSPropertyOp54
 70
     1
102
RTVSPropertyOp55
 70
     1
102
RTVSPropertyOp56
 70
     1
102
RTVSPropertyOp57
 70
     1
102
RTVSPropertyOp58
 70
     1
102
RTVSPropertyOp59
 70
     1
102
RTVSPropertyOp60
 70
     1
102
RTVSPropertyOp61
 70
     1
102
RTVSPropertyOp62
 70
     1
  0
XRECORD
  5
3013
102
{ACAD_REACTORS
330
3012
102
}
330
3012
100
AcDbXrecord
280
     1
102
RTVSPost2010Prop28
280
     0
102
RTVSPost2010PropOp28
 70
     1
102
RTVSPost2010Prop29
280
     1
102
RTVSPost2010PropOp29
 70
     1
102
RTVSPost2010Prop30
280
     1
102
RTVSPost2010PropOp30
 70
     1
102
RTVSPost2010Prop31
280
     0
102
RTVSPost2010PropOp31
 70
     1
102
RTVSPost2010Prop32
280
     0
102
RTVSPost2010PropOp32
 70
     1
102
RTVSPost2010Prop33
280
     0
102
RTVSPost2010PropOp33
 70
     1
102
RTVSPost2010Prop34
280
     0
102
RTVSPost2010PropOp34
 70
     1
102
RTVSPost2010Prop35
280
     0
102
RTVSPost2010PropOp35
 70
     1
102
RTVSPost2010Prop36
280
     0
102
RTVSPost2010PropOp36
 70
     1
102
RTVSPost2010Prop37
 90
       50
102
RTVSPost2010PropOp37
 70
     1
102
RTVSPost2010Prop38
140
0.0
102
RTVSPost2010PropOp38
 70
     1
102
RTVSPost2010Prop39
140
1.0
102
RTVSPost2010PropOp39
 70
     1
102
RTVSPost2010Prop40
 90
        0
102
RTVSPost2010PropOp40
 70
     1
102
RTVSPost2010Prop41ColorIndex
 90
       18
102
RTVSPost2010Prop41ColorRGB
 90
        0
102
RTVSPost2010PropOp41
 70
     1
102
RTVSPost2010Prop42
 90
       50
102
RTVSPost2010PropOp42
 70
     1
102
RTVSPost2010Prop43
 90
        3
102
RTVSPost2010PropOp43
 70
     1
102
RTVSPost2010Prop44ColorIndex
 90
        5
102
RTVSPost2010Prop44ColorRGB
 90
      255
102
RTVSPost2010PropOp44
 70
     1
102
RTVSPost2010Prop45
280
     0
102
RTVSPost2010PropOp45
 70
     1
102
RTVSPost2010Prop46
 90
       50
102
RTVSPost2010PropOp46
 70
     1
102
RTVSPost2010Prop47
 90
       50
102
RTVSPost2010PropOp47
 70
     1
102
RTVSPost2010Prop48
 90
       50
102
RTVSPost2010PropOp48
 70
     1
102
RTVSPost2010Prop49
280
     0
102
RTVSPost2010PropOp49
 70
     1
102
RTVSPost2010Prop50
 90
       50
102
RTVSPost2010PropOp50
 70
     1
102
RTVSPost2010Prop51ColorIndex
 90
      256
102
RTVSPost2010Prop51ColorRGB
 90
-16777216
102
RTVSPost2010PropOp51
 70
     0
102
RTVSPost2010Prop52
140
1.0
102
RTVSPost2010PropOp52
 70
     0
102
RTVSPost2010Prop53
 90
        2
102
RTVSPost2010PropOp53
 70
     1
102
RTVSPost2010Prop54
  1
strokes_ogs.tif
102
RTVSPost2010PropOp54
 70
     1
102
RTVSPost2010Prop55
280
     0
102
RTVSPost2010PropOp55
 70
     1
102
RTVSPost2010Prop56
140
1.0
102
RTVSPost2010PropOp56
 70
     1
102
RTVSPost2010Prop57
140
1.0
102
RTVSPost2010PropOp57
 70
     1
102
RTVSPropertyOp0
 70
     1
102
RTVSPropertyOp1
 70
     1
102
RTVSPropertyOp2
 70
     1
102
RTVSPropertyOp3
 70
     1
102
RTVSPropertyOp4
 70
     1
102
RTVSPropertyOp5
 70
     1
102
RTVSPropertyOp6
 70
     1
102
RTVSPropertyOp7
 70
     1
102
RTVSPropertyOp8
 70
     1
102
RTVSPropertyOp9
 70
     1
102
RTVSPropertyOp10
 70
     1
102
RTVSPropertyOp11
 70
     1
102
RTVSPropertyOp12
 70
     1
102
RTVSPropertyOp13
 70
     1
102
RTVSPropertyOp14
 70
     1
102
RTVSPropertyOp15
 70
     1
102
RTVSPropertyOp16
 70
     1
102
RTVSPropertyOp17
 70
     1
102
RTVSPropertyOp18
 70
     1
102
RTVSPropertyOp19
 70
     1
102
RTVSPropertyOp20
 70
     1
102
RTVSPropertyOp21
 70
     1
102
RTVSPropertyOp22
 70
     1
102
RTVSPropertyOp23
 70
     1
102
RTVSPropertyOp24
 70
     1
102
RTVSPropertyOp25
 70
     1
102
RTVSPropertyOp26
 70
     1
102
RTVSPropertyOp27
 70
     1
102
RTVSPropertyOp28
 70
     1
102
RTVSPropertyOp29
 70
     1
102
RTVSPropertyOp30
 70
     1
102
RTVSPropertyOp31
 70
     1
102
RTVSPropertyOp32
 70
     1
102
RTVSPropertyOp33
 70
     1
102
RTVSPropertyOp34
 70
     1
102
RTVSPropertyOp35
 70
     1
102
RTVSPropertyOp36
 70
     1
102
RTVSPropertyOp37
 70
     1
102
RTVSPropertyOp38
 70
     1
102
RTVSPropertyOp39
 70
     1
102
RTVSPropertyOp40
 70
     1
102
RTVSPropertyOp41
 70
     1
102
RTVSPropertyOp42
 70
     1
102
RTVSPropertyOp43
 70
     1
102
RTVSPropertyOp44
 70
     1
102
RTVSPropertyOp45
 70
     1
102
RTVSPropertyOp46
 70
     1
102
RTVSPropertyOp47
 70
     1
102
RTVSPropertyOp48
 70
     1
102
RTVSPropertyOp49
 70
     1
102
RTVSPropertyOp50
 70
     1
102
RTVSPropertyOp51
 70
     0
102
RTVSPropertyOp52
 70
     0
102
RTVSPropertyOp53
 70
     1
102
RTVSPropertyOp54
 70
     1
102
RTVSPropertyOp55
 70
     1
102
RTVSPropertyOp56
 70
     1
102
RTVSPropertyOp57
 70
     1
102
RTVSPropertyOp58
 70
     1
102
RTVSPropertyOp59
 70
     1
102
RTVSPropertyOp60
 70
     1
102
RTVSPropertyOp61
 70
     1
102
RTVSPropertyOp62
 70
     1
  0
XRECORD
  5
302D
102
{ACAD_REACTORS
330
302C
102
}
330
302C
100
AcDbXrecord
280
     1
102
RTVSPost2010Prop28
280
     0
102
RTVSPost2010PropOp28
 70
     1
102
RTVSPost2010Prop29
280
     1
102
RTVSPost2010PropOp29
 70
     1
102
RTVSPost2010Prop30
280
     1
102
RTVSPost2010PropOp30
 70
     1
102
RTVSPost2010Prop31
280
     0
102
RTVSPost2010PropOp31
 70
     1
102
RTVSPost2010Prop32
280
     0
102
RTVSPost2010PropOp32
 70
     1
102
RTVSPost2010Prop33
280
     0
102
RTVSPost2010PropOp33
 70
     1
102
RTVSPost2010Prop34
280
     0
102
RTVSPost2010PropOp34
 70
     1
102
RTVSPost2010Prop35
280
     0
102
RTVSPost2010PropOp35
 70
     1
102
RTVSPost2010Prop36
280
     0
102
RTVSPost2010PropOp36
 70
     1
102
RTVSPost2010Prop37
 90
       50
102
RTVSPost2010PropOp37
 70
     0
102
RTVSPost2010Prop38
140
0.0
102
RTVSPost2010PropOp38
 70
     0
102
RTVSPost2010Prop39
140
1.0
102
RTVSPost2010PropOp39
 70
     0
102
RTVSPost2010Prop40
 90
        0
102
RTVSPost2010PropOp40
 70
     0
102
RTVSPost2010Prop41ColorIndex
 90
       18
102
RTVSPost2010Prop41ColorRGB
 90
        0
102
RTVSPost2010PropOp41
 70
     0
102
RTVSPost2010Prop42
 90
       50
102
RTVSPost2010PropOp42
 70
     0
102
RTVSPost2010Prop43
 90
        3
102
RTVSPost2010PropOp43
 70
     0
102
RTVSPost2010Prop44ColorIndex
 90
        5
102
RTVSPost2010Prop44ColorRGB
 90
      255
102
RTVSPost2010PropOp44
 70
     0
102
RTVSPost2010Prop45
280
     0
102
RTVSPost2010PropOp45
 70
     1
102
RTVSPost2010Prop46
 90
       50
102
RTVSPost2010PropOp46
 70
     0
102
RTVSPost2010Prop47
 90
       50
102
RTVSPost2010PropOp47
 70
     0
102
RTVSPost2010Prop48
 90
       50
102
RTVSPost2010PropOp48
 70
     0
102
RTVSPost2010Prop49
280
     0
102
RTVSPost2010PropOp49
 70
     1
102
RTVSPost2010Prop50
 90
       50
102
RTVSPost2010PropOp50
 70
     0
102
RTVSPost2010Prop51ColorIndex
 90
      256
102
RTVSPost2010Prop51ColorRGB
 90
-16777216
102
RTVSPost2010PropOp51
 70
     0
102
RTVSPost2010Prop52
140
1.0
102
RTVSPost2010PropOp52
 70
     0
102
RTVSPost2010Prop53
 90
        2
102
RTVSPost2010PropOp53
 70
     0
102
RTVSPost2010Prop54
  1
strokes_ogs.tif
102
RTVSPost2010PropOp54
 70
     0
102
RTVSPost2010Prop55
280
     0
102
RTVSPost2010PropOp55
 70
     1
102
RTVSPost2010Prop56
140
1.0
102
RTVSPost2010PropOp56
 70
     0
102
RTVSPost2010Prop57
140
1.0
102
RTVSPost2010PropOp57
 70
     0
102
RTVSPropertyOp0
 70
     0
102
RTVSPropertyOp1
 70
     0
102
RTVSPropertyOp2
 70
     0
102
RTVSPropertyOp3
 70
     0
102
RTVSPropertyOp4
 70
     0
102
RTVSPropertyOp5
 70
     0
102
RTVSPropertyOp6
 70
     0
102
RTVSPropertyOp7
 70
     0
102
RTVSPropertyOp8
 70
     0
102
RTVSPropertyOp9
 70
     0
102
RTVSPropertyOp10
 70
     0
102
RTVSPropertyOp11
 70
     0
102
RTVSPropertyOp12
 70
     0
102
RTVSPropertyOp13
 70
     0
102
RTVSPropertyOp14
 70
     2
102
RTVSPropertyOp15
 70
     0
102
RTVSPropertyOp16
 70
     0
102
RTVSPropertyOp17
 70
     0
102
RTVSPropertyOp18
 70
     0
102
RTVSPropertyOp19
 70
     0
102
RTVSPropertyOp20
 70
     0
102
RTVSPropertyOp21
 70
     0
102
RTVSPropertyOp22
 70
     0
102
RTVSPropertyOp23
 70
     0
102
RTVSPropertyOp24
 70
     0
102
RTVSPropertyOp25
 70
     0
102
RTVSPropertyOp26
 70
     0
102
RTVSPropertyOp27
 70
     0
102
RTVSPropertyOp28
 70
     1
102
RTVSPropertyOp29
 70
     1
102
RTVSPropertyOp30
 70
     1
102
RTVSPropertyOp31
 70
     1
102
RTVSPropertyOp32
 70
     1
102
RTVSPropertyOp33
 70
     1
102
RTVSPropertyOp34
 70
     1
102
RTVSPropertyOp35
 70
     1
102
RTVSPropertyOp36
 70
     1
102
RTVSPropertyOp37
 70
     0
102
RTVSPropertyOp38
 70
     0
102
RTVSPropertyOp39
 70
     0
102
RTVSPropertyOp40
 70
     0
102
RTVSPropertyOp41
 70
     0
102
RTVSPropertyOp42
 70
     0
102
RTVSPropertyOp43
 70
     0
102
RTVSPropertyOp44
 70
     0
102
RTVSPropertyOp45
 70
     1
102
RTVSPropertyOp46
 70
     0
102
RTVSPropertyOp47
 70
     0
102
RTVSPropertyOp48
 70
     0
102
RTVSPropertyOp49
 70
     1
102
RTVSPropertyOp50
 70
     0
102
RTVSPropertyOp51
 70
     0
102
RTVSPropertyOp52
 70
     0
102
RTVSPropertyOp53
 70
     0
102
RTVSPropertyOp54
 70
     0
102
RTVSPropertyOp55
 70
     1
102
RTVSPropertyOp56
 70
     0
102
RTVSPropertyOp57
 70
     0
102
RTVSPropertyOp58
 70
     0
102
RTVSPropertyOp59
 70
     0
102
RTVSPropertyOp60
 70
     0
102
RTVSPropertyOp61
 70
     0
102
RTVSPropertyOp62
 70
     0
  0
XRECORD
  5
301B
102
{ACAD_REACTORS
330
301A
102
}
330
301A
100
AcDbXrecord
280
     1
102
RTVSPost2010Prop28
280
     0
102
RTVSPost2010PropOp28
 70
     1
102
RTVSPost2010Prop29
280
     1
102
RTVSPost2010PropOp29
 70
     1
102
RTVSPost2010Prop30
280
     1
102
RTVSPost2010PropOp30
 70
     1
102
RTVSPost2010Prop31
280
     0
102
RTVSPost2010PropOp31
 70
     1
102
RTVSPost2010Prop32
280
     0
102
RTVSPost2010PropOp32
 70
     1
102
RTVSPost2010Prop33
280
     0
102
RTVSPost2010PropOp33
 70
     1
102
RTVSPost2010Prop34
280
     0
102
RTVSPost2010PropOp34
 70
     1
102
RTVSPost2010Prop35
280
     0
102
RTVSPost2010PropOp35
 70
     1
102
RTVSPost2010Prop36
280
     0
102
RTVSPost2010PropOp36
 70
     1
102
RTVSPost2010Prop37
 90
       50
102
RTVSPost2010PropOp37
 70
     1
102
RTVSPost2010Prop38
140
0.0
102
RTVSPost2010PropOp38
 70
     1
102
RTVSPost2010Prop39
140
1.0
102
RTVSPost2010PropOp39
 70
     1
102
RTVSPost2010Prop40
 90
        0
102
RTVSPost2010PropOp40
 70
     1
102
RTVSPost2010Prop41ColorIndex
 90
       18
102
RTVSPost2010Prop41ColorRGB
 90
        0
102
RTVSPost2010PropOp41
 70
     1
102
RTVSPost2010Prop42
 90
       50
102
RTVSPost2010PropOp42
 70
     1
102
RTVSPost2010Prop43
 90
        3
102
RTVSPost2010PropOp43
 70
     1
102
RTVSPost2010Prop44ColorIndex
 90
        5
102
RTVSPost2010Prop44ColorRGB
 90
      255
102
RTVSPost2010PropOp44
 70
     1
102
RTVSPost2010Prop45
280
     0
102
RTVSPost2010PropOp45
 70
     1
102
RTVSPost2010Prop46
 90
       50
102
RTVSPost2010PropOp46
 70
     1
102
RTVSPost2010Prop47
 90
       50
102
RTVSPost2010PropOp47
 70
     1
102
RTVSPost2010Prop48
 90
       50
102
RTVSPost2010PropOp48
 70
     1
102
RTVSPost2010Prop49
280
     0
102
RTVSPost2010PropOp49
 70
     1
102
RTVSPost2010Prop50
 90
       50
102
RTVSPost2010PropOp50
 70
     1
102
RTVSPost2010Prop51ColorIndex
 90
      256
102
RTVSPost2010Prop51ColorRGB
 90
-16777216
102
RTVSPost2010PropOp51
 70
     0
102
RTVSPost2010Prop52
140
1.0
102
RTVSPost2010PropOp52
 70
     0
102
RTVSPost2010Prop53
 90
        2
102
RTVSPost2010PropOp53
 70
     1
102
RTVSPost2010Prop54
  1
strokes_ogs.tif
102
RTVSPost2010PropOp54
 70
     1
102
RTVSPost2010Prop55
280
     0
102
RTVSPost2010PropOp55
 70
     1
102
RTVSPost2010Prop56
140
1.0
102
RTVSPost2010PropOp56
 70
     1
102
RTVSPost2010Prop57
140
1.0
102
RTVSPost2010PropOp57
 70
     1
102
RTVSPropertyOp0
 70
     1
102
RTVSPropertyOp1
 70
     1
102
RTVSPropertyOp2
 70
     1
102
RTVSPropertyOp3
 70
     1
102
RTVSPropertyOp4
 70
     1
102
RTVSPropertyOp5
 70
     1
102
RTVSPropertyOp6
 70
     1
102
RTVSPropertyOp7
 70
     1
102
RTVSPropertyOp8
 70
     1
102
RTVSPropertyOp9
 70
     1
102
RTVSPropertyOp10
 70
     1
102
RTVSPropertyOp11
 70
     1
102
RTVSPropertyOp12
 70
     1
102
RTVSPropertyOp13
 70
     1
102
RTVSPropertyOp14
 70
     1
102
RTVSPropertyOp15
 70
     1
102
RTVSPropertyOp16
 70
     1
102
RTVSPropertyOp17
 70
     1
102
RTVSPropertyOp18
 70
     1
102
RTVSPropertyOp19
 70
     1
102
RTVSPropertyOp20
 70
     1
102
RTVSPropertyOp21
 70
     1
102
RTVSPropertyOp22
 70
     1
102
RTVSPropertyOp23
 70
     1
102
RTVSPropertyOp24
 70
     1
102
RTVSPropertyOp25
 70
     1
102
RTVSPropertyOp26
 70
     1
102
RTVSPropertyOp27
 70
     1
102
RTVSPropertyOp28
 70
     1
102
RTVSPropertyOp29
 70
     1
102
RTVSPropertyOp30
 70
     1
102
RTVSPropertyOp31
 70
     1
102
RTVSPropertyOp32
 70
     1
102
RTVSPropertyOp33
 70
     1
102
RTVSPropertyOp34
 70
     1
102
RTVSPropertyOp35
 70
     1
102
RTVSPropertyOp36
 70
     1
102
RTVSPropertyOp37
 70
     1
102
RTVSPropertyOp38
 70
     1
102
RTVSPropertyOp39
 70
     1
102
RTVSPropertyOp40
 70
     1
102
RTVSPropertyOp41
 70
     1
102
RTVSPropertyOp42
 70
     1
102
RTVSPropertyOp43
 70
     1
102
RTVSPropertyOp44
 70
     1
102
RTVSPropertyOp45
 70
     1
102
RTVSPropertyOp46
 70
     1
102
RTVSPropertyOp47
 70
     1
102
RTVSPropertyOp48
 70
     1
102
RTVSPropertyOp49
 70
     1
102
RTVSPropertyOp50
 70
     1
102
RTVSPropertyOp51
 70
     0
102
RTVSPropertyOp52
 70
     0
102
RTVSPropertyOp53
 70
     1
102
RTVSPropertyOp54
 70
     1
102
RTVSPropertyOp55
 70
     1
102
RTVSPropertyOp56
 70
     1
102
RTVSPropertyOp57
 70
     1
102
RTVSPropertyOp58
 70
     1
102
RTVSPropertyOp59
 70
     1
102
RTVSPropertyOp60
 70
     1
102
RTVSPropertyOp61
 70
     1
102
RTVSPropertyOp62
 70
     1
  0
XRECORD
  5
2FFF
102
{ACAD_REACTORS
330
2FFE
102
}
330
2FFE
100
AcDbXrecord
280
     1
102
RTVSPost2010Prop28
280
     0
102
RTVSPost2010PropOp28
 70
     1
102
RTVSPost2010Prop29
280
     1
102
RTVSPost2010PropOp29
 70
     1
102
RTVSPost2010Prop30
280
     1
102
RTVSPost2010PropOp30
 70
     1
102
RTVSPost2010Prop31
280
     0
102
RTVSPost2010PropOp31
 70
     1
102
RTVSPost2010Prop32
280
     0
102
RTVSPost2010PropOp32
 70
     1
102
RTVSPost2010Prop33
280
     0
102
RTVSPost2010PropOp33
 70
     1
102
RTVSPost2010Prop34
280
     0
102
RTVSPost2010PropOp34
 70
     1
102
RTVSPost2010Prop35
280
     0
102
RTVSPost2010PropOp35
 70
     1
102
RTVSPost2010Prop36
280
     0
102
RTVSPost2010PropOp36
 70
     1
102
RTVSPost2010Prop37
 90
       50
102
RTVSPost2010PropOp37
 70
     1
102
RTVSPost2010Prop38
140
0.0
102
RTVSPost2010PropOp38
 70
     1
102
RTVSPost2010Prop39
140
1.0
102
RTVSPost2010PropOp39
 70
     1
102
RTVSPost2010Prop40
 90
        0
102
RTVSPost2010PropOp40
 70
     1
102
RTVSPost2010Prop41ColorIndex
 90
       18
102
RTVSPost2010Prop41ColorRGB
 90
        0
102
RTVSPost2010PropOp41
 70
     1
102
RTVSPost2010Prop42
 90
       50
102
RTVSPost2010PropOp42
 70
     1
102
RTVSPost2010Prop43
 90
        3
102
RTVSPost2010PropOp43
 70
     1
102
RTVSPost2010Prop44ColorIndex
 90
        5
102
RTVSPost2010Prop44ColorRGB
 90
      255
102
RTVSPost2010PropOp44
 70
     1
102
RTVSPost2010Prop45
280
     0
102
RTVSPost2010PropOp45
 70
     1
102
RTVSPost2010Prop46
 90
       50
102
RTVSPost2010PropOp46
 70
     1
102
RTVSPost2010Prop47
 90
       50
102
RTVSPost2010PropOp47
 70
     1
102
RTVSPost2010Prop48
 90
       50
102
RTVSPost2010PropOp48
 70
     1
102
RTVSPost2010Prop49
280
     0
102
RTVSPost2010PropOp49
 70
     1
102
RTVSPost2010Prop50
 90
       50
102
RTVSPost2010PropOp50
 70
     1
102
RTVSPost2010Prop51ColorIndex
 90
      256
102
RTVSPost2010Prop51ColorRGB
 90
-16777216
102
RTVSPost2010PropOp51
 70
     0
102
RTVSPost2010Prop52
140
1.0
102
RTVSPost2010PropOp52
 70
     0
102
RTVSPost2010Prop53
 90
        2
102
RTVSPost2010PropOp53
 70
     1
102
RTVSPost2010Prop54
  1
strokes_ogs.tif
102
RTVSPost2010PropOp54
 70
     1
102
RTVSPost2010Prop55
280
     0
102
RTVSPost2010PropOp55
 70
     1
102
RTVSPost2010Prop56
140
1.0
102
RTVSPost2010PropOp56
 70
     1
102
RTVSPost2010Prop57
140
1.0
102
RTVSPost2010PropOp57
 70
     1
102
RTVSPropertyOp0
 70
     1
102
RTVSPropertyOp1
 70
     1
102
RTVSPropertyOp2
 70
     1
102
RTVSPropertyOp3
 70
     1
102
RTVSPropertyOp4
 70
     1
102
RTVSPropertyOp5
 70
     1
102
RTVSPropertyOp6
 70
     1
102
RTVSPropertyOp7
 70
     1
102
RTVSPropertyOp8
 70
     1
102
RTVSPropertyOp9
 70
     1
102
RTVSPropertyOp10
 70
     1
102
RTVSPropertyOp11
 70
     1
102
RTVSPropertyOp12
 70
     1
102
RTVSPropertyOp13
 70
     1
102
RTVSPropertyOp14
 70
     1
102
RTVSPropertyOp15
 70
     1
102
RTVSPropertyOp16
 70
     1
102
RTVSPropertyOp17
 70
     1
102
RTVSPropertyOp18
 70
     1
102
RTVSPropertyOp19
 70
     1
102
RTVSPropertyOp20
 70
     1
102
RTVSPropertyOp21
 70
     1
102
RTVSPropertyOp22
 70
     1
102
RTVSPropertyOp23
 70
     1
102
RTVSPropertyOp24
 70
     1
102
RTVSPropertyOp25
 70
     1
102
RTVSPropertyOp26
 70
     1
102
RTVSPropertyOp27
 70
     1
102
RTVSPropertyOp28
 70
     1
102
RTVSPropertyOp29
 70
     1
102
RTVSPropertyOp30
 70
     1
102
RTVSPropertyOp31
 70
     1
102
RTVSPropertyOp32
 70
     1
102
RTVSPropertyOp33
 70
     1
102
RTVSPropertyOp34
 70
     1
102
RTVSPropertyOp35
 70
     1
102
RTVSPropertyOp36
 70
     1
102
RTVSPropertyOp37
 70
     1
102
RTVSPropertyOp38
 70
     1
102
RTVSPropertyOp39
 70
     1
102
RTVSPropertyOp40
 70
     1
102
RTVSPropertyOp41
 70
     1
102
RTVSPropertyOp42
 70
     1
102
RTVSPropertyOp43
 70
     1
102
RTVSPropertyOp44
 70
     1
102
RTVSPropertyOp45
 70
     1
102
RTVSPropertyOp46
 70
     1
102
RTVSPropertyOp47
 70
     1
102
RTVSPropertyOp48
 70
     1
102
RTVSPropertyOp49
 70
     1
102
RTVSPropertyOp50
 70
     1
102
RTVSPropertyOp51
 70
     0
102
RTVSPropertyOp52
 70
     0
102
RTVSPropertyOp53
 70
     1
102
RTVSPropertyOp54
 70
     1
102
RTVSPropertyOp55
 70
     1
102
RTVSPropertyOp56
 70
     1
102
RTVSPropertyOp57
 70
     1
102
RTVSPropertyOp58
 70
     1
102
RTVSPropertyOp59
 70
     1
102
RTVSPropertyOp60
 70
     1
102
RTVSPropertyOp61
 70
     1
102
RTVSPropertyOp62
 70
     1
  0
XRECORD
  5
3001
102
{ACAD_REACTORS
330
3000
102
}
330
3000
100
AcDbXrecord
280
     1
102
RTVSPost2010Prop28
280
     0
102
RTVSPost2010PropOp28
 70
     1
102
RTVSPost2010Prop29
280
     1
102
RTVSPost2010PropOp29
 70
     1
102
RTVSPost2010Prop30
280
     1
102
RTVSPost2010PropOp30
 70
     1
102
RTVSPost2010Prop31
280
     0
102
RTVSPost2010PropOp31
 70
     1
102
RTVSPost2010Prop32
280
     0
102
RTVSPost2010PropOp32
 70
     1
102
RTVSPost2010Prop33
280
     0
102
RTVSPost2010PropOp33
 70
     1
102
RTVSPost2010Prop34
280
     0
102
RTVSPost2010PropOp34
 70
     1
102
RTVSPost2010Prop35
280
     0
102
RTVSPost2010PropOp35
 70
     1
102
RTVSPost2010Prop36
280
     0
102
RTVSPost2010PropOp36
 70
     1
102
RTVSPost2010Prop37
 90
       50
102
RTVSPost2010PropOp37
 70
     1
102
RTVSPost2010Prop38
140
0.0
102
RTVSPost2010PropOp38
 70
     1
102
RTVSPost2010Prop39
140
1.0
102
RTVSPost2010PropOp39
 70
     1
102
RTVSPost2010Prop40
 90
        0
102
RTVSPost2010PropOp40
 70
     1
102
RTVSPost2010Prop41ColorIndex
 90
       18
102
RTVSPost2010Prop41ColorRGB
 90
        0
102
RTVSPost2010PropOp41
 70
     1
102
RTVSPost2010Prop42
 90
       50
102
RTVSPost2010PropOp42
 70
     1
102
RTVSPost2010Prop43
 90
        3
102
RTVSPost2010PropOp43
 70
     1
102
RTVSPost2010Prop44ColorIndex
 90
        5
102
RTVSPost2010Prop44ColorRGB
 90
      255
102
RTVSPost2010PropOp44
 70
     1
102
RTVSPost2010Prop45
280
     0
102
RTVSPost2010PropOp45
 70
     1
102
RTVSPost2010Prop46
 90
       50
102
RTVSPost2010PropOp46
 70
     1
102
RTVSPost2010Prop47
 90
       50
102
RTVSPost2010PropOp47
 70
     1
102
RTVSPost2010Prop48
 90
       50
102
RTVSPost2010PropOp48
 70
     1
102
RTVSPost2010Prop49
280
     0
102
RTVSPost2010PropOp49
 70
     1
102
RTVSPost2010Prop50
 90
       50
102
RTVSPost2010PropOp50
 70
     1
102
RTVSPost2010Prop51ColorIndex
 90
      256
102
RTVSPost2010Prop51ColorRGB
 90
-16777216
102
RTVSPost2010PropOp51
 70
     0
102
RTVSPost2010Prop52
140
1.0
102
RTVSPost2010PropOp52
 70
     0
102
RTVSPost2010Prop53
 90
        2
102
RTVSPost2010PropOp53
 70
     1
102
RTVSPost2010Prop54
  1
strokes_ogs.tif
102
RTVSPost2010PropOp54
 70
     1
102
RTVSPost2010Prop55
280
     0
102
RTVSPost2010PropOp55
 70
     1
102
RTVSPost2010Prop56
140
1.0
102
RTVSPost2010PropOp56
 70
     1
102
RTVSPost2010Prop57
140
1.0
102
RTVSPost2010PropOp57
 70
     1
102
RTVSPropertyOp0
 70
     1
102
RTVSPropertyOp1
 70
     1
102
RTVSPropertyOp2
 70
     1
102
RTVSPropertyOp3
 70
     1
102
RTVSPropertyOp4
 70
     1
102
RTVSPropertyOp5
 70
     1
102
RTVSPropertyOp6
 70
     1
102
RTVSPropertyOp7
 70
     1
102
RTVSPropertyOp8
 70
     1
102
RTVSPropertyOp9
 70
     1
102
RTVSPropertyOp10
 70
     1
102
RTVSPropertyOp11
 70
     1
102
RTVSPropertyOp12
 70
     1
102
RTVSPropertyOp13
 70
     1
102
RTVSPropertyOp14
 70
     1
102
RTVSPropertyOp15
 70
     1
102
RTVSPropertyOp16
 70
     1
102
RTVSPropertyOp17
 70
     1
102
RTVSPropertyOp18
 70
     1
102
RTVSPropertyOp19
 70
     1
102
RTVSPropertyOp20
 70
     1
102
RTVSPropertyOp21
 70
     1
102
RTVSPropertyOp22
 70
     1
102
RTVSPropertyOp23
 70
     1
102
RTVSPropertyOp24
 70
     1
102
RTVSPropertyOp25
 70
     1
102
RTVSPropertyOp26
 70
     1
102
RTVSPropertyOp27
 70
     1
102
RTVSPropertyOp28
 70
     1
102
RTVSPropertyOp29
 70
     1
102
RTVSPropertyOp30
 70
     1
102
RTVSPropertyOp31
 70
     1
102
RTVSPropertyOp32
 70
     1
102
RTVSPropertyOp33
 70
     1
102
RTVSPropertyOp34
 70
     1
102
RTVSPropertyOp35
 70
     1
102
RTVSPropertyOp36
 70
     1
102
RTVSPropertyOp37
 70
     1
102
RTVSPropertyOp38
 70
     1
102
RTVSPropertyOp39
 70
     1
102
RTVSPropertyOp40
 70
     1
102
RTVSPropertyOp41
 70
     1
102
RTVSPropertyOp42
 70
     1
102
RTVSPropertyOp43
 70
     1
102
RTVSPropertyOp44
 70
     1
102
RTVSPropertyOp45
 70
     1
102
RTVSPropertyOp46
 70
     1
102
RTVSPropertyOp47
 70
     1
102
RTVSPropertyOp48
 70
     1
102
RTVSPropertyOp49
 70
     1
102
RTVSPropertyOp50
 70
     1
102
RTVSPropertyOp51
 70
     0
102
RTVSPropertyOp52
 70
     0
102
RTVSPropertyOp53
 70
     1
102
RTVSPropertyOp54
 70
     1
102
RTVSPropertyOp55
 70
     1
102
RTVSPropertyOp56
 70
     1
102
RTVSPropertyOp57
 70
     1
102
RTVSPropertyOp58
 70
     1
102
RTVSPropertyOp59
 70
     1
102
RTVSPropertyOp60
 70
     1
102
RTVSPropertyOp61
 70
     1
102
RTVSPropertyOp62
 70
     1
  0
XRECORD
  5
3003
102
{ACAD_REACTORS
330
3002
102
}
330
3002
100
AcDbXrecord
280
     1
102
RTVSPost2010Prop28
280
     0
102
RTVSPost2010PropOp28
 70
     1
102
RTVSPost2010Prop29
280
     1
102
RTVSPost2010PropOp29
 70
     1
102
RTVSPost2010Prop30
280
     1
102
RTVSPost2010PropOp30
 70
     1
102
RTVSPost2010Prop31
280
     0
102
RTVSPost2010PropOp31
 70
     1
102
RTVSPost2010Prop32
280
     0
102
RTVSPost2010PropOp32
 70
     1
102
RTVSPost2010Prop33
280
     0
102
RTVSPost2010PropOp33
 70
     1
102
RTVSPost2010Prop34
280
     0
102
RTVSPost2010PropOp34
 70
     1
102
RTVSPost2010Prop35
280
     0
102
RTVSPost2010PropOp35
 70
     1
102
RTVSPost2010Prop36
280
     0
102
RTVSPost2010PropOp36
 70
     1
102
RTVSPost2010Prop37
 90
       50
102
RTVSPost2010PropOp37
 70
     1
102
RTVSPost2010Prop38
140
0.0
102
RTVSPost2010PropOp38
 70
     1
102
RTVSPost2010Prop39
140
1.0
102
RTVSPost2010PropOp39
 70
     1
102
RTVSPost2010Prop40
 90
        0
102
RTVSPost2010PropOp40
 70
     1
102
RTVSPost2010Prop41ColorIndex
 90
       18
102
RTVSPost2010Prop41ColorRGB
 90
        0
102
RTVSPost2010PropOp41
 70
     1
102
RTVSPost2010Prop42
 90
       50
102
RTVSPost2010PropOp42
 70
     1
102
RTVSPost2010Prop43
 90
        3
102
RTVSPost2010PropOp43
 70
     1
102
RTVSPost2010Prop44ColorIndex
 90
        5
102
RTVSPost2010Prop44ColorRGB
 90
      255
102
RTVSPost2010PropOp44
 70
     1
102
RTVSPost2010Prop45
280
     0
102
RTVSPost2010PropOp45
 70
     1
102
RTVSPost2010Prop46
 90
       50
102
RTVSPost2010PropOp46
 70
     1
102
RTVSPost2010Prop47
 90
       50
102
RTVSPost2010PropOp47
 70
     1
102
RTVSPost2010Prop48
 90
       50
102
RTVSPost2010PropOp48
 70
     1
102
RTVSPost2010Prop49
280
     0
102
RTVSPost2010PropOp49
 70
     1
102
RTVSPost2010Prop50
 90
       50
102
RTVSPost2010PropOp50
 70
     1
102
RTVSPost2010Prop51ColorIndex
 90
      256
102
RTVSPost2010Prop51ColorRGB
 90
-16777216
102
RTVSPost2010PropOp51
 70
     0
102
RTVSPost2010Prop52
140
1.0
102
RTVSPost2010PropOp52
 70
     0
102
RTVSPost2010Prop53
 90
        2
102
RTVSPost2010PropOp53
 70
     1
102
RTVSPost2010Prop54
  1
strokes_ogs.tif
102
RTVSPost2010PropOp54
 70
     1
102
RTVSPost2010Prop55
280
     0
102
RTVSPost2010PropOp55
 70
     1
102
RTVSPost2010Prop56
140
1.0
102
RTVSPost2010PropOp56
 70
     1
102
RTVSPost2010Prop57
140
1.0
102
RTVSPost2010PropOp57
 70
     1
102
RTVSPropertyOp0
 70
     1
102
RTVSPropertyOp1
 70
     1
102
RTVSPropertyOp2
 70
     1
102
RTVSPropertyOp3
 70
     1
102
RTVSPropertyOp4
 70
     1
102
RTVSPropertyOp5
 70
     1
102
RTVSPropertyOp6
 70
     1
102
RTVSPropertyOp7
 70
     1
102
RTVSPropertyOp8
 70
     1
102
RTVSPropertyOp9
 70
     1
102
RTVSPropertyOp10
 70
     1
102
RTVSPropertyOp11
 70
     1
102
RTVSPropertyOp12
 70
     1
102
RTVSPropertyOp13
 70
     1
102
RTVSPropertyOp14
 70
     1
102
RTVSPropertyOp15
 70
     1
102
RTVSPropertyOp16
 70
     1
102
RTVSPropertyOp17
 70
     1
102
RTVSPropertyOp18
 70
     1
102
RTVSPropertyOp19
 70
     1
102
RTVSPropertyOp20
 70
     1
102
RTVSPropertyOp21
 70
     1
102
RTVSPropertyOp22
 70
     1
102
RTVSPropertyOp23
 70
     1
102
RTVSPropertyOp24
 70
     1
102
RTVSPropertyOp25
 70
     1
102
RTVSPropertyOp26
 70
     1
102
RTVSPropertyOp27
 70
     1
102
RTVSPropertyOp28
 70
     1
102
RTVSPropertyOp29
 70
     1
102
RTVSPropertyOp30
 70
     1
102
RTVSPropertyOp31
 70
     1
102
RTVSPropertyOp32
 70
     1
102
RTVSPropertyOp33
 70
     1
102
RTVSPropertyOp34
 70
     1
102
RTVSPropertyOp35
 70
     1
102
RTVSPropertyOp36
 70
     1
102
RTVSPropertyOp37
 70
     1
102
RTVSPropertyOp38
 70
     1
102
RTVSPropertyOp39
 70
     1
102
RTVSPropertyOp40
 70
     1
102
RTVSPropertyOp41
 70
     1
102
RTVSPropertyOp42
 70
     1
102
RTVSPropertyOp43
 70
     1
102
RTVSPropertyOp44
 70
     1
102
RTVSPropertyOp45
 70
     1
102
RTVSPropertyOp46
 70
     1
102
RTVSPropertyOp47
 70
     1
102
RTVSPropertyOp48
 70
     1
102
RTVSPropertyOp49
 70
     1
102
RTVSPropertyOp50
 70
     1
102
RTVSPropertyOp51
 70
     0
102
RTVSPropertyOp52
 70
     0
102
RTVSPropertyOp53
 70
     1
102
RTVSPropertyOp54
 70
     1
102
RTVSPropertyOp55
 70
     1
102
RTVSPropertyOp56
 70
     1
102
RTVSPropertyOp57
 70
     1
102
RTVSPropertyOp58
 70
     1
102
RTVSPropertyOp59
 70
     1
102
RTVSPropertyOp60
 70
     1
102
RTVSPropertyOp61
 70
     1
102
RTVSPropertyOp62
 70
     1
  0
XRECORD
  5
3005
102
{ACAD_REACTORS
330
3004
102
}
330
3004
100
AcDbXrecord
280
     1
102
RTVSPost2010Prop28
280
     0
102
RTVSPost2010PropOp28
 70
     1
102
RTVSPost2010Prop29
280
     1
102
RTVSPost2010PropOp29
 70
     1
102
RTVSPost2010Prop30
280
     1
102
RTVSPost2010PropOp30
 70
     1
102
RTVSPost2010Prop31
280
     0
102
RTVSPost2010PropOp31
 70
     1
102
RTVSPost2010Prop32
280
     0
102
RTVSPost2010PropOp32
 70
     1
102
RTVSPost2010Prop33
280
     0
102
RTVSPost2010PropOp33
 70
     1
102
RTVSPost2010Prop34
280
     0
102
RTVSPost2010PropOp34
 70
     1
102
RTVSPost2010Prop35
280
     0
102
RTVSPost2010PropOp35
 70
     1
102
RTVSPost2010Prop36
280
     0
102
RTVSPost2010PropOp36
 70
     1
102
RTVSPost2010Prop37
 90
       50
102
RTVSPost2010PropOp37
 70
     1
102
RTVSPost2010Prop38
140
0.0
102
RTVSPost2010PropOp38
 70
     1
102
RTVSPost2010Prop39
140
1.0
102
RTVSPost2010PropOp39
 70
     1
102
RTVSPost2010Prop40
 90
        0
102
RTVSPost2010PropOp40
 70
     1
102
RTVSPost2010Prop41ColorIndex
 90
       18
102
RTVSPost2010Prop41ColorRGB
 90
        0
102
RTVSPost2010PropOp41
 70
     1
102
RTVSPost2010Prop42
 90
       50
102
RTVSPost2010PropOp42
 70
     1
102
RTVSPost2010Prop43
 90
        3
102
RTVSPost2010PropOp43
 70
     1
102
RTVSPost2010Prop44ColorIndex
 90
        5
102
RTVSPost2010Prop44ColorRGB
 90
      255
102
RTVSPost2010PropOp44
 70
     1
102
RTVSPost2010Prop45
280
     0
102
RTVSPost2010PropOp45
 70
     1
102
RTVSPost2010Prop46
 90
       50
102
RTVSPost2010PropOp46
 70
     1
102
RTVSPost2010Prop47
 90
       50
102
RTVSPost2010PropOp47
 70
     1
102
RTVSPost2010Prop48
 90
       50
102
RTVSPost2010PropOp48
 70
     1
102
RTVSPost2010Prop49
280
     0
102
RTVSPost2010PropOp49
 70
     1
102
RTVSPost2010Prop50
 90
       50
102
RTVSPost2010PropOp50
 70
     1
102
RTVSPost2010Prop51ColorIndex
 90
      256
102
RTVSPost2010Prop51ColorRGB
 90
-16777216
102
RTVSPost2010PropOp51
 70
     0
102
RTVSPost2010Prop52
140
1.0
102
RTVSPost2010PropOp52
 70
     0
102
RTVSPost2010Prop53
 90
        2
102
RTVSPost2010PropOp53
 70
     1
102
RTVSPost2010Prop54
  1
strokes_ogs.tif
102
RTVSPost2010PropOp54
 70
     1
102
RTVSPost2010Prop55
280
     0
102
RTVSPost2010PropOp55
 70
     1
102
RTVSPost2010Prop56
140
1.0
102
RTVSPost2010PropOp56
 70
     1
102
RTVSPost2010Prop57
140
1.0
102
RTVSPost2010PropOp57
 70
     1
102
RTVSPropertyOp0
 70
     1
102
RTVSPropertyOp1
 70
     1
102
RTVSPropertyOp2
 70
     1
102
RTVSPropertyOp3
 70
     1
102
RTVSPropertyOp4
 70
     1
102
RTVSPropertyOp5
 70
     1
102
RTVSPropertyOp6
 70
     1
102
RTVSPropertyOp7
 70
     1
102
RTVSPropertyOp8
 70
     1
102
RTVSPropertyOp9
 70
     1
102
RTVSPropertyOp10
 70
     1
102
RTVSPropertyOp11
 70
     1
102
RTVSPropertyOp12
 70
     1
102
RTVSPropertyOp13
 70
     1
102
RTVSPropertyOp14
 70
     1
102
RTVSPropertyOp15
 70
     1
102
RTVSPropertyOp16
 70
     1
102
RTVSPropertyOp17
 70
     1
102
RTVSPropertyOp18
 70
     1
102
RTVSPropertyOp19
 70
     1
102
RTVSPropertyOp20
 70
     1
102
RTVSPropertyOp21
 70
     1
102
RTVSPropertyOp22
 70
     1
102
RTVSPropertyOp23
 70
     1
102
RTVSPropertyOp24
 70
     1
102
RTVSPropertyOp25
 70
     1
102
RTVSPropertyOp26
 70
     1
102
RTVSPropertyOp27
 70
     1
102
RTVSPropertyOp28
 70
     1
102
RTVSPropertyOp29
 70
     1
102
RTVSPropertyOp30
 70
     1
102
RTVSPropertyOp31
 70
     1
102
RTVSPropertyOp32
 70
     1
102
RTVSPropertyOp33
 70
     1
102
RTVSPropertyOp34
 70
     1
102
RTVSPropertyOp35
 70
     1
102
RTVSPropertyOp36
 70
     1
102
RTVSPropertyOp37
 70
     1
102
RTVSPropertyOp38
 70
     1
102
RTVSPropertyOp39
 70
     1
102
RTVSPropertyOp40
 70
     1
102
RTVSPropertyOp41
 70
     1
102
RTVSPropertyOp42
 70
     1
102
RTVSPropertyOp43
 70
     1
102
RTVSPropertyOp44
 70
     1
102
RTVSPropertyOp45
 70
     1
102
RTVSPropertyOp46
 70
     1
102
RTVSPropertyOp47
 70
     1
102
RTVSPropertyOp48
 70
     1
102
RTVSPropertyOp49
 70
     1
102
RTVSPropertyOp50
 70
     1
102
RTVSPropertyOp51
 70
     0
102
RTVSPropertyOp52
 70
     0
102
RTVSPropertyOp53
 70
     1
102
RTVSPropertyOp54
 70
     1
102
RTVSPropertyOp55
 70
     1
102
RTVSPropertyOp56
 70
     1
102
RTVSPropertyOp57
 70
     1
102
RTVSPropertyOp58
 70
     1
102
RTVSPropertyOp59
 70
     1
102
RTVSPropertyOp60
 70
     1
102
RTVSPropertyOp61
 70
     1
102
RTVSPropertyOp62
 70
     1
  0
XRECORD
  5
300D
102
{ACAD_REACTORS
330
300C
102
}
330
300C
100
AcDbXrecord
280
     1
102
RTVSPost2010Prop28
280
     0
102
RTVSPost2010PropOp28
 70
     1
102
RTVSPost2010Prop29
280
     1
102
RTVSPost2010PropOp29
 70
     1
102
RTVSPost2010Prop30
280
     1
102
RTVSPost2010PropOp30
 70
     1
102
RTVSPost2010Prop31
280
     0
102
RTVSPost2010PropOp31
 70
     1
102
RTVSPost2010Prop32
280
     0
102
RTVSPost2010PropOp32
 70
     1
102
RTVSPost2010Prop33
280
     0
102
RTVSPost2010PropOp33
 70
     1
102
RTVSPost2010Prop34
280
     0
102
RTVSPost2010PropOp34
 70
     1
102
RTVSPost2010Prop35
280
     0
102
RTVSPost2010PropOp35
 70
     1
102
RTVSPost2010Prop36
280
     0
102
RTVSPost2010PropOp36
 70
     1
102
RTVSPost2010Prop37
 90
       50
102
RTVSPost2010PropOp37
 70
     1
102
RTVSPost2010Prop38
140
0.0
102
RTVSPost2010PropOp38
 70
     1
102
RTVSPost2010Prop39
140
1.0
102
RTVSPost2010PropOp39
 70
     1
102
RTVSPost2010Prop40
 90
        0
102
RTVSPost2010PropOp40
 70
     1
102
RTVSPost2010Prop41ColorIndex
 90
       18
102
RTVSPost2010Prop41ColorRGB
 90
        0
102
RTVSPost2010PropOp41
 70
     1
102
RTVSPost2010Prop42
 90
       50
102
RTVSPost2010PropOp42
 70
     1
102
RTVSPost2010Prop43
 90
        3
102
RTVSPost2010PropOp43
 70
     1
102
RTVSPost2010Prop44ColorIndex
 90
        5
102
RTVSPost2010Prop44ColorRGB
 90
      255
102
RTVSPost2010PropOp44
 70
     1
102
RTVSPost2010Prop45
280
     0
102
RTVSPost2010PropOp45
 70
     1
102
RTVSPost2010Prop46
 90
       50
102
RTVSPost2010PropOp46
 70
     1
102
RTVSPost2010Prop47
 90
       50
102
RTVSPost2010PropOp47
 70
     1
102
RTVSPost2010Prop48
 90
       50
102
RTVSPost2010PropOp48
 70
     1
102
RTVSPost2010Prop49
280
     0
102
RTVSPost2010PropOp49
 70
     1
102
RTVSPost2010Prop50
 90
       50
102
RTVSPost2010PropOp50
 70
     1
102
RTVSPost2010Prop51ColorIndex
 90
      256
102
RTVSPost2010Prop51ColorRGB
 90
-16777216
102
RTVSPost2010PropOp51
 70
     0
102
RTVSPost2010Prop52
140
1.0
102
RTVSPost2010PropOp52
 70
     0
102
RTVSPost2010Prop53
 90
        2
102
RTVSPost2010PropOp53
 70
     1
102
RTVSPost2010Prop54
  1
strokes_ogs.tif
102
RTVSPost2010PropOp54
 70
     1
102
RTVSPost2010Prop55
280
     0
102
RTVSPost2010PropOp55
 70
     1
102
RTVSPost2010Prop56
140
1.0
102
RTVSPost2010PropOp56
 70
     1
102
RTVSPost2010Prop57
140
1.0
102
RTVSPost2010PropOp57
 70
     1
102
RTVSPropertyOp0
 70
     1
102
RTVSPropertyOp1
 70
     1
102
RTVSPropertyOp2
 70
     1
102
RTVSPropertyOp3
 70
     1
102
RTVSPropertyOp4
 70
     1
102
RTVSPropertyOp5
 70
     1
102
RTVSPropertyOp6
 70
     1
102
RTVSPropertyOp7
 70
     1
102
RTVSPropertyOp8
 70
     1
102
RTVSPropertyOp9
 70
     1
102
RTVSPropertyOp10
 70
     1
102
RTVSPropertyOp11
 70
     1
102
RTVSPropertyOp12
 70
     1
102
RTVSPropertyOp13
 70
     1
102
RTVSPropertyOp14
 70
     1
102
RTVSPropertyOp15
 70
     1
102
RTVSPropertyOp16
 70
     1
102
RTVSPropertyOp17
 70
     1
102
RTVSPropertyOp18
 70
     1
102
RTVSPropertyOp19
 70
     1
102
RTVSPropertyOp20
 70
     1
102
RTVSPropertyOp21
 70
     1
102
RTVSPropertyOp22
 70
     1
102
RTVSPropertyOp23
 70
     1
102
RTVSPropertyOp24
 70
     1
102
RTVSPropertyOp25
 70
     1
102
RTVSPropertyOp26
 70
     1
102
RTVSPropertyOp27
 70
     1
102
RTVSPropertyOp28
 70
     1
102
RTVSPropertyOp29
 70
     1
102
RTVSPropertyOp30
 70
     1
102
RTVSPropertyOp31
 70
     1
102
RTVSPropertyOp32
 70
     1
102
RTVSPropertyOp33
 70
     1
102
RTVSPropertyOp34
 70
     1
102
RTVSPropertyOp35
 70
     1
102
RTVSPropertyOp36
 70
     1
102
RTVSPropertyOp37
 70
     1
102
RTVSPropertyOp38
 70
     1
102
RTVSPropertyOp39
 70
     1
102
RTVSPropertyOp40
 70
     1
102
RTVSPropertyOp41
 70
     1
102
RTVSPropertyOp42
 70
     1
102
RTVSPropertyOp43
 70
     1
102
RTVSPropertyOp44
 70
     1
102
RTVSPropertyOp45
 70
     1
102
RTVSPropertyOp46
 70
     1
102
RTVSPropertyOp47
 70
     1
102
RTVSPropertyOp48
 70
     1
102
RTVSPropertyOp49
 70
     1
102
RTVSPropertyOp50
 70
     1
102
RTVSPropertyOp51
 70
     0
102
RTVSPropertyOp52
 70
     0
102
RTVSPropertyOp53
 70
     1
102
RTVSPropertyOp54
 70
     1
102
RTVSPropertyOp55
 70
     1
102
RTVSPropertyOp56
 70
     1
102
RTVSPropertyOp57
 70
     1
102
RTVSPropertyOp58
 70
     1
102
RTVSPropertyOp59
 70
     1
102
RTVSPropertyOp60
 70
     1
102
RTVSPropertyOp61
 70
     1
102
RTVSPropertyOp62
 70
     1
  0
XRECORD
  5
3029
102
{ACAD_REACTORS
330
3028
102
}
330
3028
100
AcDbXrecord
280
     1
102
RTVSPost2010Prop28
280
     0
102
RTVSPost2010PropOp28
 70
     1
102
RTVSPost2010Prop29
280
     1
102
RTVSPost2010PropOp29
 70
     1
102
RTVSPost2010Prop30
280
     1
102
RTVSPost2010PropOp30
 70
     1
102
RTVSPost2010Prop31
280
     0
102
RTVSPost2010PropOp31
 70
     1
102
RTVSPost2010Prop32
280
     0
102
RTVSPost2010PropOp32
 70
     1
102
RTVSPost2010Prop33
280
     0
102
RTVSPost2010PropOp33
 70
     1
102
RTVSPost2010Prop34
280
     0
102
RTVSPost2010PropOp34
 70
     1
102
RTVSPost2010Prop35
280
     0
102
RTVSPost2010PropOp35
 70
     1
102
RTVSPost2010Prop36
280
     0
102
RTVSPost2010PropOp36
 70
     1
102
RTVSPost2010Prop37
 90
       50
102
RTVSPost2010PropOp37
 70
     0
102
RTVSPost2010Prop38
140
0.0
102
RTVSPost2010PropOp38
 70
     0
102
RTVSPost2010Prop39
140
1.0
102
RTVSPost2010PropOp39
 70
     0
102
RTVSPost2010Prop40
 90
        0
102
RTVSPost2010PropOp40
 70
     0
102
RTVSPost2010Prop41ColorIndex
 90
       18
102
RTVSPost2010Prop41ColorRGB
 90
        0
102
RTVSPost2010PropOp41
 70
     0
102
RTVSPost2010Prop42
 90
       50
102
RTVSPost2010PropOp42
 70
     0
102
RTVSPost2010Prop43
 90
        3
102
RTVSPost2010PropOp43
 70
     0
102
RTVSPost2010Prop44ColorIndex
 90
        5
102
RTVSPost2010Prop44ColorRGB
 90
      255
102
RTVSPost2010PropOp44
 70
     0
102
RTVSPost2010Prop45
280
     0
102
RTVSPost2010PropOp45
 70
     1
102
RTVSPost2010Prop46
 90
       50
102
RTVSPost2010PropOp46
 70
     0
102
RTVSPost2010Prop47
 90
       50
102
RTVSPost2010PropOp47
 70
     0
102
RTVSPost2010Prop48
 90
       50
102
RTVSPost2010PropOp48
 70
     0
102
RTVSPost2010Prop49
280
     0
102
RTVSPost2010PropOp49
 70
     1
102
RTVSPost2010Prop50
 90
       50
102
RTVSPost2010PropOp50
 70
     0
102
RTVSPost2010Prop51ColorIndex
 90
      256
102
RTVSPost2010Prop51ColorRGB
 90
-16777216
102
RTVSPost2010PropOp51
 70
     0
102
RTVSPost2010Prop52
140
1.0
102
RTVSPost2010PropOp52
 70
     0
102
RTVSPost2010Prop53
 90
        2
102
RTVSPost2010PropOp53
 70
     0
102
RTVSPost2010Prop54
  1
strokes_ogs.tif
102
RTVSPost2010PropOp54
 70
     0
102
RTVSPost2010Prop55
280
     0
102
RTVSPost2010PropOp55
 70
     1
102
RTVSPost2010Prop56
140
1.0
102
RTVSPost2010PropOp56
 70
     0
102
RTVSPost2010Prop57
140
1.0
102
RTVSPost2010PropOp57
 70
     0
102
RTVSPropertyOp0
 70
     0
102
RTVSPropertyOp1
 70
     0
102
RTVSPropertyOp2
 70
     0
102
RTVSPropertyOp3
 70
     0
102
RTVSPropertyOp4
 70
     0
102
RTVSPropertyOp5
 70
     0
102
RTVSPropertyOp6
 70
     0
102
RTVSPropertyOp7
 70
     0
102
RTVSPropertyOp8
 70
     0
102
RTVSPropertyOp9
 70
     0
102
RTVSPropertyOp10
 70
     0
102
RTVSPropertyOp11
 70
     0
102
RTVSPropertyOp12
 70
     0
102
RTVSPropertyOp13
 70
     0
102
RTVSPropertyOp14
 70
     2
102
RTVSPropertyOp15
 70
     0
102
RTVSPropertyOp16
 70
     0
102
RTVSPropertyOp17
 70
     0
102
RTVSPropertyOp18
 70
     0
102
RTVSPropertyOp19
 70
     0
102
RTVSPropertyOp20
 70
     0
102
RTVSPropertyOp21
 70
     0
102
RTVSPropertyOp22
 70
     0
102
RTVSPropertyOp23
 70
     0
102
RTVSPropertyOp24
 70
     0
102
RTVSPropertyOp25
 70
     0
102
RTVSPropertyOp26
 70
     0
102
RTVSPropertyOp27
 70
     0
102
RTVSPropertyOp28
 70
     1
102
RTVSPropertyOp29
 70
     1
102
RTVSPropertyOp30
 70
     1
102
RTVSPropertyOp31
 70
     1
102
RTVSPropertyOp32
 70
     1
102
RTVSPropertyOp33
 70
     1
102
RTVSPropertyOp34
 70
     1
102
RTVSPropertyOp35
 70
     1
102
RTVSPropertyOp36
 70
     1
102
RTVSPropertyOp37
 70
     0
102
RTVSPropertyOp38
 70
     0
102
RTVSPropertyOp39
 70
     0
102
RTVSPropertyOp40
 70
     0
102
RTVSPropertyOp41
 70
     0
102
RTVSPropertyOp42
 70
     0
102
RTVSPropertyOp43
 70
     0
102
RTVSPropertyOp44
 70
     0
102
RTVSPropertyOp45
 70
     1
102
RTVSPropertyOp46
 70
     0
102
RTVSPropertyOp47
 70
     0
102
RTVSPropertyOp48
 70
     0
102
RTVSPropertyOp49
 70
     1
102
RTVSPropertyOp50
 70
     0
102
RTVSPropertyOp51
 70
     0
102
RTVSPropertyOp52
 70
     0
102
RTVSPropertyOp53
 70
     0
102
RTVSPropertyOp54
 70
     0
102
RTVSPropertyOp55
 70
     1
102
RTVSPropertyOp56
 70
     0
102
RTVSPropertyOp57
 70
     0
102
RTVSPropertyOp58
 70
     0
102
RTVSPropertyOp59
 70
     0
102
RTVSPropertyOp60
 70
     0
102
RTVSPropertyOp61
 70
     0
102
RTVSPropertyOp62
 70
     0
  0
XRECORD
  5
3019
102
{ACAD_REACTORS
330
3018
102
}
330
3018
100
AcDbXrecord
280
     1
102
RTVSPost2010Prop28
280
     0
102
RTVSPost2010PropOp28
 70
     1
102
RTVSPost2010Prop29
280
     1
102
RTVSPost2010PropOp29
 70
     1
102
RTVSPost2010Prop30
280
     1
102
RTVSPost2010PropOp30
 70
     1
102
RTVSPost2010Prop31
280
     0
102
RTVSPost2010PropOp31
 70
     1
102
RTVSPost2010Prop32
280
     0
102
RTVSPost2010PropOp32
 70
     1
102
RTVSPost2010Prop33
280
     0
102
RTVSPost2010PropOp33
 70
     1
102
RTVSPost2010Prop34
280
     0
102
RTVSPost2010PropOp34
 70
     1
102
RTVSPost2010Prop35
280
     0
102
RTVSPost2010PropOp35
 70
     1
102
RTVSPost2010Prop36
280
     0
102
RTVSPost2010PropOp36
 70
     1
102
RTVSPost2010Prop37
 90
       50
102
RTVSPost2010PropOp37
 70
     1
102
RTVSPost2010Prop38
140
0.0
102
RTVSPost2010PropOp38
 70
     1
102
RTVSPost2010Prop39
140
1.0
102
RTVSPost2010PropOp39
 70
     1
102
RTVSPost2010Prop40
 90
        0
102
RTVSPost2010PropOp40
 70
     1
102
RTVSPost2010Prop41ColorIndex
 90
       18
102
RTVSPost2010Prop41ColorRGB
 90
        0
102
RTVSPost2010PropOp41
 70
     1
102
RTVSPost2010Prop42
 90
       50
102
RTVSPost2010PropOp42
 70
     1
102
RTVSPost2010Prop43
 90
        3
102
RTVSPost2010PropOp43
 70
     1
102
RTVSPost2010Prop44ColorIndex
 90
        5
102
RTVSPost2010Prop44ColorRGB
 90
      255
102
RTVSPost2010PropOp44
 70
     1
102
RTVSPost2010Prop45
280
     0
102
RTVSPost2010PropOp45
 70
     1
102
RTVSPost2010Prop46
 90
       50
102
RTVSPost2010PropOp46
 70
     1
102
RTVSPost2010Prop47
 90
       50
102
RTVSPost2010PropOp47
 70
     1
102
RTVSPost2010Prop48
 90
       50
102
RTVSPost2010PropOp48
 70
     1
102
RTVSPost2010Prop49
280
     0
102
RTVSPost2010PropOp49
 70
     1
102
RTVSPost2010Prop50
 90
       50
102
RTVSPost2010PropOp50
 70
     1
102
RTVSPost2010Prop51ColorIndex
 90
      256
102
RTVSPost2010Prop51ColorRGB
 90
-16777216
102
RTVSPost2010PropOp51
 70
     0
102
RTVSPost2010Prop52
140
1.0
102
RTVSPost2010PropOp52
 70
     0
102
RTVSPost2010Prop53
 90
        2
102
RTVSPost2010PropOp53
 70
     1
102
RTVSPost2010Prop54
  1
strokes_ogs.tif
102
RTVSPost2010PropOp54
 70
     1
102
RTVSPost2010Prop55
280
     0
102
RTVSPost2010PropOp55
 70
     1
102
RTVSPost2010Prop56
140
1.0
102
RTVSPost2010PropOp56
 70
     1
102
RTVSPost2010Prop57
140
1.0
102
RTVSPost2010PropOp57
 70
     1
102
RTVSPropertyOp0
 70
     1
102
RTVSPropertyOp1
 70
     1
102
RTVSPropertyOp2
 70
     1
102
RTVSPropertyOp3
 70
     1
102
RTVSPropertyOp4
 70
     1
102
RTVSPropertyOp5
 70
     1
102
RTVSPropertyOp6
 70
     1
102
RTVSPropertyOp7
 70
     1
102
RTVSPropertyOp8
 70
     1
102
RTVSPropertyOp9
 70
     1
102
RTVSPropertyOp10
 70
     1
102
RTVSPropertyOp11
 70
     1
102
RTVSPropertyOp12
 70
     1
102
RTVSPropertyOp13
 70
     1
102
RTVSPropertyOp14
 70
     1
102
RTVSPropertyOp15
 70
     1
102
RTVSPropertyOp16
 70
     1
102
RTVSPropertyOp17
 70
     1
102
RTVSPropertyOp18
 70
     1
102
RTVSPropertyOp19
 70
     1
102
RTVSPropertyOp20
 70
     1
102
RTVSPropertyOp21
 70
     1
102
RTVSPropertyOp22
 70
     1
102
RTVSPropertyOp23
 70
     1
102
RTVSPropertyOp24
 70
     1
102
RTVSPropertyOp25
 70
     1
102
RTVSPropertyOp26
 70
     1
102
RTVSPropertyOp27
 70
     1
102
RTVSPropertyOp28
 70
     1
102
RTVSPropertyOp29
 70
     1
102
RTVSPropertyOp30
 70
     1
102
RTVSPropertyOp31
 70
     1
102
RTVSPropertyOp32
 70
     1
102
RTVSPropertyOp33
 70
     1
102
RTVSPropertyOp34
 70
     1
102
RTVSPropertyOp35
 70
     1
102
RTVSPropertyOp36
 70
     1
102
RTVSPropertyOp37
 70
     1
102
RTVSPropertyOp38
 70
     1
102
RTVSPropertyOp39
 70
     1
102
RTVSPropertyOp40
 70
     1
102
RTVSPropertyOp41
 70
     1
102
RTVSPropertyOp42
 70
     1
102
RTVSPropertyOp43
 70
     1
102
RTVSPropertyOp44
 70
     1
102
RTVSPropertyOp45
 70
     1
102
RTVSPropertyOp46
 70
     1
102
RTVSPropertyOp47
 70
     1
102
RTVSPropertyOp48
 70
     1
102
RTVSPropertyOp49
 70
     1
102
RTVSPropertyOp50
 70
     1
102
RTVSPropertyOp51
 70
     0
102
RTVSPropertyOp52
 70
     0
102
RTVSPropertyOp53
 70
     1
102
RTVSPropertyOp54
 70
     1
102
RTVSPropertyOp55
 70
     1
102
RTVSPropertyOp56
 70
     1
102
RTVSPropertyOp57
 70
     1
102
RTVSPropertyOp58
 70
     1
102
RTVSPropertyOp59
 70
     1
102
RTVSPropertyOp60
 70
     1
102
RTVSPropertyOp61
 70
     1
102
RTVSPropertyOp62
 70
     1
  0
XRECORD
  5
302B
102
{ACAD_REACTORS
330
302A
102
}
330
302A
100
AcDbXrecord
280
     1
102
RTVSPost2010Prop28
280
     0
102
RTVSPost2010PropOp28
 70
     1
102
RTVSPost2010Prop29
280
     1
102
RTVSPost2010PropOp29
 70
     1
102
RTVSPost2010Prop30
280
     1
102
RTVSPost2010PropOp30
 70
     1
102
RTVSPost2010Prop31
280
     0
102
RTVSPost2010PropOp31
 70
     1
102
RTVSPost2010Prop32
280
     0
102
RTVSPost2010PropOp32
 70
     1
102
RTVSPost2010Prop33
280
     0
102
RTVSPost2010PropOp33
 70
     1
102
RTVSPost2010Prop34
280
     0
102
RTVSPost2010PropOp34
 70
     1
102
RTVSPost2010Prop35
280
     0
102
RTVSPost2010PropOp35
 70
     1
102
RTVSPost2010Prop36
280
     0
102
RTVSPost2010PropOp36
 70
     1
102
RTVSPost2010Prop37
 90
       50
102
RTVSPost2010PropOp37
 70
     0
102
RTVSPost2010Prop38
140
0.0
102
RTVSPost2010PropOp38
 70
     0
102
RTVSPost2010Prop39
140
1.0
102
RTVSPost2010PropOp39
 70
     0
102
RTVSPost2010Prop40
 90
        0
102
RTVSPost2010PropOp40
 70
     0
102
RTVSPost2010Prop41ColorIndex
 90
       18
102
RTVSPost2010Prop41ColorRGB
 90
        0
102
RTVSPost2010PropOp41
 70
     0
102
RTVSPost2010Prop42
 90
       50
102
RTVSPost2010PropOp42
 70
     0
102
RTVSPost2010Prop43
 90
        3
102
RTVSPost2010PropOp43
 70
     0
102
RTVSPost2010Prop44ColorIndex
 90
        5
102
RTVSPost2010Prop44ColorRGB
 90
      255
102
RTVSPost2010PropOp44
 70
     0
102
RTVSPost2010Prop45
280
     0
102
RTVSPost2010PropOp45
 70
     1
102
RTVSPost2010Prop46
 90
       50
102
RTVSPost2010PropOp46
 70
     0
102
RTVSPost2010Prop47
 90
       50
102
RTVSPost2010PropOp47
 70
     0
102
RTVSPost2010Prop48
 90
       50
102
RTVSPost2010PropOp48
 70
     0
102
RTVSPost2010Prop49
280
     0
102
RTVSPost2010PropOp49
 70
     1
102
RTVSPost2010Prop50
 90
       50
102
RTVSPost2010PropOp50
 70
     0
102
RTVSPost2010Prop51ColorIndex
 90
      256
102
RTVSPost2010Prop51ColorRGB
 90
-16777216
102
RTVSPost2010PropOp51
 70
     0
102
RTVSPost2010Prop52
140
1.0
102
RTVSPost2010PropOp52
 70
     0
102
RTVSPost2010Prop53
 90
        2
102
RTVSPost2010PropOp53
 70
     0
102
RTVSPost2010Prop54
  1
strokes_ogs.tif
102
RTVSPost2010PropOp54
 70
     0
102
RTVSPost2010Prop55
280
     0
102
RTVSPost2010PropOp55
 70
     1
102
RTVSPost2010Prop56
140
1.0
102
RTVSPost2010PropOp56
 70
     0
102
RTVSPost2010Prop57
140
1.0
102
RTVSPost2010PropOp57
 70
     0
102
RTVSPropertyOp0
 70
     0
102
RTVSPropertyOp1
 70
     0
102
RTVSPropertyOp2
 70
     0
102
RTVSPropertyOp3
 70
     0
102
RTVSPropertyOp4
 70
     0
102
RTVSPropertyOp5
 70
     0
102
RTVSPropertyOp6
 70
     0
102
RTVSPropertyOp7
 70
     0
102
RTVSPropertyOp8
 70
     0
102
RTVSPropertyOp9
 70
     0
102
RTVSPropertyOp10
 70
     0
102
RTVSPropertyOp11
 70
     0
102
RTVSPropertyOp12
 70
     0
102
RTVSPropertyOp13
 70
     0
102
RTVSPropertyOp14
 70
     2
102
RTVSPropertyOp15
 70
     0
102
RTVSPropertyOp16
 70
     0
102
RTVSPropertyOp17
 70
     0
102
RTVSPropertyOp18
 70
     0
102
RTVSPropertyOp19
 70
     0
102
RTVSPropertyOp20
 70
     0
102
RTVSPropertyOp21
 70
     0
102
RTVSPropertyOp22
 70
     0
102
RTVSPropertyOp23
 70
     0
102
RTVSPropertyOp24
 70
     0
102
RTVSPropertyOp25
 70
     0
102
RTVSPropertyOp26
 70
     0
102
RTVSPropertyOp27
 70
     0
102
RTVSPropertyOp28
 70
     1
102
RTVSPropertyOp29
 70
     1
102
RTVSPropertyOp30
 70
     1
102
RTVSPropertyOp31
 70
     1
102
RTVSPropertyOp32
 70
     1
102
RTVSPropertyOp33
 70
     1
102
RTVSPropertyOp34
 70
     1
102
RTVSPropertyOp35
 70
     1
102
RTVSPropertyOp36
 70
     1
102
RTVSPropertyOp37
 70
     0
102
RTVSPropertyOp38
 70
     0
102
RTVSPropertyOp39
 70
     0
102
RTVSPropertyOp40
 70
     0
102
RTVSPropertyOp41
 70
     0
102
RTVSPropertyOp42
 70
     0
102
RTVSPropertyOp43
 70
     0
102
RTVSPropertyOp44
 70
     0
102
RTVSPropertyOp45
 70
     1
102
RTVSPropertyOp46
 70
     0
102
RTVSPropertyOp47
 70
     0
102
RTVSPropertyOp48
 70
     0
102
RTVSPropertyOp49
 70
     1
102
RTVSPropertyOp50
 70
     0
102
RTVSPropertyOp51
 70
     0
102
RTVSPropertyOp52
 70
     0
102
RTVSPropertyOp53
 70
     0
102
RTVSPropertyOp54
 70
     0
102
RTVSPropertyOp55
 70
     1
102
RTVSPropertyOp56
 70
     0
102
RTVSPropertyOp57
 70
     0
102
RTVSPropertyOp58
 70
     0
102
RTVSPropertyOp59
 70
     0
102
RTVSPropertyOp60
 70
     0
102
RTVSPropertyOp61
 70
     0
102
RTVSPropertyOp62
 70
     0
  0
XRECORD
  5
3011
102
{ACAD_REACTORS
330
3010
102
}
330
3010
100
AcDbXrecord
280
     1
102
RTVSPost2010Prop28
280
     0
102
RTVSPost2010PropOp28
 70
     1
102
RTVSPost2010Prop29
280
     1
102
RTVSPost2010PropOp29
 70
     1
102
RTVSPost2010Prop30
280
     1
102
RTVSPost2010PropOp30
 70
     1
102
RTVSPost2010Prop31
280
     0
102
RTVSPost2010PropOp31
 70
     1
102
RTVSPost2010Prop32
280
     0
102
RTVSPost2010PropOp32
 70
     1
102
RTVSPost2010Prop33
280
     0
102
RTVSPost2010PropOp33
 70
     1
102
RTVSPost2010Prop34
280
     0
102
RTVSPost2010PropOp34
 70
     1
102
RTVSPost2010Prop35
280
     0
102
RTVSPost2010PropOp35
 70
     1
102
RTVSPost2010Prop36
280
     0
102
RTVSPost2010PropOp36
 70
     1
102
RTVSPost2010Prop37
 90
       50
102
RTVSPost2010PropOp37
 70
     1
102
RTVSPost2010Prop38
140
0.0
102
RTVSPost2010PropOp38
 70
     1
102
RTVSPost2010Prop39
140
1.0
102
RTVSPost2010PropOp39
 70
     1
102
RTVSPost2010Prop40
 90
        0
102
RTVSPost2010PropOp40
 70
     1
102
RTVSPost2010Prop41ColorIndex
 90
       18
102
RTVSPost2010Prop41ColorRGB
 90
        0
102
RTVSPost2010PropOp41
 70
     1
102
RTVSPost2010Prop42
 90
       50
102
RTVSPost2010PropOp42
 70
     1
102
RTVSPost2010Prop43
 90
        3
102
RTVSPost2010PropOp43
 70
     1
102
RTVSPost2010Prop44ColorIndex
 90
        5
102
RTVSPost2010Prop44ColorRGB
 90
      255
102
RTVSPost2010PropOp44
 70
     1
102
RTVSPost2010Prop45
280
     0
102
RTVSPost2010PropOp45
 70
     1
102
RTVSPost2010Prop46
 90
       50
102
RTVSPost2010PropOp46
 70
     1
102
RTVSPost2010Prop47
 90
       50
102
RTVSPost2010PropOp47
 70
     1
102
RTVSPost2010Prop48
 90
       50
102
RTVSPost2010PropOp48
 70
     1
102
RTVSPost2010Prop49
280
     0
102
RTVSPost2010PropOp49
 70
     1
102
RTVSPost2010Prop50
 90
       50
102
RTVSPost2010PropOp50
 70
     1
102
RTVSPost2010Prop51ColorIndex
 90
      256
102
RTVSPost2010Prop51ColorRGB
 90
-16777216
102
RTVSPost2010PropOp51
 70
     0
102
RTVSPost2010Prop52
140
1.0
102
RTVSPost2010PropOp52
 70
     0
102
RTVSPost2010Prop53
 90
        2
102
RTVSPost2010PropOp53
 70
     1
102
RTVSPost2010Prop54
  1
strokes_ogs.tif
102
RTVSPost2010PropOp54
 70
     1
102
RTVSPost2010Prop55
280
     0
102
RTVSPost2010PropOp55
 70
     1
102
RTVSPost2010Prop56
140
1.0
102
RTVSPost2010PropOp56
 70
     1
102
RTVSPost2010Prop57
140
1.0
102
RTVSPost2010PropOp57
 70
     1
102
RTVSPropertyOp0
 70
     1
102
RTVSPropertyOp1
 70
     1
102
RTVSPropertyOp2
 70
     1
102
RTVSPropertyOp3
 70
     1
102
RTVSPropertyOp4
 70
     1
102
RTVSPropertyOp5
 70
     1
102
RTVSPropertyOp6
 70
     1
102
RTVSPropertyOp7
 70
     1
102
RTVSPropertyOp8
 70
     1
102
RTVSPropertyOp9
 70
     1
102
RTVSPropertyOp10
 70
     1
102
RTVSPropertyOp11
 70
     1
102
RTVSPropertyOp12
 70
     1
102
RTVSPropertyOp13
 70
     1
102
RTVSPropertyOp14
 70
     1
102
RTVSPropertyOp15
 70
     1
102
RTVSPropertyOp16
 70
     1
102
RTVSPropertyOp17
 70
     1
102
RTVSPropertyOp18
 70
     1
102
RTVSPropertyOp19
 70
     1
102
RTVSPropertyOp20
 70
     1
102
RTVSPropertyOp21
 70
     1
102
RTVSPropertyOp22
 70
     1
102
RTVSPropertyOp23
 70
     1
102
RTVSPropertyOp24
 70
     1
102
RTVSPropertyOp25
 70
     1
102
RTVSPropertyOp26
 70
     1
102
RTVSPropertyOp27
 70
     1
102
RTVSPropertyOp28
 70
     1
102
RTVSPropertyOp29
 70
     1
102
RTVSPropertyOp30
 70
     1
102
RTVSPropertyOp31
 70
     1
102
RTVSPropertyOp32
 70
     1
102
RTVSPropertyOp33
 70
     1
102
RTVSPropertyOp34
 70
     1
102
RTVSPropertyOp35
 70
     1
102
RTVSPropertyOp36
 70
     1
102
RTVSPropertyOp37
 70
     1
102
RTVSPropertyOp38
 70
     1
102
RTVSPropertyOp39
 70
     1
102
RTVSPropertyOp40
 70
     1
102
RTVSPropertyOp41
 70
     1
102
RTVSPropertyOp42
 70
     1
102
RTVSPropertyOp43
 70
     1
102
RTVSPropertyOp44
 70
     1
102
RTVSPropertyOp45
 70
     1
102
RTVSPropertyOp46
 70
     1
102
RTVSPropertyOp47
 70
     1
102
RTVSPropertyOp48
 70
     1
102
RTVSPropertyOp49
 70
     1
102
RTVSPropertyOp50
 70
     1
102
RTVSPropertyOp51
 70
     0
102
RTVSPropertyOp52
 70
     0
102
RTVSPropertyOp53
 70
     1
102
RTVSPropertyOp54
 70
     1
102
RTVSPropertyOp55
 70
     1
102
RTVSPropertyOp56
 70
     1
102
RTVSPropertyOp57
 70
     1
102
RTVSPropertyOp58
 70
     1
102
RTVSPropertyOp59
 70
     1
102
RTVSPropertyOp60
 70
     1
102
RTVSPropertyOp61
 70
     1
102
RTVSPropertyOp62
 70
     1
  0
XRECORD
  5
3027
102
{ACAD_REACTORS
330
3026
102
}
330
3026
100
AcDbXrecord
280
     1
102
RTVSPost2010Prop28
280
     0
102
RTVSPost2010PropOp28
 70
     1
102
RTVSPost2010Prop29
280
     1
102
RTVSPost2010PropOp29
 70
     1
102
RTVSPost2010Prop30
280
     1
102
RTVSPost2010PropOp30
 70
     1
102
RTVSPost2010Prop31
280
     0
102
RTVSPost2010PropOp31
 70
     1
102
RTVSPost2010Prop32
280
     0
102
RTVSPost2010PropOp32
 70
     1
102
RTVSPost2010Prop33
280
     0
102
RTVSPost2010PropOp33
 70
     1
102
RTVSPost2010Prop34
280
     0
102
RTVSPost2010PropOp34
 70
     1
102
RTVSPost2010Prop35
280
     0
102
RTVSPost2010PropOp35
 70
     1
102
RTVSPost2010Prop36
280
     0
102
RTVSPost2010PropOp36
 70
     1
102
RTVSPost2010Prop37
 90
       50
102
RTVSPost2010PropOp37
 70
     1
102
RTVSPost2010Prop38
140
0.0
102
RTVSPost2010PropOp38
 70
     1
102
RTVSPost2010Prop39
140
1.0
102
RTVSPost2010PropOp39
 70
     1
102
RTVSPost2010Prop40
 90
        0
102
RTVSPost2010PropOp40
 70
     1
102
RTVSPost2010Prop41ColorIndex
 90
       18
102
RTVSPost2010Prop41ColorRGB
 90
        0
102
RTVSPost2010PropOp41
 70
     1
102
RTVSPost2010Prop42
 90
       50
102
RTVSPost2010PropOp42
 70
     1
102
RTVSPost2010Prop43
 90
        3
102
RTVSPost2010PropOp43
 70
     1
102
RTVSPost2010Prop44ColorIndex
 90
        5
102
RTVSPost2010Prop44ColorRGB
 90
      255
102
RTVSPost2010PropOp44
 70
     1
102
RTVSPost2010Prop45
280
     0
102
RTVSPost2010PropOp45
 70
     1
102
RTVSPost2010Prop46
 90
       50
102
RTVSPost2010PropOp46
 70
     1
102
RTVSPost2010Prop47
 90
       50
102
RTVSPost2010PropOp47
 70
     1
102
RTVSPost2010Prop48
 90
       50
102
RTVSPost2010PropOp48
 70
     1
102
RTVSPost2010Prop49
280
     0
102
RTVSPost2010PropOp49
 70
     1
102
RTVSPost2010Prop50
 90
       50
102
RTVSPost2010PropOp50
 70
     1
102
RTVSPost2010Prop51ColorIndex
 90
      256
102
RTVSPost2010Prop51ColorRGB
 90
-16777216
102
RTVSPost2010PropOp51
 70
     0
102
RTVSPost2010Prop52
140
1.0
102
RTVSPost2010PropOp52
 70
     0
102
RTVSPost2010Prop53
 90
        2
102
RTVSPost2010PropOp53
 70
     1
102
RTVSPost2010Prop54
  1
strokes_ogs.tif
102
RTVSPost2010PropOp54
 70
     1
102
RTVSPost2010Prop55
280
     0
102
RTVSPost2010PropOp55
 70
     1
102
RTVSPost2010Prop56
140
1.0
102
RTVSPost2010PropOp56
 70
     1
102
RTVSPost2010Prop57
140
1.0
102
RTVSPost2010PropOp57
 70
     1
102
RTVSPropertyOp0
 70
     1
102
RTVSPropertyOp1
 70
     1
102
RTVSPropertyOp2
 70
     1
102
RTVSPropertyOp3
 70
     1
102
RTVSPropertyOp4
 70
     1
102
RTVSPropertyOp5
 70
     1
102
RTVSPropertyOp6
 70
     1
102
RTVSPropertyOp7
 70
     1
102
RTVSPropertyOp8
 70
     1
102
RTVSPropertyOp9
 70
     1
102
RTVSPropertyOp10
 70
     1
102
RTVSPropertyOp11
 70
     1
102
RTVSPropertyOp12
 70
     1
102
RTVSPropertyOp13
 70
     1
102
RTVSPropertyOp14
 70
     1
102
RTVSPropertyOp15
 70
     1
102
RTVSPropertyOp16
 70
     1
102
RTVSPropertyOp17
 70
     1
102
RTVSPropertyOp18
 70
     1
102
RTVSPropertyOp19
 70
     1
102
RTVSPropertyOp20
 70
     1
102
RTVSPropertyOp21
 70
     1
102
RTVSPropertyOp22
 70
     1
102
RTVSPropertyOp23
 70
     1
102
RTVSPropertyOp24
 70
     1
102
RTVSPropertyOp25
 70
     1
102
RTVSPropertyOp26
 70
     1
102
RTVSPropertyOp27
 70
     1
102
RTVSPropertyOp28
 70
     1
102
RTVSPropertyOp29
 70
     1
102
RTVSPropertyOp30
 70
     1
102
RTVSPropertyOp31
 70
     1
102
RTVSPropertyOp32
 70
     1
102
RTVSPropertyOp33
 70
     1
102
RTVSPropertyOp34
 70
     1
102
RTVSPropertyOp35
 70
     1
102
RTVSPropertyOp36
 70
     1
102
RTVSPropertyOp37
 70
     1
102
RTVSPropertyOp38
 70
     1
102
RTVSPropertyOp39
 70
     1
102
RTVSPropertyOp40
 70
     1
102
RTVSPropertyOp41
 70
     1
102
RTVSPropertyOp42
 70
     1
102
RTVSPropertyOp43
 70
     1
102
RTVSPropertyOp44
 70
     1
102
RTVSPropertyOp45
 70
     1
102
RTVSPropertyOp46
 70
     1
102
RTVSPropertyOp47
 70
     1
102
RTVSPropertyOp48
 70
     1
102
RTVSPropertyOp49
 70
     1
102
RTVSPropertyOp50
 70
     1
102
RTVSPropertyOp51
 70
     0
102
RTVSPropertyOp52
 70
     0
102
RTVSPropertyOp53
 70
     1
102
RTVSPropertyOp54
 70
     1
102
RTVSPropertyOp55
 70
     1
102
RTVSPropertyOp56
 70
     1
102
RTVSPropertyOp57
 70
     1
102
RTVSPropertyOp58
 70
     1
102
RTVSPropertyOp59
 70
     1
102
RTVSPropertyOp60
 70
     1
102
RTVSPropertyOp61
 70
     1
102
RTVSPropertyOp62
 70
     1
  0
XRECORD
  5
3025
102
{ACAD_REACTORS
330
3024
102
}
330
3024
100
AcDbXrecord
280
     1
102
RTVSPost2010Prop28
280
     0
102
RTVSPost2010PropOp28
 70
     1
102
RTVSPost2010Prop29
280
     1
102
RTVSPost2010PropOp29
 70
     1
102
RTVSPost2010Prop30
280
     1
102
RTVSPost2010PropOp30
 70
     1
102
RTVSPost2010Prop31
280
     0
102
RTVSPost2010PropOp31
 70
     1
102
RTVSPost2010Prop32
280
     0
102
RTVSPost2010PropOp32
 70
     1
102
RTVSPost2010Prop33
280
     0
102
RTVSPost2010PropOp33
 70
     1
102
RTVSPost2010Prop34
280
     0
102
RTVSPost2010PropOp34
 70
     1
102
RTVSPost2010Prop35
280
     0
102
RTVSPost2010PropOp35
 70
     1
102
RTVSPost2010Prop36
280
     0
102
RTVSPost2010PropOp36
 70
     1
102
RTVSPost2010Prop37
 90
       50
102
RTVSPost2010PropOp37
 70
     1
102
RTVSPost2010Prop38
140
0.0
102
RTVSPost2010PropOp38
 70
     1
102
RTVSPost2010Prop39
140
1.0
102
RTVSPost2010PropOp39
 70
     1
102
RTVSPost2010Prop40
 90
        0
102
RTVSPost2010PropOp40
 70
     1
102
RTVSPost2010Prop41ColorIndex
 90
       18
102
RTVSPost2010Prop41ColorRGB
 90
        0
102
RTVSPost2010PropOp41
 70
     1
102
RTVSPost2010Prop42
 90
       50
102
RTVSPost2010PropOp42
 70
     1
102
RTVSPost2010Prop43
 90
        3
102
RTVSPost2010PropOp43
 70
     1
102
RTVSPost2010Prop44ColorIndex
 90
        5
102
RTVSPost2010Prop44ColorRGB
 90
      255
102
RTVSPost2010PropOp44
 70
     1
102
RTVSPost2010Prop45
280
     0
102
RTVSPost2010PropOp45
 70
     1
102
RTVSPost2010Prop46
 90
       50
102
RTVSPost2010PropOp46
 70
     1
102
RTVSPost2010Prop47
 90
       50
102
RTVSPost2010PropOp47
 70
     1
102
RTVSPost2010Prop48
 90
       50
102
RTVSPost2010PropOp48
 70
     1
102
RTVSPost2010Prop49
280
     0
102
RTVSPost2010PropOp49
 70
     1
102
RTVSPost2010Prop50
 90
       50
102
RTVSPost2010PropOp50
 70
     1
102
RTVSPost2010Prop51ColorIndex
 90
      256
102
RTVSPost2010Prop51ColorRGB
 90
-16777216
102
RTVSPost2010PropOp51
 70
     0
102
RTVSPost2010Prop52
140
1.0
102
RTVSPost2010PropOp52
 70
     0
102
RTVSPost2010Prop53
 90
        2
102
RTVSPost2010PropOp53
 70
     1
102
RTVSPost2010Prop54
  1
strokes_ogs.tif
102
RTVSPost2010PropOp54
 70
     1
102
RTVSPost2010Prop55
280
     0
102
RTVSPost2010PropOp55
 70
     1
102
RTVSPost2010Prop56
140
1.0
102
RTVSPost2010PropOp56
 70
     1
102
RTVSPost2010Prop57
140
1.0
102
RTVSPost2010PropOp57
 70
     1
102
RTVSPropertyOp0
 70
     1
102
RTVSPropertyOp1
 70
     1
102
RTVSPropertyOp2
 70
     1
102
RTVSPropertyOp3
 70
     1
102
RTVSPropertyOp4
 70
     1
102
RTVSPropertyOp5
 70
     1
102
RTVSPropertyOp6
 70
     1
102
RTVSPropertyOp7
 70
     1
102
RTVSPropertyOp8
 70
     1
102
RTVSPropertyOp9
 70
     1
102
RTVSPropertyOp10
 70
     1
102
RTVSPropertyOp11
 70
     1
102
RTVSPropertyOp12
 70
     1
102
RTVSPropertyOp13
 70
     1
102
RTVSPropertyOp14
 70
     1
102
RTVSPropertyOp15
 70
     1
102
RTVSPropertyOp16
 70
     1
102
RTVSPropertyOp17
 70
     1
102
RTVSPropertyOp18
 70
     1
102
RTVSPropertyOp19
 70
     1
102
RTVSPropertyOp20
 70
     1
102
RTVSPropertyOp21
 70
     1
102
RTVSPropertyOp22
 70
     1
102
RTVSPropertyOp23
 70
     1
102
RTVSPropertyOp24
 70
     1
102
RTVSPropertyOp25
 70
     1
102
RTVSPropertyOp26
 70
     1
102
RTVSPropertyOp27
 70
     1
102
RTVSPropertyOp28
 70
     1
102
RTVSPropertyOp29
 70
     1
102
RTVSPropertyOp30
 70
     1
102
RTVSPropertyOp31
 70
     1
102
RTVSPropertyOp32
 70
     1
102
RTVSPropertyOp33
 70
     1
102
RTVSPropertyOp34
 70
     1
102
RTVSPropertyOp35
 70
     1
102
RTVSPropertyOp36
 70
     1
102
RTVSPropertyOp37
 70
     1
102
RTVSPropertyOp38
 70
     1
102
RTVSPropertyOp39
 70
     1
102
RTVSPropertyOp40
 70
     1
102
RTVSPropertyOp41
 70
     1
102
RTVSPropertyOp42
 70
     1
102
RTVSPropertyOp43
 70
     1
102
RTVSPropertyOp44
 70
     1
102
RTVSPropertyOp45
 70
     1
102
RTVSPropertyOp46
 70
     1
102
RTVSPropertyOp47
 70
     1
102
RTVSPropertyOp48
 70
     1
102
RTVSPropertyOp49
 70
     1
102
RTVSPropertyOp50
 70
     1
102
RTVSPropertyOp51
 70
     0
102
RTVSPropertyOp52
 70
     0
102
RTVSPropertyOp53
 70
     1
102
RTVSPropertyOp54
 70
     1
102
RTVSPropertyOp55
 70
     1
102
RTVSPropertyOp56
 70
     1
102
RTVSPropertyOp57
 70
     1
102
RTVSPropertyOp58
 70
     1
102
RTVSPropertyOp59
 70
     1
102
RTVSPropertyOp60
 70
     1
102
RTVSPropertyOp61
 70
     1
102
RTVSPropertyOp62
 70
     1
  0
XRECORD
  5
301F
102
{ACAD_REACTORS
330
301E
102
}
330
301E
100
AcDbXrecord
280
     1
102
RTVSPost2010Prop28
280
     0
102
RTVSPost2010PropOp28
 70
     1
102
RTVSPost2010Prop29
280
     1
102
RTVSPost2010PropOp29
 70
     1
102
RTVSPost2010Prop30
280
     1
102
RTVSPost2010PropOp30
 70
     1
102
RTVSPost2010Prop31
280
     0
102
RTVSPost2010PropOp31
 70
     1
102
RTVSPost2010Prop32
280
     0
102
RTVSPost2010PropOp32
 70
     1
102
RTVSPost2010Prop33
280
     0
102
RTVSPost2010PropOp33
 70
     1
102
RTVSPost2010Prop34
280
     0
102
RTVSPost2010PropOp34
 70
     1
102
RTVSPost2010Prop35
280
     0
102
RTVSPost2010PropOp35
 70
     1
102
RTVSPost2010Prop36
280
     0
102
RTVSPost2010PropOp36
 70
     1
102
RTVSPost2010Prop37
 90
       50
102
RTVSPost2010PropOp37
 70
     1
102
RTVSPost2010Prop38
140
0.0
102
RTVSPost2010PropOp38
 70
     1
102
RTVSPost2010Prop39
140
1.0
102
RTVSPost2010PropOp39
 70
     1
102
RTVSPost2010Prop40
 90
        0
102
RTVSPost2010PropOp40
 70
     1
102
RTVSPost2010Prop41ColorIndex
 90
       18
102
RTVSPost2010Prop41ColorRGB
 90
        0
102
RTVSPost2010PropOp41
 70
     1
102
RTVSPost2010Prop42
 90
       50
102
RTVSPost2010PropOp42
 70
     1
102
RTVSPost2010Prop43
 90
        3
102
RTVSPost2010PropOp43
 70
     1
102
RTVSPost2010Prop44ColorIndex
 90
        5
102
RTVSPost2010Prop44ColorRGB
 90
      255
102
RTVSPost2010PropOp44
 70
     1
102
RTVSPost2010Prop45
280
     0
102
RTVSPost2010PropOp45
 70
     1
102
RTVSPost2010Prop46
 90
       50
102
RTVSPost2010PropOp46
 70
     1
102
RTVSPost2010Prop47
 90
       50
102
RTVSPost2010PropOp47
 70
     1
102
RTVSPost2010Prop48
 90
       50
102
RTVSPost2010PropOp48
 70
     1
102
RTVSPost2010Prop49
280
     0
102
RTVSPost2010PropOp49
 70
     1
102
RTVSPost2010Prop50
 90
       50
102
RTVSPost2010PropOp50
 70
     1
102
RTVSPost2010Prop51ColorIndex
 90
      256
102
RTVSPost2010Prop51ColorRGB
 90
-16777216
102
RTVSPost2010PropOp51
 70
     0
102
RTVSPost2010Prop52
140
1.0
102
RTVSPost2010PropOp52
 70
     0
102
RTVSPost2010Prop53
 90
        2
102
RTVSPost2010PropOp53
 70
     1
102
RTVSPost2010Prop54
  1
strokes_ogs.tif
102
RTVSPost2010PropOp54
 70
     1
102
RTVSPost2010Prop55
280
     0
102
RTVSPost2010PropOp55
 70
     1
102
RTVSPost2010Prop56
140
1.0
102
RTVSPost2010PropOp56
 70
     1
102
RTVSPost2010Prop57
140
1.0
102
RTVSPost2010PropOp57
 70
     1
102
RTVSPropertyOp0
 70
     1
102
RTVSPropertyOp1
 70
     1
102
RTVSPropertyOp2
 70
     1
102
RTVSPropertyOp3
 70
     1
102
RTVSPropertyOp4
 70
     1
102
RTVSPropertyOp5
 70
     1
102
RTVSPropertyOp6
 70
     1
102
RTVSPropertyOp7
 70
     1
102
RTVSPropertyOp8
 70
     1
102
RTVSPropertyOp9
 70
     1
102
RTVSPropertyOp10
 70
     1
102
RTVSPropertyOp11
 70
     1
102
RTVSPropertyOp12
 70
     1
102
RTVSPropertyOp13
 70
     1
102
RTVSPropertyOp14
 70
     1
102
RTVSPropertyOp15
 70
     1
102
RTVSPropertyOp16
 70
     1
102
RTVSPropertyOp17
 70
     1
102
RTVSPropertyOp18
 70
     1
102
RTVSPropertyOp19
 70
     1
102
RTVSPropertyOp20
 70
     1
102
RTVSPropertyOp21
 70
     1
102
RTVSPropertyOp22
 70
     1
102
RTVSPropertyOp23
 70
     1
102
RTVSPropertyOp24
 70
     1
102
RTVSPropertyOp25
 70
     1
102
RTVSPropertyOp26
 70
     1
102
RTVSPropertyOp27
 70
     1
102
RTVSPropertyOp28
 70
     1
102
RTVSPropertyOp29
 70
     1
102
RTVSPropertyOp30
 70
     1
102
RTVSPropertyOp31
 70
     1
102
RTVSPropertyOp32
 70
     1
102
RTVSPropertyOp33
 70
     1
102
RTVSPropertyOp34
 70
     1
102
RTVSPropertyOp35
 70
     1
102
RTVSPropertyOp36
 70
     1
102
RTVSPropertyOp37
 70
     1
102
RTVSPropertyOp38
 70
     1
102
RTVSPropertyOp39
 70
     1
102
RTVSPropertyOp40
 70
     1
102
RTVSPropertyOp41
 70
     1
102
RTVSPropertyOp42
 70
     1
102
RTVSPropertyOp43
 70
     1
102
RTVSPropertyOp44
 70
     1
102
RTVSPropertyOp45
 70
     1
102
RTVSPropertyOp46
 70
     1
102
RTVSPropertyOp47
 70
     1
102
RTVSPropertyOp48
 70
     1
102
RTVSPropertyOp49
 70
     1
102
RTVSPropertyOp50
 70
     1
102
RTVSPropertyOp51
 70
     0
102
RTVSPropertyOp52
 70
     0
102
RTVSPropertyOp53
 70
     1
102
RTVSPropertyOp54
 70
     1
102
RTVSPropertyOp55
 70
     1
102
RTVSPropertyOp56
 70
     1
102
RTVSPropertyOp57
 70
     1
102
RTVSPropertyOp58
 70
     1
102
RTVSPropertyOp59
 70
     1
102
RTVSPropertyOp60
 70
     1
102
RTVSPropertyOp61
 70
     1
102
RTVSPropertyOp62
 70
     1
  0
XRECORD
  5
3021
102
{ACAD_REACTORS
330
3020
102
}
330
3020
100
AcDbXrecord
280
     1
102
RTVSPost2010Prop28
280
     0
102
RTVSPost2010PropOp28
 70
     1
102
RTVSPost2010Prop29
280
     1
102
RTVSPost2010PropOp29
 70
     1
102
RTVSPost2010Prop30
280
     1
102
RTVSPost2010PropOp30
 70
     1
102
RTVSPost2010Prop31
280
     0
102
RTVSPost2010PropOp31
 70
     1
102
RTVSPost2010Prop32
280
     0
102
RTVSPost2010PropOp32
 70
     1
102
RTVSPost2010Prop33
280
     0
102
RTVSPost2010PropOp33
 70
     1
102
RTVSPost2010Prop34
280
     0
102
RTVSPost2010PropOp34
 70
     1
102
RTVSPost2010Prop35
280
     0
102
RTVSPost2010PropOp35
 70
     1
102
RTVSPost2010Prop36
280
     0
102
RTVSPost2010PropOp36
 70
     1
102
RTVSPost2010Prop37
 90
       50
102
RTVSPost2010PropOp37
 70
     1
102
RTVSPost2010Prop38
140
0.0
102
RTVSPost2010PropOp38
 70
     1
102
RTVSPost2010Prop39
140
1.0
102
RTVSPost2010PropOp39
 70
     1
102
RTVSPost2010Prop40
 90
        0
102
RTVSPost2010PropOp40
 70
     1
102
RTVSPost2010Prop41ColorIndex
 90
       18
102
RTVSPost2010Prop41ColorRGB
 90
        0
102
RTVSPost2010PropOp41
 70
     1
102
RTVSPost2010Prop42
 90
       50
102
RTVSPost2010PropOp42
 70
     1
102
RTVSPost2010Prop43
 90
        3
102
RTVSPost2010PropOp43
 70
     1
102
RTVSPost2010Prop44ColorIndex
 90
        5
102
RTVSPost2010Prop44ColorRGB
 90
      255
102
RTVSPost2010PropOp44
 70
     1
102
RTVSPost2010Prop45
280
     0
102
RTVSPost2010PropOp45
 70
     1
102
RTVSPost2010Prop46
 90
       50
102
RTVSPost2010PropOp46
 70
     1
102
RTVSPost2010Prop47
 90
       50
102
RTVSPost2010PropOp47
 70
     1
102
RTVSPost2010Prop48
 90
       50
102
RTVSPost2010PropOp48
 70
     1
102
RTVSPost2010Prop49
280
     0
102
RTVSPost2010PropOp49
 70
     1
102
RTVSPost2010Prop50
 90
       50
102
RTVSPost2010PropOp50
 70
     1
102
RTVSPost2010Prop51ColorIndex
 90
      256
102
RTVSPost2010Prop51ColorRGB
 90
-16777216
102
RTVSPost2010PropOp51
 70
     0
102
RTVSPost2010Prop52
140
1.0
102
RTVSPost2010PropOp52
 70
     0
102
RTVSPost2010Prop53
 90
        2
102
RTVSPost2010PropOp53
 70
     1
102
RTVSPost2010Prop54
  1
strokes_ogs.tif
102
RTVSPost2010PropOp54
 70
     1
102
RTVSPost2010Prop55
280
     0
102
RTVSPost2010PropOp55
 70
     1
102
RTVSPost2010Prop56
140
1.0
102
RTVSPost2010PropOp56
 70
     1
102
RTVSPost2010Prop57
140
1.0
102
RTVSPost2010PropOp57
 70
     1
102
RTVSPropertyOp0
 70
     1
102
RTVSPropertyOp1
 70
     1
102
RTVSPropertyOp2
 70
     1
102
RTVSPropertyOp3
 70
     1
102
RTVSPropertyOp4
 70
     1
102
RTVSPropertyOp5
 70
     1
102
RTVSPropertyOp6
 70
     1
102
RTVSPropertyOp7
 70
     1
102
RTVSPropertyOp8
 70
     1
102
RTVSPropertyOp9
 70
     1
102
RTVSPropertyOp10
 70
     1
102
RTVSPropertyOp11
 70
     1
102
RTVSPropertyOp12
 70
     1
102
RTVSPropertyOp13
 70
     1
102
RTVSPropertyOp14
 70
     1
102
RTVSPropertyOp15
 70
     1
102
RTVSPropertyOp16
 70
     1
102
RTVSPropertyOp17
 70
     1
102
RTVSPropertyOp18
 70
     1
102
RTVSPropertyOp19
 70
     1
102
RTVSPropertyOp20
 70
     1
102
RTVSPropertyOp21
 70
     1
102
RTVSPropertyOp22
 70
     1
102
RTVSPropertyOp23
 70
     1
102
RTVSPropertyOp24
 70
     1
102
RTVSPropertyOp25
 70
     1
102
RTVSPropertyOp26
 70
     1
102
RTVSPropertyOp27
 70
     1
102
RTVSPropertyOp28
 70
     1
102
RTVSPropertyOp29
 70
     1
102
RTVSPropertyOp30
 70
     1
102
RTVSPropertyOp31
 70
     1
102
RTVSPropertyOp32
 70
     1
102
RTVSPropertyOp33
 70
     1
102
RTVSPropertyOp34
 70
     1
102
RTVSPropertyOp35
 70
     1
102
RTVSPropertyOp36
 70
     1
102
RTVSPropertyOp37
 70
     1
102
RTVSPropertyOp38
 70
     1
102
RTVSPropertyOp39
 70
     1
102
RTVSPropertyOp40
 70
     1
102
RTVSPropertyOp41
 70
     1
102
RTVSPropertyOp42
 70
     1
102
RTVSPropertyOp43
 70
     1
102
RTVSPropertyOp44
 70
     1
102
RTVSPropertyOp45
 70
     1
102
RTVSPropertyOp46
 70
     1
102
RTVSPropertyOp47
 70
     1
102
RTVSPropertyOp48
 70
     1
102
RTVSPropertyOp49
 70
     1
102
RTVSPropertyOp50
 70
     1
102
RTVSPropertyOp51
 70
     0
102
RTVSPropertyOp52
 70
     0
102
RTVSPropertyOp53
 70
     1
102
RTVSPropertyOp54
 70
     1
102
RTVSPropertyOp55
 70
     1
102
RTVSPropertyOp56
 70
     1
102
RTVSPropertyOp57
 70
     1
102
RTVSPropertyOp58
 70
     1
102
RTVSPropertyOp59
 70
     1
102
RTVSPropertyOp60
 70
     1
102
RTVSPropertyOp61
 70
     1
102
RTVSPropertyOp62
 70
     1
  0
XRECORD
  5
3017
102
{ACAD_REACTORS
330
3016
102
}
330
3016
100
AcDbXrecord
280
     1
102
RTVSPost2010Prop28
280
     0
102
RTVSPost2010PropOp28
 70
     1
102
RTVSPost2010Prop29
280
     1
102
RTVSPost2010PropOp29
 70
     1
102
RTVSPost2010Prop30
280
     1
102
RTVSPost2010PropOp30
 70
     1
102
RTVSPost2010Prop31
280
     0
102
RTVSPost2010PropOp31
 70
     1
102
RTVSPost2010Prop32
280
     0
102
RTVSPost2010PropOp32
 70
     1
102
RTVSPost2010Prop33
280
     0
102
RTVSPost2010PropOp33
 70
     1
102
RTVSPost2010Prop34
280
     0
102
RTVSPost2010PropOp34
 70
     1
102
RTVSPost2010Prop35
280
     0
102
RTVSPost2010PropOp35
 70
     1
102
RTVSPost2010Prop36
280
     0
102
RTVSPost2010PropOp36
 70
     1
102
RTVSPost2010Prop37
 90
       50
102
RTVSPost2010PropOp37
 70
     1
102
RTVSPost2010Prop38
140
0.0
102
RTVSPost2010PropOp38
 70
     1
102
RTVSPost2010Prop39
140
1.0
102
RTVSPost2010PropOp39
 70
     1
102
RTVSPost2010Prop40
 90
        0
102
RTVSPost2010PropOp40
 70
     1
102
RTVSPost2010Prop41ColorIndex
 90
       18
102
RTVSPost2010Prop41ColorRGB
 90
        0
102
RTVSPost2010PropOp41
 70
     1
102
RTVSPost2010Prop42
 90
       50
102
RTVSPost2010PropOp42
 70
     1
102
RTVSPost2010Prop43
 90
        3
102
RTVSPost2010PropOp43
 70
     1
102
RTVSPost2010Prop44ColorIndex
 90
        5
102
RTVSPost2010Prop44ColorRGB
 90
      255
102
RTVSPost2010PropOp44
 70
     1
102
RTVSPost2010Prop45
280
     0
102
RTVSPost2010PropOp45
 70
     1
102
RTVSPost2010Prop46
 90
       50
102
RTVSPost2010PropOp46
 70
     1
102
RTVSPost2010Prop47
 90
       50
102
RTVSPost2010PropOp47
 70
     1
102
RTVSPost2010Prop48
 90
       50
102
RTVSPost2010PropOp48
 70
     1
102
RTVSPost2010Prop49
280
     0
102
RTVSPost2010PropOp49
 70
     1
102
RTVSPost2010Prop50
 90
       50
102
RTVSPost2010PropOp50
 70
     1
102
RTVSPost2010Prop51ColorIndex
 90
      256
102
RTVSPost2010Prop51ColorRGB
 90
-16777216
102
RTVSPost2010PropOp51
 70
     0
102
RTVSPost2010Prop52
140
1.0
102
RTVSPost2010PropOp52
 70
     0
102
RTVSPost2010Prop53
 90
        2
102
RTVSPost2010PropOp53
 70
     1
102
RTVSPost2010Prop54
  1
strokes_ogs.tif
102
RTVSPost2010PropOp54
 70
     1
102
RTVSPost2010Prop55
280
     0
102
RTVSPost2010PropOp55
 70
     1
102
RTVSPost2010Prop56
140
1.0
102
RTVSPost2010PropOp56
 70
     1
102
RTVSPost2010Prop57
140
1.0
102
RTVSPost2010PropOp57
 70
     1
102
RTVSPropertyOp0
 70
     1
102
RTVSPropertyOp1
 70
     1
102
RTVSPropertyOp2
 70
     1
102
RTVSPropertyOp3
 70
     1
102
RTVSPropertyOp4
 70
     1
102
RTVSPropertyOp5
 70
     1
102
RTVSPropertyOp6
 70
     1
102
RTVSPropertyOp7
 70
     1
102
RTVSPropertyOp8
 70
     1
102
RTVSPropertyOp9
 70
     1
102
RTVSPropertyOp10
 70
     1
102
RTVSPropertyOp11
 70
     1
102
RTVSPropertyOp12
 70
     1
102
RTVSPropertyOp13
 70
     1
102
RTVSPropertyOp14
 70
     1
102
RTVSPropertyOp15
 70
     1
102
RTVSPropertyOp16
 70
     1
102
RTVSPropertyOp17
 70
     1
102
RTVSPropertyOp18
 70
     1
102
RTVSPropertyOp19
 70
     1
102
RTVSPropertyOp20
 70
     1
102
RTVSPropertyOp21
 70
     1
102
RTVSPropertyOp22
 70
     1
102
RTVSPropertyOp23
 70
     1
102
RTVSPropertyOp24
 70
     1
102
RTVSPropertyOp25
 70
     1
102
RTVSPropertyOp26
 70
     1
102
RTVSPropertyOp27
 70
     1
102
RTVSPropertyOp28
 70
     1
102
RTVSPropertyOp29
 70
     1
102
RTVSPropertyOp30
 70
     1
102
RTVSPropertyOp31
 70
     1
102
RTVSPropertyOp32
 70
     1
102
RTVSPropertyOp33
 70
     1
102
RTVSPropertyOp34
 70
     1
102
RTVSPropertyOp35
 70
     1
102
RTVSPropertyOp36
 70
     1
102
RTVSPropertyOp37
 70
     1
102
RTVSPropertyOp38
 70
     1
102
RTVSPropertyOp39
 70
     1
102
RTVSPropertyOp40
 70
     1
102
RTVSPropertyOp41
 70
     1
102
RTVSPropertyOp42
 70
     1
102
RTVSPropertyOp43
 70
     1
102
RTVSPropertyOp44
 70
     1
102
RTVSPropertyOp45
 70
     1
102
RTVSPropertyOp46
 70
     1
102
RTVSPropertyOp47
 70
     1
102
RTVSPropertyOp48
 70
     1
102
RTVSPropertyOp49
 70
     1
102
RTVSPropertyOp50
 70
     1
102
RTVSPropertyOp51
 70
     0
102
RTVSPropertyOp52
 70
     0
102
RTVSPropertyOp53
 70
     1
102
RTVSPropertyOp54
 70
     1
102
RTVSPropertyOp55
 70
     1
102
RTVSPropertyOp56
 70
     1
102
RTVSPropertyOp57
 70
     1
102
RTVSPropertyOp58
 70
     1
102
RTVSPropertyOp59
 70
     1
102
RTVSPropertyOp60
 70
     1
102
RTVSPropertyOp61
 70
     1
102
RTVSPropertyOp62
 70
     1
  0
XRECORD
  5
300B
102
{ACAD_REACTORS
330
300A
102
}
330
300A
100
AcDbXrecord
280
     1
102
RTVSPost2010Prop28
280
     0
102
RTVSPost2010PropOp28
 70
     1
102
RTVSPost2010Prop29
280
     1
102
RTVSPost2010PropOp29
 70
     1
102
RTVSPost2010Prop30
280
     1
102
RTVSPost2010PropOp30
 70
     1
102
RTVSPost2010Prop31
280
     0
102
RTVSPost2010PropOp31
 70
     1
102
RTVSPost2010Prop32
280
     0
102
RTVSPost2010PropOp32
 70
     1
102
RTVSPost2010Prop33
280
     0
102
RTVSPost2010PropOp33
 70
     1
102
RTVSPost2010Prop34
280
     0
102
RTVSPost2010PropOp34
 70
     1
102
RTVSPost2010Prop35
280
     0
102
RTVSPost2010PropOp35
 70
     1
102
RTVSPost2010Prop36
280
     0
102
RTVSPost2010PropOp36
 70
     1
102
RTVSPost2010Prop37
 90
       50
102
RTVSPost2010PropOp37
 70
     1
102
RTVSPost2010Prop38
140
0.0
102
RTVSPost2010PropOp38
 70
     1
102
RTVSPost2010Prop39
140
1.0
102
RTVSPost2010PropOp39
 70
     1
102
RTVSPost2010Prop40
 90
        0
102
RTVSPost2010PropOp40
 70
     1
102
RTVSPost2010Prop41ColorIndex
 90
       18
102
RTVSPost2010Prop41ColorRGB
 90
        0
102
RTVSPost2010PropOp41
 70
     1
102
RTVSPost2010Prop42
 90
       50
102
RTVSPost2010PropOp42
 70
     1
102
RTVSPost2010Prop43
 90
        3
102
RTVSPost2010PropOp43
 70
     1
102
RTVSPost2010Prop44ColorIndex
 90
        5
102
RTVSPost2010Prop44ColorRGB
 90
      255
102
RTVSPost2010PropOp44
 70
     1
102
RTVSPost2010Prop45
280
     0
102
RTVSPost2010PropOp45
 70
     1
102
RTVSPost2010Prop46
 90
       50
102
RTVSPost2010PropOp46
 70
     1
102
RTVSPost2010Prop47
 90
       50
102
RTVSPost2010PropOp47
 70
     1
102
RTVSPost2010Prop48
 90
       50
102
RTVSPost2010PropOp48
 70
     1
102
RTVSPost2010Prop49
280
     0
102
RTVSPost2010PropOp49
 70
     1
102
RTVSPost2010Prop50
 90
       50
102
RTVSPost2010PropOp50
 70
     1
102
RTVSPost2010Prop51ColorIndex
 90
      256
102
RTVSPost2010Prop51ColorRGB
 90
-16777216
102
RTVSPost2010PropOp51
 70
     0
102
RTVSPost2010Prop52
140
1.0
102
RTVSPost2010PropOp52
 70
     0
102
RTVSPost2010Prop53
 90
        2
102
RTVSPost2010PropOp53
 70
     1
102
RTVSPost2010Prop54
  1
strokes_ogs.tif
102
RTVSPost2010PropOp54
 70
     1
102
RTVSPost2010Prop55
280
     0
102
RTVSPost2010PropOp55
 70
     1
102
RTVSPost2010Prop56
140
1.0
102
RTVSPost2010PropOp56
 70
     1
102
RTVSPost2010Prop57
140
1.0
102
RTVSPost2010PropOp57
 70
     1
102
RTVSPropertyOp0
 70
     1
102
RTVSPropertyOp1
 70
     1
102
RTVSPropertyOp2
 70
     1
102
RTVSPropertyOp3
 70
     1
102
RTVSPropertyOp4
 70
     1
102
RTVSPropertyOp5
 70
     1
102
RTVSPropertyOp6
 70
     1
102
RTVSPropertyOp7
 70
     1
102
RTVSPropertyOp8
 70
     1
102
RTVSPropertyOp9
 70
     1
102
RTVSPropertyOp10
 70
     1
102
RTVSPropertyOp11
 70
     1
102
RTVSPropertyOp12
 70
     1
102
RTVSPropertyOp13
 70
     1
102
RTVSPropertyOp14
 70
     1
102
RTVSPropertyOp15
 70
     1
102
RTVSPropertyOp16
 70
     1
102
RTVSPropertyOp17
 70
     1
102
RTVSPropertyOp18
 70
     1
102
RTVSPropertyOp19
 70
     1
102
RTVSPropertyOp20
 70
     1
102
RTVSPropertyOp21
 70
     1
102
RTVSPropertyOp22
 70
     1
102
RTVSPropertyOp23
 70
     1
102
RTVSPropertyOp24
 70
     1
102
RTVSPropertyOp25
 70
     1
102
RTVSPropertyOp26
 70
     1
102
RTVSPropertyOp27
 70
     1
102
RTVSPropertyOp28
 70
     1
102
RTVSPropertyOp29
 70
     1
102
RTVSPropertyOp30
 70
     1
102
RTVSPropertyOp31
 70
     1
102
RTVSPropertyOp32
 70
     1
102
RTVSPropertyOp33
 70
     1
102
RTVSPropertyOp34
 70
     1
102
RTVSPropertyOp35
 70
     1
102
RTVSPropertyOp36
 70
     1
102
RTVSPropertyOp37
 70
     1
102
RTVSPropertyOp38
 70
     1
102
RTVSPropertyOp39
 70
     1
102
RTVSPropertyOp40
 70
     1
102
RTVSPropertyOp41
 70
     1
102
RTVSPropertyOp42
 70
     1
102
RTVSPropertyOp43
 70
     1
102
RTVSPropertyOp44
 70
     1
102
RTVSPropertyOp45
 70
     1
102
RTVSPropertyOp46
 70
     1
102
RTVSPropertyOp47
 70
     1
102
RTVSPropertyOp48
 70
     1
102
RTVSPropertyOp49
 70
     1
102
RTVSPropertyOp50
 70
     1
102
RTVSPropertyOp51
 70
     0
102
RTVSPropertyOp52
 70
     0
102
RTVSPropertyOp53
 70
     1
102
RTVSPropertyOp54
 70
     1
102
RTVSPropertyOp55
 70
     1
102
RTVSPropertyOp56
 70
     1
102
RTVSPropertyOp57
 70
     1
102
RTVSPropertyOp58
 70
     1
102
RTVSPropertyOp59
 70
     1
102
RTVSPropertyOp60
 70
     1
102
RTVSPropertyOp61
 70
     1
102
RTVSPropertyOp62
 70
     1
  0
XRECORD
  5
3023
102
{ACAD_REACTORS
330
3022
102
}
330
3022
100
AcDbXrecord
280
     1
102
RTVSPost2010Prop28
280
     0
102
RTVSPost2010PropOp28
 70
     1
102
RTVSPost2010Prop29
280
     1
102
RTVSPost2010PropOp29
 70
     1
102
RTVSPost2010Prop30
280
     1
102
RTVSPost2010PropOp30
 70
     1
102
RTVSPost2010Prop31
280
     0
102
RTVSPost2010PropOp31
 70
     1
102
RTVSPost2010Prop32
280
     0
102
RTVSPost2010PropOp32
 70
     1
102
RTVSPost2010Prop33
280
     0
102
RTVSPost2010PropOp33
 70
     1
102
RTVSPost2010Prop34
280
     0
102
RTVSPost2010PropOp34
 70
     1
102
RTVSPost2010Prop35
280
     0
102
RTVSPost2010PropOp35
 70
     1
102
RTVSPost2010Prop36
280
     0
102
RTVSPost2010PropOp36
 70
     1
102
RTVSPost2010Prop37
 90
       50
102
RTVSPost2010PropOp37
 70
     1
102
RTVSPost2010Prop38
140
0.0
102
RTVSPost2010PropOp38
 70
     1
102
RTVSPost2010Prop39
140
1.0
102
RTVSPost2010PropOp39
 70
     1
102
RTVSPost2010Prop40
 90
        0
102
RTVSPost2010PropOp40
 70
     1
102
RTVSPost2010Prop41ColorIndex
 90
       18
102
RTVSPost2010Prop41ColorRGB
 90
        0
102
RTVSPost2010PropOp41
 70
     1
102
RTVSPost2010Prop42
 90
       50
102
RTVSPost2010PropOp42
 70
     1
102
RTVSPost2010Prop43
 90
        3
102
RTVSPost2010PropOp43
 70
     1
102
RTVSPost2010Prop44ColorIndex
 90
        5
102
RTVSPost2010Prop44ColorRGB
 90
      255
102
RTVSPost2010PropOp44
 70
     1
102
RTVSPost2010Prop45
280
     0
102
RTVSPost2010PropOp45
 70
     1
102
RTVSPost2010Prop46
 90
       50
102
RTVSPost2010PropOp46
 70
     1
102
RTVSPost2010Prop47
 90
       50
102
RTVSPost2010PropOp47
 70
     1
102
RTVSPost2010Prop48
 90
       50
102
RTVSPost2010PropOp48
 70
     1
102
RTVSPost2010Prop49
280
     0
102
RTVSPost2010PropOp49
 70
     1
102
RTVSPost2010Prop50
 90
       50
102
RTVSPost2010PropOp50
 70
     1
102
RTVSPost2010Prop51ColorIndex
 90
      256
102
RTVSPost2010Prop51ColorRGB
 90
-16777216
102
RTVSPost2010PropOp51
 70
     0
102
RTVSPost2010Prop52
140
1.0
102
RTVSPost2010PropOp52
 70
     0
102
RTVSPost2010Prop53
 90
        2
102
RTVSPost2010PropOp53
 70
     1
102
RTVSPost2010Prop54
  1
strokes_ogs.tif
102
RTVSPost2010PropOp54
 70
     1
102
RTVSPost2010Prop55
280
     0
102
RTVSPost2010PropOp55
 70
     1
102
RTVSPost2010Prop56
140
1.0
102
RTVSPost2010PropOp56
 70
     1
102
RTVSPost2010Prop57
140
1.0
102
RTVSPost2010PropOp57
 70
     1
102
RTVSPropertyOp0
 70
     1
102
RTVSPropertyOp1
 70
     1
102
RTVSPropertyOp2
 70
     1
102
RTVSPropertyOp3
 70
     1
102
RTVSPropertyOp4
 70
     1
102
RTVSPropertyOp5
 70
     1
102
RTVSPropertyOp6
 70
     1
102
RTVSPropertyOp7
 70
     1
102
RTVSPropertyOp8
 70
     1
102
RTVSPropertyOp9
 70
     1
102
RTVSPropertyOp10
 70
     1
102
RTVSPropertyOp11
 70
     1
102
RTVSPropertyOp12
 70
     1
102
RTVSPropertyOp13
 70
     1
102
RTVSPropertyOp14
 70
     1
102
RTVSPropertyOp15
 70
     1
102
RTVSPropertyOp16
 70
     1
102
RTVSPropertyOp17
 70
     1
102
RTVSPropertyOp18
 70
     1
102
RTVSPropertyOp19
 70
     1
102
RTVSPropertyOp20
 70
     1
102
RTVSPropertyOp21
 70
     1
102
RTVSPropertyOp22
 70
     1
102
RTVSPropertyOp23
 70
     1
102
RTVSPropertyOp24
 70
     1
102
RTVSPropertyOp25
 70
     1
102
RTVSPropertyOp26
 70
     1
102
RTVSPropertyOp27
 70
     1
102
RTVSPropertyOp28
 70
     1
102
RTVSPropertyOp29
 70
     1
102
RTVSPropertyOp30
 70
     1
102
RTVSPropertyOp31
 70
     1
102
RTVSPropertyOp32
 70
     1
102
RTVSPropertyOp33
 70
     1
102
RTVSPropertyOp34
 70
     1
102
RTVSPropertyOp35
 70
     1
102
RTVSPropertyOp36
 70
     1
102
RTVSPropertyOp37
 70
     1
102
RTVSPropertyOp38
 70
     1
102
RTVSPropertyOp39
 70
     1
102
RTVSPropertyOp40
 70
     1
102
RTVSPropertyOp41
 70
     1
102
RTVSPropertyOp42
 70
     1
102
RTVSPropertyOp43
 70
     1
102
RTVSPropertyOp44
 70
     1
102
RTVSPropertyOp45
 70
     1
102
RTVSPropertyOp46
 70
     1
102
RTVSPropertyOp47
 70
     1
102
RTVSPropertyOp48
 70
     1
102
RTVSPropertyOp49
 70
     1
102
RTVSPropertyOp50
 70
     1
102
RTVSPropertyOp51
 70
     0
102
RTVSPropertyOp52
 70
     0
102
RTVSPropertyOp53
 70
     1
102
RTVSPropertyOp54
 70
     1
102
RTVSPropertyOp55
 70
     1
102
RTVSPropertyOp56
 70
     1
102
RTVSPropertyOp57
 70
     1
102
RTVSPropertyOp58
 70
     1
102
RTVSPropertyOp59
 70
     1
102
RTVSPropertyOp60
 70
     1
102
RTVSPropertyOp61
 70
     1
102
RTVSPropertyOp62
 70
     1
  0
ENDSEC
  0
EOF
