  0
SECTION
  2
HEADER
  9
$ACADVER
  1
AC1015
  9
$ACADMAINTVER
 70
    20
  9
$DWGCODEPAGE
  3
ANSI_932
  9
$INSBASE
 10
0.0
 20
0.0
 30
0.0
  9
$EXTMIN
 10
9.224678386110497
 20
10.0
 30
0.0
  9
$EXTMAX
 10
541.0684407262727
 20
363.2073662587749
 30
0.0
  9
$LIMMIN
 10
0.0000015376081137
 20
-0.0000001931532552
  9
$LIMMAX
 10
545.0000015376081
 20
375.7196967765435
  9
$ORTHOMODE
 70
     1
  9
$REGENMODE
 70
     1
  9
$FILLMODE
 70
     1
  9
$QTEXTMODE
 70
     0
  9
$MIRRTEXT
 70
     1
  9
$LTSCALE
 40
0.3
  9
$ATTMODE
 70
     1
  9
$TEXTSIZE
 40
2.5
  9
$TRACEWID
 40
1.0
  9
$TEXTSTYLE
  7
STANDARD
  9
$CLAYER
  8
0
  9
$CELTYPE
  6
BYLAYER
  9
$CECOLOR
 62
   256
  9
$CELTSCALE
 40
1.0
  9
$DISPSILH
 70
     0
  9
$DIMSCALE
 40
1.0
  9
$DIMASZ
 40
3.0
  9
$DIMEXO
 40
1.0
  9
$DIMDLI
 40
8.0
  9
$DIMRND
 40
0.0
  9
$DIMDLE
 40
0.0
  9
$DIMEXE
 40
1.0
  9
$DIMTP
 40
0.0
  9
$DIMTM
 40
0.0
  9
$DIMTXT
 40
3.2
  9
$DIMCEN
 40
0.0
  9
$DIMTSZ
 40
0.0
  9
$DIMTOL
 70
     0
  9
$DIMLIM
 70
     0
  9
$DIMTIH
 70
     0
  9
$DIMTOH
 70
     0
  9
$DIMSE1
 70
     0
  9
$DIMSE2
 70
     0
  9
$DIMTAD
 70
     3
  9
$DIMZIN
 70
     8
  9
$DIMBLK
  1

  9
$DIMASO
 70
     1
  9
$DIMSHO
 70
     1
  9
$DIMPOST
  1

  9
$DIMAPOST
  1

  9
$DIMALT
 70
     0
  9
$DIMALTD
 70
     2
  9
$DIMALTF
 40
25.4
  9
$DIMLFAC
 40
1.0
  9
$DIMTOFL
 70
     1
  9
$DIMTVP
 40
0.0
  9
$DIMTIX
 70
     0
  9
$DIMSOXD
 70
     0
  9
$DIMSAH
 70
     1
  9
$DIMBLK1
  1
OPEN
  9
$DIMBLK2
  1
OPEN
  9
$DIMSTYLE
  2
STANDARD
  9
$DIMCLRD
 70
     0
  9
$DIMCLRE
 70
     0
  9
$DIMCLRT
 70
     0
  9
$DIMTFAC
 40
1.0
  9
$DIMGAP
 40
1.0
  9
$DIMJUST
 70
     0
  9
$DIMSD1
 70
     0
  9
$DIMSD2
 70
     0
  9
$DIMTOLJ
 70
     1
  9
$DIMTZIN
 70
     0
  9
$DIMALTZ
 70
     0
  9
$DIMALTTZ
 70
     0
  9
$DIMUPT
 70
     0
  9
$DIMDEC
 70
     4
  9
$DIMTDEC
 70
     4
  9
$DIMALTU
 70
     2
  9
$DIMALTTD
 70
     2
  9
$DIMTXSTY
  7
STANDARD
  9
$DIMAUNIT
 70
     0
  9
$DIMADEC
 70
     0
  9
$DIMALTRND
 40
0.0
  9
$DIMAZIN
 70
     0
  9
$DIMDSEP
 70
    46
  9
$DIMATFIT
 70
     3
  9
$DIMFRAC
 70
     0
  9
$DIMLDRBLK
  1
OPEN
  9
$DIMLUNIT
 70
     2
  9
$DIMLWD
 70
    -2
  9
$DIMLWE
 70
    -2
  9
$DIMTMOVE
 70
     0
  9
$LUNITS
 70
     2
  9
$LUPREC
 70
     4
  9
$SKETCHINC
 40
1.0
  9
$FILLETRAD
 40
2.0
  9
$AUNITS
 70
     0
  9
$AUPREC
 70
     0
  9
$MENU
  1
.
  9
$ELEVATION
 40
0.0
  9
$PELEVATION
 40
0.0
  9
$THICKNESS
 40
0.0
  9
$LIMCHECK
 70
     0
  9
$CHAMFERA
 40
10.0
  9
$CHAMFERB
 40
10.0
  9
$CHAMFERC
 40
20.0
  9
$CHAMFERD
 40
0.0
  9
$SKPOLY
 70
     0
  9
$TDCREATE
 40
2453028.581548565
  9
$TDUCREATE
 40
2453028.206548565
  9
$TDUPDATE
 40
2457192.643630012
  9
$TDUUPDATE
 40
2457192.268630012
  9
$TDINDWG
 40
0.2879557870
  9
$TDUSRTIMER
 40
0.2879557870
  9
$USRTIMER
 70
     1
  9
$ANGBASE
 50
0.0
  9
$ANGDIR
 70
     0
  9
$PDMODE
 70
     0
  9
$PDSIZE
 40
0.0
  9
$PLINEWID
 40
0.0
  9
$SPLFRAME
 70
     0
  9
$SPLINETYPE
 70
     6
  9
$SPLINESEGS
 70
     8
  9
$HANDSEED
  5
3616
  9
$SURFTAB1
 70
     6
  9
$SURFTAB2
 70
     6
  9
$SURFTYPE
 70
     6
  9
$SURFU
 70
     6
  9
$SURFV
 70
     6
  9
$UCSBASE
  2

  9
$UCSNAME
  2

  9
$UCSORG
 10
0.0
 20
0.0
 30
0.0
  9
$UCSXDIR
 10
1.0
 20
0.0
 30
0.0
  9
$UCSYDIR
 10
0.0
 20
1.0
 30
0.0
  9
$UCSORTHOREF
  2

  9
$UCSORTHOVIEW
 70
     0
  9
$UCSORGTOP
 10
0.0
 20
0.0
 30
0.0
  9
$UCSORGBOTTOM
 10
0.0
 20
0.0
 30
0.0
  9
$UCSORGLEFT
 10
0.0
 20
0.0
 30
0.0
  9
$UCSORGRIGHT
 10
0.0
 20
0.0
 30
0.0
  9
$UCSORGFRONT
 10
0.0
 20
0.0
 30
0.0
  9
$UCSORGBACK
 10
0.0
 20
0.0
 30
0.0
  9
$PUCSBASE
  2

  9
$PUCSNAME
  2

  9
$PUCSORG
 10
0.0
 20
0.0
 30
0.0
  9
$PUCSXDIR
 10
1.0
 20
0.0
 30
0.0
  9
$PUCSYDIR
 10
0.0
 20
1.0
 30
0.0
  9
$PUCSORTHOREF
  2

  9
$PUCSORTHOVIEW
 70
     0
  9
$PUCSORGTOP
 10
0.0
 20
0.0
 30
0.0
  9
$PUCSORGBOTTOM
 10
0.0
 20
0.0
 30
0.0
  9
$PUCSORGLEFT
 10
0.0
 20
0.0
 30
0.0
  9
$PUCSORGRIGHT
 10
0.0
 20
0.0
 30
0.0
  9
$PUCSORGFRONT
 10
0.0
 20
0.0
 30
0.0
  9
$PUCSORGBACK
 10
0.0
 20
0.0
 30
0.0
  9
$USERI1
 70
     0
  9
$USERI2
 70
     0
  9
$USERI3
 70
     0
  9
$USERI4
 70
     0
  9
$USERI5
 70
     0
  9
$USERR1
 40
0.0
  9
$USERR2
 40
0.0
  9
$USERR3
 40
0.0
  9
$USERR4
 40
0.0
  9
$USERR5
 40
0.0
  9
$WORLDVIEW
 70
     1
  9
$SHADEDGE
 70
     3
  9
$SHADEDIF
 70
    70
  9
$TILEMODE
 70
     1
  9
$MAXACTVP
 70
    48
  9
$PINSBASE
 10
0.0
 20
0.0
 30
0.0
  9
$PLIMCHECK
 70
     0
  9
$PEXTMIN
 10
1.000000000000000E+20
 20
1.000000000000000E+20
 30
1.000000000000000E+20
  9
$PEXTMAX
 10
-1.000000000000000E+20
 20
-1.000000000000000E+20
 30
-1.000000000000000E+20
  9
$PLIMMIN
 10
0.0
 20
0.0
  9
$PLIMMAX
 10
420.0
 20
297.0
  9
$UNITMODE
 70
     0
  9
$VISRETAIN
 70
     1
  9
$PLINEGEN
 70
     0
  9
$PSLTSCALE
 70
     1
  9
$TREEDEPTH
 70
  3020
  9
$CMLSTYLE
  2
STANDARD
  9
$CMLJUST
 70
     0
  9
$CMLSCALE
 40
20.0
  9
$PROXYGRAPHICS
 70
     1
  9
$MEASUREMENT
 70
     0
  9
$CELWEIGHT
370
    -1
  9
$ENDCAPS
280
     0
  9
$JOINSTYLE
280
     0
  9
$LWDISPLAY
290
     0
  9
$INSUNITS
 70
     0
  9
$HYPERLINKBASE
  1

  9
$STYLESHEET
  1

  9
$XEDIT
290
     1
  9
$CEPSNTYPE
380
     0
  9
$PSTYLEMODE
290
     1
  9
$FINGERPRINTGUID
  2
{52E6FF64-28B1-42D4-9BDB-93A8EB2EC5E1}
  9
$VERSIONGUID
  2
{5D5EE76F-7C7B-43B2-823B-989249CB60BF}
  9
$EXTNAMES
290
     1
  9
$PSVPSCALE
 40
0.0
  9
$OLESTARTUP
290
     0
  0
ENDSEC
  0
SECTION
  2
CLASSES
  0
CLASS
  1
ACDBDICTIONARYWDFLT
  2
AcDbDictionaryWithDefault
  3
ObjectDBX Classes
 90
        0
280
     0
281
     0
  0
CLASS
  1
ACDBPLACEHOLDER
  2
AcDbPlaceHolder
  3
ObjectDBX Classes
 90
        0
280
     0
281
     0
  0
CLASS
  1
LAYOUT
  2
AcDbLayout
  3
ObjectDBX Classes
 90
        0
280
     0
281
     0
  0
CLASS
  1
DICTIONARYVAR
  2
AcDbDictionaryVar
  3
ObjectDBX Classes
 90
        0
280
     0
281
     0
  0
CLASS
  1
MATERIAL
  2
AcDbMaterial
  3
ObjectDBX Classes
 90
     1153
280
     0
281
     0
  0
CLASS
  1
VISUALSTYLE
  2
AcDbVisualStyle
  3
ObjectDBX Classes
 90
     4095
280
     0
281
     0
  0
CLASS
  1
TABLESTYLE
  2
AcDbTableStyle
  3
ObjectDBX Classes
 90
     4095
280
     0
281
     0
  0
CLASS
  1
SCALE
  2
AcDbScale
  3
ObjectDBX Classes
 90
     1153
280
     0
281
     0
  0
CLASS
  1
MLEADERSTYLE
  2
AcDbMLeaderStyle
  3
ACDB_MLEADERSTYLE_CLASS
 90
     4095
280
     0
281
     0
  0
CLASS
  1
ACDBSECTIONVIEWSTYLE
  2
AcDbSectionViewStyle
  3
ObjectDBX Classes
 90
     1025
280
     0
281
     0
  0
CLASS
  1
ACDBDETAILVIEWSTYLE
  2
AcDbDetailViewStyle
  3
ObjectDBX Classes
 90
     1025
280
     0
281
     0
  0
CLASS
  1
CELLSTYLEMAP
  2
AcDbCellStyleMap
  3
ObjectDBX Classes
 90
     1152
280
     0
281
     0
  0
ENDSEC
  0
SECTION
  2
TABLES
  0
TABLE
  2
VPORT
  5
8
330
0
100
AcDbSymbolTable
 70
     1
  0
VPORT
  5
3562
330
8
100
AcDbSymbolTableRecord
100
AcDbViewportTableRecord
  2
*ACTIVE
 70
     0
 10
0.0
 20
0.0
 11
1.0
 21
1.0
 12
420.5454970525563
 22
186.6129156614497
 13
0.0
 23
0.0
 14
10.0
 24
10.0
 15
10.0
 25
10.0
 16
0.0
 26
0.0
 36
1.0
 17
0.0
 27
0.0
 37
0.0
 40
355.9878421141327
 41
1.899603698811096
 42
50.0
 43
0.0
 44
0.0
 50
0.0
 51
0.0
 71
     0
 72
   100
 73
     1
 74
     0
 75
     0
 76
     0
 77
     0
 78
     0
281
     0
 65
     1
110
0.0
120
0.0
130
0.0
111
1.0
121
0.0
131
0.0
112
0.0
122
1.0
132
0.0
 79
     0
146
0.0
1001
ACAD_NAV_VCDISPLAY
1070
     3
  0
ENDTAB
  0
TABLE
  2
LTYPE
  5
5
330
0
100
AcDbSymbolTable
 70
     4
  0
LTYPE
  5
12
330
5
100
AcDbSymbolTableRecord
100
AcDbLinetypeTableRecord
  2
BYBLOCK
 70
     0
  3

 72
    65
 73
     0
 40
0.0
  0
LTYPE
  5
13
330
5
100
AcDbSymbolTableRecord
100
AcDbLinetypeTableRecord
  2
BYLAYER
 70
     0
  3

 72
    65
 73
     0
 40
0.0
  0
LTYPE
  5
14
330
5
100
AcDbSymbolTableRecord
100
AcDbLinetypeTableRecord
  2
CONTINUOUS
 70
     0
  3
Solid line
 72
    65
 73
     0
 40
0.0
  0
LTYPE
  5
4B
330
5
100
AcDbSymbolTableRecord
100
AcDbLinetypeTableRecord
  2
DASHED
 70
     0
  3
Dashed __ __ __ __ __ __ __ __ __ __ __ __ __ _
 72
    65
 73
     2
 40
19.04999999999998
 49
12.7
 74
     0
 49
-6.349999999999997
 74
     0
  0
LTYPE
  5
4C
330
5
100
AcDbSymbolTableRecord
100
AcDbLinetypeTableRecord
  2
CENTER
 70
     0
  3
Center ____ _ ____ _ ____ _ ____ _ ____ _ ____
 72
    65
 73
     4
 40
50.8
 49
31.75
 74
     0
 49
-6.349999999999997
 74
     0
 49
6.349999999999997
 74
     0
 49
-6.349999999999997
 74
     0
  0
LTYPE
  5
4D
330
5
100
AcDbSymbolTableRecord
100
AcDbLinetypeTableRecord
  2
PHANTOM
 70
     0
  3
Phantom ______  __  __  ______  __  __  ______
 72
    65
 73
     6
 40
63.5
 49
31.75
 74
     0
 49
-6.349999999999997
 74
     0
 49
6.349999999999997
 74
     0
 49
-6.349999999999997
 74
     0
 49
6.349999999999997
 74
     0
 49
-6.349999999999997
 74
     0
  0
ENDTAB
  0
TABLE
  2
LAYER
  5
2
330
0
100
AcDbSymbolTable
 70
     8
  0
LAYER
  5
E
102
{ACAD_XDICTIONARY
360
35BA
102
}
330
2
100
AcDbSymbolTableRecord
100
AcDbLayerTableRecord
  2
0
 70
     0
 62
     7
  6
CONTINUOUS
370
    -3
390
3569
  0
LAYER
  5
4E
102
{ACAD_XDICTIONARY
360
35BC
102
}
330
2
100
AcDbSymbolTableRecord
100
AcDbLayerTableRecord
  2
4
 70
     0
 62
     1
  6
CENTER
370
    -3
390
3569
  0
LAYER
  5
4F
102
{ACAD_XDICTIONARY
360
35BE
102
}
330
2
100
AcDbSymbolTableRecord
100
AcDbLayerTableRecord
  2
5
 70
     0
 62
     6
  6
PHANTOM
370
    -3
390
3569
  0
LAYER
  5
50
102
{ACAD_XDICTIONARY
360
35C0
102
}
330
2
100
AcDbSymbolTableRecord
100
AcDbLayerTableRecord
  2
1
 70
     0
 62
     7
  6
CONTINUOUS
370
    -3
390
3569
  0
LAYER
  5
51
102
{ACAD_XDICTIONARY
360
35C2
102
}
330
2
100
AcDbSymbolTableRecord
100
AcDbLayerTableRecord
  2
2
 70
     0
 62
     4
  6
CONTINUOUS
370
    -3
390
3569
  0
LAYER
  5
52
102
{ACAD_XDICTIONARY
360
35C4
102
}
330
2
100
AcDbSymbolTableRecord
100
AcDbLayerTableRecord
  2
3
 70
     0
 62
     2
  6
DASHED
370
    -3
390
3569
  0
LAYER
  5
53
102
{ACAD_XDICTIONARY
360
35C6
102
}
330
2
100
AcDbSymbolTableRecord
100
AcDbLayerTableRecord
  2
6
 70
     0
 62
     5
  6
CONTINUOUS
370
    -3
390
3569
  0
LAYER
  5
54
102
{ACAD_XDICTIONARY
360
35C8
102
}
330
2
100
AcDbSymbolTableRecord
100
AcDbLayerTableRecord
  2
7
 70
     0
 62
     3
  6
CONTINUOUS
370
    -3
390
3569
  0
ENDTAB
  0
TABLE
  2
STYLE
  5
3
330
0
100
AcDbSymbolTable
 70
     1
  0
STYLE
  5
F
330
3
100
AcDbSymbolTableRecord
100
AcDbTextStyleTableRecord
  2
STANDARD
 70
     0
 40
0.0
 41
1.0
 50
0.0
 71
     0
 42
2.5
  3
simplex.shx
  4

  0
ENDTAB
  0
TABLE
  2
VIEW
  5
6
330
0
100
AcDbSymbolTable
 70
     0
  0
ENDTAB
  0
TABLE
  2
UCS
  5
7
330
0
100
AcDbSymbolTable
 70
     0
  0
ENDTAB
  0
TABLE
  2
APPID
  5
9
330
0
100
AcDbSymbolTable
 70
     7
  0
APPID
  5
10
330
9
100
AcDbSymbolTableRecord
100
AcDbRegAppTableRecord
  2
ACAD
 70
     0
  0
APPID
  5
3E
330
9
100
AcDbSymbolTableRecord
100
AcDbRegAppTableRecord
  2
CONTENTTABDATA
 70
     0
  0
APPID
  5
3F
330
9
100
AcDbSymbolTableRecord
100
AcDbRegAppTableRecord
  2
CONTENTCURRENTTAB
 70
     0
  0
APPID
  5
2C18
330
9
100
AcDbSymbolTableRecord
100
AcDbRegAppTableRecord
  2
CONTENTBLOCKICON
 70
     0
  0
APPID
  5
2C19
330
9
100
AcDbSymbolTableRecord
100
AcDbRegAppTableRecord
  2
CONTENTBLOCKDESCRIPTION
 70
     0
  0
APPID
  5
35D4
330
9
100
AcDbSymbolTableRecord
100
AcDbRegAppTableRecord
  2
ACAD_NAV_VCDISPLAY
 70
     0
  0
APPID
  5
360D
330
9
100
AcDbSymbolTableRecord
100
AcDbRegAppTableRecord
  2
ACAD_MLEADERVER
 70
     0
  0
ENDTAB
  0
TABLE
  2
DIMSTYLE
  5
A
330
0
100
AcDbSymbolTable
 70
     1
100
AcDbDimStyleTable
 71
     0
  0
DIMSTYLE
105
1D
330
A
100
AcDbSymbolTableRecord
100
AcDbDimStyleTableRecord
  2
STANDARD
 70
     0
 41
3.0
 42
1.0
 43
8.0
 44
1.0
 73
     0
 74
     0
 77
     3
 78
     8
140
3.2
141
0.0
147
1.0
172
     1
173
     1
340
F
341
2E
343
2E
344
2E
  0
ENDTAB
  0
TABLE
  2
BLOCK_RECORD
  5
1
330
0
100
AcDbSymbolTable
 70
     1
  0
BLOCK_RECORD
  5
18
102
{ACAD_XDICTIONARY
360
2B2C
102
}
330
1
100
AcDbSymbolTableRecord
100
AcDbBlockTableRecord
  2
*MODEL_SPACE
340
35B7
  0
BLOCK_RECORD
  5
15
102
{ACAD_XDICTIONARY
360
2B2A
102
}
330
1
100
AcDbSymbolTableRecord
100
AcDbBlockTableRecord
  2
*PAPER_SPACE
340
35B8
  0
BLOCK_RECORD
  5
2E
330
1
100
AcDbSymbolTableRecord
100
AcDbBlockTableRecord
  2
_OPEN
340
0
  0
ENDTAB
  0
ENDSEC
  0
SECTION
  2
BLOCKS
  0
BLOCK
  5
19
330
18
100
AcDbEntity
  8
0
100
AcDbBlockBegin
  2
*MODEL_SPACE
 70
     0
 10
0.0
 20
0.0
 30
0.0
  3
*MODEL_SPACE
  1

  0
ENDBLK
  5
1A
330
18
100
AcDbEntity
  8
0
100
AcDbBlockEnd
  0
BLOCK
  5
16
330
15
100
AcDbEntity
 67
     1
  8
0
100
AcDbBlockBegin
  2
*PAPER_SPACE
 70
     0
 10
0.0
 20
0.0
 30
0.0
  3
*PAPER_SPACE
  1

  0
ENDBLK
  5
17
330
15
100
AcDbEntity
 67
     1
  8
0
100
AcDbBlockEnd
  0
BLOCK
  5
2F
330
2E
100
AcDbEntity
  8
0
100
AcDbBlockBegin
  2
_OPEN
 70
     0
 10
0.0
 20
0.0
 30
0.0
  3
_OPEN
  1

  0
LINE
  5
30
330
2E
100
AcDbEntity
  8
0
  6
ByBlock
 62
     0
100
AcDbLine
 10
-1.0
 20
0.1666666666666666
 30
0.0
 11
0.0
 21
0.0
 31
0.0
  0
LINE
  5
31
330
2E
100
AcDbEntity
  8
0
  6
ByBlock
 62
     0
100
AcDbLine
 10
0.0
 20
0.0
 30
0.0
 11
-1.0
 21
-0.1666666666666666
 31
0.0
  0
LINE
  5
32
330
2E
100
AcDbEntity
  8
0
  6
ByBlock
 62
     0
100
AcDbLine
 10
0.0
 20
0.0
 30
0.0
 11
-1.0
 21
0.0
 31
0.0
  0
ENDBLK
  5
33
330
2E
100
AcDbEntity
  8
0
100
AcDbBlockEnd
  0
ENDSEC
  0
SECTION
  2
ENTITIES
  0
TEXT
  5
63
330
18
100
AcDbEntity
  8
4
  6
CENTER
 48
0.25
100
AcDbText
 10
23.97950852663849
 20
10.0
 30
0.0
 40
1.399999999999999
  1
4
100
AcDbText
  0
TEXT
  5
64
330
18
100
AcDbEntity
  8
7
  6
Continuous
 48
0.25
100
AcDbText
 10
9.999997526638502
 20
26.0000007607689
 30
0.0
 40
3.0
  1
CODE No.13281
100
AcDbText
  0
TEXT
  5
65
330
18
100
AcDbEntity
  8
7
  6
Continuous
 48
0.25
100
AcDbText
 10
9.999997526638502
 20
18.00000076076889
 30
0.0
 40
3.0
  1
TYPE No.THA-506W-2K
100
AcDbText
  0
TEXT
  5
66
330
18
100
AcDbEntity
  8
1
  6
Continuous
 48
0.25
100
AcDbText
 10
9.999997526638502
 20
10.00000076076889
 30
0.0
 40
1.399999999999999
  1
LAYER
100
AcDbText
  0
TEXT
  5
67
330
18
100
AcDbEntity
  8
2
  6
Continuous
 48
0.25
100
AcDbText
 10
19.9795085266385
 20
10.0
 30
0.0
 40
1.399999999999999
  1
2
100
AcDbText
  0
TEXT
  5
68
330
18
100
AcDbEntity
  8
3
  6
DASHED
 48
0.25
100
AcDbText
 10
21.97950852663849
 20
10.0
 30
0.0
 40
1.399999999999999
  1
3
100
AcDbText
  0
TEXT
  5
69
330
18
100
AcDbEntity
  8
1
  6
Continuous
 48
0.25
100
AcDbText
 10
17.9795085266385
 20
10.0
 30
0.0
 40
1.399999999999999
  1
1
100
AcDbText
  0
TEXT
  5
6A
330
18
100
AcDbEntity
  8
5
  6
PHANTOM
 48
0.25
100
AcDbText
 10
25.97950852663849
 20
10.0
 30
0.0
 40
1.399999999999999
  1
5
100
AcDbText
  0
TEXT
  5
6B
330
18
100
AcDbEntity
  8
6
  6
Continuous
 48
0.25
100
AcDbText
 10
27.97950852663849
 20
10.0
 30
0.0
 40
1.399999999999999
  1
6
100
AcDbText
  0
TEXT
  5
6C
330
18
100
AcDbEntity
  8
7
  6
Continuous
 48
0.25
100
AcDbText
 10
29.9795085266385
 20
10.0
 30
0.0
 40
1.399999999999999
  1
7
100
AcDbText
  0
LINE
  5
207
330
18
100
AcDbEntity
  8
4
  6
CENTER
100
AcDbLine
 10
196.7520977107683
 20
233.1198672574746
 30
0.0
 11
232.3184572970342
 21
233.1198672574824
 31
0.0
  0
LINE
  5
208
330
18
100
AcDbEntity
  8
5
  6
PHANTOM
 48
0.5
100
AcDbLine
 10
171.7534599223303
 20
184.1173673212493
 30
0.0
 11
161.3067456210069
 21
173.6706530199259
 31
0.0
  0
LINE
  5
209
330
18
100
AcDbEntity
  8
5
  6
PHANTOM
100
AcDbLine
 10
201.7927448264829
 20
237.6325973607953
 30
0.0
 11
132.4383228883601
 21
168.2781754226724
 31
0.0
  0
LINE
  5
20A
330
18
100
AcDbEntity
  8
1
  6
Continuous
100
AcDbLine
 10
200.0966669473018
 20
232.7018313729189
 30
0.0
 11
200.0966669473018
 21
134.6198672574796
 31
0.0
  0
LINE
  5
20B
330
18
100
AcDbEntity
  8
1
  6
Continuous
100
AcDbLine
 10
45.14893037724175
 20
233.1198672574797
 30
0.0
 11
45.14893037724175
 21
137.4529477185727
 31
0.0
  0
LINE
  5
20C
330
18
100
AcDbEntity
  8
1
  6
Continuous
100
AcDbLine
 10
26.34893037724181
 20
233.1198672574795
 30
0.0
 11
26.34893037724181
 21
137.4529477185727
 31
0.0
  0
LINE
  5
20D
330
18
100
AcDbEntity
  8
1
  6
Continuous
100
AcDbLine
 10
212.096666947302
 20
218.1673855610245
 30
0.0
 11
212.096666947302
 21
182.1198672574924
 31
0.0
  0
LINE
  5
20E
330
18
100
AcDbEntity
  8
1
  6
Continuous
100
AcDbLine
 10
203.0966669473018
 20
250.8481093930087
 30
0.0
 11
203.0966669473018
 21
146.3916251219684
 31
0.0
  0
LINE
  5
20F
330
18
100
AcDbEntity
  8
1
  6
Continuous
100
AcDbLine
 10
210.096666947302
 20
258.1198672574803
 30
0.0
 11
210.096666947302
 21
139.1198672574805
 31
0.0
  0
LINE
  5
211
330
18
100
AcDbEntity
  8
4
  6
CENTER
100
AcDbLine
 10
35.74893037724178
 20
262.684919972809
 30
0.0
 11
35.74893037724178
 21
130.3534598324098
 31
0.0
  0
LINE
  5
212
330
18
100
AcDbEntity
  8
1
  6
Continuous
100
AcDbLine
 10
45.64893037720547
 20
232.6698672575455
 30
0.0
 11
45.64893037720547
 21
139.1198672574753
 31
0.0
  0
LINE
  5
213
330
18
100
AcDbEntity
  8
1
  6
Continuous
100
AcDbLine
 10
25.84893037720553
 20
232.6698672575455
 30
0.0
 11
25.84893037720553
 21
139.1198672574647
 31
0.0
  0
LINE
  5
214
330
18
100
AcDbEntity
  8
1
  6
Continuous
100
AcDbLine
 10
49.7489303772055
 20
257.1198672574769
 30
0.0
 11
49.7489303772055
 21
140.119867257477
 31
0.0
  0
LINE
  5
215
330
18
100
AcDbEntity
  8
1
  6
Continuous
100
AcDbLine
 10
21.74893037720551
 20
257.119867257463
 30
0.0
 11
21.74893037720551
 21
140.1198672574629
 31
0.0
  0
ARC
  5
216
330
18
100
AcDbEntity
  8
1
  6
Continuous
100
AcDbCircle
 10
35.74893037724178
 20
161.6198672574796
 30
0.0
 40
28.0
100
AcDbArc
 50
255.1671520791896
 51
284.8328479208102
  0
ARC
  5
217
330
18
100
AcDbEntity
  8
1
  6
Continuous
100
AcDbCircle
 10
29.34893037724179
 20
137.4529477185727
 30
0.0
 40
3.0
100
AcDbArc
 50
180.0
 51
255.1671520791896
  0
ARC
  5
218
330
18
100
AcDbEntity
  8
1
  6
Continuous
100
AcDbCircle
 10
42.14893037724174
 20
137.4529477185727
 30
0.0
 40
3.0
100
AcDbArc
 50
284.8328479208102
 51
0.0
  0
LINE
  5
219
330
18
100
AcDbEntity
  8
1
  6
Continuous
100
AcDbLine
 10
26.34893037724181
 20
139.1198672574649
 30
0.0
 11
22.74893037720608
 21
139.1198672574629
 31
0.0
  0
ARC
  5
21A
330
18
100
AcDbEntity
  8
1
  6
Continuous
100
AcDbCircle
 10
35.74893037721114
 20
128.6198672574699
 30
0.0
 40
17.49999999999998
100
AcDbArc
 50
124.4519072966341
 51
138.9176668595179
  0
ARC
  5
21B
330
18
100
AcDbEntity
  8
1
  6
Continuous
100
AcDbCircle
 10
22.74893037720551
 20
140.1198672574629
 30
0.0
 40
1.0
100
AcDbArc
 50
180.0
 51
270.0
  0
CIRCLE
  5
21C
330
18
100
AcDbEntity
  8
1
  6
Continuous
100
AcDbCircle
 10
35.74893037724178
 20
166.1198672574875
 30
0.0
 40
7.65
  0
CIRCLE
  5
21D
330
18
100
AcDbEntity
  8
1
  6
Continuous
100
AcDbCircle
 10
35.74893037724178
 20
166.1198672574796
 30
0.0
 40
7.799999999999998
  0
ARC
  5
21E
330
18
100
AcDbEntity
  8
1
  6
Continuous
100
AcDbCircle
 10
28.34893037720547
 20
156.1238925166096
 30
0.0
 40
2.5
100
AcDbArc
 50
180.0
 51
216.8698976472319
  0
LINE
  5
221
330
18
100
AcDbEntity
  8
1
  6
Continuous
100
AcDbLine
 10
48.74893037720608
 20
139.119867257477
 30
0.0
 11
45.14893037724175
 21
139.119867257475
 31
0.0
  0
ARC
  5
222
330
18
100
AcDbEntity
  8
1
  6
Continuous
100
AcDbCircle
 10
35.74893037721114
 20
128.6198672574699
 30
0.0
 40
17.49999999999998
100
AcDbArc
 50
41.08233314048197
 51
55.54809270341038
  0
ARC
  5
223
330
18
100
AcDbEntity
  8
1
  6
Continuous
100
AcDbCircle
 10
48.74893037720557
 20
140.119867257477
 30
0.0
 40
1.0
100
AcDbArc
 50
270.0
 51
0.0
  0
ARC
  5
224
330
18
100
AcDbEntity
  8
1
  6
Continuous
100
AcDbCircle
 10
43.14893037720547
 20
156.1238925166175
 30
0.0
 40
2.5
100
AcDbArc
 50
323.1301023555424
 51
0.0
  0
LINE
  5
226
330
18
100
AcDbEntity
  8
4
  6
CENTER
100
AcDbLine
 10
46.78162220076001
 20
166.1198672574796
 30
0.0
 11
24.90483499777428
 21
166.1198672574796
 31
0.0
  0
LINE
  5
229
330
18
100
AcDbEntity
  8
1
  6
Continuous
100
AcDbLine
 10
36.79893037724172
 20
162.7698672574874
 30
0.0
 11
36.79893037724172
 21
169.7698672574874
 31
0.0
  0
LINE
  5
22A
330
18
100
AcDbEntity
  8
1
  6
Continuous
100
AcDbLine
 10
34.69893037724177
 20
162.7698672574874
 30
0.0
 11
34.69893037724177
 21
169.7698672574874
 31
0.0
  0
LINE
  5
22C
330
18
100
AcDbEntity
  8
1
  6
Continuous
100
AcDbLine
 10
36.79893037724172
 20
162.7698672574874
 30
0.0
 11
34.69893037724177
 21
162.7698672574874
 31
0.0
  0
LINE
  5
232
330
18
100
AcDbEntity
  8
1
  6
Continuous
100
AcDbLine
 10
36.79893037724172
 20
169.7698672574874
 30
0.0
 11
34.69893037724177
 21
169.7698672574874
 31
0.0
  0
CIRCLE
  5
235
330
18
100
AcDbEntity
  8
1
  6
Continuous
100
AcDbCircle
 10
35.74893037724178
 20
171.8198672574876
 30
0.0
 40
0.4500000000085933
  0
ARC
  5
238
330
18
100
AcDbEntity
  8
1
  6
Continuous
100
AcDbCircle
 10
28.34893037720553
 20
174.6198672574606
 30
0.0
 40
2.5
100
AcDbArc
 50
143.130102352775
 51
180.0
  0
ARC
  5
23B
330
18
100
AcDbEntity
  8
1
  6
Continuous
100
AcDbCircle
 10
43.14893037720547
 20
174.6198672574688
 30
0.0
 40
2.5
100
AcDbArc
 50
0.0
 51
36.86989764446034
  0
ARC
  5
23C
330
18
100
AcDbEntity
  8
5
  6
PHANTOM
 48
0.5
100
AcDbCircle
 10
148.8555337566825
 20
166.3106099801446
 30
0.0
 40
10.0
100
AcDbArc
 50
49.01723223423331
 51
134.9999999999996
  0
LINE
  5
23D
330
18
100
AcDbEntity
  8
5
  6
PHANTOM
 48
0.5
100
AcDbLine
 10
134.5596432319198
 20
166.1568550791128
 30
0.0
 11
141.7537997821939
 21
173.3510116293869
 31
0.0
  0
LINE
  5
23E
330
18
100
AcDbEntity
  8
5
  6
PHANTOM
 48
0.5
100
AcDbLine
 10
132.4383228883601
 20
166.8639618602993
 30
0.0
 11
133.1454296695467
 21
166.1568550791128
 31
0.0
  0
ARC
  5
23F
330
18
100
AcDbEntity
  8
5
  6
PHANTOM
 48
0.5
100
AcDbCircle
 10
133.8525364507333
 20
166.8639618602993
 30
0.0
 40
1.0
100
AcDbArc
 50
225.0000000000003
 51
314.9999999999993
  0
ARC
  5
240
330
18
100
AcDbEntity
  8
5
  6
PHANTOM
 48
0.5
100
AcDbCircle
 10
133.1454296695467
 20
167.5710686414856
 30
0.0
 40
1.0
100
AcDbArc
 50
134.9999999999996
 51
225.0000000000003
  0
LINE
  5
241
330
18
100
AcDbEntity
  8
5
  6
PHANTOM
 48
0.5
100
AcDbLine
 10
141.7537997821939
 20
173.3510116293869
 30
0.0
 11
141.7844659448172
 21
173.38167779201
 31
0.0
  0
ARC
  5
242
330
18
100
AcDbEntity
  8
5
  6
PHANTOM
 48
0.5
100
AcDbCircle
 10
158.4783184962609
 20
176.4990801446721
 30
0.0
 40
4.0
100
AcDbArc
 50
229.4651293085793
 51
314.9999999999993
  0
ARC
  5
243
330
18
100
AcDbEntity
  8
5
  6
PHANTOM
 48
0.5
100
AcDbCircle
 10
206.8966669473018
 20
233.1198672574771
 30
0.0
 40
78.5
100
AcDbArc
 50
229.0172322342333
 51
229.4651293085793
  0
LINE
  5
244
330
18
100
AcDbEntity
  8
1
  6
Continuous
100
AcDbLine
 10
203.0966669473018
 20
134.6198672574796
 30
0.0
 11
203.0966669473018
 21
144.7939410207125
 31
0.0
  0
LINE
  5
245
330
18
100
AcDbEntity
  8
1
  6
Continuous
100
AcDbLine
 10
201.0966669473018
 20
133.6198672574796
 30
0.0
 11
202.0966669473018
 21
133.6198672574796
 31
0.0
  0
ARC
  5
246
330
18
100
AcDbEntity
  8
1
  6
Continuous
100
AcDbCircle
 10
201.0966669473018
 20
134.6198672574796
 30
0.0
 40
1.0
100
AcDbArc
 50
180.0
 51
270.0
  0
ARC
  5
247
330
18
100
AcDbEntity
  8
1
  6
Continuous
100
AcDbCircle
 10
202.0966669473018
 20
134.6198672574796
 30
0.0
 40
1.0
100
AcDbArc
 50
270.0
 51
0.0
  0
LINE
  5
248
330
18
100
AcDbEntity
  8
1
  6
Continuous
100
AcDbLine
 10
218.696666947302
 20
176.1198672574925
 30
0.0
 11
218.696666947302
 21
156.2002308992405
 31
0.0
  0
ARC
  5
249
330
18
100
AcDbEntity
  8
1
  6
Continuous
100
AcDbCircle
 10
212.6966669473024
 20
158.845982210306
 30
0.0
 40
7.0
100
AcDbArc
 50
274.465129308579
 51
318.5903778907152
  0
LINE
  5
24A
330
18
100
AcDbEntity
  8
4
  6
CENTER
 48
0.5
100
AcDbLine
 10
217.7250074080748
 20
146.1198672574808
 30
0.0
 11
205.9437197976013
 21
146.1198672574803
 31
0.0
  0
LINE
  5
24B
330
18
100
AcDbEntity
  8
1
  6
Continuous
100
AcDbLine
 10
213.5966669473019
 20
149.6198672574806
 30
0.0
 11
213.5966669473019
 21
142.6198672574806
 31
0.0
  0
LINE
  5
24C
330
18
100
AcDbEntity
  8
1
  6
Continuous
100
AcDbLine
 10
213.596666947302
 20
149.6198672574806
 30
0.0
 11
214.096666947302
 21
149.1198672574806
 31
0.0
  0
ARC
  5
24D
330
18
100
AcDbEntity
  8
1
  6
Continuous
100
AcDbCircle
 10
230.7642440102488
 20
162.1979635212241
 30
0.0
 40
32.0
100
AcDbArc
 50
210.655962405708
 51
225.4139233241456
  0
ARC
  5
24E
330
18
100
AcDbEntity
  8
1
  6
Continuous
100
AcDbCircle
 10
213.0966669473018
 20
144.8373095238001
 30
0.0
 40
10.0
100
AcDbArc
 50
173.1918167184616
 51
180.0
  0
ARC
  5
250
330
18
100
AcDbEntity
  8
1
  6
Continuous
100
AcDbCircle
 10
204.0966669473018
 20
146.3916251219684
 30
0.0
 40
1.0
100
AcDbArc
 50
180.0
 51
210.6559624057083
  0
LINE
  5
251
330
18
100
AcDbEntity
  8
1
  6
Continuous
100
AcDbLine
 10
214.096666947302
 20
143.1198672574808
 30
0.0
 11
214.096666947302
 21
149.1198672574805
 31
0.0
  0
LINE
  5
252
330
18
100
AcDbEntity
  8
1
  6
Continuous
100
AcDbLine
 10
211.096666947302
 20
139.1198672574805
 30
0.0
 11
209.002863875497
 21
139.1198672574805
 31
0.0
  0
ARC
  5
253
330
18
100
AcDbEntity
  8
1
  6
Continuous
100
AcDbCircle
 10
209.002863875497
 20
140.1198672574872
 30
0.0
 40
1.0
100
AcDbArc
 50
225.4139233241456
 51
270.0
  0
LINE
  5
254
330
18
100
AcDbEntity
  8
1
  6
Continuous
100
AcDbLine
 10
214.0966669473019
 20
143.1198672574805
 30
0.0
 11
213.596666947302
 21
142.6198672574806
 31
0.0
  0
LINE
  5
255
330
18
100
AcDbEntity
  8
1
  6
Continuous
100
AcDbLine
 10
213.596666947302
 20
142.6198672574806
 30
0.0
 11
211.096666947302
 21
142.6198672574804
 31
0.0
  0
ARC
  5
256
330
18
100
AcDbEntity
  8
1
  6
Continuous
100
AcDbCircle
 10
206.8966669473025
 20
233.1198672574744
 30
0.0
 40
81.5
100
AcDbArc
 50
272.9539744146761
 51
274.465129308579
  0
LINE
  5
257
330
18
100
AcDbEntity
  8
1
  6
Continuous
100
AcDbLine
 10
213.596666947302
 20
149.6198672574806
 30
0.0
 11
211.096666947302
 21
149.6198672574804
 31
0.0
  0
ARC
  5
258
330
18
100
AcDbEntity
  8
1
  6
Continuous
100
AcDbCircle
 10
215.6966669473018
 20
156.2002308992405
 30
0.0
 40
3.0
100
AcDbArc
 50
318.5903778907146
 51
0.0
  0
ARC
  5
259
330
18
100
AcDbEntity
  8
1
  6
Continuous
100
AcDbCircle
 10
215.096666947302
 20
182.1198672574924
 30
0.0
 40
2.999999999999971
100
AcDbArc
 50
180.0
 51
270.0
  0
ARC
  5
25A
330
18
100
AcDbEntity
  8
1
  6
Continuous
100
AcDbCircle
 10
215.696666947302
 20
176.1198672574925
 30
0.0
 40
3.0
100
AcDbArc
 50
0.0
 51
90.0
  0
LINE
  5
25B
330
18
100
AcDbEntity
  8
1
  6
Continuous
100
AcDbLine
 10
215.696666947302
 20
179.1198672574926
 30
0.0
 11
215.096666947302
 21
179.1198672574926
 31
0.0
  0
LINE
  5
25C
330
18
100
AcDbEntity
  8
4
  6
CENTER
100
AcDbLine
 10
23.6296996568094
 20
233.1198672574795
 30
0.0
 11
138.0992861252698
 21
233.1198672574795
 31
0.0
  0
ARC
  5
260
330
18
100
AcDbEntity
  8
1
  6
Continuous
100
AcDbCircle
 10
35.74893037719978
 20
233.1698672575455
 30
0.0
 40
9.900000000005332
100
AcDbArc
 50
341.7126811218273
 51
198.2873188797233
  0
ARC
  5
262
330
18
100
AcDbEntity
  8
5
  6
PHANTOM
 48
0.5
100
AcDbCircle
 10
35.74893037722279
 20
233.1198672574797
 30
0.0
 40
9.4
100
AcDbArc
 50
221.1947459530559
 51
270.0
  0
ARC
  5
263
330
18
100
AcDbEntity
  8
1
  6
Continuous
100
AcDbCircle
 10
35.74893037719988
 20
268.6198672574164
 30
0.0
 40
17.49999999996778
100
AcDbArc
 50
221.0823331402799
 51
318.91766685972
  0
LINE
  5
264
330
18
100
AcDbEntity
  8
1
  6
Continuous
100
AcDbLine
 10
48.74893037720493
 20
258.1198672574769
 30
0.0
 11
22.74893037720494
 21
258.1198672574629
 31
0.0
  0
ARC
  5
265
330
18
100
AcDbEntity
  8
1
  6
Continuous
100
AcDbCircle
 10
22.74893037720551
 20
257.119867257463
 30
0.0
 40
1.0
100
AcDbArc
 50
90.0
 51
180.0
  0
ARC
  5
267
330
18
100
AcDbEntity
  8
5
  6
PHANTOM
 48
0.5
100
AcDbCircle
 10
35.74893037722279
 20
233.1198672574797
 30
0.0
 40
9.4
100
AcDbArc
 50
90.0
 51
138.7645320801536
  0
ARC
  5
268
330
18
100
AcDbEntity
  8
1
  6
Continuous
100
AcDbCircle
 10
35.74893037724178
 20
233.1198672574797
 30
0.0
 40
9.4
100
AcDbArc
 50
131.1947459530564
 51
180.0
  0
ARC
  5
269
330
18
100
AcDbEntity
  8
1
  6
Continuous
100
AcDbCircle
 10
35.74893037724178
 20
233.1198672574797
 30
0.0
 40
9.4
100
AcDbArc
 50
0.0
 51
48.76453208015377
  0
ARC
  5
26A
330
18
100
AcDbEntity
  8
1
  6
Continuous
100
AcDbCircle
 10
48.7489303772055
 20
257.1198672574769
 30
0.0
 40
1.0
100
AcDbArc
 50
0.0
 51
90.0
  0
LINE
  5
2AC
330
18
100
AcDbEntity
  8
1
  6
Continuous
100
AcDbLine
 10
225.5966669473011
 20
242.8626530501441
 30
0.0
 11
225.5966669473011
 21
221.8698672575802
 31
0.0
  0
LINE
  5
2AD
330
18
100
AcDbEntity
  8
1
  6
Continuous
100
AcDbLine
 10
227.5966669473011
 20
238.119867257574
 30
0.0
 11
227.5966669473011
 21
228.1198672575721
 31
0.0
  0
LINE
  5
2AE
330
18
100
AcDbEntity
  8
1
  6
Continuous
100
AcDbLine
 10
223.5966669473011
 20
240.673113326677
 30
0.0
 11
223.5966669473011
 21
221.8698672575788
 31
0.0
  0
LINE
  5
2AF
330
18
100
AcDbEntity
  8
1
  6
Continuous
100
AcDbLine
 10
216.6124559312621
 20
232.1198672574869
 30
0.0
 11
216.6124559312621
 21
223.0973881073578
 31
0.0
  0
LINE
  5
2B0
330
18
100
AcDbEntity
  8
1
  6
Continuous
100
AcDbLine
 10
223.096666947302
 20
243.8197416285583
 30
0.0
 11
223.096666947302
 21
221.6198672574803
 31
0.0
  0
LINE
  5
2B1
330
18
100
AcDbEntity
  8
1
  6
Continuous
100
AcDbLine
 10
223.4966669473018
 20
241.5801212953081
 30
0.0
 11
223.4966669473018
 21
223.3698672574794
 31
0.0
  0
LINE
  5
2B2
330
18
100
AcDbEntity
  8
5
  6
PHANTOM
100
AcDbLine
 10
200.0966669473018
 20
224.9056536951039
 30
0.0
 11
171.1877744973811
 21
195.9967612451831
 31
0.0
  0
LINE
  5
2B3
330
18
100
AcDbEntity
  8
5
  6
PHANTOM
100
AcDbLine
 10
200.0966669473018
 20
223.4914401327308
 30
0.0
 11
171.8931132353149
 21
195.2878864207438
 31
0.0
  0
ARC
  5
2B4
330
18
100
AcDbEntity
  8
5
  6
PHANTOM
 48
0.5
100
AcDbCircle
 10
175.4304151845005
 20
191.7541205580638
 30
0.0
 40
6.0
100
AcDbArc
 50
134.9999999999996
 51
225.0000000000003
  0
ARC
  5
2B5
330
18
100
AcDbEntity
  8
5
  6
PHANTOM
 48
0.5
100
AcDbCircle
 10
176.1357539224341
 20
191.0452457336244
 30
0.0
 40
6.0
100
AcDbArc
 50
134.9999999999996
 51
223.5674562624328
  0
ARC
  5
2B6
330
18
100
AcDbEntity
  8
5
  6
PHANTOM
 48
0.5
100
AcDbCircle
 10
170.3392463599573
 20
185.5315808836223
 30
0.0
 40
2.0
100
AcDbArc
 50
314.9999999999993
 51
43.56745626243312
  0
LINE
  5
2B7
330
18
100
AcDbEntity
  8
5
  6
PHANTOM
 48
0.5
100
AcDbLine
 10
171.7534599223303
 20
186.9457944459954
 30
0.0
 11
171.1877744973811
 21
187.5114798709446
 31
0.0
  0
LINE
  5
2B8
330
18
100
AcDbEntity
  8
1
  6
Continuous
100
AcDbLine
 10
216.3195627124486
 20
222.3902813261712
 30
0.0
 11
212.096666947303
 21
218.1673855610255
 31
0.0
  0
LINE
  5
2B9
330
18
100
AcDbEntity
  8
5
  6
PHANTOM
 48
0.5
100
AcDbLine
 10
200.0966669473018
 20
223.7198672574719
 30
0.0
 11
198.9108805096688
 21
223.719867257471
 31
0.0
  0
ARC
  5
2BA
330
18
100
AcDbEntity
  8
1
  6
Continuous
100
AcDbCircle
 10
222.096666947302
 20
221.6198672574803
 30
0.0
 40
1.0
100
AcDbArc
 50
270.0
 51
0.0
  0
LINE
  5
2BB
330
18
100
AcDbEntity
  8
1
  6
Continuous
100
AcDbLine
 10
214.5491486437559
 20
220.6198672574787
 30
0.0
 11
222.0966669473021
 21
220.6198672574803
 31
0.0
  0
ARC
  5
2BC
330
18
100
AcDbEntity
  8
1
  6
Continuous
100
AcDbCircle
 10
215.6124559312621
 20
223.0973881073578
 30
0.0
 40
1.0
100
AcDbArc
 50
315.0000000000005
 51
0.0
  0
LINE
  5
2BD
330
18
100
AcDbEntity
  8
1
  6
Continuous
100
AcDbLine
 10
225.596666947301
 20
221.8698672575802
 30
0.0
 11
223.5966669473007
 21
221.869867257579
 31
0.0
  0
LINE
  5
2BE
330
18
100
AcDbEntity
  8
1
  6
Continuous
100
AcDbLine
 10
223.096666947302
 20
223.1198672574794
 30
0.0
 11
223.2966669473019
 21
223.1198672574794
 31
0.0
  0
ARC
  5
2BF
330
18
100
AcDbEntity
  8
1
  6
Continuous
100
AcDbCircle
 10
223.2404169473019
 20
223.3698672574794
 30
0.0
 40
0.2562500000000227
100
AcDbArc
 50
282.6803834918255
 51
0.0
  0
LINE
  5
2C0
330
18
100
AcDbEntity
  8
1
  6
Continuous
100
AcDbLine
 10
227.5966669472983
 20
228.1198672575723
 30
0.0
 11
225.5966669473011
 21
228.119867257574
 31
0.0
  0
LINE
  5
2C1
330
18
100
AcDbEntity
  8
1
  6
Continuous
100
AcDbLine
 10
225.5966669472976
 20
227.4948672575933
 30
0.0
 11
223.5966669472971
 21
227.494867257592
 31
0.0
  0
LINE
  5
2C2
330
18
100
AcDbEntity
  8
1
  6
Continuous
100
AcDbLine
 10
225.5966669472966
 20
228.9698672575896
 30
0.0
 11
223.5966669472964
 21
228.9698672575885
 31
0.0
  0
LINE
  5
2C3
330
18
100
AcDbEntity
  8
1
  6
Continuous
100
AcDbLine
 10
223.4966669473018
 20
227.2198672575714
 30
0.0
 11
223.5966669473011
 21
227.2198672575714
 31
0.0
  0
ARC
  5
2CD
330
18
100
AcDbEntity
  8
1
  6
Continuous
100
AcDbCircle
 10
230.7642440102446
 20
235.0417709937461
 30
0.0
 40
32.0
100
AcDbArc
 50
134.5860766758447
 51
149.3440375942768
  0
LINE
  5
2CE
330
18
100
AcDbEntity
  8
1
  6
Continuous
100
AcDbLine
 10
213.5966669473019
 20
254.6198672574805
 30
0.0
 11
213.5966669473019
 21
247.6198672574805
 31
0.0
  0
LINE
  5
2CF
330
18
100
AcDbEntity
  8
1
  6
Continuous
100
AcDbLine
 10
214.096666947302
 20
248.1198672574805
 30
0.0
 11
214.096666947302
 21
254.1198672574805
 31
0.0
  0
LINE
  5
2D0
330
18
100
AcDbEntity
  8
4
  6
CENTER
 48
0.5
100
AcDbLine
 10
217.8261555474345
 20
251.1198672574805
 30
0.0
 11
205.9437197976013
 21
251.1198672574804
 31
0.0
  0
LINE
  5
2D1
330
18
100
AcDbEntity
  8
1
  6
Continuous
100
AcDbLine
 10
211.096666947302
 20
245.6198672574778
 30
0.0
 11
225.0966669473018
 21
245.6198672574808
 31
0.0
  0
LINE
  5
2D2
330
18
100
AcDbEntity
  8
1
  6
Continuous
100
AcDbLine
 10
212.096666947302
 20
244.6198672574777
 30
0.0
 11
212.096666947302
 21
234.119867257502
 31
0.0
  0
ARC
  5
2D3
330
18
100
AcDbEntity
  8
1
  6
Continuous
100
AcDbCircle
 10
230.0966669473018
 20
232.7018313729189
 30
0.0
 40
30.0
100
AcDbArc
 50
165.1648884180241
 51
180.0
  0
ARC
  5
2D4
330
18
100
AcDbEntity
  8
5
  6
PHANTOM
 48
0.5
100
AcDbCircle
 10
223.0059482620795
 20
216.4193939251989
 30
0.0
 40
30.0
100
AcDbArc
 50
131.5782819119087
 51
134.9999999999996
  0
ARC
  5
2D5
330
18
100
AcDbEntity
  8
1
  6
Continuous
100
AcDbCircle
 10
204.0966669473018
 20
237.737225809723
 30
0.0
 40
4.0
100
AcDbArc
 50
121.2329290155131
 51
138.590377890729
  0
ARC
  5
2D6
330
18
100
AcDbEntity
  8
1
  6
Continuous
100
AcDbCircle
 10
206.8966669473018
 20
233.119867257477
 30
0.0
 40
9.4
100
AcDbArc
 50
113.8444700235049
 51
121.2329290155131
  0
ARC
  5
2D7
330
18
100
AcDbEntity
  8
1
  6
Continuous
100
AcDbCircle
 10
204.0966669473018
 20
250.8481093930087
 30
0.0
 40
1.0
100
AcDbArc
 50
149.3440375942777
 51
180.0
  0
LINE
  5
2D8
330
18
100
AcDbEntity
  8
1
  6
Continuous
100
AcDbLine
 10
214.0966669473018
 20
248.1198672574803
 30
0.0
 11
213.5966669473018
 21
247.6198672574803
 31
0.0
  0
ARC
  5
2D9
330
18
100
AcDbEntity
  8
1
  6
Continuous
100
AcDbCircle
 10
211.096666947302
 20
244.6198672574777
 30
0.0
 40
1.0
100
AcDbArc
 50
0.0
 51
90.0
  0
LINE
  5
2DA
330
18
100
AcDbEntity
  8
1
  6
Continuous
100
AcDbLine
 10
213.5966669473019
 20
247.6198672574805
 30
0.0
 11
211.096666947302
 21
247.6198672574803
 31
0.0
  0
LINE
  5
2DB
330
18
100
AcDbEntity
  8
1
  6
Continuous
100
AcDbLine
 10
225.2966669473018
 20
245.4198672574809
 30
0.0
 11
225.2966669473019
 21
240.8731133265892
 31
0.0
  0
LINE
  5
2DC
330
18
100
AcDbEntity
  8
1
  6
Continuous
100
AcDbLine
 10
227.5966669473006
 20
232.4630130081466
 30
0.0
 11
225.5966669473011
 21
232.4630130081482
 31
0.0
  0
LINE
  5
2DD
330
18
100
AcDbEntity
  8
1
  6
Continuous
100
AcDbLine
 10
227.5966669473013
 20
233.7767215070218
 30
0.0
 11
225.596666947301
 21
233.7767215070234
 31
0.0
  0
LINE
  5
2DE
330
18
100
AcDbEntity
  8
1
  6
Continuous
100
AcDbLine
 10
227.5966669473036
 20
238.119867257574
 30
0.0
 11
225.5966669473011
 21
238.1198672575756
 31
0.0
  0
LINE
  5
2DF
330
18
100
AcDbEntity
  8
1
  6
Continuous
100
AcDbLine
 10
225.596666947301
 20
241.4198672576254
 30
0.0
 11
225.2966669472539
 21
241.4198672576254
 31
0.0
  0
LINE
  5
2E0
330
18
100
AcDbEntity
  8
1
  6
Continuous
100
AcDbLine
 10
223.4966669473018
 20
239.0198672575713
 30
0.0
 11
223.5966669473011
 21
239.0198672575713
 31
0.0
  0
ARC
  5
2E1
330
18
100
AcDbEntity
  8
1
  6
Continuous
100
AcDbCircle
 10
223.296666947302
 20
241.5801212953081
 30
0.0
 40
0.1999999999999886
100
AcDbArc
 50
0.0
 51
90.0
  0
LINE
  5
2E2
330
18
100
AcDbEntity
  8
1
  6
Continuous
100
AcDbLine
 10
223.296666947302
 20
241.780121295308
 30
0.0
 11
223.096666947302
 21
241.780121295308
 31
0.0
  0
ARC
  5
2E3
330
18
100
AcDbEntity
  8
1
  6
Continuous
100
AcDbCircle
 10
225.096666947302
 20
240.8731133265892
 30
0.0
 40
0.2
100
AcDbArc
 50
270.0
 51
0.0
  0
LINE
  5
2E4
330
18
100
AcDbEntity
  8
1
  6
Continuous
100
AcDbLine
 10
225.0966669473018
 20
240.6731133265892
 30
0.0
 11
223.4966669473018
 21
240.6731133265894
 31
0.0
  0
LINE
  5
2E5
330
18
100
AcDbEntity
  8
1
  6
Continuous
100
AcDbLine
 10
225.596666947301
 20
242.8626530501441
 30
0.0
 11
225.2966669472539
 21
242.8626530501438
 31
0.0
  0
ARC
  5
2E6
330
18
100
AcDbEntity
  8
1
  6
Continuous
100
AcDbCircle
 10
225.096666947302
 20
244.0197416285556
 30
0.0
 40
0.2
100
AcDbArc
 50
270.0
 51
0.0
  0
LINE
  5
2E8
330
18
100
AcDbEntity
  8
1
  6
Continuous
100
AcDbLine
 10
225.0966669473017
 20
243.8197416285554
 30
0.0
 11
223.0966669473018
 21
243.8197416285583
 31
0.0
  0
LINE
  5
2E9
330
18
100
AcDbEntity
  8
1
  6
Continuous
100
AcDbLine
 10
211.096666947302
 20
258.1198672574803
 30
0.0
 11
209.002863875497
 21
258.1198672574803
 31
0.0
  0
ARC
  5
2EA
330
18
100
AcDbEntity
  8
1
  6
Continuous
100
AcDbCircle
 10
209.002863875497
 20
257.1198672574871
 30
0.0
 40
1.0
100
AcDbArc
 50
90.0
 51
134.5860766758447
  0
LINE
  5
2EB
330
18
100
AcDbEntity
  8
1
  6
Continuous
100
AcDbLine
 10
213.5966669473018
 20
254.6198672574803
 30
0.0
 11
214.0966669473018
 21
254.1198672574803
 31
0.0
  0
LINE
  5
2EC
330
18
100
AcDbEntity
  8
1
  6
Continuous
100
AcDbLine
 10
213.596666947302
 20
254.6198672574805
 30
0.0
 11
211.096666947302
 21
254.6198672574803
 31
0.0
  0
LINE
  5
2F1
330
18
100
AcDbEntity
  8
1
  6
Continuous
100
AcDbLine
 10
347.4045405592121
 20
243.6198672575058
 30
0.0
 11
347.4045405592121
 21
153.6198672574949
 31
0.0
  0
LINE
  5
2F2
330
18
100
AcDbEntity
  8
1
  6
Continuous
100
AcDbLine
 10
324.4045405592121
 20
243.6198672574987
 30
0.0
 11
324.4045405592121
 21
153.6198672574949
 31
0.0
  0
LINE
  5
2F3
330
18
100
AcDbEntity
  8
1
  6
Continuous
100
AcDbLine
 10
349.9045405591758
 20
257.1198672574797
 30
0.0
 11
349.9045405591758
 21
140.1198672574798
 31
0.0
  0
LINE
  5
2F4
330
18
100
AcDbEntity
  8
1
  6
Continuous
100
AcDbLine
 10
321.9045405591758
 20
257.1198672574657
 30
0.0
 11
321.9045405591758
 21
140.1198672574658
 31
0.0
  0
ARC
  5
2F5
330
18
100
AcDbEntity
  8
1
  6
Continuous
100
AcDbCircle
 10
322.9045405591758
 20
140.1198672574658
 30
0.0
 40
1.0
100
AcDbArc
 50
180.0
 51
270.0
  0
LINE
  5
2F6
330
18
100
AcDbEntity
  8
4
  6
CENTER
100
AcDbLine
 10
335.9045405592122
 20
264.7570171669535
 30
0.0
 11
335.9045405592122
 21
129.7780817225725
 31
0.0
  0
LINE
  5
2F7
330
18
100
AcDbEntity
  8
4
  6
CENTER
100
AcDbLine
 10
326.5080638220431
 20
146.1198672574949
 30
0.0
 11
345.0684896305444
 21
146.1198672574949
 31
0.0
  0
LINE
  5
2FA
330
18
100
AcDbEntity
  8
1
  6
Continuous
100
AcDbLine
 10
344.9045405591696
 20
155.8140561071196
 30
0.0
 11
326.9045405591696
 21
155.8140561071098
 31
0.0
  0
LINE
  5
2FC
330
18
100
AcDbEntity
  8
1
  6
Continuous
100
AcDbLine
 10
348.9045405591763
 20
139.1198672574798
 30
0.0
 11
322.9045405591765
 21
139.1198672574658
 31
0.0
  0
ARC
  5
2FF
330
18
100
AcDbEntity
  8
1
  6
Continuous
100
AcDbCircle
 10
326.9045405592121
 20
154.1798672574989
 30
0.0
 40
2.5
100
AcDbArc
 50
180.0
 51
270.0
  0
ARC
  5
300
330
18
100
AcDbEntity
  8
1
  6
Continuous
100
AcDbCircle
 10
348.9045405591758
 20
140.1198672574798
 30
0.0
 40
1.0
100
AcDbArc
 50
270.0
 51
0.0
  0
ARC
  5
301
330
18
100
AcDbEntity
  8
1
  6
Continuous
100
AcDbCircle
 10
344.9045405592122
 20
154.1798672575056
 30
0.0
 40
2.5
100
AcDbArc
 50
270.0
 51
0.0
  0
ARC
  5
302
330
18
100
AcDbEntity
  8
1
  6
Continuous
100
AcDbCircle
 10
338.1267360174924
 20
169.3420868033157
 30
0.0
 40
0.2222195458280311
100
AcDbArc
 50
180.0
 51
0.0
  0
ARC
  5
303
330
18
100
AcDbEntity
  8
1
  6
Continuous
100
AcDbCircle
 10
335.9045405592122
 20
172.8531556274019
 30
0.0
 40
5.733264282363177
100
AcDbArc
 50
234.4623222080516
 51
305.5376777919478
  0
ARC
  5
304
330
18
100
AcDbEntity
  8
1
  6
Continuous
100
AcDbCircle
 10
335.9045405592122
 20
165.3865788875804
 30
0.0
 40
5.733264282363177
100
AcDbArc
 50
54.46232220799902
 51
125.5376777920009
  0
LINE
  5
306
330
18
100
AcDbEntity
  8
1
  6
Continuous
100
AcDbLine
 10
344.9045405591567
 20
179.1198672574924
 30
0.0
 11
326.9045405591567
 21
179.1198672574828
 31
0.0
  0
ARC
  5
307
330
18
100
AcDbEntity
  8
1
  6
Continuous
100
AcDbCircle
 10
333.6823451009318
 20
168.2998776756493
 30
0.0
 40
0.2222195458280301
100
AcDbArc
 50
180.0
 51
243.9856340003634
  0
ARC
  5
308
330
18
100
AcDbEntity
  8
1
  6
Continuous
100
AcDbCircle
 10
335.9045405592122
 20
172.8531556274019
 30
0.0
 40
5.288825190707117
100
AcDbArc
 50
243.9856340003634
 51
247.0560464434621
  0
ARC
  5
309
330
18
100
AcDbEntity
  8
1
  6
Continuous
100
AcDbCircle
 10
333.8601207375942
 20
168.0236750529345
 30
0.0
 40
0.044443909165606
100
AcDbArc
 50
247.0560464434621
 51
0.0
  0
LINE
  5
30A
330
18
100
AcDbEntity
  8
1
  6
Continuous
100
AcDbLine
 10
333.9045646467598
 20
170.2160594620479
 30
0.0
 11
333.9045646467598
 21
168.0236750529345
 31
0.0
  0
ARC
  5
30B
330
18
100
AcDbEntity
  8
1
  6
Continuous
100
AcDbCircle
 10
333.8601207375942
 20
170.2160594620479
 30
0.0
 40
0.044443909165606
100
AcDbArc
 50
0.0
 51
112.9439535565377
  0
ARC
  5
30C
330
18
100
AcDbEntity
  8
1
  6
Continuous
100
AcDbCircle
 10
335.9045405592122
 20
165.3865788875804
 30
0.0
 40
5.288825190707117
100
AcDbArc
 50
112.9439535565377
 51
116.0143659996363
  0
ARC
  5
30D
330
18
100
AcDbEntity
  8
1
  6
Continuous
100
AcDbCircle
 10
333.6823451009318
 20
169.9398568393332
 30
0.0
 40
0.2222195458280301
100
AcDbArc
 50
116.0143659996363
 51
180.0
  0
LINE
  5
30E
330
18
100
AcDbEntity
  8
1
  6
Continuous
100
AcDbLine
 10
333.4601255551037
 20
168.2998776756493
 30
0.0
 11
333.4601255551037
 21
169.9398568393332
 31
0.0
  0
LINE
  5
30F
330
18
100
AcDbEntity
  8
1
  6
Continuous
100
AcDbLine
 10
333.0156864634477
 20
170.338835074896
 30
0.0
 11
333.0156864634477
 21
168.4230095901656
 31
0.0
  0
ARC
  5
310
330
18
100
AcDbEntity
  8
1
  6
Continuous
100
AcDbCircle
 10
333.2379060092758
 20
169.1198672574876
 30
0.0
 40
1.145412728988863
100
AcDbArc
 50
180.0
 51
234.4623222080521
  0
ARC
  5
311
330
18
100
AcDbEntity
  8
1
  6
Continuous
100
AcDbCircle
 10
333.2379060092758
 20
169.1198672574876
 30
0.0
 40
1.145412728988863
100
AcDbArc
 50
125.5376777920009
 51
166.5374393917331
  0
LINE
  5
312
330
18
100
AcDbEntity
  8
1
  6
Continuous
100
AcDbLine
 10
338.1267360174924
 20
169.1198672574876
 30
0.0
 11
338.1267360174924
 21
168.0538307537291
 31
0.0
  0
LINE
  5
313
330
18
100
AcDbEntity
  8
1
  6
Continuous
100
AcDbLine
 10
337.9045164716643
 20
170.3714343678287
 30
0.0
 11
337.9045164716643
 21
169.3420868033157
 31
0.0
  0
LINE
  5
314
330
18
100
AcDbEntity
  8
1
  6
Continuous
100
AcDbLine
 10
337.4600773800084
 20
170.580815197643
 30
0.0
 11
337.4600773800084
 21
167.7982592786126
 31
0.0
  0
LINE
  5
315
330
18
100
AcDbEntity
  8
1
  6
Continuous
100
AcDbLine
 10
337.0156382883523
 20
169.1198672574876
 30
0.0
 11
336.7934187425242
 21
169.1198672574876
 31
0.0
  0
LINE
  5
316
330
18
100
AcDbEntity
  8
1
  6
Continuous
100
AcDbLine
 10
337.0156382883523
 20
167.8651311350854
 30
0.0
 11
337.0156382883523
 21
169.1198672574876
 31
0.0
  0
ARC
  5
317
330
18
100
AcDbEntity
  8
1
  6
Continuous
100
AcDbCircle
 10
336.7934187425242
 20
167.8651311350854
 30
0.0
 40
0.2222195458280301
100
AcDbArc
 50
280.1041827161252
 51
0.0
  0
ARC
  5
318
330
18
100
AcDbEntity
  8
1
  6
Continuous
100
AcDbCircle
 10
335.9045405592122
 20
172.8531556274019
 30
0.0
 40
5.288825190707117
100
AcDbArc
 50
277.7929243354222
 51
280.1041827161252
  0
ARC
  5
319
330
18
100
AcDbEntity
  8
1
  6
Continuous
100
AcDbCircle
 10
336.6156431058619
 20
167.6572083418409
 30
0.0
 40
0.044443909165606
100
AcDbArc
 50
180.0
 51
277.7929243354226
  0
LINE
  5
31A
330
18
100
AcDbEntity
  8
1
  6
Continuous
100
AcDbLine
 10
336.5711991966963
 20
170.5825261731416
 30
0.0
 11
336.5711991966963
 21
167.6572083418409
 31
0.0
  0
ARC
  5
31B
330
18
100
AcDbEntity
  8
1
  6
Continuous
100
AcDbCircle
 10
336.6156431058619
 20
170.5825261731416
 30
0.0
 40
0.044443909165606
100
AcDbArc
 50
82.20707566457726
 51
180.0
  0
ARC
  5
31C
330
18
100
AcDbEntity
  8
1
  6
Continuous
100
AcDbCircle
 10
335.9045405592122
 20
165.3865788875804
 30
0.0
 40
5.288825190707117
100
AcDbArc
 50
79.8958172838747
 51
82.20707566457766
  0
ARC
  5
31D
330
18
100
AcDbEntity
  8
1
  6
Continuous
100
AcDbCircle
 10
336.7934187425242
 20
170.3746033798972
 30
0.0
 40
0.2222195458280301
100
AcDbArc
 50
0.0
 51
79.8958172838747
  0
LINE
  5
31E
330
18
100
AcDbEntity
  8
1
  6
Continuous
100
AcDbLine
 10
337.0156382883523
 20
169.6531941674748
 30
0.0
 11
337.0156382883523
 21
170.3746033798972
 31
0.0
  0
LINE
  5
31F
330
18
100
AcDbEntity
  8
1
  6
Continuous
100
AcDbLine
 10
336.1267601050402
 20
170.6707335381664
 30
0.0
 11
336.1267601050402
 21
167.5690009768161
 31
0.0
  0
LINE
  5
320
330
18
100
AcDbEntity
  8
1
  6
Continuous
100
AcDbLine
 10
335.6823210133841
 20
169.1198672574876
 30
0.0
 11
335.237881921728
 21
169.1198672574876
 31
0.0
  0
LINE
  5
321
330
18
100
AcDbEntity
  8
1
  6
Continuous
100
AcDbLine
 10
335.6823210133841
 20
170.6707335381664
 30
0.0
 11
335.6823210133841
 21
167.5690009768161
 31
0.0
  0
LINE
  5
322
330
18
100
AcDbEntity
  8
1
  6
Continuous
100
AcDbLine
 10
335.237881921728
 20
170.6332195422208
 30
0.0
 11
335.237881921728
 21
167.6065149727618
 31
0.0
  0
LINE
  5
323
330
18
100
AcDbEntity
  8
1
  6
Continuous
100
AcDbLine
 10
334.7934428300718
 20
167.7376636131062
 30
0.0
 11
334.7934428300718
 21
168.5865403475004
 31
0.0
  0
ARC
  5
324
330
18
100
AcDbEntity
  8
1
  6
Continuous
100
AcDbCircle
 10
334.7489989209063
 20
167.7376636131062
 30
0.0
 40
0.044443909165606
100
AcDbArc
 50
257.2710561268775
 51
0.0
  0
ARC
  5
325
330
18
100
AcDbEntity
  8
1
  6
Continuous
100
AcDbCircle
 10
335.9045405592122
 20
172.8531556274019
 30
0.0
 40
5.288825190707117
100
AcDbArc
 50
254.7937121239416
 51
257.2710561268775
  0
ARC
  5
326
330
18
100
AcDbEntity
  8
1
  6
Continuous
100
AcDbCircle
 10
335.9045405592122
 20
172.8531556274019
 30
0.0
 40
5.288825190707117
100
AcDbArc
 50
254.7424767095435
 51
254.7937121239416
  0
ARC
  5
327
330
18
100
AcDbEntity
  8
1
  6
Continuous
100
AcDbCircle
 10
334.571223284244
 20
167.9651337570549
 30
0.0
 40
0.2222195458280301
100
AcDbArc
 50
180.0
 51
254.7424767095435
  0
LINE
  5
328
330
18
100
AcDbEntity
  8
1
  6
Continuous
100
AcDbLine
 10
334.3490037384158
 20
170.2746007579273
 30
0.0
 11
334.3490037384158
 21
167.9651337570549
 31
0.0
  0
ARC
  5
329
330
18
100
AcDbEntity
  8
1
  6
Continuous
100
AcDbCircle
 10
334.571223284244
 20
170.2746007579273
 30
0.0
 40
0.2222195458280301
100
AcDbArc
 50
105.2575232904564
 51
180.0
  0
ARC
  5
32A
330
18
100
AcDbEntity
  8
1
  6
Continuous
100
AcDbCircle
 10
335.9045405592122
 20
165.3865788875804
 30
0.0
 40
5.288825190707117
100
AcDbArc
 50
103.2681189705562
 51
105.2575232904564
  0
ARC
  5
32B
330
18
100
AcDbEntity
  8
1
  6
Continuous
100
AcDbCircle
 10
335.9045405592122
 20
165.3865788875804
 30
0.0
 40
5.288825190707117
100
AcDbArc
 50
102.7289438731223
 51
103.2681189705562
  0
ARC
  5
32C
330
18
100
AcDbEntity
  8
1
  6
Continuous
100
AcDbCircle
 10
334.7489989209063
 20
170.5020709018761
 30
0.0
 40
0.044443909165606
100
AcDbArc
 50
0.0
 51
102.7289438731228
  0
LINE
  5
32D
330
18
100
AcDbEntity
  8
1
  6
Continuous
100
AcDbLine
 10
334.7934428300718
 20
169.6531941674748
 30
0.0
 11
334.7934428300718
 21
170.5020709018761
 31
0.0
  0
ARC
  5
32E
330
18
100
AcDbEntity
  8
1
  6
Continuous
100
AcDbCircle
 10
326.9045405592121
 20
176.6198672574828
 30
0.0
 40
2.5
100
AcDbArc
 50
90.0
 51
180.0
  0
LINE
  5
32F
330
18
100
AcDbEntity
  8
1
  6
Continuous
100
AcDbLine
 10
339.7165878381374
 20
169.1198672574876
 30
0.0
 11
338.7980980890477
 21
169.1198672574876
 31
0.0
  0
LINE
  5
330
330
18
100
AcDbEntity
  8
1
  6
Continuous
100
AcDbLine
 10
338.575248496609
 20
168.288181256063
 30
0.0
 11
339.0773137833791
 21
170.1619144149995
 31
0.0
  0
LINE
  5
331
330
18
100
AcDbEntity
  8
1
  6
Continuous
100
AcDbLine
 10
338.3489555633204
 20
169.3420868033157
 30
0.0
 11
338.3489555633204
 21
170.2915436921629
 31
0.0
  0
ARC
  5
332
330
18
100
AcDbEntity
  8
1
  6
Continuous
100
AcDbCircle
 10
338.5711751091485
 20
169.1198672574876
 30
0.0
 40
1.145412728988864
100
AcDbArc
 50
305.5376777919478
 51
315.6988392796176
  0
ARC
  5
333
330
18
100
AcDbEntity
  8
1
  6
Continuous
100
AcDbCircle
 10
338.5711751091485
 20
169.1198672574876
 30
0.0
 40
1.145412728988864
100
AcDbArc
 50
332.2496545546282
 51
54.46232220799902
  0
ARC
  5
334
330
18
100
AcDbEntity
  8
1
  6
Continuous
100
AcDbCircle
 10
344.9045405592122
 20
176.6198672574923
 30
0.0
 40
2.5
100
AcDbArc
 50
0.0
 51
90.0
  0
ARC
  5
336
330
18
100
AcDbEntity
  8
1
  6
Continuous
100
AcDbCircle
 10
322.9045405591758
 20
257.1198672574657
 30
0.0
 40
1.0
100
AcDbArc
 50
90.0
 51
180.0
  0
LINE
  5
337
330
18
100
AcDbEntity
  8
4
  6
CENTER
100
AcDbLine
 10
352.0027887271293
 20
233.1198672574829
 30
0.0
 11
320.2449483267908
 21
233.1198672574829
 31
0.0
  0
ARC
  5
338
330
18
100
AcDbEntity
  8
1
  6
Continuous
100
AcDbCircle
 10
335.9045405592121
 20
233.1198672574829
 30
0.0
 40
9.499999999988006
100
AcDbArc
 50
119.9999999999227
 51
209.9999999999563
  0
ARC
  5
339
330
18
100
AcDbEntity
  8
1
  6
Continuous
100
AcDbCircle
 10
335.9045405592122
 20
233.1198672574829
 30
0.0
 40
9.999999999988064
100
AcDbArc
 50
119.9999999999235
 51
209.9999999999559
  0
ARC
  5
33A
330
18
100
AcDbEntity
  8
1
  6
Continuous
100
AcDbCircle
 10
335.9045405592122
 20
232.1198672575021
 30
0.0
 40
11.5
100
AcDbArc
 50
180.0
 51
0.0
  0
ARC
  5
33C
330
18
100
AcDbEntity
  8
1
  6
Continuous
100
AcDbCircle
 10
335.9045405592122
 20
233.1198672574827
 30
0.0
 40
8.3
100
AcDbArc
 50
60.00000000008562
 51
209.9999999999567
  0
ARC
  5
33D
330
18
100
AcDbEntity
  8
1
  6
Continuous
100
AcDbCircle
 10
335.9045405592122
 20
233.1198672574827
 30
0.0
 40
11.25
100
AcDbArc
 50
209.9999999999567
 51
60.00000000008562
  0
LINE
  5
33E
330
18
100
AcDbEntity
  8
1
  6
Continuous
100
AcDbLine
 10
330.2476863096468
 20
233.1198672574845
 30
0.0
 11
335.9045405591392
 21
227.4630130079919
 31
0.0
  0
LINE
  5
33F
330
18
100
AcDbEntity
  8
1
  6
Continuous
100
AcDbLine
 10
335.9045405591392
 20
227.4630130079919
 30
0.0
 11
341.5613948086315
 21
233.1198672574843
 31
0.0
  0
LINE
  5
340
330
18
100
AcDbEntity
  8
1
  6
Continuous
100
AcDbLine
 10
340.9045405591927
 20
232.5337236860898
 30
0.0
 11
336.4906841305552
 21
228.1198672574526
 31
0.0
  0
LINE
  5
341
330
18
100
AcDbEntity
  8
1
  6
Continuous
100
AcDbLine
 10
330.9045405592314
 20
232.5337236860899
 30
0.0
 11
335.3183969878188
 21
228.1198672575026
 31
0.0
  0
LINE
  5
342
330
18
100
AcDbEntity
  8
1
  6
Continuous
100
AcDbLine
 10
346.4045405592122
 20
222.6831745449846
 30
0.0
 11
342.4771222931672
 21
222.6831745449846
 31
0.0
  0
LINE
  5
343
330
18
100
AcDbEntity
  8
1
  6
Continuous
100
AcDbLine
 10
325.4045405714571
 20
218.1688984271087
 30
0.0
 11
346.4045405469672
 21
218.1699126162661
 31
0.0
  0
ARC
  5
344
330
18
100
AcDbEntity
  8
1
  6
Continuous
100
AcDbCircle
 10
325.4044922767353
 20
219.1688984259425
 30
0.0
 40
1.0
100
AcDbArc
 50
180.0027670837325
 51
270.0027670837321
  0
LINE
  5
345
330
18
100
AcDbEntity
  8
1
  6
Continuous
100
AcDbLine
 10
329.3319588252571
 20
222.6831745449846
 30
0.0
 11
325.4045405592122
 21
222.6831745449846
 31
0.0
  0
ARC
  5
346
330
18
100
AcDbEntity
  8
1
  6
Continuous
100
AcDbCircle
 10
325.4045405592122
 20
223.6831745449847
 30
0.0
 40
1.0
100
AcDbArc
 50
180.0
 51
270.0
  0
LINE
  5
347
330
18
100
AcDbEntity
  8
1
  6
Continuous
100
AcDbLine
 10
328.716529707798
 20
228.9698672574884
 30
0.0
 11
326.1617547666328
 21
227.4948672574904
 31
0.0
  0
LINE
  5
348
330
18
100
AcDbEntity
  8
1
  6
Continuous
100
AcDbLine
 10
335.3183969878188
 20
228.1198672575026
 30
0.0
 11
336.490684130503
 21
228.1198672575047
 31
0.0
  0
ARC
  5
349
330
18
100
AcDbEntity
  8
1
  6
Continuous
100
AcDbCircle
 10
346.4044922522453
 20
219.1699126150999
 30
0.0
 40
1.0
100
AcDbArc
 50
270.0027670837321
 51
0.0027670837325481
  0
ARC
  5
34A
330
18
100
AcDbEntity
  8
1
  6
Continuous
100
AcDbCircle
 10
346.4045405592122
 20
223.6831745449847
 30
0.0
 40
1.0
100
AcDbArc
 50
270.0
 51
0.0
  0
CIRCLE
  5
34D
330
18
100
AcDbEntity
  8
2
  6
Continuous
100
AcDbCircle
 10
335.9045405592122
 20
233.1198672574829
 30
0.0
 40
2.5
  0
LINE
  5
34E
330
18
100
AcDbEntity
  8
4
  6
CENTER
100
AcDbLine
 10
327.0525352241094
 20
251.1198672574951
 30
0.0
 11
344.7300547050101
 21
251.1198672574951
 31
0.0
  0
ARC
  5
34F
330
18
100
AcDbEntity
  8
1
  6
Continuous
100
AcDbCircle
 10
335.9045405592122
 20
233.1198672574829
 30
0.0
 40
8.600000000101516
100
AcDbArc
 50
61.93168433155769
 51
118.0683156684425
  0
LINE
  5
350
330
18
100
AcDbEntity
  8
1
  6
Continuous
100
AcDbLine
 10
345.4045405592113
 20
245.6198672575058
 30
0.0
 11
326.4045405592113
 21
245.6198672574987
 31
0.0
  0
ARC
  5
351
330
18
100
AcDbEntity
  8
1
  6
Continuous
100
AcDbCircle
 10
335.9045405592122
 20
234.1198672575024
 30
0.0
 40
11.5
100
AcDbArc
 50
0.0
 51
180.0
  0
LINE
  5
352
330
18
100
AcDbEntity
  8
1
  6
Continuous
100
AcDbLine
 10
341.5613948086315
 20
233.1198672574843
 30
0.0
 11
335.9045405591388
 21
238.7767215069767
 31
0.0
  0
LINE
  5
353
330
18
100
AcDbEntity
  8
1
  6
Continuous
100
AcDbLine
 10
336.4906841305552
 20
238.1198672575137
 30
0.0
 11
340.9045405592424
 21
233.7060108288262
 31
0.0
  0
LINE
  5
354
330
18
100
AcDbEntity
  8
1
  6
Continuous
100
AcDbLine
 10
331.4570693675842
 20
240.8231133266051
 30
0.0
 11
329.7269652107877
 21
243.8197416285722
 31
0.0
  0
LINE
  5
355
330
18
100
AcDbEntity
  8
1
  6
Continuous
100
AcDbLine
 10
335.9045405591388
 20
238.7767215069767
 30
0.0
 11
330.2476863096468
 21
233.1198672574845
 31
0.0
  0
LINE
  5
356
330
18
100
AcDbEntity
  8
1
  6
Continuous
100
AcDbLine
 10
335.3183969878188
 20
238.1198672574635
 30
0.0
 11
330.9045405591813
 21
233.7060108288261
 31
0.0
  0
CIRCLE
  5
357
330
18
100
AcDbEntity
  8
1
  6
Continuous
100
AcDbCircle
 10
335.9045405592122
 20
233.1198672574829
 30
0.0
 40
2.066999999999999
  0
LINE
  5
358
330
18
100
AcDbEntity
  8
1
  6
Continuous
100
AcDbLine
 10
330.9045405592314
 20
232.5337236860899
 30
0.0
 11
330.9045405592335
 21
233.706010828774
 31
0.0
  0
ARC
  5
359
330
18
100
AcDbEntity
  8
1
  6
Continuous
100
AcDbCircle
 10
331.7168769887198
 20
240.9731133266049
 30
0.0
 40
0.3
100
AcDbArc
 50
209.9999999999228
 51
298.0683156684467
  0
LINE
  5
35A
330
18
100
AcDbEntity
  8
1
  6
Continuous
100
AcDbLine
 10
335.3183969878188
 20
238.1198672574636
 30
0.0
 11
336.490684130503
 21
238.1198672574615
 31
0.0
  0
ARC
  5
35B
330
18
100
AcDbEntity
  8
1
  6
Continuous
100
AcDbCircle
 10
326.9045405592121
 20
243.1198672574987
 30
0.0
 40
2.5
100
AcDbArc
 50
90.0
 51
180.0
  0
LINE
  5
35E
330
18
100
AcDbEntity
  8
1
  6
Continuous
100
AcDbLine
 10
340.3520117508398
 20
240.8231133266053
 30
0.0
 11
342.0821159076366
 21
243.8197416285725
 31
0.0
  0
LINE
  5
35F
330
18
100
AcDbEntity
  8
1
  6
Continuous
100
AcDbLine
 10
340.9045405591924
 20
232.5337236860899
 30
0.0
 11
340.9045405591904
 21
233.706010828774
 31
0.0
  0
ARC
  5
360
330
18
100
AcDbEntity
  8
1
  6
Continuous
100
AcDbCircle
 10
340.0922041297044
 20
240.973113326605
 30
0.0
 40
0.3
100
AcDbArc
 50
241.9316843315558
 51
330.0000000000725
  0
LINE
  5
361
330
18
100
AcDbEntity
  8
1
  6
Continuous
100
AcDbLine
 10
340.0545405592013
 20
240.3078781088999
 30
0.0
 11
340.3520117508388
 21
240.8231133266059
 31
0.0
  0
ARC
  5
362
330
18
100
AcDbEntity
  8
1
  6
Continuous
100
AcDbCircle
 10
344.9045405592122
 20
243.1198672575062
 30
0.0
 40
2.5
100
AcDbArc
 50
0.0
 51
90.0
  0
LINE
  5
363
330
18
100
AcDbEntity
  8
1
  6
Continuous
100
AcDbLine
 10
348.9045405591753
 20
258.1198672574795
 30
0.0
 11
322.9045405591753
 21
258.1198672574657
 31
0.0
  0
ARC
  5
364
330
18
100
AcDbEntity
  8
1
  6
Continuous
100
AcDbCircle
 10
348.9045405591758
 20
257.1198672574797
 30
0.0
 40
1.0
100
AcDbArc
 50
0.0
 51
90.0
  0
LINE
  5
3CE
330
18
100
AcDbEntity
  8
4
  6
CENTER
100
AcDbLine
 10
9.224678386110497
 20
349.2073662587079
 30
0.0
 11
64.63766154798101
 21
349.2073662587073
 31
0.0
  0
LINE
  5
3CF
330
18
100
AcDbEntity
  8
1
  6
Continuous
100
AcDbLine
 10
34.15431086913423
 20
353.7073662587079
 30
0.0
 11
40.85431086913432
 21
353.7073662587079
 31
0.0
  0
LINE
  5
3D0
330
18
100
AcDbEntity
  8
1
  6
Continuous
100
AcDbLine
 10
34.15431086913423
 20
344.7073662587079
 30
0.0
 11
40.85431086913432
 21
344.7073662587079
 31
0.0
  0
ARC
  5
3D1
330
18
100
AcDbEntity
  8
1
  6
Continuous
100
AcDbCircle
 10
21.36209838883292
 20
346.3414446506809
 30
0.0
 40
0.7113053508261391
100
AcDbArc
 50
122.0053832080824
 51
237.9946167919175
  0
ARC
  5
3D2
330
18
100
AcDbEntity
  8
1
  6
Continuous
100
AcDbCircle
 10
22.93948768718064
 20
346.3414446506809
 30
0.0
 40
0.7113053508261391
100
AcDbArc
 50
302.0053832080823
 51
57.99461679191754
  0
LINE
  5
3D3
330
18
100
AcDbEntity
  8
1
  6
Continuous
100
AcDbLine
 10
13.15431086913457
 20
345.3129175341721
 30
0.0
 11
13.15431086913457
 21
353.1018149832438
 31
0.0
  0
LINE
  5
3D4
330
18
100
AcDbEntity
  8
1
  6
Continuous
100
AcDbLine
 10
25.15431086913423
 20
344.2073662587077
 30
0.0
 11
25.15431086913423
 21
354.2073662587077
 31
0.0
  0
LINE
  5
3D5
330
18
100
AcDbEntity
  8
1
  6
Continuous
100
AcDbLine
 10
28.15431086913423
 20
354.2073662587079
 30
0.0
 11
28.15431086913423
 21
344.2073662587079
 31
0.0
  0
LINE
  5
3D6
330
18
100
AcDbEntity
  8
1
  6
Continuous
100
AcDbLine
 10
19.15431086913434
 20
352.7073662587079
 30
0.0
 11
19.15431086913434
 21
345.7073662587079
 31
0.0
  0
LINE
  5
3D8
330
18
100
AcDbEntity
  8
1
  6
Continuous
100
AcDbLine
 10
20.15431086913429
 20
341.2073662587079
 30
0.0
 11
20.15431086913429
 21
357.2073662587079
 31
0.0
  0
LINE
  5
3D9
330
18
100
AcDbEntity
  8
1
  6
Continuous
100
AcDbLine
 10
24.15431086913423
 20
341.2073662587079
 30
0.0
 11
24.15431086913423
 21
357.2073662587079
 31
0.0
  0
LINE
  5
3DA
330
18
100
AcDbEntity
  8
1
  6
Continuous
100
AcDbLine
 10
15.15431086913457
 20
352.7073662587079
 30
0.0
 11
15.15431086913457
 21
345.7073662587077
 31
0.0
  0
LINE
  5
3DB
330
18
100
AcDbEntity
  8
1
  6
Continuous
100
AcDbLine
 10
19.22467838611021
 20
337.207366258708
 30
0.0
 11
23.48764420246766
 21
337.207366258708
 31
0.0
  0
ARC
  5
3DD
330
18
100
AcDbEntity
  8
1
  6
Continuous
100
AcDbCircle
 10
15.15431086913446
 20
345.3129175341721
 30
0.0
 40
2.0
100
AcDbArc
 50
180.0
 51
213.6900675259785
  0
LINE
  5
3DE
330
18
100
AcDbEntity
  8
1
  6
Continuous
100
AcDbLine
 10
13.49021028045876
 20
344.2035171417213
 30
0.0
 11
17.56057779743469
 21
338.0979658662575
 31
0.0
  0
ARC
  5
3DF
330
18
100
AcDbEntity
  8
1
  6
Continuous
100
AcDbCircle
 10
18.65431086913446
 20
345.7073662587077
 30
0.0
 40
0.5
100
AcDbArc
 50
270.0
 51
0.0
  0
LINE
  5
3E0
330
18
100
AcDbEntity
  8
1
  6
Continuous
100
AcDbLine
 10
16.65431086913434
 20
345.2073662587079
 30
0.0
 11
18.15431086913434
 21
345.2073662587079
 31
0.0
  0
ARC
  5
3E1
330
18
100
AcDbEntity
  8
1
  6
Continuous
100
AcDbCircle
 10
15.65431086913446
 20
345.7073662587077
 30
0.0
 40
0.5
100
AcDbArc
 50
180.0
 51
270.0
  0
ARC
  5
3E3
330
18
100
AcDbEntity
  8
1
  6
Continuous
100
AcDbCircle
 10
19.22467838611044
 20
339.2073662587076
 30
0.0
 40
2.0
100
AcDbArc
 50
213.6900675259785
 51
270.0
  0
LINE
  5
3E5
330
18
100
AcDbEntity
  8
1
  6
Continuous
100
AcDbLine
 10
15.65431086913446
 20
345.2073662587082
 30
0.0
 11
18.65431086913446
 21
345.2073662587082
 31
0.0
  0
LINE
  5
3E6
330
18
100
AcDbEntity
  8
1
  6
Continuous
100
AcDbLine
 10
25.15431086913423
 20
344.2073662587077
 30
0.0
 11
28.15431086913423
 21
344.2073662587077
 31
0.0
  0
LINE
  5
3E7
330
18
100
AcDbEntity
  8
1
  6
Continuous
100
AcDbLine
 10
24.68764420246765
 20
337.607366258708
 30
0.0
 11
34.15431086913434
 21
344.7073662587079
 31
0.0
  0
ARC
  5
3E8
330
18
100
AcDbEntity
  8
1
  6
Continuous
100
AcDbCircle
 10
22.15079303800678
 20
342.8954660638249
 30
0.0
 40
2.199411438678188
100
AcDbArc
 50
57.99461679191754
 51
122.0053832080824
  0
ARC
  5
3E9
330
18
100
AcDbEntity
  8
1
  6
Continuous
100
AcDbCircle
 10
22.15079303800678
 20
347.6033560893591
 30
0.0
 40
2.199411438678188
100
AcDbArc
 50
237.9946167919175
 51
302.0053832080823
  0
ARC
  5
3EA
330
18
100
AcDbEntity
  8
1
  6
Continuous
100
AcDbCircle
 10
22.15079303800678
 20
345.4192889411814
 30
0.0
 40
2.199411438678188
100
AcDbArc
 50
237.9946167919175
 51
302.0053832080823
  0
LINE
  5
3EB
330
18
100
AcDbEntity
  8
1
  6
Continuous
100
AcDbLine
 10
20.65079303800678
 20
342.4651988621966
 30
0.0
 11
23.65079303800678
 21
342.4651988621966
 31
0.0
  0
LINE
  5
3EC
330
18
100
AcDbEntity
  8
1
  6
Continuous
100
AcDbLine
 10
20.65079303800678
 20
343.3651988621966
 30
0.0
 11
20.65079303800678
 21
341.5651988621966
 31
0.0
  0
ARC
  5
3ED
330
18
100
AcDbEntity
  8
1
  6
Continuous
100
AcDbCircle
 10
21.36209838883292
 20
344.1573775025032
 30
0.0
 40
0.7113053508261391
100
AcDbArc
 50
122.0053832080824
 51
237.9946167919175
  0
ARC
  5
3EE
330
18
100
AcDbEntity
  8
1
  6
Continuous
100
AcDbCircle
 10
22.93948768718064
 20
344.1573775025032
 30
0.0
 40
0.7113053508261391
100
AcDbArc
 50
302.0053832080823
 51
57.99461679191754
  0
LINE
  5
3EF
330
18
100
AcDbEntity
  8
1
  6
Continuous
100
AcDbLine
 10
20.15431086913429
 20
341.2073662587078
 30
0.0
 11
24.15431086913423
 21
341.2073662587078
 31
0.0
  0
ARC
  5
3F0
330
18
100
AcDbEntity
  8
1
  6
Continuous
100
AcDbCircle
 10
23.48764420246766
 20
339.2073662587076
 30
0.0
 40
2.0
100
AcDbArc
 50
270.0
 51
306.869897645843
  0
LINE
  5
3F1
330
18
100
AcDbEntity
  8
1
  6
Continuous
100
AcDbLine
 10
19.22467838611032
 20
361.2073662587079
 30
0.0
 11
23.48764420246777
 21
361.2073662587079
 31
0.0
  0
LINE
  5
3F3
330
18
100
AcDbEntity
  8
1
  6
Continuous
100
AcDbLine
 10
13.49021028045876
 20
354.2112153756945
 30
0.0
 11
17.56057779743469
 21
360.3167666511584
 31
0.0
  0
ARC
  5
3F5
330
18
100
AcDbEntity
  8
1
  6
Continuous
100
AcDbCircle
 10
15.65431086913457
 20
352.7073662587079
 30
0.0
 40
0.5
100
AcDbArc
 50
90.0
 51
180.0
  0
ARC
  5
3F6
330
18
100
AcDbEntity
  8
1
  6
Continuous
100
AcDbCircle
 10
18.65431086913446
 20
352.7073662587078
 30
0.0
 40
0.5
100
AcDbArc
 50
0.0
 51
90.0
  0
LINE
  5
3F7
330
18
100
AcDbEntity
  8
1
  6
Continuous
100
AcDbLine
 10
16.65431086913434
 20
353.2073662587078
 30
0.0
 11
18.15431086913434
 21
353.2073662587078
 31
0.0
  0
ARC
  5
3F8
330
18
100
AcDbEntity
  8
1
  6
Continuous
100
AcDbCircle
 10
15.15431086913446
 20
353.1018149832438
 30
0.0
 40
2.0
100
AcDbArc
 50
146.3099324740213
 51
180.0
  0
LINE
  5
3F9
330
18
100
AcDbEntity
  8
1
  6
Continuous
100
AcDbLine
 10
15.65431086913457
 20
353.2073662587079
 30
0.0
 11
18.65431086913446
 21
353.2073662587079
 31
0.0
  0
ARC
  5
3FA
330
18
100
AcDbEntity
  8
1
  6
Continuous
100
AcDbCircle
 10
19.22467838611044
 20
359.2073662587078
 30
0.0
 40
2.0
100
AcDbArc
 50
90.0
 51
146.3099324740213
  0
LINE
  5
3FB
330
18
100
AcDbEntity
  8
1
  6
Continuous
100
AcDbLine
 10
20.65079303800678
 20
355.9172354135418
 30
0.0
 11
23.65079303800678
 21
356.8172354135418
 31
0.0
  0
LINE
  5
3FD
330
18
100
AcDbEntity
  8
1
  6
Continuous
100
AcDbLine
 10
24.6876442024677
 20
360.8073662587079
 30
0.0
 11
34.15431086913434
 21
353.7073662587079
 31
0.0
  0
ARC
  5
3FE
330
18
100
AcDbEntity
  8
1
  6
Continuous
100
AcDbCircle
 10
27.22879056012357
 20
349.2063351214292
 30
0.0
 40
0.5999999999999998
100
AcDbArc
 50
270.0
 51
90.0
  0
ARC
  5
3FF
330
18
100
AcDbEntity
  8
1
  6
Continuous
100
AcDbCircle
 10
27.22879056012357
 20
351.6303794840203
 30
0.0
 40
0.5999999999999998
100
AcDbArc
 50
270.0
 51
90.0
  0
LINE
  5
400
330
18
100
AcDbEntity
  8
1
  6
Continuous
100
AcDbLine
 10
26.38879056012359
 20
347.4284108691108
 30
0.0
 11
27.82879056012359
 21
346.3484108691108
 31
0.0
  0
LINE
  5
401
330
18
100
AcDbEntity
  8
1
  6
Continuous
100
AcDbLine
 10
25.15431086913423
 20
354.2073662587077
 30
0.0
 11
28.15431086913423
 21
354.2073662587077
 31
0.0
  0
LINE
  5
402
330
18
100
AcDbEntity
  8
1
  6
Continuous
100
AcDbLine
 10
26.02879056012358
 20
348.6063351214293
 30
0.0
 11
27.22879056012357
 21
348.6063351214293
 31
0.0
  0
LINE
  5
403
330
18
100
AcDbEntity
  8
1
  6
Continuous
100
AcDbLine
 10
26.02879056012358
 20
349.8063351214292
 30
0.0
 11
27.22879056012357
 21
349.8063351214292
 31
0.0
  0
ARC
  5
404
330
18
100
AcDbEntity
  8
1
  6
Continuous
100
AcDbCircle
 10
26.02879056012358
 20
349.2063351214292
 30
0.0
 40
0.5999999999999998
100
AcDbArc
 50
90.0
 51
270.0
  0
LINE
  5
405
330
18
100
AcDbEntity
  8
1
  6
Continuous
100
AcDbLine
 10
22.52579303800678
 20
355.3547354135418
 30
0.0
 11
22.52579303800678
 21
356.4797354135417
 31
0.0
  0
LINE
  5
406
330
18
100
AcDbEntity
  8
1
  6
Continuous
100
AcDbLine
 10
20.65079303800678
 20
353.4943491137608
 30
0.0
 11
22.15079303800678
 21
354.3943491137608
 31
0.0
  0
LINE
  5
407
330
18
100
AcDbEntity
  8
1
  6
Continuous
100
AcDbLine
 10
20.65079303800678
 20
353.0632776312271
 30
0.0
 11
23.65079303800678
 21
353.0632776312271
 31
0.0
  0
LINE
  5
408
330
18
100
AcDbEntity
  8
1
  6
Continuous
100
AcDbLine
 10
22.15079303800678
 20
354.3943491137608
 30
0.0
 11
23.65079303800678
 21
354.3943491137608
 31
0.0
  0
LINE
  5
409
330
18
100
AcDbEntity
  8
1
  6
Continuous
100
AcDbLine
 10
22.15079303800678
 20
354.3943491137608
 30
0.0
 11
20.65079303800678
 21
355.2943491137609
 31
0.0
  0
LINE
  5
40A
330
18
100
AcDbEntity
  8
1
  6
Continuous
100
AcDbLine
 10
23.65079303800678
 20
355.0172354135418
 30
0.0
 11
20.65079303800678
 21
355.9172354135418
 31
0.0
  0
ARC
  5
40B
330
18
100
AcDbEntity
  8
1
  6
Continuous
100
AcDbCircle
 10
22.15079303800678
 20
352.6533448136107
 30
0.0
 40
2.199411438678188
100
AcDbArc
 50
237.9946167919175
 51
302.0053832080823
  0
LINE
  5
40C
330
18
100
AcDbEntity
  8
1
  6
Continuous
100
AcDbLine
 10
20.65079303800678
 20
349.7377163082627
 30
0.0
 11
23.65079303800678
 21
349.7377163082627
 31
0.0
  0
LINE
  5
40D
330
18
100
AcDbEntity
  8
1
  6
Continuous
100
AcDbLine
 10
20.65079303800678
 20
347.3377163082627
 30
0.0
 11
23.65079303800678
 21
347.3377163082627
 31
0.0
  0
LINE
  5
40E
330
18
100
AcDbEntity
  8
1
  6
Continuous
100
AcDbLine
 10
20.65079303800678
 20
349.0627163082627
 30
0.0
 11
23.65079303800678
 21
349.0627163082627
 31
0.0
  0
LINE
  5
40F
330
18
100
AcDbEntity
  8
1
  6
Continuous
100
AcDbLine
 10
22.15079303800678
 20
347.3377163082627
 30
0.0
 11
22.15079303800678
 21
349.0627163082627
 31
0.0
  0
LINE
  5
410
330
18
100
AcDbEntity
  8
1
  6
Continuous
100
AcDbLine
 10
22.15079303800678
 20
352.4789333749327
 30
0.0
 11
23.50543080886513
 21
352.4789333749327
 31
0.0
  0
ARC
  5
411
330
18
100
AcDbEntity
  8
1
  6
Continuous
100
AcDbCircle
 10
22.86972521489292
 20
351.4289333749324
 30
0.0
 40
0.781067823113782
100
AcDbArc
 50
304.888268099409
 51
55.11173190059125
  0
ARC
  5
412
330
18
100
AcDbEntity
  8
1
  6
Continuous
100
AcDbCircle
 10
21.43186086112052
 20
351.4289333749324
 30
0.0
 40
0.781067823113782
100
AcDbArc
 50
124.8882680994087
 51
235.1117319005908
  0
ARC
  5
413
330
18
100
AcDbEntity
  8
1
  6
Continuous
100
AcDbCircle
 10
22.29548903058582
 20
350.2023189932621
 30
0.0
 40
2.281208007415607
100
AcDbArc
 50
115.7201063039152
 51
125.0593381436512
  0
LINE
  5
414
330
18
100
AcDbEntity
  8
1
  6
Continuous
100
AcDbLine
 10
22.15079303800678
 20
352.4789333749327
 30
0.0
 11
22.15079303800678
 21
351.4452555582344
 31
0.0
  0
ARC
  5
415
330
18
100
AcDbEntity
  8
1
  6
Continuous
100
AcDbCircle
 10
22.00609704542773
 20
350.2023189932621
 30
0.0
 40
2.281208007415607
100
AcDbArc
 50
54.94066185634871
 51
86.36331323835952
  0
ARC
  5
416
330
18
100
AcDbEntity
  8
1
  6
Continuous
100
AcDbCircle
 10
26.02879056012358
 20
351.6303794840203
 30
0.0
 40
0.5999999999999998
100
AcDbArc
 50
90.0
 51
270.0
  0
LINE
  5
417
330
18
100
AcDbEntity
  8
1
  6
Continuous
100
AcDbLine
 10
26.02879056012358
 20
351.0303794840203
 30
0.0
 11
27.22879056012357
 21
351.0303794840203
 31
0.0
  0
LINE
  5
418
330
18
100
AcDbEntity
  8
1
  6
Continuous
100
AcDbLine
 10
26.02879056012358
 20
352.2303794840203
 30
0.0
 11
27.22879056012357
 21
352.2303794840203
 31
0.0
  0
ARC
  5
419
330
18
100
AcDbEntity
  8
1
  6
Continuous
100
AcDbCircle
 10
26.02879056012358
 20
346.9484108691107
 30
0.0
 40
0.6000000000000007
100
AcDbArc
 50
53.13010235415628
 51
270.0
  0
LINE
  5
41A
330
18
100
AcDbEntity
  8
1
  6
Continuous
100
AcDbLine
 10
27.82879056012359
 20
347.5484108691107
 30
0.0
 11
27.82879056012359
 21
346.3484108691108
 31
0.0
  0
ARC
  5
41C
330
18
100
AcDbEntity
  8
1
  6
Continuous
100
AcDbCircle
 10
23.48764420246788
 20
359.2073662587078
 30
0.0
 40
2.0
100
AcDbArc
 50
53.13010235415664
 51
90.0
  0
LINE
  5
41D
330
18
100
AcDbEntity
  8
1
  6
Continuous
100
AcDbLine
 10
20.15431086913429
 20
357.2073662587078
 30
0.0
 11
24.15431086913423
 21
357.2073662587078
 31
0.0
  0
LINE
  5
41E
330
18
100
AcDbEntity
  8
1
  6
Continuous
100
AcDbLine
 10
41.15431086913424
 20
346.1073662587079
 30
0.0
 11
41.15431086913424
 21
345.007366258708
 31
0.0
  0
ARC
  5
41F
330
18
100
AcDbEntity
  8
1
  6
Continuous
100
AcDbCircle
 10
40.85431086913456
 20
345.0073662587078
 30
0.0
 40
0.3
100
AcDbArc
 50
270.0
 51
0.0
  0
LINE
  5
420
330
18
100
AcDbEntity
  8
1
  6
Continuous
100
AcDbLine
 10
41.15431086913424
 20
346.1073662587079
 30
0.0
 11
58.65431086913424
 21
346.1073662587079
 31
0.0
  0
LINE
  5
421
330
18
100
AcDbEntity
  8
1
  6
Continuous
100
AcDbLine
 10
37.65431086913423
 20
346.8073662587079
 30
0.0
 11
59.35643123004457
 21
346.8073662587079
 31
0.0
  0
LINE
  5
422
330
18
100
AcDbEntity
  8
1
  6
Continuous
100
AcDbLine
 10
37.65431086913423
 20
348.0073662587078
 30
0.0
 11
60.56006613446236
 21
348.0073662587078
 31
0.0
  0
LINE
  5
423
330
18
100
AcDbEntity
  8
1
  6
Continuous
100
AcDbLine
 10
37.65431086913423
 20
350.1073662587079
 30
0.0
 11
59.99938030783845
 21
350.1073662587079
 31
0.0
  0
LINE
  5
424
330
18
100
AcDbEntity
  8
1
  6
Continuous
100
AcDbLine
 10
41.15431086913424
 20
352.3073662587078
 30
0.0
 11
57.65431086913423
 21
352.3073662587078
 31
0.0
  0
LINE
  5
425
330
18
100
AcDbEntity
  8
1
  6
Continuous
100
AcDbLine
 10
37.65431086913423
 20
352.6073662587079
 30
0.0
 11
41.15431086913424
 21
352.6073662587079
 31
0.0
  0
ARC
  5
426
330
18
100
AcDbEntity
  8
1
  6
Continuous
100
AcDbCircle
 10
40.85431086913456
 20
353.4073662587079
 30
0.0
 40
0.3
100
AcDbArc
 50
0.0
 51
90.0
  0
LINE
  5
427
330
18
100
AcDbEntity
  8
1
  6
Continuous
100
AcDbLine
 10
37.65431086913423
 20
348.0073662587078
 30
0.0
 11
37.65431086913423
 21
346.8073662587079
 31
0.0
  0
LINE
  5
428
330
18
100
AcDbEntity
  8
1
  6
Continuous
100
AcDbLine
 10
37.65431086913423
 20
352.6073662587079
 30
0.0
 11
37.65431086913423
 21
350.1073662587079
 31
0.0
  0
LINE
  5
429
330
18
100
AcDbEntity
  8
1
  6
Continuous
100
AcDbLine
 10
41.15431086913424
 20
353.4073662587079
 30
0.0
 11
41.15431086913424
 21
352.3073662587078
 31
0.0
  0
LINE
  5
42A
330
18
100
AcDbEntity
  8
1
  6
Continuous
100
AcDbLine
 10
57.65431086913423
 20
352.3073662587078
 30
0.0
 11
60.99640533813062
 21
349.1720186607046
 31
0.0
  0
ARC
  5
42B
330
18
100
AcDbEntity
  8
1
  6
Continuous
100
AcDbCircle
 10
60.65431086913446
 20
348.8073662587078
 30
0.0
 40
0.5
100
AcDbArc
 50
314.9133543439027
 51
46.82814494214003
  0
LINE
  5
42C
330
18
100
AcDbEntity
  8
1
  6
Continuous
100
AcDbLine
 10
58.65431086913424
 20
346.1073662587078
 30
0.0
 11
61.00732919384421
 21
348.4532786107745
 31
0.0
  0
ARC
  5
432
330
18
100
AcDbEntity
  8
5
  6
PHANTOM
 48
0.5
100
AcDbCircle
 10
36.79541204000896
 20
233.1194953732531
 30
0.0
 40
10.21051465929038
100
AcDbArc
 50
142.6366517231774
 51
217.3226263100324
  0
ARC
  5
43B
330
18
100
AcDbEntity
  8
1
  6
Continuous
100
AcDbCircle
 10
35.74855849271614
 20
232.0733847533396
 30
0.0
 40
10.21051532818241
100
AcDbArc
 50
52.6366545869952
 51
127.3226234462152
  0
LINE
  5
6D2
330
18
100
AcDbEntity
  8
1
  6
Continuous
100
AcDbLine
 10
210.0966669472983
 20
38.80129509838531
 30
0.0
 11
210.0966669472983
 21
66.80129509838508
 31
0.0
  0
LINE
  5
6D3
330
18
100
AcDbEntity
  8
1
  6
Continuous
100
AcDbLine
 10
206.0966669473018
 20
43.93379450945945
 30
0.0
 11
206.0966669473018
 21
61.66879568740563
 31
0.0
  0
LINE
  5
6D4
330
18
100
AcDbEntity
  8
1
  6
Continuous
100
AcDbLine
 10
208.5966669473018
 20
44.00199880617384
 30
0.0
 11
208.5966669473018
 21
61.60059139069318
 31
0.0
  0
LINE
  5
6D5
330
18
100
AcDbEntity
  8
1
  6
Continuous
100
AcDbLine
 10
203.0966669473018
 20
44.40129509834537
 30
0.0
 11
203.0966669473018
 21
61.20129509834538
 31
0.0
  0
LINE
  5
6D6
330
18
100
AcDbEntity
  8
1
  6
Continuous
100
AcDbLine
 10
218.6966669473018
 20
61.80129509845432
 30
0.0
 11
218.6966669473018
 21
43.80129509829936
 31
0.0
  0
ARC
  5
6D7
330
18
100
AcDbEntity
  8
1
  6
Continuous
100
AcDbCircle
 10
260.0966669473018
 20
52.80129509843782
 30
0.0
 40
60.0
100
AcDbArc
 50
171.8148219823014
 51
188.1851780178827
  0
LINE
  5
6DC
330
18
100
AcDbEntity
  8
1
  6
Continuous
100
AcDbLine
 10
204.8161796582572
 20
43.40129509834382
 30
0.0
 11
201.697694353613
 21
43.40129509834382
 31
0.0
  0
ARC
  5
6DD
330
18
100
AcDbEntity
  8
1
  6
Continuous
100
AcDbCircle
 10
202.0966669473018
 20
44.40129509834537
 30
0.0
 40
1.0
100
AcDbArc
 50
270.0
 51
0.0
  0
ARC
  5
6DE
330
18
100
AcDbEntity
  8
1
  6
Continuous
100
AcDbCircle
 10
201.697694353613
 20
44.40129509834388
 30
0.0
 40
1.0
100
AcDbArc
 50
188.1851780178827
 51
270.0
  0
LINE
  5
6E0
330
18
100
AcDbEntity
  8
1
  6
Continuous
100
AcDbLine
 10
208.563324349533
 20
38.80129509838496
 30
0.0
 11
211.0966669472984
 21
38.80129509838553
 31
0.0
  0
ARC
  5
6E2
330
18
100
AcDbEntity
  8
1
  6
Continuous
100
AcDbCircle
 10
204.8161796582572
 20
44.40129509834388
 30
0.0
 40
1.0
100
AcDbArc
 50
270.0
 51
276.7539945882274
  0
ARC
  5
6E3
330
18
100
AcDbEntity
  8
1
  6
Continuous
100
AcDbCircle
 10
207.5966669473016
 20
44.00199880617384
 30
0.0
 40
1.0
100
AcDbArc
 50
271.5627397038363
 51
0.0
  0
ARC
  5
6E4
330
18
100
AcDbEntity
  8
1
  6
Continuous
100
AcDbCircle
 10
205.0966669473016
 20
43.93379450945945
 30
0.0
 40
1.0
100
AcDbArc
 50
271.5627397038363
 51
0.0
  0
LINE
  5
6E5
330
18
100
AcDbEntity
  8
1
  6
Continuous
100
AcDbLine
 10
206.0142235820662
 20
43.53618940134384
 30
0.0
 11
204.9337862908879
 21
43.40823483835885
 31
0.0
  0
ARC
  5
6E8
330
18
100
AcDbEntity
  8
1
  6
Continuous
100
AcDbCircle
 10
216.1966669473018
 20
43.80129509829936
 30
0.0
 40
2.5
100
AcDbArc
 50
270.0
 51
0.0
  0
LINE
  5
6EB
330
18
100
AcDbEntity
  8
1
  6
Continuous
100
AcDbLine
 10
211.0966669472984
 20
41.30129509829936
 30
0.0
 11
222.0966669473693
 21
41.30129509829936
 31
0.0
  0
LINE
  5
6ED
330
18
100
AcDbEntity
  8
1
  6
Continuous
100
AcDbLine
 10
213.5966669472983
 20
56.30129509842806
 30
0.0
 11
211.0966669472984
 21
56.30129509842863
 31
0.0
  0
LINE
  5
6EF
330
18
100
AcDbEntity
  8
1
  6
Continuous
100
AcDbLine
 10
213.5966669472983
 20
49.30129509842806
 30
0.0
 11
211.0966669472984
 21
49.30129509842863
 31
0.0
  0
LINE
  5
6F0
330
18
100
AcDbEntity
  8
4
  6
CENTER
100
AcDbLine
 10
231.8576650212767
 20
52.80129509841294
 30
0.0
 11
195.8194970177468
 21
52.80129509844122
 31
0.0
  0
LINE
  5
6F1
330
18
100
AcDbEntity
  8
1
  6
Continuous
100
AcDbLine
 10
206.0966669473018
 20
45.40129509834383
 30
0.0
 11
203.5966669473018
 21
45.40129509834383
 31
0.0
  0
ARC
  5
6F2
330
18
100
AcDbEntity
  8
1
  6
Continuous
100
AcDbCircle
 10
203.5966669473018
 20
45.90129509834389
 30
0.0
 40
0.5
100
AcDbArc
 50
180.0
 51
270.0
  0
LINE
  5
6F3
330
18
100
AcDbEntity
  8
1
  6
Continuous
100
AcDbLine
 10
204.8161796597974
 20
62.20129509834372
 30
0.0
 11
201.6976943535858
 21
62.20129509834372
 31
0.0
  0
ARC
  5
6F4
330
18
100
AcDbEntity
  8
1
  6
Continuous
100
AcDbCircle
 10
202.0966669473018
 20
61.20129509834538
 30
0.0
 40
1.0
100
AcDbArc
 50
0.0
 51
90.0
  0
ARC
  5
6F5
330
18
100
AcDbEntity
  8
1
  6
Continuous
100
AcDbCircle
 10
201.6976943535858
 20
61.20129509834374
 30
0.0
 40
1.0
100
AcDbArc
 50
90.0
 51
171.8148219823014
  0
ARC
  5
6F6
330
18
100
AcDbEntity
  8
1
  6
Continuous
100
AcDbCircle
 10
207.5966669473016
 20
61.60059139069318
 30
0.0
 40
1.0
100
AcDbArc
 50
0.0
 51
88.43726029620759
  0
ARC
  5
6F7
330
18
100
AcDbEntity
  8
1
  6
Continuous
100
AcDbCircle
 10
205.0966669473016
 20
61.66879568740563
 30
0.0
 40
1.0
100
AcDbArc
 50
0.0
 51
88.43726029620759
  0
LINE
  5
6F8
330
18
100
AcDbEntity
  8
1
  6
Continuous
100
AcDbLine
 10
206.0966669473018
 20
60.20129509834371
 30
0.0
 11
203.5966669473018
 21
60.20129509834371
 31
0.0
  0
ARC
  5
6F9
330
18
100
AcDbEntity
  8
1
  6
Continuous
100
AcDbCircle
 10
204.8161796597974
 20
61.20129509834374
 30
0.0
 40
1.0
100
AcDbArc
 50
83.24600541168228
 51
90.0
  0
LINE
  5
6FA
330
18
100
AcDbEntity
  8
1
  6
Continuous
100
AcDbLine
 10
206.0142235820648
 20
62.06640079552453
 30
0.0
 11
204.9337862924296
 21
62.19435535832854
 31
0.0
  0
LINE
  5
6FD
330
18
100
AcDbEntity
  8
1
  6
Continuous
100
AcDbLine
 10
204.524742604127
 20
62.68477084331186
 30
0.0
 11
207.6239385188658
 21
62.60021945221621
 31
0.0
  0
ARC
  5
6FE
330
18
100
AcDbEntity
  8
1
  6
Continuous
100
AcDbCircle
 10
203.5966669473018
 20
59.70129509834372
 30
0.0
 40
0.5
100
AcDbArc
 50
90.0
 51
180.0
  0
LINE
  5
6FF
330
18
100
AcDbEntity
  8
1
  6
Continuous
100
AcDbLine
 10
213.5966669472983
 20
49.30129509842806
 30
0.0
 11
213.5966669472983
 21
56.30129509842806
 31
0.0
  0
LINE
  5
700
330
18
100
AcDbEntity
  8
1
  6
Continuous
100
AcDbLine
 10
214.0966669472983
 20
55.80129509842805
 30
0.0
 11
213.5966669472983
 21
56.30129509842806
 31
0.0
  0
LINE
  5
701
330
18
100
AcDbEntity
  8
1
  6
Continuous
100
AcDbLine
 10
214.0966669472983
 20
55.80129509842817
 30
0.0
 11
214.0966669472983
 21
49.80129509842817
 31
0.0
  0
LINE
  5
702
330
18
100
AcDbEntity
  8
1
  6
Continuous
100
AcDbLine
 10
213.5966669472983
 20
49.30129509842806
 30
0.0
 11
214.0966669472983
 21
49.80129509842806
 31
0.0
  0
ARC
  5
703
330
18
100
AcDbEntity
  8
1
  6
Continuous
100
AcDbCircle
 10
216.1966669473018
 20
61.80129509845436
 30
0.0
 40
2.5
100
AcDbArc
 50
0.0
 51
90.0
  0
LINE
  5
706
330
18
100
AcDbEntity
  8
1
  6
Continuous
100
AcDbLine
 10
211.0966669472984
 20
64.30129509846387
 30
0.0
 11
222.0966669473635
 21
64.30129509844508
 31
0.0
  0
LINE
  5
707
330
18
100
AcDbEntity
  8
1
  6
Continuous
100
AcDbLine
 10
208.5633243495553
 20
66.80129509838486
 30
0.0
 11
211.0966669472984
 21
66.80129509838522
 31
0.0
  0
ARC
  5
91F
330
18
100
AcDbEntity
  8
1
  6
Continuous
100
AcDbCircle
 10
204.5301969184398
 20
62.88469645561646
 30
0.0
 40
0.2
100
AcDbArc
 50
168.3423431340816
 51
268.4372602962141
  0
ARC
  5
973
330
18
100
AcDbEntity
  8
5
  6
PHANTOM
 48
0.5
100
AcDbCircle
 10
524.3583366391368
 20
166.3106099801446
 30
0.0
 40
10.0
100
AcDbArc
 50
45.00000000000028
 51
130.9827677657666
  0
LINE
  5
974
330
18
100
AcDbEntity
  8
5
  6
PHANTOM
100
AcDbLine
 10
471.4211255693363
 20
237.6325973607953
 30
0.0
 11
540.7755475074593
 21
168.2781754226724
 31
0.0
  0
LINE
  5
975
330
18
100
AcDbEntity
  8
1
  6
Continuous
100
AcDbLine
 10
463.1172034485175
 20
258.1198672574803
 30
0.0
 11
463.1172034485175
 21
139.1198672574805
 31
0.0
  0
LINE
  5
976
330
18
100
AcDbEntity
  8
1
  6
Continuous
100
AcDbLine
 10
470.1172034485178
 20
250.8481093930087
 30
0.0
 11
470.1172034485178
 21
146.3916251219684
 31
0.0
  0
LINE
  5
978
330
18
100
AcDbEntity
  8
1
  6
Continuous
100
AcDbLine
 10
461.1172034485175
 20
218.1673855610245
 30
0.0
 11
461.1172034485175
 21
182.1198672574924
 31
0.0
  0
LINE
  5
979
330
18
100
AcDbEntity
  8
1
  6
Continuous
100
AcDbLine
 10
473.1172034485178
 20
232.7018313729189
 30
0.0
 11
473.1172034485178
 21
134.6198672574796
 31
0.0
  0
LINE
  5
97A
330
18
100
AcDbEntity
  8
5
  6
PHANTOM
100
AcDbLine
 10
473.1172034485178
 20
223.4914401327308
 30
0.0
 11
501.3207571605047
 21
195.2878864207438
 31
0.0
  0
LINE
  5
97B
330
18
100
AcDbEntity
  8
5
  6
PHANTOM
100
AcDbLine
 10
473.1172034485178
 20
224.9056536951039
 30
0.0
 11
502.0260958984382
 21
195.9967612451831
 31
0.0
  0
ARC
  5
97C
330
18
100
AcDbEntity
  8
1
  6
Continuous
100
AcDbCircle
 10
458.1172034485176
 20
182.1198672574924
 30
0.0
 40
2.999999999999971
100
AcDbArc
 50
270.0
 51
0.000000000000007
  0
LINE
  5
97D
330
18
100
AcDbEntity
  8
1
  6
Continuous
100
AcDbLine
 10
459.6172034485175
 20
149.6198672574806
 30
0.0
 11
462.1172034485176
 21
149.6198672574804
 31
0.0
  0
ARC
  5
97E
330
18
100
AcDbEntity
  8
1
  6
Continuous
100
AcDbCircle
 10
466.3172034485171
 20
233.1198672574744
 30
0.0
 40
81.5
100
AcDbArc
 50
265.5348706914208
 51
267.0460255853238
  0
LINE
  5
97F
330
18
100
AcDbEntity
  8
1
  6
Continuous
100
AcDbLine
 10
459.6172034485175
 20
142.6198672574806
 30
0.0
 11
462.1172034485176
 21
142.6198672574804
 31
0.0
  0
LINE
  5
980
330
18
100
AcDbEntity
  8
4
  6
CENTER
 48
0.5
100
AcDbLine
 10
455.6802970289393
 20
146.1198672574808
 30
0.0
 11
467.2701505982184
 21
146.1198672574803
 31
0.0
  0
LINE
  5
981
330
18
100
AcDbEntity
  8
1
  6
Continuous
100
AcDbLine
 10
470.1172034485178
 20
134.6198672574796
 30
0.0
 11
470.1172034485178
 21
144.7939410207125
 31
0.0
  0
ARC
  5
982
330
18
100
AcDbEntity
  8
1
  6
Continuous
100
AcDbCircle
 10
471.1172034485175
 20
134.6198672574796
 30
0.0
 40
1.0
100
AcDbArc
 50
180.0
 51
270.0
  0
ARC
  5
983
330
18
100
AcDbEntity
  8
1
  6
Continuous
100
AcDbCircle
 10
472.1172034485176
 20
134.6198672574796
 30
0.0
 40
1.0
100
AcDbArc
 50
270.0
 51
0.000000000000007
  0
LINE
  5
984
330
18
100
AcDbEntity
  8
1
  6
Continuous
100
AcDbLine
 10
472.1172034485176
 20
133.6198672574796
 30
0.0
 11
471.1172034485175
 21
133.6198672574796
 31
0.0
  0
ARC
  5
985
330
18
100
AcDbEntity
  8
1
  6
Continuous
100
AcDbCircle
 10
442.4496263855708
 20
162.1979635212241
 30
0.0
 40
32.0
100
AcDbArc
 50
314.5860766758541
 51
329.3440375942918
  0
ARC
  5
986
330
18
100
AcDbEntity
  8
1
  6
Continuous
100
AcDbCircle
 10
469.1172034485178
 20
146.3916251219684
 30
0.0
 40
1.0
100
AcDbArc
 50
329.3440375942917
 51
0.000000000000007
  0
ARC
  5
987
330
18
100
AcDbEntity
  8
1
  6
Continuous
100
AcDbCircle
 10
460.1172034485176
 20
144.8373095238001
 30
0.0
 40
10.0
100
AcDbArc
 50
0.000000000000007
 51
6.80818328153833
  0
ARC
  5
989
330
18
100
AcDbEntity
  8
1
  6
Continuous
100
AcDbCircle
 10
464.2110065203223
 20
140.1198672574872
 30
0.0
 40
1.0
100
AcDbArc
 50
270.0
 51
314.5860766758541
  0
LINE
  5
98A
330
18
100
AcDbEntity
  8
1
  6
Continuous
100
AcDbLine
 10
462.1172034485176
 20
139.1198672574804
 30
0.0
 11
464.2110065203223
 21
139.1198672574805
 31
0.0
  0
ARC
  5
98B
330
18
100
AcDbEntity
  8
5
  6
PHANTOM
 48
0.5
100
AcDbCircle
 10
497.0781164733853
 20
191.0452457336244
 30
0.0
 40
6.0
100
AcDbArc
 50
316.4325437375671
 51
45.00000000000028
  0
ARC
  5
98C
330
18
100
AcDbEntity
  8
5
  6
PHANTOM
 48
0.5
100
AcDbCircle
 10
497.783455211319
 20
191.7541205580638
 30
0.0
 40
6.0
100
AcDbArc
 50
314.9999999999997
 51
45.00000000000028
  0
LINE
  5
98D
330
18
100
AcDbEntity
  8
5
  6
PHANTOM
 48
0.5
100
AcDbLine
 10
501.4604104734892
 20
184.1173673212493
 30
0.0
 11
511.9071247748125
 21
173.6706530199259
 31
0.0
  0
ARC
  5
98E
330
18
100
AcDbEntity
  8
5
  6
PHANTOM
 48
0.5
100
AcDbCircle
 10
514.7355518995587
 20
176.4990801446721
 30
0.0
 40
4.0
100
AcDbArc
 50
225.0000000000006
 51
310.5348706914206
  0
ARC
  5
98F
330
18
100
AcDbEntity
  8
5
  6
PHANTOM
 48
0.5
100
AcDbCircle
 10
466.3172034485175
 20
233.1198672574771
 30
0.0
 40
78.5
100
AcDbArc
 50
310.5348706914206
 51
310.9827677657666
  0
LINE
  5
990
330
18
100
AcDbEntity
  8
5
  6
PHANTOM
 48
0.5
100
AcDbLine
 10
501.4604104734892
 20
186.9457944459954
 30
0.0
 11
502.0260958984382
 21
187.5114798709446
 31
0.0
  0
ARC
  5
991
330
18
100
AcDbEntity
  8
5
  6
PHANTOM
 48
0.5
100
AcDbCircle
 10
502.8746240358623
 20
185.5315808836223
 30
0.0
 40
2.0
100
AcDbArc
 50
136.4325437375667
 51
225.0000000000006
  0
LINE
  5
992
330
18
100
AcDbEntity
  8
1
  6
Continuous
100
AcDbLine
 10
454.5172034485175
 20
176.1198672574925
 30
0.0
 11
454.5172034485175
 21
156.2002308992405
 31
0.0
  0
LINE
  5
993
330
18
100
AcDbEntity
  8
1
  6
Continuous
100
AcDbLine
 10
459.6172034485176
 20
149.6198672574806
 30
0.0
 11
459.6172034485176
 21
142.6198672574806
 31
0.0
  0
LINE
  5
994
330
18
100
AcDbEntity
  8
1
  6
Continuous
100
AcDbLine
 10
459.1172034485175
 20
143.1198672574808
 30
0.0
 11
459.1172034485175
 21
149.1198672574805
 31
0.0
  0
LINE
  5
995
330
18
100
AcDbEntity
  8
1
  6
Continuous
100
AcDbLine
 10
459.1172034485175
 20
143.1198672574805
 30
0.0
 11
459.6172034485175
 21
142.6198672574806
 31
0.0
  0
ARC
  5
996
330
18
100
AcDbEntity
  8
1
  6
Continuous
100
AcDbCircle
 10
457.5172034485175
 20
156.2002308992405
 30
0.0
 40
3.0
100
AcDbArc
 50
180.0
 51
221.4096221092853
  0
LINE
  5
997
330
18
100
AcDbEntity
  8
1
  6
Continuous
100
AcDbLine
 10
459.6172034485175
 20
149.6198672574806
 30
0.0
 11
459.1172034485175
 21
149.1198672574806
 31
0.0
  0
ARC
  5
998
330
18
100
AcDbEntity
  8
1
  6
Continuous
100
AcDbCircle
 10
460.5172034485171
 20
158.845982210306
 30
0.0
 40
7.0
100
AcDbArc
 50
221.4096221092848
 51
265.5348706914208
  0
ARC
  5
999
330
18
100
AcDbEntity
  8
1
  6
Continuous
100
AcDbCircle
 10
457.5172034485175
 20
176.1198672574925
 30
0.0
 40
3.0
100
AcDbArc
 50
90.0
 51
180.0
  0
LINE
  5
99A
330
18
100
AcDbEntity
  8
1
  6
Continuous
100
AcDbLine
 10
457.5172034485175
 20
179.1198672574926
 30
0.0
 11
458.1172034485176
 21
179.1198672574926
 31
0.0
  0
LINE
  5
99B
330
18
100
AcDbEntity
  8
1
  6
Continuous
100
AcDbLine
 10
459.6172034485175
 20
254.6198672574805
 30
0.0
 11
462.1172034485176
 21
254.6198672574803
 31
0.0
  0
LINE
  5
99C
330
18
100
AcDbEntity
  8
1
  6
Continuous
100
AcDbLine
 10
459.6172034485176
 20
247.6198672574805
 30
0.0
 11
462.1172034485176
 21
247.6198672574803
 31
0.0
  0
ARC
  5
99D
330
18
100
AcDbEntity
  8
1
  6
Continuous
100
AcDbCircle
 10
462.1172034485176
 20
244.6198672574777
 30
0.0
 40
1.0
100
AcDbArc
 50
90.0
 51
180.0
  0
LINE
  5
99E
330
18
100
AcDbEntity
  8
1
  6
Continuous
100
AcDbLine
 10
462.1172034485176
 20
245.6198672574779
 30
0.0
 11
448.1172034485178
 21
245.619867257481
 31
0.0
  0
LINE
  5
99F
330
18
100
AcDbEntity
  8
4
  6
CENTER
100
AcDbLine
 10
476.0993801710514
 20
233.1198672574748
 30
0.0
 11
440.8954130987853
 21
233.1198672574824
 31
0.0
  0
LINE
  5
9A0
330
18
100
AcDbEntity
  8
4
  6
CENTER
 48
0.5
100
AcDbLine
 10
455.387714848385
 20
251.1198672574805
 30
0.0
 11
467.2701505982181
 21
251.1198672574804
 31
0.0
  0
ARC
  5
9A1
330
18
100
AcDbEntity
  8
1
  6
Continuous
100
AcDbCircle
 10
442.4496263855749
 20
235.0417709937461
 30
0.0
 40
32.0
100
AcDbArc
 50
30.6559624057232
 51
45.41392332415525
  0
ARC
  5
9A2
330
18
100
AcDbEntity
  8
1
  6
Continuous
100
AcDbCircle
 10
443.1172034485176
 20
232.7018313729189
 30
0.0
 40
30.0
100
AcDbArc
 50
0.000000000000007
 51
14.83511158197576
  0
LINE
  5
9A3
330
18
100
AcDbEntity
  8
5
  6
PHANTOM
 48
0.5
100
AcDbLine
 10
473.1172034485178
 20
223.7198672574719
 30
0.0
 11
474.3029898861508
 21
223.719867257471
 31
0.0
  0
ARC
  5
9A4
330
18
100
AcDbEntity
  8
1
  6
Continuous
100
AcDbCircle
 10
466.3172034485178
 20
233.119867257477
 30
0.0
 40
9.4
100
AcDbArc
 50
58.76707098448687
 51
66.15552997649496
  0
ARC
  5
9A5
330
18
100
AcDbEntity
  8
1
  6
Continuous
100
AcDbCircle
 10
469.1172034485178
 20
237.737225809723
 30
0.0
 40
4.0
100
AcDbArc
 50
41.40962210927095
 51
58.76707098448687
  0
ARC
  5
9A6
330
18
100
AcDbEntity
  8
5
  6
PHANTOM
 48
0.5
100
AcDbCircle
 10
450.2079221337401
 20
216.4193939251989
 30
0.0
 40
30.0
100
AcDbArc
 50
45.00000000000028
 51
48.42171808809117
  0
ARC
  5
9A7
330
18
100
AcDbEntity
  8
1
  6
Continuous
100
AcDbCircle
 10
469.1172034485178
 20
250.8481093930087
 30
0.0
 40
1.0
100
AcDbArc
 50
0.000000000000007
 51
30.65596240572231
  0
ARC
  5
9A8
330
18
100
AcDbEntity
  8
1
  6
Continuous
100
AcDbCircle
 10
464.2110065203223
 20
257.1198672574871
 30
0.0
 40
1.0
100
AcDbArc
 50
45.41392332415525
 51
90.0
  0
LINE
  5
9A9
330
18
100
AcDbEntity
  8
1
  6
Continuous
100
AcDbLine
 10
462.1172034485176
 20
258.1198672574803
 30
0.0
 11
464.2110065203223
 21
258.1198672574803
 31
0.0
  0
LINE
  5
9AA
330
18
100
AcDbEntity
  8
1
  6
Continuous
100
AcDbLine
 10
459.6172034485176
 20
254.6198672574803
 30
0.0
 11
459.1172034485175
 21
254.1198672574803
 31
0.0
  0
LINE
  5
9AB
330
18
100
AcDbEntity
  8
1
  6
Continuous
100
AcDbLine
 10
459.6172034485176
 20
254.6198672574805
 30
0.0
 11
459.6172034485176
 21
247.6198672574805
 31
0.0
  0
LINE
  5
9AC
330
18
100
AcDbEntity
  8
1
  6
Continuous
100
AcDbLine
 10
449.7172034485176
 20
241.5801212953081
 30
0.0
 11
449.7172034485176
 21
223.3698672574794
 31
0.0
  0
LINE
  5
9AD
330
18
100
AcDbEntity
  8
1
  6
Continuous
100
AcDbLine
 10
450.1172034485175
 20
243.8197416285583
 30
0.0
 11
450.1172034485175
 21
221.6198672574803
 31
0.0
  0
LINE
  5
9AE
330
18
100
AcDbEntity
  8
1
  6
Continuous
100
AcDbLine
 10
449.6172034485183
 20
242.8626530501412
 30
0.0
 11
449.6172034485183
 21
221.8698672575788
 31
0.0
  0
LINE
  5
9AF
330
18
100
AcDbEntity
  8
1
  6
Continuous
100
AcDbLine
 10
445.6172034485184
 20
238.119867257574
 30
0.0
 11
445.6172034485184
 21
228.1198672575721
 31
0.0
  0
LINE
  5
9B0
330
18
100
AcDbEntity
  8
1
  6
Continuous
100
AcDbLine
 10
447.6172034485182
 20
242.8626530501441
 30
0.0
 11
447.6172034485182
 21
221.8698672575802
 31
0.0
  0
LINE
  5
9B1
330
18
100
AcDbEntity
  8
1
  6
Continuous
100
AcDbLine
 10
445.6172034485189
 20
232.4630130081466
 30
0.0
 11
447.6172034485182
 21
232.4630130081482
 31
0.0
  0
LINE
  5
9B2
330
18
100
AcDbEntity
  8
1
  6
Continuous
100
AcDbLine
 10
445.6172034485211
 20
228.1198672575723
 30
0.0
 11
447.6172034485182
 21
228.119867257574
 31
0.0
  0
LINE
  5
9B3
330
18
100
AcDbEntity
  8
1
  6
Continuous
100
AcDbLine
 10
456.8943076833709
 20
222.3902813261712
 30
0.0
 11
461.1172034485164
 21
218.1673855610255
 31
0.0
  0
LINE
  5
9B4
330
18
100
AcDbEntity
  8
1
  6
Continuous
100
AcDbLine
 10
458.6647217520635
 20
220.6198672574787
 30
0.0
 11
451.1172034485174
 21
220.6198672574803
 31
0.0
  0
LINE
  5
9B5
330
18
100
AcDbEntity
  8
1
  6
Continuous
100
AcDbLine
 10
447.6172034485182
 20
221.8698672575802
 30
0.0
 11
449.6172034485189
 21
221.869867257579
 31
0.0
  0
ARC
  5
9B6
330
18
100
AcDbEntity
  8
1
  6
Continuous
100
AcDbCircle
 10
451.1172034485175
 20
221.6198672574803
 30
0.0
 40
1.0
100
AcDbArc
 50
180.0
 51
270.0
  0
ARC
  5
9B7
330
18
100
AcDbEntity
  8
1
  6
Continuous
100
AcDbCircle
 10
457.6014144645573
 20
223.0973881073578
 30
0.0
 40
1.0
100
AcDbArc
 50
180.0
 51
224.9999999999995
  0
LINE
  5
9B8
330
18
100
AcDbEntity
  8
1
  6
Continuous
100
AcDbLine
 10
456.6014144645573
 20
232.1198672574869
 30
0.0
 11
456.6014144645573
 21
223.0973881073578
 31
0.0
  0
LINE
  5
9B9
330
18
100
AcDbEntity
  8
1
  6
Continuous
100
AcDbLine
 10
449.7172034485176
 20
227.2198672575714
 30
0.0
 11
449.6172034485183
 21
227.2198672575714
 31
0.0
  0
ARC
  5
9BC
330
18
100
AcDbEntity
  8
1
  6
Continuous
100
AcDbCircle
 10
449.9734534485177
 20
223.3698672574794
 30
0.0
 40
0.2562500000000227
100
AcDbArc
 50
180.0
 51
257.3196165081744
  0
LINE
  5
9BD
330
18
100
AcDbEntity
  8
1
  6
Continuous
100
AcDbLine
 10
450.1172034485175
 20
223.1198672574794
 30
0.0
 11
449.9172034485177
 21
223.1198672574794
 31
0.0
  0
LINE
  5
9BE
330
18
100
AcDbEntity
  8
1
  6
Continuous
100
AcDbLine
 10
445.6172034485158
 20
238.119867257574
 30
0.0
 11
447.6172034485182
 21
238.1198672575756
 31
0.0
  0
LINE
  5
9BF
330
18
100
AcDbEntity
  8
1
  6
Continuous
100
AcDbLine
 10
445.6172034485182
 20
233.7767215070218
 30
0.0
 11
447.6172034485182
 21
233.7767215070234
 31
0.0
  0
LINE
  5
9C0
330
18
100
AcDbEntity
  8
1
  6
Continuous
100
AcDbLine
 10
447.9172034485176
 20
245.4198672574809
 30
0.0
 11
447.9172034485176
 21
242.8626530501441
 31
0.0
  0
LINE
  5
9C1
330
18
100
AcDbEntity
  8
1
  6
Continuous
100
AcDbLine
 10
461.1172034485175
 20
244.6198672574777
 30
0.0
 11
461.1172034485175
 21
234.119867257502
 31
0.0
  0
LINE
  5
9C2
330
18
100
AcDbEntity
  8
1
  6
Continuous
100
AcDbLine
 10
447.6172034485182
 20
242.8626530501441
 30
0.0
 11
449.6172034485183
 21
242.8626530501419
 31
0.0
  0
LINE
  5
9C5
330
18
100
AcDbEntity
  8
1
  6
Continuous
100
AcDbLine
 10
449.9172034485176
 20
241.780121295308
 30
0.0
 11
450.1172034485175
 21
241.780121295308
 31
0.0
  0
ARC
  5
9C6
330
18
100
AcDbEntity
  8
1
  6
Continuous
100
AcDbCircle
 10
449.9172034485176
 20
241.5801212953081
 30
0.0
 40
0.1999999999999886
100
AcDbArc
 50
90.0
 51
180.0
  0
LINE
  5
9C7
330
18
100
AcDbEntity
  8
1
  6
Continuous
100
AcDbLine
 10
449.7172034485176
 20
239.0198672575713
 30
0.0
 11
449.6172034485183
 21
239.0198672575713
 31
0.0
  0
LINE
  5
9C9
330
18
100
AcDbEntity
  8
1
  6
Continuous
100
AcDbLine
 10
459.1172034485175
 20
248.1198672574803
 30
0.0
 11
459.6172034485176
 21
247.6198672574803
 31
0.0
  0
LINE
  5
9CA
330
18
100
AcDbEntity
  8
1
  6
Continuous
100
AcDbLine
 10
459.1172034485175
 20
248.1198672574805
 30
0.0
 11
459.1172034485175
 21
254.1198672574805
 31
0.0
  0
LINE
  5
9CB
330
18
100
AcDbEntity
  8
1
  6
Continuous
100
AcDbLine
 10
448.1172034485178
 20
243.8197416285554
 30
0.0
 11
450.1172034485175
 21
243.8197416285583
 31
0.0
  0
ARC
  5
9CC
330
18
100
AcDbEntity
  8
1
  6
Continuous
100
AcDbCircle
 10
448.1172034485175
 20
244.0197416285556
 30
0.0
 40
0.2
100
AcDbArc
 50
180.0
 51
270.0
  0
LINE
  5
9CE
330
18
100
AcDbEntity
  8
5
  6
PHANTOM
 48
0.5
100
AcDbLine
 10
538.6542271638997
 20
166.1568550791128
 30
0.0
 11
531.4600706136254
 21
173.3510116293869
 31
0.0
  0
ARC
  5
9CF
330
18
100
AcDbEntity
  8
5
  6
PHANTOM
 48
0.5
100
AcDbCircle
 10
539.3613339450862
 20
166.8639618602993
 30
0.0
 40
1.0
100
AcDbArc
 50
225.0000000000006
 51
314.9999999999997
  0
ARC
  5
9D0
330
18
100
AcDbEntity
  8
5
  6
PHANTOM
 48
0.5
100
AcDbCircle
 10
540.0684407262726
 20
167.5710686414856
 30
0.0
 40
1.0
100
AcDbArc
 50
314.9999999999997
 51
45.00000000000028
  0
LINE
  5
9D1
330
18
100
AcDbEntity
  8
5
  6
PHANTOM
 48
0.5
100
AcDbLine
 10
540.7755475074593
 20
166.8639618602993
 30
0.0
 11
540.0684407262726
 21
166.1568550791128
 31
0.0
  0
LINE
  5
9D2
330
18
100
AcDbEntity
  8
5
  6
PHANTOM
 48
0.5
100
AcDbLine
 10
531.4600706136254
 20
173.3510116293869
 30
0.0
 11
531.4294044510023
 21
173.38167779201
 31
0.0
  0
LINE
  5
AF7
330
18
100
AcDbEntity
  8
1
  6
Continuous
100
AcDbLine
 10
204.5247426041114
 20
42.91781935355698
 30
0.0
 11
207.6239385188505
 21
43.00237074464772
 31
0.0
  0
ARC
  5
B31
330
18
100
AcDbEntity
  8
1
  6
Continuous
100
AcDbCircle
 10
204.5301969184239
 20
42.71789374125233
 30
0.0
 40
0.2
100
AcDbArc
 50
91.56273970369577
 51
191.6576568658283
  0
LINE
  5
B32
330
18
100
AcDbEntity
  8
4
  6
CENTER
100
AcDbLine
 10
232.29572234
 20
349.2073662587519
 30
0.0
 11
195.8194970176831
 21
349.2073662587073
 31
0.0
  0
LINE
  5
B33
330
18
100
AcDbEntity
  8
1
  6
Continuous
100
AcDbLine
 10
213.596666947233
 20
352.7073662587283
 30
0.0
 11
211.0966669472329
 21
352.7073662587262
 31
0.0
  0
LINE
  5
B34
330
18
100
AcDbEntity
  8
1
  6
Continuous
100
AcDbLine
 10
213.5966669472359
 20
345.7073662587283
 30
0.0
 11
211.0966669472359
 21
345.7073662587262
 31
0.0
  0
LINE
  5
B35
330
18
100
AcDbEntity
  8
1
  6
Continuous
100
AcDbLine
 10
211.0966669472396
 20
337.7073662586909
 30
0.0
 11
222.0966669473038
 21
337.7073662587148
 31
0.0
  0
LINE
  5
B36
330
18
100
AcDbEntity
  8
1
  6
Continuous
100
AcDbLine
 10
211.0966669472295
 20
360.7073662588555
 30
0.0
 11
222.0966669473014
 21
360.7073662588603
 31
0.0
  0
LINE
  5
B37
330
18
100
AcDbEntity
  8
1
  6
Continuous
100
AcDbLine
 10
210.0966669472284
 20
363.2073662587695
 30
0.0
 11
210.0966669472406
 21
335.2073662587698
 31
0.0
  0
ARC
  5
B39
330
18
100
AcDbEntity
  8
1
  6
Continuous
100
AcDbCircle
 10
260.0966669472378
 20
349.2073662587388
 30
0.0
 40
60.0
100
AcDbArc
 50
171.8148219821421
 51
188.1851780177235
  0
ARC
  5
B3C
330
18
100
AcDbEntity
  8
1
  6
Continuous
100
AcDbCircle
 10
208.5633243495322
 20
358.9602071678788
 30
0.0
 40
4.247159090896102
100
AcDbArc
 50
90.00000000001303
 51
167.8306122695611
  0
LINE
  5
B3D
330
18
100
AcDbEntity
  8
1
  6
Continuous
100
AcDbLine
 10
204.1896215282009
 20
358.6073662588085
 30
0.0
 11
201.6976943535449
 21
358.6073662588073
 31
0.0
  0
ARC
  5
B3F
330
18
100
AcDbEntity
  8
1
  6
Continuous
100
AcDbCircle
 10
201.6976943535455
 20
357.6073662588072
 30
0.0
 40
1.0
100
AcDbArc
 50
90.00000000002508
 51
171.8148219821421
  0
ARC
  5
B43
330
18
100
AcDbEntity
  8
1
  6
Continuous
100
AcDbCircle
 10
263.0633243495653
 20
347.2073662588333
 30
0.0
 40
60.0
100
AcDbArc
 50
167.8306122695144
 51
178.0897868284016
  0
LINE
  5
B49
330
18
100
AcDbEntity
  8
1
  6
Continuous
100
AcDbLine
 10
208.5633243495313
 20
363.2073662587691
 30
0.0
 11
211.0966669472285
 21
363.2073662587697
 31
0.0
  0
LINE
  5
B4C
330
18
100
AcDbEntity
  8
1
  6
Continuous
100
AcDbLine
 10
204.1896215281886
 20
339.8073662588085
 30
0.0
 11
201.6976943535262
 21
339.8073662588073
 31
0.0
  0
ARC
  5
B4D
330
18
100
AcDbEntity
  8
1
  6
Continuous
100
AcDbCircle
 10
208.5633243495561
 20
339.4545253495671
 30
0.0
 40
4.247159090896102
100
AcDbArc
 50
192.1693877305789
 51
270.0000000000151
  0
ARC
  5
B4E
330
18
100
AcDbEntity
  8
1
  6
Continuous
100
AcDbCircle
 10
201.6976943535257
 20
340.8073662588074
 30
0.0
 40
1.0
100
AcDbArc
 50
188.1851780177235
 51
270.000000000025
  0
LINE
  5
B50
330
18
100
AcDbEntity
  8
1
  6
Continuous
100
AcDbLine
 10
208.5633243495571
 20
335.2073662587693
 30
0.0
 11
211.0966669472285
 21
335.2073662587701
 31
0.0
  0
ARC
  5
B57
330
18
100
AcDbEntity
  8
1
  6
Continuous
100
AcDbCircle
 10
263.0633243495605
 20
351.207366258746
 30
0.0
 40
60.0
100
AcDbArc
 50
181.9102131717383
 51
192.1693877306255
  0
LINE
  5
B58
330
18
100
AcDbEntity
  8
1
  6
Continuous
100
AcDbLine
 10
213.596666947233
 20
352.7073662587283
 30
0.0
 11
214.0966669472331
 21
352.2073662587287
 31
0.0
  0
LINE
  5
B59
330
18
100
AcDbEntity
  8
1
  6
Continuous
100
AcDbLine
 10
213.596666947233
 20
352.7073662587283
 30
0.0
 11
213.5966669472359
 21
345.7073662587283
 31
0.0
  0
LINE
  5
B5C
330
18
100
AcDbEntity
  8
1
  6
Continuous
100
AcDbLine
 10
214.0966669472358
 20
346.2073662587286
 30
0.0
 11
213.596666947236
 21
345.7073662587283
 31
0.0
  0
LINE
  5
B5D
330
18
100
AcDbEntity
  8
1
  6
Continuous
100
AcDbLine
 10
214.0966669472358
 20
346.2073662587284
 30
0.0
 11
214.0966669472331
 21
352.2073662587284
 31
0.0
  0
LINE
  5
B5F
330
18
100
AcDbEntity
  8
1
  6
Continuous
100
AcDbLine
 10
225.296666947302
 20
343.0297909103155
 30
0.0
 11
225.296666947302
 21
355.3849416071642
 31
0.0
  0
LINE
  5
B8F
330
18
100
AcDbEntity
  8
1
  6
Continuous
100
AcDbLine
 10
223.0966669473018
 20
355.3849416071642
 30
0.0
 11
225.296666947302
 21
355.3849416071642
 31
0.0
  0
LINE
  5
B90
330
18
100
AcDbEntity
  8
1
  6
Continuous
100
AcDbLine
 10
225.296666947302
 20
343.0297909103155
 30
0.0
 11
223.0966669473018
 21
343.0297909103155
 31
0.0
  0
LINE
  5
B91
330
18
100
AcDbEntity
  8
1
  6
Continuous
100
AcDbLine
 10
223.0966669473018
 20
338.7073662587149
 30
0.0
 11
223.0966669473018
 21
343.0297909103155
 31
0.0
  0
LINE
  5
B94
330
18
100
AcDbEntity
  8
1
  6
Continuous
100
AcDbLine
 10
227.5966669473011
 20
354.2073662588388
 30
0.0
 11
227.5966669473011
 21
344.207366258837
 31
0.0
  0
LINE
  5
B95
330
18
100
AcDbEntity
  8
1
  6
Continuous
100
AcDbLine
 10
227.5966669473006
 20
348.5505120094113
 30
0.0
 11
225.296666947302
 21
348.5505120094131
 31
0.0
  0
LINE
  5
B96
330
18
100
AcDbEntity
  8
1
  6
Continuous
100
AcDbLine
 10
227.5966669472983
 20
344.207366258837
 30
0.0
 11
225.296666947302
 21
344.207366258839
 31
0.0
  0
LINE
  5
B97
330
18
100
AcDbEntity
  8
1
  6
Continuous
100
AcDbLine
 10
227.5966669473036
 20
354.2073662588388
 30
0.0
 11
225.296666947302
 21
354.2073662588407
 31
0.0
  0
LINE
  5
B98
330
18
100
AcDbEntity
  8
1
  6
Continuous
100
AcDbLine
 10
227.5966669473013
 20
349.8642205082866
 30
0.0
 11
225.296666947302
 21
349.8642205082885
 31
0.0
  0
ARC
  5
BA3
330
18
100
AcDbEntity
  8
1
  6
Continuous
100
AcDbCircle
 10
222.0966669473018
 20
359.7073662588607
 30
0.0
 40
1.0
100
AcDbArc
 50
0.0
 51
90.00000000002508
  0
ARC
  5
BA4
330
18
100
AcDbEntity
  8
1
  6
Continuous
100
AcDbCircle
 10
222.0966669473018
 20
338.7073662587149
 30
0.0
 40
1.0
100
AcDbArc
 50
270.0000000001148
 51
0.0000000000000891
  0
LINE
  5
BA5
330
18
100
AcDbEntity
  8
1
  6
Continuous
100
AcDbLine
 10
223.0966669473018
 20
355.3849416071642
 30
0.0
 11
223.0966669473018
 21
359.7073662588607
 31
0.0
  0
LINE
  5
BA8
330
18
100
AcDbEntity
  8
1
  6
Continuous
100
AcDbLine
 10
225.5966669473011
 20
360.45736625874
 30
0.0
 11
223.5966669473011
 21
360.45736625874
 31
0.0
  0
LINE
  5
BA9
330
18
100
AcDbEntity
  8
1
  6
Continuous
100
AcDbLine
 10
223.2966669473018
 20
339.2073662587518
 30
0.0
 11
223.0966669473018
 21
339.2073662587518
 31
0.0
  0
LINE
  5
BAA
330
18
100
AcDbEntity
  8
1
  6
Continuous
100
AcDbLine
 10
223.4966669473018
 20
339.407366258752
 30
0.0
 11
223.4966669473018
 21
343.0297909103155
 31
0.0
  0
LINE
  5
BAB
330
18
100
AcDbEntity
  8
1
  6
Continuous
100
AcDbLine
 10
223.5966669473011
 20
342.019355407326
 30
0.0
 11
225.5966669473011
 21
342.019355407326
 31
0.0
  0
LINE
  5
BAC
330
18
100
AcDbEntity
  8
1
  6
Continuous
100
AcDbLine
 10
225.5966669473011
 20
339.4645804661607
 30
0.0
 11
223.5966669473011
 21
339.4645804661607
 31
0.0
  0
LINE
  5
BAD
330
18
100
AcDbEntity
  8
1
  6
Continuous
100
AcDbLine
 10
225.5966669473011
 20
360.45736625874
 30
0.0
 11
225.5966669473013
 21
354.2073662588403
 31
0.0
  0
LINE
  5
BAE
330
18
100
AcDbEntity
  8
1
  6
Continuous
100
AcDbLine
 10
223.2966669473015
 20
359.2073662587408
 30
0.0
 11
223.0966669473018
 21
359.2073662587407
 31
0.0
  0
LINE
  5
BB0
330
18
100
AcDbEntity
  8
1
  6
Continuous
100
AcDbLine
 10
223.4966669473018
 20
355.3849416071642
 30
0.0
 11
223.4966669473018
 21
359.007366258741
 31
0.0
  0
LINE
  5
BB3
330
18
100
AcDbEntity
  8
1
  6
Continuous
100
AcDbLine
 10
225.5966669473011
 20
344.2073662588386
 30
0.0
 11
225.5966669473011
 21
339.4645804661607
 31
0.0
  0
LINE
  5
15B1
330
18
100
AcDbEntity
  8
1
  6
Continuous
100
AcDbLine
 10
329.6173028174766
 20
165.0655997347896
 30
0.0
 11
328.4173028174885
 21
165.0655997347896
 31
0.0
  0
LINE
  5
15B2
330
18
100
AcDbEntity
  8
1
  6
Continuous
100
AcDbLine
 10
333.1826691408916
 20
163.8155997348022
 30
0.0
 11
333.932669140884
 21
163.8155997348022
 31
0.0
  0
LINE
  5
15B3
330
18
100
AcDbEntity
  8
1
  6
Continuous
100
AcDbLine
 10
332.9576691408938
 20
163.0655997348096
 30
0.0
 11
333.5576691408878
 21
165.0655997347896
 31
0.0
  0
LINE
  5
15B4
330
18
100
AcDbEntity
  8
1
  6
Continuous
100
AcDbLine
 10
333.5576691408878
 20
165.0655997347896
 30
0.0
 11
334.1576691408818
 21
163.0655997348096
 31
0.0
  0
LINE
  5
15B5
330
18
100
AcDbEntity
  8
1
  6
Continuous
100
AcDbLine
 10
331.8290947290581
 20
165.0655997347896
 30
0.0
 11
331.8290947290581
 21
163.0655997348096
 31
0.0
  0
LINE
  5
15B6
330
18
100
AcDbEntity
  8
1
  6
Continuous
100
AcDbLine
 10
330.6790947290696
 20
165.0655997347896
 30
0.0
 11
330.6790947290696
 21
163.0655997348096
 31
0.0
  0
LINE
  5
15B7
330
18
100
AcDbEntity
  8
1
  6
Continuous
100
AcDbLine
 10
330.6790947290696
 20
164.0655997347996
 30
0.0
 11
331.8290947290581
 21
164.0655997347996
 31
0.0
  0
LINE
  5
15B8
330
18
100
AcDbEntity
  8
1
  6
Continuous
100
AcDbLine
 10
329.0173028174825
 20
165.0655997347896
 30
0.0
 11
329.0173028174825
 21
163.0655997348096
 31
0.0
  0
LINE
  5
15B9
330
18
100
AcDbEntity
  8
1
  6
Continuous
100
AcDbLine
 10
335.6936662066416
 20
164.0655997347996
 30
0.0
 11
334.7545476621856
 21
164.0655997347996
 31
0.0
  0
LINE
  5
15BA
330
18
100
AcDbEntity
  8
1
  6
Continuous
100
AcDbLine
 10
343.5131557868771
 20
164.0655997347996
 30
0.0
 11
342.574037242421
 21
164.0655997347996
 31
0.0
  0
ARC
  5
15BB
330
18
100
AcDbEntity
  8
1
  6
Continuous
100
AcDbCircle
 10
339.3741917056928
 20
164.5655997347946
 30
0.0
 40
0.4999999999949998
100
AcDbArc
 50
0.0
 51
180.0
  0
ARC
  5
15BC
330
18
100
AcDbEntity
  8
1
  6
Continuous
100
AcDbCircle
 10
339.3741917056928
 20
163.5655997348045
 30
0.0
 40
0.4999999999949998
100
AcDbArc
 50
180.0
 51
0.0
  0
LINE
  5
15BD
330
18
100
AcDbEntity
  8
1
  6
Continuous
100
AcDbLine
 10
338.8741917056977
 20
164.5655997347946
 30
0.0
 11
338.8741917056977
 21
163.5655997348045
 31
0.0
  0
LINE
  5
15BE
330
18
100
AcDbEntity
  8
1
  6
Continuous
100
AcDbLine
 10
339.8741917056879
 20
164.5655997347946
 30
0.0
 11
339.8741917056879
 21
163.5655997348045
 31
0.0
  0
LINE
  5
15BF
330
18
100
AcDbEntity
  8
1
  6
Continuous
100
AcDbLine
 10
341.5254580935735
 20
165.0655997347896
 30
0.0
 11
341.0540535727873
 21
163.7322664014698
 31
0.0
  0
CIRCLE
  5
15C0
330
18
100
AcDbEntity
  8
1
  6
Continuous
100
AcDbCircle
 10
341.5254580935735
 20
163.5655997348045
 30
0.0
 40
0.4999999999949998
  0
LINE
  5
15C1
330
18
100
AcDbEntity
  8
1
  6
Continuous
100
AcDbLine
 10
336.6930809124774
 20
165.0655997347896
 30
0.0
 11
336.6930809124774
 21
164.0655997347996
 31
0.0
  0
LINE
  5
15C2
330
18
100
AcDbEntity
  8
1
  6
Continuous
100
AcDbLine
 10
337.1930809124723
 20
163.0655997348096
 30
0.0
 11
336.6930809124774
 21
163.0655997348096
 31
0.0
  0
LINE
  5
15C3
330
18
100
AcDbEntity
  8
1
  6
Continuous
100
AcDbLine
 10
337.1930809124723
 20
164.0655997347996
 30
0.0
 11
336.6930809124774
 21
164.0655997347996
 31
0.0
  0
ARC
  5
15C6
330
18
100
AcDbEntity
  8
1
  6
Continuous
100
AcDbCircle
 10
337.1930809124723
 20
163.5655997348045
 30
0.0
 40
0.499999999995
100
AcDbArc
 50
270.0
 51
90.0
  0
LINE
  5
15C7
330
18
100
AcDbEntity
  8
1
  6
Continuous
100
AcDbLine
 10
337.6930809124672
 20
165.0655997347896
 30
0.0
 11
336.6930809124774
 21
165.0655997347896
 31
0.0
  0
ARC
  5
15C8
330
18
100
AcDbEntity
  8
1
  6
Continuous
100
AcDbCircle
 10
344.8355299584173
 20
164.5655997347496
 30
0.0
 40
0.4999999999800007
100
AcDbArc
 50
323.1301023541563
 51
180.0
  0
LINE
  5
15C9
330
18
100
AcDbEntity
  8
1
  6
Continuous
100
AcDbLine
 10
345.3355299583973
 20
163.0655997348096
 30
0.0
 11
344.3355299584372
 21
163.0655997348096
 31
0.0
  0
LINE
  5
15CA
330
18
100
AcDbEntity
  8
1
  6
Continuous
100
AcDbLine
 10
345.2355299584013
 20
164.2655997347617
 30
0.0
 11
344.3355299584372
 21
163.0655997348096
 31
0.0
  0
CIRCLE
  5
15ED
330
18
100
AcDbEntity
  8
1
  6
Continuous
100
AcDbCircle
 10
335.9045405592122
 20
251.1198672574951
 30
0.0
 40
3.800000000001205
  0
LINE
  5
15EE
330
18
100
AcDbEntity
  8
1
  6
Continuous
 48
0.25
100
AcDbLine
 10
337.0448109040472
 20
250.5951940258547
 30
0.0
 11
337.6557511629923
 21
249.9616263499115
 31
0.0
  0
LINE
  5
15EF
330
18
100
AcDbEntity
  8
1
  6
Continuous
 48
0.25
100
AcDbLine
 10
334.7629773211581
 20
250.5944869190737
 30
0.0
 11
334.1520370622129
 21
249.9623334566927
 31
0.0
  0
CIRCLE
  5
15F0
330
18
100
AcDbEntity
  8
1
  6
Continuous
 48
0.25
100
AcDbCircle
 10
335.9045405592122
 20
251.1198672574951
 30
0.0
 40
3.5
  0
ARC
  5
15F1
330
18
100
AcDbEntity
  8
1
  6
Continuous
100
AcDbCircle
 10
337.1545405592121
 20
251.1198672574951
 30
0.0
 40
5.750000000000013
100
AcDbArc
 50
299.5918457939517
 51
67.38013505195756
  0
ARC
  5
15F2
330
18
100
AcDbEntity
  8
1
  6
Continuous
100
AcDbCircle
 10
334.6545405592121
 20
251.1198672574951
 30
0.0
 40
5.750000000000002
100
AcDbArc
 50
112.6198649480424
 51
240.4081542060509
  0
LINE
  5
15F3
330
18
100
AcDbEntity
  8
1
  6
Continuous
 48
0.25
100
AcDbLine
 10
335.9042476659932
 20
250.1702228503616
 30
0.0
 11
335.3781602207906
 21
249.9793040194413
 31
0.0
  0
LINE
  5
15F4
330
18
100
AcDbEntity
  8
1
  6
Continuous
100
AcDbLine
 10
339.9939947321123
 20
246.119867257495
 30
0.0
 11
331.8150863863122
 21
246.119867257495
 31
0.0
  0
LINE
  5
15F5
330
18
100
AcDbEntity
  8
1
  6
Continuous
 48
0.25
100
AcDbLine
 10
335.3781602207906
 20
249.9793040194413
 30
0.0
 11
334.7460067584096
 21
249.3683637604961
 31
0.0
  0
ARC
  5
15F6
330
18
100
AcDbEntity
  8
1
  6
Continuous
 48
0.25
100
AcDbCircle
 10
335.9035405592121
 20
251.1198672574951
 30
0.0
 40
2.1
100
AcDbArc
 50
213.4630000000009
 51
236.5369999999989
  0
ARC
  5
15F7
330
18
100
AcDbEntity
  8
1
  6
Continuous
 48
0.25
100
AcDbCircle
 10
335.9035405592121
 20
251.1198672574951
 30
0.0
 40
2.1
100
AcDbArc
 50
303.4630000000011
 51
326.5369999999989
  0
LINE
  5
15F8
330
18
100
AcDbEntity
  8
1
  6
Continuous
 48
0.25
100
AcDbLine
 10
335.9042476659932
 20
250.1702228503616
 30
0.0
 11
336.4289208976338
 21
249.9793040194413
 31
0.0
  0
LINE
  5
15F9
330
18
100
AcDbEntity
  8
1
  6
Continuous
 48
0.25
100
AcDbLine
 10
336.4289208976338
 20
249.9793040194413
 30
0.0
 11
337.0624885735769
 21
249.3683637604961
 31
0.0
  0
LINE
  5
15FA
330
18
100
AcDbEntity
  8
1
  6
Continuous
 48
0.25
100
AcDbLine
 10
335.9035405592121
 20
252.0702187714099
 30
0.0
 11
335.3788673275718
 21
252.2611376023301
 31
0.0
  0
ARC
  5
15FB
330
18
100
AcDbEntity
  8
1
  6
Continuous
100
AcDbCircle
 10
335.9045405592122
 20
248.119867257495
 30
0.0
 40
9.0
100
AcDbArc
 50
67.38013505195756
 51
112.6198649480424
  0
LINE
  5
15FD
330
18
100
AcDbEntity
  8
1
  6
Continuous
 48
0.25
100
AcDbLine
 10
334.9538961520786
 20
251.1205743642764
 30
0.0
 11
334.7629773211581
 21
251.6452475959166
 31
0.0
  0
LINE
  5
15FE
330
18
100
AcDbEntity
  8
1
  6
Continuous
 48
0.25
100
AcDbLine
 10
335.3788673275718
 20
252.2611376023301
 30
0.0
 11
334.7460067584098
 21
252.8713707544941
 31
0.0
  0
LINE
  5
15FF
330
18
100
AcDbEntity
  8
1
  6
Continuous
 48
0.25
100
AcDbLine
 10
334.9538961520786
 20
251.1205743642764
 30
0.0
 11
334.7629773211581
 21
250.5944869190737
 31
0.0
  0
LINE
  5
1600
330
18
100
AcDbEntity
  8
1
  6
Continuous
 48
0.25
100
AcDbLine
 10
334.7629773211581
 20
251.6452475959166
 30
0.0
 11
334.1520370622129
 21
252.2774010582975
 31
0.0
  0
ARC
  5
1601
330
18
100
AcDbEntity
  8
1
  6
Continuous
 48
0.25
100
AcDbCircle
 10
335.9035405592121
 20
251.1198672574951
 30
0.0
 40
2.1
100
AcDbArc
 50
123.4630000000009
 51
146.5369999999989
  0
LINE
  5
1602
330
18
100
AcDbEntity
  8
1
  6
Continuous
 48
0.25
100
AcDbLine
 10
336.8538920731268
 20
251.1198672574951
 30
0.0
 11
337.0448109040472
 21
251.6459547026979
 31
0.0
  0
LINE
  5
1603
330
18
100
AcDbEntity
  8
1
  6
Continuous
 48
0.25
100
AcDbLine
 10
337.0448109040472
 20
251.6459547026979
 30
0.0
 11
337.6557511629923
 21
252.2781081650787
 31
0.0
  0
LINE
  5
1604
330
18
100
AcDbEntity
  8
1
  6
Continuous
 48
0.25
100
AcDbLine
 10
336.8538920731268
 20
251.1198672574951
 30
0.0
 11
337.0448109040472
 21
250.5951940258547
 31
0.0
  0
ARC
  5
1605
330
18
100
AcDbEntity
  8
1
  6
Continuous
 48
0.25
100
AcDbCircle
 10
335.9035405592121
 20
251.1198672574951
 30
0.0
 40
2.1
100
AcDbArc
 50
33.46300000000105
 51
56.53699999999894
  0
LINE
  5
1606
330
18
100
AcDbEntity
  8
1
  6
Continuous
 48
0.25
100
AcDbLine
 10
335.9035405592121
 20
252.0702187714099
 30
0.0
 11
336.429628004415
 21
252.2611376023303
 31
0.0
  0
LINE
  5
1607
330
18
100
AcDbEntity
  8
1
  6
Continuous
 48
0.25
100
AcDbLine
 10
336.429628004415
 20
252.2611376023303
 30
0.0
 11
337.0617814667955
 21
252.8720778612754
 31
0.0
  0
CIRCLE
  5
1626
330
18
100
AcDbEntity
  8
1
  6
Continuous
 48
0.25
100
AcDbCircle
 10
335.9045405592122
 20
146.1198672574949
 30
0.0
 40
3.5
  0
CIRCLE
  5
1627
330
18
100
AcDbEntity
  8
1
  6
Continuous
100
AcDbCircle
 10
335.9045405592122
 20
146.1198672574949
 30
0.0
 40
3.800000000001205
  0
LINE
  5
1628
330
18
100
AcDbEntity
  8
1
  6
Continuous
 48
0.25
100
AcDbLine
 10
337.0448109040472
 20
145.5951940258545
 30
0.0
 11
337.6557511629923
 21
144.9616263499115
 31
0.0
  0
LINE
  5
1629
330
18
100
AcDbEntity
  8
1
  6
Continuous
 48
0.25
100
AcDbLine
 10
334.7629773211581
 20
145.5944869190735
 30
0.0
 11
334.1520370622129
 21
144.9623334566925
 31
0.0
  0
ARC
  5
162A
330
18
100
AcDbEntity
  8
1
  6
Continuous
100
AcDbCircle
 10
337.1545405592121
 20
146.1198672574949
 30
0.0
 40
5.750000000000013
100
AcDbArc
 50
292.6198649480424
 51
60.40815420604737
  0
ARC
  5
162B
330
18
100
AcDbEntity
  8
1
  6
Continuous
100
AcDbCircle
 10
334.6545405592121
 20
146.1198672574949
 30
0.0
 40
5.750000000000002
100
AcDbArc
 50
119.591845793949
 51
247.3801350519575
  0
LINE
  5
162C
330
18
100
AcDbEntity
  8
1
  6
Continuous
 48
0.25
100
AcDbLine
 10
335.9042476659932
 20
145.1702228503616
 30
0.0
 11
335.3781602207906
 21
144.9793040194411
 31
0.0
  0
ARC
  5
162D
330
18
100
AcDbEntity
  8
1
  6
Continuous
100
AcDbCircle
 10
335.9045405592122
 20
149.119867257495
 30
0.0
 40
9.0
100
AcDbArc
 50
247.3801350519575
 51
292.6198649480424
  0
LINE
  5
162E
330
18
100
AcDbEntity
  8
1
  6
Continuous
 48
0.25
100
AcDbLine
 10
335.3781602207906
 20
144.9793040194411
 30
0.0
 11
334.7460067584096
 21
144.3683637604959
 31
0.0
  0
ARC
  5
162F
330
18
100
AcDbEntity
  8
1
  6
Continuous
 48
0.25
100
AcDbCircle
 10
335.9035405592121
 20
146.1198672574949
 30
0.0
 40
2.1
100
AcDbArc
 50
213.4630000000009
 51
236.5369999999998
  0
LINE
  5
1630
330
18
100
AcDbEntity
  8
1
  6
Continuous
 48
0.25
100
AcDbLine
 10
335.9042476659932
 20
145.1702228503616
 30
0.0
 11
336.4289208976338
 21
144.9793040194411
 31
0.0
  0
ARC
  5
1631
330
18
100
AcDbEntity
  8
1
  6
Continuous
 48
0.25
100
AcDbCircle
 10
335.9035405592121
 20
146.1198672574949
 30
0.0
 40
2.1
100
AcDbArc
 50
303.4630000000001
 51
326.5369999999989
  0
LINE
  5
1632
330
18
100
AcDbEntity
  8
1
  6
Continuous
 48
0.25
100
AcDbLine
 10
336.4289208976338
 20
144.9793040194411
 30
0.0
 11
337.0624885735769
 21
144.3683637604959
 31
0.0
  0
LINE
  5
1633
330
18
100
AcDbEntity
  8
1
  6
Continuous
 48
0.25
100
AcDbLine
 10
335.9035405592121
 20
147.0702187714098
 30
0.0
 11
335.3788673275718
 21
147.26113760233
 31
0.0
  0
LINE
  5
1634
330
18
100
AcDbEntity
  8
1
  6
Continuous
100
AcDbLine
 10
339.9939947321123
 20
151.1198672574949
 30
0.0
 11
331.8150863863122
 21
151.1198672574949
 31
0.0
  0
LINE
  5
1635
330
18
100
AcDbEntity
  8
1
  6
Continuous
 48
0.25
100
AcDbLine
 10
334.9538961520786
 20
146.1205743642763
 30
0.0
 11
334.7629773211581
 21
146.6452475959165
 31
0.0
  0
LINE
  5
1636
330
18
100
AcDbEntity
  8
1
  6
Continuous
 48
0.25
100
AcDbLine
 10
335.3788673275718
 20
147.26113760233
 30
0.0
 11
334.7460067584098
 21
147.871370754494
 31
0.0
  0
LINE
  5
1637
330
18
100
AcDbEntity
  8
1
  6
Continuous
 48
0.25
100
AcDbLine
 10
334.9538961520786
 20
146.1205743642763
 30
0.0
 11
334.7629773211581
 21
145.5944869190735
 31
0.0
  0
LINE
  5
1638
330
18
100
AcDbEntity
  8
1
  6
Continuous
 48
0.25
100
AcDbLine
 10
334.7629773211581
 20
146.6452475959165
 30
0.0
 11
334.1520370622129
 21
147.2774010582974
 31
0.0
  0
ARC
  5
1639
330
18
100
AcDbEntity
  8
1
  6
Continuous
 48
0.25
100
AcDbCircle
 10
335.9035405592121
 20
146.1198672574949
 30
0.0
 40
2.1
100
AcDbArc
 50
123.463
 51
146.5369999999989
  0
LINE
  5
163A
330
18
100
AcDbEntity
  8
1
  6
Continuous
 48
0.25
100
AcDbLine
 10
335.9035405592121
 20
147.0702187714098
 30
0.0
 11
336.429628004415
 21
147.2611376023301
 31
0.0
  0
LINE
  5
163B
330
18
100
AcDbEntity
  8
1
  6
Continuous
 48
0.25
100
AcDbLine
 10
336.8538920731268
 20
146.1198672574949
 30
0.0
 11
337.0448109040472
 21
146.6459547026978
 31
0.0
  0
LINE
  5
163C
330
18
100
AcDbEntity
  8
1
  6
Continuous
 48
0.25
100
AcDbLine
 10
337.0448109040472
 20
146.6459547026978
 30
0.0
 11
337.6557511629923
 21
147.2781081650786
 31
0.0
  0
LINE
  5
163D
330
18
100
AcDbEntity
  8
1
  6
Continuous
 48
0.25
100
AcDbLine
 10
336.8538920731268
 20
146.1198672574949
 30
0.0
 11
337.0448109040472
 21
145.5951940258545
 31
0.0
  0
ARC
  5
163E
330
18
100
AcDbEntity
  8
1
  6
Continuous
 48
0.25
100
AcDbCircle
 10
335.9035405592121
 20
146.1198672574949
 30
0.0
 40
2.1
100
AcDbArc
 50
33.46300000000105
 51
56.53699999999985
  0
LINE
  5
163F
330
18
100
AcDbEntity
  8
1
  6
Continuous
 48
0.25
100
AcDbLine
 10
336.429628004415
 20
147.2611376023301
 30
0.0
 11
337.0617814667955
 21
147.8720778612752
 31
0.0
  0
ARC
  5
1645
330
18
100
AcDbEntity
  8
1
  6
Continuous
100
AcDbCircle
 10
448.1172034485178
 20
245.4198672574809
 30
0.0
 40
0.2
100
AcDbArc
 50
89.9999999999874
 51
180.0
  0
LINE
  5
16ED
330
18
100
AcDbEntity
  8
1
  6
Continuous
100
AcDbLine
 10
461.1172034485175
 20
160.8198672574795
 30
0.0
 11
458.2172034485172
 21
160.8198672574795
 31
0.0
  0
LINE
  5
16EE
330
18
100
AcDbEntity
  8
1
  6
Continuous
100
AcDbLine
 10
461.1172034485175
 20
171.4198672574797
 30
0.0
 11
458.2172034485172
 21
171.4198672574797
 31
0.0
  0
LINE
  5
16EF
330
18
100
AcDbEntity
  8
1
  6
Continuous
100
AcDbLine
 10
461.1172034485175
 20
171.4198672574797
 30
0.0
 11
461.1172034485175
 21
160.8198672574795
 31
0.0
  0
LINE
  5
16F0
330
18
100
AcDbEntity
  8
1
  6
Continuous
100
AcDbLine
 10
458.2172034485172
 20
171.4198672574797
 30
0.0
 11
458.2172034485172
 21
160.8198672574795
 31
0.0
  0
LINE
  5
194E
330
18
100
AcDbEntity
  8
1
  6
Continuous
100
AcDbLine
 10
24.08764420246768
 20
338.4073662587077
 30
0.0
 11
34.15431086913446
 21
345.9573662587079
 31
0.0
  0
LINE
  5
1951
330
18
100
AcDbEntity
  8
1
  6
Continuous
100
AcDbLine
 10
14.32226057479664
 20
344.7582173379468
 30
0.0
 11
18.39262809177262
 21
338.6526660624828
 31
0.0
  0
ARC
  5
1952
330
18
100
AcDbEntity
  8
1
  6
Continuous
100
AcDbCircle
 10
19.22467838611044
 20
339.2073662587076
 30
0.0
 40
1.0
100
AcDbArc
 50
213.690067525982
 51
270.0
  0
LINE
  5
1953
330
18
100
AcDbEntity
  8
1
  6
Continuous
100
AcDbLine
 10
19.22467838611021
 20
338.207366258708
 30
0.0
 11
23.48764420246766
 21
338.207366258708
 31
0.0
  0
ARC
  5
1954
330
18
100
AcDbEntity
  8
1
  6
Continuous
100
AcDbCircle
 10
23.48764420246766
 20
339.2073662587076
 30
0.0
 40
1.0
100
AcDbArc
 50
270.0
 51
306.8698976458446
  0
ARC
  5
1956
330
18
100
AcDbEntity
  8
1
  6
Continuous
100
AcDbCircle
 10
19.22467838611044
 20
359.2073662587078
 30
0.0
 40
1.0
100
AcDbArc
 50
90.0
 51
146.3099324740213
  0
LINE
  5
1957
330
18
100
AcDbEntity
  8
1
  6
Continuous
100
AcDbLine
 10
18.3926280917725
 20
359.7620664549333
 30
0.0
 11
14.32226057479675
 21
353.6565151794695
 31
0.0
  0
ARC
  5
1958
330
18
100
AcDbEntity
  8
1
  6
Continuous
100
AcDbCircle
 10
15.15431086913457
 20
353.1018149832443
 30
0.0
 40
1.0
100
AcDbArc
 50
146.3099324740207
 51
180.0
  0
LINE
  5
1959
330
18
100
AcDbEntity
  8
1
  6
Continuous
100
AcDbLine
 10
14.15431086913457
 20
353.1018149832443
 30
0.0
 11
14.15431086913457
 21
345.3129175341719
 31
0.0
  0
ARC
  5
195A
330
18
100
AcDbEntity
  8
1
  6
Continuous
100
AcDbCircle
 10
15.15431086913446
 20
345.3129175341719
 30
0.0
 40
1.0
100
AcDbArc
 50
180.0
 51
213.6900675259785
  0
LINE
  5
195B
330
18
100
AcDbEntity
  8
1
  6
Continuous
100
AcDbLine
 10
34.15431086913423
 20
352.4573662587079
 30
0.0
 11
24.08764420246757
 21
360.0073662587079
 31
0.0
  0
LINE
  5
195F
330
18
100
AcDbEntity
  8
1
  6
Continuous
100
AcDbLine
 10
34.15431086913412
 20
352.4573662587079
 30
0.0
 11
34.15431086913412
 21
345.9573662587079
 31
0.0
  0
ARC
  5
1961
330
18
100
AcDbEntity
  8
1
  6
Continuous
100
AcDbCircle
 10
23.48764420246783
 20
359.2073662587078
 30
0.0
 40
1.0
100
AcDbArc
 50
53.13010235415664
 51
90.0
  0
LINE
  5
1962
330
18
100
AcDbEntity
  8
1
  6
Continuous
100
AcDbLine
 10
23.48764420246777
 20
360.2073662587079
 30
0.0
 11
19.22467838611032
 21
360.2073662587079
 31
0.0
  0
LINE
  5
1967
330
18
100
AcDbEntity
  8
1
  6
Continuous
100
AcDbLine
 10
212.096666947302
 20
338.707366258693
 30
0.0
 11
212.096666947302
 21
345.7073662587273
 31
0.0
  0
LINE
  5
1968
330
18
100
AcDbEntity
  8
1
  6
Continuous
100
AcDbLine
 10
212.096666947302
 20
352.7073662587274
 30
0.0
 11
212.096666947302
 21
359.7073662588558
 31
0.0
  0
LINE
  5
1970
330
18
100
AcDbEntity
  8
5
  6
PHANTOM
100
AcDbLine
 10
35.7489303772229
 20
223.7198672574987
 30
0.0
 11
131.4158499161297
 21
223.7198672574987
 31
0.0
  0
LINE
  5
1971
330
18
100
AcDbEntity
  8
5
  6
PHANTOM
100
AcDbLine
 10
35.74893037722279
 20
242.5198672574988
 30
0.0
 11
131.4158499161297
 21
242.5198672574988
 31
0.0
  0
ARC
  5
1974
330
18
100
AcDbEntity
  8
5
  6
PHANTOM
 48
0.5
100
AcDbCircle
 10
131.4158499161296
 20
226.7198672574986
 30
0.0
 40
3.0
100
AcDbArc
 50
270.0
 51
345.1671520791895
  0
ARC
  5
1977
330
18
100
AcDbEntity
  8
5
  6
PHANTOM
 48
0.5
100
AcDbCircle
 10
131.4158499161296
 20
239.5198672574986
 30
0.0
 40
3.0
100
AcDbArc
 50
14.83284792081033
 51
90.0
  0
ARC
  5
1978
330
18
100
AcDbEntity
  8
5
  6
PHANTOM
 48
0.5
100
AcDbCircle
 10
107.2489303772227
 20
233.1198672574986
 30
0.0
 40
28.0
100
AcDbArc
 50
345.1671520791895
 51
14.83284792081033
  0
ARC
  5
199C
330
18
100
AcDbEntity
  8
1
  6
Continuous
100
AcDbCircle
 10
223.2966669473019
 20
359.007366258741
 30
0.0
 40
0.2
100
AcDbArc
 50
0.0
 51
90.00000000006512
  0
ARC
  5
199D
330
18
100
AcDbEntity
  8
1
  6
Continuous
100
AcDbCircle
 10
223.2966669473018
 20
339.407366258752
 30
0.0
 40
0.2
100
AcDbArc
 50
270.0
 51
0.0
  0
LINE
  5
19A0
330
18
100
AcDbEntity
  8
1
  6
Continuous
100
AcDbLine
 10
225.5966669473689
 20
41.55129509842065
 30
0.0
 11
225.5966669473614
 21
62.54408089099996
 31
0.0
  0
LINE
  5
19A2
330
18
100
AcDbEntity
  8
1
  6
Continuous
100
AcDbLine
 10
223.2966669473619
 20
62.80129509840794
 30
0.0
 11
223.096666947362
 21
62.80129509840786
 31
0.0
  0
ARC
  5
19A3
330
18
100
AcDbEntity
  8
1
  6
Continuous
100
AcDbCircle
 10
223.2966669473621
 20
62.60129509840794
 30
0.0
 40
0.2
100
AcDbArc
 50
0.0000000000205243
 51
90.00000000002055
  0
LINE
  5
19A4
330
18
100
AcDbEntity
  8
1
  6
Continuous
100
AcDbLine
 10
225.5966669473614
 20
62.54408089099996
 30
0.0
 11
223.5966669473011
 21
62.54408089099926
 31
0.0
  0
ARC
  5
19A5
330
18
100
AcDbEntity
  8
1
  6
Continuous
100
AcDbCircle
 10
222.0966669473618
 20
63.30129509844443
 30
0.0
 40
1.0
100
AcDbArc
 50
0.0000000000204352
 51
89.99999999990572
  0
LINE
  5
19A6
330
18
100
AcDbEntity
  8
1
  6
Continuous
100
AcDbLine
 10
227.5966669473604
 20
57.80129509832431
 30
0.0
 11
225.5966669473632
 21
57.80129509832205
 31
0.0
  0
LINE
  5
19AA
330
18
100
AcDbEntity
  8
1
  6
Continuous
100
AcDbLine
 10
227.5966669473668
 20
47.80129509832261
 30
0.0
 11
227.5966669473632
 21
57.80129509832443
 31
0.0
  0
LINE
  5
19AB
330
18
100
AcDbEntity
  8
1
  6
Continuous
100
AcDbLine
 10
227.5966669473654
 20
52.14444084887468
 30
0.0
 11
225.5966669473651
 21
52.14444084887247
 31
0.0
  0
LINE
  5
19AC
330
18
100
AcDbEntity
  8
1
  6
Continuous
100
AcDbLine
 10
227.5966669473643
 20
53.45814934775012
 30
0.0
 11
225.5966669473647
 21
53.45814934774786
 31
0.0
  0
LINE
  5
19AD
330
18
100
AcDbEntity
  8
1
  6
Continuous
100
AcDbLine
 10
227.5966669473692
 20
47.80129509832261
 30
0.0
 11
225.5966669473667
 21
47.80129509832033
 31
0.0
  0
LINE
  5
19AE
330
18
100
AcDbEntity
  8
1
  6
Continuous
100
AcDbLine
 10
223.4966669473621
 20
62.54408089099921
 30
0.0
 11
223.496666947369
 21
43.00129509841903
 31
0.0
  0
LINE
  5
19AF
330
18
100
AcDbEntity
  8
1
  6
Continuous
100
AcDbLine
 10
223.296666947369
 20
42.80129509841896
 30
0.0
 11
223.0966669473692
 21
42.80129509841913
 31
0.0
  0
ARC
  5
19B0
330
18
100
AcDbEntity
  8
1
  6
Continuous
100
AcDbCircle
 10
223.2966669473692
 20
43.00129509841895
 30
0.0
 40
0.2
100
AcDbArc
 50
269.9999999999553
 51
0.0000000000205243
  0
LINE
  5
19B2
330
18
100
AcDbEntity
  8
1
  6
Continuous
100
AcDbLine
 10
225.596666947369
 20
41.55129509842065
 30
0.0
 11
223.5966669473011
 21
41.55129509841996
 31
0.0
  0
LINE
  5
19B3
330
18
100
AcDbEntity
  8
1
  6
Continuous
100
AcDbLine
 10
223.0966669473617
 20
63.30129509844478
 30
0.0
 11
223.0966669473694
 21
42.30129509829914
 31
0.0
  0
ARC
  5
19B4
330
18
100
AcDbEntity
  8
1
  6
Continuous
100
AcDbCircle
 10
222.0966669473694
 20
42.30129509829874
 30
0.0
 40
1.0
100
AcDbArc
 50
269.9999999999953
 51
0.0000000000205243
  0
LINE
  5
19B6
330
18
100
AcDbEntity
  8
1
  6
Continuous
100
AcDbLine
 10
223.5966669473011
 20
62.54408089099925
 30
0.0
 11
223.5966669473011
 21
41.55129509841996
 31
0.0
  0
LINE
  5
19B7
330
18
100
AcDbEntity
  8
1
  6
Continuous
100
AcDbLine
 10
223.4966669473655
 20
58.70129509851068
 30
0.0
 11
223.5966669473649
 21
58.70129509851068
 31
0.0
  0
LINE
  5
19B8
330
18
100
AcDbEntity
  8
1
  6
Continuous
100
AcDbLine
 10
223.4966669473655
 20
46.90129509851072
 30
0.0
 11
223.5966669473649
 21
46.90129509851072
 31
0.0
  0
LINE
  5
19B9
330
18
100
AcDbEntity
  8
1
  6
Continuous
100
AcDbLine
 10
223.5966669473011
 20
360.45736625874
 30
0.0
 11
223.5966669473011
 21
355.3849416071642
 31
0.0
  0
LINE
  5
19BB
330
18
100
AcDbEntity
  8
1
  6
Continuous
100
AcDbLine
 10
223.5966669473011
 20
343.0297909103155
 30
0.0
 11
223.5966669473011
 21
339.4645804661607
 31
0.0
  0
LINE
  5
19C4
330
18
100
AcDbEntity
  8
4
  6
CENTER
100
AcDbLine
 10
206.8966669473018
 20
243.6078646663428
 30
0.0
 11
206.8966669473018
 21
222.6318698486108
 31
0.0
  0
LINE
  5
19C6
330
18
100
AcDbEntity
  8
4
  6
CENTER
100
AcDbLine
 10
206.8966669473018
 20
357.9613000080588
 30
0.0
 11
206.8966669473018
 21
340.453432509383
 31
0.0
  0
LINE
  5
19CC
330
18
100
AcDbEntity
  8
4
  6
CENTER
100
AcDbLine
 10
466.3172034485178
 20
243.7181516390491
 30
0.0
 11
466.3172034485178
 21
222.5215828759047
 31
0.0
  0
ARC
  5
1BF2
330
18
100
AcDbEntity
  8
1
  6
Continuous
100
AcDbCircle
 10
225.0966669473018
 20
245.4198672574809
 30
0.0
 40
0.2
100
AcDbArc
 50
0.0
 51
90.00000000001262
  0
ARC
  5
1D12
330
18
100
AcDbEntity
  8
1
  6
Continuous
100
AcDbCircle
 10
329.5045405592122
 20
137.4529477185755
 30
0.0
 40
3.0
100
AcDbArc
 50
180.0
 51
255.1671520791896
  0
ARC
  5
1D13
330
18
100
AcDbEntity
  8
1
  6
Continuous
100
AcDbCircle
 10
335.9045405592122
 20
161.6198672574824
 30
0.0
 40
28.0
100
AcDbArc
 50
255.1671520791896
 51
284.8328479208102
  0
ARC
  5
1D14
330
18
100
AcDbEntity
  8
1
  6
Continuous
100
AcDbCircle
 10
342.3045405592121
 20
137.4529477185755
 30
0.0
 40
3.0
100
AcDbArc
 50
284.8328479208102
 51
0.0
  0
LINE
  5
1D15
330
18
100
AcDbEntity
  8
1
  6
Continuous
100
AcDbLine
 10
345.3045405592121
 20
139.1198672574778
 30
0.0
 11
345.3045405592121
 21
137.4529477185755
 31
0.0
  0
LINE
  5
1D16
330
18
100
AcDbEntity
  8
1
  6
Continuous
100
AcDbLine
 10
326.5045405592122
 20
139.1198672574678
 30
0.0
 11
326.5045405592122
 21
137.4529477185755
 31
0.0
  0
ARC
  5
23EF
330
18
100
AcDbEntity
  8
1
  6
Continuous
100
AcDbCircle
 10
238.8523718677169
 20
349.2073662587519
 30
0.0
 40
9.0
100
AcDbArc
 50
344.1191499917203
 51
15.88085000827959
  0
LINE
  5
23F0
330
18
100
AcDbEntity
  8
1
  6
Continuous
100
AcDbLine
 10
245.252371867717
 20
353.0073662587521
 30
0.0
 11
245.252371867717
 21
345.407366258752
 31
0.0
  0
LINE
  5
23F1
330
18
100
AcDbEntity
  8
1
  6
Continuous
100
AcDbLine
 10
244.2523718677175
 20
342.7073662587508
 30
0.0
 11
244.2523718677164
 21
355.707366258753
 31
0.0
  0
LINE
  5
23F2
330
18
100
AcDbEntity
  8
1
  6
Continuous
100
AcDbLine
 10
239.2523718677175
 20
342.2073662587511
 30
0.0
 11
239.2523718677164
 21
356.2073662587526
 31
0.0
  0
LINE
  5
23F3
330
18
100
AcDbEntity
  8
1
  6
Continuous
100
AcDbLine
 10
244.252371867717
 20
349.2073662587519
 30
0.0
 11
245.252371867717
 21
350.2073662587519
 31
0.0
  0
LINE
  5
23F5
330
18
100
AcDbEntity
  8
4
  6
CENTER
100
AcDbLine
 10
250.252371867717
 20
349.2073662587519
 30
0.0
 11
236.7054181095629
 21
349.2073662587519
 31
0.0
  0
LINE
  5
23F6
330
18
100
AcDbEntity
  8
1
  6
Continuous
100
AcDbLine
 10
239.2523718677164
 20
342.2073662587511
 30
0.0
 11
243.7523718677164
 21
342.2073662587509
 31
0.0
  0
LINE
  5
23F7
330
18
100
AcDbEntity
  8
1
  6
Continuous
100
AcDbLine
 10
244.252371867717
 20
348.2073662587519
 30
0.0
 11
245.252371867717
 21
349.2073662587519
 31
0.0
  0
LINE
  5
23F8
330
18
100
AcDbEntity
  8
1
  6
Continuous
100
AcDbLine
 10
245.2523718677169
 20
345.7073662587519
 30
0.0
 11
246.3717870575514
 21
345.8053023976412
 31
0.0
  0
LINE
  5
23F9
330
18
100
AcDbEntity
  8
1
  6
Continuous
100
AcDbLine
 10
245.252371867717
 20
345.407366258752
 30
0.0
 11
244.252371867717
 21
345.407366258752
 31
0.0
  0
ARC
  5
23FA
330
18
100
AcDbEntity
  8
1
  6
Continuous
100
AcDbCircle
 10
246.2584845919396
 20
347.1003555051658
 30
0.0
 40
1.3
100
AcDbArc
 50
274.9999999999997
 51
344.1191499917203
  0
ARC
  5
23FB
330
18
100
AcDbEntity
  8
1
  6
Continuous
100
AcDbCircle
 10
243.7523718677161
 20
342.707366258751
 30
0.0
 40
0.5
100
AcDbArc
 50
269.9999999999934
 51
359.9999999999951
  0
LINE
  5
23FC
330
18
100
AcDbEntity
  8
1
  6
Continuous
100
AcDbLine
 10
239.2523718677164
 20
356.2073662587526
 30
0.0
 11
243.7523718677164
 21
356.2073662587529
 31
0.0
  0
LINE
  5
23FD
330
18
100
AcDbEntity
  8
1
  6
Continuous
100
AcDbLine
 10
245.252371867717
 20
352.7073662587519
 30
0.0
 11
246.3717870575178
 21
352.6094301198656
 31
0.0
  0
LINE
  5
23FE
330
18
100
AcDbEntity
  8
1
  6
Continuous
100
AcDbLine
 10
245.252371867717
 20
353.0073662587521
 30
0.0
 11
244.252371867717
 21
353.0073662587521
 31
0.0
  0
ARC
  5
23FF
330
18
100
AcDbEntity
  8
1
  6
Continuous
100
AcDbCircle
 10
243.7523718677161
 20
355.707366258753
 30
0.0
 40
0.5
100
AcDbArc
 50
0.0000000000048853
 51
90.00000000000325
  0
ARC
  5
2400
330
18
100
AcDbEntity
  8
1
  6
Continuous
100
AcDbCircle
 10
246.2584845919258
 20
351.3143770123348
 30
0.0
 40
1.3
100
AcDbArc
 50
15.88085000827959
 51
85.00000000000019
  0
LINE
  5
2405
330
18
100
AcDbEntity
  8
1
  6
Continuous
100
AcDbLine
 10
257.5523718677169
 20
239.1198672574784
 30
0.0
 11
257.5523718677169
 21
227.1198672574783
 31
0.0
  0
LINE
  5
2406
330
18
100
AcDbEntity
  8
1
  6
Continuous
100
AcDbLine
 10
258.852371867717
 20
237.7198672574791
 30
0.0
 11
258.852371867717
 21
228.519867257479
 31
0.0
  0
ARC
  5
2407
330
18
100
AcDbEntity
  8
1
  6
Continuous
100
AcDbCircle
 10
260.1744211474084
 20
230.3416433221545
 30
0.0
 40
1.6
100
AcDbArc
 50
274.9999999999997
 51
344.5060324994781
  0
LINE
  5
2408
330
18
100
AcDbEntity
  8
1
  6
Continuous
100
AcDbLine
 10
256.7523718677168
 20
239.1198672574784
 30
0.0
 11
256.7523718677168
 21
227.1198672574783
 31
0.0
  0
LINE
  5
240B
330
18
100
AcDbEntity
  8
1
  6
Continuous
100
AcDbLine
 10
257.5523718677169
 20
227.1198672574786
 30
0.0
 11
256.7523718677168
 21
227.1198672574783
 31
0.0
  0
LINE
  5
240C
330
18
100
AcDbEntity
  8
1
  6
Continuous
100
AcDbLine
 10
258.852371867717
 20
228.519867257479
 30
0.0
 11
257.5523718677169
 21
228.519867257479
 31
0.0
  0
LINE
  5
240D
330
18
100
AcDbEntity
  8
1
  6
Continuous
100
AcDbLine
 10
258.852371867717
 20
228.6198672574789
 30
0.0
 11
260.3138703358534
 21
228.7477318052014
 31
0.0
  0
LINE
  5
2412
330
18
100
AcDbEntity
  8
1
  6
Continuous
100
AcDbLine
 10
239.2523718677175
 20
246.1198672574813
 30
0.0
 11
239.2523718677165
 21
257.1198672574813
 31
0.0
  0
LINE
  5
2413
330
18
100
AcDbEntity
  8
1
  6
Continuous
100
AcDbLine
 10
244.2523718677175
 20
246.6198672574815
 30
0.0
 11
244.2523718677166
 21
256.6198672574814
 31
0.0
  0
LINE
  5
2414
330
18
100
AcDbEntity
  8
1
  6
Continuous
100
AcDbLine
 10
245.2523718677171
 20
254.9198672574807
 30
0.0
 11
245.2523718677171
 21
247.3198672574806
 31
0.0
  0
ARC
  5
2415
330
18
100
AcDbEntity
  8
1
  6
Continuous
100
AcDbCircle
 10
238.852371867717
 20
251.1198672574805
 30
0.0
 40
9.0
100
AcDbArc
 50
344.1191499917203
 51
15.88085000827959
  0
LINE
  5
2416
330
18
100
AcDbEntity
  8
1
  6
Continuous
100
AcDbLine
 10
244.2523718677171
 20
250.1198672574806
 30
0.0
 11
245.2523718677171
 21
251.1198672574805
 31
0.0
  0
LINE
  5
2417
330
18
100
AcDbEntity
  8
1
  6
Continuous
100
AcDbLine
 10
239.2523718677173
 20
246.1198672574813
 30
0.0
 11
243.7523718677173
 21
246.1198672574814
 31
0.0
  0
ARC
  5
2418
330
18
100
AcDbEntity
  8
1
  6
Continuous
100
AcDbCircle
 10
243.7523718677176
 20
246.6198672574815
 30
0.0
 40
0.5
100
AcDbArc
 50
270.0000000000031
 51
0.0000000000048853
  0
LINE
  5
2419
330
18
100
AcDbEntity
  8
1
  6
Continuous
100
AcDbLine
 10
245.2523718677171
 20
247.3198672574806
 30
0.0
 11
244.2523718677171
 21
247.3198672574806
 31
0.0
  0
ARC
  5
241A
330
18
100
AcDbEntity
  8
1
  6
Continuous
100
AcDbCircle
 10
246.2584845919398
 20
249.0128565038944
 30
0.0
 40
1.3
100
AcDbArc
 50
274.9999999999997
 51
344.1191499917203
  0
LINE
  5
241B
330
18
100
AcDbEntity
  8
1
  6
Continuous
100
AcDbLine
 10
245.252371867717
 20
247.6198672574806
 30
0.0
 11
246.3717870575515
 21
247.7178033963697
 31
0.0
  0
LINE
  5
241C
330
18
100
AcDbEntity
  8
4
  6
CENTER
 48
0.5
100
AcDbLine
 10
264.357234572443
 20
233.1198672574791
 30
0.0
 11
253.6182772044055
 21
233.1198672574791
 31
0.0
  0
LINE
  5
241D
330
18
100
AcDbEntity
  8
1
  6
Continuous
100
AcDbLine
 10
257.5523718677169
 20
239.1198672574786
 30
0.0
 11
256.7523718677168
 21
239.1198672574784
 31
0.0
  0
LINE
  5
241E
330
18
100
AcDbEntity
  8
1
  6
Continuous
100
AcDbLine
 10
258.852371867717
 20
237.7198672574791
 30
0.0
 11
257.5523718677169
 21
237.7198672574791
 31
0.0
  0
ARC
  5
241F
330
18
100
AcDbEntity
  8
1
  6
Continuous
100
AcDbCircle
 10
260.1744211473911
 20
235.8980911927994
 30
0.0
 40
1.6
100
AcDbArc
 50
15.49396750052177
 51
85.00000000000019
  0
LINE
  5
2420
330
18
100
AcDbEntity
  8
1
  6
Continuous
100
AcDbLine
 10
258.8523718677168
 20
237.6198672574791
 30
0.0
 11
260.3138703358122
 21
237.4920027097603
 31
0.0
  0
ARC
  5
2421
330
18
100
AcDbEntity
  8
1
  6
Continuous
100
AcDbCircle
 10
250.1523718677171
 20
233.1198672574791
 30
0.0
 40
12.0
100
AcDbArc
 50
344.5060324994781
 51
15.49396750052177
  0
LINE
  5
2422
330
18
100
AcDbEntity
  8
1
  6
Continuous
100
AcDbLine
 10
257.5523718677169
 20
233.1198672574791
 30
0.0
 11
258.852371867717
 21
234.419867257479
 31
0.0
  0
LINE
  5
2423
330
18
100
AcDbEntity
  8
1
  6
Continuous
100
AcDbLine
 10
257.5523718677169
 20
231.8198672574791
 30
0.0
 11
258.852371867717
 21
233.1198672574791
 31
0.0
  0
LINE
  5
2424
330
18
100
AcDbEntity
  8
4
  6
CENTER
 48
0.5
100
AcDbLine
 10
250.2523718677171
 20
251.1198672574805
 30
0.0
 11
236.7054181095631
 21
251.1198672574805
 31
0.0
  0
LINE
  5
2425
330
18
100
AcDbEntity
  8
1
  6
Continuous
100
AcDbLine
 10
239.2523718677165
 20
257.1198672574813
 30
0.0
 11
243.7523718677165
 21
257.1198672574814
 31
0.0
  0
ARC
  5
2426
330
18
100
AcDbEntity
  8
1
  6
Continuous
100
AcDbCircle
 10
243.7523718677164
 20
256.6198672574815
 30
0.0
 40
0.5
100
AcDbArc
 50
0.0000000000048853
 51
90.00000000000325
  0
LINE
  5
2427
330
18
100
AcDbEntity
  8
1
  6
Continuous
100
AcDbLine
 10
245.2523718677171
 20
254.9198672574807
 30
0.0
 11
244.2523718677171
 21
254.9198672574807
 31
0.0
  0
ARC
  5
2428
330
18
100
AcDbEntity
  8
1
  6
Continuous
100
AcDbCircle
 10
246.258484591926
 20
253.2268780110634
 30
0.0
 40
1.3
100
AcDbArc
 50
15.88085000827959
 51
85.00000000000019
  0
LINE
  5
2429
330
18
100
AcDbEntity
  8
1
  6
Continuous
100
AcDbLine
 10
245.2523718677171
 20
254.6198672574806
 30
0.0
 11
246.3717870575179
 21
254.5219311185941
 31
0.0
  0
LINE
  5
242A
330
18
100
AcDbEntity
  8
1
  6
Continuous
100
AcDbLine
 10
244.2523718677171
 20
251.1198672574805
 30
0.0
 11
245.2523718677171
 21
252.1198672574805
 31
0.0
  0
LINE
  5
242F
330
18
100
AcDbEntity
  8
1
  6
Continuous
100
AcDbLine
 10
239.2523718677175
 20
151.119867257484
 30
0.0
 11
239.2523718677165
 21
140.119867257484
 31
0.0
  0
LINE
  5
2430
330
18
100
AcDbEntity
  8
1
  6
Continuous
100
AcDbLine
 10
244.2523718677175
 20
150.6198672574838
 30
0.0
 11
244.2523718677165
 21
140.6198672574839
 31
0.0
  0
LINE
  5
2431
330
18
100
AcDbEntity
  8
1
  6
Continuous
100
AcDbLine
 10
245.252371867717
 20
149.9198672574808
 30
0.0
 11
245.252371867717
 21
142.3198672574808
 31
0.0
  0
ARC
  5
2432
330
18
100
AcDbEntity
  8
1
  6
Continuous
100
AcDbCircle
 10
238.852371867717
 20
146.1198672574808
 30
0.0
 40
9.0
100
AcDbArc
 50
344.1191499917203
 51
15.88085000827959
  0
LINE
  5
2433
330
18
100
AcDbEntity
  8
1
  6
Continuous
100
AcDbLine
 10
244.2523718677171
 20
145.1198672574808
 30
0.0
 11
245.252371867717
 21
146.1198672574808
 31
0.0
  0
LINE
  5
2435
330
18
100
AcDbEntity
  8
1
  6
Continuous
100
AcDbLine
 10
239.2523718677165
 20
140.119867257484
 30
0.0
 11
243.7523718677165
 21
140.1198672574837
 31
0.0
  0
ARC
  5
2436
330
18
100
AcDbEntity
  8
1
  6
Continuous
100
AcDbCircle
 10
243.7523718677164
 20
140.6198672574839
 30
0.0
 40
0.5
100
AcDbArc
 50
269.9999999999934
 51
359.9999999999951
  0
LINE
  5
2437
330
18
100
AcDbEntity
  8
1
  6
Continuous
100
AcDbLine
 10
245.252371867717
 20
142.3198672574808
 30
0.0
 11
244.2523718677171
 21
142.3198672574808
 31
0.0
  0
ARC
  5
2438
330
18
100
AcDbEntity
  8
1
  6
Continuous
100
AcDbCircle
 10
246.2584845919399
 20
144.0128565038945
 30
0.0
 40
1.3
100
AcDbArc
 50
274.9999999999997
 51
344.1191499917203
  0
LINE
  5
2439
330
18
100
AcDbEntity
  8
1
  6
Continuous
100
AcDbLine
 10
245.252371867717
 20
142.6198672574808
 30
0.0
 11
246.3717870575516
 21
142.71780339637
 31
0.0
  0
LINE
  5
243A
330
18
100
AcDbEntity
  8
4
  6
CENTER
 48
0.5
100
AcDbLine
 10
250.2523718677171
 20
146.1198672574808
 30
0.0
 11
236.3840474035269
 21
146.1198672574808
 31
0.0
  0
LINE
  5
243B
330
18
100
AcDbEntity
  8
1
  6
Continuous
100
AcDbLine
 10
239.2523718677175
 20
151.1198672574842
 30
0.0
 11
243.7523718677175
 21
151.119867257484
 31
0.0
  0
ARC
  5
243C
330
18
100
AcDbEntity
  8
1
  6
Continuous
100
AcDbCircle
 10
243.7523718677175
 20
150.6198672574838
 30
0.0
 40
0.5
100
AcDbArc
 50
359.9999999999951
 51
89.99999999999348
  0
LINE
  5
243D
330
18
100
AcDbEntity
  8
1
  6
Continuous
100
AcDbLine
 10
245.252371867717
 20
149.9198672574808
 30
0.0
 11
244.2523718677171
 21
149.9198672574808
 31
0.0
  0
ARC
  5
243E
330
18
100
AcDbEntity
  8
1
  6
Continuous
100
AcDbCircle
 10
246.2584845919258
 20
148.2268780110636
 30
0.0
 40
1.3
100
AcDbArc
 50
15.88085000827959
 51
85.00000000000019
  0
LINE
  5
243F
330
18
100
AcDbEntity
  8
1
  6
Continuous
100
AcDbLine
 10
245.252371867717
 20
149.6198672574808
 30
0.0
 11
246.371787057518
 21
149.5219311185945
 31
0.0
  0
LINE
  5
2440
330
18
100
AcDbEntity
  8
1
  6
Continuous
100
AcDbLine
 10
244.2523718677171
 20
146.1198672574808
 30
0.0
 11
245.252371867717
 21
147.1198672574806
 31
0.0
  0
LINE
  5
2445
330
18
100
AcDbEntity
  8
4
  6
CENTER
 48
0.5
100
AcDbLine
 10
250.2523718677171
 20
52.80129509841294
 30
0.0
 11
236.7054181095631
 21
52.80129509841294
 31
0.0
  0
ARC
  5
2446
330
18
100
AcDbEntity
  8
1
  6
Continuous
100
AcDbCircle
 10
238.8523718677169
 20
52.80129509841294
 30
0.0
 40
9.0
100
AcDbArc
 50
344.1191499917203
 51
15.88085000827959
  0
LINE
  5
2447
330
18
100
AcDbEntity
  8
1
  6
Continuous
100
AcDbLine
 10
239.2523718677177
 20
45.8012950984122
 30
0.0
 11
239.2523718677165
 21
59.80129509841361
 31
0.0
  0
LINE
  5
2448
330
18
100
AcDbEntity
  8
1
  6
Continuous
100
AcDbLine
 10
244.2523718677176
 20
46.30129509841185
 30
0.0
 11
244.2523718677165
 21
59.30129509841389
 31
0.0
  0
LINE
  5
2449
330
18
100
AcDbEntity
  8
1
  6
Continuous
100
AcDbLine
 10
245.252371867717
 20
56.60129509841301
 30
0.0
 11
245.252371867717
 21
49.00129509841292
 31
0.0
  0
ARC
  5
244A
330
18
100
AcDbEntity
  8
1
  6
Continuous
100
AcDbCircle
 10
246.258484591926
 20
54.90830585199582
 30
0.0
 40
1.3
100
AcDbArc
 50
15.88085000827959
 51
85.00000000000019
  0
LINE
  5
244B
330
18
100
AcDbEntity
  8
1
  6
Continuous
100
AcDbLine
 10
239.2523718677165
 20
45.8012950984122
 30
0.0
 11
243.7523718677165
 21
45.80129509841197
 31
0.0
  0
LINE
  5
244C
330
18
100
AcDbEntity
  8
1
  6
Continuous
100
AcDbLine
 10
244.2523718677171
 20
52.80129509841294
 30
0.0
 11
245.252371867717
 21
53.80129509841289
 31
0.0
  0
LINE
  5
244D
330
18
100
AcDbEntity
  8
1
  6
Continuous
100
AcDbLine
 10
245.252371867717
 20
49.30129509841293
 30
0.0
 11
246.3717870575514
 21
49.3992312373021
 31
0.0
  0
ARC
  5
244E
330
18
100
AcDbEntity
  8
1
  6
Continuous
100
AcDbCircle
 10
243.7523718677164
 20
46.30129509841188
 30
0.0
 40
0.5
100
AcDbArc
 50
269.9999999999934
 51
359.9999999999951
  0
LINE
  5
244F
330
18
100
AcDbEntity
  8
1
  6
Continuous
100
AcDbLine
 10
245.252371867717
 20
49.00129509841292
 30
0.0
 11
244.2523718677171
 21
49.00129509841292
 31
0.0
  0
LINE
  5
2450
330
18
100
AcDbEntity
  8
1
  6
Continuous
100
AcDbLine
 10
244.2523718677171
 20
51.80129509841299
 30
0.0
 11
245.252371867717
 21
52.80129509841294
 31
0.0
  0
ARC
  5
2451
330
18
100
AcDbEntity
  8
1
  6
Continuous
100
AcDbCircle
 10
246.2584845919396
 20
50.69428434482677
 30
0.0
 40
1.3
100
AcDbArc
 50
274.9999999999997
 51
344.1191499917203
  0
LINE
  5
2452
330
18
100
AcDbEntity
  8
1
  6
Continuous
100
AcDbLine
 10
239.2523718677165
 20
59.80129509841368
 30
0.0
 11
243.7523718677165
 21
59.8012950984139
 31
0.0
  0
LINE
  5
2453
330
18
100
AcDbEntity
  8
1
  6
Continuous
100
AcDbLine
 10
245.252371867717
 20
56.30129509841293
 30
0.0
 11
246.3717870575179
 21
56.20335895952655
 31
0.0
  0
ARC
  5
2454
330
18
100
AcDbEntity
  8
1
  6
Continuous
100
AcDbCircle
 10
243.7523718677164
 20
59.30129509841396
 30
0.0
 40
0.5
100
AcDbArc
 50
0.0000000000048853
 51
90.00000000000325
  0
LINE
  5
2455
330
18
100
AcDbEntity
  8
1
  6
Continuous
100
AcDbLine
 10
245.252371867717
 20
56.60129509841301
 30
0.0
 11
244.2523718677171
 21
56.60129509841301
 31
0.0
  0
LINE
  5
2458
330
18
100
AcDbEntity
  8
4
  6
CENTER
 48
0.5
100
AcDbLine
 10
427.7980984435897
 20
146.1198672574808
 30
0.0
 11
441.6664229077801
 21
146.1198672574808
 31
0.0
  0
LINE
  5
245A
330
18
100
AcDbEntity
  8
1
  6
Continuous
100
AcDbLine
 10
438.7980984435894
 20
151.119867257484
 30
0.0
 11
438.7980984435904
 21
140.119867257484
 31
0.0
  0
LINE
  5
245B
330
18
100
AcDbEntity
  8
1
  6
Continuous
100
AcDbLine
 10
432.7980984435897
 20
149.9198672574808
 30
0.0
 11
432.7980984435897
 21
142.3198672574808
 31
0.0
  0
LINE
  5
245C
330
18
100
AcDbEntity
  8
1
  6
Continuous
100
AcDbLine
 10
433.7980984435894
 20
150.6198672574838
 30
0.0
 11
433.7980984435903
 21
140.6198672574839
 31
0.0
  0
LINE
  5
245E
330
18
100
AcDbEntity
  8
1
  6
Continuous
100
AcDbLine
 10
433.7980984435897
 20
146.1198672574808
 30
0.0
 11
432.7980984435897
 21
145.1198672574809
 31
0.0
  0
ARC
  5
245F
330
18
100
AcDbEntity
  8
1
  6
Continuous
100
AcDbCircle
 10
439.1980984435898
 20
146.1198672574808
 30
0.0
 40
9.0
100
AcDbArc
 50
164.1191499917204
 51
195.8808500082795
  0
LINE
  5
2461
330
18
100
AcDbEntity
  8
1
  6
Continuous
100
AcDbLine
 10
438.7980984435904
 20
140.119867257484
 30
0.0
 11
434.2980984435903
 21
140.1198672574837
 31
0.0
  0
ARC
  5
2462
330
18
100
AcDbEntity
  8
1
  6
Continuous
100
AcDbCircle
 10
431.7919857193668
 20
144.0128565038945
 30
0.0
 40
1.3
100
AcDbArc
 50
195.8808500082795
 51
265.0000000000001
  0
LINE
  5
2463
330
18
100
AcDbEntity
  8
1
  6
Continuous
100
AcDbLine
 10
432.7980984435897
 20
142.6198672574808
 30
0.0
 11
431.6786832537554
 21
142.71780339637
 31
0.0
  0
ARC
  5
2464
330
18
100
AcDbEntity
  8
1
  6
Continuous
100
AcDbCircle
 10
434.2980984435904
 20
140.6198672574839
 30
0.0
 40
0.5
100
AcDbArc
 50
180.0000000000047
 51
270.0000000000031
  0
LINE
  5
2465
330
18
100
AcDbEntity
  8
1
  6
Continuous
100
AcDbLine
 10
432.7980984435897
 20
142.3198672574808
 30
0.0
 11
433.7980984435897
 21
142.3198672574808
 31
0.0
  0
LINE
  5
2466
330
18
100
AcDbEntity
  8
1
  6
Continuous
100
AcDbLine
 10
438.7980984435894
 20
151.1198672574842
 30
0.0
 11
434.2980984435894
 21
151.119867257484
 31
0.0
  0
ARC
  5
2467
330
18
100
AcDbEntity
  8
1
  6
Continuous
100
AcDbCircle
 10
431.7919857193809
 20
148.2268780110636
 30
0.0
 40
1.3
100
AcDbArc
 50
94.99999999999982
 51
164.1191499917204
  0
LINE
  5
2468
330
18
100
AcDbEntity
  8
1
  6
Continuous
100
AcDbLine
 10
433.7980984435897
 20
147.1198672574808
 30
0.0
 11
432.7980984435897
 21
146.1198672574808
 31
0.0
  0
LINE
  5
2469
330
18
100
AcDbEntity
  8
1
  6
Continuous
100
AcDbLine
 10
432.7980984435897
 20
149.6198672574808
 30
0.0
 11
431.6786832537888
 21
149.5219311185945
 31
0.0
  0
ARC
  5
246A
330
18
100
AcDbEntity
  8
1
  6
Continuous
100
AcDbCircle
 10
434.2980984435894
 20
150.6198672574838
 30
0.0
 40
0.5
100
AcDbArc
 50
90.00000000000325
 51
180.0000000000047
  0
LINE
  5
246B
330
18
100
AcDbEntity
  8
1
  6
Continuous
100
AcDbLine
 10
432.7980984435897
 20
149.9198672574808
 30
0.0
 11
433.7980984435897
 21
149.9198672574808
 31
0.0
  0
LINE
  5
246D
330
18
100
AcDbEntity
  8
1
  6
Continuous
100
AcDbLine
 10
420.4980984435891
 20
239.1198672574818
 30
0.0
 11
420.4980984435891
 21
227.1198672574818
 31
0.0
  0
LINE
  5
246E
330
18
100
AcDbEntity
  8
1
  6
Continuous
100
AcDbLine
 10
419.1980984435893
 20
237.7198672574825
 30
0.0
 11
419.1980984435893
 21
228.5198672574825
 31
0.0
  0
ARC
  5
246F
330
18
100
AcDbEntity
  8
1
  6
Continuous
100
AcDbCircle
 10
417.8760491638978
 20
230.3416433221581
 30
0.0
 40
1.6
100
AcDbArc
 50
195.4939675005217
 51
265.0000000000001
  0
LINE
  5
2470
330
18
100
AcDbEntity
  8
1
  6
Continuous
100
AcDbLine
 10
421.2980984435894
 20
239.1198672574818
 30
0.0
 11
421.2980984435894
 21
227.1198672574818
 31
0.0
  0
LINE
  5
2474
330
18
100
AcDbEntity
  8
1
  6
Continuous
100
AcDbLine
 10
419.1980984435893
 20
228.5198672574825
 30
0.0
 11
420.4980984435891
 21
228.5198672574825
 31
0.0
  0
LINE
  5
2475
330
18
100
AcDbEntity
  8
1
  6
Continuous
100
AcDbLine
 10
419.1980984435893
 20
228.6198672574824
 30
0.0
 11
417.736599975453
 21
228.7477318052049
 31
0.0
  0
LINE
  5
2476
330
18
100
AcDbEntity
  8
1
  6
Continuous
100
AcDbLine
 10
420.4980984435891
 20
227.1198672574819
 30
0.0
 11
421.2980984435894
 21
227.1198672574818
 31
0.0
  0
LINE
  5
247A
330
18
100
AcDbEntity
  8
4
  6
CENTER
 48
0.5
100
AcDbLine
 10
427.7980984435897
 20
251.1198672574805
 30
0.0
 11
441.3450522017437
 21
251.1198672574805
 31
0.0
  0
LINE
  5
247C
330
18
100
AcDbEntity
  8
4
  6
CENTER
 48
0.5
100
AcDbLine
 10
413.6932357388633
 20
233.1198672574824
 30
0.0
 11
424.4321931069007
 21
233.1198672574824
 31
0.0
  0
LINE
  5
247D
330
18
100
AcDbEntity
  8
1
  6
Continuous
100
AcDbLine
 10
419.1980984435893
 20
237.7198672574825
 30
0.0
 11
420.4980984435891
 21
237.7198672574825
 31
0.0
  0
LINE
  5
247E
330
18
100
AcDbEntity
  8
1
  6
Continuous
100
AcDbLine
 10
420.4980984435891
 20
233.1198672574824
 30
0.0
 11
419.1980984435893
 21
231.8198672574824
 31
0.0
  0
LINE
  5
247F
330
18
100
AcDbEntity
  8
1
  6
Continuous
100
AcDbLine
 10
420.4980984435891
 20
234.4198672574824
 30
0.0
 11
419.1980984435893
 21
233.1198672574824
 31
0.0
  0
ARC
  5
2480
330
18
100
AcDbEntity
  8
1
  6
Continuous
100
AcDbCircle
 10
427.8980984435889
 20
233.1198672574824
 30
0.0
 40
12.0
100
AcDbArc
 50
164.5060324994781
 51
195.4939675005217
  0
LINE
  5
2481
330
18
100
AcDbEntity
  8
1
  6
Continuous
100
AcDbLine
 10
419.1980984435893
 20
237.6198672574825
 30
0.0
 11
417.7365999754941
 21
237.4920027097636
 31
0.0
  0
ARC
  5
2482
330
18
100
AcDbEntity
  8
1
  6
Continuous
100
AcDbCircle
 10
417.8760491639151
 20
235.8980911928028
 30
0.0
 40
1.6
100
AcDbArc
 50
94.99999999999982
 51
164.5060324994781
  0
LINE
  5
2483
330
18
100
AcDbEntity
  8
1
  6
Continuous
100
AcDbLine
 10
420.4980984435891
 20
239.1198672574819
 30
0.0
 11
421.2980984435894
 21
239.1198672574818
 31
0.0
  0
LINE
  5
2484
330
18
100
AcDbEntity
  8
1
  6
Continuous
100
AcDbLine
 10
438.7980984435894
 20
246.1198672574813
 30
0.0
 11
438.7980984435903
 21
257.1198672574813
 31
0.0
  0
LINE
  5
2485
330
18
100
AcDbEntity
  8
1
  6
Continuous
100
AcDbLine
 10
432.7980984435897
 20
254.9198672574807
 30
0.0
 11
432.7980984435897
 21
247.3198672574806
 31
0.0
  0
LINE
  5
2486
330
18
100
AcDbEntity
  8
1
  6
Continuous
100
AcDbLine
 10
433.7980984435894
 20
246.6198672574815
 30
0.0
 11
433.7980984435903
 21
256.6198672574814
 31
0.0
  0
LINE
  5
2488
330
18
100
AcDbEntity
  8
1
  6
Continuous
100
AcDbLine
 10
433.7980984435897
 20
251.1198672574805
 30
0.0
 11
432.7980984435897
 21
250.1198672574806
 31
0.0
  0
ARC
  5
2489
330
18
100
AcDbEntity
  8
1
  6
Continuous
100
AcDbCircle
 10
439.1980984435898
 20
251.1198672574805
 30
0.0
 40
9.0
100
AcDbArc
 50
164.1191499917204
 51
195.8808500082795
  0
LINE
  5
248A
330
18
100
AcDbEntity
  8
1
  6
Continuous
100
AcDbLine
 10
438.7980984435895
 20
246.1198672574813
 30
0.0
 11
434.2980984435895
 21
246.1198672574814
 31
0.0
  0
ARC
  5
248B
330
18
100
AcDbEntity
  8
1
  6
Continuous
100
AcDbCircle
 10
431.7919857193671
 20
249.0128565038944
 30
0.0
 40
1.3
100
AcDbArc
 50
195.8808500082795
 51
265.0000000000001
  0
LINE
  5
248C
330
18
100
AcDbEntity
  8
1
  6
Continuous
100
AcDbLine
 10
432.7980984435897
 20
247.6198672574806
 30
0.0
 11
431.6786832537554
 21
247.7178033963697
 31
0.0
  0
ARC
  5
248D
330
18
100
AcDbEntity
  8
1
  6
Continuous
100
AcDbCircle
 10
434.2980984435894
 20
246.6198672574815
 30
0.0
 40
0.5
100
AcDbArc
 50
179.999999999995
 51
269.9999999999934
  0
LINE
  5
248E
330
18
100
AcDbEntity
  8
1
  6
Continuous
100
AcDbLine
 10
432.7980984435897
 20
247.3198672574806
 30
0.0
 11
433.7980984435897
 21
247.3198672574806
 31
0.0
  0
LINE
  5
248F
330
18
100
AcDbEntity
  8
1
  6
Continuous
100
AcDbLine
 10
438.7980984435903
 20
257.1198672574813
 30
0.0
 11
434.2980984435903
 21
257.1198672574814
 31
0.0
  0
ARC
  5
2490
330
18
100
AcDbEntity
  8
1
  6
Continuous
100
AcDbCircle
 10
431.7919857193808
 20
253.2268780110634
 30
0.0
 40
1.3
100
AcDbArc
 50
94.99999999999982
 51
164.1191499917204
  0
LINE
  5
2491
330
18
100
AcDbEntity
  8
1
  6
Continuous
100
AcDbLine
 10
433.7980984435897
 20
252.1198672574805
 30
0.0
 11
432.7980984435897
 21
251.1198672574805
 31
0.0
  0
LINE
  5
2492
330
18
100
AcDbEntity
  8
1
  6
Continuous
100
AcDbLine
 10
432.7980984435897
 20
254.6198672574806
 30
0.0
 11
431.6786832537888
 21
254.5219311185941
 31
0.0
  0
ARC
  5
2493
330
18
100
AcDbEntity
  8
1
  6
Continuous
100
AcDbCircle
 10
434.2980984435904
 20
256.6198672574815
 30
0.0
 40
0.5
100
AcDbArc
 50
89.99999999999673
 51
179.999999999995
  0
LINE
  5
2494
330
18
100
AcDbEntity
  8
1
  6
Continuous
100
AcDbLine
 10
432.7980984435897
 20
254.9198672574807
 30
0.0
 11
433.7980984435897
 21
254.9198672574807
 31
0.0
  0
LINE
  5
2833
330
18
100
AcDbEntity
  8
1
  6
Continuous
 48
0.25
100
AcDbLine
 10
337.1539982415688
 20
286.6043631695477
 30
0.0
 11
337.9084811770947
 21
285.8230101763366
 31
0.0
  0
LINE
  5
2834
330
18
100
AcDbEntity
  8
1
  6
Continuous
 48
0.25
100
AcDbLine
 10
337.1539982415687
 20
287.8615990264975
 30
0.0
 11
337.9084811770948
 21
288.6429520197086
 31
0.0
  0
ARC
  5
2835
330
18
100
AcDbEntity
  8
1
  6
Continuous
 48
0.25
100
AcDbCircle
 10
335.9045405592122
 20
287.2329810980226
 30
0.0
 40
2.45
100
AcDbArc
 50
305.1291099999996
 51
324.8709999999999
  0
ARC
  5
2836
330
18
100
AcDbEntity
  8
1
  6
Continuous
 48
0.25
100
AcDbCircle
 10
335.9045405592122
 20
287.2329810980226
 30
0.0
 40
2.45
100
AcDbArc
 50
35.12899999999993
 51
54.87100000000006
  0
CIRCLE
  5
2837
330
18
100
AcDbEntity
  8
1
  6
Continuous
 48
0.25
100
AcDbCircle
 10
335.9045405592122
 20
287.2329810980226
 30
0.0
 40
4.5
  0
LINE
  5
2838
330
18
100
AcDbEntity
  8
4
  6
CENTER
100
AcDbLine
 10
327.9045405592114
 20
287.2329810980226
 30
0.0
 11
343.9045405592128
 21
287.2329810980226
 31
0.0
  0
CIRCLE
  5
2839
330
18
100
AcDbEntity
  8
1
  6
Continuous
100
AcDbCircle
 10
335.9045405592122
 20
287.2329810980226
 30
0.0
 40
4.599999999999909
  0
CIRCLE
  5
283A
330
18
100
AcDbEntity
  8
1
  6
Continuous
100
AcDbCircle
 10
335.9045405592122
 20
287.2329810980226
 30
0.0
 40
6.000000000000683
  0
ARC
  5
283B
330
18
100
AcDbEntity
  8
1
  6
Continuous
 48
0.25
100
AcDbCircle
 10
335.9045405592122
 20
287.2329810980226
 30
0.0
 40
2.45
100
AcDbArc
 50
215.1291000000012
 51
234.8708999999987
  0
LINE
  5
283C
330
18
100
AcDbEntity
  8
1
  6
Continuous
 48
0.25
100
AcDbLine
 10
335.2759226307373
 20
285.983523415666
 30
0.0
 11
334.4945696375261
 21
285.2290404801399
 31
0.0
  0
LINE
  5
283D
330
18
100
AcDbEntity
  8
1
  6
Continuous
 48
0.25
100
AcDbLine
 10
336.5331584876871
 20
285.983523415666
 30
0.0
 11
337.3145114808981
 21
285.2290404801399
 31
0.0
  0
LINE
  5
283E
330
18
100
AcDbEntity
  8
4
  6
CENTER
100
AcDbLine
 10
335.9045405592122
 20
279.2329810980219
 30
0.0
 11
335.9045405592122
 21
295.2329810980234
 31
0.0
  0
LINE
  5
283F
330
18
100
AcDbEntity
  8
1
  6
Continuous
 48
0.25
100
AcDbLine
 10
335.9045405592122
 20
286.2119189059892
 30
0.0
 11
335.2759226307373
 21
285.983523415666
 31
0.0
  0
LINE
  5
2840
330
18
100
AcDbEntity
  8
1
  6
Continuous
 48
0.25
100
AcDbLine
 10
335.9052476659933
 20
288.2533361832748
 30
0.0
 11
335.2759226307373
 21
288.4824387803793
 31
0.0
  0
LINE
  5
2841
330
18
100
AcDbEntity
  8
1
  6
Continuous
 48
0.25
100
AcDbLine
 10
334.8841854739598
 20
287.2322739912414
 30
0.0
 11
334.6550828768556
 21
286.6043631695479
 31
0.0
  0
LINE
  5
2842
330
18
100
AcDbEntity
  8
1
  6
Continuous
 48
0.25
100
AcDbLine
 10
334.8841854739598
 20
287.2322739912414
 30
0.0
 11
334.6550828768556
 21
287.8615990264975
 31
0.0
  0
ARC
  5
2843
330
18
100
AcDbEntity
  8
1
  6
Continuous
 48
0.25
100
AcDbCircle
 10
335.9045405592122
 20
287.2329810980226
 30
0.0
 40
2.45
100
AcDbArc
 50
125.1289999999999
 51
144.8710000000001
  0
LINE
  5
2844
330
18
100
AcDbEntity
  8
1
  6
Continuous
 48
0.25
100
AcDbLine
 10
334.6550828768556
 20
286.6043631695479
 30
0.0
 11
333.9005999413295
 21
285.8230101763366
 31
0.0
  0
LINE
  5
2845
330
18
100
AcDbEntity
  8
1
  6
Continuous
 48
0.25
100
AcDbLine
 10
334.6550828768556
 20
287.8615990264975
 30
0.0
 11
333.9005999413295
 21
288.6429520197086
 31
0.0
  0
LINE
  5
2846
330
18
100
AcDbEntity
  8
1
  6
Continuous
 48
0.25
100
AcDbLine
 10
335.2759226307373
 20
288.4824387803793
 30
0.0
 11
334.4945696375262
 21
289.2369217159052
 31
0.0
  0
LINE
  5
2847
330
18
100
AcDbEntity
  8
1
  6
Continuous
 48
0.25
100
AcDbLine
 10
336.9256027512456
 20
287.2329810980226
 30
0.0
 11
337.1539982415688
 21
286.6043631695477
 31
0.0
  0
LINE
  5
2848
330
18
100
AcDbEntity
  8
1
  6
Continuous
 48
0.25
100
AcDbLine
 10
336.9256027512456
 20
287.2329810980226
 30
0.0
 11
337.1539982415687
 21
287.8615990264975
 31
0.0
  0
LINE
  5
2849
330
18
100
AcDbEntity
  8
1
  6
Continuous
 48
0.25
100
AcDbLine
 10
335.9045405592122
 20
286.2119189059892
 30
0.0
 11
336.5331584876871
 21
285.983523415666
 31
0.0
  0
LINE
  5
284A
330
18
100
AcDbEntity
  8
1
  6
Continuous
 48
0.25
100
AcDbLine
 10
335.9052476659933
 20
288.2533361832748
 30
0.0
 11
336.5331584876869
 21
288.4824387803793
 31
0.0
  0
LINE
  5
284B
330
18
100
AcDbEntity
  8
1
  6
Continuous
 48
0.25
100
AcDbLine
 10
336.5331584876869
 20
288.4824387803793
 30
0.0
 11
337.3145114808981
 21
289.2369217159052
 31
0.0
  0
ARC
  5
2A7A
330
18
100
AcDbEntity
  8
1
  6
Continuous
100
AcDbCircle
 10
208.563324349532
 20
43.04845418927468
 30
0.0
 40
4.247159090896102
100
AcDbArc
 50
192.1693877304388
 51
270.000000000013
  0
ARC
  5
2A7B
330
18
100
AcDbEntity
  8
1
  6
Continuous
100
AcDbCircle
 10
263.0633243495653
 20
54.80129509832017
 30
0.0
 40
60.0
100
AcDbArc
 50
190.9527841988681
 51
192.1693877304854
  0
ARC
  5
2A7C
330
18
100
AcDbEntity
  8
1
  6
Continuous
100
AcDbCircle
 10
263.0633243495605
 20
50.80129509840742
 30
0.0
 40
60.0
100
AcDbArc
 50
167.8306122693743
 51
169.0472158011708
  0
ARC
  5
2A7D
330
18
100
AcDbEntity
  8
1
  6
Continuous
100
AcDbCircle
 10
208.5633243495558
 20
62.55413600758629
 30
0.0
 40
4.247159090896102
100
AcDbArc
 50
90.00000000000881
 51
167.8306122694209
  0
ARC
  5
2A93
330
18
100
AcDbEntity
  8
1
  6
Continuous
100
AcDbCircle
 10
211.096666947302
 20
359.7073662588558
 30
0.0
 40
1.0
100
AcDbArc
 50
0.0
 51
90.00000000002492
  0
ARC
  5
2A94
330
18
100
AcDbEntity
  8
1
  6
Continuous
100
AcDbCircle
 10
211.096666947302
 20
338.707366258693
 30
0.0
 40
1.0
100
AcDbArc
 50
270.0000000001148
 51
0.0
  0
LINE
  5
2A98
330
18
100
AcDbEntity
  8
4
  6
CENTER
 48
0.5
100
AcDbLine
 10
197.0105200970274
 20
166.1198672574796
 30
0.0
 11
205.8178535359956
 21
166.1198672574796
 31
0.0
  0
LINE
  5
2A99
330
18
100
AcDbEntity
  8
4
  6
CENTER
 48
0.5
100
AcDbLine
 10
467.4039600703762
 20
166.1198672574796
 30
0.0
 11
476.0744156913252
 21
166.1198672574796
 31
0.0
  0
LINE
  5
2A9A
330
18
100
AcDbEntity
  8
4
  6
CENTER
100
AcDbLine
 10
206.8966669473656
 20
61.55522884776416
 30
0.0
 11
206.8966669473656
 21
44.04736134908818
 31
0.0
  0
LINE
  5
2B35
330
18
100
AcDbEntity
  8
1
  6
Continuous
100
AcDbLine
 10
211.096666947302
 20
258.1198672574803
 30
0.0
 11
211.096666947302
 21
139.1198672574804
 31
0.0
  0
LINE
  5
2B36
330
18
100
AcDbEntity
  8
1
  6
Continuous
100
AcDbLine
 10
462.1172034485176
 20
258.1198672574803
 30
0.0
 11
462.1172034485176
 21
139.1198672574804
 31
0.0
  0
LINE
  5
2B37
330
18
100
AcDbEntity
  8
1
  6
Continuous
100
AcDbLine
 10
211.0966669472285
 20
363.2073662587695
 30
0.0
 11
211.0966669472285
 21
335.2073662587695
 31
0.0
  0
LINE
  5
2B38
330
18
100
AcDbEntity
  8
1
  6
Continuous
100
AcDbLine
 10
211.0966669472984
 20
66.80129509838508
 30
0.0
 11
211.0966669472984
 21
38.80129509838507
 31
0.0
  0
LINE
  5
2B49
330
18
100
AcDbEntity
  8
1
  6
Continuous
100
AcDbLine
 10
326.4045405592121
 20
151.6198672574949
 30
0.0
 11
345.4045405592121
 21
151.6198672574949
 31
0.0
  0
ARC
  5
2B4A
330
18
100
AcDbEntity
  8
1
  6
Continuous
100
AcDbCircle
 10
326.4045405592121
 20
243.6198672574987
 30
0.0
 40
2.0
100
AcDbArc
 50
90.00000000002122
 51
180.0
  0
ARC
  5
2B4B
330
18
100
AcDbEntity
  8
1
  6
Continuous
100
AcDbCircle
 10
345.4045405592121
 20
243.6198672575058
 30
0.0
 40
2.0
100
AcDbArc
 50
0.0
 51
90.00000000002129
  0
ARC
  5
2B4C
330
18
100
AcDbEntity
  8
1
  6
Continuous
100
AcDbCircle
 10
326.4045405592121
 20
153.6198672574949
 30
0.0
 40
2.0
100
AcDbArc
 50
180.0
 51
270.0
  0
ARC
  5
2B4D
330
18
100
AcDbEntity
  8
1
  6
Continuous
100
AcDbCircle
 10
345.4045405592121
 20
153.6198672574949
 30
0.0
 40
2.0
100
AcDbArc
 50
270.0
 51
0.0
  0
LINE
  5
3305
330
18
100
AcDbEntity
  8
1
  6
Continuous
100
AcDbLine
 10
344.904540559213
 20
151.6798672575055
 30
0.0
 11
326.9045405592132
 21
151.6798672574989
 31
0.0
  0
ENDSEC
  0
SECTION
  2
OBJECTS
  0
DICTIONARY
  5
C
330
0
100
AcDbDictionary
281
     1
  3
ACAD_CIP_PREVIOUS_PRODUCT_INFO
350
35B9
  3
ACAD_COLOR
350
359C
  3
ACAD_DETAILVIEWSTYLE
350
35B5
  3
ACAD_GROUP
350
D
  3
ACAD_LAYOUT
350
94
  3
ACAD_MATERIAL
350
356A
  3
ACAD_MLEADERSTYLE
350
35B1
  3
ACAD_MLINESTYLE
350
1B
  3
ACAD_PLOTSETTINGS
350
95
  3
ACAD_PLOTSTYLENAME
350
3568
  3
ACAD_SCALELIST
350
359F
  3
ACAD_SECTIONVIEWSTYLE
350
35B3
  3
ACAD_TABLESTYLE
350
359D
  3
ACAD_VISUALSTYLE
350
3583
  3
ACDB_RECOMPOSE_DATA
350
35D7
  3
AcDbVariableDictionary
350
35CA
  3
CONTENTDICTIONARY
350
3D
  3
DWGPROPS
350
35D8
  0
DICTIONARY
  5
35BA
330
E
100
AcDbDictionary
280
     1
281
     1
  3
ADSK_XREC_LAYER_RECONCILED
360
35BB
  0
DICTIONARY
  5
35BC
330
4E
100
AcDbDictionary
280
     1
281
     1
  3
ADSK_XREC_LAYER_RECONCILED
360
35BD
  0
DICTIONARY
  5
35BE
330
4F
100
AcDbDictionary
280
     1
281
     1
  3
ADSK_XREC_LAYER_RECONCILED
360
35BF
  0
DICTIONARY
  5
35C0
330
50
100
AcDbDictionary
280
     1
281
     1
  3
ADSK_XREC_LAYER_RECONCILED
360
35C1
  0
DICTIONARY
  5
35C2
330
51
100
AcDbDictionary
280
     1
281
     1
  3
ADSK_XREC_LAYER_RECONCILED
360
35C3
  0
DICTIONARY
  5
35C4
330
52
100
AcDbDictionary
280
     1
281
     1
  3
ADSK_XREC_LAYER_RECONCILED
360
35C5
  0
DICTIONARY
  5
35C6
330
53
100
AcDbDictionary
280
     1
281
     1
  3
ADSK_XREC_LAYER_RECONCILED
360
35C7
  0
DICTIONARY
  5
35C8
330
54
100
AcDbDictionary
280
     1
281
     1
  3
ADSK_XREC_LAYER_RECONCILED
360
35C9
  0
DICTIONARY
  5
2B2C
330
18
100
AcDbDictionary
281
     1
  3
ACAD_LAYOUTSELFREF
350
3564
  0
DICTIONARY
  5
2B2A
330
15
100
AcDbDictionary
281
     1
  3
ACAD_LAYOUTSELFREF
350
3563
  0
XRECORD
  5
35B9
102
{ACAD_REACTORS
330
C
102
}
330
C
100
AcDbXrecord
280
     1
300
ACDLT
300
2014
300
ACDLT_F_S
  0
DICTIONARY
  5
359C
102
{ACAD_REACTORS
330
C
102
}
330
C
100
AcDbDictionary
281
     1
  0
DICTIONARY
  5
35B5
102
{ACAD_REACTORS
330
C
102
}
330
C
100
AcDbDictionary
281
     1
  3
Imperial24
350
35B6
  0
DICTIONARY
  5
D
102
{ACAD_REACTORS
330
C
102
}
330
C
100
AcDbDictionary
281
     1
  0
DICTIONARY
  5
94
102
{ACAD_REACTORS
330
C
102
}
330
C
100
AcDbDictionary
281
     1
  3
Model
350
35B7
  3
レイアウト1
350
35B8
  0
DICTIONARY
  5
356A
102
{ACAD_REACTORS
330
C
102
}
330
C
100
AcDbDictionary
281
     1
  3
ByBlock
350
3573
  3
ByLayer
350
356B
  3
Global
350
357B
  0
DICTIONARY
  5
35B1
102
{ACAD_REACTORS
330
C
102
}
330
C
100
AcDbDictionary
281
     1
  3
Standard
350
35B2
  0
DICTIONARY
  5
1B
102
{ACAD_REACTORS
330
C
102
}
330
C
100
AcDbDictionary
281
     1
  3
STANDARD
350
1C
  0
DICTIONARY
  5
95
102
{ACAD_REACTORS
330
C
102
}
330
C
100
AcDbDictionary
281
     1
  0
ACDBDICTIONARYWDFLT
  5
3568
102
{ACAD_REACTORS
330
C
102
}
330
C
100
AcDbDictionary
281
     1
  3
Normal
350
3569
100
AcDbDictionaryWithDefault
340
3569
  0
DICTIONARY
  5
359F
102
{ACAD_REACTORS
330
C
102
}
330
C
100
AcDbDictionary
281
     1
  3
A0
350
35A0
  3
A1
350
35A1
  3
A2
350
35A2
  3
A3
350
35A3
  3
A4
350
35A4
  3
A5
350
35A5
  3
A6
350
35A6
  3
A7
350
35A7
  3
A8
350
35A8
  3
A9
350
35A9
  3
B0
350
35AA
  3
B1
350
35AB
  3
B2
350
35AC
  3
B3
350
35AD
  3
B4
350
35AE
  3
B5
350
35AF
  3
B6
350
35B0
  0
DICTIONARY
  5
35B3
102
{ACAD_REACTORS
330
C
102
}
330
C
100
AcDbDictionary
281
     1
  3
Imperial24
350
35B4
  0
DICTIONARY
  5
359D
102
{ACAD_REACTORS
330
C
102
}
330
C
100
AcDbDictionary
281
     1
  3
Standard
350
359E
  0
DICTIONARY
  5
3583
102
{ACAD_REACTORS
330
C
102
}
330
C
100
AcDbDictionary
281
     1
  3
2dWireframe
350
3589
  3
Basic
350
3588
  3
Brighten
350
358F
  3
ColorChange
350
3593
  3
Conceptual
350
358C
  3
Dim
350
358E
  3
EdgeColorOff
350
359B
  3
Facepattern
350
3592
  3
Flat
350
3584
  3
FlatWithEdges
350
3585
  3
Gouraud
350
3586
  3
GouraudWithEdges
350
3587
  3
Hidden
350
358B
  3
JitterOff
350
3599
  3
Linepattern
350
3591
  3
OverhangOff
350
359A
  3
Realistic
350
358D
  3
Shaded
350
3598
  3
Shaded with edges
350
3597
  3
Shades of Gray
350
3594
  3
Sketchy
350
3595
  3
Thicken
350
3590
  3
Wireframe
350
358A
  3
X-Ray
350
3596
  0
XRECORD
  5
35D7
102
{ACAD_REACTORS
330
C
102
}
330
C
100
AcDbXrecord
280
     1
 90
        1
330
359E
  0
DICTIONARY
  5
35CA
102
{ACAD_REACTORS
330
C
102
}
330
C
100
AcDbDictionary
281
     1
  3
CANNOSCALE
350
35CF
  3
CMLEADERSTYLE
350
35CC
  3
CTABLESTYLE
350
35CB
  3
CVIEWDETAILSTYLE
350
35CD
  3
CVIEWSECTIONSTYLE
350
35CE
  3
DIMASSOC
350
35D2
  3
INDEXCTL
350
35D1
  3
SORTENTS
350
35D0
  3
XCLIPFRAME
350
35D3
  0
DICTIONARY
  5
3D
102
{ACAD_REACTORS
330
C
102
}
330
C
100
AcDbDictionary
281
     1
  0
XRECORD
  5
35D8
102
{ACAD_REACTORS
330
C
102
}
330
C
100
AcDbXrecord
280
     1
  1
DWGPROPS COOKIE
  2

  3

  4

  6

  7

  8
Yoshitsune
  9

300
=
301
=
302
=
303
=
304
=
305
=
306
=
307
=
308
=
309
=
 40
0.2879550810185185
 41
2453028.581548565
 42
2457192.643630012
  1

 90
        0
  0
XRECORD
  5
35BB
102
{ACAD_REACTORS
330
35BA
102
}
330
35BA
100
AcDbXrecord
280
     1
290
     1
  0
XRECORD
  5
35BD
102
{ACAD_REACTORS
330
35BC
102
}
330
35BC
100
AcDbXrecord
280
     1
290
     1
  0
XRECORD
  5
35BF
102
{ACAD_REACTORS
330
35BE
102
}
330
35BE
100
AcDbXrecord
280
     1
290
     1
  0
XRECORD
  5
35C1
102
{ACAD_REACTORS
330
35C0
102
}
330
35C0
100
AcDbXrecord
280
     1
290
     1
  0
XRECORD
  5
35C3
102
{ACAD_REACTORS
330
35C2
102
}
330
35C2
100
AcDbXrecord
280
     1
290
     1
  0
XRECORD
  5
35C5
102
{ACAD_REACTORS
330
35C4
102
}
330
35C4
100
AcDbXrecord
280
     1
290
     1
  0
XRECORD
  5
35C7
102
{ACAD_REACTORS
330
35C6
102
}
330
35C6
100
AcDbXrecord
280
     1
290
     1
  0
XRECORD
  5
35C9
102
{ACAD_REACTORS
330
35C8
102
}
330
35C8
100
AcDbXrecord
280
     1
290
     1
  0
XRECORD
  5
3564
102
{ACAD_REACTORS
330
2B2C
102
}
330
2B2C
100
AcDbXrecord
280
     1
340
18
  0
XRECORD
  5
3563
102
{ACAD_REACTORS
330
2B2A
102
}
330
2B2A
100
AcDbXrecord
280
     1
340
15
  0
ACDBDETAILVIEWSTYLE
  5
35B6
102
{ACAD_XDICTIONARY
360
3610
102
}
102
{ACAD_REACTORS
330
35B5
102
}
330
35B5
100
AcDbModelDocViewStyle
 70
     0
  3
Imperial24
290
     0
100
AcDbDetailViewStyle
 70
     0
 71
     0
 90
        3
 71
     1
340
F
 40
0.24
340
0
 40
0.24
300

 40
0.36
280
     3
 71
     2
340
14
 90
       25
 71
     3
340
F
 40
0.24
 90
        1
 40
0.75
 90
        1
300
%<\AcVar ViewType \f "%tc1">% %<\AcVar ViewDetailId>%\PSCALE %<\AcVar ViewScale \f "%sn">%
 71
     4
340
14
 90
       25
340
14
 90
       25
280
     0
  0
LAYOUT
  5
35B7
102
{ACAD_XDICTIONARY
360
3612
102
}
102
{ACAD_REACTORS
330
94
102
}
330
94
100
AcDbPlotSettings
  1

  2
Canon LBP9100C
  4

  6

 40
0.0
 41
0.0
 42
0.0
 43
0.0
 44
0.0
 45
0.0
 46
0.0
 47
0.0
 48
0.0
 49
0.0
140
0.0
141
0.0
142
1.0
143
1.0
 70
  1712
 72
     0
 73
     0
 74
     0
  7

 75
     0
147
1.0
148
0.0
149
0.0
100
AcDbLayout
  1
Model
 70
     1
 71
     0
 10
0.0
 20
0.0
 11
12.0
 21
9.0
 12
0.0
 22
0.0
 32
0.0
 14
0.0
 24
0.0
 34
0.0
 15
0.0
 25
0.0
 35
0.0
146
0.0
 13
0.0
 23
0.0
 33
0.0
 16
1.0
 26
0.0
 36
0.0
 17
0.0
 27
1.0
 37
0.0
 76
     0
330
18
331
3562
  0
LAYOUT
  5
35B8
102
{ACAD_XDICTIONARY
360
3614
102
}
102
{ACAD_REACTORS
330
94
102
}
330
94
100
AcDbPlotSettings
  1

  2
Canon LBP9100C
  4

  6

 40
0.0
 41
0.0
 42
0.0
 43
0.0
 44
0.0
 45
0.0
 46
0.0
 47
0.0
 48
0.0
 49
0.0
140
0.0
141
0.0
142
1.0
143
1.0
 70
   688
 72
     0
 73
     0
 74
     5
  7

 75
    16
147
1.0
148
0.0
149
0.0
100
AcDbLayout
  1
レイアウト1
 70
     1
 71
     1
 10
0.0
 20
0.0
 11
420.0
 21
297.0
 12
0.0
 22
0.0
 32
0.0
 14
1.000000000000000E+20
 24
1.000000000000000E+20
 34
1.000000000000000E+20
 15
-1.000000000000000E+20
 25
-1.000000000000000E+20
 35
-1.000000000000000E+20
146
0.0
 13
0.0
 23
0.0
 33
0.0
 16
1.0
 26
0.0
 36
0.0
 17
0.0
 27
1.0
 37
0.0
 76
     0
330
15
  0
MATERIAL
  5
3573
102
{ACAD_XDICTIONARY
360
3574
102
}
102
{ACAD_REACTORS
330
356A
102
}
330
356A
100
AcDbMaterial
  1
ByBlock
 72
     0
 43
0.0208333333333333
 43
0.0
 43
0.0
 43
0.0
 43
0.0
 43
0.0208333333333333
 43
0.0
 43
0.0
 43
0.0
 43
0.0
 43
1.0
 43
0.0
 43
0.0
 43
0.0
 43
0.0
 43
1.0
 77
     0
 47
0.0208333333333333
 47
0.0
 47
0.0
 47
0.0
 47
0.0
 47
0.0208333333333333
 47
0.0
 47
0.0
 47
0.0
 47
0.0
 47
1.0
 47
0.0
 47
0.0
 47
0.0
 47
0.0
 47
1.0
171
     0
 49
0.0208333333333333
 49
0.0
 49
0.0
 49
0.0
 49
0.0
 49
0.0208333333333333
 49
0.0
 49
0.0
 49
0.0
 49
0.0
 49
1.0
 49
0.0
 49
0.0
 49
0.0
 49
0.0
 49
1.0
175
     0
142
0.0208333333333333
142
0.0
142
0.0
142
0.0
142
0.0
142
0.0208333333333333
142
0.0
142
0.0
142
0.0
142
0.0
142
1.0
142
0.0
142
0.0
142
0.0
142
0.0
142
1.0
179
     0
144
0.0208333333333333
144
0.0
144
0.0
144
0.0
144
0.0
144
0.0208333333333333
144
0.0
144
0.0
144
0.0
144
0.0
144
1.0
144
0.0
144
0.0
144
0.0
144
0.0
144
1.0
147
0.0208333333333333
147
0.0
147
0.0
147
0.0
147
0.0
147
0.0208333333333333
147
0.0
147
0.0
147
0.0
147
0.0
147
1.0
147
0.0
147
0.0
147
0.0
147
0.0
147
1.0
  0
MATERIAL
  5
356B
102
{ACAD_XDICTIONARY
360
356C
102
}
102
{ACAD_REACTORS
330
356A
102
}
330
356A
100
AcDbMaterial
  1
ByLayer
 72
     0
 43
0.0208333333333333
 43
0.0
 43
0.0
 43
0.0
 43
0.0
 43
0.0208333333333333
 43
0.0
 43
0.0
 43
0.0
 43
0.0
 43
1.0
 43
0.0
 43
0.0
 43
0.0
 43
0.0
 43
1.0
 77
     0
 47
0.0208333333333333
 47
0.0
 47
0.0
 47
0.0
 47
0.0
 47
0.0208333333333333
 47
0.0
 47
0.0
 47
0.0
 47
0.0
 47
1.0
 47
0.0
 47
0.0
 47
0.0
 47
0.0
 47
1.0
171
     0
 49
0.0208333333333333
 49
0.0
 49
0.0
 49
0.0
 49
0.0
 49
0.0208333333333333
 49
0.0
 49
0.0
 49
0.0
 49
0.0
 49
1.0
 49
0.0
 49
0.0
 49
0.0
 49
0.0
 49
1.0
175
     0
142
0.0208333333333333
142
0.0
142
0.0
142
0.0
142
0.0
142
0.0208333333333333
142
0.0
142
0.0
142
0.0
142
0.0
142
1.0
142
0.0
142
0.0
142
0.0
142
0.0
142
1.0
179
     0
144
0.0208333333333333
144
0.0
144
0.0
144
0.0
144
0.0
144
0.0208333333333333
144
0.0
144
0.0
144
0.0
144
0.0
144
1.0
144
0.0
144
0.0
144
0.0
144
0.0
144
1.0
147
0.0208333333333333
147
0.0
147
0.0
147
0.0
147
0.0
147
0.0208333333333333
147
0.0
147
0.0
147
0.0
147
0.0
147
1.0
147
0.0
147
0.0
147
0.0
147
0.0
147
1.0
  0
MATERIAL
  5
357B
102
{ACAD_XDICTIONARY
360
357C
102
}
102
{ACAD_REACTORS
330
356A
102
}
330
356A
100
AcDbMaterial
  1
Global
 72
     0
 43
0.0208333333333333
 43
0.0
 43
0.0
 43
0.0
 43
0.0
 43
0.0208333333333333
 43
0.0
 43
0.0
 43
0.0
 43
0.0
 43
1.0
 43
0.0
 43
0.0
 43
0.0
 43
0.0
 43
1.0
 77
     0
 47
0.0208333333333333
 47
0.0
 47
0.0
 47
0.0
 47
0.0
 47
0.0208333333333333
 47
0.0
 47
0.0
 47
0.0
 47
0.0
 47
1.0
 47
0.0
 47
0.0
 47
0.0
 47
0.0
 47
1.0
171
     0
 49
0.0208333333333333
 49
0.0
 49
0.0
 49
0.0
 49
0.0
 49
0.0208333333333333
 49
0.0
 49
0.0
 49
0.0
 49
0.0
 49
1.0
 49
0.0
 49
0.0
 49
0.0
 49
0.0
 49
1.0
175
     0
142
0.0208333333333333
142
0.0
142
0.0
142
0.0
142
0.0
142
0.0208333333333333
142
0.0
142
0.0
142
0.0
142
0.0
142
1.0
142
0.0
142
0.0
142
0.0
142
0.0
142
1.0
179
     0
144
0.0208333333333333
144
0.0
144
0.0
144
0.0
144
0.0
144
0.0208333333333333
144
0.0
144
0.0
144
0.0
144
0.0
144
1.0
144
0.0
144
0.0
144
0.0
144
0.0
144
1.0
147
0.0208333333333333
147
0.0
147
0.0
147
0.0
147
0.0
147
0.0208333333333333
147
0.0
147
0.0
147
0.0
147
0.0
147
1.0
147
0.0
147
0.0
147
0.0
147
0.0
147
1.0
  0
MLEADERSTYLE
  5
35B2
102
{ACAD_REACTORS
330
35B1
102
}
330
35B1
100
AcDbMLeaderStyle
170
     2
171
     1
172
     0
 90
        2
 40
0.0
 41
0.0
173
     1
 91
-1056964608
340
12
 92
       -2
290
     1
 42
0.09
291
     1
 43
0.36
  3
Standard
 44
0.18
300

342
F
174
     1
178
     6
175
     1
176
     0
 93
-1056964608
 45
0.18
292
     0
297
     0
 46
0.18
 94
-1056964608
 47
1.0
 49
1.0
140
1.0
293
     1
141
0.0
294
     1
177
     0
142
1.0
295
     0
296
     0
143
0.125
1001
ACAD_MLEADERVER
1070
     2
  0
MLINESTYLE
  5
1C
102
{ACAD_REACTORS
330
1B
102
}
330
1B
100
AcDbMlineStyle
  2
STANDARD
 70
     0
  3

 62
   256
 51
90.0
 52
90.0
 71
     2
 49
0.5
 62
   256
  6
BYLAYER
 49
-0.5
 62
   256
  6
BYLAYER
  0
ACDBPLACEHOLDER
  5
3569
102
{ACAD_REACTORS
330
3568
102
}
330
3568
  0
SCALE
  5
35A0
102
{ACAD_REACTORS
330
359F
102
}
330
359F
100
AcDbScale
 70
     0
300
1:1
140
1.0
141
1.0
290
     1
  0
SCALE
  5
35A1
102
{ACAD_REACTORS
330
359F
102
}
330
359F
100
AcDbScale
 70
     0
300
1/128" = 1'-0"
140
0.0078125
141
12.0
290
     0
  0
SCALE
  5
35A2
102
{ACAD_REACTORS
330
359F
102
}
330
359F
100
AcDbScale
 70
     0
300
1/64" = 1'-0"
140
0.015625
141
12.0
290
     0
  0
SCALE
  5
35A3
102
{ACAD_REACTORS
330
359F
102
}
330
359F
100
AcDbScale
 70
     0
300
1/32" = 1'-0"
140
0.03125
141
12.0
290
     0
  0
SCALE
  5
35A4
102
{ACAD_REACTORS
330
359F
102
}
330
359F
100
AcDbScale
 70
     0
300
1/16" = 1'-0"
140
0.0625
141
12.0
290
     0
  0
SCALE
  5
35A5
102
{ACAD_REACTORS
330
359F
102
}
330
359F
100
AcDbScale
 70
     0
300
3/32" = 1'-0"
140
0.09375
141
12.0
290
     0
  0
SCALE
  5
35A6
102
{ACAD_REACTORS
330
359F
102
}
330
359F
100
AcDbScale
 70
     0
300
1/8" = 1'-0"
140
0.125
141
12.0
290
     0
  0
SCALE
  5
35A7
102
{ACAD_REACTORS
330
359F
102
}
330
359F
100
AcDbScale
 70
     0
300
3/16" = 1'-0"
140
0.1875
141
12.0
290
     0
  0
SCALE
  5
35A8
102
{ACAD_REACTORS
330
359F
102
}
330
359F
100
AcDbScale
 70
     0
300
1/4" = 1'-0"
140
0.25
141
12.0
290
     0
  0
SCALE
  5
35A9
102
{ACAD_REACTORS
330
359F
102
}
330
359F
100
AcDbScale
 70
     0
300
3/8" = 1'-0"
140
0.375
141
12.0
290
     0
  0
SCALE
  5
35AA
102
{ACAD_REACTORS
330
359F
102
}
330
359F
100
AcDbScale
 70
     0
300
1/2" = 1'-0"
140
0.5
141
12.0
290
     0
  0
SCALE
  5
35AB
102
{ACAD_REACTORS
330
359F
102
}
330
359F
100
AcDbScale
 70
     0
300
3/4" = 1'-0"
140
0.75
141
12.0
290
     0
  0
SCALE
  5
35AC
102
{ACAD_REACTORS
330
359F
102
}
330
359F
100
AcDbScale
 70
     0
300
1" = 1'-0"
140
1.0
141
12.0
290
     0
  0
SCALE
  5
35AD
102
{ACAD_REACTORS
330
359F
102
}
330
359F
100
AcDbScale
 70
     0
300
1-1/2" = 1'-0"
140
1.5
141
12.0
290
     0
  0
SCALE
  5
35AE
102
{ACAD_REACTORS
330
359F
102
}
330
359F
100
AcDbScale
 70
     0
300
3" = 1'-0"
140
3.0
141
12.0
290
     0
  0
SCALE
  5
35AF
102
{ACAD_REACTORS
330
359F
102
}
330
359F
100
AcDbScale
 70
     0
300
6" = 1'-0"
140
6.0
141
12.0
290
     0
  0
SCALE
  5
35B0
102
{ACAD_REACTORS
330
359F
102
}
330
359F
100
AcDbScale
 70
     0
300
1'-0" = 1'-0"
140
12.0
141
12.0
290
     0
  0
ACDBSECTIONVIEWSTYLE
  5
35B4
102
{ACAD_XDICTIONARY
360
360E
102
}
102
{ACAD_REACTORS
330
35B3
102
}
330
35B3
100
AcDbModelDocViewStyle
 70
     0
  3
Imperial24
290
     0
100
AcDbSectionViewStyle
 70
     0
 71
     0
 90
       78
 71
     1
340
F
 40
0.24
340
0
340
0
 40
0.24
300
I, O, Q, S, X, Z
 40
0.48
 90
        3
 40
0.18
 90
        1
 71
     2
340
14
 90
       25
340
14
 90
       50
 40
0.24
 40
0.0
 40
0.24
 71
     3
340
F
 40
0.24
 90
        1
 40
0.75
 90
        1
300
%<\AcVar ViewType \f "%tc1">% %<\AcVar ViewSectionStartId>%-%<\AcVar ViewSectionEndId>%\PSCALE %<\AcVar ViewScale \f "%sn">%
 71
     4
300
ANSI31
 40
1.0
 90
        0
290
     0
290
     0
 90
        6
 40
0.0
 40
1.570796326794896
 40
0.2617993877991494
 40
1.308996938995747
 40
-0.2617993877991494
 40
1.832595714594046
  0
TABLESTYLE
  5
359E
102
{ACAD_XDICTIONARY
360
35D5
102
}
102
{ACAD_REACTORS
330
359D
102
}
330
359D
100
AcDbTableStyle
  3
Standard
 70
     0
 71
     0
 40
0.06
 41
0.06
280
     0
281
     0
  7
STANDARD
140
0.18
170
     2
 62
     0
 63
     7
283
     0
274
    -2
284
     1
 64
     0
275
    -2
285
     1
 65
     0
276
    -2
286
     1
 66
     0
277
    -2
287
     1
 67
     0
278
    -2
288
     1
 68
     0
279
    -2
289
     1
 69
     0
  7
STANDARD
140
0.25
170
     5
 62
     0
 63
     7
283
     0
274
    -2
284
     1
 64
     0
275
    -2
285
     1
 65
     0
276
    -2
286
     1
 66
     0
277
    -2
287
     1
 67
     0
278
    -2
288
     1
 68
     0
279
    -2
289
     1
 69
     0
  7
STANDARD
140
0.18
170
     5
 62
     0
 63
     7
283
     0
274
    -2
284
     1
 64
     0
275
    -2
285
     1
 65
     0
276
    -2
286
     1
 66
     0
277
    -2
287
     1
 67
     0
278
    -2
288
     1
 68
     0
279
    -2
289
     1
 69
     0
  0
VISUALSTYLE
  5
3589
102
{ACAD_XDICTIONARY
360
35E6
102
}
102
{ACAD_REACTORS
330
3583
102
}
330
3583
100
AcDbVisualStyle
  2
2dWireframe
 70
     4
 71
     0
 72
     2
 73
     0
 90
        0
 40
-0.6
 41
-30.0
 62
     5
 63
     7
 74
     1
 91
        4
 64
     7
 65
   257
 75
     1
175
     1
 42
1.0
 92
        0
 66
   257
 43
1.0
 76
     1
 77
     6
 78
     2
 67
     7
 79
     5
170
     0
171
     0
290
     0
174
     0
 93
        1
 44
0.0
173
     0
291
     0
 45
0.0
1001
ACAD
1000
AcDbSavedByObjectVersion
1070
     0
  0
VISUALSTYLE
  5
3588
102
{ACAD_XDICTIONARY
360
35E4
102
}
102
{ACAD_REACTORS
330
3583
102
}
330
3583
100
AcDbVisualStyle
  2
Basic
 70
     7
 71
     1
 72
     0
 73
     1
 90
        0
 40
-0.6
 41
-30.0
 62
     5
 63
     7
 74
     0
 91
        4
 64
     7
 65
   257
 75
     1
175
     1
 42
1.0
 92
        8
 66
     7
 43
1.0
 76
     1
 77
     6
 78
     2
 67
     7
 79
     5
170
     0
171
     0
290
     0
174
     0
 93
        1
 44
0.0
173
     0
291
     1
 45
0.0
1001
ACAD
1000
AcDbSavedByObjectVersion
1070
     0
  0
VISUALSTYLE
  5
358F
102
{ACAD_XDICTIONARY
360
35F2
102
}
102
{ACAD_REACTORS
330
3583
102
}
330
3583
100
AcDbVisualStyle
  2
Brighten
 70
    12
 71
     2
 72
     2
 73
     0
 90
        0
 40
-0.6
 41
-30.0
 62
     5
 63
     7
 74
     1
 91
        4
 64
     7
 65
   257
 75
     1
175
     1
 42
1.0
 92
        8
 66
     7
 43
1.0
 76
     1
 77
     6
 78
     2
 67
     7
 79
     5
170
     0
171
     0
290
     0
174
     0
 93
        1
 44
50.0
173
     0
291
     1
 45
0.0
1001
ACAD
1000
AcDbSavedByObjectVersion
1070
     0
  0
VISUALSTYLE
  5
3593
102
{ACAD_XDICTIONARY
360
35FA
102
}
102
{ACAD_REACTORS
330
3583
102
}
330
3583
100
AcDbVisualStyle
  2
ColorChange
 70
    16
 71
     2
 72
     2
 73
     3
 90
        0
 40
-0.6
 41
-30.0
 62
     5
 63
     8
 74
     1
 91
        4
 64
     7
 65
   257
 75
     1
175
     1
 42
1.0
 92
        8
 66
     8
 43
1.0
 76
     1
 77
     6
 78
     2
 67
     7
 79
     5
170
     0
171
     0
290
     0
174
     0
 93
        1
 44
0.0
173
     0
291
     1
 45
0.0
1001
ACAD
1000
AcDbSavedByObjectVersion
1070
     0
  0
VISUALSTYLE
  5
358C
102
{ACAD_XDICTIONARY
360
35EC
102
}
102
{ACAD_REACTORS
330
3583
102
}
330
3583
100
AcDbVisualStyle
  2
Conceptual
 70
     9
 71
     3
 72
     2
 73
     0
 90
        0
 40
-0.6
 41
-30.0
 62
     5
 63
     7
 74
     2
 91
        2
 64
     7
 65
   257
 75
     1
175
     1
 42
179.0
 92
        8
 66
     7
 43
1.0
 76
     1
 77
     6
 78
     2
 67
     7
 79
     3
170
     0
171
     0
290
     0
174
     0
 93
        1
 44
0.0
173
     0
291
     0
 45
0.0
1001
ACAD
1000
AcDbSavedByObjectVersion
1070
     0
  0
VISUALSTYLE
  5
358E
102
{ACAD_XDICTIONARY
360
35F0
102
}
102
{ACAD_REACTORS
330
3583
102
}
330
3583
100
AcDbVisualStyle
  2
Dim
 70
    11
 71
     2
 72
     2
 73
     0
 90
        0
 40
-0.6
 41
-30.0
 62
     5
 63
     7
 74
     1
 91
        4
 64
     7
 65
   257
 75
     1
175
     1
 42
1.0
 92
        8
 66
     7
 43
1.0
 76
     1
 77
     6
 78
     2
 67
     7
 79
     5
170
     0
171
     0
290
     0
174
     0
 93
        1
 44
-50.0
173
     0
291
     1
 45
0.0
1001
ACAD
1000
AcDbSavedByObjectVersion
1070
     0
  0
VISUALSTYLE
  5
359B
102
{ACAD_XDICTIONARY
360
360A
102
}
102
{ACAD_REACTORS
330
3583
102
}
330
3583
100
AcDbVisualStyle
  2
EdgeColorOff
 70
    22
 71
     2
 72
     2
 73
     0
 90
        0
 40
-0.6
 41
-30.0
 62
     5
 63
     7
 74
     1
 91
        4
 64
     7
 65
   257
 75
     1
175
     1
 42
1.0
 92
        8
 66
     7
 43
1.0
 76
     1
 77
     6
 78
     2
 67
     7
 79
     5
170
     0
171
     0
290
     0
174
     0
 93
        1
 44
0.0
173
     0
291
     1
 45
0.0
1001
ACAD
1000
AcDbSavedByObjectVersion
1070
     0
  0
VISUALSTYLE
  5
3592
102
{ACAD_XDICTIONARY
360
35F8
102
}
102
{ACAD_REACTORS
330
3583
102
}
330
3583
100
AcDbVisualStyle
  2
Facepattern
 70
    15
 71
     2
 72
     2
 73
     0
 90
        0
 40
-0.6
 41
-30.0
 62
     5
 63
     7
 74
     1
 91
        4
 64
     7
 65
   257
 75
     1
175
     1
 42
1.0
 92
        8
 66
     7
 43
1.0
 76
     1
 77
     6
 78
     2
 67
     7
 79
     5
170
     0
171
     0
290
     0
174
     0
 93
        1
 44
0.0
173
     0
291
     1
 45
0.0
1001
ACAD
1000
AcDbSavedByObjectVersion
1070
     0
  0
VISUALSTYLE
  5
3584
102
{ACAD_XDICTIONARY
360
35DC
102
}
102
{ACAD_REACTORS
330
3583
102
}
330
3583
100
AcDbVisualStyle
  2
Flat
 70
     0
 71
     2
 72
     1
 73
     1
 90
        2
 40
-0.6
 41
30.0
 62
     5
 63
     7
 74
     0
 91
        0
 64
     7
 65
   257
 75
     1
175
     1
 42
1.0
 92
        8
 66
     7
 43
1.0
 76
     1
 77
     6
 78
     2
 67
     7
 79
     5
170
     0
171
     0
290
     0
174
     0
 93
       13
 44
0.0
173
     0
291
     1
 45
0.0
1001
ACAD
1000
AcDbSavedByObjectVersion
1070
     0
  0
VISUALSTYLE
  5
3585
102
{ACAD_XDICTIONARY
360
35DE
102
}
102
{ACAD_REACTORS
330
3583
102
}
330
3583
100
AcDbVisualStyle
  2
FlatWithEdges
 70
     1
 71
     2
 72
     1
 73
     1
 90
        2
 40
-0.6
 41
30.0
 62
     5
 63
     7
 74
     1
 91
        0
 64
     7
 65
   257
 75
     1
175
     1
 42
1.0
 92
        0
 66
   257
 43
1.0
 76
     1
 77
     6
 78
     2
 67
     7
 79
     5
170
     0
171
     0
290
     0
174
     0
 93
       13
 44
0.0
173
     0
291
     1
 45
0.0
1001
ACAD
1000
AcDbSavedByObjectVersion
1070
     0
  0
VISUALSTYLE
  5
3586
102
{ACAD_XDICTIONARY
360
35E0
102
}
102
{ACAD_REACTORS
330
3583
102
}
330
3583
100
AcDbVisualStyle
  2
Gouraud
 70
     2
 71
     2
 72
     2
 73
     1
 90
        2
 40
-0.6
 41
30.0
 62
     5
 63
     7
 74
     0
 91
        0
 64
     7
 65
   257
 75
     1
175
     1
 42
1.0
 92
        0
 66
     7
 43
1.0
 76
     1
 77
     6
 78
     2
 67
     7
 79
     5
170
     0
171
     0
290
     0
174
     0
 93
       13
 44
0.0
173
     0
291
     1
 45
0.0
1001
ACAD
1000
AcDbSavedByObjectVersion
1070
     0
  0
VISUALSTYLE
  5
3587
102
{ACAD_XDICTIONARY
360
35E2
102
}
102
{ACAD_REACTORS
330
3583
102
}
330
3583
100
AcDbVisualStyle
  2
GouraudWithEdges
 70
     3
 71
     2
 72
     2
 73
     1
 90
        2
 40
-0.6
 41
30.0
 62
     5
 63
     7
 74
     1
 91
        0
 64
     7
 65
   257
 75
     1
175
     1
 42
1.0
 92
        0
 66
   257
 43
1.0
 76
     1
 77
     6
 78
     2
 67
     7
 79
     5
170
     0
171
     0
290
     0
174
     0
 93
       13
 44
0.0
173
     0
291
     1
 45
0.0
1001
ACAD
1000
AcDbSavedByObjectVersion
1070
     0
  0
VISUALSTYLE
  5
358B
102
{ACAD_XDICTIONARY
360
35EA
102
}
102
{ACAD_REACTORS
330
3583
102
}
330
3583
100
AcDbVisualStyle
  2
Hidden
 70
     6
 71
     1
 72
     2
 73
     2
 90
        0
 40
-0.6
 41
-30.0
 62
     5
 63
     7
 74
     2
 91
        2
 64
     7
 65
   257
 75
     2
175
     1
 42
40.0
 92
        0
 66
   257
 43
1.0
 76
     1
 77
     6
 78
     2
 67
     7
 79
     3
170
     0
171
     0
290
     0
174
     0
 93
        1
 44
0.0
173
     0
291
     0
 45
0.0
1001
ACAD
1000
AcDbSavedByObjectVersion
1070
     0
  0
VISUALSTYLE
  5
3599
102
{ACAD_XDICTIONARY
360
3606
102
}
102
{ACAD_REACTORS
330
3583
102
}
330
3583
100
AcDbVisualStyle
  2
JitterOff
 70
    20
 71
     2
 72
     2
 73
     0
 90
        0
 40
-0.6
 41
-30.0
 62
     5
 63
     7
 74
     1
 91
        4
 64
     7
 65
   257
 75
     1
175
     1
 42
1.0
 92
       10
 66
     7
 43
1.0
 76
     1
 77
     6
 78
     2
 67
     7
 79
     5
170
     0
171
     0
290
     0
174
     0
 93
        1
 44
0.0
173
     0
291
     1
 45
0.0
1001
ACAD
1000
AcDbSavedByObjectVersion
1070
     0
  0
VISUALSTYLE
  5
3591
102
{ACAD_XDICTIONARY
360
35F6
102
}
102
{ACAD_REACTORS
330
3583
102
}
330
3583
100
AcDbVisualStyle
  2
Linepattern
 70
    14
 71
     2
 72
     2
 73
     0
 90
        0
 40
-0.6
 41
-30.0
 62
     5
 63
     7
 74
     1
 91
        4
 64
     7
 65
   257
 75
     7
175
     7
 42
1.0
 92
        8
 66
     7
 43
1.0
 76
     1
 77
     6
 78
     2
 67
     7
 79
     5
170
     0
171
     0
290
     0
174
     0
 93
        1
 44
0.0
173
     0
291
     1
 45
0.0
1001
ACAD
1000
AcDbSavedByObjectVersion
1070
     0
  0
VISUALSTYLE
  5
359A
102
{ACAD_XDICTIONARY
360
3608
102
}
102
{ACAD_REACTORS
330
3583
102
}
330
3583
100
AcDbVisualStyle
  2
OverhangOff
 70
    21
 71
     2
 72
     2
 73
     0
 90
        0
 40
-0.6
 41
-30.0
 62
     5
 63
     7
 74
     1
 91
        4
 64
     7
 65
   257
 75
     1
175
     1
 42
1.0
 92
        9
 66
     7
 43
1.0
 76
     1
 77
     6
 78
     2
 67
     7
 79
     5
170
     0
171
     0
290
     0
174
     0
 93
        1
 44
0.0
173
     0
291
     1
 45
0.0
1001
ACAD
1000
AcDbSavedByObjectVersion
1070
     0
  0
VISUALSTYLE
  5
358D
102
{ACAD_XDICTIONARY
360
35EE
102
}
102
{ACAD_REACTORS
330
3583
102
}
330
3583
100
AcDbVisualStyle
  2
Realistic
 70
     8
 71
     2
 72
     3
 73
     0
 90
        2
 40
-0.6
 41
30.0
 62
     5
 63
     7
 74
     0
 91
        0
 64
     7
 65
   257
 75
     1
175
     1
 42
1.0
 92
        8
 66
   257
 43
1.0
 76
     1
 77
     6
 78
     2
 67
     7
 79
     3
170
     0
171
     0
290
     0
174
     0
 93
       13
 44
0.0
173
     0
291
     0
 45
0.0
1001
ACAD
1000
AcDbSavedByObjectVersion
1070
     0
  0
VISUALSTYLE
  5
3598
102
{ACAD_XDICTIONARY
360
3604
102
}
102
{ACAD_REACTORS
330
3583
102
}
330
3583
100
AcDbVisualStyle
  2
Shaded
 70
    27
 71
     2
 72
     2
 73
     1
 90
        2
 40
-0.6
 41
30.0
 62
     5
 63
     7
 74
     0
 91
        4
 64
     7
 65
   257
 75
     1
175
     1
 42
1.0
 92
        8
 66
   257
 43
1.0
 76
     1
 77
     6
 78
     2
 67
     8
 79
     3
170
     0
171
     0
290
     0
174
     0
 93
        5
 44
0.0
173
     0
291
     0
 45
0.0
1001
ACAD
1000
AcDbSavedByObjectVersion
1070
     0
  0
VISUALSTYLE
  5
3597
102
{ACAD_XDICTIONARY
360
3602
102
}
102
{ACAD_REACTORS
330
3583
102
}
330
3583
100
AcDbVisualStyle
  2
Shaded with edges
 70
    26
 71
     2
 72
     2
 73
     1
 90
        2
 40
-0.6
 41
30.0
 62
     5
 63
     7
 74
     1
 91
       10
 64
     7
 65
   257
 75
     2
175
     1
 42
1.0
 92
        8
 66
   257
 43
1.0
 76
     1
 77
     6
 78
     2
 67
     7
 79
     3
170
     0
171
     0
290
     0
174
     0
 93
        5
 44
0.0
173
     0
291
     0
 45
0.0
1001
ACAD
1000
AcDbSavedByObjectVersion
1070
     0
  0
VISUALSTYLE
  5
3594
102
{ACAD_XDICTIONARY
360
35FC
102
}
102
{ACAD_REACTORS
330
3583
102
}
330
3583
100
AcDbVisualStyle
  2
Shades of Gray
 70
    23
 71
     2
 72
     2
 73
     3
 90
        0
 40
-0.6
 41
-30.0
 62
     5
 63
     7
 74
     2
 91
        2
 64
     7
 65
     7
 75
     1
175
     1
 42
40.0
 92
        8
 66
     7
 43
1.0
 76
     1
 77
     6
 78
     2
 67
     7
 79
     3
170
     0
171
     0
290
     0
174
     0
 93
        1
 44
0.0
173
     0
291
     0
 45
0.0
1001
ACAD
1000
AcDbSavedByObjectVersion
1070
     0
  0
VISUALSTYLE
  5
3595
102
{ACAD_XDICTIONARY
360
35FE
102
}
102
{ACAD_REACTORS
330
3583
102
}
330
3583
100
AcDbVisualStyle
  2
Sketchy
 70
    24
 71
     1
 72
     2
 73
     2
 90
        0
 40
-0.6
 41
-30.0
 62
     5
 63
     7
 74
     2
 91
        2
 64
     7
 65
     7
 75
     1
175
     1
 42
40.0
 92
       11
 66
     7
 43
1.0
 76
     1
 77
     6
 78
     2
 67
     7
 79
     6
170
     0
171
     0
290
     0
174
     0
 93
        1
 44
0.0
173
     0
291
     0
 45
0.0
1001
ACAD
1000
AcDbSavedByObjectVersion
1070
     0
  0
VISUALSTYLE
  5
3590
102
{ACAD_XDICTIONARY
360
35F4
102
}
102
{ACAD_REACTORS
330
3583
102
}
330
3583
100
AcDbVisualStyle
  2
Thicken
 70
    13
 71
     2
 72
     2
 73
     0
 90
        0
 40
-0.6
 41
-30.0
 62
     5
 63
     7
 74
     1
 91
        4
 64
     7
 65
   257
 75
     1
175
     1
 42
1.0
 92
       12
 66
     7
 43
1.0
 76
     1
 77
     6
 78
     2
 67
     7
 79
     5
170
     0
171
     0
290
     0
174
     0
 93
        1
 44
0.0
173
     0
291
     1
 45
0.0
1001
ACAD
1000
AcDbSavedByObjectVersion
1070
     0
  0
VISUALSTYLE
  5
358A
102
{ACAD_XDICTIONARY
360
35E8
102
}
102
{ACAD_REACTORS
330
3583
102
}
330
3583
100
AcDbVisualStyle
  2
Wireframe
 70
     5
 71
     0
 72
     2
 73
     0
 90
        0
 40
-0.6
 41
-30.0
 62
     5
 63
     7
 74
     1
 91
        4
 64
     7
 65
   257
 75
     1
175
     1
 42
1.0
 92
        0
 66
   257
 43
1.0
 76
     1
 77
     6
 78
     2
 67
     7
 79
     3
170
     0
171
     0
290
     0
174
     0
 93
        1
 44
0.0
173
     0
291
     0
 45
0.0
1001
ACAD
1000
AcDbSavedByObjectVersion
1070
     0
  0
VISUALSTYLE
  5
3596
102
{ACAD_XDICTIONARY
360
3600
102
}
102
{ACAD_REACTORS
330
3583
102
}
330
3583
100
AcDbVisualStyle
  2
X-Ray
 70
    25
 71
     2
 72
     2
 73
     1
 90
        1
 40
0.5
 41
-30.0
 62
     5
 63
     7
 74
     1
 91
        0
 64
     7
 65
   257
 75
     1
175
     1
 42
1.0
 92
        8
 66
     7
 43
1.0
 76
     1
 77
     6
 78
     2
 67
     7
 79
     3
170
     0
171
     0
290
     0
174
     0
 93
       13
 44
0.0
173
     0
291
     0
 45
0.0
1001
ACAD
1000
AcDbSavedByObjectVersion
1070
     0
  0
DICTIONARYVAR
  5
35CF
102
{ACAD_REACTORS
330
35CA
102
}
330
35CA
100
DictionaryVariables
280
     0
  1
1:1
  0
DICTIONARYVAR
  5
35CC
102
{ACAD_REACTORS
330
35CA
102
}
330
35CA
100
DictionaryVariables
280
     0
  1
STANDARD
  0
DICTIONARYVAR
  5
35CB
102
{ACAD_REACTORS
330
35CA
102
}
330
35CA
100
DictionaryVariables
280
     0
  1
STANDARD
  0
DICTIONARYVAR
  5
35CD
102
{ACAD_REACTORS
330
35CA
102
}
330
35CA
100
DictionaryVariables
280
     0
  1
Imperial24
  0
DICTIONARYVAR
  5
35CE
102
{ACAD_REACTORS
330
35CA
102
}
330
35CA
100
DictionaryVariables
280
     0
  1
Imperial24
  0
DICTIONARYVAR
  5
35D2
102
{ACAD_REACTORS
330
35CA
102
}
330
35CA
100
DictionaryVariables
280
     0
  1
1
  0
DICTIONARYVAR
  5
35D1
102
{ACAD_REACTORS
330
35CA
102
}
330
35CA
100
DictionaryVariables
280
     0
  1
0
  0
DICTIONARYVAR
  5
35D0
102
{ACAD_REACTORS
330
35CA
102
}
330
35CA
100
DictionaryVariables
280
     0
  1
127
  0
DICTIONARYVAR
  5
35D3
102
{ACAD_REACTORS
330
35CA
102
}
330
35CA
100
DictionaryVariables
280
     0
  1
2
  0
DICTIONARY
  5
3610
330
35B6
100
AcDbDictionary
280
     1
281
     1
  3
ACAD_XREC_ROUNDTRIP
360
3611
  0
DICTIONARY
  5
3612
330
35B7
100
AcDbDictionary
280
     1
281
     1
  3
ACAD_XREC_ROUNDTRIP
360
3613
  0
DICTIONARY
  5
3614
330
35B8
100
AcDbDictionary
280
     1
281
     1
  3
ACAD_XREC_ROUNDTRIP
360
3615
  0
DICTIONARY
  5
3574
330
3573
100
AcDbDictionary
280
     1
281
     1
  3
ACAD_XREC_ROUNDTRIP
360
35DA
  3
BUMPTILE
360
3576
  3
DIFFUSETILE
360
3575
  3
OPACITYTILE
360
3579
  3
REFLECTIONTILE
360
3578
  3
REFRACTIONTILE
360
357A
  3
SPECULARTILE
360
3577
  0
DICTIONARY
  5
356C
330
356B
100
AcDbDictionary
280
     1
281
     1
  3
ACAD_XREC_ROUNDTRIP
360
35D9
  3
BUMPTILE
360
356E
  3
DIFFUSETILE
360
356D
  3
OPACITYTILE
360
3571
  3
REFLECTIONTILE
360
3570
  3
REFRACTIONTILE
360
3572
  3
SPECULARTILE
360
356F
  0
DICTIONARY
  5
357C
330
357B
100
AcDbDictionary
280
     1
281
     1
  3
ACAD_XREC_ROUNDTRIP
360
35DB
  3
BUMPTILE
360
357E
  3
DIFFUSETILE
360
357D
  3
OPACITYTILE
360
3581
  3
REFLECTIONTILE
360
3580
  3
REFRACTIONTILE
360
3582
  3
SPECULARTILE
360
357F
  0
DICTIONARY
  5
360E
330
35B4
100
AcDbDictionary
280
     1
281
     1
  3
ACAD_XREC_ROUNDTRIP
360
360F
  0
DICTIONARY
  5
35D5
330
359E
100
AcDbDictionary
280
     1
281
     1
  3
ACAD_ROUNDTRIP_2008_TABLESTYLE_CELLSTYLEMAP
360
35D6
  3
ACAD_XREC_ROUNDTRIP
360
360C
  0
DICTIONARY
  5
35E6
330
3589
100
AcDbDictionary
280
     1
281
     1
  3
ACAD_XREC_ROUNDTRIP
360
35E7
  0
DICTIONARY
  5
35E4
330
3588
100
AcDbDictionary
280
     1
281
     1
  3
ACAD_XREC_ROUNDTRIP
360
35E5
  0
DICTIONARY
  5
35F2
330
358F
100
AcDbDictionary
280
     1
281
     1
  3
ACAD_XREC_ROUNDTRIP
360
35F3
  0
DICTIONARY
  5
35FA
330
3593
100
AcDbDictionary
280
     1
281
     1
  3
ACAD_XREC_ROUNDTRIP
360
35FB
  0
DICTIONARY
  5
35EC
330
358C
100
AcDbDictionary
280
     1
281
     1
  3
ACAD_XREC_ROUNDTRIP
360
35ED
  0
DICTIONARY
  5
35F0
330
358E
100
AcDbDictionary
280
     1
281
     1
  3
ACAD_XREC_ROUNDTRIP
360
35F1
  0
DICTIONARY
  5
360A
330
359B
100
AcDbDictionary
280
     1
281
     1
  3
ACAD_XREC_ROUNDTRIP
360
360B
  0
DICTIONARY
  5
35F8
330
3592
100
AcDbDictionary
280
     1
281
     1
  3
ACAD_XREC_ROUNDTRIP
360
35F9
  0
DICTIONARY
  5
35DC
330
3584
100
AcDbDictionary
280
     1
281
     1
  3
ACAD_XREC_ROUNDTRIP
360
35DD
  0
DICTIONARY
  5
35DE
330
3585
100
AcDbDictionary
280
     1
281
     1
  3
ACAD_XREC_ROUNDTRIP
360
35DF
  0
DICTIONARY
  5
35E0
330
3586
100
AcDbDictionary
280
     1
281
     1
  3
ACAD_XREC_ROUNDTRIP
360
35E1
  0
DICTIONARY
  5
35E2
330
3587
100
AcDbDictionary
280
     1
281
     1
  3
ACAD_XREC_ROUNDTRIP
360
35E3
  0
DICTIONARY
  5
35EA
330
358B
100
AcDbDictionary
280
     1
281
     1
  3
ACAD_XREC_ROUNDTRIP
360
35EB
  0
DICTIONARY
  5
3606
330
3599
100
AcDbDictionary
280
     1
281
     1
  3
ACAD_XREC_ROUNDTRIP
360
3607
  0
DICTIONARY
  5
35F6
330
3591
100
AcDbDictionary
280
     1
281
     1
  3
ACAD_XREC_ROUNDTRIP
360
35F7
  0
DICTIONARY
  5
3608
330
359A
100
AcDbDictionary
280
     1
281
     1
  3
ACAD_XREC_ROUNDTRIP
360
3609
  0
DICTIONARY
  5
35EE
330
358D
100
AcDbDictionary
280
     1
281
     1
  3
ACAD_XREC_ROUNDTRIP
360
35EF
  0
DICTIONARY
  5
3604
330
3598
100
AcDbDictionary
280
     1
281
     1
  3
ACAD_XREC_ROUNDTRIP
360
3605
  0
DICTIONARY
  5
3602
330
3597
100
AcDbDictionary
280
     1
281
     1
  3
ACAD_XREC_ROUNDTRIP
360
3603
  0
DICTIONARY
  5
35FC
330
3594
100
AcDbDictionary
280
     1
281
     1
  3
ACAD_XREC_ROUNDTRIP
360
35FD
  0
DICTIONARY
  5
35FE
330
3595
100
AcDbDictionary
280
     1
281
     1
  3
ACAD_XREC_ROUNDTRIP
360
35FF
  0
DICTIONARY
  5
35F4
330
3590
100
AcDbDictionary
280
     1
281
     1
  3
ACAD_XREC_ROUNDTRIP
360
35F5
  0
DICTIONARY
  5
35E8
330
358A
100
AcDbDictionary
280
     1
281
     1
  3
ACAD_XREC_ROUNDTRIP
360
35E9
  0
DICTIONARY
  5
3600
330
3596
100
AcDbDictionary
280
     1
281
     1
  3
ACAD_XREC_ROUNDTRIP
360
3601
  0
XRECORD
  5
3611
102
{ACAD_REACTORS
330
3610
102
}
330
3610
100
AcDbXrecord
280
     1
102
DISPLAYNAME
  1
Imperial24
102
FLAGS
 90
        0
  0
XRECORD
  5
3613
102
{ACAD_REACTORS
330
3612
102
}
330
3612
100
AcDbXrecord
280
     1
102
SHADEPLOT
 70
     0
102
SHADEPLOTRESLEVEL
 70
     2
102
SHADEPLOTCUSTOMDPI
 70
   300
  0
XRECORD
  5
3615
102
{ACAD_REACTORS
330
3614
102
}
330
3614
100
AcDbXrecord
280
     1
102
SHADEPLOT
 70
     0
102
SHADEPLOTRESLEVEL
 70
     2
102
SHADEPLOTCUSTOMDPI
 70
   300
  0
XRECORD
  5
35DA
102
{ACAD_REACTORS
330
3574
102
}
330
3574
100
AcDbXrecord
280
     1
102
MATERIAL
148
0.0
149
0.0
149
0.0
 93
        0
 94
      127
282
     0
 72
     0
 77
     0
171
     0
175
     0
179
     0
273
     0
  0
XRECORD
  5
3576
102
{ACAD_REACTORS
330
3574
102
}
330
3574
100
AcDbXrecord
280
     1
270
     1
271
     1
  0
XRECORD
  5
3575
102
{ACAD_REACTORS
330
3574
102
}
330
3574
100
AcDbXrecord
280
     1
270
     1
271
     1
  0
XRECORD
  5
3579
102
{ACAD_REACTORS
330
3574
102
}
330
3574
100
AcDbXrecord
280
     1
270
     1
271
     1
  0
XRECORD
  5
3578
102
{ACAD_REACTORS
330
3574
102
}
330
3574
100
AcDbXrecord
280
     1
270
     1
271
     1
  0
XRECORD
  5
357A
102
{ACAD_REACTORS
330
3574
102
}
330
3574
100
AcDbXrecord
280
     1
270
     1
271
     1
  0
XRECORD
  5
3577
102
{ACAD_REACTORS
330
3574
102
}
330
3574
100
AcDbXrecord
280
     1
270
     1
271
     1
  0
XRECORD
  5
35D9
102
{ACAD_REACTORS
330
356C
102
}
330
356C
100
AcDbXrecord
280
     1
102
MATERIAL
148
0.0
149
0.0
149
0.0
 93
        0
 94
      127
282
     0
 72
     0
 77
     0
171
     0
175
     0
179
     0
273
     0
  0
XRECORD
  5
356E
102
{ACAD_REACTORS
330
356C
102
}
330
356C
100
AcDbXrecord
280
     1
270
     1
271
     1
  0
XRECORD
  5
356D
102
{ACAD_REACTORS
330
356C
102
}
330
356C
100
AcDbXrecord
280
     1
270
     1
271
     1
  0
XRECORD
  5
3571
102
{ACAD_REACTORS
330
356C
102
}
330
356C
100
AcDbXrecord
280
     1
270
     1
271
     1
  0
XRECORD
  5
3570
102
{ACAD_REACTORS
330
356C
102
}
330
356C
100
AcDbXrecord
280
     1
270
     1
271
     1
  0
XRECORD
  5
3572
102
{ACAD_REACTORS
330
356C
102
}
330
356C
100
AcDbXrecord
280
     1
270
     1
271
     1
  0
XRECORD
  5
356F
102
{ACAD_REACTORS
330
356C
102
}
330
356C
100
AcDbXrecord
280
     1
270
     1
271
     1
  0
XRECORD
  5
35DB
102
{ACAD_REACTORS
330
357C
102
}
330
357C
100
AcDbXrecord
280
     1
102
MATERIAL
148
0.0
149
0.0
149
0.0
 93
        0
 94
      127
282
     0
 72
     0
 77
     0
171
     0
175
     0
179
     0
273
     0
  0
XRECORD
  5
357E
102
{ACAD_REACTORS
330
357C
102
}
330
357C
100
AcDbXrecord
280
     1
270
     1
271
     1
  0
XRECORD
  5
357D
102
{ACAD_REACTORS
330
357C
102
}
330
357C
100
AcDbXrecord
280
     1
270
     1
271
     1
  0
XRECORD
  5
3581
102
{ACAD_REACTORS
330
357C
102
}
330
357C
100
AcDbXrecord
280
     1
270
     1
271
     1
  0
XRECORD
  5
3580
102
{ACAD_REACTORS
330
357C
102
}
330
357C
100
AcDbXrecord
280
     1
270
     1
271
     1
  0
XRECORD
  5
3582
102
{ACAD_REACTORS
330
357C
102
}
330
357C
100
AcDbXrecord
280
     1
270
     1
271
     1
  0
XRECORD
  5
357F
102
{ACAD_REACTORS
330
357C
102
}
330
357C
100
AcDbXrecord
280
     1
270
     1
271
     1
  0
XRECORD
  5
360F
102
{ACAD_REACTORS
330
360E
102
}
330
360E
100
AcDbXrecord
280
     1
102
DISPLAYNAME
  1
Imperial24
102
FLAGS
 90
        0
  0
CELLSTYLEMAP
  5
35D6
102
{ACAD_REACTORS
330
35D5
102
}
330
35D5
100
AcDbCellStyleMap
 90
        3
300
CELLSTYLE
  1
TABLEFORMAT_BEGIN
 90
        5
170
     1
 91
        0
 92
    32768
 62
   257
 93
        1
300
CONTENTFORMAT
  1
CONTENTFORMAT_BEGIN
 90
        0
 91
        0
 92
      512
 93
        0
300

 40
0.0
140
1.0
 94
        5
 62
     0
340
F
144
0.25
309
CONTENTFORMAT_END
171
     0
 94
        0
309
TABLEFORMAT_END
  1
CELLSTYLE_BEGIN
 90
        1
 91
        1
300
_TITLE
309
CELLSTYLE_END
300
CELLSTYLE
  1
TABLEFORMAT_BEGIN
 90
        5
170
     1
 91
        0
 92
        0
 62
   257
 93
        1
300
CONTENTFORMAT
  1
CONTENTFORMAT_BEGIN
 90
        0
 91
        0
 92
      512
 93
        0
300

 40
0.0
140
1.0
 94
        5
 62
     0
340
F
144
0.18
309
CONTENTFORMAT_END
171
     0
 94
        0
309
TABLEFORMAT_END
  1
CELLSTYLE_BEGIN
 90
        2
 91
        1
300
_HEADER
309
CELLSTYLE_END
300
CELLSTYLE
  1
TABLEFORMAT_BEGIN
 90
        5
170
     1
 91
        0
 92
        0
 62
   257
 93
        1
300
CONTENTFORMAT
  1
CONTENTFORMAT_BEGIN
 90
        0
 91
        0
 92
      512
 93
        0
300

 40
0.0
140
1.0
 94
        2
 62
     0
340
F
144
0.18
309
CONTENTFORMAT_END
171
     0
 94
        0
309
TABLEFORMAT_END
  1
CELLSTYLE_BEGIN
 90
        3
 91
        2
300
_DATA
309
CELLSTYLE_END
  0
XRECORD
  5
360C
102
{ACAD_REACTORS
330
35D5
102
}
330
35D5
100
AcDbXrecord
280
     1
102
ACAD_ROUNDTRIP_PRE2007_TABLESTYLE
 90
      512
 91
        0
  1

 92
      512
 93
        0
  2

 94
      512
 95
        0
  3

  0
XRECORD
  5
35E7
102
{ACAD_REACTORS
330
35E6
102
}
330
35E6
100
AcDbXrecord
280
     1
102
RTVSPost2010Prop28
280
     1
102
RTVSPost2010PropOp28
 70
     1
102
RTVSPost2010Prop29
280
     1
102
RTVSPost2010PropOp29
 70
     1
102
RTVSPost2010Prop30
280
     0
102
RTVSPost2010PropOp30
 70
     1
102
RTVSPost2010Prop31
280
     0
102
RTVSPost2010PropOp31
 70
     1
102
RTVSPost2010Prop32
280
     0
102
RTVSPost2010PropOp32
 70
     1
102
RTVSPost2010Prop33
280
     0
102
RTVSPost2010PropOp33
 70
     1
102
RTVSPost2010Prop34
280
     0
102
RTVSPost2010PropOp34
 70
     1
102
RTVSPost2010Prop35
280
     0
102
RTVSPost2010PropOp35
 70
     1
102
RTVSPost2010Prop36
280
     0
102
RTVSPost2010PropOp36
 70
     1
102
RTVSPost2010Prop37
 90
       50
102
RTVSPost2010PropOp37
 70
     1
102
RTVSPost2010Prop38
140
0.0
102
RTVSPost2010PropOp38
 70
     1
102
RTVSPost2010Prop39
140
1.0
102
RTVSPost2010PropOp39
 70
     1
102
RTVSPost2010Prop40
 90
        0
102
RTVSPost2010PropOp40
 70
     1
102
RTVSPost2010Prop41ColorIndex
 90
       18
102
RTVSPost2010Prop41ColorRGB
 90
        0
102
RTVSPost2010PropOp41
 70
     1
102
RTVSPost2010Prop42
 90
       50
102
RTVSPost2010PropOp42
 70
     1
102
RTVSPost2010Prop43
 90
        3
102
RTVSPost2010PropOp43
 70
     1
102
RTVSPost2010Prop44ColorIndex
 90
        5
102
RTVSPost2010Prop44ColorRGB
 90
      255
102
RTVSPost2010PropOp44
 70
     1
102
RTVSPost2010Prop45
280
     0
102
RTVSPost2010PropOp45
 70
     1
102
RTVSPost2010Prop46
 90
       50
102
RTVSPost2010PropOp46
 70
     1
102
RTVSPost2010Prop47
 90
       50
102
RTVSPost2010PropOp47
 70
     1
102
RTVSPost2010Prop48
 90
       50
102
RTVSPost2010PropOp48
 70
     1
102
RTVSPost2010Prop49
280
     0
102
RTVSPost2010PropOp49
 70
     1
102
RTVSPost2010Prop50
 90
       50
102
RTVSPost2010PropOp50
 70
     1
102
RTVSPost2010Prop51ColorIndex
 90
      256
102
RTVSPost2010Prop51ColorRGB
 90
-16777216
102
RTVSPost2010PropOp51
 70
     0
102
RTVSPost2010Prop52
140
1.0
102
RTVSPost2010PropOp52
 70
     0
102
RTVSPost2010Prop53
 90
        2
102
RTVSPost2010PropOp53
 70
     1
102
RTVSPost2010Prop54
  1
strokes_ogs.tif
102
RTVSPost2010PropOp54
 70
     1
102
RTVSPost2010Prop55
280
     0
102
RTVSPost2010PropOp55
 70
     1
102
RTVSPost2010Prop56
140
1.0
102
RTVSPost2010PropOp56
 70
     1
102
RTVSPost2010Prop57
140
1.0
102
RTVSPost2010PropOp57
 70
     1
102
RTVSPropertyOp0
 70
     1
102
RTVSPropertyOp1
 70
     1
102
RTVSPropertyOp2
 70
     1
102
RTVSPropertyOp3
 70
     1
102
RTVSPropertyOp4
 70
     1
102
RTVSPropertyOp5
 70
     1
102
RTVSPropertyOp6
 70
     1
102
RTVSPropertyOp7
 70
     1
102
RTVSPropertyOp8
 70
     1
102
RTVSPropertyOp9
 70
     1
102
RTVSPropertyOp10
 70
     1
102
RTVSPropertyOp11
 70
     1
102
RTVSPropertyOp12
 70
     1
102
RTVSPropertyOp13
 70
     1
102
RTVSPropertyOp14
 70
     1
102
RTVSPropertyOp15
 70
     1
102
RTVSPropertyOp16
 70
     1
102
RTVSPropertyOp17
 70
     1
102
RTVSPropertyOp18
 70
     1
102
RTVSPropertyOp19
 70
     1
102
RTVSPropertyOp20
 70
     1
102
RTVSPropertyOp21
 70
     1
102
RTVSPropertyOp22
 70
     1
102
RTVSPropertyOp23
 70
     1
102
RTVSPropertyOp24
 70
     1
102
RTVSPropertyOp25
 70
     1
102
RTVSPropertyOp26
 70
     1
102
RTVSPropertyOp27
 70
     1
102
RTVSPropertyOp28
 70
     1
102
RTVSPropertyOp29
 70
     1
102
RTVSPropertyOp30
 70
     1
102
RTVSPropertyOp31
 70
     1
102
RTVSPropertyOp32
 70
     1
102
RTVSPropertyOp33
 70
     1
102
RTVSPropertyOp34
 70
     1
102
RTVSPropertyOp35
 70
     1
102
RTVSPropertyOp36
 70
     1
102
RTVSPropertyOp37
 70
     1
102
RTVSPropertyOp38
 70
     1
102
RTVSPropertyOp39
 70
     1
102
RTVSPropertyOp40
 70
     1
102
RTVSPropertyOp41
 70
     1
102
RTVSPropertyOp42
 70
     1
102
RTVSPropertyOp43
 70
     1
102
RTVSPropertyOp44
 70
     1
102
RTVSPropertyOp45
 70
     1
102
RTVSPropertyOp46
 70
     1
102
RTVSPropertyOp47
 70
     1
102
RTVSPropertyOp48
 70
     1
102
RTVSPropertyOp49
 70
     1
102
RTVSPropertyOp50
 70
     1
102
RTVSPropertyOp51
 70
     0
102
RTVSPropertyOp52
 70
     0
102
RTVSPropertyOp53
 70
     1
102
RTVSPropertyOp54
 70
     1
102
RTVSPropertyOp55
 70
     1
102
RTVSPropertyOp56
 70
     1
102
RTVSPropertyOp57
 70
     1
102
RTVSPropertyOp58
 70
     1
102
RTVSPropertyOp59
 70
     1
102
RTVSPropertyOp60
 70
     1
102
RTVSPropertyOp61
 70
     1
102
RTVSPropertyOp62
 70
     1
  0
XRECORD
  5
35E5
102
{ACAD_REACTORS
330
35E4
102
}
330
35E4
100
AcDbXrecord
280
     1
102
RTVSPost2010Prop28
280
     0
102
RTVSPost2010PropOp28
 70
     1
102
RTVSPost2010Prop29
280
     1
102
RTVSPost2010PropOp29
 70
     1
102
RTVSPost2010Prop30
280
     1
102
RTVSPost2010PropOp30
 70
     1
102
RTVSPost2010Prop31
280
     0
102
RTVSPost2010PropOp31
 70
     1
102
RTVSPost2010Prop32
280
     0
102
RTVSPost2010PropOp32
 70
     1
102
RTVSPost2010Prop33
280
     0
102
RTVSPost2010PropOp33
 70
     1
102
RTVSPost2010Prop34
280
     0
102
RTVSPost2010PropOp34
 70
     1
102
RTVSPost2010Prop35
280
     0
102
RTVSPost2010PropOp35
 70
     1
102
RTVSPost2010Prop36
280
     0
102
RTVSPost2010PropOp36
 70
     1
102
RTVSPost2010Prop37
 90
       50
102
RTVSPost2010PropOp37
 70
     1
102
RTVSPost2010Prop38
140
0.0
102
RTVSPost2010PropOp38
 70
     1
102
RTVSPost2010Prop39
140
1.0
102
RTVSPost2010PropOp39
 70
     1
102
RTVSPost2010Prop40
 90
        0
102
RTVSPost2010PropOp40
 70
     1
102
RTVSPost2010Prop41ColorIndex
 90
       18
102
RTVSPost2010Prop41ColorRGB
 90
        0
102
RTVSPost2010PropOp41
 70
     1
102
RTVSPost2010Prop42
 90
       50
102
RTVSPost2010PropOp42
 70
     1
102
RTVSPost2010Prop43
 90
        3
102
RTVSPost2010PropOp43
 70
     1
102
RTVSPost2010Prop44ColorIndex
 90
        5
102
RTVSPost2010Prop44ColorRGB
 90
      255
102
RTVSPost2010PropOp44
 70
     1
102
RTVSPost2010Prop45
280
     0
102
RTVSPost2010PropOp45
 70
     1
102
RTVSPost2010Prop46
 90
       50
102
RTVSPost2010PropOp46
 70
     1
102
RTVSPost2010Prop47
 90
       50
102
RTVSPost2010PropOp47
 70
     1
102
RTVSPost2010Prop48
 90
       50
102
RTVSPost2010PropOp48
 70
     1
102
RTVSPost2010Prop49
280
     0
102
RTVSPost2010PropOp49
 70
     1
102
RTVSPost2010Prop50
 90
       50
102
RTVSPost2010PropOp50
 70
     1
102
RTVSPost2010Prop51ColorIndex
 90
      256
102
RTVSPost2010Prop51ColorRGB
 90
-16777216
102
RTVSPost2010PropOp51
 70
     0
102
RTVSPost2010Prop52
140
1.0
102
RTVSPost2010PropOp52
 70
     0
102
RTVSPost2010Prop53
 90
        2
102
RTVSPost2010PropOp53
 70
     1
102
RTVSPost2010Prop54
  1
strokes_ogs.tif
102
RTVSPost2010PropOp54
 70
     1
102
RTVSPost2010Prop55
280
     0
102
RTVSPost2010PropOp55
 70
     1
102
RTVSPost2010Prop56
140
1.0
102
RTVSPost2010PropOp56
 70
     1
102
RTVSPost2010Prop57
140
1.0
102
RTVSPost2010PropOp57
 70
     1
102
RTVSPropertyOp0
 70
     1
102
RTVSPropertyOp1
 70
     1
102
RTVSPropertyOp2
 70
     1
102
RTVSPropertyOp3
 70
     1
102
RTVSPropertyOp4
 70
     1
102
RTVSPropertyOp5
 70
     1
102
RTVSPropertyOp6
 70
     1
102
RTVSPropertyOp7
 70
     1
102
RTVSPropertyOp8
 70
     1
102
RTVSPropertyOp9
 70
     1
102
RTVSPropertyOp10
 70
     1
102
RTVSPropertyOp11
 70
     1
102
RTVSPropertyOp12
 70
     1
102
RTVSPropertyOp13
 70
     1
102
RTVSPropertyOp14
 70
     1
102
RTVSPropertyOp15
 70
     1
102
RTVSPropertyOp16
 70
     1
102
RTVSPropertyOp17
 70
     1
102
RTVSPropertyOp18
 70
     1
102
RTVSPropertyOp19
 70
     1
102
RTVSPropertyOp20
 70
     1
102
RTVSPropertyOp21
 70
     1
102
RTVSPropertyOp22
 70
     1
102
RTVSPropertyOp23
 70
     1
102
RTVSPropertyOp24
 70
     1
102
RTVSPropertyOp25
 70
     1
102
RTVSPropertyOp26
 70
     1
102
RTVSPropertyOp27
 70
     1
102
RTVSPropertyOp28
 70
     1
102
RTVSPropertyOp29
 70
     1
102
RTVSPropertyOp30
 70
     1
102
RTVSPropertyOp31
 70
     1
102
RTVSPropertyOp32
 70
     1
102
RTVSPropertyOp33
 70
     1
102
RTVSPropertyOp34
 70
     1
102
RTVSPropertyOp35
 70
     1
102
RTVSPropertyOp36
 70
     1
102
RTVSPropertyOp37
 70
     1
102
RTVSPropertyOp38
 70
     1
102
RTVSPropertyOp39
 70
     1
102
RTVSPropertyOp40
 70
     1
102
RTVSPropertyOp41
 70
     1
102
RTVSPropertyOp42
 70
     1
102
RTVSPropertyOp43
 70
     1
102
RTVSPropertyOp44
 70
     1
102
RTVSPropertyOp45
 70
     1
102
RTVSPropertyOp46
 70
     1
102
RTVSPropertyOp47
 70
     1
102
RTVSPropertyOp48
 70
     1
102
RTVSPropertyOp49
 70
     1
102
RTVSPropertyOp50
 70
     1
102
RTVSPropertyOp51
 70
     0
102
RTVSPropertyOp52
 70
     0
102
RTVSPropertyOp53
 70
     1
102
RTVSPropertyOp54
 70
     1
102
RTVSPropertyOp55
 70
     1
102
RTVSPropertyOp56
 70
     1
102
RTVSPropertyOp57
 70
     1
102
RTVSPropertyOp58
 70
     1
102
RTVSPropertyOp59
 70
     1
102
RTVSPropertyOp60
 70
     1
102
RTVSPropertyOp61
 70
     1
102
RTVSPropertyOp62
 70
     1
  0
XRECORD
  5
35F3
102
{ACAD_REACTORS
330
35F2
102
}
330
35F2
100
AcDbXrecord
280
     1
102
RTVSPost2010Prop28
280
     0
102
RTVSPost2010PropOp28
 70
     1
102
RTVSPost2010Prop29
280
     1
102
RTVSPost2010PropOp29
 70
     1
102
RTVSPost2010Prop30
280
     1
102
RTVSPost2010PropOp30
 70
     1
102
RTVSPost2010Prop31
280
     0
102
RTVSPost2010PropOp31
 70
     1
102
RTVSPost2010Prop32
280
     0
102
RTVSPost2010PropOp32
 70
     1
102
RTVSPost2010Prop33
280
     0
102
RTVSPost2010PropOp33
 70
     1
102
RTVSPost2010Prop34
280
     0
102
RTVSPost2010PropOp34
 70
     1
102
RTVSPost2010Prop35
280
     0
102
RTVSPost2010PropOp35
 70
     1
102
RTVSPost2010Prop36
280
     0
102
RTVSPost2010PropOp36
 70
     1
102
RTVSPost2010Prop37
 90
       50
102
RTVSPost2010PropOp37
 70
     1
102
RTVSPost2010Prop38
140
0.0
102
RTVSPost2010PropOp38
 70
     1
102
RTVSPost2010Prop39
140
1.0
102
RTVSPost2010PropOp39
 70
     1
102
RTVSPost2010Prop40
 90
        0
102
RTVSPost2010PropOp40
 70
     1
102
RTVSPost2010Prop41ColorIndex
 90
       18
102
RTVSPost2010Prop41ColorRGB
 90
        0
102
RTVSPost2010PropOp41
 70
     1
102
RTVSPost2010Prop42
 90
       50
102
RTVSPost2010PropOp42
 70
     1
102
RTVSPost2010Prop43
 90
        3
102
RTVSPost2010PropOp43
 70
     1
102
RTVSPost2010Prop44ColorIndex
 90
        5
102
RTVSPost2010Prop44ColorRGB
 90
      255
102
RTVSPost2010PropOp44
 70
     1
102
RTVSPost2010Prop45
280
     0
102
RTVSPost2010PropOp45
 70
     1
102
RTVSPost2010Prop46
 90
       50
102
RTVSPost2010PropOp46
 70
     1
102
RTVSPost2010Prop47
 90
       50
102
RTVSPost2010PropOp47
 70
     1
102
RTVSPost2010Prop48
 90
       50
102
RTVSPost2010PropOp48
 70
     1
102
RTVSPost2010Prop49
280
     0
102
RTVSPost2010PropOp49
 70
     1
102
RTVSPost2010Prop50
 90
       50
102
RTVSPost2010PropOp50
 70
     1
102
RTVSPost2010Prop51ColorIndex
 90
      256
102
RTVSPost2010Prop51ColorRGB
 90
-16777216
102
RTVSPost2010PropOp51
 70
     0
102
RTVSPost2010Prop52
140
1.0
102
RTVSPost2010PropOp52
 70
     0
102
RTVSPost2010Prop53
 90
        2
102
RTVSPost2010PropOp53
 70
     1
102
RTVSPost2010Prop54
  1
strokes_ogs.tif
102
RTVSPost2010PropOp54
 70
     1
102
RTVSPost2010Prop55
280
     0
102
RTVSPost2010PropOp55
 70
     1
102
RTVSPost2010Prop56
140
1.0
102
RTVSPost2010PropOp56
 70
     1
102
RTVSPost2010Prop57
140
1.0
102
RTVSPost2010PropOp57
 70
     1
102
RTVSPropertyOp0
 70
     1
102
RTVSPropertyOp1
 70
     1
102
RTVSPropertyOp2
 70
     1
102
RTVSPropertyOp3
 70
     1
102
RTVSPropertyOp4
 70
     1
102
RTVSPropertyOp5
 70
     1
102
RTVSPropertyOp6
 70
     1
102
RTVSPropertyOp7
 70
     1
102
RTVSPropertyOp8
 70
     1
102
RTVSPropertyOp9
 70
     1
102
RTVSPropertyOp10
 70
     1
102
RTVSPropertyOp11
 70
     1
102
RTVSPropertyOp12
 70
     1
102
RTVSPropertyOp13
 70
     1
102
RTVSPropertyOp14
 70
     1
102
RTVSPropertyOp15
 70
     1
102
RTVSPropertyOp16
 70
     1
102
RTVSPropertyOp17
 70
     1
102
RTVSPropertyOp18
 70
     1
102
RTVSPropertyOp19
 70
     1
102
RTVSPropertyOp20
 70
     1
102
RTVSPropertyOp21
 70
     1
102
RTVSPropertyOp22
 70
     1
102
RTVSPropertyOp23
 70
     1
102
RTVSPropertyOp24
 70
     1
102
RTVSPropertyOp25
 70
     1
102
RTVSPropertyOp26
 70
     1
102
RTVSPropertyOp27
 70
     1
102
RTVSPropertyOp28
 70
     1
102
RTVSPropertyOp29
 70
     1
102
RTVSPropertyOp30
 70
     1
102
RTVSPropertyOp31
 70
     1
102
RTVSPropertyOp32
 70
     1
102
RTVSPropertyOp33
 70
     1
102
RTVSPropertyOp34
 70
     1
102
RTVSPropertyOp35
 70
     1
102
RTVSPropertyOp36
 70
     1
102
RTVSPropertyOp37
 70
     1
102
RTVSPropertyOp38
 70
     1
102
RTVSPropertyOp39
 70
     1
102
RTVSPropertyOp40
 70
     1
102
RTVSPropertyOp41
 70
     1
102
RTVSPropertyOp42
 70
     1
102
RTVSPropertyOp43
 70
     1
102
RTVSPropertyOp44
 70
     1
102
RTVSPropertyOp45
 70
     1
102
RTVSPropertyOp46
 70
     1
102
RTVSPropertyOp47
 70
     1
102
RTVSPropertyOp48
 70
     1
102
RTVSPropertyOp49
 70
     1
102
RTVSPropertyOp50
 70
     1
102
RTVSPropertyOp51
 70
     0
102
RTVSPropertyOp52
 70
     0
102
RTVSPropertyOp53
 70
     1
102
RTVSPropertyOp54
 70
     1
102
RTVSPropertyOp55
 70
     1
102
RTVSPropertyOp56
 70
     1
102
RTVSPropertyOp57
 70
     1
102
RTVSPropertyOp58
 70
     1
102
RTVSPropertyOp59
 70
     1
102
RTVSPropertyOp60
 70
     1
102
RTVSPropertyOp61
 70
     1
102
RTVSPropertyOp62
 70
     1
  0
XRECORD
  5
35FB
102
{ACAD_REACTORS
330
35FA
102
}
330
35FA
100
AcDbXrecord
280
     1
102
RTVSPost2010Prop28
280
     0
102
RTVSPost2010PropOp28
 70
     1
102
RTVSPost2010Prop29
280
     1
102
RTVSPost2010PropOp29
 70
     1
102
RTVSPost2010Prop30
280
     1
102
RTVSPost2010PropOp30
 70
     1
102
RTVSPost2010Prop31
280
     0
102
RTVSPost2010PropOp31
 70
     1
102
RTVSPost2010Prop32
280
     0
102
RTVSPost2010PropOp32
 70
     1
102
RTVSPost2010Prop33
280
     0
102
RTVSPost2010PropOp33
 70
     1
102
RTVSPost2010Prop34
280
     0
102
RTVSPost2010PropOp34
 70
     1
102
RTVSPost2010Prop35
280
     0
102
RTVSPost2010PropOp35
 70
     1
102
RTVSPost2010Prop36
280
     0
102
RTVSPost2010PropOp36
 70
     1
102
RTVSPost2010Prop37
 90
       50
102
RTVSPost2010PropOp37
 70
     1
102
RTVSPost2010Prop38
140
0.0
102
RTVSPost2010PropOp38
 70
     1
102
RTVSPost2010Prop39
140
1.0
102
RTVSPost2010PropOp39
 70
     1
102
RTVSPost2010Prop40
 90
        0
102
RTVSPost2010PropOp40
 70
     1
102
RTVSPost2010Prop41ColorIndex
 90
       18
102
RTVSPost2010Prop41ColorRGB
 90
        0
102
RTVSPost2010PropOp41
 70
     1
102
RTVSPost2010Prop42
 90
       50
102
RTVSPost2010PropOp42
 70
     1
102
RTVSPost2010Prop43
 90
        3
102
RTVSPost2010PropOp43
 70
     1
102
RTVSPost2010Prop44ColorIndex
 90
        5
102
RTVSPost2010Prop44ColorRGB
 90
      255
102
RTVSPost2010PropOp44
 70
     1
102
RTVSPost2010Prop45
280
     0
102
RTVSPost2010PropOp45
 70
     1
102
RTVSPost2010Prop46
 90
       50
102
RTVSPost2010PropOp46
 70
     1
102
RTVSPost2010Prop47
 90
       50
102
RTVSPost2010PropOp47
 70
     1
102
RTVSPost2010Prop48
 90
       50
102
RTVSPost2010PropOp48
 70
     1
102
RTVSPost2010Prop49
280
     0
102
RTVSPost2010PropOp49
 70
     1
102
RTVSPost2010Prop50
 90
       50
102
RTVSPost2010PropOp50
 70
     1
102
RTVSPost2010Prop51ColorIndex
 90
      256
102
RTVSPost2010Prop51ColorRGB
 90
-16777216
102
RTVSPost2010PropOp51
 70
     0
102
RTVSPost2010Prop52
140
1.0
102
RTVSPost2010PropOp52
 70
     0
102
RTVSPost2010Prop53
 90
        2
102
RTVSPost2010PropOp53
 70
     1
102
RTVSPost2010Prop54
  1
strokes_ogs.tif
102
RTVSPost2010PropOp54
 70
     1
102
RTVSPost2010Prop55
280
     0
102
RTVSPost2010PropOp55
 70
     1
102
RTVSPost2010Prop56
140
1.0
102
RTVSPost2010PropOp56
 70
     1
102
RTVSPost2010Prop57
140
1.0
102
RTVSPost2010PropOp57
 70
     1
102
RTVSPropertyOp0
 70
     1
102
RTVSPropertyOp1
 70
     1
102
RTVSPropertyOp2
 70
     1
102
RTVSPropertyOp3
 70
     1
102
RTVSPropertyOp4
 70
     1
102
RTVSPropertyOp5
 70
     1
102
RTVSPropertyOp6
 70
     1
102
RTVSPropertyOp7
 70
     1
102
RTVSPropertyOp8
 70
     1
102
RTVSPropertyOp9
 70
     1
102
RTVSPropertyOp10
 70
     1
102
RTVSPropertyOp11
 70
     1
102
RTVSPropertyOp12
 70
     1
102
RTVSPropertyOp13
 70
     1
102
RTVSPropertyOp14
 70
     1
102
RTVSPropertyOp15
 70
     1
102
RTVSPropertyOp16
 70
     1
102
RTVSPropertyOp17
 70
     1
102
RTVSPropertyOp18
 70
     1
102
RTVSPropertyOp19
 70
     1
102
RTVSPropertyOp20
 70
     1
102
RTVSPropertyOp21
 70
     1
102
RTVSPropertyOp22
 70
     1
102
RTVSPropertyOp23
 70
     1
102
RTVSPropertyOp24
 70
     1
102
RTVSPropertyOp25
 70
     1
102
RTVSPropertyOp26
 70
     1
102
RTVSPropertyOp27
 70
     1
102
RTVSPropertyOp28
 70
     1
102
RTVSPropertyOp29
 70
     1
102
RTVSPropertyOp30
 70
     1
102
RTVSPropertyOp31
 70
     1
102
RTVSPropertyOp32
 70
     1
102
RTVSPropertyOp33
 70
     1
102
RTVSPropertyOp34
 70
     1
102
RTVSPropertyOp35
 70
     1
102
RTVSPropertyOp36
 70
     1
102
RTVSPropertyOp37
 70
     1
102
RTVSPropertyOp38
 70
     1
102
RTVSPropertyOp39
 70
     1
102
RTVSPropertyOp40
 70
     1
102
RTVSPropertyOp41
 70
     1
102
RTVSPropertyOp42
 70
     1
102
RTVSPropertyOp43
 70
     1
102
RTVSPropertyOp44
 70
     1
102
RTVSPropertyOp45
 70
     1
102
RTVSPropertyOp46
 70
     1
102
RTVSPropertyOp47
 70
     1
102
RTVSPropertyOp48
 70
     1
102
RTVSPropertyOp49
 70
     1
102
RTVSPropertyOp50
 70
     1
102
RTVSPropertyOp51
 70
     0
102
RTVSPropertyOp52
 70
     0
102
RTVSPropertyOp53
 70
     1
102
RTVSPropertyOp54
 70
     1
102
RTVSPropertyOp55
 70
     1
102
RTVSPropertyOp56
 70
     1
102
RTVSPropertyOp57
 70
     1
102
RTVSPropertyOp58
 70
     1
102
RTVSPropertyOp59
 70
     1
102
RTVSPropertyOp60
 70
     1
102
RTVSPropertyOp61
 70
     1
102
RTVSPropertyOp62
 70
     1
  0
XRECORD
  5
35ED
102
{ACAD_REACTORS
330
35EC
102
}
330
35EC
100
AcDbXrecord
280
     1
102
RTVSPost2010Prop28
280
     0
102
RTVSPost2010PropOp28
 70
     1
102
RTVSPost2010Prop29
280
     1
102
RTVSPost2010PropOp29
 70
     1
102
RTVSPost2010Prop30
280
     1
102
RTVSPost2010PropOp30
 70
     1
102
RTVSPost2010Prop31
280
     0
102
RTVSPost2010PropOp31
 70
     1
102
RTVSPost2010Prop32
280
     0
102
RTVSPost2010PropOp32
 70
     1
102
RTVSPost2010Prop33
280
     0
102
RTVSPost2010PropOp33
 70
     1
102
RTVSPost2010Prop34
280
     0
102
RTVSPost2010PropOp34
 70
     1
102
RTVSPost2010Prop35
280
     0
102
RTVSPost2010PropOp35
 70
     1
102
RTVSPost2010Prop36
280
     0
102
RTVSPost2010PropOp36
 70
     1
102
RTVSPost2010Prop37
 90
       50
102
RTVSPost2010PropOp37
 70
     1
102
RTVSPost2010Prop38
140
0.0
102
RTVSPost2010PropOp38
 70
     1
102
RTVSPost2010Prop39
140
1.0
102
RTVSPost2010PropOp39
 70
     1
102
RTVSPost2010Prop40
 90
        0
102
RTVSPost2010PropOp40
 70
     1
102
RTVSPost2010Prop41ColorIndex
 90
       18
102
RTVSPost2010Prop41ColorRGB
 90
        0
102
RTVSPost2010PropOp41
 70
     1
102
RTVSPost2010Prop42
 90
       50
102
RTVSPost2010PropOp42
 70
     1
102
RTVSPost2010Prop43
 90
        3
102
RTVSPost2010PropOp43
 70
     1
102
RTVSPost2010Prop44ColorIndex
 90
        5
102
RTVSPost2010Prop44ColorRGB
 90
      255
102
RTVSPost2010PropOp44
 70
     1
102
RTVSPost2010Prop45
280
     0
102
RTVSPost2010PropOp45
 70
     1
102
RTVSPost2010Prop46
 90
       50
102
RTVSPost2010PropOp46
 70
     1
102
RTVSPost2010Prop47
 90
       50
102
RTVSPost2010PropOp47
 70
     1
102
RTVSPost2010Prop48
 90
       50
102
RTVSPost2010PropOp48
 70
     1
102
RTVSPost2010Prop49
280
     0
102
RTVSPost2010PropOp49
 70
     1
102
RTVSPost2010Prop50
 90
       50
102
RTVSPost2010PropOp50
 70
     1
102
RTVSPost2010Prop51ColorIndex
 90
      256
102
RTVSPost2010Prop51ColorRGB
 90
-16777216
102
RTVSPost2010PropOp51
 70
     0
102
RTVSPost2010Prop52
140
1.0
102
RTVSPost2010PropOp52
 70
     0
102
RTVSPost2010Prop53
 90
        2
102
RTVSPost2010PropOp53
 70
     1
102
RTVSPost2010Prop54
  1
strokes_ogs.tif
102
RTVSPost2010PropOp54
 70
     1
102
RTVSPost2010Prop55
280
     0
102
RTVSPost2010PropOp55
 70
     1
102
RTVSPost2010Prop56
140
1.0
102
RTVSPost2010PropOp56
 70
     1
102
RTVSPost2010Prop57
140
1.0
102
RTVSPost2010PropOp57
 70
     1
102
RTVSPropertyOp0
 70
     1
102
RTVSPropertyOp1
 70
     1
102
RTVSPropertyOp2
 70
     1
102
RTVSPropertyOp3
 70
     1
102
RTVSPropertyOp4
 70
     1
102
RTVSPropertyOp5
 70
     1
102
RTVSPropertyOp6
 70
     1
102
RTVSPropertyOp7
 70
     1
102
RTVSPropertyOp8
 70
     1
102
RTVSPropertyOp9
 70
     1
102
RTVSPropertyOp10
 70
     1
102
RTVSPropertyOp11
 70
     1
102
RTVSPropertyOp12
 70
     1
102
RTVSPropertyOp13
 70
     1
102
RTVSPropertyOp14
 70
     1
102
RTVSPropertyOp15
 70
     1
102
RTVSPropertyOp16
 70
     1
102
RTVSPropertyOp17
 70
     1
102
RTVSPropertyOp18
 70
     1
102
RTVSPropertyOp19
 70
     1
102
RTVSPropertyOp20
 70
     1
102
RTVSPropertyOp21
 70
     1
102
RTVSPropertyOp22
 70
     1
102
RTVSPropertyOp23
 70
     1
102
RTVSPropertyOp24
 70
     1
102
RTVSPropertyOp25
 70
     1
102
RTVSPropertyOp26
 70
     1
102
RTVSPropertyOp27
 70
     1
102
RTVSPropertyOp28
 70
     1
102
RTVSPropertyOp29
 70
     1
102
RTVSPropertyOp30
 70
     1
102
RTVSPropertyOp31
 70
     1
102
RTVSPropertyOp32
 70
     1
102
RTVSPropertyOp33
 70
     1
102
RTVSPropertyOp34
 70
     1
102
RTVSPropertyOp35
 70
     1
102
RTVSPropertyOp36
 70
     1
102
RTVSPropertyOp37
 70
     1
102
RTVSPropertyOp38
 70
     1
102
RTVSPropertyOp39
 70
     1
102
RTVSPropertyOp40
 70
     1
102
RTVSPropertyOp41
 70
     1
102
RTVSPropertyOp42
 70
     1
102
RTVSPropertyOp43
 70
     1
102
RTVSPropertyOp44
 70
     1
102
RTVSPropertyOp45
 70
     1
102
RTVSPropertyOp46
 70
     1
102
RTVSPropertyOp47
 70
     1
102
RTVSPropertyOp48
 70
     1
102
RTVSPropertyOp49
 70
     1
102
RTVSPropertyOp50
 70
     1
102
RTVSPropertyOp51
 70
     0
102
RTVSPropertyOp52
 70
     0
102
RTVSPropertyOp53
 70
     1
102
RTVSPropertyOp54
 70
     1
102
RTVSPropertyOp55
 70
     1
102
RTVSPropertyOp56
 70
     1
102
RTVSPropertyOp57
 70
     1
102
RTVSPropertyOp58
 70
     1
102
RTVSPropertyOp59
 70
     1
102
RTVSPropertyOp60
 70
     1
102
RTVSPropertyOp61
 70
     1
102
RTVSPropertyOp62
 70
     1
  0
XRECORD
  5
35F1
102
{ACAD_REACTORS
330
35F0
102
}
330
35F0
100
AcDbXrecord
280
     1
102
RTVSPost2010Prop28
280
     0
102
RTVSPost2010PropOp28
 70
     1
102
RTVSPost2010Prop29
280
     1
102
RTVSPost2010PropOp29
 70
     1
102
RTVSPost2010Prop30
280
     1
102
RTVSPost2010PropOp30
 70
     1
102
RTVSPost2010Prop31
280
     0
102
RTVSPost2010PropOp31
 70
     1
102
RTVSPost2010Prop32
280
     0
102
RTVSPost2010PropOp32
 70
     1
102
RTVSPost2010Prop33
280
     0
102
RTVSPost2010PropOp33
 70
     1
102
RTVSPost2010Prop34
280
     0
102
RTVSPost2010PropOp34
 70
     1
102
RTVSPost2010Prop35
280
     0
102
RTVSPost2010PropOp35
 70
     1
102
RTVSPost2010Prop36
280
     0
102
RTVSPost2010PropOp36
 70
     1
102
RTVSPost2010Prop37
 90
       50
102
RTVSPost2010PropOp37
 70
     1
102
RTVSPost2010Prop38
140
0.0
102
RTVSPost2010PropOp38
 70
     1
102
RTVSPost2010Prop39
140
1.0
102
RTVSPost2010PropOp39
 70
     1
102
RTVSPost2010Prop40
 90
        0
102
RTVSPost2010PropOp40
 70
     1
102
RTVSPost2010Prop41ColorIndex
 90
       18
102
RTVSPost2010Prop41ColorRGB
 90
        0
102
RTVSPost2010PropOp41
 70
     1
102
RTVSPost2010Prop42
 90
       50
102
RTVSPost2010PropOp42
 70
     1
102
RTVSPost2010Prop43
 90
        3
102
RTVSPost2010PropOp43
 70
     1
102
RTVSPost2010Prop44ColorIndex
 90
        5
102
RTVSPost2010Prop44ColorRGB
 90
      255
102
RTVSPost2010PropOp44
 70
     1
102
RTVSPost2010Prop45
280
     0
102
RTVSPost2010PropOp45
 70
     1
102
RTVSPost2010Prop46
 90
       50
102
RTVSPost2010PropOp46
 70
     1
102
RTVSPost2010Prop47
 90
       50
102
RTVSPost2010PropOp47
 70
     1
102
RTVSPost2010Prop48
 90
       50
102
RTVSPost2010PropOp48
 70
     1
102
RTVSPost2010Prop49
280
     0
102
RTVSPost2010PropOp49
 70
     1
102
RTVSPost2010Prop50
 90
       50
102
RTVSPost2010PropOp50
 70
     1
102
RTVSPost2010Prop51ColorIndex
 90
      256
102
RTVSPost2010Prop51ColorRGB
 90
-16777216
102
RTVSPost2010PropOp51
 70
     0
102
RTVSPost2010Prop52
140
1.0
102
RTVSPost2010PropOp52
 70
     0
102
RTVSPost2010Prop53
 90
        2
102
RTVSPost2010PropOp53
 70
     1
102
RTVSPost2010Prop54
  1
strokes_ogs.tif
102
RTVSPost2010PropOp54
 70
     1
102
RTVSPost2010Prop55
280
     0
102
RTVSPost2010PropOp55
 70
     1
102
RTVSPost2010Prop56
140
1.0
102
RTVSPost2010PropOp56
 70
     1
102
RTVSPost2010Prop57
140
1.0
102
RTVSPost2010PropOp57
 70
     1
102
RTVSPropertyOp0
 70
     1
102
RTVSPropertyOp1
 70
     1
102
RTVSPropertyOp2
 70
     1
102
RTVSPropertyOp3
 70
     1
102
RTVSPropertyOp4
 70
     1
102
RTVSPropertyOp5
 70
     1
102
RTVSPropertyOp6
 70
     1
102
RTVSPropertyOp7
 70
     1
102
RTVSPropertyOp8
 70
     1
102
RTVSPropertyOp9
 70
     1
102
RTVSPropertyOp10
 70
     1
102
RTVSPropertyOp11
 70
     1
102
RTVSPropertyOp12
 70
     1
102
RTVSPropertyOp13
 70
     1
102
RTVSPropertyOp14
 70
     1
102
RTVSPropertyOp15
 70
     1
102
RTVSPropertyOp16
 70
     1
102
RTVSPropertyOp17
 70
     1
102
RTVSPropertyOp18
 70
     1
102
RTVSPropertyOp19
 70
     1
102
RTVSPropertyOp20
 70
     1
102
RTVSPropertyOp21
 70
     1
102
RTVSPropertyOp22
 70
     1
102
RTVSPropertyOp23
 70
     1
102
RTVSPropertyOp24
 70
     1
102
RTVSPropertyOp25
 70
     1
102
RTVSPropertyOp26
 70
     1
102
RTVSPropertyOp27
 70
     1
102
RTVSPropertyOp28
 70
     1
102
RTVSPropertyOp29
 70
     1
102
RTVSPropertyOp30
 70
     1
102
RTVSPropertyOp31
 70
     1
102
RTVSPropertyOp32
 70
     1
102
RTVSPropertyOp33
 70
     1
102
RTVSPropertyOp34
 70
     1
102
RTVSPropertyOp35
 70
     1
102
RTVSPropertyOp36
 70
     1
102
RTVSPropertyOp37
 70
     1
102
RTVSPropertyOp38
 70
     1
102
RTVSPropertyOp39
 70
     1
102
RTVSPropertyOp40
 70
     1
102
RTVSPropertyOp41
 70
     1
102
RTVSPropertyOp42
 70
     1
102
RTVSPropertyOp43
 70
     1
102
RTVSPropertyOp44
 70
     1
102
RTVSPropertyOp45
 70
     1
102
RTVSPropertyOp46
 70
     1
102
RTVSPropertyOp47
 70
     1
102
RTVSPropertyOp48
 70
     1
102
RTVSPropertyOp49
 70
     1
102
RTVSPropertyOp50
 70
     1
102
RTVSPropertyOp51
 70
     0
102
RTVSPropertyOp52
 70
     0
102
RTVSPropertyOp53
 70
     1
102
RTVSPropertyOp54
 70
     1
102
RTVSPropertyOp55
 70
     1
102
RTVSPropertyOp56
 70
     1
102
RTVSPropertyOp57
 70
     1
102
RTVSPropertyOp58
 70
     1
102
RTVSPropertyOp59
 70
     1
102
RTVSPropertyOp60
 70
     1
102
RTVSPropertyOp61
 70
     1
102
RTVSPropertyOp62
 70
     1
  0
XRECORD
  5
360B
102
{ACAD_REACTORS
330
360A
102
}
330
360A
100
AcDbXrecord
280
     1
102
RTVSPost2010Prop28
280
     0
102
RTVSPost2010PropOp28
 70
     1
102
RTVSPost2010Prop29
280
     1
102
RTVSPost2010PropOp29
 70
     1
102
RTVSPost2010Prop30
280
     1
102
RTVSPost2010PropOp30
 70
     1
102
RTVSPost2010Prop31
280
     0
102
RTVSPost2010PropOp31
 70
     1
102
RTVSPost2010Prop32
280
     0
102
RTVSPost2010PropOp32
 70
     1
102
RTVSPost2010Prop33
280
     0
102
RTVSPost2010PropOp33
 70
     1
102
RTVSPost2010Prop34
280
     0
102
RTVSPost2010PropOp34
 70
     1
102
RTVSPost2010Prop35
280
     0
102
RTVSPost2010PropOp35
 70
     1
102
RTVSPost2010Prop36
280
     0
102
RTVSPost2010PropOp36
 70
     1
102
RTVSPost2010Prop37
 90
       50
102
RTVSPost2010PropOp37
 70
     0
102
RTVSPost2010Prop38
140
0.0
102
RTVSPost2010PropOp38
 70
     0
102
RTVSPost2010Prop39
140
1.0
102
RTVSPost2010PropOp39
 70
     0
102
RTVSPost2010Prop40
 90
        0
102
RTVSPost2010PropOp40
 70
     0
102
RTVSPost2010Prop41ColorIndex
 90
       18
102
RTVSPost2010Prop41ColorRGB
 90
        0
102
RTVSPost2010PropOp41
 70
     0
102
RTVSPost2010Prop42
 90
       50
102
RTVSPost2010PropOp42
 70
     0
102
RTVSPost2010Prop43
 90
        3
102
RTVSPost2010PropOp43
 70
     0
102
RTVSPost2010Prop44ColorIndex
 90
        5
102
RTVSPost2010Prop44ColorRGB
 90
      255
102
RTVSPost2010PropOp44
 70
     0
102
RTVSPost2010Prop45
280
     0
102
RTVSPost2010PropOp45
 70
     1
102
RTVSPost2010Prop46
 90
       50
102
RTVSPost2010PropOp46
 70
     0
102
RTVSPost2010Prop47
 90
       50
102
RTVSPost2010PropOp47
 70
     0
102
RTVSPost2010Prop48
 90
       50
102
RTVSPost2010PropOp48
 70
     0
102
RTVSPost2010Prop49
280
     0
102
RTVSPost2010PropOp49
 70
     1
102
RTVSPost2010Prop50
 90
       50
102
RTVSPost2010PropOp50
 70
     0
102
RTVSPost2010Prop51ColorIndex
 90
      256
102
RTVSPost2010Prop51ColorRGB
 90
-16777216
102
RTVSPost2010PropOp51
 70
     0
102
RTVSPost2010Prop52
140
1.0
102
RTVSPost2010PropOp52
 70
     0
102
RTVSPost2010Prop53
 90
        2
102
RTVSPost2010PropOp53
 70
     0
102
RTVSPost2010Prop54
  1
strokes_ogs.tif
102
RTVSPost2010PropOp54
 70
     0
102
RTVSPost2010Prop55
280
     0
102
RTVSPost2010PropOp55
 70
     1
102
RTVSPost2010Prop56
140
1.0
102
RTVSPost2010PropOp56
 70
     0
102
RTVSPost2010Prop57
140
1.0
102
RTVSPost2010PropOp57
 70
     0
102
RTVSPropertyOp0
 70
     0
102
RTVSPropertyOp1
 70
     0
102
RTVSPropertyOp2
 70
     0
102
RTVSPropertyOp3
 70
     0
102
RTVSPropertyOp4
 70
     0
102
RTVSPropertyOp5
 70
     0
102
RTVSPropertyOp6
 70
     0
102
RTVSPropertyOp7
 70
     0
102
RTVSPropertyOp8
 70
     0
102
RTVSPropertyOp9
 70
     0
102
RTVSPropertyOp10
 70
     0
102
RTVSPropertyOp11
 70
     0
102
RTVSPropertyOp12
 70
     0
102
RTVSPropertyOp13
 70
     0
102
RTVSPropertyOp14
 70
     2
102
RTVSPropertyOp15
 70
     0
102
RTVSPropertyOp16
 70
     0
102
RTVSPropertyOp17
 70
     0
102
RTVSPropertyOp18
 70
     0
102
RTVSPropertyOp19
 70
     0
102
RTVSPropertyOp20
 70
     0
102
RTVSPropertyOp21
 70
     0
102
RTVSPropertyOp22
 70
     0
102
RTVSPropertyOp23
 70
     0
102
RTVSPropertyOp24
 70
     0
102
RTVSPropertyOp25
 70
     0
102
RTVSPropertyOp26
 70
     0
102
RTVSPropertyOp27
 70
     0
102
RTVSPropertyOp28
 70
     1
102
RTVSPropertyOp29
 70
     1
102
RTVSPropertyOp30
 70
     1
102
RTVSPropertyOp31
 70
     1
102
RTVSPropertyOp32
 70
     1
102
RTVSPropertyOp33
 70
     1
102
RTVSPropertyOp34
 70
     1
102
RTVSPropertyOp35
 70
     1
102
RTVSPropertyOp36
 70
     1
102
RTVSPropertyOp37
 70
     0
102
RTVSPropertyOp38
 70
     0
102
RTVSPropertyOp39
 70
     0
102
RTVSPropertyOp40
 70
     0
102
RTVSPropertyOp41
 70
     0
102
RTVSPropertyOp42
 70
     0
102
RTVSPropertyOp43
 70
     0
102
RTVSPropertyOp44
 70
     0
102
RTVSPropertyOp45
 70
     1
102
RTVSPropertyOp46
 70
     0
102
RTVSPropertyOp47
 70
     0
102
RTVSPropertyOp48
 70
     0
102
RTVSPropertyOp49
 70
     1
102
RTVSPropertyOp50
 70
     0
102
RTVSPropertyOp51
 70
     0
102
RTVSPropertyOp52
 70
     0
102
RTVSPropertyOp53
 70
     0
102
RTVSPropertyOp54
 70
     0
102
RTVSPropertyOp55
 70
     1
102
RTVSPropertyOp56
 70
     0
102
RTVSPropertyOp57
 70
     0
102
RTVSPropertyOp58
 70
     0
102
RTVSPropertyOp59
 70
     0
102
RTVSPropertyOp60
 70
     0
102
RTVSPropertyOp61
 70
     0
102
RTVSPropertyOp62
 70
     0
  0
XRECORD
  5
35F9
102
{ACAD_REACTORS
330
35F8
102
}
330
35F8
100
AcDbXrecord
280
     1
102
RTVSPost2010Prop28
280
     0
102
RTVSPost2010PropOp28
 70
     1
102
RTVSPost2010Prop29
280
     1
102
RTVSPost2010PropOp29
 70
     1
102
RTVSPost2010Prop30
280
     1
102
RTVSPost2010PropOp30
 70
     1
102
RTVSPost2010Prop31
280
     0
102
RTVSPost2010PropOp31
 70
     1
102
RTVSPost2010Prop32
280
     0
102
RTVSPost2010PropOp32
 70
     1
102
RTVSPost2010Prop33
280
     0
102
RTVSPost2010PropOp33
 70
     1
102
RTVSPost2010Prop34
280
     0
102
RTVSPost2010PropOp34
 70
     1
102
RTVSPost2010Prop35
280
     0
102
RTVSPost2010PropOp35
 70
     1
102
RTVSPost2010Prop36
280
     0
102
RTVSPost2010PropOp36
 70
     1
102
RTVSPost2010Prop37
 90
       50
102
RTVSPost2010PropOp37
 70
     1
102
RTVSPost2010Prop38
140
0.0
102
RTVSPost2010PropOp38
 70
     1
102
RTVSPost2010Prop39
140
1.0
102
RTVSPost2010PropOp39
 70
     1
102
RTVSPost2010Prop40
 90
        0
102
RTVSPost2010PropOp40
 70
     1
102
RTVSPost2010Prop41ColorIndex
 90
       18
102
RTVSPost2010Prop41ColorRGB
 90
        0
102
RTVSPost2010PropOp41
 70
     1
102
RTVSPost2010Prop42
 90
       50
102
RTVSPost2010PropOp42
 70
     1
102
RTVSPost2010Prop43
 90
        3
102
RTVSPost2010PropOp43
 70
     1
102
RTVSPost2010Prop44ColorIndex
 90
        5
102
RTVSPost2010Prop44ColorRGB
 90
      255
102
RTVSPost2010PropOp44
 70
     1
102
RTVSPost2010Prop45
280
     0
102
RTVSPost2010PropOp45
 70
     1
102
RTVSPost2010Prop46
 90
       50
102
RTVSPost2010PropOp46
 70
     1
102
RTVSPost2010Prop47
 90
       50
102
RTVSPost2010PropOp47
 70
     1
102
RTVSPost2010Prop48
 90
       50
102
RTVSPost2010PropOp48
 70
     1
102
RTVSPost2010Prop49
280
     0
102
RTVSPost2010PropOp49
 70
     1
102
RTVSPost2010Prop50
 90
       50
102
RTVSPost2010PropOp50
 70
     1
102
RTVSPost2010Prop51ColorIndex
 90
      256
102
RTVSPost2010Prop51ColorRGB
 90
-16777216
102
RTVSPost2010PropOp51
 70
     0
102
RTVSPost2010Prop52
140
1.0
102
RTVSPost2010PropOp52
 70
     0
102
RTVSPost2010Prop53
 90
        2
102
RTVSPost2010PropOp53
 70
     1
102
RTVSPost2010Prop54
  1
strokes_ogs.tif
102
RTVSPost2010PropOp54
 70
     1
102
RTVSPost2010Prop55
280
     0
102
RTVSPost2010PropOp55
 70
     1
102
RTVSPost2010Prop56
140
1.0
102
RTVSPost2010PropOp56
 70
     1
102
RTVSPost2010Prop57
140
1.0
102
RTVSPost2010PropOp57
 70
     1
102
RTVSPropertyOp0
 70
     1
102
RTVSPropertyOp1
 70
     1
102
RTVSPropertyOp2
 70
     1
102
RTVSPropertyOp3
 70
     1
102
RTVSPropertyOp4
 70
     1
102
RTVSPropertyOp5
 70
     1
102
RTVSPropertyOp6
 70
     1
102
RTVSPropertyOp7
 70
     1
102
RTVSPropertyOp8
 70
     1
102
RTVSPropertyOp9
 70
     1
102
RTVSPropertyOp10
 70
     1
102
RTVSPropertyOp11
 70
     1
102
RTVSPropertyOp12
 70
     1
102
RTVSPropertyOp13
 70
     1
102
RTVSPropertyOp14
 70
     1
102
RTVSPropertyOp15
 70
     1
102
RTVSPropertyOp16
 70
     1
102
RTVSPropertyOp17
 70
     1
102
RTVSPropertyOp18
 70
     1
102
RTVSPropertyOp19
 70
     1
102
RTVSPropertyOp20
 70
     1
102
RTVSPropertyOp21
 70
     1
102
RTVSPropertyOp22
 70
     1
102
RTVSPropertyOp23
 70
     1
102
RTVSPropertyOp24
 70
     1
102
RTVSPropertyOp25
 70
     1
102
RTVSPropertyOp26
 70
     1
102
RTVSPropertyOp27
 70
     1
102
RTVSPropertyOp28
 70
     1
102
RTVSPropertyOp29
 70
     1
102
RTVSPropertyOp30
 70
     1
102
RTVSPropertyOp31
 70
     1
102
RTVSPropertyOp32
 70
     1
102
RTVSPropertyOp33
 70
     1
102
RTVSPropertyOp34
 70
     1
102
RTVSPropertyOp35
 70
     1
102
RTVSPropertyOp36
 70
     1
102
RTVSPropertyOp37
 70
     1
102
RTVSPropertyOp38
 70
     1
102
RTVSPropertyOp39
 70
     1
102
RTVSPropertyOp40
 70
     1
102
RTVSPropertyOp41
 70
     1
102
RTVSPropertyOp42
 70
     1
102
RTVSPropertyOp43
 70
     1
102
RTVSPropertyOp44
 70
     1
102
RTVSPropertyOp45
 70
     1
102
RTVSPropertyOp46
 70
     1
102
RTVSPropertyOp47
 70
     1
102
RTVSPropertyOp48
 70
     1
102
RTVSPropertyOp49
 70
     1
102
RTVSPropertyOp50
 70
     1
102
RTVSPropertyOp51
 70
     0
102
RTVSPropertyOp52
 70
     0
102
RTVSPropertyOp53
 70
     1
102
RTVSPropertyOp54
 70
     1
102
RTVSPropertyOp55
 70
     1
102
RTVSPropertyOp56
 70
     1
102
RTVSPropertyOp57
 70
     1
102
RTVSPropertyOp58
 70
     1
102
RTVSPropertyOp59
 70
     1
102
RTVSPropertyOp60
 70
     1
102
RTVSPropertyOp61
 70
     1
102
RTVSPropertyOp62
 70
     1
  0
XRECORD
  5
35DD
102
{ACAD_REACTORS
330
35DC
102
}
330
35DC
100
AcDbXrecord
280
     1
102
RTVSPost2010Prop28
280
     0
102
RTVSPost2010PropOp28
 70
     1
102
RTVSPost2010Prop29
280
     1
102
RTVSPost2010PropOp29
 70
     1
102
RTVSPost2010Prop30
280
     1
102
RTVSPost2010PropOp30
 70
     1
102
RTVSPost2010Prop31
280
     0
102
RTVSPost2010PropOp31
 70
     1
102
RTVSPost2010Prop32
280
     0
102
RTVSPost2010PropOp32
 70
     1
102
RTVSPost2010Prop33
280
     0
102
RTVSPost2010PropOp33
 70
     1
102
RTVSPost2010Prop34
280
     0
102
RTVSPost2010PropOp34
 70
     1
102
RTVSPost2010Prop35
280
     0
102
RTVSPost2010PropOp35
 70
     1
102
RTVSPost2010Prop36
280
     0
102
RTVSPost2010PropOp36
 70
     1
102
RTVSPost2010Prop37
 90
       50
102
RTVSPost2010PropOp37
 70
     1
102
RTVSPost2010Prop38
140
0.0
102
RTVSPost2010PropOp38
 70
     1
102
RTVSPost2010Prop39
140
1.0
102
RTVSPost2010PropOp39
 70
     1
102
RTVSPost2010Prop40
 90
        0
102
RTVSPost2010PropOp40
 70
     1
102
RTVSPost2010Prop41ColorIndex
 90
       18
102
RTVSPost2010Prop41ColorRGB
 90
        0
102
RTVSPost2010PropOp41
 70
     1
102
RTVSPost2010Prop42
 90
       50
102
RTVSPost2010PropOp42
 70
     1
102
RTVSPost2010Prop43
 90
        3
102
RTVSPost2010PropOp43
 70
     1
102
RTVSPost2010Prop44ColorIndex
 90
        5
102
RTVSPost2010Prop44ColorRGB
 90
      255
102
RTVSPost2010PropOp44
 70
     1
102
RTVSPost2010Prop45
280
     0
102
RTVSPost2010PropOp45
 70
     1
102
RTVSPost2010Prop46
 90
       50
102
RTVSPost2010PropOp46
 70
     1
102
RTVSPost2010Prop47
 90
       50
102
RTVSPost2010PropOp47
 70
     1
102
RTVSPost2010Prop48
 90
       50
102
RTVSPost2010PropOp48
 70
     1
102
RTVSPost2010Prop49
280
     0
102
RTVSPost2010PropOp49
 70
     1
102
RTVSPost2010Prop50
 90
       50
102
RTVSPost2010PropOp50
 70
     1
102
RTVSPost2010Prop51ColorIndex
 90
      256
102
RTVSPost2010Prop51ColorRGB
 90
-16777216
102
RTVSPost2010PropOp51
 70
     0
102
RTVSPost2010Prop52
140
1.0
102
RTVSPost2010PropOp52
 70
     0
102
RTVSPost2010Prop53
 90
        2
102
RTVSPost2010PropOp53
 70
     1
102
RTVSPost2010Prop54
  1
strokes_ogs.tif
102
RTVSPost2010PropOp54
 70
     1
102
RTVSPost2010Prop55
280
     0
102
RTVSPost2010PropOp55
 70
     1
102
RTVSPost2010Prop56
140
1.0
102
RTVSPost2010PropOp56
 70
     1
102
RTVSPost2010Prop57
140
1.0
102
RTVSPost2010PropOp57
 70
     1
102
RTVSPropertyOp0
 70
     1
102
RTVSPropertyOp1
 70
     1
102
RTVSPropertyOp2
 70
     1
102
RTVSPropertyOp3
 70
     1
102
RTVSPropertyOp4
 70
     1
102
RTVSPropertyOp5
 70
     1
102
RTVSPropertyOp6
 70
     1
102
RTVSPropertyOp7
 70
     1
102
RTVSPropertyOp8
 70
     1
102
RTVSPropertyOp9
 70
     1
102
RTVSPropertyOp10
 70
     1
102
RTVSPropertyOp11
 70
     1
102
RTVSPropertyOp12
 70
     1
102
RTVSPropertyOp13
 70
     1
102
RTVSPropertyOp14
 70
     1
102
RTVSPropertyOp15
 70
     1
102
RTVSPropertyOp16
 70
     1
102
RTVSPropertyOp17
 70
     1
102
RTVSPropertyOp18
 70
     1
102
RTVSPropertyOp19
 70
     1
102
RTVSPropertyOp20
 70
     1
102
RTVSPropertyOp21
 70
     1
102
RTVSPropertyOp22
 70
     1
102
RTVSPropertyOp23
 70
     1
102
RTVSPropertyOp24
 70
     1
102
RTVSPropertyOp25
 70
     1
102
RTVSPropertyOp26
 70
     1
102
RTVSPropertyOp27
 70
     1
102
RTVSPropertyOp28
 70
     1
102
RTVSPropertyOp29
 70
     1
102
RTVSPropertyOp30
 70
     1
102
RTVSPropertyOp31
 70
     1
102
RTVSPropertyOp32
 70
     1
102
RTVSPropertyOp33
 70
     1
102
RTVSPropertyOp34
 70
     1
102
RTVSPropertyOp35
 70
     1
102
RTVSPropertyOp36
 70
     1
102
RTVSPropertyOp37
 70
     1
102
RTVSPropertyOp38
 70
     1
102
RTVSPropertyOp39
 70
     1
102
RTVSPropertyOp40
 70
     1
102
RTVSPropertyOp41
 70
     1
102
RTVSPropertyOp42
 70
     1
102
RTVSPropertyOp43
 70
     1
102
RTVSPropertyOp44
 70
     1
102
RTVSPropertyOp45
 70
     1
102
RTVSPropertyOp46
 70
     1
102
RTVSPropertyOp47
 70
     1
102
RTVSPropertyOp48
 70
     1
102
RTVSPropertyOp49
 70
     1
102
RTVSPropertyOp50
 70
     1
102
RTVSPropertyOp51
 70
     0
102
RTVSPropertyOp52
 70
     0
102
RTVSPropertyOp53
 70
     1
102
RTVSPropertyOp54
 70
     1
102
RTVSPropertyOp55
 70
     1
102
RTVSPropertyOp56
 70
     1
102
RTVSPropertyOp57
 70
     1
102
RTVSPropertyOp58
 70
     1
102
RTVSPropertyOp59
 70
     1
102
RTVSPropertyOp60
 70
     1
102
RTVSPropertyOp61
 70
     1
102
RTVSPropertyOp62
 70
     1
  0
XRECORD
  5
35DF
102
{ACAD_REACTORS
330
35DE
102
}
330
35DE
100
AcDbXrecord
280
     1
102
RTVSPost2010Prop28
280
     0
102
RTVSPost2010PropOp28
 70
     1
102
RTVSPost2010Prop29
280
     1
102
RTVSPost2010PropOp29
 70
     1
102
RTVSPost2010Prop30
280
     1
102
RTVSPost2010PropOp30
 70
     1
102
RTVSPost2010Prop31
280
     0
102
RTVSPost2010PropOp31
 70
     1
102
RTVSPost2010Prop32
280
     0
102
RTVSPost2010PropOp32
 70
     1
102
RTVSPost2010Prop33
280
     0
102
RTVSPost2010PropOp33
 70
     1
102
RTVSPost2010Prop34
280
     0
102
RTVSPost2010PropOp34
 70
     1
102
RTVSPost2010Prop35
280
     0
102
RTVSPost2010PropOp35
 70
     1
102
RTVSPost2010Prop36
280
     0
102
RTVSPost2010PropOp36
 70
     1
102
RTVSPost2010Prop37
 90
       50
102
RTVSPost2010PropOp37
 70
     1
102
RTVSPost2010Prop38
140
0.0
102
RTVSPost2010PropOp38
 70
     1
102
RTVSPost2010Prop39
140
1.0
102
RTVSPost2010PropOp39
 70
     1
102
RTVSPost2010Prop40
 90
        0
102
RTVSPost2010PropOp40
 70
     1
102
RTVSPost2010Prop41ColorIndex
 90
       18
102
RTVSPost2010Prop41ColorRGB
 90
        0
102
RTVSPost2010PropOp41
 70
     1
102
RTVSPost2010Prop42
 90
       50
102
RTVSPost2010PropOp42
 70
     1
102
RTVSPost2010Prop43
 90
        3
102
RTVSPost2010PropOp43
 70
     1
102
RTVSPost2010Prop44ColorIndex
 90
        5
102
RTVSPost2010Prop44ColorRGB
 90
      255
102
RTVSPost2010PropOp44
 70
     1
102
RTVSPost2010Prop45
280
     0
102
RTVSPost2010PropOp45
 70
     1
102
RTVSPost2010Prop46
 90
       50
102
RTVSPost2010PropOp46
 70
     1
102
RTVSPost2010Prop47
 90
       50
102
RTVSPost2010PropOp47
 70
     1
102
RTVSPost2010Prop48
 90
       50
102
RTVSPost2010PropOp48
 70
     1
102
RTVSPost2010Prop49
280
     0
102
RTVSPost2010PropOp49
 70
     1
102
RTVSPost2010Prop50
 90
       50
102
RTVSPost2010PropOp50
 70
     1
102
RTVSPost2010Prop51ColorIndex
 90
      256
102
RTVSPost2010Prop51ColorRGB
 90
-16777216
102
RTVSPost2010PropOp51
 70
     0
102
RTVSPost2010Prop52
140
1.0
102
RTVSPost2010PropOp52
 70
     0
102
RTVSPost2010Prop53
 90
        2
102
RTVSPost2010PropOp53
 70
     1
102
RTVSPost2010Prop54
  1
strokes_ogs.tif
102
RTVSPost2010PropOp54
 70
     1
102
RTVSPost2010Prop55
280
     0
102
RTVSPost2010PropOp55
 70
     1
102
RTVSPost2010Prop56
140
1.0
102
RTVSPost2010PropOp56
 70
     1
102
RTVSPost2010Prop57
140
1.0
102
RTVSPost2010PropOp57
 70
     1
102
RTVSPropertyOp0
 70
     1
102
RTVSPropertyOp1
 70
     1
102
RTVSPropertyOp2
 70
     1
102
RTVSPropertyOp3
 70
     1
102
RTVSPropertyOp4
 70
     1
102
RTVSPropertyOp5
 70
     1
102
RTVSPropertyOp6
 70
     1
102
RTVSPropertyOp7
 70
     1
102
RTVSPropertyOp8
 70
     1
102
RTVSPropertyOp9
 70
     1
102
RTVSPropertyOp10
 70
     1
102
RTVSPropertyOp11
 70
     1
102
RTVSPropertyOp12
 70
     1
102
RTVSPropertyOp13
 70
     1
102
RTVSPropertyOp14
 70
     1
102
RTVSPropertyOp15
 70
     1
102
RTVSPropertyOp16
 70
     1
102
RTVSPropertyOp17
 70
     1
102
RTVSPropertyOp18
 70
     1
102
RTVSPropertyOp19
 70
     1
102
RTVSPropertyOp20
 70
     1
102
RTVSPropertyOp21
 70
     1
102
RTVSPropertyOp22
 70
     1
102
RTVSPropertyOp23
 70
     1
102
RTVSPropertyOp24
 70
     1
102
RTVSPropertyOp25
 70
     1
102
RTVSPropertyOp26
 70
     1
102
RTVSPropertyOp27
 70
     1
102
RTVSPropertyOp28
 70
     1
102
RTVSPropertyOp29
 70
     1
102
RTVSPropertyOp30
 70
     1
102
RTVSPropertyOp31
 70
     1
102
RTVSPropertyOp32
 70
     1
102
RTVSPropertyOp33
 70
     1
102
RTVSPropertyOp34
 70
     1
102
RTVSPropertyOp35
 70
     1
102
RTVSPropertyOp36
 70
     1
102
RTVSPropertyOp37
 70
     1
102
RTVSPropertyOp38
 70
     1
102
RTVSPropertyOp39
 70
     1
102
RTVSPropertyOp40
 70
     1
102
RTVSPropertyOp41
 70
     1
102
RTVSPropertyOp42
 70
     1
102
RTVSPropertyOp43
 70
     1
102
RTVSPropertyOp44
 70
     1
102
RTVSPropertyOp45
 70
     1
102
RTVSPropertyOp46
 70
     1
102
RTVSPropertyOp47
 70
     1
102
RTVSPropertyOp48
 70
     1
102
RTVSPropertyOp49
 70
     1
102
RTVSPropertyOp50
 70
     1
102
RTVSPropertyOp51
 70
     0
102
RTVSPropertyOp52
 70
     0
102
RTVSPropertyOp53
 70
     1
102
RTVSPropertyOp54
 70
     1
102
RTVSPropertyOp55
 70
     1
102
RTVSPropertyOp56
 70
     1
102
RTVSPropertyOp57
 70
     1
102
RTVSPropertyOp58
 70
     1
102
RTVSPropertyOp59
 70
     1
102
RTVSPropertyOp60
 70
     1
102
RTVSPropertyOp61
 70
     1
102
RTVSPropertyOp62
 70
     1
  0
XRECORD
  5
35E1
102
{ACAD_REACTORS
330
35E0
102
}
330
35E0
100
AcDbXrecord
280
     1
102
RTVSPost2010Prop28
280
     0
102
RTVSPost2010PropOp28
 70
     1
102
RTVSPost2010Prop29
280
     1
102
RTVSPost2010PropOp29
 70
     1
102
RTVSPost2010Prop30
280
     1
102
RTVSPost2010PropOp30
 70
     1
102
RTVSPost2010Prop31
280
     0
102
RTVSPost2010PropOp31
 70
     1
102
RTVSPost2010Prop32
280
     0
102
RTVSPost2010PropOp32
 70
     1
102
RTVSPost2010Prop33
280
     0
102
RTVSPost2010PropOp33
 70
     1
102
RTVSPost2010Prop34
280
     0
102
RTVSPost2010PropOp34
 70
     1
102
RTVSPost2010Prop35
280
     0
102
RTVSPost2010PropOp35
 70
     1
102
RTVSPost2010Prop36
280
     0
102
RTVSPost2010PropOp36
 70
     1
102
RTVSPost2010Prop37
 90
       50
102
RTVSPost2010PropOp37
 70
     1
102
RTVSPost2010Prop38
140
0.0
102
RTVSPost2010PropOp38
 70
     1
102
RTVSPost2010Prop39
140
1.0
102
RTVSPost2010PropOp39
 70
     1
102
RTVSPost2010Prop40
 90
        0
102
RTVSPost2010PropOp40
 70
     1
102
RTVSPost2010Prop41ColorIndex
 90
       18
102
RTVSPost2010Prop41ColorRGB
 90
        0
102
RTVSPost2010PropOp41
 70
     1
102
RTVSPost2010Prop42
 90
       50
102
RTVSPost2010PropOp42
 70
     1
102
RTVSPost2010Prop43
 90
        3
102
RTVSPost2010PropOp43
 70
     1
102
RTVSPost2010Prop44ColorIndex
 90
        5
102
RTVSPost2010Prop44ColorRGB
 90
      255
102
RTVSPost2010PropOp44
 70
     1
102
RTVSPost2010Prop45
280
     0
102
RTVSPost2010PropOp45
 70
     1
102
RTVSPost2010Prop46
 90
       50
102
RTVSPost2010PropOp46
 70
     1
102
RTVSPost2010Prop47
 90
       50
102
RTVSPost2010PropOp47
 70
     1
102
RTVSPost2010Prop48
 90
       50
102
RTVSPost2010PropOp48
 70
     1
102
RTVSPost2010Prop49
280
     0
102
RTVSPost2010PropOp49
 70
     1
102
RTVSPost2010Prop50
 90
       50
102
RTVSPost2010PropOp50
 70
     1
102
RTVSPost2010Prop51ColorIndex
 90
      256
102
RTVSPost2010Prop51ColorRGB
 90
-16777216
102
RTVSPost2010PropOp51
 70
     0
102
RTVSPost2010Prop52
140
1.0
102
RTVSPost2010PropOp52
 70
     0
102
RTVSPost2010Prop53
 90
        2
102
RTVSPost2010PropOp53
 70
     1
102
RTVSPost2010Prop54
  1
strokes_ogs.tif
102
RTVSPost2010PropOp54
 70
     1
102
RTVSPost2010Prop55
280
     0
102
RTVSPost2010PropOp55
 70
     1
102
RTVSPost2010Prop56
140
1.0
102
RTVSPost2010PropOp56
 70
     1
102
RTVSPost2010Prop57
140
1.0
102
RTVSPost2010PropOp57
 70
     1
102
RTVSPropertyOp0
 70
     1
102
RTVSPropertyOp1
 70
     1
102
RTVSPropertyOp2
 70
     1
102
RTVSPropertyOp3
 70
     1
102
RTVSPropertyOp4
 70
     1
102
RTVSPropertyOp5
 70
     1
102
RTVSPropertyOp6
 70
     1
102
RTVSPropertyOp7
 70
     1
102
RTVSPropertyOp8
 70
     1
102
RTVSPropertyOp9
 70
     1
102
RTVSPropertyOp10
 70
     1
102
RTVSPropertyOp11
 70
     1
102
RTVSPropertyOp12
 70
     1
102
RTVSPropertyOp13
 70
     1
102
RTVSPropertyOp14
 70
     1
102
RTVSPropertyOp15
 70
     1
102
RTVSPropertyOp16
 70
     1
102
RTVSPropertyOp17
 70
     1
102
RTVSPropertyOp18
 70
     1
102
RTVSPropertyOp19
 70
     1
102
RTVSPropertyOp20
 70
     1
102
RTVSPropertyOp21
 70
     1
102
RTVSPropertyOp22
 70
     1
102
RTVSPropertyOp23
 70
     1
102
RTVSPropertyOp24
 70
     1
102
RTVSPropertyOp25
 70
     1
102
RTVSPropertyOp26
 70
     1
102
RTVSPropertyOp27
 70
     1
102
RTVSPropertyOp28
 70
     1
102
RTVSPropertyOp29
 70
     1
102
RTVSPropertyOp30
 70
     1
102
RTVSPropertyOp31
 70
     1
102
RTVSPropertyOp32
 70
     1
102
RTVSPropertyOp33
 70
     1
102
RTVSPropertyOp34
 70
     1
102
RTVSPropertyOp35
 70
     1
102
RTVSPropertyOp36
 70
     1
102
RTVSPropertyOp37
 70
     1
102
RTVSPropertyOp38
 70
     1
102
RTVSPropertyOp39
 70
     1
102
RTVSPropertyOp40
 70
     1
102
RTVSPropertyOp41
 70
     1
102
RTVSPropertyOp42
 70
     1
102
RTVSPropertyOp43
 70
     1
102
RTVSPropertyOp44
 70
     1
102
RTVSPropertyOp45
 70
     1
102
RTVSPropertyOp46
 70
     1
102
RTVSPropertyOp47
 70
     1
102
RTVSPropertyOp48
 70
     1
102
RTVSPropertyOp49
 70
     1
102
RTVSPropertyOp50
 70
     1
102
RTVSPropertyOp51
 70
     0
102
RTVSPropertyOp52
 70
     0
102
RTVSPropertyOp53
 70
     1
102
RTVSPropertyOp54
 70
     1
102
RTVSPropertyOp55
 70
     1
102
RTVSPropertyOp56
 70
     1
102
RTVSPropertyOp57
 70
     1
102
RTVSPropertyOp58
 70
     1
102
RTVSPropertyOp59
 70
     1
102
RTVSPropertyOp60
 70
     1
102
RTVSPropertyOp61
 70
     1
102
RTVSPropertyOp62
 70
     1
  0
XRECORD
  5
35E3
102
{ACAD_REACTORS
330
35E2
102
}
330
35E2
100
AcDbXrecord
280
     1
102
RTVSPost2010Prop28
280
     0
102
RTVSPost2010PropOp28
 70
     1
102
RTVSPost2010Prop29
280
     1
102
RTVSPost2010PropOp29
 70
     1
102
RTVSPost2010Prop30
280
     1
102
RTVSPost2010PropOp30
 70
     1
102
RTVSPost2010Prop31
280
     0
102
RTVSPost2010PropOp31
 70
     1
102
RTVSPost2010Prop32
280
     0
102
RTVSPost2010PropOp32
 70
     1
102
RTVSPost2010Prop33
280
     0
102
RTVSPost2010PropOp33
 70
     1
102
RTVSPost2010Prop34
280
     0
102
RTVSPost2010PropOp34
 70
     1
102
RTVSPost2010Prop35
280
     0
102
RTVSPost2010PropOp35
 70
     1
102
RTVSPost2010Prop36
280
     0
102
RTVSPost2010PropOp36
 70
     1
102
RTVSPost2010Prop37
 90
       50
102
RTVSPost2010PropOp37
 70
     1
102
RTVSPost2010Prop38
140
0.0
102
RTVSPost2010PropOp38
 70
     1
102
RTVSPost2010Prop39
140
1.0
102
RTVSPost2010PropOp39
 70
     1
102
RTVSPost2010Prop40
 90
        0
102
RTVSPost2010PropOp40
 70
     1
102
RTVSPost2010Prop41ColorIndex
 90
       18
102
RTVSPost2010Prop41ColorRGB
 90
        0
102
RTVSPost2010PropOp41
 70
     1
102
RTVSPost2010Prop42
 90
       50
102
RTVSPost2010PropOp42
 70
     1
102
RTVSPost2010Prop43
 90
        3
102
RTVSPost2010PropOp43
 70
     1
102
RTVSPost2010Prop44ColorIndex
 90
        5
102
RTVSPost2010Prop44ColorRGB
 90
      255
102
RTVSPost2010PropOp44
 70
     1
102
RTVSPost2010Prop45
280
     0
102
RTVSPost2010PropOp45
 70
     1
102
RTVSPost2010Prop46
 90
       50
102
RTVSPost2010PropOp46
 70
     1
102
RTVSPost2010Prop47
 90
       50
102
RTVSPost2010PropOp47
 70
     1
102
RTVSPost2010Prop48
 90
       50
102
RTVSPost2010PropOp48
 70
     1
102
RTVSPost2010Prop49
280
     0
102
RTVSPost2010PropOp49
 70
     1
102
RTVSPost2010Prop50
 90
       50
102
RTVSPost2010PropOp50
 70
     1
102
RTVSPost2010Prop51ColorIndex
 90
      256
102
RTVSPost2010Prop51ColorRGB
 90
-16777216
102
RTVSPost2010PropOp51
 70
     0
102
RTVSPost2010Prop52
140
1.0
102
RTVSPost2010PropOp52
 70
     0
102
RTVSPost2010Prop53
 90
        2
102
RTVSPost2010PropOp53
 70
     1
102
RTVSPost2010Prop54
  1
strokes_ogs.tif
102
RTVSPost2010PropOp54
 70
     1
102
RTVSPost2010Prop55
280
     0
102
RTVSPost2010PropOp55
 70
     1
102
RTVSPost2010Prop56
140
1.0
102
RTVSPost2010PropOp56
 70
     1
102
RTVSPost2010Prop57
140
1.0
102
RTVSPost2010PropOp57
 70
     1
102
RTVSPropertyOp0
 70
     1
102
RTVSPropertyOp1
 70
     1
102
RTVSPropertyOp2
 70
     1
102
RTVSPropertyOp3
 70
     1
102
RTVSPropertyOp4
 70
     1
102
RTVSPropertyOp5
 70
     1
102
RTVSPropertyOp6
 70
     1
102
RTVSPropertyOp7
 70
     1
102
RTVSPropertyOp8
 70
     1
102
RTVSPropertyOp9
 70
     1
102
RTVSPropertyOp10
 70
     1
102
RTVSPropertyOp11
 70
     1
102
RTVSPropertyOp12
 70
     1
102
RTVSPropertyOp13
 70
     1
102
RTVSPropertyOp14
 70
     1
102
RTVSPropertyOp15
 70
     1
102
RTVSPropertyOp16
 70
     1
102
RTVSPropertyOp17
 70
     1
102
RTVSPropertyOp18
 70
     1
102
RTVSPropertyOp19
 70
     1
102
RTVSPropertyOp20
 70
     1
102
RTVSPropertyOp21
 70
     1
102
RTVSPropertyOp22
 70
     1
102
RTVSPropertyOp23
 70
     1
102
RTVSPropertyOp24
 70
     1
102
RTVSPropertyOp25
 70
     1
102
RTVSPropertyOp26
 70
     1
102
RTVSPropertyOp27
 70
     1
102
RTVSPropertyOp28
 70
     1
102
RTVSPropertyOp29
 70
     1
102
RTVSPropertyOp30
 70
     1
102
RTVSPropertyOp31
 70
     1
102
RTVSPropertyOp32
 70
     1
102
RTVSPropertyOp33
 70
     1
102
RTVSPropertyOp34
 70
     1
102
RTVSPropertyOp35
 70
     1
102
RTVSPropertyOp36
 70
     1
102
RTVSPropertyOp37
 70
     1
102
RTVSPropertyOp38
 70
     1
102
RTVSPropertyOp39
 70
     1
102
RTVSPropertyOp40
 70
     1
102
RTVSPropertyOp41
 70
     1
102
RTVSPropertyOp42
 70
     1
102
RTVSPropertyOp43
 70
     1
102
RTVSPropertyOp44
 70
     1
102
RTVSPropertyOp45
 70
     1
102
RTVSPropertyOp46
 70
     1
102
RTVSPropertyOp47
 70
     1
102
RTVSPropertyOp48
 70
     1
102
RTVSPropertyOp49
 70
     1
102
RTVSPropertyOp50
 70
     1
102
RTVSPropertyOp51
 70
     0
102
RTVSPropertyOp52
 70
     0
102
RTVSPropertyOp53
 70
     1
102
RTVSPropertyOp54
 70
     1
102
RTVSPropertyOp55
 70
     1
102
RTVSPropertyOp56
 70
     1
102
RTVSPropertyOp57
 70
     1
102
RTVSPropertyOp58
 70
     1
102
RTVSPropertyOp59
 70
     1
102
RTVSPropertyOp60
 70
     1
102
RTVSPropertyOp61
 70
     1
102
RTVSPropertyOp62
 70
     1
  0
XRECORD
  5
35EB
102
{ACAD_REACTORS
330
35EA
102
}
330
35EA
100
AcDbXrecord
280
     1
102
RTVSPost2010Prop28
280
     0
102
RTVSPost2010PropOp28
 70
     1
102
RTVSPost2010Prop29
280
     1
102
RTVSPost2010PropOp29
 70
     1
102
RTVSPost2010Prop30
280
     1
102
RTVSPost2010PropOp30
 70
     1
102
RTVSPost2010Prop31
280
     0
102
RTVSPost2010PropOp31
 70
     1
102
RTVSPost2010Prop32
280
     0
102
RTVSPost2010PropOp32
 70
     1
102
RTVSPost2010Prop33
280
     0
102
RTVSPost2010PropOp33
 70
     1
102
RTVSPost2010Prop34
280
     0
102
RTVSPost2010PropOp34
 70
     1
102
RTVSPost2010Prop35
280
     0
102
RTVSPost2010PropOp35
 70
     1
102
RTVSPost2010Prop36
280
     0
102
RTVSPost2010PropOp36
 70
     1
102
RTVSPost2010Prop37
 90
       50
102
RTVSPost2010PropOp37
 70
     1
102
RTVSPost2010Prop38
140
0.0
102
RTVSPost2010PropOp38
 70
     1
102
RTVSPost2010Prop39
140
1.0
102
RTVSPost2010PropOp39
 70
     1
102
RTVSPost2010Prop40
 90
        0
102
RTVSPost2010PropOp40
 70
     1
102
RTVSPost2010Prop41ColorIndex
 90
       18
102
RTVSPost2010Prop41ColorRGB
 90
        0
102
RTVSPost2010PropOp41
 70
     1
102
RTVSPost2010Prop42
 90
       50
102
RTVSPost2010PropOp42
 70
     1
102
RTVSPost2010Prop43
 90
        3
102
RTVSPost2010PropOp43
 70
     1
102
RTVSPost2010Prop44ColorIndex
 90
        5
102
RTVSPost2010Prop44ColorRGB
 90
      255
102
RTVSPost2010PropOp44
 70
     1
102
RTVSPost2010Prop45
280
     0
102
RTVSPost2010PropOp45
 70
     1
102
RTVSPost2010Prop46
 90
       50
102
RTVSPost2010PropOp46
 70
     1
102
RTVSPost2010Prop47
 90
       50
102
RTVSPost2010PropOp47
 70
     1
102
RTVSPost2010Prop48
 90
       50
102
RTVSPost2010PropOp48
 70
     1
102
RTVSPost2010Prop49
280
     0
102
RTVSPost2010PropOp49
 70
     1
102
RTVSPost2010Prop50
 90
       50
102
RTVSPost2010PropOp50
 70
     1
102
RTVSPost2010Prop51ColorIndex
 90
      256
102
RTVSPost2010Prop51ColorRGB
 90
-16777216
102
RTVSPost2010PropOp51
 70
     0
102
RTVSPost2010Prop52
140
1.0
102
RTVSPost2010PropOp52
 70
     0
102
RTVSPost2010Prop53
 90
        2
102
RTVSPost2010PropOp53
 70
     1
102
RTVSPost2010Prop54
  1
strokes_ogs.tif
102
RTVSPost2010PropOp54
 70
     1
102
RTVSPost2010Prop55
280
     0
102
RTVSPost2010PropOp55
 70
     1
102
RTVSPost2010Prop56
140
1.0
102
RTVSPost2010PropOp56
 70
     1
102
RTVSPost2010Prop57
140
1.0
102
RTVSPost2010PropOp57
 70
     1
102
RTVSPropertyOp0
 70
     1
102
RTVSPropertyOp1
 70
     1
102
RTVSPropertyOp2
 70
     1
102
RTVSPropertyOp3
 70
     1
102
RTVSPropertyOp4
 70
     1
102
RTVSPropertyOp5
 70
     1
102
RTVSPropertyOp6
 70
     1
102
RTVSPropertyOp7
 70
     1
102
RTVSPropertyOp8
 70
     1
102
RTVSPropertyOp9
 70
     1
102
RTVSPropertyOp10
 70
     1
102
RTVSPropertyOp11
 70
     1
102
RTVSPropertyOp12
 70
     1
102
RTVSPropertyOp13
 70
     1
102
RTVSPropertyOp14
 70
     1
102
RTVSPropertyOp15
 70
     1
102
RTVSPropertyOp16
 70
     1
102
RTVSPropertyOp17
 70
     1
102
RTVSPropertyOp18
 70
     1
102
RTVSPropertyOp19
 70
     1
102
RTVSPropertyOp20
 70
     1
102
RTVSPropertyOp21
 70
     1
102
RTVSPropertyOp22
 70
     1
102
RTVSPropertyOp23
 70
     1
102
RTVSPropertyOp24
 70
     1
102
RTVSPropertyOp25
 70
     1
102
RTVSPropertyOp26
 70
     1
102
RTVSPropertyOp27
 70
     1
102
RTVSPropertyOp28
 70
     1
102
RTVSPropertyOp29
 70
     1
102
RTVSPropertyOp30
 70
     1
102
RTVSPropertyOp31
 70
     1
102
RTVSPropertyOp32
 70
     1
102
RTVSPropertyOp33
 70
     1
102
RTVSPropertyOp34
 70
     1
102
RTVSPropertyOp35
 70
     1
102
RTVSPropertyOp36
 70
     1
102
RTVSPropertyOp37
 70
     1
102
RTVSPropertyOp38
 70
     1
102
RTVSPropertyOp39
 70
     1
102
RTVSPropertyOp40
 70
     1
102
RTVSPropertyOp41
 70
     1
102
RTVSPropertyOp42
 70
     1
102
RTVSPropertyOp43
 70
     1
102
RTVSPropertyOp44
 70
     1
102
RTVSPropertyOp45
 70
     1
102
RTVSPropertyOp46
 70
     1
102
RTVSPropertyOp47
 70
     1
102
RTVSPropertyOp48
 70
     1
102
RTVSPropertyOp49
 70
     1
102
RTVSPropertyOp50
 70
     1
102
RTVSPropertyOp51
 70
     0
102
RTVSPropertyOp52
 70
     0
102
RTVSPropertyOp53
 70
     1
102
RTVSPropertyOp54
 70
     1
102
RTVSPropertyOp55
 70
     1
102
RTVSPropertyOp56
 70
     1
102
RTVSPropertyOp57
 70
     1
102
RTVSPropertyOp58
 70
     1
102
RTVSPropertyOp59
 70
     1
102
RTVSPropertyOp60
 70
     1
102
RTVSPropertyOp61
 70
     1
102
RTVSPropertyOp62
 70
     1
  0
XRECORD
  5
3607
102
{ACAD_REACTORS
330
3606
102
}
330
3606
100
AcDbXrecord
280
     1
102
RTVSPost2010Prop28
280
     0
102
RTVSPost2010PropOp28
 70
     1
102
RTVSPost2010Prop29
280
     1
102
RTVSPost2010PropOp29
 70
     1
102
RTVSPost2010Prop30
280
     1
102
RTVSPost2010PropOp30
 70
     1
102
RTVSPost2010Prop31
280
     0
102
RTVSPost2010PropOp31
 70
     1
102
RTVSPost2010Prop32
280
     0
102
RTVSPost2010PropOp32
 70
     1
102
RTVSPost2010Prop33
280
     0
102
RTVSPost2010PropOp33
 70
     1
102
RTVSPost2010Prop34
280
     0
102
RTVSPost2010PropOp34
 70
     1
102
RTVSPost2010Prop35
280
     0
102
RTVSPost2010PropOp35
 70
     1
102
RTVSPost2010Prop36
280
     0
102
RTVSPost2010PropOp36
 70
     1
102
RTVSPost2010Prop37
 90
       50
102
RTVSPost2010PropOp37
 70
     0
102
RTVSPost2010Prop38
140
0.0
102
RTVSPost2010PropOp38
 70
     0
102
RTVSPost2010Prop39
140
1.0
102
RTVSPost2010PropOp39
 70
     0
102
RTVSPost2010Prop40
 90
        0
102
RTVSPost2010PropOp40
 70
     0
102
RTVSPost2010Prop41ColorIndex
 90
       18
102
RTVSPost2010Prop41ColorRGB
 90
        0
102
RTVSPost2010PropOp41
 70
     0
102
RTVSPost2010Prop42
 90
       50
102
RTVSPost2010PropOp42
 70
     0
102
RTVSPost2010Prop43
 90
        3
102
RTVSPost2010PropOp43
 70
     0
102
RTVSPost2010Prop44ColorIndex
 90
        5
102
RTVSPost2010Prop44ColorRGB
 90
      255
102
RTVSPost2010PropOp44
 70
     0
102
RTVSPost2010Prop45
280
     0
102
RTVSPost2010PropOp45
 70
     1
102
RTVSPost2010Prop46
 90
       50
102
RTVSPost2010PropOp46
 70
     0
102
RTVSPost2010Prop47
 90
       50
102
RTVSPost2010PropOp47
 70
     0
102
RTVSPost2010Prop48
 90
       50
102
RTVSPost2010PropOp48
 70
     0
102
RTVSPost2010Prop49
280
     0
102
RTVSPost2010PropOp49
 70
     1
102
RTVSPost2010Prop50
 90
       50
102
RTVSPost2010PropOp50
 70
     0
102
RTVSPost2010Prop51ColorIndex
 90
      256
102
RTVSPost2010Prop51ColorRGB
 90
-16777216
102
RTVSPost2010PropOp51
 70
     0
102
RTVSPost2010Prop52
140
1.0
102
RTVSPost2010PropOp52
 70
     0
102
RTVSPost2010Prop53
 90
        2
102
RTVSPost2010PropOp53
 70
     0
102
RTVSPost2010Prop54
  1
strokes_ogs.tif
102
RTVSPost2010PropOp54
 70
     0
102
RTVSPost2010Prop55
280
     0
102
RTVSPost2010PropOp55
 70
     1
102
RTVSPost2010Prop56
140
1.0
102
RTVSPost2010PropOp56
 70
     0
102
RTVSPost2010Prop57
140
1.0
102
RTVSPost2010PropOp57
 70
     0
102
RTVSPropertyOp0
 70
     0
102
RTVSPropertyOp1
 70
     0
102
RTVSPropertyOp2
 70
     0
102
RTVSPropertyOp3
 70
     0
102
RTVSPropertyOp4
 70
     0
102
RTVSPropertyOp5
 70
     0
102
RTVSPropertyOp6
 70
     0
102
RTVSPropertyOp7
 70
     0
102
RTVSPropertyOp8
 70
     0
102
RTVSPropertyOp9
 70
     0
102
RTVSPropertyOp10
 70
     0
102
RTVSPropertyOp11
 70
     0
102
RTVSPropertyOp12
 70
     0
102
RTVSPropertyOp13
 70
     0
102
RTVSPropertyOp14
 70
     2
102
RTVSPropertyOp15
 70
     0
102
RTVSPropertyOp16
 70
     0
102
RTVSPropertyOp17
 70
     0
102
RTVSPropertyOp18
 70
     0
102
RTVSPropertyOp19
 70
     0
102
RTVSPropertyOp20
 70
     0
102
RTVSPropertyOp21
 70
     0
102
RTVSPropertyOp22
 70
     0
102
RTVSPropertyOp23
 70
     0
102
RTVSPropertyOp24
 70
     0
102
RTVSPropertyOp25
 70
     0
102
RTVSPropertyOp26
 70
     0
102
RTVSPropertyOp27
 70
     0
102
RTVSPropertyOp28
 70
     1
102
RTVSPropertyOp29
 70
     1
102
RTVSPropertyOp30
 70
     1
102
RTVSPropertyOp31
 70
     1
102
RTVSPropertyOp32
 70
     1
102
RTVSPropertyOp33
 70
     1
102
RTVSPropertyOp34
 70
     1
102
RTVSPropertyOp35
 70
     1
102
RTVSPropertyOp36
 70
     1
102
RTVSPropertyOp37
 70
     0
102
RTVSPropertyOp38
 70
     0
102
RTVSPropertyOp39
 70
     0
102
RTVSPropertyOp40
 70
     0
102
RTVSPropertyOp41
 70
     0
102
RTVSPropertyOp42
 70
     0
102
RTVSPropertyOp43
 70
     0
102
RTVSPropertyOp44
 70
     0
102
RTVSPropertyOp45
 70
     1
102
RTVSPropertyOp46
 70
     0
102
RTVSPropertyOp47
 70
     0
102
RTVSPropertyOp48
 70
     0
102
RTVSPropertyOp49
 70
     1
102
RTVSPropertyOp50
 70
     0
102
RTVSPropertyOp51
 70
     0
102
RTVSPropertyOp52
 70
     0
102
RTVSPropertyOp53
 70
     0
102
RTVSPropertyOp54
 70
     0
102
RTVSPropertyOp55
 70
     1
102
RTVSPropertyOp56
 70
     0
102
RTVSPropertyOp57
 70
     0
102
RTVSPropertyOp58
 70
     0
102
RTVSPropertyOp59
 70
     0
102
RTVSPropertyOp60
 70
     0
102
RTVSPropertyOp61
 70
     0
102
RTVSPropertyOp62
 70
     0
  0
XRECORD
  5
35F7
102
{ACAD_REACTORS
330
35F6
102
}
330
35F6
100
AcDbXrecord
280
     1
102
RTVSPost2010Prop28
280
     0
102
RTVSPost2010PropOp28
 70
     1
102
RTVSPost2010Prop29
280
     1
102
RTVSPost2010PropOp29
 70
     1
102
RTVSPost2010Prop30
280
     1
102
RTVSPost2010PropOp30
 70
     1
102
RTVSPost2010Prop31
280
     0
102
RTVSPost2010PropOp31
 70
     1
102
RTVSPost2010Prop32
280
     0
102
RTVSPost2010PropOp32
 70
     1
102
RTVSPost2010Prop33
280
     0
102
RTVSPost2010PropOp33
 70
     1
102
RTVSPost2010Prop34
280
     0
102
RTVSPost2010PropOp34
 70
     1
102
RTVSPost2010Prop35
280
     0
102
RTVSPost2010PropOp35
 70
     1
102
RTVSPost2010Prop36
280
     0
102
RTVSPost2010PropOp36
 70
     1
102
RTVSPost2010Prop37
 90
       50
102
RTVSPost2010PropOp37
 70
     1
102
RTVSPost2010Prop38
140
0.0
102
RTVSPost2010PropOp38
 70
     1
102
RTVSPost2010Prop39
140
1.0
102
RTVSPost2010PropOp39
 70
     1
102
RTVSPost2010Prop40
 90
        0
102
RTVSPost2010PropOp40
 70
     1
102
RTVSPost2010Prop41ColorIndex
 90
       18
102
RTVSPost2010Prop41ColorRGB
 90
        0
102
RTVSPost2010PropOp41
 70
     1
102
RTVSPost2010Prop42
 90
       50
102
RTVSPost2010PropOp42
 70
     1
102
RTVSPost2010Prop43
 90
        3
102
RTVSPost2010PropOp43
 70
     1
102
RTVSPost2010Prop44ColorIndex
 90
        5
102
RTVSPost2010Prop44ColorRGB
 90
      255
102
RTVSPost2010PropOp44
 70
     1
102
RTVSPost2010Prop45
280
     0
102
RTVSPost2010PropOp45
 70
     1
102
RTVSPost2010Prop46
 90
       50
102
RTVSPost2010PropOp46
 70
     1
102
RTVSPost2010Prop47
 90
       50
102
RTVSPost2010PropOp47
 70
     1
102
RTVSPost2010Prop48
 90
       50
102
RTVSPost2010PropOp48
 70
     1
102
RTVSPost2010Prop49
280
     0
102
RTVSPost2010PropOp49
 70
     1
102
RTVSPost2010Prop50
 90
       50
102
RTVSPost2010PropOp50
 70
     1
102
RTVSPost2010Prop51ColorIndex
 90
      256
102
RTVSPost2010Prop51ColorRGB
 90
-16777216
102
RTVSPost2010PropOp51
 70
     0
102
RTVSPost2010Prop52
140
1.0
102
RTVSPost2010PropOp52
 70
     0
102
RTVSPost2010Prop53
 90
        2
102
RTVSPost2010PropOp53
 70
     1
102
RTVSPost2010Prop54
  1
strokes_ogs.tif
102
RTVSPost2010PropOp54
 70
     1
102
RTVSPost2010Prop55
280
     0
102
RTVSPost2010PropOp55
 70
     1
102
RTVSPost2010Prop56
140
1.0
102
RTVSPost2010PropOp56
 70
     1
102
RTVSPost2010Prop57
140
1.0
102
RTVSPost2010PropOp57
 70
     1
102
RTVSPropertyOp0
 70
     1
102
RTVSPropertyOp1
 70
     1
102
RTVSPropertyOp2
 70
     1
102
RTVSPropertyOp3
 70
     1
102
RTVSPropertyOp4
 70
     1
102
RTVSPropertyOp5
 70
     1
102
RTVSPropertyOp6
 70
     1
102
RTVSPropertyOp7
 70
     1
102
RTVSPropertyOp8
 70
     1
102
RTVSPropertyOp9
 70
     1
102
RTVSPropertyOp10
 70
     1
102
RTVSPropertyOp11
 70
     1
102
RTVSPropertyOp12
 70
     1
102
RTVSPropertyOp13
 70
     1
102
RTVSPropertyOp14
 70
     1
102
RTVSPropertyOp15
 70
     1
102
RTVSPropertyOp16
 70
     1
102
RTVSPropertyOp17
 70
     1
102
RTVSPropertyOp18
 70
     1
102
RTVSPropertyOp19
 70
     1
102
RTVSPropertyOp20
 70
     1
102
RTVSPropertyOp21
 70
     1
102
RTVSPropertyOp22
 70
     1
102
RTVSPropertyOp23
 70
     1
102
RTVSPropertyOp24
 70
     1
102
RTVSPropertyOp25
 70
     1
102
RTVSPropertyOp26
 70
     1
102
RTVSPropertyOp27
 70
     1
102
RTVSPropertyOp28
 70
     1
102
RTVSPropertyOp29
 70
     1
102
RTVSPropertyOp30
 70
     1
102
RTVSPropertyOp31
 70
     1
102
RTVSPropertyOp32
 70
     1
102
RTVSPropertyOp33
 70
     1
102
RTVSPropertyOp34
 70
     1
102
RTVSPropertyOp35
 70
     1
102
RTVSPropertyOp36
 70
     1
102
RTVSPropertyOp37
 70
     1
102
RTVSPropertyOp38
 70
     1
102
RTVSPropertyOp39
 70
     1
102
RTVSPropertyOp40
 70
     1
102
RTVSPropertyOp41
 70
     1
102
RTVSPropertyOp42
 70
     1
102
RTVSPropertyOp43
 70
     1
102
RTVSPropertyOp44
 70
     1
102
RTVSPropertyOp45
 70
     1
102
RTVSPropertyOp46
 70
     1
102
RTVSPropertyOp47
 70
     1
102
RTVSPropertyOp48
 70
     1
102
RTVSPropertyOp49
 70
     1
102
RTVSPropertyOp50
 70
     1
102
RTVSPropertyOp51
 70
     0
102
RTVSPropertyOp52
 70
     0
102
RTVSPropertyOp53
 70
     1
102
RTVSPropertyOp54
 70
     1
102
RTVSPropertyOp55
 70
     1
102
RTVSPropertyOp56
 70
     1
102
RTVSPropertyOp57
 70
     1
102
RTVSPropertyOp58
 70
     1
102
RTVSPropertyOp59
 70
     1
102
RTVSPropertyOp60
 70
     1
102
RTVSPropertyOp61
 70
     1
102
RTVSPropertyOp62
 70
     1
  0
XRECORD
  5
3609
102
{ACAD_REACTORS
330
3608
102
}
330
3608
100
AcDbXrecord
280
     1
102
RTVSPost2010Prop28
280
     0
102
RTVSPost2010PropOp28
 70
     1
102
RTVSPost2010Prop29
280
     1
102
RTVSPost2010PropOp29
 70
     1
102
RTVSPost2010Prop30
280
     1
102
RTVSPost2010PropOp30
 70
     1
102
RTVSPost2010Prop31
280
     0
102
RTVSPost2010PropOp31
 70
     1
102
RTVSPost2010Prop32
280
     0
102
RTVSPost2010PropOp32
 70
     1
102
RTVSPost2010Prop33
280
     0
102
RTVSPost2010PropOp33
 70
     1
102
RTVSPost2010Prop34
280
     0
102
RTVSPost2010PropOp34
 70
     1
102
RTVSPost2010Prop35
280
     0
102
RTVSPost2010PropOp35
 70
     1
102
RTVSPost2010Prop36
280
     0
102
RTVSPost2010PropOp36
 70
     1
102
RTVSPost2010Prop37
 90
       50
102
RTVSPost2010PropOp37
 70
     0
102
RTVSPost2010Prop38
140
0.0
102
RTVSPost2010PropOp38
 70
     0
102
RTVSPost2010Prop39
140
1.0
102
RTVSPost2010PropOp39
 70
     0
102
RTVSPost2010Prop40
 90
        0
102
RTVSPost2010PropOp40
 70
     0
102
RTVSPost2010Prop41ColorIndex
 90
       18
102
RTVSPost2010Prop41ColorRGB
 90
        0
102
RTVSPost2010PropOp41
 70
     0
102
RTVSPost2010Prop42
 90
       50
102
RTVSPost2010PropOp42
 70
     0
102
RTVSPost2010Prop43
 90
        3
102
RTVSPost2010PropOp43
 70
     0
102
RTVSPost2010Prop44ColorIndex
 90
        5
102
RTVSPost2010Prop44ColorRGB
 90
      255
102
RTVSPost2010PropOp44
 70
     0
102
RTVSPost2010Prop45
280
     0
102
RTVSPost2010PropOp45
 70
     1
102
RTVSPost2010Prop46
 90
       50
102
RTVSPost2010PropOp46
 70
     0
102
RTVSPost2010Prop47
 90
       50
102
RTVSPost2010PropOp47
 70
     0
102
RTVSPost2010Prop48
 90
       50
102
RTVSPost2010PropOp48
 70
     0
102
RTVSPost2010Prop49
280
     0
102
RTVSPost2010PropOp49
 70
     1
102
RTVSPost2010Prop50
 90
       50
102
RTVSPost2010PropOp50
 70
     0
102
RTVSPost2010Prop51ColorIndex
 90
      256
102
RTVSPost2010Prop51ColorRGB
 90
-16777216
102
RTVSPost2010PropOp51
 70
     0
102
RTVSPost2010Prop52
140
1.0
102
RTVSPost2010PropOp52
 70
     0
102
RTVSPost2010Prop53
 90
        2
102
RTVSPost2010PropOp53
 70
     0
102
RTVSPost2010Prop54
  1
strokes_ogs.tif
102
RTVSPost2010PropOp54
 70
     0
102
RTVSPost2010Prop55
280
     0
102
RTVSPost2010PropOp55
 70
     1
102
RTVSPost2010Prop56
140
1.0
102
RTVSPost2010PropOp56
 70
     0
102
RTVSPost2010Prop57
140
1.0
102
RTVSPost2010PropOp57
 70
     0
102
RTVSPropertyOp0
 70
     0
102
RTVSPropertyOp1
 70
     0
102
RTVSPropertyOp2
 70
     0
102
RTVSPropertyOp3
 70
     0
102
RTVSPropertyOp4
 70
     0
102
RTVSPropertyOp5
 70
     0
102
RTVSPropertyOp6
 70
     0
102
RTVSPropertyOp7
 70
     0
102
RTVSPropertyOp8
 70
     0
102
RTVSPropertyOp9
 70
     0
102
RTVSPropertyOp10
 70
     0
102
RTVSPropertyOp11
 70
     0
102
RTVSPropertyOp12
 70
     0
102
RTVSPropertyOp13
 70
     0
102
RTVSPropertyOp14
 70
     2
102
RTVSPropertyOp15
 70
     0
102
RTVSPropertyOp16
 70
     0
102
RTVSPropertyOp17
 70
     0
102
RTVSPropertyOp18
 70
     0
102
RTVSPropertyOp19
 70
     0
102
RTVSPropertyOp20
 70
     0
102
RTVSPropertyOp21
 70
     0
102
RTVSPropertyOp22
 70
     0
102
RTVSPropertyOp23
 70
     0
102
RTVSPropertyOp24
 70
     0
102
RTVSPropertyOp25
 70
     0
102
RTVSPropertyOp26
 70
     0
102
RTVSPropertyOp27
 70
     0
102
RTVSPropertyOp28
 70
     1
102
RTVSPropertyOp29
 70
     1
102
RTVSPropertyOp30
 70
     1
102
RTVSPropertyOp31
 70
     1
102
RTVSPropertyOp32
 70
     1
102
RTVSPropertyOp33
 70
     1
102
RTVSPropertyOp34
 70
     1
102
RTVSPropertyOp35
 70
     1
102
RTVSPropertyOp36
 70
     1
102
RTVSPropertyOp37
 70
     0
102
RTVSPropertyOp38
 70
     0
102
RTVSPropertyOp39
 70
     0
102
RTVSPropertyOp40
 70
     0
102
RTVSPropertyOp41
 70
     0
102
RTVSPropertyOp42
 70
     0
102
RTVSPropertyOp43
 70
     0
102
RTVSPropertyOp44
 70
     0
102
RTVSPropertyOp45
 70
     1
102
RTVSPropertyOp46
 70
     0
102
RTVSPropertyOp47
 70
     0
102
RTVSPropertyOp48
 70
     0
102
RTVSPropertyOp49
 70
     1
102
RTVSPropertyOp50
 70
     0
102
RTVSPropertyOp51
 70
     0
102
RTVSPropertyOp52
 70
     0
102
RTVSPropertyOp53
 70
     0
102
RTVSPropertyOp54
 70
     0
102
RTVSPropertyOp55
 70
     1
102
RTVSPropertyOp56
 70
     0
102
RTVSPropertyOp57
 70
     0
102
RTVSPropertyOp58
 70
     0
102
RTVSPropertyOp59
 70
     0
102
RTVSPropertyOp60
 70
     0
102
RTVSPropertyOp61
 70
     0
102
RTVSPropertyOp62
 70
     0
  0
XRECORD
  5
35EF
102
{ACAD_REACTORS
330
35EE
102
}
330
35EE
100
AcDbXrecord
280
     1
102
RTVSPost2010Prop28
280
     0
102
RTVSPost2010PropOp28
 70
     1
102
RTVSPost2010Prop29
280
     1
102
RTVSPost2010PropOp29
 70
     1
102
RTVSPost2010Prop30
280
     1
102
RTVSPost2010PropOp30
 70
     1
102
RTVSPost2010Prop31
280
     0
102
RTVSPost2010PropOp31
 70
     1
102
RTVSPost2010Prop32
280
     0
102
RTVSPost2010PropOp32
 70
     1
102
RTVSPost2010Prop33
280
     0
102
RTVSPost2010PropOp33
 70
     1
102
RTVSPost2010Prop34
280
     0
102
RTVSPost2010PropOp34
 70
     1
102
RTVSPost2010Prop35
280
     0
102
RTVSPost2010PropOp35
 70
     1
102
RTVSPost2010Prop36
280
     0
102
RTVSPost2010PropOp36
 70
     1
102
RTVSPost2010Prop37
 90
       50
102
RTVSPost2010PropOp37
 70
     1
102
RTVSPost2010Prop38
140
0.0
102
RTVSPost2010PropOp38
 70
     1
102
RTVSPost2010Prop39
140
1.0
102
RTVSPost2010PropOp39
 70
     1
102
RTVSPost2010Prop40
 90
        0
102
RTVSPost2010PropOp40
 70
     1
102
RTVSPost2010Prop41ColorIndex
 90
       18
102
RTVSPost2010Prop41ColorRGB
 90
        0
102
RTVSPost2010PropOp41
 70
     1
102
RTVSPost2010Prop42
 90
       50
102
RTVSPost2010PropOp42
 70
     1
102
RTVSPost2010Prop43
 90
        3
102
RTVSPost2010PropOp43
 70
     1
102
RTVSPost2010Prop44ColorIndex
 90
        5
102
RTVSPost2010Prop44ColorRGB
 90
      255
102
RTVSPost2010PropOp44
 70
     1
102
RTVSPost2010Prop45
280
     0
102
RTVSPost2010PropOp45
 70
     1
102
RTVSPost2010Prop46
 90
       50
102
RTVSPost2010PropOp46
 70
     1
102
RTVSPost2010Prop47
 90
       50
102
RTVSPost2010PropOp47
 70
     1
102
RTVSPost2010Prop48
 90
       50
102
RTVSPost2010PropOp48
 70
     1
102
RTVSPost2010Prop49
280
     0
102
RTVSPost2010PropOp49
 70
     1
102
RTVSPost2010Prop50
 90
       50
102
RTVSPost2010PropOp50
 70
     1
102
RTVSPost2010Prop51ColorIndex
 90
      256
102
RTVSPost2010Prop51ColorRGB
 90
-16777216
102
RTVSPost2010PropOp51
 70
     0
102
RTVSPost2010Prop52
140
1.0
102
RTVSPost2010PropOp52
 70
     0
102
RTVSPost2010Prop53
 90
        2
102
RTVSPost2010PropOp53
 70
     1
102
RTVSPost2010Prop54
  1
strokes_ogs.tif
102
RTVSPost2010PropOp54
 70
     1
102
RTVSPost2010Prop55
280
     0
102
RTVSPost2010PropOp55
 70
     1
102
RTVSPost2010Prop56
140
1.0
102
RTVSPost2010PropOp56
 70
     1
102
RTVSPost2010Prop57
140
1.0
102
RTVSPost2010PropOp57
 70
     1
102
RTVSPropertyOp0
 70
     1
102
RTVSPropertyOp1
 70
     1
102
RTVSPropertyOp2
 70
     1
102
RTVSPropertyOp3
 70
     1
102
RTVSPropertyOp4
 70
     1
102
RTVSPropertyOp5
 70
     1
102
RTVSPropertyOp6
 70
     1
102
RTVSPropertyOp7
 70
     1
102
RTVSPropertyOp8
 70
     1
102
RTVSPropertyOp9
 70
     1
102
RTVSPropertyOp10
 70
     1
102
RTVSPropertyOp11
 70
     1
102
RTVSPropertyOp12
 70
     1
102
RTVSPropertyOp13
 70
     1
102
RTVSPropertyOp14
 70
     1
102
RTVSPropertyOp15
 70
     1
102
RTVSPropertyOp16
 70
     1
102
RTVSPropertyOp17
 70
     1
102
RTVSPropertyOp18
 70
     1
102
RTVSPropertyOp19
 70
     1
102
RTVSPropertyOp20
 70
     1
102
RTVSPropertyOp21
 70
     1
102
RTVSPropertyOp22
 70
     1
102
RTVSPropertyOp23
 70
     1
102
RTVSPropertyOp24
 70
     1
102
RTVSPropertyOp25
 70
     1
102
RTVSPropertyOp26
 70
     1
102
RTVSPropertyOp27
 70
     1
102
RTVSPropertyOp28
 70
     1
102
RTVSPropertyOp29
 70
     1
102
RTVSPropertyOp30
 70
     1
102
RTVSPropertyOp31
 70
     1
102
RTVSPropertyOp32
 70
     1
102
RTVSPropertyOp33
 70
     1
102
RTVSPropertyOp34
 70
     1
102
RTVSPropertyOp35
 70
     1
102
RTVSPropertyOp36
 70
     1
102
RTVSPropertyOp37
 70
     1
102
RTVSPropertyOp38
 70
     1
102
RTVSPropertyOp39
 70
     1
102
RTVSPropertyOp40
 70
     1
102
RTVSPropertyOp41
 70
     1
102
RTVSPropertyOp42
 70
     1
102
RTVSPropertyOp43
 70
     1
102
RTVSPropertyOp44
 70
     1
102
RTVSPropertyOp45
 70
     1
102
RTVSPropertyOp46
 70
     1
102
RTVSPropertyOp47
 70
     1
102
RTVSPropertyOp48
 70
     1
102
RTVSPropertyOp49
 70
     1
102
RTVSPropertyOp50
 70
     1
102
RTVSPropertyOp51
 70
     0
102
RTVSPropertyOp52
 70
     0
102
RTVSPropertyOp53
 70
     1
102
RTVSPropertyOp54
 70
     1
102
RTVSPropertyOp55
 70
     1
102
RTVSPropertyOp56
 70
     1
102
RTVSPropertyOp57
 70
     1
102
RTVSPropertyOp58
 70
     1
102
RTVSPropertyOp59
 70
     1
102
RTVSPropertyOp60
 70
     1
102
RTVSPropertyOp61
 70
     1
102
RTVSPropertyOp62
 70
     1
  0
XRECORD
  5
3605
102
{ACAD_REACTORS
330
3604
102
}
330
3604
100
AcDbXrecord
280
     1
102
RTVSPost2010Prop28
280
     0
102
RTVSPost2010PropOp28
 70
     1
102
RTVSPost2010Prop29
280
     1
102
RTVSPost2010PropOp29
 70
     1
102
RTVSPost2010Prop30
280
     1
102
RTVSPost2010PropOp30
 70
     1
102
RTVSPost2010Prop31
280
     0
102
RTVSPost2010PropOp31
 70
     1
102
RTVSPost2010Prop32
280
     0
102
RTVSPost2010PropOp32
 70
     1
102
RTVSPost2010Prop33
280
     0
102
RTVSPost2010PropOp33
 70
     1
102
RTVSPost2010Prop34
280
     0
102
RTVSPost2010PropOp34
 70
     1
102
RTVSPost2010Prop35
280
     0
102
RTVSPost2010PropOp35
 70
     1
102
RTVSPost2010Prop36
280
     0
102
RTVSPost2010PropOp36
 70
     1
102
RTVSPost2010Prop37
 90
       50
102
RTVSPost2010PropOp37
 70
     1
102
RTVSPost2010Prop38
140
0.0
102
RTVSPost2010PropOp38
 70
     1
102
RTVSPost2010Prop39
140
1.0
102
RTVSPost2010PropOp39
 70
     1
102
RTVSPost2010Prop40
 90
        0
102
RTVSPost2010PropOp40
 70
     1
102
RTVSPost2010Prop41ColorIndex
 90
       18
102
RTVSPost2010Prop41ColorRGB
 90
        0
102
RTVSPost2010PropOp41
 70
     1
102
RTVSPost2010Prop42
 90
       50
102
RTVSPost2010PropOp42
 70
     1
102
RTVSPost2010Prop43
 90
        3
102
RTVSPost2010PropOp43
 70
     1
102
RTVSPost2010Prop44ColorIndex
 90
        5
102
RTVSPost2010Prop44ColorRGB
 90
      255
102
RTVSPost2010PropOp44
 70
     1
102
RTVSPost2010Prop45
280
     0
102
RTVSPost2010PropOp45
 70
     1
102
RTVSPost2010Prop46
 90
       50
102
RTVSPost2010PropOp46
 70
     1
102
RTVSPost2010Prop47
 90
       50
102
RTVSPost2010PropOp47
 70
     1
102
RTVSPost2010Prop48
 90
       50
102
RTVSPost2010PropOp48
 70
     1
102
RTVSPost2010Prop49
280
     0
102
RTVSPost2010PropOp49
 70
     1
102
RTVSPost2010Prop50
 90
       50
102
RTVSPost2010PropOp50
 70
     1
102
RTVSPost2010Prop51ColorIndex
 90
      256
102
RTVSPost2010Prop51ColorRGB
 90
-16777216
102
RTVSPost2010PropOp51
 70
     0
102
RTVSPost2010Prop52
140
1.0
102
RTVSPost2010PropOp52
 70
     0
102
RTVSPost2010Prop53
 90
        2
102
RTVSPost2010PropOp53
 70
     1
102
RTVSPost2010Prop54
  1
strokes_ogs.tif
102
RTVSPost2010PropOp54
 70
     1
102
RTVSPost2010Prop55
280
     0
102
RTVSPost2010PropOp55
 70
     1
102
RTVSPost2010Prop56
140
1.0
102
RTVSPost2010PropOp56
 70
     1
102
RTVSPost2010Prop57
140
1.0
102
RTVSPost2010PropOp57
 70
     1
102
RTVSPropertyOp0
 70
     1
102
RTVSPropertyOp1
 70
     1
102
RTVSPropertyOp2
 70
     1
102
RTVSPropertyOp3
 70
     1
102
RTVSPropertyOp4
 70
     1
102
RTVSPropertyOp5
 70
     1
102
RTVSPropertyOp6
 70
     1
102
RTVSPropertyOp7
 70
     1
102
RTVSPropertyOp8
 70
     1
102
RTVSPropertyOp9
 70
     1
102
RTVSPropertyOp10
 70
     1
102
RTVSPropertyOp11
 70
     1
102
RTVSPropertyOp12
 70
     1
102
RTVSPropertyOp13
 70
     1
102
RTVSPropertyOp14
 70
     1
102
RTVSPropertyOp15
 70
     1
102
RTVSPropertyOp16
 70
     1
102
RTVSPropertyOp17
 70
     1
102
RTVSPropertyOp18
 70
     1
102
RTVSPropertyOp19
 70
     1
102
RTVSPropertyOp20
 70
     1
102
RTVSPropertyOp21
 70
     1
102
RTVSPropertyOp22
 70
     1
102
RTVSPropertyOp23
 70
     1
102
RTVSPropertyOp24
 70
     1
102
RTVSPropertyOp25
 70
     1
102
RTVSPropertyOp26
 70
     1
102
RTVSPropertyOp27
 70
     1
102
RTVSPropertyOp28
 70
     1
102
RTVSPropertyOp29
 70
     1
102
RTVSPropertyOp30
 70
     1
102
RTVSPropertyOp31
 70
     1
102
RTVSPropertyOp32
 70
     1
102
RTVSPropertyOp33
 70
     1
102
RTVSPropertyOp34
 70
     1
102
RTVSPropertyOp35
 70
     1
102
RTVSPropertyOp36
 70
     1
102
RTVSPropertyOp37
 70
     1
102
RTVSPropertyOp38
 70
     1
102
RTVSPropertyOp39
 70
     1
102
RTVSPropertyOp40
 70
     1
102
RTVSPropertyOp41
 70
     1
102
RTVSPropertyOp42
 70
     1
102
RTVSPropertyOp43
 70
     1
102
RTVSPropertyOp44
 70
     1
102
RTVSPropertyOp45
 70
     1
102
RTVSPropertyOp46
 70
     1
102
RTVSPropertyOp47
 70
     1
102
RTVSPropertyOp48
 70
     1
102
RTVSPropertyOp49
 70
     1
102
RTVSPropertyOp50
 70
     1
102
RTVSPropertyOp51
 70
     0
102
RTVSPropertyOp52
 70
     0
102
RTVSPropertyOp53
 70
     1
102
RTVSPropertyOp54
 70
     1
102
RTVSPropertyOp55
 70
     1
102
RTVSPropertyOp56
 70
     1
102
RTVSPropertyOp57
 70
     1
102
RTVSPropertyOp58
 70
     1
102
RTVSPropertyOp59
 70
     1
102
RTVSPropertyOp60
 70
     1
102
RTVSPropertyOp61
 70
     1
102
RTVSPropertyOp62
 70
     1
  0
XRECORD
  5
3603
102
{ACAD_REACTORS
330
3602
102
}
330
3602
100
AcDbXrecord
280
     1
102
RTVSPost2010Prop28
280
     0
102
RTVSPost2010PropOp28
 70
     1
102
RTVSPost2010Prop29
280
     1
102
RTVSPost2010PropOp29
 70
     1
102
RTVSPost2010Prop30
280
     1
102
RTVSPost2010PropOp30
 70
     1
102
RTVSPost2010Prop31
280
     0
102
RTVSPost2010PropOp31
 70
     1
102
RTVSPost2010Prop32
280
     0
102
RTVSPost2010PropOp32
 70
     1
102
RTVSPost2010Prop33
280
     0
102
RTVSPost2010PropOp33
 70
     1
102
RTVSPost2010Prop34
280
     0
102
RTVSPost2010PropOp34
 70
     1
102
RTVSPost2010Prop35
280
     0
102
RTVSPost2010PropOp35
 70
     1
102
RTVSPost2010Prop36
280
     0
102
RTVSPost2010PropOp36
 70
     1
102
RTVSPost2010Prop37
 90
       50
102
RTVSPost2010PropOp37
 70
     1
102
RTVSPost2010Prop38
140
0.0
102
RTVSPost2010PropOp38
 70
     1
102
RTVSPost2010Prop39
140
1.0
102
RTVSPost2010PropOp39
 70
     1
102
RTVSPost2010Prop40
 90
        0
102
RTVSPost2010PropOp40
 70
     1
102
RTVSPost2010Prop41ColorIndex
 90
       18
102
RTVSPost2010Prop41ColorRGB
 90
        0
102
RTVSPost2010PropOp41
 70
     1
102
RTVSPost2010Prop42
 90
       50
102
RTVSPost2010PropOp42
 70
     1
102
RTVSPost2010Prop43
 90
        3
102
RTVSPost2010PropOp43
 70
     1
102
RTVSPost2010Prop44ColorIndex
 90
        5
102
RTVSPost2010Prop44ColorRGB
 90
      255
102
RTVSPost2010PropOp44
 70
     1
102
RTVSPost2010Prop45
280
     0
102
RTVSPost2010PropOp45
 70
     1
102
RTVSPost2010Prop46
 90
       50
102
RTVSPost2010PropOp46
 70
     1
102
RTVSPost2010Prop47
 90
       50
102
RTVSPost2010PropOp47
 70
     1
102
RTVSPost2010Prop48
 90
       50
102
RTVSPost2010PropOp48
 70
     1
102
RTVSPost2010Prop49
280
     0
102
RTVSPost2010PropOp49
 70
     1
102
RTVSPost2010Prop50
 90
       50
102
RTVSPost2010PropOp50
 70
     1
102
RTVSPost2010Prop51ColorIndex
 90
      256
102
RTVSPost2010Prop51ColorRGB
 90
-16777216
102
RTVSPost2010PropOp51
 70
     0
102
RTVSPost2010Prop52
140
1.0
102
RTVSPost2010PropOp52
 70
     0
102
RTVSPost2010Prop53
 90
        2
102
RTVSPost2010PropOp53
 70
     1
102
RTVSPost2010Prop54
  1
strokes_ogs.tif
102
RTVSPost2010PropOp54
 70
     1
102
RTVSPost2010Prop55
280
     0
102
RTVSPost2010PropOp55
 70
     1
102
RTVSPost2010Prop56
140
1.0
102
RTVSPost2010PropOp56
 70
     1
102
RTVSPost2010Prop57
140
1.0
102
RTVSPost2010PropOp57
 70
     1
102
RTVSPropertyOp0
 70
     1
102
RTVSPropertyOp1
 70
     1
102
RTVSPropertyOp2
 70
     1
102
RTVSPropertyOp3
 70
     1
102
RTVSPropertyOp4
 70
     1
102
RTVSPropertyOp5
 70
     1
102
RTVSPropertyOp6
 70
     1
102
RTVSPropertyOp7
 70
     1
102
RTVSPropertyOp8
 70
     1
102
RTVSPropertyOp9
 70
     1
102
RTVSPropertyOp10
 70
     1
102
RTVSPropertyOp11
 70
     1
102
RTVSPropertyOp12
 70
     1
102
RTVSPropertyOp13
 70
     1
102
RTVSPropertyOp14
 70
     1
102
RTVSPropertyOp15
 70
     1
102
RTVSPropertyOp16
 70
     1
102
RTVSPropertyOp17
 70
     1
102
RTVSPropertyOp18
 70
     1
102
RTVSPropertyOp19
 70
     1
102
RTVSPropertyOp20
 70
     1
102
RTVSPropertyOp21
 70
     1
102
RTVSPropertyOp22
 70
     1
102
RTVSPropertyOp23
 70
     1
102
RTVSPropertyOp24
 70
     1
102
RTVSPropertyOp25
 70
     1
102
RTVSPropertyOp26
 70
     1
102
RTVSPropertyOp27
 70
     1
102
RTVSPropertyOp28
 70
     1
102
RTVSPropertyOp29
 70
     1
102
RTVSPropertyOp30
 70
     1
102
RTVSPropertyOp31
 70
     1
102
RTVSPropertyOp32
 70
     1
102
RTVSPropertyOp33
 70
     1
102
RTVSPropertyOp34
 70
     1
102
RTVSPropertyOp35
 70
     1
102
RTVSPropertyOp36
 70
     1
102
RTVSPropertyOp37
 70
     1
102
RTVSPropertyOp38
 70
     1
102
RTVSPropertyOp39
 70
     1
102
RTVSPropertyOp40
 70
     1
102
RTVSPropertyOp41
 70
     1
102
RTVSPropertyOp42
 70
     1
102
RTVSPropertyOp43
 70
     1
102
RTVSPropertyOp44
 70
     1
102
RTVSPropertyOp45
 70
     1
102
RTVSPropertyOp46
 70
     1
102
RTVSPropertyOp47
 70
     1
102
RTVSPropertyOp48
 70
     1
102
RTVSPropertyOp49
 70
     1
102
RTVSPropertyOp50
 70
     1
102
RTVSPropertyOp51
 70
     0
102
RTVSPropertyOp52
 70
     0
102
RTVSPropertyOp53
 70
     1
102
RTVSPropertyOp54
 70
     1
102
RTVSPropertyOp55
 70
     1
102
RTVSPropertyOp56
 70
     1
102
RTVSPropertyOp57
 70
     1
102
RTVSPropertyOp58
 70
     1
102
RTVSPropertyOp59
 70
     1
102
RTVSPropertyOp60
 70
     1
102
RTVSPropertyOp61
 70
     1
102
RTVSPropertyOp62
 70
     1
  0
XRECORD
  5
35FD
102
{ACAD_REACTORS
330
35FC
102
}
330
35FC
100
AcDbXrecord
280
     1
102
RTVSPost2010Prop28
280
     0
102
RTVSPost2010PropOp28
 70
     1
102
RTVSPost2010Prop29
280
     1
102
RTVSPost2010PropOp29
 70
     1
102
RTVSPost2010Prop30
280
     1
102
RTVSPost2010PropOp30
 70
     1
102
RTVSPost2010Prop31
280
     0
102
RTVSPost2010PropOp31
 70
     1
102
RTVSPost2010Prop32
280
     0
102
RTVSPost2010PropOp32
 70
     1
102
RTVSPost2010Prop33
280
     0
102
RTVSPost2010PropOp33
 70
     1
102
RTVSPost2010Prop34
280
     0
102
RTVSPost2010PropOp34
 70
     1
102
RTVSPost2010Prop35
280
     0
102
RTVSPost2010PropOp35
 70
     1
102
RTVSPost2010Prop36
280
     0
102
RTVSPost2010PropOp36
 70
     1
102
RTVSPost2010Prop37
 90
       50
102
RTVSPost2010PropOp37
 70
     1
102
RTVSPost2010Prop38
140
0.0
102
RTVSPost2010PropOp38
 70
     1
102
RTVSPost2010Prop39
140
1.0
102
RTVSPost2010PropOp39
 70
     1
102
RTVSPost2010Prop40
 90
        0
102
RTVSPost2010PropOp40
 70
     1
102
RTVSPost2010Prop41ColorIndex
 90
       18
102
RTVSPost2010Prop41ColorRGB
 90
        0
102
RTVSPost2010PropOp41
 70
     1
102
RTVSPost2010Prop42
 90
       50
102
RTVSPost2010PropOp42
 70
     1
102
RTVSPost2010Prop43
 90
        3
102
RTVSPost2010PropOp43
 70
     1
102
RTVSPost2010Prop44ColorIndex
 90
        5
102
RTVSPost2010Prop44ColorRGB
 90
      255
102
RTVSPost2010PropOp44
 70
     1
102
RTVSPost2010Prop45
280
     0
102
RTVSPost2010PropOp45
 70
     1
102
RTVSPost2010Prop46
 90
       50
102
RTVSPost2010PropOp46
 70
     1
102
RTVSPost2010Prop47
 90
       50
102
RTVSPost2010PropOp47
 70
     1
102
RTVSPost2010Prop48
 90
       50
102
RTVSPost2010PropOp48
 70
     1
102
RTVSPost2010Prop49
280
     0
102
RTVSPost2010PropOp49
 70
     1
102
RTVSPost2010Prop50
 90
       50
102
RTVSPost2010PropOp50
 70
     1
102
RTVSPost2010Prop51ColorIndex
 90
      256
102
RTVSPost2010Prop51ColorRGB
 90
-16777216
102
RTVSPost2010PropOp51
 70
     0
102
RTVSPost2010Prop52
140
1.0
102
RTVSPost2010PropOp52
 70
     0
102
RTVSPost2010Prop53
 90
        2
102
RTVSPost2010PropOp53
 70
     1
102
RTVSPost2010Prop54
  1
strokes_ogs.tif
102
RTVSPost2010PropOp54
 70
     1
102
RTVSPost2010Prop55
280
     0
102
RTVSPost2010PropOp55
 70
     1
102
RTVSPost2010Prop56
140
1.0
102
RTVSPost2010PropOp56
 70
     1
102
RTVSPost2010Prop57
140
1.0
102
RTVSPost2010PropOp57
 70
     1
102
RTVSPropertyOp0
 70
     1
102
RTVSPropertyOp1
 70
     1
102
RTVSPropertyOp2
 70
     1
102
RTVSPropertyOp3
 70
     1
102
RTVSPropertyOp4
 70
     1
102
RTVSPropertyOp5
 70
     1
102
RTVSPropertyOp6
 70
     1
102
RTVSPropertyOp7
 70
     1
102
RTVSPropertyOp8
 70
     1
102
RTVSPropertyOp9
 70
     1
102
RTVSPropertyOp10
 70
     1
102
RTVSPropertyOp11
 70
     1
102
RTVSPropertyOp12
 70
     1
102
RTVSPropertyOp13
 70
     1
102
RTVSPropertyOp14
 70
     1
102
RTVSPropertyOp15
 70
     1
102
RTVSPropertyOp16
 70
     1
102
RTVSPropertyOp17
 70
     1
102
RTVSPropertyOp18
 70
     1
102
RTVSPropertyOp19
 70
     1
102
RTVSPropertyOp20
 70
     1
102
RTVSPropertyOp21
 70
     1
102
RTVSPropertyOp22
 70
     1
102
RTVSPropertyOp23
 70
     1
102
RTVSPropertyOp24
 70
     1
102
RTVSPropertyOp25
 70
     1
102
RTVSPropertyOp26
 70
     1
102
RTVSPropertyOp27
 70
     1
102
RTVSPropertyOp28
 70
     1
102
RTVSPropertyOp29
 70
     1
102
RTVSPropertyOp30
 70
     1
102
RTVSPropertyOp31
 70
     1
102
RTVSPropertyOp32
 70
     1
102
RTVSPropertyOp33
 70
     1
102
RTVSPropertyOp34
 70
     1
102
RTVSPropertyOp35
 70
     1
102
RTVSPropertyOp36
 70
     1
102
RTVSPropertyOp37
 70
     1
102
RTVSPropertyOp38
 70
     1
102
RTVSPropertyOp39
 70
     1
102
RTVSPropertyOp40
 70
     1
102
RTVSPropertyOp41
 70
     1
102
RTVSPropertyOp42
 70
     1
102
RTVSPropertyOp43
 70
     1
102
RTVSPropertyOp44
 70
     1
102
RTVSPropertyOp45
 70
     1
102
RTVSPropertyOp46
 70
     1
102
RTVSPropertyOp47
 70
     1
102
RTVSPropertyOp48
 70
     1
102
RTVSPropertyOp49
 70
     1
102
RTVSPropertyOp50
 70
     1
102
RTVSPropertyOp51
 70
     0
102
RTVSPropertyOp52
 70
     0
102
RTVSPropertyOp53
 70
     1
102
RTVSPropertyOp54
 70
     1
102
RTVSPropertyOp55
 70
     1
102
RTVSPropertyOp56
 70
     1
102
RTVSPropertyOp57
 70
     1
102
RTVSPropertyOp58
 70
     1
102
RTVSPropertyOp59
 70
     1
102
RTVSPropertyOp60
 70
     1
102
RTVSPropertyOp61
 70
     1
102
RTVSPropertyOp62
 70
     1
  0
XRECORD
  5
35FF
102
{ACAD_REACTORS
330
35FE
102
}
330
35FE
100
AcDbXrecord
280
     1
102
RTVSPost2010Prop28
280
     0
102
RTVSPost2010PropOp28
 70
     1
102
RTVSPost2010Prop29
280
     1
102
RTVSPost2010PropOp29
 70
     1
102
RTVSPost2010Prop30
280
     1
102
RTVSPost2010PropOp30
 70
     1
102
RTVSPost2010Prop31
280
     0
102
RTVSPost2010PropOp31
 70
     1
102
RTVSPost2010Prop32
280
     0
102
RTVSPost2010PropOp32
 70
     1
102
RTVSPost2010Prop33
280
     0
102
RTVSPost2010PropOp33
 70
     1
102
RTVSPost2010Prop34
280
     0
102
RTVSPost2010PropOp34
 70
     1
102
RTVSPost2010Prop35
280
     0
102
RTVSPost2010PropOp35
 70
     1
102
RTVSPost2010Prop36
280
     0
102
RTVSPost2010PropOp36
 70
     1
102
RTVSPost2010Prop37
 90
       50
102
RTVSPost2010PropOp37
 70
     1
102
RTVSPost2010Prop38
140
0.0
102
RTVSPost2010PropOp38
 70
     1
102
RTVSPost2010Prop39
140
1.0
102
RTVSPost2010PropOp39
 70
     1
102
RTVSPost2010Prop40
 90
        0
102
RTVSPost2010PropOp40
 70
     1
102
RTVSPost2010Prop41ColorIndex
 90
       18
102
RTVSPost2010Prop41ColorRGB
 90
        0
102
RTVSPost2010PropOp41
 70
     1
102
RTVSPost2010Prop42
 90
       50
102
RTVSPost2010PropOp42
 70
     1
102
RTVSPost2010Prop43
 90
        3
102
RTVSPost2010PropOp43
 70
     1
102
RTVSPost2010Prop44ColorIndex
 90
        5
102
RTVSPost2010Prop44ColorRGB
 90
      255
102
RTVSPost2010PropOp44
 70
     1
102
RTVSPost2010Prop45
280
     0
102
RTVSPost2010PropOp45
 70
     1
102
RTVSPost2010Prop46
 90
       50
102
RTVSPost2010PropOp46
 70
     1
102
RTVSPost2010Prop47
 90
       50
102
RTVSPost2010PropOp47
 70
     1
102
RTVSPost2010Prop48
 90
       50
102
RTVSPost2010PropOp48
 70
     1
102
RTVSPost2010Prop49
280
     0
102
RTVSPost2010PropOp49
 70
     1
102
RTVSPost2010Prop50
 90
       50
102
RTVSPost2010PropOp50
 70
     1
102
RTVSPost2010Prop51ColorIndex
 90
      256
102
RTVSPost2010Prop51ColorRGB
 90
-16777216
102
RTVSPost2010PropOp51
 70
     0
102
RTVSPost2010Prop52
140
1.0
102
RTVSPost2010PropOp52
 70
     0
102
RTVSPost2010Prop53
 90
        2
102
RTVSPost2010PropOp53
 70
     1
102
RTVSPost2010Prop54
  1
strokes_ogs.tif
102
RTVSPost2010PropOp54
 70
     1
102
RTVSPost2010Prop55
280
     0
102
RTVSPost2010PropOp55
 70
     1
102
RTVSPost2010Prop56
140
1.0
102
RTVSPost2010PropOp56
 70
     1
102
RTVSPost2010Prop57
140
1.0
102
RTVSPost2010PropOp57
 70
     1
102
RTVSPropertyOp0
 70
     1
102
RTVSPropertyOp1
 70
     1
102
RTVSPropertyOp2
 70
     1
102
RTVSPropertyOp3
 70
     1
102
RTVSPropertyOp4
 70
     1
102
RTVSPropertyOp5
 70
     1
102
RTVSPropertyOp6
 70
     1
102
RTVSPropertyOp7
 70
     1
102
RTVSPropertyOp8
 70
     1
102
RTVSPropertyOp9
 70
     1
102
RTVSPropertyOp10
 70
     1
102
RTVSPropertyOp11
 70
     1
102
RTVSPropertyOp12
 70
     1
102
RTVSPropertyOp13
 70
     1
102
RTVSPropertyOp14
 70
     1
102
RTVSPropertyOp15
 70
     1
102
RTVSPropertyOp16
 70
     1
102
RTVSPropertyOp17
 70
     1
102
RTVSPropertyOp18
 70
     1
102
RTVSPropertyOp19
 70
     1
102
RTVSPropertyOp20
 70
     1
102
RTVSPropertyOp21
 70
     1
102
RTVSPropertyOp22
 70
     1
102
RTVSPropertyOp23
 70
     1
102
RTVSPropertyOp24
 70
     1
102
RTVSPropertyOp25
 70
     1
102
RTVSPropertyOp26
 70
     1
102
RTVSPropertyOp27
 70
     1
102
RTVSPropertyOp28
 70
     1
102
RTVSPropertyOp29
 70
     1
102
RTVSPropertyOp30
 70
     1
102
RTVSPropertyOp31
 70
     1
102
RTVSPropertyOp32
 70
     1
102
RTVSPropertyOp33
 70
     1
102
RTVSPropertyOp34
 70
     1
102
RTVSPropertyOp35
 70
     1
102
RTVSPropertyOp36
 70
     1
102
RTVSPropertyOp37
 70
     1
102
RTVSPropertyOp38
 70
     1
102
RTVSPropertyOp39
 70
     1
102
RTVSPropertyOp40
 70
     1
102
RTVSPropertyOp41
 70
     1
102
RTVSPropertyOp42
 70
     1
102
RTVSPropertyOp43
 70
     1
102
RTVSPropertyOp44
 70
     1
102
RTVSPropertyOp45
 70
     1
102
RTVSPropertyOp46
 70
     1
102
RTVSPropertyOp47
 70
     1
102
RTVSPropertyOp48
 70
     1
102
RTVSPropertyOp49
 70
     1
102
RTVSPropertyOp50
 70
     1
102
RTVSPropertyOp51
 70
     0
102
RTVSPropertyOp52
 70
     0
102
RTVSPropertyOp53
 70
     1
102
RTVSPropertyOp54
 70
     1
102
RTVSPropertyOp55
 70
     1
102
RTVSPropertyOp56
 70
     1
102
RTVSPropertyOp57
 70
     1
102
RTVSPropertyOp58
 70
     1
102
RTVSPropertyOp59
 70
     1
102
RTVSPropertyOp60
 70
     1
102
RTVSPropertyOp61
 70
     1
102
RTVSPropertyOp62
 70
     1
  0
XRECORD
  5
35F5
102
{ACAD_REACTORS
330
35F4
102
}
330
35F4
100
AcDbXrecord
280
     1
102
RTVSPost2010Prop28
280
     0
102
RTVSPost2010PropOp28
 70
     1
102
RTVSPost2010Prop29
280
     1
102
RTVSPost2010PropOp29
 70
     1
102
RTVSPost2010Prop30
280
     1
102
RTVSPost2010PropOp30
 70
     1
102
RTVSPost2010Prop31
280
     0
102
RTVSPost2010PropOp31
 70
     1
102
RTVSPost2010Prop32
280
     0
102
RTVSPost2010PropOp32
 70
     1
102
RTVSPost2010Prop33
280
     0
102
RTVSPost2010PropOp33
 70
     1
102
RTVSPost2010Prop34
280
     0
102
RTVSPost2010PropOp34
 70
     1
102
RTVSPost2010Prop35
280
     0
102
RTVSPost2010PropOp35
 70
     1
102
RTVSPost2010Prop36
280
     0
102
RTVSPost2010PropOp36
 70
     1
102
RTVSPost2010Prop37
 90
       50
102
RTVSPost2010PropOp37
 70
     1
102
RTVSPost2010Prop38
140
0.0
102
RTVSPost2010PropOp38
 70
     1
102
RTVSPost2010Prop39
140
1.0
102
RTVSPost2010PropOp39
 70
     1
102
RTVSPost2010Prop40
 90
        0
102
RTVSPost2010PropOp40
 70
     1
102
RTVSPost2010Prop41ColorIndex
 90
       18
102
RTVSPost2010Prop41ColorRGB
 90
        0
102
RTVSPost2010PropOp41
 70
     1
102
RTVSPost2010Prop42
 90
       50
102
RTVSPost2010PropOp42
 70
     1
102
RTVSPost2010Prop43
 90
        3
102
RTVSPost2010PropOp43
 70
     1
102
RTVSPost2010Prop44ColorIndex
 90
        5
102
RTVSPost2010Prop44ColorRGB
 90
      255
102
RTVSPost2010PropOp44
 70
     1
102
RTVSPost2010Prop45
280
     0
102
RTVSPost2010PropOp45
 70
     1
102
RTVSPost2010Prop46
 90
       50
102
RTVSPost2010PropOp46
 70
     1
102
RTVSPost2010Prop47
 90
       50
102
RTVSPost2010PropOp47
 70
     1
102
RTVSPost2010Prop48
 90
       50
102
RTVSPost2010PropOp48
 70
     1
102
RTVSPost2010Prop49
280
     0
102
RTVSPost2010PropOp49
 70
     1
102
RTVSPost2010Prop50
 90
       50
102
RTVSPost2010PropOp50
 70
     1
102
RTVSPost2010Prop51ColorIndex
 90
      256
102
RTVSPost2010Prop51ColorRGB
 90
-16777216
102
RTVSPost2010PropOp51
 70
     0
102
RTVSPost2010Prop52
140
1.0
102
RTVSPost2010PropOp52
 70
     0
102
RTVSPost2010Prop53
 90
        2
102
RTVSPost2010PropOp53
 70
     1
102
RTVSPost2010Prop54
  1
strokes_ogs.tif
102
RTVSPost2010PropOp54
 70
     1
102
RTVSPost2010Prop55
280
     0
102
RTVSPost2010PropOp55
 70
     1
102
RTVSPost2010Prop56
140
1.0
102
RTVSPost2010PropOp56
 70
     1
102
RTVSPost2010Prop57
140
1.0
102
RTVSPost2010PropOp57
 70
     1
102
RTVSPropertyOp0
 70
     1
102
RTVSPropertyOp1
 70
     1
102
RTVSPropertyOp2
 70
     1
102
RTVSPropertyOp3
 70
     1
102
RTVSPropertyOp4
 70
     1
102
RTVSPropertyOp5
 70
     1
102
RTVSPropertyOp6
 70
     1
102
RTVSPropertyOp7
 70
     1
102
RTVSPropertyOp8
 70
     1
102
RTVSPropertyOp9
 70
     1
102
RTVSPropertyOp10
 70
     1
102
RTVSPropertyOp11
 70
     1
102
RTVSPropertyOp12
 70
     1
102
RTVSPropertyOp13
 70
     1
102
RTVSPropertyOp14
 70
     1
102
RTVSPropertyOp15
 70
     1
102
RTVSPropertyOp16
 70
     1
102
RTVSPropertyOp17
 70
     1
102
RTVSPropertyOp18
 70
     1
102
RTVSPropertyOp19
 70
     1
102
RTVSPropertyOp20
 70
     1
102
RTVSPropertyOp21
 70
     1
102
RTVSPropertyOp22
 70
     1
102
RTVSPropertyOp23
 70
     1
102
RTVSPropertyOp24
 70
     1
102
RTVSPropertyOp25
 70
     1
102
RTVSPropertyOp26
 70
     1
102
RTVSPropertyOp27
 70
     1
102
RTVSPropertyOp28
 70
     1
102
RTVSPropertyOp29
 70
     1
102
RTVSPropertyOp30
 70
     1
102
RTVSPropertyOp31
 70
     1
102
RTVSPropertyOp32
 70
     1
102
RTVSPropertyOp33
 70
     1
102
RTVSPropertyOp34
 70
     1
102
RTVSPropertyOp35
 70
     1
102
RTVSPropertyOp36
 70
     1
102
RTVSPropertyOp37
 70
     1
102
RTVSPropertyOp38
 70
     1
102
RTVSPropertyOp39
 70
     1
102
RTVSPropertyOp40
 70
     1
102
RTVSPropertyOp41
 70
     1
102
RTVSPropertyOp42
 70
     1
102
RTVSPropertyOp43
 70
     1
102
RTVSPropertyOp44
 70
     1
102
RTVSPropertyOp45
 70
     1
102
RTVSPropertyOp46
 70
     1
102
RTVSPropertyOp47
 70
     1
102
RTVSPropertyOp48
 70
     1
102
RTVSPropertyOp49
 70
     1
102
RTVSPropertyOp50
 70
     1
102
RTVSPropertyOp51
 70
     0
102
RTVSPropertyOp52
 70
     0
102
RTVSPropertyOp53
 70
     1
102
RTVSPropertyOp54
 70
     1
102
RTVSPropertyOp55
 70
     1
102
RTVSPropertyOp56
 70
     1
102
RTVSPropertyOp57
 70
     1
102
RTVSPropertyOp58
 70
     1
102
RTVSPropertyOp59
 70
     1
102
RTVSPropertyOp60
 70
     1
102
RTVSPropertyOp61
 70
     1
102
RTVSPropertyOp62
 70
     1
  0
XRECORD
  5
35E9
102
{ACAD_REACTORS
330
35E8
102
}
330
35E8
100
AcDbXrecord
280
     1
102
RTVSPost2010Prop28
280
     0
102
RTVSPost2010PropOp28
 70
     1
102
RTVSPost2010Prop29
280
     1
102
RTVSPost2010PropOp29
 70
     1
102
RTVSPost2010Prop30
280
     1
102
RTVSPost2010PropOp30
 70
     1
102
RTVSPost2010Prop31
280
     0
102
RTVSPost2010PropOp31
 70
     1
102
RTVSPost2010Prop32
280
     0
102
RTVSPost2010PropOp32
 70
     1
102
RTVSPost2010Prop33
280
     0
102
RTVSPost2010PropOp33
 70
     1
102
RTVSPost2010Prop34
280
     0
102
RTVSPost2010PropOp34
 70
     1
102
RTVSPost2010Prop35
280
     0
102
RTVSPost2010PropOp35
 70
     1
102
RTVSPost2010Prop36
280
     0
102
RTVSPost2010PropOp36
 70
     1
102
RTVSPost2010Prop37
 90
       50
102
RTVSPost2010PropOp37
 70
     1
102
RTVSPost2010Prop38
140
0.0
102
RTVSPost2010PropOp38
 70
     1
102
RTVSPost2010Prop39
140
1.0
102
RTVSPost2010PropOp39
 70
     1
102
RTVSPost2010Prop40
 90
        0
102
RTVSPost2010PropOp40
 70
     1
102
RTVSPost2010Prop41ColorIndex
 90
       18
102
RTVSPost2010Prop41ColorRGB
 90
        0
102
RTVSPost2010PropOp41
 70
     1
102
RTVSPost2010Prop42
 90
       50
102
RTVSPost2010PropOp42
 70
     1
102
RTVSPost2010Prop43
 90
        3
102
RTVSPost2010PropOp43
 70
     1
102
RTVSPost2010Prop44ColorIndex
 90
        5
102
RTVSPost2010Prop44ColorRGB
 90
      255
102
RTVSPost2010PropOp44
 70
     1
102
RTVSPost2010Prop45
280
     0
102
RTVSPost2010PropOp45
 70
     1
102
RTVSPost2010Prop46
 90
       50
102
RTVSPost2010PropOp46
 70
     1
102
RTVSPost2010Prop47
 90
       50
102
RTVSPost2010PropOp47
 70
     1
102
RTVSPost2010Prop48
 90
       50
102
RTVSPost2010PropOp48
 70
     1
102
RTVSPost2010Prop49
280
     0
102
RTVSPost2010PropOp49
 70
     1
102
RTVSPost2010Prop50
 90
       50
102
RTVSPost2010PropOp50
 70
     1
102
RTVSPost2010Prop51ColorIndex
 90
      256
102
RTVSPost2010Prop51ColorRGB
 90
-16777216
102
RTVSPost2010PropOp51
 70
     0
102
RTVSPost2010Prop52
140
1.0
102
RTVSPost2010PropOp52
 70
     0
102
RTVSPost2010Prop53
 90
        2
102
RTVSPost2010PropOp53
 70
     1
102
RTVSPost2010Prop54
  1
strokes_ogs.tif
102
RTVSPost2010PropOp54
 70
     1
102
RTVSPost2010Prop55
280
     0
102
RTVSPost2010PropOp55
 70
     1
102
RTVSPost2010Prop56
140
1.0
102
RTVSPost2010PropOp56
 70
     1
102
RTVSPost2010Prop57
140
1.0
102
RTVSPost2010PropOp57
 70
     1
102
RTVSPropertyOp0
 70
     1
102
RTVSPropertyOp1
 70
     1
102
RTVSPropertyOp2
 70
     1
102
RTVSPropertyOp3
 70
     1
102
RTVSPropertyOp4
 70
     1
102
RTVSPropertyOp5
 70
     1
102
RTVSPropertyOp6
 70
     1
102
RTVSPropertyOp7
 70
     1
102
RTVSPropertyOp8
 70
     1
102
RTVSPropertyOp9
 70
     1
102
RTVSPropertyOp10
 70
     1
102
RTVSPropertyOp11
 70
     1
102
RTVSPropertyOp12
 70
     1
102
RTVSPropertyOp13
 70
     1
102
RTVSPropertyOp14
 70
     1
102
RTVSPropertyOp15
 70
     1
102
RTVSPropertyOp16
 70
     1
102
RTVSPropertyOp17
 70
     1
102
RTVSPropertyOp18
 70
     1
102
RTVSPropertyOp19
 70
     1
102
RTVSPropertyOp20
 70
     1
102
RTVSPropertyOp21
 70
     1
102
RTVSPropertyOp22
 70
     1
102
RTVSPropertyOp23
 70
     1
102
RTVSPropertyOp24
 70
     1
102
RTVSPropertyOp25
 70
     1
102
RTVSPropertyOp26
 70
     1
102
RTVSPropertyOp27
 70
     1
102
RTVSPropertyOp28
 70
     1
102
RTVSPropertyOp29
 70
     1
102
RTVSPropertyOp30
 70
     1
102
RTVSPropertyOp31
 70
     1
102
RTVSPropertyOp32
 70
     1
102
RTVSPropertyOp33
 70
     1
102
RTVSPropertyOp34
 70
     1
102
RTVSPropertyOp35
 70
     1
102
RTVSPropertyOp36
 70
     1
102
RTVSPropertyOp37
 70
     1
102
RTVSPropertyOp38
 70
     1
102
RTVSPropertyOp39
 70
     1
102
RTVSPropertyOp40
 70
     1
102
RTVSPropertyOp41
 70
     1
102
RTVSPropertyOp42
 70
     1
102
RTVSPropertyOp43
 70
     1
102
RTVSPropertyOp44
 70
     1
102
RTVSPropertyOp45
 70
     1
102
RTVSPropertyOp46
 70
     1
102
RTVSPropertyOp47
 70
     1
102
RTVSPropertyOp48
 70
     1
102
RTVSPropertyOp49
 70
     1
102
RTVSPropertyOp50
 70
     1
102
RTVSPropertyOp51
 70
     0
102
RTVSPropertyOp52
 70
     0
102
RTVSPropertyOp53
 70
     1
102
RTVSPropertyOp54
 70
     1
102
RTVSPropertyOp55
 70
     1
102
RTVSPropertyOp56
 70
     1
102
RTVSPropertyOp57
 70
     1
102
RTVSPropertyOp58
 70
     1
102
RTVSPropertyOp59
 70
     1
102
RTVSPropertyOp60
 70
     1
102
RTVSPropertyOp61
 70
     1
102
RTVSPropertyOp62
 70
     1
  0
XRECORD
  5
3601
102
{ACAD_REACTORS
330
3600
102
}
330
3600
100
AcDbXrecord
280
     1
102
RTVSPost2010Prop28
280
     0
102
RTVSPost2010PropOp28
 70
     1
102
RTVSPost2010Prop29
280
     1
102
RTVSPost2010PropOp29
 70
     1
102
RTVSPost2010Prop30
280
     1
102
RTVSPost2010PropOp30
 70
     1
102
RTVSPost2010Prop31
280
     0
102
RTVSPost2010PropOp31
 70
     1
102
RTVSPost2010Prop32
280
     0
102
RTVSPost2010PropOp32
 70
     1
102
RTVSPost2010Prop33
280
     0
102
RTVSPost2010PropOp33
 70
     1
102
RTVSPost2010Prop34
280
     0
102
RTVSPost2010PropOp34
 70
     1
102
RTVSPost2010Prop35
280
     0
102
RTVSPost2010PropOp35
 70
     1
102
RTVSPost2010Prop36
280
     0
102
RTVSPost2010PropOp36
 70
     1
102
RTVSPost2010Prop37
 90
       50
102
RTVSPost2010PropOp37
 70
     1
102
RTVSPost2010Prop38
140
0.0
102
RTVSPost2010PropOp38
 70
     1
102
RTVSPost2010Prop39
140
1.0
102
RTVSPost2010PropOp39
 70
     1
102
RTVSPost2010Prop40
 90
        0
102
RTVSPost2010PropOp40
 70
     1
102
RTVSPost2010Prop41ColorIndex
 90
       18
102
RTVSPost2010Prop41ColorRGB
 90
        0
102
RTVSPost2010PropOp41
 70
     1
102
RTVSPost2010Prop42
 90
       50
102
RTVSPost2010PropOp42
 70
     1
102
RTVSPost2010Prop43
 90
        3
102
RTVSPost2010PropOp43
 70
     1
102
RTVSPost2010Prop44ColorIndex
 90
        5
102
RTVSPost2010Prop44ColorRGB
 90
      255
102
RTVSPost2010PropOp44
 70
     1
102
RTVSPost2010Prop45
280
     0
102
RTVSPost2010PropOp45
 70
     1
102
RTVSPost2010Prop46
 90
       50
102
RTVSPost2010PropOp46
 70
     1
102
RTVSPost2010Prop47
 90
       50
102
RTVSPost2010PropOp47
 70
     1
102
RTVSPost2010Prop48
 90
       50
102
RTVSPost2010PropOp48
 70
     1
102
RTVSPost2010Prop49
280
     0
102
RTVSPost2010PropOp49
 70
     1
102
RTVSPost2010Prop50
 90
       50
102
RTVSPost2010PropOp50
 70
     1
102
RTVSPost2010Prop51ColorIndex
 90
      256
102
RTVSPost2010Prop51ColorRGB
 90
-16777216
102
RTVSPost2010PropOp51
 70
     0
102
RTVSPost2010Prop52
140
1.0
102
RTVSPost2010PropOp52
 70
     0
102
RTVSPost2010Prop53
 90
        2
102
RTVSPost2010PropOp53
 70
     1
102
RTVSPost2010Prop54
  1
strokes_ogs.tif
102
RTVSPost2010PropOp54
 70
     1
102
RTVSPost2010Prop55
280
     0
102
RTVSPost2010PropOp55
 70
     1
102
RTVSPost2010Prop56
140
1.0
102
RTVSPost2010PropOp56
 70
     1
102
RTVSPost2010Prop57
140
1.0
102
RTVSPost2010PropOp57
 70
     1
102
RTVSPropertyOp0
 70
     1
102
RTVSPropertyOp1
 70
     1
102
RTVSPropertyOp2
 70
     1
102
RTVSPropertyOp3
 70
     1
102
RTVSPropertyOp4
 70
     1
102
RTVSPropertyOp5
 70
     1
102
RTVSPropertyOp6
 70
     1
102
RTVSPropertyOp7
 70
     1
102
RTVSPropertyOp8
 70
     1
102
RTVSPropertyOp9
 70
     1
102
RTVSPropertyOp10
 70
     1
102
RTVSPropertyOp11
 70
     1
102
RTVSPropertyOp12
 70
     1
102
RTVSPropertyOp13
 70
     1
102
RTVSPropertyOp14
 70
     1
102
RTVSPropertyOp15
 70
     1
102
RTVSPropertyOp16
 70
     1
102
RTVSPropertyOp17
 70
     1
102
RTVSPropertyOp18
 70
     1
102
RTVSPropertyOp19
 70
     1
102
RTVSPropertyOp20
 70
     1
102
RTVSPropertyOp21
 70
     1
102
RTVSPropertyOp22
 70
     1
102
RTVSPropertyOp23
 70
     1
102
RTVSPropertyOp24
 70
     1
102
RTVSPropertyOp25
 70
     1
102
RTVSPropertyOp26
 70
     1
102
RTVSPropertyOp27
 70
     1
102
RTVSPropertyOp28
 70
     1
102
RTVSPropertyOp29
 70
     1
102
RTVSPropertyOp30
 70
     1
102
RTVSPropertyOp31
 70
     1
102
RTVSPropertyOp32
 70
     1
102
RTVSPropertyOp33
 70
     1
102
RTVSPropertyOp34
 70
     1
102
RTVSPropertyOp35
 70
     1
102
RTVSPropertyOp36
 70
     1
102
RTVSPropertyOp37
 70
     1
102
RTVSPropertyOp38
 70
     1
102
RTVSPropertyOp39
 70
     1
102
RTVSPropertyOp40
 70
     1
102
RTVSPropertyOp41
 70
     1
102
RTVSPropertyOp42
 70
     1
102
RTVSPropertyOp43
 70
     1
102
RTVSPropertyOp44
 70
     1
102
RTVSPropertyOp45
 70
     1
102
RTVSPropertyOp46
 70
     1
102
RTVSPropertyOp47
 70
     1
102
RTVSPropertyOp48
 70
     1
102
RTVSPropertyOp49
 70
     1
102
RTVSPropertyOp50
 70
     1
102
RTVSPropertyOp51
 70
     0
102
RTVSPropertyOp52
 70
     0
102
RTVSPropertyOp53
 70
     1
102
RTVSPropertyOp54
 70
     1
102
RTVSPropertyOp55
 70
     1
102
RTVSPropertyOp56
 70
     1
102
RTVSPropertyOp57
 70
     1
102
RTVSPropertyOp58
 70
     1
102
RTVSPropertyOp59
 70
     1
102
RTVSPropertyOp60
 70
     1
102
RTVSPropertyOp61
 70
     1
102
RTVSPropertyOp62
 70
     1
  0
ENDSEC
  0
EOF
