  0
SECTION
  2
HEADER
  9
$ACADVER
  1
AC1015
  9
$ACADMAINTVER
 70
    20
  9
$DWGCODEPAGE
  3
ANSI_932
  9
$INSBASE
 10
0.0
 20
0.0
 30
0.0
  9
$EXTMIN
 10
9.9999975266385
 20
10.0
 30
0.0
  9
$EXTMAX
 10
580.090771097507
 20
369.6748505598359
 30
0.0
  9
$LIMMIN
 10
0.0000015376081137
 20
-0.0000001931532552
  9
$LIMMAX
 10
595.0000015376081
 20
410.1893937462405
  9
$ORTHOMODE
 70
     1
  9
$REGENMODE
 70
     1
  9
$FILLMODE
 70
     1
  9
$QTEXTMODE
 70
     0
  9
$MIRRTEXT
 70
     1
  9
$LTSCALE
 40
0.3
  9
$ATTMODE
 70
     1
  9
$TEXTSIZE
 40
2.5
  9
$TRACEWID
 40
1.0
  9
$TEXTSTYLE
  7
STANDARD
  9
$CLAYER
  8
0
  9
$CELTYPE
  6
BYLAYER
  9
$CECOLOR
 62
   256
  9
$CELTSCALE
 40
1.0
  9
$DISPSILH
 70
     0
  9
$DIMSCALE
 40
1.0
  9
$DIMASZ
 40
3.0
  9
$DIMEXO
 40
1.0
  9
$DIMDLI
 40
10.0
  9
$DIMRND
 40
0.0
  9
$DIMDLE
 40
0.0
  9
$DIMEXE
 40
1.0
  9
$DIMTP
 40
0.0
  9
$DIMTM
 40
0.0
  9
$DIMTXT
 40
3.2
  9
$DIMCEN
 40
0.0
  9
$DIMTSZ
 40
0.0
  9
$DIMTOL
 70
     0
  9
$DIMLIM
 70
     0
  9
$DIMTIH
 70
     0
  9
$DIMTOH
 70
     0
  9
$DIMSE1
 70
     0
  9
$DIMSE2
 70
     0
  9
$DIMTAD
 70
     3
  9
$DIMZIN
 70
     8
  9
$DIMBLK
  1

  9
$DIMASO
 70
     1
  9
$DIMSHO
 70
     1
  9
$DIMPOST
  1

  9
$DIMAPOST
  1

  9
$DIMALT
 70
     0
  9
$DIMALTD
 70
     2
  9
$DIMALTF
 40
25.4
  9
$DIMLFAC
 40
1.0
  9
$DIMTOFL
 70
     1
  9
$DIMTVP
 40
0.0
  9
$DIMTIX
 70
     0
  9
$DIMSOXD
 70
     0
  9
$DIMSAH
 70
     1
  9
$DIMBLK1
  1
OPEN
  9
$DIMBLK2
  1
OPEN
  9
$DIMSTYLE
  2
STANDARD
  9
$DIMCLRD
 70
     0
  9
$DIMCLRE
 70
     0
  9
$DIMCLRT
 70
     0
  9
$DIMTFAC
 40
1.0
  9
$DIMGAP
 40
1.0
  9
$DIMJUST
 70
     0
  9
$DIMSD1
 70
     0
  9
$DIMSD2
 70
     0
  9
$DIMTOLJ
 70
     1
  9
$DIMTZIN
 70
     0
  9
$DIMALTZ
 70
     0
  9
$DIMALTTZ
 70
     0
  9
$DIMUPT
 70
     0
  9
$DIMDEC
 70
     4
  9
$DIMTDEC
 70
     4
  9
$DIMALTU
 70
     2
  9
$DIMALTTD
 70
     2
  9
$DIMTXSTY
  7
STANDARD
  9
$DIMAUNIT
 70
     0
  9
$DIMADEC
 70
     0
  9
$DIMALTRND
 40
0.0
  9
$DIMAZIN
 70
     0
  9
$DIMDSEP
 70
    46
  9
$DIMATFIT
 70
     3
  9
$DIMFRAC
 70
     0
  9
$DIMLDRBLK
  1
OPEN
  9
$DIMLUNIT
 70
     2
  9
$DIMLWD
 70
    -2
  9
$DIMLWE
 70
    -2
  9
$DIMTMOVE
 70
     0
  9
$LUNITS
 70
     2
  9
$LUPREC
 70
     4
  9
$SKETCHINC
 40
1.0
  9
$FILLETRAD
 40
10.0
  9
$AUNITS
 70
     0
  9
$AUPREC
 70
     0
  9
$MENU
  1
.
  9
$ELEVATION
 40
0.0
  9
$PELEVATION
 40
0.0
  9
$THICKNESS
 40
0.0
  9
$LIMCHECK
 70
     0
  9
$CHAMFERA
 40
10.0
  9
$CHAMFERB
 40
10.0
  9
$CHAMFERC
 40
20.0
  9
$CHAMFERD
 40
0.0
  9
$SKPOLY
 70
     0
  9
$TDCREATE
 40
2453031.601955290
  9
$TDUCREATE
 40
2453031.226955290
  9
$TDUPDATE
 40
2457192.643659549
  9
$TDUUPDATE
 40
2457192.268659549
  9
$TDINDWG
 40
0.0528574537
  9
$TDUSRTIMER
 40
0.0528574306
  9
$USRTIMER
 70
     1
  9
$ANGBASE
 50
0.0
  9
$ANGDIR
 70
     0
  9
$PDMODE
 70
     0
  9
$PDSIZE
 40
0.0
  9
$PLINEWID
 40
0.0
  9
$SPLFRAME
 70
     0
  9
$SPLINETYPE
 70
     6
  9
$SPLINESEGS
 70
     8
  9
$HANDSEED
  5
23C5
  9
$SURFTAB1
 70
     6
  9
$SURFTAB2
 70
     6
  9
$SURFTYPE
 70
     6
  9
$SURFU
 70
     6
  9
$SURFV
 70
     6
  9
$UCSBASE
  2

  9
$UCSNAME
  2

  9
$UCSORG
 10
0.0
 20
0.0
 30
0.0
  9
$UCSXDIR
 10
1.0
 20
0.0
 30
0.0
  9
$UCSYDIR
 10
0.0
 20
1.0
 30
0.0
  9
$UCSORTHOREF
  2

  9
$UCSORTHOVIEW
 70
     0
  9
$UCSORGTOP
 10
0.0
 20
0.0
 30
0.0
  9
$UCSORGBOTTOM
 10
0.0
 20
0.0
 30
0.0
  9
$UCSORGLEFT
 10
0.0
 20
0.0
 30
0.0
  9
$UCSORGRIGHT
 10
0.0
 20
0.0
 30
0.0
  9
$UCSORGFRONT
 10
0.0
 20
0.0
 30
0.0
  9
$UCSORGBACK
 10
0.0
 20
0.0
 30
0.0
  9
$PUCSBASE
  2

  9
$PUCSNAME
  2

  9
$PUCSORG
 10
0.0
 20
0.0
 30
0.0
  9
$PUCSXDIR
 10
1.0
 20
0.0
 30
0.0
  9
$PUCSYDIR
 10
0.0
 20
1.0
 30
0.0
  9
$PUCSORTHOREF
  2

  9
$PUCSORTHOVIEW
 70
     0
  9
$PUCSORGTOP
 10
0.0
 20
0.0
 30
0.0
  9
$PUCSORGBOTTOM
 10
0.0
 20
0.0
 30
0.0
  9
$PUCSORGLEFT
 10
0.0
 20
0.0
 30
0.0
  9
$PUCSORGRIGHT
 10
0.0
 20
0.0
 30
0.0
  9
$PUCSORGFRONT
 10
0.0
 20
0.0
 30
0.0
  9
$PUCSORGBACK
 10
0.0
 20
0.0
 30
0.0
  9
$USERI1
 70
     0
  9
$USERI2
 70
     0
  9
$USERI3
 70
     0
  9
$USERI4
 70
     0
  9
$USERI5
 70
     0
  9
$USERR1
 40
0.0
  9
$USERR2
 40
0.0
  9
$USERR3
 40
0.0
  9
$USERR4
 40
0.0
  9
$USERR5
 40
0.0
  9
$WORLDVIEW
 70
     1
  9
$SHADEDGE
 70
     3
  9
$SHADEDIF
 70
    70
  9
$TILEMODE
 70
     1
  9
$MAXACTVP
 70
    48
  9
$PINSBASE
 10
0.0
 20
0.0
 30
0.0
  9
$PLIMCHECK
 70
     0
  9
$PEXTMIN
 10
1.000000000000000E+20
 20
1.000000000000000E+20
 30
1.000000000000000E+20
  9
$PEXTMAX
 10
-1.000000000000000E+20
 20
-1.000000000000000E+20
 30
-1.000000000000000E+20
  9
$PLIMMIN
 10
0.0
 20
0.0
  9
$PLIMMAX
 10
420.0
 20
297.0
  9
$UNITMODE
 70
     0
  9
$VISRETAIN
 70
     1
  9
$PLINEGEN
 70
     0
  9
$PSLTSCALE
 70
     1
  9
$TREEDEPTH
 70
  3020
  9
$CMLSTYLE
  2
STANDARD
  9
$CMLJUST
 70
     0
  9
$CMLSCALE
 40
20.0
  9
$PROXYGRAPHICS
 70
     1
  9
$MEASUREMENT
 70
     0
  9
$CELWEIGHT
370
    -1
  9
$ENDCAPS
280
     0
  9
$JOINSTYLE
280
     0
  9
$LWDISPLAY
290
     0
  9
$INSUNITS
 70
     0
  9
$HYPERLINKBASE
  1

  9
$STYLESHEET
  1

  9
$XEDIT
290
     1
  9
$CEPSNTYPE
380
     0
  9
$PSTYLEMODE
290
     1
  9
$FINGERPRINTGUID
  2
{6F344B96-4876-414C-8A02-526972925C45}
  9
$VERSIONGUID
  2
{83426E41-723B-4ABB-A1E0-751BCF7C55D8}
  9
$EXTNAMES
290
     1
  9
$PSVPSCALE
 40
0.0
  9
$OLESTARTUP
290
     0
  0
ENDSEC
  0
SECTION
  2
CLASSES
  0
CLASS
  1
ACDBDICTIONARYWDFLT
  2
AcDbDictionaryWithDefault
  3
ObjectDBX Classes
 90
        0
280
     0
281
     0
  0
CLASS
  1
ACDBPLACEHOLDER
  2
AcDbPlaceHolder
  3
ObjectDBX Classes
 90
        0
280
     0
281
     0
  0
CLASS
  1
LAYOUT
  2
AcDbLayout
  3
ObjectDBX Classes
 90
        0
280
     0
281
     0
  0
CLASS
  1
DICTIONARYVAR
  2
AcDbDictionaryVar
  3
ObjectDBX Classes
 90
        0
280
     0
281
     0
  0
CLASS
  1
MATERIAL
  2
AcDbMaterial
  3
ObjectDBX Classes
 90
     1153
280
     0
281
     0
  0
CLASS
  1
VISUALSTYLE
  2
AcDbVisualStyle
  3
ObjectDBX Classes
 90
     4095
280
     0
281
     0
  0
CLASS
  1
TABLESTYLE
  2
AcDbTableStyle
  3
ObjectDBX Classes
 90
     4095
280
     0
281
     0
  0
CLASS
  1
SCALE
  2
AcDbScale
  3
ObjectDBX Classes
 90
     1153
280
     0
281
     0
  0
CLASS
  1
MLEADERSTYLE
  2
AcDbMLeaderStyle
  3
ACDB_MLEADERSTYLE_CLASS
 90
     4095
280
     0
281
     0
  0
CLASS
  1
ACDBSECTIONVIEWSTYLE
  2
AcDbSectionViewStyle
  3
ObjectDBX Classes
 90
     1025
280
     0
281
     0
  0
CLASS
  1
ACDBDETAILVIEWSTYLE
  2
AcDbDetailViewStyle
  3
ObjectDBX Classes
 90
     1025
280
     0
281
     0
  0
CLASS
  1
CELLSTYLEMAP
  2
AcDbCellStyleMap
  3
ObjectDBX Classes
 90
     1152
280
     0
281
     0
  0
ENDSEC
  0
SECTION
  2
TABLES
  0
TABLE
  2
VPORT
  5
8
330
0
100
AcDbSymbolTable
 70
     1
  0
VPORT
  5
230F
330
8
100
AcDbSymbolTableRecord
100
AcDbViewportTableRecord
  2
*ACTIVE
 70
     0
 10
0.0
 20
0.0
 11
1.0
 21
1.0
 12
403.9966363449635
 22
189.8227537255893
 13
0.0
 23
0.0
 14
10.0
 24
10.0
 15
10.0
 25
10.0
 16
0.0
 26
0.0
 36
1.0
 17
0.0
 27
0.0
 37
0.0
 40
363.7274365348661
 41
1.899603698811096
 42
50.0
 43
0.0
 44
0.0
 50
0.0
 51
0.0
 71
     0
 72
   100
 73
     1
 74
     0
 75
     0
 76
     0
 77
     0
 78
     0
281
     0
 65
     1
110
0.0
120
0.0
130
0.0
111
1.0
121
0.0
131
0.0
112
0.0
122
1.0
132
0.0
 79
     0
146
0.0
1001
ACAD_NAV_VCDISPLAY
1070
     3
  0
ENDTAB
  0
TABLE
  2
LTYPE
  5
5
330
0
100
AcDbSymbolTable
 70
     4
  0
LTYPE
  5
12
330
5
100
AcDbSymbolTableRecord
100
AcDbLinetypeTableRecord
  2
BYBLOCK
 70
     0
  3

 72
    65
 73
     0
 40
0.0
  0
LTYPE
  5
13
330
5
100
AcDbSymbolTableRecord
100
AcDbLinetypeTableRecord
  2
BYLAYER
 70
     0
  3

 72
    65
 73
     0
 40
0.0
  0
LTYPE
  5
14
330
5
100
AcDbSymbolTableRecord
100
AcDbLinetypeTableRecord
  2
CONTINUOUS
 70
     0
  3
Solid line
 72
    65
 73
     0
 40
0.0
  0
LTYPE
  5
80C
330
5
100
AcDbSymbolTableRecord
100
AcDbLinetypeTableRecord
  2
DASHED
 70
     0
  3
Dashed __ __ __ __ __ __ __ __ __ __ __ __ __ _
 72
    65
 73
     2
 40
19.04999999999999
 49
12.7
 74
     0
 49
-6.349999999999998
 74
     0
  0
LTYPE
  5
80D
330
5
100
AcDbSymbolTableRecord
100
AcDbLinetypeTableRecord
  2
CENTER
 70
     0
  3
Center ____ _ ____ _ ____ _ ____ _ ____ _ ____
 72
    65
 73
     4
 40
50.8
 49
31.75
 74
     0
 49
-6.349999999999998
 74
     0
 49
6.349999999999998
 74
     0
 49
-6.349999999999998
 74
     0
  0
LTYPE
  5
80E
330
5
100
AcDbSymbolTableRecord
100
AcDbLinetypeTableRecord
  2
PHANTOM
 70
     0
  3
Phantom ______  __  __  ______  __  __  ______
 72
    65
 73
     6
 40
63.5
 49
31.75
 74
     0
 49
-6.349999999999998
 74
     0
 49
6.349999999999998
 74
     0
 49
-6.349999999999998
 74
     0
 49
6.349999999999998
 74
     0
 49
-6.349999999999998
 74
     0
  0
ENDTAB
  0
TABLE
  2
LAYER
  5
2
330
0
100
AcDbSymbolTable
 70
     8
  0
LAYER
  5
E
102
{ACAD_XDICTIONARY
360
2369
102
}
330
2
100
AcDbSymbolTableRecord
100
AcDbLayerTableRecord
  2
0
 70
     0
 62
     7
  6
CONTINUOUS
370
    -3
390
2318
  0
LAYER
  5
80F
102
{ACAD_XDICTIONARY
360
236B
102
}
330
2
100
AcDbSymbolTableRecord
100
AcDbLayerTableRecord
  2
4
 70
     0
 62
     1
  6
CENTER
370
    -3
390
2318
  0
LAYER
  5
810
102
{ACAD_XDICTIONARY
360
236D
102
}
330
2
100
AcDbSymbolTableRecord
100
AcDbLayerTableRecord
  2
5
 70
     0
 62
     6
  6
PHANTOM
370
    -3
390
2318
  0
LAYER
  5
811
102
{ACAD_XDICTIONARY
360
236F
102
}
330
2
100
AcDbSymbolTableRecord
100
AcDbLayerTableRecord
  2
1
 70
     0
 62
     7
  6
CONTINUOUS
370
    -3
390
2318
  0
LAYER
  5
812
102
{ACAD_XDICTIONARY
360
2371
102
}
330
2
100
AcDbSymbolTableRecord
100
AcDbLayerTableRecord
  2
2
 70
     0
 62
     4
  6
CONTINUOUS
370
    -3
390
2318
  0
LAYER
  5
813
102
{ACAD_XDICTIONARY
360
2373
102
}
330
2
100
AcDbSymbolTableRecord
100
AcDbLayerTableRecord
  2
3
 70
     0
 62
     2
  6
DASHED
370
    -3
390
2318
  0
LAYER
  5
814
102
{ACAD_XDICTIONARY
360
2375
102
}
330
2
100
AcDbSymbolTableRecord
100
AcDbLayerTableRecord
  2
6
 70
     0
 62
     5
  6
CONTINUOUS
370
    -3
390
2318
  0
LAYER
  5
815
102
{ACAD_XDICTIONARY
360
2377
102
}
330
2
100
AcDbSymbolTableRecord
100
AcDbLayerTableRecord
  2
7
 70
     0
 62
     3
  6
CONTINUOUS
370
    -3
390
2318
  0
ENDTAB
  0
TABLE
  2
STYLE
  5
3
330
0
100
AcDbSymbolTable
 70
     1
  0
STYLE
  5
F
330
3
100
AcDbSymbolTableRecord
100
AcDbTextStyleTableRecord
  2
STANDARD
 70
     0
 40
0.0
 41
1.0
 50
0.0
 71
     0
 42
2.5
  3
simplex.shx
  4

  0
ENDTAB
  0
TABLE
  2
VIEW
  5
6
330
0
100
AcDbSymbolTable
 70
     0
  0
ENDTAB
  0
TABLE
  2
UCS
  5
7
330
0
100
AcDbSymbolTable
 70
     0
  0
ENDTAB
  0
TABLE
  2
APPID
  5
9
330
0
100
AcDbSymbolTable
 70
     7
  0
APPID
  5
10
330
9
100
AcDbSymbolTableRecord
100
AcDbRegAppTableRecord
  2
ACAD
 70
     0
  0
APPID
  5
3E
330
9
100
AcDbSymbolTableRecord
100
AcDbRegAppTableRecord
  2
CONTENTTABDATA
 70
     0
  0
APPID
  5
3F
330
9
100
AcDbSymbolTableRecord
100
AcDbRegAppTableRecord
  2
CONTENTCURRENTTAB
 70
     0
  0
APPID
  5
1D5B
330
9
100
AcDbSymbolTableRecord
100
AcDbRegAppTableRecord
  2
CONTENTBLOCKICON
 70
     0
  0
APPID
  5
1D5C
330
9
100
AcDbSymbolTableRecord
100
AcDbRegAppTableRecord
  2
CONTENTBLOCKDESCRIPTION
 70
     0
  0
APPID
  5
2383
330
9
100
AcDbSymbolTableRecord
100
AcDbRegAppTableRecord
  2
ACAD_NAV_VCDISPLAY
 70
     0
  0
APPID
  5
23BC
330
9
100
AcDbSymbolTableRecord
100
AcDbRegAppTableRecord
  2
ACAD_MLEADERVER
 70
     0
  0
ENDTAB
  0
TABLE
  2
DIMSTYLE
  5
A
330
0
100
AcDbSymbolTable
 70
     1
100
AcDbDimStyleTable
 71
     0
  0
DIMSTYLE
105
1D
330
A
100
AcDbSymbolTableRecord
100
AcDbDimStyleTableRecord
  2
STANDARD
 70
     0
 41
3.0
 42
1.0
 43
10.0
 44
1.0
 73
     0
 74
     0
 77
     3
 78
     8
140
3.2
141
0.0
147
1.0
172
     1
173
     1
340
F
341
2E
343
2E
344
2E
  0
ENDTAB
  0
TABLE
  2
BLOCK_RECORD
  5
1
330
0
100
AcDbSymbolTable
 70
     1
  0
BLOCK_RECORD
  5
18
102
{ACAD_XDICTIONARY
360
2312
102
}
330
1
100
AcDbSymbolTableRecord
100
AcDbBlockTableRecord
  2
*MODEL_SPACE
340
2366
  0
BLOCK_RECORD
  5
15
102
{ACAD_XDICTIONARY
360
2310
102
}
330
1
100
AcDbSymbolTableRecord
100
AcDbBlockTableRecord
  2
*PAPER_SPACE
340
2367
  0
BLOCK_RECORD
  5
2E
330
1
100
AcDbSymbolTableRecord
100
AcDbBlockTableRecord
  2
_OPEN
340
0
  0
ENDTAB
  0
ENDSEC
  0
SECTION
  2
BLOCKS
  0
BLOCK
  5
19
330
18
100
AcDbEntity
  8
0
100
AcDbBlockBegin
  2
*MODEL_SPACE
 70
     0
 10
0.0
 20
0.0
 30
0.0
  3
*MODEL_SPACE
  1

  0
ENDBLK
  5
1A
330
18
100
AcDbEntity
  8
0
100
AcDbBlockEnd
  0
BLOCK
  5
16
330
15
100
AcDbEntity
 67
     1
  8
0
100
AcDbBlockBegin
  2
*PAPER_SPACE
 70
     0
 10
0.0
 20
0.0
 30
0.0
  3
*PAPER_SPACE
  1

  0
ENDBLK
  5
17
330
15
100
AcDbEntity
 67
     1
  8
0
100
AcDbBlockEnd
  0
BLOCK
  5
2F
330
2E
100
AcDbEntity
  8
0
100
AcDbBlockBegin
  2
_OPEN
 70
     0
 10
0.0
 20
0.0
 30
0.0
  3
_OPEN
  1

  0
LINE
  5
30
330
2E
100
AcDbEntity
  8
0
  6
ByBlock
 62
     0
100
AcDbLine
 10
-1.0
 20
0.1666666666666666
 30
0.0
 11
0.0
 21
0.0
 31
0.0
  0
LINE
  5
31
330
2E
100
AcDbEntity
  8
0
  6
ByBlock
 62
     0
100
AcDbLine
 10
0.0
 20
0.0
 30
0.0
 11
-1.0
 21
-0.1666666666666666
 31
0.0
  0
LINE
  5
32
330
2E
100
AcDbEntity
  8
0
  6
ByBlock
 62
     0
100
AcDbLine
 10
0.0
 20
0.0
 30
0.0
 11
-1.0
 21
0.0
 31
0.0
  0
ENDBLK
  5
33
330
2E
100
AcDbEntity
  8
0
100
AcDbBlockEnd
  0
ENDSEC
  0
SECTION
  2
ENTITIES
  0
ARC
  5
BFB
330
18
100
AcDbEntity
  8
5
  6
PHANTOM
100
AcDbCircle
 10
124.9687684265171
 20
245.7484957754046
 30
0.0
 40
28.0
100
AcDbArc
 50
345.167152079193
 51
14.83284792081368
  0
ARC
  5
BFC
330
18
100
AcDbEntity
  8
5
  6
PHANTOM
100
AcDbCircle
 10
32.46525093063451
 20
245.6981238907713
 30
0.0
 40
10.21051532818236
100
AcDbArc
 50
142.6740577821696
 51
217.3226234462146
  0
LINE
  5
C0A
330
18
100
AcDbEntity
  8
1
  6
Continuous
100
AcDbLine
 10
219.5923147192642
 20
244.6984957753304
 30
0.0
 11
219.5923147192642
 21
235.6760166252012
 31
0.0
  0
LINE
  5
C0B
330
18
100
AcDbEntity
  8
1
  6
Continuous
100
AcDbLine
 10
268.1385044494089
 20
251.698495775319
 30
0.0
 11
268.1385044494089
 21
239.698495775319
 31
0.0
  0
ARC
  5
C0C
330
18
100
AcDbEntity
  8
1
  6
Continuous
100
AcDbCircle
 10
271.5605537291004
 20
242.9202718399953
 30
0.0
 40
1.6
100
AcDbArc
 50
274.9999999999997
 51
344.5060324994777
  0
LINE
  5
C0D
330
18
100
AcDbEntity
  8
1
  6
Continuous
100
AcDbLine
 10
270.2385044494089
 20
250.2984957753198
 30
0.0
 11
270.2385044494089
 21
241.0984957753198
 31
0.0
  0
LINE
  5
C0E
330
18
100
AcDbEntity
  8
1
  6
Continuous
100
AcDbLine
 10
268.9385044494089
 20
251.698495775319
 30
0.0
 11
268.9385044494089
 21
239.698495775319
 31
0.0
  0
LINE
  5
C0F
330
18
100
AcDbEntity
  8
1
  6
Continuous
100
AcDbLine
 10
230.576525735304
 20
250.6984957753259
 30
0.0
 11
230.576525735304
 21
240.6984957753241
 31
0.0
  0
LINE
  5
C10
330
18
100
AcDbEntity
  8
1
  6
Continuous
100
AcDbLine
 10
226.576525735303
 20
253.2517418444327
 30
0.0
 11
226.576525735303
 21
234.4484957752046
 31
0.0
  0
LINE
  5
C12
330
18
100
AcDbEntity
  8
1
  6
Continuous
100
AcDbLine
 10
228.576525735304
 20
255.4412815678865
 30
0.0
 11
228.576525735304
 21
234.4484957752115
 31
0.0
  0
LINE
  5
C13
330
18
100
AcDbEntity
  8
1
  6
Continuous
100
AcDbLine
 10
226.4765257353041
 20
254.1587498131515
 30
0.0
 11
226.4765257353041
 21
235.9484957753228
 31
0.0
  0
LINE
  5
C14
330
18
100
AcDbEntity
  8
1
  6
Continuous
100
AcDbLine
 10
226.0765257353042
 20
256.3983701464016
 30
0.0
 11
226.0765257353042
 21
234.1984957753237
 31
0.0
  0
LINE
  5
C15
330
18
100
AcDbEntity
  8
4
  6
CENTER
100
AcDbLine
 10
209.8765257353038
 20
253.1220754803602
 30
0.0
 11
209.8765257353038
 21
239.0653361370996
 31
0.0
  0
LINE
  5
C16
330
18
100
AcDbEntity
  8
5
  6
PHANTOM
100
AcDbLine
 10
204.8765257353048
 20
245.6984957753197
 30
0.0
 11
204.8765257352992
 21
240.9411364624298
 31
0.0
  0
LINE
  5
C17
330
18
100
AcDbEntity
  8
1
  6
Continuous
100
AcDbLine
 10
215.0765257353041
 20
257.1984957753213
 30
0.0
 11
215.0765257353041
 21
143.2845807051629
 31
0.0
  0
LINE
  5
C18
330
18
100
AcDbEntity
  8
1
  6
Continuous
100
AcDbLine
 10
213.0765257353041
 20
271.1984957753238
 30
0.0
 11
213.0765257353041
 21
129.1984957753239
 31
0.0
  0
LINE
  5
C19
330
18
100
AcDbEntity
  8
1
  6
Continuous
100
AcDbLine
 10
206.0765257353039
 20
263.9267379108521
 30
0.0
 11
206.0765257353039
 21
136.4702536398118
 31
0.0
  0
LINE
  5
C1A
330
18
100
AcDbEntity
  8
1
  6
Continuous
100
AcDbLine
 10
203.0765257353038
 20
245.2804598907617
 30
0.0
 11
203.0765257353038
 21
125.1984957753222
 31
0.0
  0
ARC
  5
C1B
330
18
100
AcDbEntity
  8
1
  6
Continuous
100
AcDbCircle
 10
31.41876842647195
 20
245.748495775363
 30
0.0
 40
9.900000000005332
100
AcDbArc
 50
341.7126811218504
 51
198.2873188797464
  0
LINE
  5
C1C
330
18
100
AcDbEntity
  8
4
  6
CENTER
100
AcDbLine
 10
31.41876842651369
 20
274.9563665494704
 30
0.0
 11
31.41876842651369
 21
120.2838901975601
 31
0.0
  0
LINE
  5
C1D
330
18
100
AcDbEntity
  8
1
  6
Continuous
100
AcDbLine
 10
22.01876842651529
 20
245.6984957753177
 30
0.0
 11
22.01876842651529
 21
128.0315762364103
 31
0.0
  0
LINE
  5
C1E
330
18
100
AcDbEntity
  8
1
  6
Continuous
100
AcDbLine
 10
40.81876842651523
 20
245.6984957753178
 30
0.0
 11
40.81876842651523
 21
128.0315762364114
 31
0.0
  0
LINE
  5
C1F
330
18
100
AcDbEntity
  8
1
  6
Continuous
100
AcDbLine
 10
15.41876842647735
 20
270.1984957752793
 30
0.0
 11
15.41876842647735
 21
130.1984957752793
 31
0.0
  0
LINE
  5
C20
330
18
100
AcDbEntity
  8
1
  6
Continuous
100
AcDbLine
 10
47.41876842647733
 20
270.1984957752953
 30
0.0
 11
47.41876842647733
 21
130.1984957752954
 31
0.0
  0
LINE
  5
C21
330
18
100
AcDbEntity
  8
1
  6
Continuous
100
AcDbLine
 10
21.51876842647732
 20
245.748495775363
 30
0.0
 11
21.51876842647732
 21
129.198495775282
 31
0.0
  0
LINE
  5
C22
330
18
100
AcDbEntity
  8
1
  6
Continuous
100
AcDbLine
 10
41.31876842647733
 20
245.748495775363
 30
0.0
 11
41.31876842647733
 21
129.1984957752928
 31
0.0
  0
LINE
  5
C23
330
18
100
AcDbEntity
  8
5
  6
PHANTOM
100
AcDbLine
 10
204.7726036144851
 20
250.211225878638
 30
0.0
 11
119.8618324902583
 21
165.300454754411
 31
0.0
  0
LINE
  5
C24
330
18
100
AcDbEntity
  8
5
  6
PHANTOM
100
AcDbLine
 10
31.46876842651727
 20
236.3484957754063
 30
0.0
 11
149.1356879654246
 21
236.3484957754063
 31
0.0
  0
TEXT
  5
C25
330
18
100
AcDbEntity
  8
7
  6
Continuous
 48
0.25
100
AcDbText
 10
9.999997526638502
 20
18.00000076076889
 30
0.0
 40
3.0
  1
TYPE No.THA-506-1K
100
AcDbText
  0
TEXT
  5
C26
330
18
100
AcDbEntity
  8
7
  6
Continuous
 48
0.25
100
AcDbText
 10
9.999997526638502
 20
26.0000007607689
 30
0.0
 40
3.0
  1
CODE No.13274
100
AcDbText
  0
TEXT
  5
C27
330
18
100
AcDbEntity
  8
4
  6
CENTER
 48
0.25
100
AcDbText
 10
23.97950852663849
 20
10.0
 30
0.0
 40
1.399999999999999
  1
4
100
AcDbText
  0
TEXT
  5
C28
330
18
100
AcDbEntity
  8
1
  6
Continuous
 48
0.25
100
AcDbText
 10
9.999997526638502
 20
10.00000076076889
 30
0.0
 40
1.399999999999999
  1
LAYER
100
AcDbText
  0
TEXT
  5
C29
330
18
100
AcDbEntity
  8
1
  6
Continuous
 48
0.25
100
AcDbText
 10
17.9795085266385
 20
10.0
 30
0.0
 40
1.399999999999999
  1
1
100
AcDbText
  0
TEXT
  5
C2A
330
18
100
AcDbEntity
  8
3
  6
DASHED
 48
0.25
100
AcDbText
 10
21.9795085266385
 20
10.0
 30
0.0
 40
1.399999999999999
  1
3
100
AcDbText
  0
TEXT
  5
C2B
330
18
100
AcDbEntity
  8
2
  6
Continuous
 48
0.25
100
AcDbText
 10
19.9795085266385
 20
10.0
 30
0.0
 40
1.399999999999999
  1
2
100
AcDbText
  0
TEXT
  5
C2C
330
18
100
AcDbEntity
  8
7
  6
Continuous
 48
0.25
100
AcDbText
 10
29.9795085266385
 20
10.0
 30
0.0
 40
1.399999999999999
  1
7
100
AcDbText
  0
TEXT
  5
C2D
330
18
100
AcDbEntity
  8
6
  6
Continuous
 48
0.25
100
AcDbText
 10
27.9795085266385
 20
10.0
 30
0.0
 40
1.399999999999999
  1
6
100
AcDbText
  0
TEXT
  5
C2E
330
18
100
AcDbEntity
  8
5
  6
PHANTOM
 48
0.25
100
AcDbText
 10
25.9795085266385
 20
10.0
 30
0.0
 40
1.399999999999999
  1
5
100
AcDbText
  0
LINE
  5
C2F
330
18
100
AcDbEntity
  8
1
  6
Continuous
100
AcDbLine
 10
30.36876842651355
 20
153.3484957753175
 30
0.0
 11
30.36876842651355
 21
160.3484957753176
 31
0.0
  0
LINE
  5
C30
330
18
100
AcDbEntity
  8
1
  6
Continuous
100
AcDbLine
 10
32.46876842651352
 20
153.3484957753175
 30
0.0
 11
32.46876842651352
 21
160.3484957753176
 31
0.0
  0
CIRCLE
  5
C31
330
18
100
AcDbEntity
  8
1
  6
Continuous
100
AcDbCircle
 10
31.41876842651527
 20
156.6984957753176
 30
0.0
 40
7.799999999999998
  0
CIRCLE
  5
C32
330
18
100
AcDbEntity
  8
1
  6
Continuous
100
AcDbCircle
 10
31.41876842651356
 20
156.6984957753175
 30
0.0
 40
7.65
  0
LINE
  5
C35
330
18
100
AcDbEntity
  8
4
  6
CENTER
100
AcDbLine
 10
43.93860511564593
 20
156.6984957753097
 30
0.0
 11
19.01876842647573
 21
156.6984957753097
 31
0.0
  0
ARC
  5
C36
330
18
100
AcDbEntity
  8
1
  6
Continuous
100
AcDbCircle
 10
31.41876842651356
 20
152.1984957753178
 30
0.0
 40
28.0
100
AcDbArc
 50
255.167152079193
 51
284.8328479208137
  0
LINE
  5
C37
330
18
100
AcDbEntity
  8
1
  6
Continuous
100
AcDbLine
 10
22.01876842651529
 20
129.1984957752823
 30
0.0
 11
16.41876842647786
 21
129.1984957752793
 31
0.0
  0
ARC
  5
C38
330
18
100
AcDbEntity
  8
1
  6
Continuous
100
AcDbCircle
 10
25.01876842651529
 20
128.0315762364103
 30
0.0
 40
3.0
100
AcDbArc
 50
180.0
 51
255.167152079193
  0
ARC
  5
C39
330
18
100
AcDbEntity
  8
1
  6
Continuous
100
AcDbCircle
 10
16.41876842647735
 20
130.1984957752793
 30
0.0
 40
1.0
100
AcDbArc
 50
180.0
 51
270.0
  0
ARC
  5
C3A
330
18
100
AcDbEntity
  8
1
  6
Continuous
100
AcDbCircle
 10
31.41876842647064
 20
114.4127814896855
 30
0.0
 40
21.78571428566616
100
AcDbArc
 50
117.0280229024764
 51
133.5380121013193
  0
ARC
  5
C3B
330
18
100
AcDbEntity
  8
1
  6
Continuous
100
AcDbCircle
 10
24.01876842647733
 20
146.7034220032153
 30
0.0
 40
2.5
100
AcDbArc
 50
180.0
 51
216.869897647315
  0
LINE
  5
C3C
330
18
100
AcDbEntity
  8
1
  6
Continuous
100
AcDbLine
 10
32.46876842651352
 20
153.3484957753175
 30
0.0
 11
30.36876842651355
 21
153.3484957753175
 31
0.0
  0
ARC
  5
C3D
330
18
100
AcDbEntity
  8
1
  6
Continuous
100
AcDbCircle
 10
37.81876842651525
 20
128.0315762364114
 30
0.0
 40
3.0
100
AcDbArc
 50
284.8328479208137
 51
0.0
  0
ARC
  5
C3E
330
18
100
AcDbEntity
  8
1
  6
Continuous
100
AcDbCircle
 10
31.41876842647064
 20
114.4127814896855
 30
0.0
 40
21.78571428566616
100
AcDbArc
 50
46.43476497604373
 51
62.97197709748346
  0
LINE
  5
C3F
330
18
100
AcDbEntity
  8
1
  6
Continuous
100
AcDbLine
 10
46.41876842647795
 20
129.1984957752956
 30
0.0
 11
40.81876842651523
 21
129.1984957752924
 31
0.0
  0
ARC
  5
C40
330
18
100
AcDbEntity
  8
1
  6
Continuous
100
AcDbCircle
 10
46.41876842647731
 20
130.1984957752954
 30
0.0
 40
1.0
100
AcDbArc
 50
270.0
 51
0.0
  0
ARC
  5
C41
330
18
100
AcDbEntity
  8
1
  6
Continuous
100
AcDbCircle
 10
38.81876842647733
 20
146.7034220032232
 30
0.0
 40
2.5
100
AcDbArc
 50
323.1301023556111
 51
0.0
  0
ARC
  5
C42
330
18
100
AcDbEntity
  8
1
  6
Continuous
100
AcDbCircle
 10
24.01876842647733
 20
164.6984957752783
 30
0.0
 40
2.5
100
AcDbArc
 50
143.1301023527102
 51
180.0
  0
CIRCLE
  5
C43
330
18
100
AcDbEntity
  8
1
  6
Continuous
100
AcDbCircle
 10
31.41876842651356
 20
162.3984957753177
 30
0.0
 40
0.4500000000085933
  0
LINE
  5
C44
330
18
100
AcDbEntity
  8
1
  6
Continuous
100
AcDbLine
 10
32.46876842651352
 20
160.3484957753176
 30
0.0
 11
30.36876842651355
 21
160.3484957753176
 31
0.0
  0
ARC
  5
C45
330
18
100
AcDbEntity
  8
5
  6
PHANTOM
100
AcDbCircle
 10
31.41876842649458
 20
245.698495775297
 30
0.0
 40
9.4
100
AcDbArc
 50
221.1947459530556
 51
270.0
  0
ARC
  5
C46
330
18
100
AcDbEntity
  8
1
  6
Continuous
100
AcDbCircle
 10
38.81876842647733
 20
164.6984957752861
 30
0.0
 40
2.5
100
AcDbArc
 50
0.0
 51
36.86989764438412
  0
LINE
  5
C48
330
18
100
AcDbEntity
  8
1
  6
Continuous
100
AcDbLine
 10
215.0765257352136
 20
45.14181385458471
 30
0.0
 11
225.0765257353037
 21
45.14181385458043
 31
0.0
  0
LINE
  5
C49
330
18
100
AcDbEntity
  8
1
  6
Continuous
100
AcDbLine
 10
215.0765257352235
 20
68.14181385474615
 30
0.0
 11
225.076525735306
 21
68.14181385472619
 31
0.0
  0
LINE
  5
C4F
330
18
100
AcDbEntity
  8
4
  6
CENTER
100
AcDbLine
 10
235.777641189954
 20
56.6418138547047
 30
0.0
 11
198.7993558057494
 21
56.64181385473376
 31
0.0
  0
LINE
  5
C51
330
18
100
AcDbEntity
  8
1
  6
Continuous
100
AcDbLine
 10
215.0765257352135
 20
44.941813854715
 30
0.0
 11
215.0765257352136
 21
45.14181385458472
 31
0.0
  0
LINE
  5
C55
330
18
100
AcDbEntity
  8
1
  6
Continuous
100
AcDbLine
 10
213.0765257353009
 20
40.64181385467759
 30
0.0
 11
213.0765257353009
 21
72.64181385467759
 31
0.0
  0
LINE
  5
C56
330
18
100
AcDbEntity
  8
1
  6
Continuous
100
AcDbLine
 10
209.0765257353042
 20
47.77431326575197
 30
0.0
 11
209.0765257353042
 21
65.50931444369815
 31
0.0
  0
LINE
  5
C57
330
18
100
AcDbEntity
  8
1
  6
Continuous
100
AcDbLine
 10
211.5765257353042
 20
47.84251756246635
 30
0.0
 11
211.5765257353042
 21
65.44111014698568
 31
0.0
  0
LINE
  5
C58
330
18
100
AcDbEntity
  8
1
  6
Continuous
100
AcDbLine
 10
221.6765257353042
 20
65.64181385474681
 30
0.0
 11
221.6765257353042
 21
47.64181385459187
 31
0.0
  0
ARC
  5
C59
330
18
100
AcDbEntity
  8
1
  6
Continuous
100
AcDbCircle
 10
263.0765257353043
 20
56.64181385473034
 30
0.0
 40
60.0
100
AcDbArc
 50
171.8148219823015
 51
188.1851780178825
  0
LINE
  5
C5A
330
18
100
AcDbEntity
  8
1
  6
Continuous
100
AcDbLine
 10
206.0765257353042
 20
48.24181385463788
 30
0.0
 11
206.0765257353042
 21
65.04181385463789
 31
0.0
  0
ARC
  5
C5C
330
18
100
AcDbEntity
  8
1
  6
Continuous
100
AcDbCircle
 10
211.5765257353005
 20
44.88897294557357
 30
0.0
 40
4.247159090896102
100
AcDbArc
 50
192.1693877305989
 51
270.0
  0
LINE
  5
C5D
330
18
100
AcDbEntity
  8
1
  6
Continuous
100
AcDbLine
 10
207.7960384462597
 20
47.24181385463634
 30
0.0
 11
204.6775531416154
 21
47.24181385463634
 31
0.0
  0
ARC
  5
C5E
330
18
100
AcDbEntity
  8
1
  6
Continuous
100
AcDbCircle
 10
266.0765257353009
 20
56.64181385472454
 30
0.0
 40
60.0
100
AcDbArc
 50
189.013470262384
 51
192.1693877305973
  0
LINE
  5
C5F
330
18
100
AcDbEntity
  8
1
  6
Continuous
100
AcDbLine
 10
207.1290803952533
 20
46.74809325164789
 30
0.0
 11
210.6037973068692
 21
46.84288950094333
 31
0.0
  0
ARC
  5
C60
330
18
100
AcDbEntity
  8
1
  6
Continuous
100
AcDbCircle
 10
207.1345347095663
 20
46.54816763934326
 30
0.0
 40
0.2
100
AcDbArc
 50
91.5627397038388
 51
189.7174786546482
  0
ARC
  5
C61
330
18
100
AcDbEntity
  8
1
  6
Continuous
100
AcDbCircle
 10
204.6775531416154
 20
48.2418138546364
 30
0.0
 40
1.0
100
AcDbArc
 50
188.1851780178825
 51
270.0
  0
ARC
  5
C62
330
18
100
AcDbEntity
  8
1
  6
Continuous
100
AcDbCircle
 10
205.0765257353043
 20
48.24181385463788
 30
0.0
 40
1.0
100
AcDbArc
 50
270.0
 51
0.0
  0
ARC
  5
C63
330
18
100
AcDbEntity
  8
1
  6
Continuous
100
AcDbCircle
 10
214.0765257353005
 20
44.94181385472217
 30
0.0
 40
1.0
100
AcDbArc
 50
270.0
 51
0.0
  0
ARC
  5
C64
330
18
100
AcDbEntity
  8
1
  6
Continuous
100
AcDbCircle
 10
207.7960384462597
 20
48.2418138546364
 30
0.0
 40
1.0
100
AcDbArc
 50
270.0
 51
276.7539945882274
  0
ARC
  5
C65
330
18
100
AcDbEntity
  8
1
  6
Continuous
100
AcDbCircle
 10
210.5765257353042
 20
47.84251756246635
 30
0.0
 40
1.0
100
AcDbArc
 50
271.5627397038371
 51
0.0
  0
LINE
  5
C66
330
18
100
AcDbEntity
  8
1
  6
Continuous
100
AcDbLine
 10
213.0765257353008
 20
43.94181385472278
 30
0.0
 11
214.0765257352998
 21
43.94181385472211
 31
0.0
  0
LINE
  5
C67
330
18
100
AcDbEntity
  8
1
  6
Continuous
100
AcDbLine
 10
211.5765257353014
 20
40.64181385467747
 30
0.0
 11
213.0765257353009
 21
40.64181385467782
 31
0.0
  0
ARC
  5
C68
330
18
100
AcDbEntity
  8
1
  6
Continuous
100
AcDbCircle
 10
208.0765257353042
 20
47.77431326575197
 30
0.0
 40
1.0
100
AcDbArc
 50
271.5627397038371
 51
0.0
  0
LINE
  5
C69
330
18
100
AcDbEntity
  8
1
  6
Continuous
100
AcDbLine
 10
208.9940823700688
 20
47.37670815763634
 30
0.0
 11
207.9136450788904
 21
47.24875359465135
 31
0.0
  0
ARC
  5
C6A
330
18
100
AcDbEntity
  8
1
  6
Continuous
100
AcDbCircle
 10
219.1765257353042
 20
47.64181385459187
 30
0.0
 40
2.5
100
AcDbArc
 50
270.0
 51
0.0
  0
ARC
  5
C6C
330
18
100
AcDbEntity
  8
1
  6
Continuous
100
AcDbCircle
 10
211.5765257352911
 20
68.39465476387954
 30
0.0
 40
4.247159090896102
100
AcDbArc
 50
90.00000000004476
 51
167.830612269446
  0
LINE
  5
C6D
330
18
100
AcDbEntity
  8
1
  6
Continuous
100
AcDbLine
 10
207.7960384477999
 20
66.04181385463625
 30
0.0
 11
204.6775531415884
 21
66.04181385463625
 31
0.0
  0
ARC
  5
C6E
330
18
100
AcDbEntity
  8
1
  6
Continuous
100
AcDbCircle
 10
266.0765257353009
 20
56.64181385472454
 30
0.0
 40
60.0
100
AcDbArc
 50
167.8306122693994
 51
170.9865297377874
  0
LINE
  5
C6F
330
18
100
AcDbEntity
  8
1
  6
Continuous
100
AcDbLine
 10
207.1290803952456
 20
66.53553445780165
 30
0.0
 11
210.6037973068684
 21
66.44073820850872
 31
0.0
  0
LINE
  5
C70
330
18
100
AcDbEntity
  8
1
  6
Continuous
100
AcDbLine
 10
209.0765257353042
 20
64.04181385463624
 30
0.0
 11
206.5765257353043
 21
64.04181385463624
 31
0.0
  0
LINE
  5
C71
330
18
100
AcDbEntity
  8
1
  6
Continuous
100
AcDbLine
 10
209.0765257353042
 20
49.24181385463636
 30
0.0
 11
206.5765257353043
 21
49.24181385463636
 31
0.0
  0
ARC
  5
C72
330
18
100
AcDbEntity
  8
1
  6
Continuous
100
AcDbCircle
 10
206.5765257353043
 20
49.74181385463641
 30
0.0
 40
0.5
100
AcDbArc
 50
180.0
 51
270.0
  0
ARC
  5
C73
330
18
100
AcDbEntity
  8
1
  6
Continuous
100
AcDbCircle
 10
207.1345347095584
 20
66.7354600701064
 30
0.0
 40
0.2
100
AcDbArc
 50
170.2825213453962
 51
268.437260296206
  0
ARC
  5
C74
330
18
100
AcDbEntity
  8
1
  6
Continuous
100
AcDbCircle
 10
204.6775531415884
 20
65.04181385463624
 30
0.0
 40
1.0
100
AcDbArc
 50
90.0
 51
171.8148219823015
  0
ARC
  5
C75
330
18
100
AcDbEntity
  8
1
  6
Continuous
100
AcDbCircle
 10
205.0765257353043
 20
65.04181385463789
 30
0.0
 40
1.0
100
AcDbArc
 50
0.0
 51
90.0
  0
ARC
  5
C76
330
18
100
AcDbEntity
  8
1
  6
Continuous
100
AcDbCircle
 10
206.5765257353043
 20
63.54181385463625
 30
0.0
 40
0.5
100
AcDbArc
 50
90.0
 51
180.0
  0
LINE
  5
C78
330
18
100
AcDbEntity
  8
1
  6
Continuous
100
AcDbLine
 10
217.0765257353008
 20
59.64181385472056
 30
0.0
 11
216.5765257353009
 21
60.14181385472056
 31
0.0
  0
LINE
  5
C79
330
18
100
AcDbEntity
  8
1
  6
Continuous
100
AcDbLine
 10
216.5765257353008
 20
53.14181385472057
 30
0.0
 11
216.5765257353008
 21
60.14181385472056
 31
0.0
  0
LINE
  5
C7A
330
18
100
AcDbEntity
  8
1
  6
Continuous
100
AcDbLine
 10
216.5765257353008
 20
53.14181385472057
 30
0.0
 11
213.0765257353008
 21
53.14181385472114
 31
0.0
  0
LINE
  5
C7B
330
18
100
AcDbEntity
  8
1
  6
Continuous
100
AcDbLine
 10
216.5765257353009
 20
53.14181385472057
 30
0.0
 11
217.0765257353008
 21
53.64181385472058
 31
0.0
  0
LINE
  5
C7C
330
18
100
AcDbEntity
  8
1
  6
Continuous
100
AcDbLine
 10
217.0765257353008
 20
59.64181385472068
 30
0.0
 11
217.0765257353008
 21
53.64181385472068
 31
0.0
  0
ARC
  5
C7D
330
18
100
AcDbEntity
  8
1
  6
Continuous
100
AcDbCircle
 10
214.0765257353005
 20
68.34181385472215
 30
0.0
 40
1.0
100
AcDbArc
 50
0.0
 51
90.0
  0
LINE
  5
C7E
330
18
100
AcDbEntity
  8
1
  6
Continuous
100
AcDbLine
 10
216.5765257353008
 20
60.14181385472056
 30
0.0
 11
213.0765257353008
 21
60.14181385472113
 31
0.0
  0
ARC
  5
C7F
330
18
100
AcDbEntity
  8
1
  6
Continuous
100
AcDbCircle
 10
207.7960384477999
 20
65.04181385463624
 30
0.0
 40
1.0
100
AcDbArc
 50
83.24600541168235
 51
90.0
  0
LINE
  5
C80
330
18
100
AcDbEntity
  8
1
  6
Continuous
100
AcDbLine
 10
213.0765257353008
 20
69.34181385472277
 30
0.0
 11
214.0765257353011
 21
69.34181385472213
 31
0.0
  0
ARC
  5
C81
330
18
100
AcDbEntity
  8
1
  6
Continuous
100
AcDbCircle
 10
210.5765257353042
 20
65.44111014698568
 30
0.0
 40
1.0
100
AcDbArc
 50
0.0
 51
88.43726029620762
  0
ARC
  5
C82
330
18
100
AcDbEntity
  8
1
  6
Continuous
100
AcDbCircle
 10
208.0765257353042
 20
65.50931444369815
 30
0.0
 40
1.0
100
AcDbArc
 50
0.0
 51
88.43726029620842
  0
LINE
  5
C83
330
18
100
AcDbEntity
  8
1
  6
Continuous
100
AcDbLine
 10
208.9940823700673
 20
65.90691955181704
 30
0.0
 11
207.9136450804321
 21
66.03487411462106
 31
0.0
  0
LINE
  5
C84
330
18
100
AcDbEntity
  8
1
  6
Continuous
100
AcDbLine
 10
215.0765257352235
 20
68.14181385474613
 30
0.0
 11
215.0765257352236
 21
68.34181385471504
 31
0.0
  0
ARC
  5
C85
330
18
100
AcDbEntity
  8
1
  6
Continuous
100
AcDbCircle
 10
219.1765257353042
 20
65.64181385474689
 30
0.0
 40
2.5
100
AcDbArc
 50
0.0
 51
90.0
  0
LINE
  5
C86
330
18
100
AcDbEntity
  8
1
  6
Continuous
100
AcDbLine
 10
211.5765257353008
 20
72.64181385467736
 30
0.0
 11
213.0765257353009
 21
72.64181385467759
 31
0.0
  0
LINE
  5
C87
330
18
100
AcDbEntity
  8
1
  6
Continuous
100
AcDbLine
 10
226.0765257353041
 20
50.46423850627672
 30
0.0
 11
226.0765257353041
 21
46.14181385458045
 31
0.0
  0
LINE
  5
C88
330
18
100
AcDbEntity
  8
1
  6
Continuous
100
AcDbLine
 10
228.5765257353038
 20
45.39181385470118
 30
0.0
 11
228.5765257353038
 21
66.3845996472807
 31
0.0
  0
LINE
  5
C89
330
18
100
AcDbEntity
  8
1
  6
Continuous
100
AcDbLine
 10
226.0765257353041
 20
67.1418138547262
 30
0.0
 11
226.0765257353041
 21
46.64181385472398
 31
0.0
  0
LINE
  5
C8A
330
18
100
AcDbEntity
  8
1
  6
Continuous
100
AcDbLine
 10
226.5765257354534
 20
45.39181385470118
 30
0.0
 11
226.5765257354534
 21
66.3845996472807
 31
0.0
  0
LINE
  5
C8B
330
18
100
AcDbEntity
  8
1
  6
Continuous
100
AcDbLine
 10
226.4765257353041
 20
66.44181385470028
 30
0.0
 11
226.476525735304
 21
46.84181385472407
 31
0.0
  0
ARC
  5
C8C
330
18
100
AcDbEntity
  8
1
  6
Continuous
100
AcDbCircle
 10
226.276525735304
 20
46.84181385472407
 30
0.0
 40
0.2
100
AcDbArc
 50
269.9999999999755
 51
0.0
  0
LINE
  5
C8D
330
18
100
AcDbEntity
  8
1
  6
Continuous
100
AcDbLine
 10
226.2765257353039
 20
46.64181385472409
 30
0.0
 11
226.0765257352883
 21
46.64181385472415
 31
0.0
  0
LINE
  5
C8E
330
18
100
AcDbEntity
  8
1
  6
Continuous
100
AcDbLine
 10
228.5765257353038
 20
45.39181385470118
 30
0.0
 11
226.5765257354534
 21
45.39181385470118
 31
0.0
  0
ARC
  5
C8F
330
18
100
AcDbEntity
  8
1
  6
Continuous
100
AcDbCircle
 10
225.0765257353041
 20
46.14181385458045
 30
0.0
 40
1.0
100
AcDbArc
 50
269.9999999999753
 51
359.9999999999998
  0
LINE
  5
C92
330
18
100
AcDbEntity
  8
1
  6
Continuous
100
AcDbLine
 10
230.5765257353038
 20
51.641813854723
 30
0.0
 11
230.5765257353038
 21
61.6418138547321
 31
0.0
  0
LINE
  5
C93
330
18
100
AcDbEntity
  8
1
  6
Continuous
100
AcDbLine
 10
230.5765257353038
 20
51.641813854723
 30
0.0
 11
228.5765257353038
 21
51.641813854723
 31
0.0
  0
LINE
  5
C94
330
18
100
AcDbEntity
  8
1
  6
Continuous
100
AcDbLine
 10
230.5765257353038
 20
56.05567028341027
 30
0.0
 11
228.5765257353038
 21
56.05567028341027
 31
0.0
  0
LINE
  5
C95
330
18
100
AcDbEntity
  8
1
  6
Continuous
100
AcDbLine
 10
230.5765257353038
 20
57.22795742609441
 30
0.0
 11
228.5765257353038
 21
57.22795742609441
 31
0.0
  0
LINE
  5
C96
330
18
100
AcDbEntity
  8
1
  6
Continuous
100
AcDbLine
 10
226.5765257354534
 20
49.64181385471192
 30
0.0
 11
226.4765257353041
 21
49.64181385471204
 31
0.0
  0
LINE
  5
C97
330
18
100
AcDbEntity
  8
1
  6
Continuous
100
AcDbLine
 10
230.5765257353038
 20
61.6418138547321
 30
0.0
 11
228.5765257353038
 21
61.6418138547321
 31
0.0
  0
LINE
  5
C98
330
18
100
AcDbEntity
  8
1
  6
Continuous
100
AcDbLine
 10
226.5765257354534
 20
63.64181385471193
 30
0.0
 11
226.4765257353041
 21
63.64181385471204
 31
0.0
  0
ARC
  5
C99
330
18
100
AcDbEntity
  8
1
  6
Continuous
100
AcDbCircle
 10
226.276525735304
 20
66.44181385470028
 30
0.0
 40
0.2
100
AcDbArc
 50
0.0
 51
89.99999999993486
  0
ARC
  5
C9A
330
18
100
AcDbEntity
  8
1
  6
Continuous
100
AcDbCircle
 10
225.0765257353041
 20
67.1418138547262
 30
0.0
 40
1.0
100
AcDbArc
 50
359.9999999999998
 51
89.99999999988558
  0
LINE
  5
C9B
330
18
100
AcDbEntity
  8
1
  6
Continuous
100
AcDbLine
 10
228.5765257353038
 20
66.3845996472807
 30
0.0
 11
226.5765257354534
 21
66.3845996472807
 31
0.0
  0
LINE
  5
C9C
330
18
100
AcDbEntity
  8
1
  6
Continuous
100
AcDbLine
 10
226.2765257353042
 20
66.64181385470027
 30
0.0
 11
226.0765257353041
 21
66.6418138547005
 31
0.0
  0
ARC
  5
CA1
330
18
100
AcDbEntity
  8
1
  6
Continuous
100
AcDbCircle
 10
252.2385044494086
 20
56.64181385471278
 30
0.0
 40
9.0
100
AcDbArc
 50
344.1191499917205
 51
15.88085000827938
  0
LINE
  5
CA2
330
18
100
AcDbEntity
  8
4
  6
CENTER
100
AcDbLine
 10
263.6385044494086
 20
56.64181385471278
 30
0.0
 11
250.0915506912546
 21
56.64181385471278
 31
0.0
  0
ARC
  5
CA3
330
18
100
AcDbEntity
  8
1
  6
Continuous
100
AcDbCircle
 10
259.6446171736175
 20
58.74882460829565
 30
0.0
 40
1.3
100
AcDbArc
 50
15.88085000827938
 51
85.00000000000019
  0
LINE
  5
CA4
330
18
100
AcDbEntity
  8
1
  6
Continuous
100
AcDbLine
 10
258.6385044494087
 20
60.44181385471285
 30
0.0
 11
258.6385044494087
 21
52.84181385471278
 31
0.0
  0
LINE
  5
CA5
330
18
100
AcDbEntity
  8
1
  6
Continuous
100
AcDbLine
 10
257.6385044494093
 20
50.14181385471171
 30
0.0
 11
257.6385044494081
 21
63.14181385471375
 31
0.0
  0
LINE
  5
CA6
330
18
100
AcDbEntity
  8
1
  6
Continuous
100
AcDbLine
 10
252.6385044494093
 20
49.64181385471204
 30
0.0
 11
252.6385044494081
 21
63.64181385471346
 31
0.0
  0
LINE
  5
CA7
330
18
100
AcDbEntity
  8
1
  6
Continuous
100
AcDbLine
 10
252.6385044494081
 20
49.64181385471204
 30
0.0
 11
257.1385044494082
 21
49.64181385471182
 31
0.0
  0
ARC
  5
CA8
330
18
100
AcDbEntity
  8
1
  6
Continuous
100
AcDbCircle
 10
259.6446171736313
 20
54.53480310112661
 30
0.0
 40
1.3
100
AcDbArc
 50
274.9999999999997
 51
344.1191499917205
  0
LINE
  5
CA9
330
18
100
AcDbEntity
  8
1
  6
Continuous
100
AcDbLine
 10
257.6385044494086
 20
55.64181385471282
 30
0.0
 11
258.6385044494087
 21
56.64181385471278
 31
0.0
  0
LINE
  5
CAA
330
18
100
AcDbEntity
  8
1
  6
Continuous
100
AcDbLine
 10
258.6385044494087
 20
52.84181385471278
 30
0.0
 11
257.6385044494086
 21
52.84181385471278
 31
0.0
  0
ARC
  5
CAB
330
18
100
AcDbEntity
  8
1
  6
Continuous
100
AcDbCircle
 10
257.1385044494079
 20
50.14181385471175
 30
0.0
 40
0.5
100
AcDbArc
 50
269.999999999995
 51
359.9999999999951
  0
LINE
  5
CAC
330
18
100
AcDbEntity
  8
1
  6
Continuous
100
AcDbLine
 10
258.6385044494086
 20
53.14181385471278
 30
0.0
 11
259.757919639243
 21
53.23974999360196
 31
0.0
  0
LINE
  5
CAD
330
18
100
AcDbEntity
  8
1
  6
Continuous
100
AcDbLine
 10
257.6385044494086
 20
56.64181385471278
 30
0.0
 11
258.6385044494087
 21
57.64181385471271
 31
0.0
  0
LINE
  5
CAE
330
18
100
AcDbEntity
  8
1
  6
Continuous
100
AcDbLine
 10
252.6385044494081
 20
63.64181385471352
 30
0.0
 11
257.1385044494082
 21
63.64181385471376
 31
0.0
  0
LINE
  5
CAF
330
18
100
AcDbEntity
  8
1
  6
Continuous
100
AcDbLine
 10
258.6385044494087
 20
60.44181385471285
 30
0.0
 11
257.6385044494086
 21
60.44181385471285
 31
0.0
  0
ARC
  5
CB0
330
18
100
AcDbEntity
  8
1
  6
Continuous
100
AcDbCircle
 10
257.1385044494079
 20
63.14181385471379
 30
0.0
 40
0.5
100
AcDbArc
 50
0.0000000000048853
 51
90.00000000000486
  0
LINE
  5
CB1
330
18
100
AcDbEntity
  8
1
  6
Continuous
100
AcDbLine
 10
258.6385044494087
 20
60.14181385471278
 30
0.0
 11
259.7579196392095
 21
60.04387771582639
 31
0.0
  0
LINE
  5
CB5
330
18
100
AcDbEntity
  8
1
  6
Continuous
100
AcDbLine
 10
217.5290074317583
 20
233.1984957753222
 30
0.0
 11
225.0765257353043
 21
233.1984957753236
 31
0.0
  0
LINE
  5
CB6
330
18
100
AcDbEntity
  8
1
  6
Continuous
100
AcDbLine
 10
221.6765257353042
 20
166.198495775336
 30
0.0
 11
221.6765257353042
 21
147.0749299874188
 31
0.0
  0
LINE
  5
CBA
330
18
100
AcDbEntity
  8
1
  6
Continuous
100
AcDbLine
 10
217.0765257353041
 20
133.1984957753242
 30
0.0
 11
217.0765257353041
 21
139.1984957753242
 31
0.0
  0
LINE
  5
CBB
330
18
100
AcDbEntity
  8
1
  6
Continuous
100
AcDbLine
 10
216.5765257353041
 20
139.6984957753242
 30
0.0
 11
216.5765257353041
 21
132.6984957753241
 31
0.0
  0
ARC
  5
CBC
330
18
100
AcDbEntity
  8
1
  6
Continuous
100
AcDbCircle
 10
216.0765257353038
 20
135.3725695385552
 30
0.0
 40
10.0
100
AcDbArc
 50
175.2070596831295
 51
180.0
  0
ARC
  5
CBD
330
18
100
AcDbEntity
  8
1
  6
Continuous
100
AcDbCircle
 10
233.744102798251
 20
152.2765920390676
 30
0.0
 40
32.0
100
AcDbArc
 50
210.6559624057083
 51
225.4139233241449
  0
ARC
  5
CBE
330
18
100
AcDbEntity
  8
1
  6
Continuous
100
AcDbCircle
 10
205.0765257353037
 20
125.1984957753222
 30
0.0
 40
1.0
100
AcDbArc
 50
270.0
 51
0.0
  0
ARC
  5
CBF
330
18
100
AcDbEntity
  8
1
  6
Continuous
100
AcDbCircle
 10
204.0765257353037
 20
125.1984957753222
 30
0.0
 40
1.0
100
AcDbArc
 50
180.0
 51
270.0
  0
LINE
  5
CC0
330
18
100
AcDbEntity
  8
1
  6
Continuous
100
AcDbLine
 10
204.0765257353037
 20
124.1984957753222
 30
0.0
 11
205.0765257353037
 21
124.1984957753222
 31
0.0
  0
LINE
  5
CC1
330
18
100
AcDbEntity
  8
1
  6
Continuous
100
AcDbLine
 10
206.0765257353037
 20
125.1984957753222
 30
0.0
 11
206.0765257353037
 21
135.3725695385552
 31
0.0
  0
LINE
  5
CC2
330
18
100
AcDbEntity
  8
1
  6
Continuous
100
AcDbLine
 10
216.5765257353041
 20
132.6984957753241
 30
0.0
 11
213.0765257353041
 21
132.6984957753237
 31
0.0
  0
LINE
  5
CC3
330
18
100
AcDbEntity
  8
1
  6
Continuous
100
AcDbLine
 10
213.0765257353041
 20
129.1984957753239
 30
0.0
 11
211.9827226634993
 21
129.1984957753239
 31
0.0
  0
ARC
  5
CC4
330
18
100
AcDbEntity
  8
1
  6
Continuous
100
AcDbCircle
 10
211.9827226634993
 20
130.1984957753305
 30
0.0
 40
1.0
100
AcDbArc
 50
225.4139233241449
 51
270.0
  0
LINE
  5
CC5
330
18
100
AcDbEntity
  8
1
  6
Continuous
100
AcDbLine
 10
217.076525735304
 20
133.1984957753242
 30
0.0
 11
216.5765257353041
 21
132.6984957753241
 31
0.0
  0
ARC
  5
CC6
330
18
100
AcDbEntity
  8
1
  6
Continuous
100
AcDbCircle
 10
207.0765257353039
 20
136.4702536398118
 30
0.0
 40
1.0
100
AcDbArc
 50
180.0
 51
210.6559624057083
  0
ARC
  5
CC7
330
18
100
AcDbEntity
  8
1
  6
Continuous
100
AcDbCircle
 10
218.6765257353042
 20
147.0749299874188
 30
0.0
 40
3.0
100
AcDbArc
 50
325.2280559680503
 51
0.0
  0
LINE
  5
CC8
330
18
100
AcDbEntity
  8
4
  6
CENTER
100
AcDbLine
 10
220.1207660390942
 20
136.1984957753242
 30
0.0
 11
208.9235785856035
 21
136.1984957753238
 31
0.0
  0
LINE
  5
CC9
330
18
100
AcDbEntity
  8
1
  6
Continuous
100
AcDbLine
 10
216.5765257353041
 20
139.6984957753242
 30
0.0
 11
213.0765257353041
 21
139.6984957753238
 31
0.0
  0
ARC
  5
CCA
330
18
100
AcDbEntity
  8
1
  6
Continuous
100
AcDbCircle
 10
209.8765257353042
 20
245.6984957753328
 30
0.0
 40
103.4999999999999
100
AcDbArc
 50
271.7717460639964
 51
273.2758289597979
  0
ARC
  5
CCB
330
18
100
AcDbEntity
  8
1
  6
Continuous
100
AcDbCircle
 10
214.0765257353042
 20
143.2845807051629
 30
0.0
 40
1.0
100
AcDbArc
 50
272.3483869720769
 51
0.0
  0
ARC
  5
CCC
330
18
100
AcDbEntity
  8
1
  6
Continuous
100
AcDbCircle
 10
215.3908114495899
 20
149.356175619229
 30
0.0
 40
7.0
100
AcDbArc
 50
311.0823331404507
 51
325.2280559680507
  0
LINE
  5
CCD
330
18
100
AcDbEntity
  8
1
  6
Continuous
100
AcDbLine
 10
216.5765257353041
 20
139.6984957753242
 30
0.0
 11
217.076525735304
 21
139.1984957753243
 31
0.0
  0
ARC
  5
CCE
330
18
100
AcDbEntity
  8
1
  6
Continuous
100
AcDbCircle
 10
215.3908114495899
 20
149.356175619229
 30
0.0
 40
7.0
100
AcDbArc
 50
273.2758289597979
 51
311.0823331404507
  0
LINE
  5
CCF
330
18
100
AcDbEntity
  8
5
  6
PHANTOM
100
AcDbLine
 10
203.3049528600452
 20
236.2984957753147
 30
0.0
 11
159.3166228372128
 21
192.3101657524824
 31
0.0
  0
LINE
  5
CD0
330
18
100
AcDbEntity
  8
5
  6
PHANTOM
100
AcDbLine
 10
203.7049528600456
 20
238.1127093376883
 30
0.0
 11
158.6112840992791
 21
193.0190405769218
 31
0.0
  0
ARC
  5
CD1
330
18
100
AcDbEntity
  8
5
  6
PHANTOM
100
AcDbCircle
 10
136.2483771959575
 20
163.30222314926
 30
0.0
 40
10.0
100
AcDbArc
 50
48.21647499751075
 51
134.9999999999997
  0
LINE
  5
CD2
330
18
100
AcDbEntity
  8
5
  6
PHANTOM
100
AcDbLine
 10
121.9831528338179
 20
163.1791344108514
 30
0.0
 11
129.1773093840921
 21
170.3732909611255
 31
0.0
  0
LINE
  5
CD3
330
18
100
AcDbEntity
  8
5
  6
PHANTOM
100
AcDbLine
 10
119.8618324902582
 20
163.8862411920379
 30
0.0
 11
120.5689392714448
 21
163.1791344108514
 31
0.0
  0
ARC
  5
CD4
330
18
100
AcDbEntity
  8
5
  6
PHANTOM
100
AcDbCircle
 10
120.5689392714448
 20
164.5933479732245
 30
0.0
 40
1.0
100
AcDbArc
 50
134.9999999999997
 51
225.0000000000003
  0
ARC
  5
CD5
330
18
100
AcDbEntity
  8
5
  6
PHANTOM
100
AcDbCircle
 10
121.2760460526313
 20
163.8862411920379
 30
0.0
 40
1.0
100
AcDbArc
 50
225.0000000000003
 51
315.0
  0
LINE
  5
CD6
330
18
100
AcDbEntity
  8
5
  6
PHANTOM
100
AcDbLine
 10
159.1769695242284
 20
181.1396466529878
 30
0.0
 11
148.6937283939283
 21
170.6564055226878
 31
0.0
  0
ARC
  5
CD7
330
18
100
AcDbEntity
  8
5
  6
PHANTOM
100
AcDbCircle
 10
145.8653012691821
 20
173.484832647434
 30
0.0
 40
4.0
100
AcDbArc
 50
233.6269265586793
 51
315.0
  0
ARC
  5
CD8
330
18
100
AcDbEntity
  8
5
  6
PHANTOM
100
AcDbCircle
 10
145.8653012691821
 20
173.484832647434
 30
0.0
 40
4.0
100
AcDbArc
 50
228.4457608888005
 51
233.6269265586793
  0
ARC
  5
CD9
330
18
100
AcDbEntity
  8
5
  6
PHANTOM
100
AcDbCircle
 10
209.8765257353039
 20
245.6984957753197
 30
0.0
 40
100.5
100
AcDbArc
 50
228.216474997511
 51
228.4457608888005
  0
ARC
  5
CDA
330
18
100
AcDbEntity
  8
5
  6
PHANTOM
100
AcDbCircle
 10
163.5592635243321
 20
188.0675250653631
 30
0.0
 40
6.0
100
AcDbArc
 50
134.9999999999997
 51
223.5674562624328
  0
ARC
  5
CDB
330
18
100
AcDbEntity
  8
5
  6
PHANTOM
100
AcDbCircle
 10
162.8539247863984
 20
188.7763998898025
 30
0.0
 40
6.0
100
AcDbArc
 50
134.9999999999997
 51
225.0000000000003
  0
ARC
  5
CDC
330
18
100
AcDbEntity
  8
5
  6
PHANTOM
100
AcDbCircle
 10
157.7627559618553
 20
182.553860215361
 30
0.0
 40
2.0
100
AcDbArc
 50
315.0
 51
43.56745626243312
  0
LINE
  5
CDD
330
18
100
AcDbEntity
  8
5
  6
PHANTOM
100
AcDbLine
 10
159.1769695242284
 20
183.9680737777342
 30
0.0
 11
158.6112840992791
 21
184.5337592026834
 31
0.0
  0
ARC
  5
CDE
330
18
100
AcDbEntity
  8
5
  6
PHANTOM
100
AcDbCircle
 10
149.1356879654246
 20
239.3484957754064
 30
0.0
 40
3.0
100
AcDbArc
 50
270.0
 51
345.167152079193
  0
ARC
  5
CDF
330
18
100
AcDbEntity
  8
1
  6
Continuous
100
AcDbCircle
 10
218.6765257353042
 20
166.198495775336
 30
0.0
 40
3.0
100
AcDbArc
 50
0.0
 51
90.0
  0
ARC
  5
CE0
330
18
100
AcDbEntity
  8
1
  6
Continuous
100
AcDbCircle
 10
218.0765257353043
 20
172.198495775336
 30
0.0
 40
2.999999999999971
100
AcDbArc
 50
180.0
 51
270.0
  0
LINE
  5
CE1
330
18
100
AcDbEntity
  8
1
  6
Continuous
100
AcDbLine
 10
218.6765257353042
 20
169.198495775336
 30
0.0
 11
218.0765257353043
 21
169.198495775336
 31
0.0
  0
LINE
  5
CE2
330
18
100
AcDbEntity
  8
5
  6
PHANTOM
100
AcDbLine
 10
205.3765257353037
 20
237.4730778528101
 30
0.0
 11
205.3765257353037
 21
236.2984957753163
 31
0.0
  0
LINE
  5
CE3
330
18
100
AcDbEntity
  8
5
  6
PHANTOM
100
AcDbLine
 10
206.0765257353039
 20
237.4730778528098
 30
0.0
 11
205.3765257353686
 21
237.4730778528099
 31
0.0
  0
ARC
  5
CE4
330
18
100
AcDbEntity
  8
5
  6
PHANTOM
100
AcDbCircle
 10
200.8765257352993
 20
240.9411364624345
 30
0.0
 40
4.0
100
AcDbArc
 50
315.0
 51
359.9999999999332
  0
LINE
  5
CE5
330
18
100
AcDbEntity
  8
5
  6
PHANTOM
100
AcDbLine
 10
205.3765257353037
 20
236.2984957753163
 30
0.0
 11
201.890739297671
 21
236.2984957753137
 31
0.0
  0
LINE
  5
CE6
330
18
100
AcDbEntity
  8
1
  6
Continuous
100
AcDbLine
 10
219.2994215004508
 20
234.9689098440147
 30
0.0
 11
215.0765257353051
 21
230.7460140788689
 31
0.0
  0
LINE
  5
CE7
330
18
100
AcDbEntity
  8
1
  6
Continuous
100
AcDbLine
 10
219.2994215004508
 20
234.9689098440147
 30
0.0
 11
215.0765257353051
 21
230.7460140788689
 31
0.0
  0
ARC
  5
CE8
330
18
100
AcDbEntity
  8
1
  6
Continuous
100
AcDbCircle
 10
218.5923147192642
 20
235.6760166252012
 30
0.0
 40
1.0
100
AcDbArc
 50
315.0
 51
0.0
  0
LINE
  5
CEB
330
18
100
AcDbEntity
  8
1
  6
Continuous
100
AcDbLine
 10
257.6385044494786
 20
135.1984957753194
 30
0.0
 11
258.6385044494786
 21
136.1984957753194
 31
0.0
  0
ARC
  5
CEC
330
18
100
AcDbEntity
  8
1
  6
Continuous
100
AcDbCircle
 10
252.2385044494786
 20
136.1984957753194
 30
0.0
 40
9.0
100
AcDbArc
 50
344.1191499917205
 51
15.88085000827938
  0
LINE
  5
CED
330
18
100
AcDbEntity
  8
1
  6
Continuous
100
AcDbLine
 10
258.6385044494786
 20
139.9984957753193
 30
0.0
 11
258.6385044494786
 21
132.3984957753194
 31
0.0
  0
LINE
  5
CEE
330
18
100
AcDbEntity
  8
1
  6
Continuous
100
AcDbLine
 10
257.638504449479
 20
140.6984957753224
 30
0.0
 11
257.638504449478
 21
130.6984957753225
 31
0.0
  0
LINE
  5
CEF
330
18
100
AcDbEntity
  8
1
  6
Continuous
100
AcDbLine
 10
252.6385044494789
 20
141.1984957753227
 30
0.0
 11
252.638504449478
 21
130.1984957753227
 31
0.0
  0
LINE
  5
CF2
330
18
100
AcDbEntity
  8
1
  6
Continuous
100
AcDbLine
 10
252.638504449478
 20
130.1984957753227
 30
0.0
 11
257.1385044494781
 21
130.1984957753224
 31
0.0
  0
LINE
  5
CF3
330
18
100
AcDbEntity
  8
1
  6
Continuous
100
AcDbLine
 10
258.6385044494786
 20
132.6984957753194
 30
0.0
 11
259.7579196393131
 21
132.7964319142087
 31
0.0
  0
ARC
  5
CF4
330
18
100
AcDbEntity
  8
1
  6
Continuous
100
AcDbCircle
 10
259.6446171737014
 20
134.0914850217332
 30
0.0
 40
1.3
100
AcDbArc
 50
274.9999999999997
 51
344.1191499917205
  0
LINE
  5
CF5
330
18
100
AcDbEntity
  8
1
  6
Continuous
100
AcDbLine
 10
258.6385044494786
 20
132.3984957753194
 30
0.0
 11
257.6385044494786
 21
132.3984957753194
 31
0.0
  0
ARC
  5
CF6
330
18
100
AcDbEntity
  8
1
  6
Continuous
100
AcDbCircle
 10
257.1385044494778
 20
130.6984957753225
 30
0.0
 40
0.5
100
AcDbArc
 50
269.999999999995
 51
359.9999999999951
  0
LINE
  5
CF7
330
18
100
AcDbEntity
  8
4
  6
CENTER
100
AcDbLine
 10
263.6385044494786
 20
136.1984957753194
 30
0.0
 11
249.7701799852883
 21
136.1984957753194
 31
0.0
  0
LINE
  5
CF8
330
18
100
AcDbEntity
  8
1
  6
Continuous
100
AcDbLine
 10
252.6385044494789
 20
141.1984957753228
 30
0.0
 11
257.1385044494789
 21
141.1984957753226
 31
0.0
  0
LINE
  5
CF9
330
18
100
AcDbEntity
  8
1
  6
Continuous
100
AcDbLine
 10
257.6385044494786
 20
136.1984957753194
 30
0.0
 11
258.6385044494786
 21
137.1984957753193
 31
0.0
  0
LINE
  5
CFA
330
18
100
AcDbEntity
  8
1
  6
Continuous
100
AcDbLine
 10
258.6385044494786
 20
139.6984957753194
 30
0.0
 11
259.7579196392795
 21
139.600559636433
 31
0.0
  0
ARC
  5
CFB
330
18
100
AcDbEntity
  8
1
  6
Continuous
100
AcDbCircle
 10
259.6446171736874
 20
138.3055065289021
 30
0.0
 40
1.3
100
AcDbArc
 50
15.88085000827938
 51
85.00000000000019
  0
LINE
  5
CFC
330
18
100
AcDbEntity
  8
1
  6
Continuous
100
AcDbLine
 10
258.6385044494786
 20
139.9984957753193
 30
0.0
 11
257.6385044494786
 21
139.9984957753193
 31
0.0
  0
ARC
  5
CFD
330
18
100
AcDbEntity
  8
1
  6
Continuous
100
AcDbCircle
 10
257.1385044494789
 20
140.6984957753224
 30
0.0
 40
0.5
100
AcDbArc
 50
359.9999999999951
 51
89.99999999999511
  0
LINE
  5
CFE
330
18
100
AcDbEntity
  8
1
  6
Continuous
100
AcDbLine
 10
230.5765257353012
 20
240.6984957753241
 30
0.0
 11
228.576525735304
 21
240.6984957753251
 31
0.0
  0
LINE
  5
CFF
330
18
100
AcDbEntity
  8
1
  6
Continuous
100
AcDbLine
 10
226.4765257353039
 20
238.6984957753233
 30
0.0
 11
226.5765257353026
 21
238.6984957753235
 31
0.0
  0
LINE
  5
D00
330
18
100
AcDbEntity
  8
1
  6
Continuous
100
AcDbLine
 10
228.5765257353042
 20
234.4484957752115
 30
0.0
 11
226.5765257354534
 21
234.4484957752046
 31
0.0
  0
LINE
  5
D01
330
18
100
AcDbEntity
  8
1
  6
Continuous
100
AcDbLine
 10
228.5765257353082
 20
241.5484957753125
 30
0.0
 11
226.5765257352247
 21
241.548495775312
 31
0.0
  0
LINE
  5
D02
330
18
100
AcDbEntity
  8
1
  6
Continuous
100
AcDbLine
 10
228.5765257353087
 20
240.0734957753152
 30
0.0
 11
226.5765257352251
 21
240.0734957753147
 31
0.0
  0
LINE
  5
D03
330
18
100
AcDbEntity
  8
1
  6
Continuous
100
AcDbLine
 10
226.0765257353042
 20
235.6984957753228
 30
0.0
 11
226.2765257353041
 21
235.6984957753228
 31
0.0
  0
ARC
  5
D04
330
18
100
AcDbEntity
  8
1
  6
Continuous
100
AcDbCircle
 10
225.0765257353041
 20
234.1984957753237
 30
0.0
 40
1.0
100
AcDbArc
 50
270.0
 51
0.0
  0
ARC
  5
D05
330
18
100
AcDbEntity
  8
1
  6
Continuous
100
AcDbCircle
 10
226.2202757353041
 20
235.9484957753228
 30
0.0
 40
0.2562500000000227
100
AcDbArc
 50
282.6803834918263
 51
0.0
  0
LINE
  5
D07
330
18
100
AcDbEntity
  8
1
  6
Continuous
100
AcDbLine
 10
268.9385044494089
 20
239.6984957753193
 30
0.0
 11
268.1385044494089
 21
239.698495775319
 31
0.0
  0
LINE
  5
D08
330
18
100
AcDbEntity
  8
1
  6
Continuous
100
AcDbLine
 10
270.2385044494089
 20
241.1984957753197
 30
0.0
 11
271.7000029175454
 21
241.3263603230422
 31
0.0
  0
LINE
  5
D09
330
18
100
AcDbEntity
  8
1
  6
Continuous
100
AcDbLine
 10
270.2385044494089
 20
241.0984957753198
 30
0.0
 11
268.9385044494089
 21
241.0984957753198
 31
0.0
  0
LINE
  5
D0A
330
18
100
AcDbEntity
  8
5
  6
PHANTOM
100
AcDbLine
 10
31.46876842651716
 20
255.1484957754063
 30
0.0
 11
149.1356879654235
 21
255.1484957754063
 31
0.0
  0
LINE
  5
D0B
330
18
100
AcDbEntity
  8
4
  6
CENTER
100
AcDbLine
 10
17.01449294711801
 20
245.698495775297
 30
0.0
 11
157.8995546258683
 21
245.6984957752968
 31
0.0
  0
ARC
  5
D0C
330
18
100
AcDbEntity
  8
1
  6
Continuous
100
AcDbCircle
 10
31.41839654198956
 20
244.6520132711778
 30
0.0
 40
10.21051532818227
100
AcDbArc
 50
52.63665458699405
 51
127.3226234462155
  0
LINE
  5
D0D
330
18
100
AcDbEntity
  8
1
  6
Continuous
100
AcDbLine
 10
46.41876842647672
 20
271.1984957752954
 30
0.0
 11
16.41876842647673
 21
271.1984957752793
 31
0.0
  0
ARC
  5
D0E
330
18
100
AcDbEntity
  8
1
  6
Continuous
100
AcDbCircle
 10
31.41876842647064
 20
285.984210060932
 30
0.0
 40
21.78571428566616
100
AcDbArc
 50
226.4619878986805
 51
313.5652350239563
  0
ARC
  5
D10
330
18
100
AcDbEntity
  8
1
  6
Continuous
100
AcDbCircle
 10
31.41876842651527
 20
245.6984957753178
 30
0.0
 40
9.4
100
AcDbArc
 50
131.1947459530567
 51
180.0
  0
ARC
  5
D11
330
18
100
AcDbEntity
  8
5
  6
PHANTOM
100
AcDbCircle
 10
31.41876842649458
 20
245.698495775297
 30
0.0
 40
9.4
100
AcDbArc
 50
90.0
 51
138.7645320801528
  0
ARC
  5
D12
330
18
100
AcDbEntity
  8
1
  6
Continuous
100
AcDbCircle
 10
16.41876842647735
 20
270.1984957752793
 30
0.0
 40
1.0
100
AcDbArc
 50
90.0
 51
180.0
  0
ARC
  5
D13
330
18
100
AcDbEntity
  8
1
  6
Continuous
100
AcDbCircle
 10
31.41876842651527
 20
245.6984957753178
 30
0.0
 40
9.4
100
AcDbArc
 50
0.0
 51
48.76453208015315
  0
ARC
  5
D14
330
18
100
AcDbEntity
  8
1
  6
Continuous
100
AcDbCircle
 10
46.41876842647731
 20
270.1984957752953
 30
0.0
 40
1.0
100
AcDbArc
 50
0.0
 51
90.0
  0
LINE
  5
D15
330
18
100
AcDbEntity
  8
4
  6
CENTER
100
AcDbLine
 10
11.05870758223835
 20
353.6748505597743
 30
0.0
 11
66.47169074410886
 21
353.6748505597736
 31
0.0
  0
LINE
  5
D16
330
18
100
AcDbEntity
  8
1
  6
Continuous
100
AcDbLine
 10
35.98834006526209
 20
358.1748505597742
 30
0.0
 11
42.68834006526218
 21
358.1748505597742
 31
0.0
  0
LINE
  5
D17
330
18
100
AcDbEntity
  8
1
  6
Continuous
100
AcDbLine
 10
35.98834006526209
 20
349.1748505597743
 30
0.0
 11
42.68834006526218
 21
349.1748505597743
 31
0.0
  0
LINE
  5
D18
330
18
100
AcDbEntity
  8
1
  6
Continuous
100
AcDbLine
 10
15.98834006526244
 20
357.5692992843106
 30
0.0
 11
15.98834006526243
 21
349.7804018352383
 31
0.0
  0
LINE
  5
D19
330
18
100
AcDbEntity
  8
1
  6
Continuous
100
AcDbLine
 10
25.92167339859554
 20
342.8748505597742
 30
0.0
 11
35.98834006526232
 21
350.4248505597743
 31
0.0
  0
ARC
  5
D1A
330
18
100
AcDbEntity
  8
1
  6
Continuous
100
AcDbCircle
 10
23.19612758496077
 20
350.8089289517471
 30
0.0
 40
0.7113053508261391
100
AcDbArc
 50
122.0053832080828
 51
237.9946167919171
  0
ARC
  5
D1B
330
18
100
AcDbEntity
  8
1
  6
Continuous
100
AcDbCircle
 10
24.77351688330851
 20
350.8089289517471
 30
0.0
 40
0.7113053508261391
100
AcDbArc
 50
302.0053832080829
 51
57.99461679191704
  0
LINE
  5
D1C
330
18
100
AcDbEntity
  8
1
  6
Continuous
100
AcDbLine
 10
14.98834006526243
 20
349.7804018352383
 30
0.0
 11
14.98834006526243
 21
357.5692992843102
 31
0.0
  0
LINE
  5
D1D
330
18
100
AcDbEntity
  8
1
  6
Continuous
100
AcDbLine
 10
26.98834006526209
 20
348.674850559774
 30
0.0
 11
26.98834006526209
 21
358.6748505597741
 31
0.0
  0
LINE
  5
D1E
330
18
100
AcDbEntity
  8
1
  6
Continuous
100
AcDbLine
 10
29.98834006526209
 20
358.6748505597741
 30
0.0
 11
29.98834006526209
 21
348.6748505597741
 31
0.0
  0
LINE
  5
D1F
330
18
100
AcDbEntity
  8
1
  6
Continuous
100
AcDbLine
 10
20.9883400652622
 20
357.1748505597741
 30
0.0
 11
20.9883400652622
 21
350.1748505597743
 31
0.0
  0
LINE
  5
D20
330
18
100
AcDbEntity
  8
1
  6
Continuous
100
AcDbLine
 10
21.98834006526215
 20
345.6748505597742
 30
0.0
 11
21.98834006526215
 21
361.6748505597741
 31
0.0
  0
LINE
  5
D21
330
18
100
AcDbEntity
  8
1
  6
Continuous
100
AcDbLine
 10
25.98834006526209
 20
345.6748505597742
 30
0.0
 11
25.98834006526209
 21
361.6748505597741
 31
0.0
  0
LINE
  5
D22
330
18
100
AcDbEntity
  8
1
  6
Continuous
100
AcDbLine
 10
16.98834006526243
 20
357.1748505597743
 30
0.0
 11
16.98834006526243
 21
350.1748505597741
 31
0.0
  0
LINE
  5
D23
330
18
100
AcDbEntity
  8
1
  6
Continuous
100
AcDbLine
 10
21.05870758223809
 20
342.6748505597744
 30
0.0
 11
25.32167339859552
 21
342.6748505597744
 31
0.0
  0
LINE
  5
D24
330
18
100
AcDbEntity
  8
1
  6
Continuous
100
AcDbLine
 10
21.05870758223807
 20
341.6748505597743
 30
0.0
 11
25.32167339859552
 21
341.6748505597743
 31
0.0
  0
ARC
  5
D25
330
18
100
AcDbEntity
  8
1
  6
Continuous
100
AcDbCircle
 10
16.98834006526232
 20
349.7804018352383
 30
0.0
 40
1.0
100
AcDbArc
 50
180.0
 51
213.6900675259786
  0
ARC
  5
D26
330
18
100
AcDbEntity
  8
1
  6
Continuous
100
AcDbCircle
 10
21.05870758223829
 20
343.6748505597742
 30
0.0
 40
1.0
100
AcDbArc
 50
213.690067525982
 51
270.0
  0
LINE
  5
D27
330
18
100
AcDbEntity
  8
1
  6
Continuous
100
AcDbLine
 10
16.1562897709245
 20
349.2257016390132
 30
0.0
 11
20.2266572879005
 21
343.1201503635492
 31
0.0
  0
ARC
  5
D28
330
18
100
AcDbEntity
  8
1
  6
Continuous
100
AcDbCircle
 10
16.98834006526232
 20
349.7804018352383
 30
0.0
 40
2.0
100
AcDbArc
 50
180.0
 51
213.6900675259794
  0
LINE
  5
D29
330
18
100
AcDbEntity
  8
1
  6
Continuous
100
AcDbLine
 10
15.32423947658662
 20
348.6710014427877
 30
0.0
 11
19.39460699356254
 21
342.5654501673236
 31
0.0
  0
ARC
  5
D2A
330
18
100
AcDbEntity
  8
1
  6
Continuous
100
AcDbCircle
 10
20.48834006526232
 20
350.1748505597741
 30
0.0
 40
0.5
100
AcDbArc
 50
270.0
 51
0.0
  0
LINE
  5
D2B
330
18
100
AcDbEntity
  8
1
  6
Continuous
100
AcDbLine
 10
18.4883400652622
 20
349.6748505597743
 30
0.0
 11
19.9883400652622
 21
349.6748505597743
 31
0.0
  0
ARC
  5
D2C
330
18
100
AcDbEntity
  8
1
  6
Continuous
100
AcDbCircle
 10
17.48834006526232
 20
350.1748505597741
 30
0.0
 40
0.5
100
AcDbArc
 50
180.0
 51
270.0
  0
ARC
  5
D2D
330
18
100
AcDbEntity
  8
1
  6
Continuous
100
AcDbCircle
 10
21.05870758223829
 20
343.6748505597741
 30
0.0
 40
2.0
100
AcDbArc
 50
213.6900675259794
 51
270.0
  0
LINE
  5
D2E
330
18
100
AcDbEntity
  8
1
  6
Continuous
100
AcDbLine
 10
17.48834006526232
 20
349.6748505597744
 30
0.0
 11
20.48834006526232
 21
349.6748505597744
 31
0.0
  0
LINE
  5
D2F
330
18
100
AcDbEntity
  8
1
  6
Continuous
100
AcDbLine
 10
26.98834006526209
 20
348.674850559774
 30
0.0
 11
29.98834006526209
 21
348.674850559774
 31
0.0
  0
LINE
  5
D30
330
18
100
AcDbEntity
  8
1
  6
Continuous
100
AcDbLine
 10
26.52167339859551
 20
342.0748505597742
 30
0.0
 11
35.9883400652622
 21
349.1748505597743
 31
0.0
  0
ARC
  5
D31
330
18
100
AcDbEntity
  8
1
  6
Continuous
100
AcDbCircle
 10
25.32167339859552
 20
343.6748505597742
 30
0.0
 40
1.0
100
AcDbArc
 50
270.0
 51
306.8698976458446
  0
ARC
  5
D32
330
18
100
AcDbEntity
  8
1
  6
Continuous
100
AcDbCircle
 10
23.98482223413464
 20
347.3629503648913
 30
0.0
 40
2.199411438678189
100
AcDbArc
 50
57.99461679191704
 51
122.0053832080828
  0
ARC
  5
D33
330
18
100
AcDbEntity
  8
1
  6
Continuous
100
AcDbCircle
 10
23.98482223413464
 20
352.0708403904253
 30
0.0
 40
2.199411438678189
100
AcDbArc
 50
237.9946167919171
 51
302.0053832080829
  0
ARC
  5
D34
330
18
100
AcDbEntity
  8
1
  6
Continuous
100
AcDbCircle
 10
23.98482223413464
 20
349.8867732422477
 30
0.0
 40
2.199411438678189
100
AcDbArc
 50
237.9946167919171
 51
302.0053832080829
  0
LINE
  5
D35
330
18
100
AcDbEntity
  8
1
  6
Continuous
100
AcDbLine
 10
22.48482223413464
 20
346.9326831632629
 30
0.0
 11
25.48482223413464
 21
346.9326831632629
 31
0.0
  0
LINE
  5
D36
330
18
100
AcDbEntity
  8
1
  6
Continuous
100
AcDbLine
 10
22.48482223413464
 20
347.8326831632629
 30
0.0
 11
22.48482223413464
 21
346.0326831632628
 31
0.0
  0
ARC
  5
D37
330
18
100
AcDbEntity
  8
1
  6
Continuous
100
AcDbCircle
 10
23.19612758496077
 20
348.6248618035695
 30
0.0
 40
0.7113053508261391
100
AcDbArc
 50
122.0053832080828
 51
237.9946167919171
  0
ARC
  5
D38
330
18
100
AcDbEntity
  8
1
  6
Continuous
100
AcDbCircle
 10
24.77351688330851
 20
348.6248618035695
 30
0.0
 40
0.7113053508261391
100
AcDbArc
 50
302.0053832080829
 51
57.99461679191704
  0
LINE
  5
D39
330
18
100
AcDbEntity
  8
1
  6
Continuous
100
AcDbLine
 10
21.98834006526215
 20
345.674850559774
 30
0.0
 11
25.98834006526209
 21
345.674850559774
 31
0.0
  0
ARC
  5
D3A
330
18
100
AcDbEntity
  8
1
  6
Continuous
100
AcDbCircle
 10
25.32167339859552
 20
343.6748505597741
 30
0.0
 40
2.0
100
AcDbArc
 50
270.0
 51
306.8698976458438
  0
LINE
  5
D3B
330
18
100
AcDbEntity
  8
1
  6
Continuous
100
AcDbLine
 10
25.3216733985956
 20
364.6748505597744
 30
0.0
 11
21.05870758223821
 21
364.6748505597744
 31
0.0
  0
LINE
  5
D3C
330
18
100
AcDbEntity
  8
1
  6
Continuous
100
AcDbLine
 10
21.05870758223818
 20
365.6748505597743
 30
0.0
 11
25.32167339859563
 21
365.6748505597743
 31
0.0
  0
LINE
  5
D3D
330
18
100
AcDbEntity
  8
1
  6
Continuous
100
AcDbLine
 10
20.22665728790039
 20
364.2295507559997
 30
0.0
 11
16.1562897709246
 21
358.123999480536
 31
0.0
  0
LINE
  5
D3E
330
18
100
AcDbEntity
  8
1
  6
Continuous
100
AcDbLine
 10
15.32423947658662
 20
358.6786996767608
 30
0.0
 11
19.39460699356254
 21
364.7842509522247
 31
0.0
  0
ARC
  5
D3F
330
18
100
AcDbEntity
  8
1
  6
Continuous
100
AcDbCircle
 10
16.98834006526245
 20
357.5692992843106
 30
0.0
 40
1.0
100
AcDbArc
 50
146.3099324740208
 51
180.0
  0
ARC
  5
D40
330
18
100
AcDbEntity
  8
1
  6
Continuous
100
AcDbCircle
 10
17.48834006526243
 20
357.1748505597743
 30
0.0
 40
0.5
100
AcDbArc
 50
90.0
 51
180.0
  0
ARC
  5
D41
330
18
100
AcDbEntity
  8
1
  6
Continuous
100
AcDbCircle
 10
20.48834006526232
 20
357.174850559774
 30
0.0
 40
0.5
100
AcDbArc
 50
0.0
 51
90.0
  0
LINE
  5
D42
330
18
100
AcDbEntity
  8
1
  6
Continuous
100
AcDbLine
 10
18.4883400652622
 20
357.6748505597742
 30
0.0
 11
19.9883400652622
 21
357.6748505597742
 31
0.0
  0
ARC
  5
D43
330
18
100
AcDbEntity
  8
1
  6
Continuous
100
AcDbCircle
 10
16.98834006526232
 20
357.5692992843102
 30
0.0
 40
2.0
100
AcDbArc
 50
146.3099324740204
 51
180.0
  0
LINE
  5
D44
330
18
100
AcDbEntity
  8
1
  6
Continuous
100
AcDbLine
 10
17.48834006526243
 20
357.6748505597743
 30
0.0
 11
20.48834006526232
 21
357.6748505597743
 31
0.0
  0
ARC
  5
D45
330
18
100
AcDbEntity
  8
1
  6
Continuous
100
AcDbCircle
 10
21.05870758223829
 20
363.6748505597741
 30
0.0
 40
1.0
100
AcDbArc
 50
90.0
 51
146.3099324740213
  0
ARC
  5
D46
330
18
100
AcDbEntity
  8
1
  6
Continuous
100
AcDbCircle
 10
21.05870758223829
 20
363.674850559774
 30
0.0
 40
2.0
100
AcDbArc
 50
90.0
 51
146.3099324740204
  0
LINE
  5
D47
330
18
100
AcDbEntity
  8
1
  6
Continuous
100
AcDbLine
 10
35.98834006526209
 20
356.9248505597744
 30
0.0
 11
25.92167339859543
 21
364.4748505597744
 31
0.0
  0
LINE
  5
D48
330
18
100
AcDbEntity
  8
1
  6
Continuous
100
AcDbLine
 10
22.48482223413464
 20
360.3847197146081
 30
0.0
 11
25.48482223413464
 21
361.2847197146082
 31
0.0
  0
LINE
  5
D49
330
18
100
AcDbEntity
  8
1
  6
Continuous
100
AcDbLine
 10
26.52167339859556
 20
365.2748505597743
 30
0.0
 11
35.9883400652622
 21
358.1748505597743
 31
0.0
  0
ARC
  5
D4A
330
18
100
AcDbEntity
  8
1
  6
Continuous
100
AcDbCircle
 10
29.06281975625143
 20
353.6738194224955
 30
0.0
 40
0.5999999999999998
100
AcDbArc
 50
270.0
 51
90.0
  0
ARC
  5
D4B
330
18
100
AcDbEntity
  8
1
  6
Continuous
100
AcDbCircle
 10
29.06281975625143
 20
356.0978637850865
 30
0.0
 40
0.5999999999999998
100
AcDbArc
 50
270.0
 51
90.0
  0
LINE
  5
D4C
330
18
100
AcDbEntity
  8
1
  6
Continuous
100
AcDbLine
 10
28.22281975625145
 20
351.8958951701772
 30
0.0
 11
29.66281975625145
 21
350.8158951701771
 31
0.0
  0
LINE
  5
D4D
330
18
100
AcDbEntity
  8
1
  6
Continuous
100
AcDbLine
 10
26.98834006526209
 20
358.6748505597741
 30
0.0
 11
29.98834006526209
 21
358.6748505597741
 31
0.0
  0
LINE
  5
D4E
330
18
100
AcDbEntity
  8
1
  6
Continuous
100
AcDbLine
 10
27.86281975625144
 20
353.0738194224956
 30
0.0
 11
29.06281975625143
 21
353.0738194224956
 31
0.0
  0
LINE
  5
D4F
330
18
100
AcDbEntity
  8
1
  6
Continuous
100
AcDbLine
 10
27.86281975625144
 20
354.2738194224956
 30
0.0
 11
29.06281975625143
 21
354.2738194224956
 31
0.0
  0
ARC
  5
D50
330
18
100
AcDbEntity
  8
1
  6
Continuous
100
AcDbCircle
 10
27.86281975625144
 20
353.6738194224955
 30
0.0
 40
0.5999999999999998
100
AcDbArc
 50
90.0
 51
270.0
  0
LINE
  5
D51
330
18
100
AcDbEntity
  8
1
  6
Continuous
100
AcDbLine
 10
24.35982223413464
 20
359.8222197146081
 30
0.0
 11
24.35982223413464
 21
360.9472197146081
 31
0.0
  0
LINE
  5
D52
330
18
100
AcDbEntity
  8
1
  6
Continuous
100
AcDbLine
 10
22.48482223413464
 20
357.9618334148272
 30
0.0
 11
23.98482223413464
 21
358.8618334148271
 31
0.0
  0
LINE
  5
D53
330
18
100
AcDbEntity
  8
1
  6
Continuous
100
AcDbLine
 10
22.48482223413464
 20
357.5307619322933
 30
0.0
 11
25.48482223413464
 21
357.5307619322933
 31
0.0
  0
LINE
  5
D54
330
18
100
AcDbEntity
  8
1
  6
Continuous
100
AcDbLine
 10
23.98482223413464
 20
358.8618334148271
 30
0.0
 11
25.48482223413464
 21
358.8618334148271
 31
0.0
  0
LINE
  5
D55
330
18
100
AcDbEntity
  8
1
  6
Continuous
100
AcDbLine
 10
23.98482223413464
 20
358.8618334148271
 30
0.0
 11
22.48482223413464
 21
359.7618334148271
 31
0.0
  0
LINE
  5
D56
330
18
100
AcDbEntity
  8
1
  6
Continuous
100
AcDbLine
 10
25.48482223413464
 20
359.4847197146082
 30
0.0
 11
22.48482223413464
 21
360.3847197146081
 31
0.0
  0
ARC
  5
D57
330
18
100
AcDbEntity
  8
1
  6
Continuous
100
AcDbCircle
 10
23.98482223413464
 20
357.120829114677
 30
0.0
 40
2.199411438678189
100
AcDbArc
 50
237.9946167919171
 51
302.0053832080829
  0
LINE
  5
D58
330
18
100
AcDbEntity
  8
1
  6
Continuous
100
AcDbLine
 10
22.48482223413464
 20
354.2052006093289
 30
0.0
 11
25.48482223413464
 21
354.2052006093289
 31
0.0
  0
LINE
  5
D59
330
18
100
AcDbEntity
  8
1
  6
Continuous
100
AcDbLine
 10
22.48482223413464
 20
351.805200609329
 30
0.0
 11
25.48482223413464
 21
351.805200609329
 31
0.0
  0
LINE
  5
D5A
330
18
100
AcDbEntity
  8
1
  6
Continuous
100
AcDbLine
 10
22.48482223413464
 20
353.530200609329
 30
0.0
 11
25.48482223413464
 21
353.530200609329
 31
0.0
  0
LINE
  5
D5B
330
18
100
AcDbEntity
  8
1
  6
Continuous
100
AcDbLine
 10
23.98482223413464
 20
351.805200609329
 30
0.0
 11
23.98482223413464
 21
353.530200609329
 31
0.0
  0
LINE
  5
D5C
330
18
100
AcDbEntity
  8
1
  6
Continuous
100
AcDbLine
 10
23.98482223413464
 20
356.9464176759988
 30
0.0
 11
25.33946000499298
 21
356.9464176759988
 31
0.0
  0
ARC
  5
D5D
330
18
100
AcDbEntity
  8
1
  6
Continuous
100
AcDbCircle
 10
24.70375441102078
 20
355.8964176759989
 30
0.0
 40
0.781067823113782
100
AcDbArc
 50
304.8882680994089
 51
55.11173190059107
  0
ARC
  5
D5E
330
18
100
AcDbEntity
  8
1
  6
Continuous
100
AcDbCircle
 10
23.26589005724838
 20
355.8964176759989
 30
0.0
 40
0.781067823113782
100
AcDbArc
 50
124.8882680994089
 51
235.111731900591
  0
ARC
  5
D5F
330
18
100
AcDbEntity
  8
1
  6
Continuous
100
AcDbCircle
 10
24.12951822671368
 20
354.6698032943284
 30
0.0
 40
2.281208007415607
100
AcDbArc
 50
115.7201063039166
 51
125.0593381436521
  0
LINE
  5
D60
330
18
100
AcDbEntity
  8
1
  6
Continuous
100
AcDbLine
 10
23.98482223413464
 20
356.9464176759988
 30
0.0
 11
23.98482223413464
 21
355.9127398593007
 31
0.0
  0
ARC
  5
D61
330
18
100
AcDbEntity
  8
1
  6
Continuous
100
AcDbCircle
 10
23.84012624155559
 20
354.6698032943284
 30
0.0
 40
2.281208007415607
100
AcDbArc
 50
54.94066185634784
 51
86.3633132383595
  0
ARC
  5
D62
330
18
100
AcDbEntity
  8
1
  6
Continuous
100
AcDbCircle
 10
27.86281975625144
 20
356.0978637850865
 30
0.0
 40
0.5999999999999998
100
AcDbArc
 50
90.0
 51
270.0
  0
LINE
  5
D63
330
18
100
AcDbEntity
  8
1
  6
Continuous
100
AcDbLine
 10
27.86281975625144
 20
355.4978637850866
 30
0.0
 11
29.06281975625143
 21
355.4978637850866
 31
0.0
  0
LINE
  5
D64
330
18
100
AcDbEntity
  8
1
  6
Continuous
100
AcDbLine
 10
27.86281975625144
 20
356.6978637850866
 30
0.0
 11
29.06281975625143
 21
356.6978637850866
 31
0.0
  0
ARC
  5
D65
330
18
100
AcDbEntity
  8
1
  6
Continuous
100
AcDbCircle
 10
27.86281975625144
 20
351.4158951701772
 30
0.0
 40
0.6000000000000007
100
AcDbArc
 50
53.13010235415486
 51
270.0
  0
LINE
  5
D66
330
18
100
AcDbEntity
  8
1
  6
Continuous
100
AcDbLine
 10
35.98834006526197
 20
356.9248505597743
 30
0.0
 11
35.98834006526197
 21
350.4248505597744
 31
0.0
  0
LINE
  5
D67
330
18
100
AcDbEntity
  8
1
  6
Continuous
100
AcDbLine
 10
29.66281975625145
 20
352.0158951701771
 30
0.0
 11
29.66281975625145
 21
350.8158951701771
 31
0.0
  0
ARC
  5
D68
330
18
100
AcDbEntity
  8
1
  6
Continuous
100
AcDbCircle
 10
25.32167339859572
 20
363.6748505597741
 30
0.0
 40
1.0
100
AcDbArc
 50
53.13010235415664
 51
90.0
  0
ARC
  5
D69
330
18
100
AcDbEntity
  8
1
  6
Continuous
100
AcDbCircle
 10
25.32167339859574
 20
363.674850559774
 30
0.0
 40
2.0
100
AcDbArc
 50
53.13010235415614
 51
90.0
  0
LINE
  5
D6A
330
18
100
AcDbEntity
  8
1
  6
Continuous
100
AcDbLine
 10
21.98834006526215
 20
361.674850559774
 30
0.0
 11
25.98834006526209
 21
361.674850559774
 31
0.0
  0
LINE
  5
D6B
330
18
100
AcDbEntity
  8
1
  6
Continuous
100
AcDbLine
 10
42.9883400652621
 20
350.5748505597742
 30
0.0
 11
42.9883400652621
 21
349.4748505597741
 31
0.0
  0
ARC
  5
D6C
330
18
100
AcDbEntity
  8
1
  6
Continuous
100
AcDbCircle
 10
42.68834006526242
 20
349.4748505597741
 30
0.0
 40
0.3
100
AcDbArc
 50
270.0
 51
0.0
  0
LINE
  5
D6D
330
18
100
AcDbEntity
  8
1
  6
Continuous
100
AcDbLine
 10
42.9883400652621
 20
350.5748505597742
 30
0.0
 11
60.4883400652621
 21
350.5748505597742
 31
0.0
  0
LINE
  5
D6E
330
18
100
AcDbEntity
  8
1
  6
Continuous
100
AcDbLine
 10
39.4883400652621
 20
351.2748505597743
 30
0.0
 11
61.19046042617242
 21
351.2748505597743
 31
0.0
  0
LINE
  5
D6F
330
18
100
AcDbEntity
  8
1
  6
Continuous
100
AcDbLine
 10
39.4883400652621
 20
352.4748505597742
 30
0.0
 11
62.39409533059022
 21
352.4748505597742
 31
0.0
  0
LINE
  5
D70
330
18
100
AcDbEntity
  8
1
  6
Continuous
100
AcDbLine
 10
39.4883400652621
 20
354.5748505597742
 30
0.0
 11
61.83340950396632
 21
354.5748505597742
 31
0.0
  0
LINE
  5
D71
330
18
100
AcDbEntity
  8
1
  6
Continuous
100
AcDbLine
 10
42.9883400652621
 20
356.7748505597742
 30
0.0
 11
59.4883400652621
 21
356.7748505597742
 31
0.0
  0
LINE
  5
D72
330
18
100
AcDbEntity
  8
1
  6
Continuous
100
AcDbLine
 10
39.4883400652621
 20
357.0748505597742
 30
0.0
 11
42.9883400652621
 21
357.0748505597742
 31
0.0
  0
ARC
  5
D73
330
18
100
AcDbEntity
  8
1
  6
Continuous
100
AcDbCircle
 10
42.68834006526242
 20
357.8748505597741
 30
0.0
 40
0.3
100
AcDbArc
 50
0.0
 51
90.0
  0
LINE
  5
D74
330
18
100
AcDbEntity
  8
1
  6
Continuous
100
AcDbLine
 10
39.4883400652621
 20
352.4748505597742
 30
0.0
 11
39.4883400652621
 21
351.2748505597743
 31
0.0
  0
LINE
  5
D75
330
18
100
AcDbEntity
  8
1
  6
Continuous
100
AcDbLine
 10
39.4883400652621
 20
357.0748505597742
 30
0.0
 11
39.4883400652621
 21
354.5748505597742
 31
0.0
  0
LINE
  5
D76
330
18
100
AcDbEntity
  8
1
  6
Continuous
100
AcDbLine
 10
42.9883400652621
 20
357.8748505597743
 30
0.0
 11
42.9883400652621
 21
356.7748505597742
 31
0.0
  0
LINE
  5
D77
330
18
100
AcDbEntity
  8
1
  6
Continuous
100
AcDbLine
 10
59.4883400652621
 20
356.7748505597741
 30
0.0
 11
62.83043453425847
 21
353.6395029617708
 31
0.0
  0
ARC
  5
D78
330
18
100
AcDbEntity
  8
1
  6
Continuous
100
AcDbCircle
 10
62.48834006526232
 20
353.2748505597742
 30
0.0
 40
0.5
100
AcDbArc
 50
314.9133543439016
 51
46.82814494213833
  0
LINE
  5
D79
330
18
100
AcDbEntity
  8
1
  6
Continuous
100
AcDbLine
 10
60.4883400652621
 20
350.5748505597741
 30
0.0
 11
62.84135838997206
 21
352.9207629118408
 31
0.0
  0
LINE
  5
D85
330
18
100
AcDbEntity
  8
1
  6
Continuous
100
AcDbLine
 10
215.0765257352236
 20
342.1748505597611
 30
0.0
 11
225.0765257353061
 21
342.1748505597812
 31
0.0
  0
LINE
  5
D86
330
18
100
AcDbEntity
  8
4
  6
CENTER
100
AcDbLine
 10
235.0067459495024
 20
353.6748505598177
 30
0.0
 11
198.7993558056675
 21
353.6748505597736
 31
0.0
  0
LINE
  5
D87
330
18
100
AcDbEntity
  8
1
  6
Continuous
100
AcDbLine
 10
215.0765257352137
 20
365.1748505599226
 30
0.0
 11
225.0765257353037
 21
365.1748505599268
 31
0.0
  0
LINE
  5
D88
330
18
100
AcDbEntity
  8
1
  6
Continuous
100
AcDbLine
 10
213.0765257353041
 20
258.198495775321
 30
0.0
 11
228.0765257353042
 21
258.1984957753241
 31
0.0
  0
LINE
  5
D89
330
18
100
AcDbEntity
  8
4
  6
CENTER
100
AcDbLine
 10
199.2495078744227
 20
245.6984957753181
 30
0.0
 11
235.2983160850364
 21
245.6984957753259
 31
0.0
  0
ARC
  5
D8A
330
18
100
AcDbEntity
  8
5
  6
PHANTOM
100
AcDbCircle
 10
149.1356879654235
 20
252.1484957754063
 30
0.0
 40
3.0
100
AcDbArc
 50
14.83284792081368
 51
90.0
  0
LINE
  5
D8F
330
18
100
AcDbEntity
  8
1
  6
Continuous
100
AcDbLine
 10
217.0765257353041
 20
261.1984957753239
 30
0.0
 11
217.0765257353041
 21
267.1984957753239
 31
0.0
  0
LINE
  5
D90
330
18
100
AcDbEntity
  8
1
  6
Continuous
100
AcDbLine
 10
216.5765257353041
 20
267.6984957753239
 30
0.0
 11
216.5765257353041
 21
260.698495775324
 31
0.0
  0
ARC
  5
D91
330
18
100
AcDbEntity
  8
1
  6
Continuous
100
AcDbCircle
 10
207.0765257353037
 20
250.3158543275657
 30
0.0
 40
4.0
100
AcDbArc
 50
121.2329290155124
 51
138.590377890729
  0
ARC
  5
D92
330
18
100
AcDbEntity
  8
1
  6
Continuous
100
AcDbCircle
 10
233.0765257353037
 20
245.2804598907617
 30
0.0
 40
30.0
100
AcDbArc
 50
165.1648884180242
 51
180.0
  0
ARC
  5
D93
330
18
100
AcDbEntity
  8
5
  6
PHANTOM
100
AcDbCircle
 10
225.9858070500815
 20
228.9980224430415
 30
0.0
 40
30.0
100
AcDbArc
 50
131.5782819119079
 51
134.9999999999997
  0
ARC
  5
D94
330
18
100
AcDbEntity
  8
1
  6
Continuous
100
AcDbCircle
 10
209.8765257353038
 20
245.6984957753196
 30
0.0
 40
9.4
100
AcDbArc
 50
113.8444700235039
 51
121.2329290155124
  0
ARC
  5
D95
330
18
100
AcDbEntity
  8
1
  6
Continuous
100
AcDbCircle
 10
214.0765257353042
 20
257.1984957753213
 30
0.0
 40
1.0
100
AcDbArc
 50
0.0
 51
90.0
  0
LINE
  5
D96
330
18
100
AcDbEntity
  8
1
  6
Continuous
100
AcDbLine
 10
216.5765257353041
 20
260.6984957753239
 30
0.0
 11
213.0765257353041
 21
260.6984957753238
 31
0.0
  0
LINE
  5
D97
330
18
100
AcDbEntity
  8
1
  6
Continuous
100
AcDbLine
 10
217.076525735304
 20
261.1984957753238
 30
0.0
 11
216.576525735304
 21
260.6984957753239
 31
0.0
  0
ARC
  5
D98
330
18
100
AcDbEntity
  8
1
  6
Continuous
100
AcDbCircle
 10
233.7441027982468
 20
248.1203995115897
 30
0.0
 40
32.0
100
AcDbArc
 50
134.5860766758447
 51
149.3440375942768
  0
ARC
  5
D99
330
18
100
AcDbEntity
  8
1
  6
Continuous
100
AcDbCircle
 10
207.0765257353039
 20
263.9267379108521
 30
0.0
 40
1.0
100
AcDbArc
 50
149.3440375942777
 51
180.0
  0
LINE
  5
D9A
330
18
100
AcDbEntity
  8
4
  6
CENTER
100
AcDbLine
 10
220.8060143354366
 20
264.1984957753241
 30
0.0
 11
208.9235785856036
 21
264.1984957753239
 31
0.0
  0
LINE
  5
D9B
330
18
100
AcDbEntity
  8
1
  6
Continuous
100
AcDbLine
 10
216.5765257353041
 20
267.6984957753239
 30
0.0
 11
213.0765257353041
 21
267.6984957753238
 31
0.0
  0
LINE
  5
D9C
330
18
100
AcDbEntity
  8
1
  6
Continuous
100
AcDbLine
 10
213.0765257353041
 20
271.1984957753238
 30
0.0
 11
211.9827226634991
 21
271.1984957753238
 31
0.0
  0
ARC
  5
D9D
330
18
100
AcDbEntity
  8
1
  6
Continuous
100
AcDbCircle
 10
211.9827226634991
 20
270.1984957753305
 30
0.0
 40
1.0
100
AcDbArc
 50
90.0
 51
134.5860766758447
  0
LINE
  5
D9E
330
18
100
AcDbEntity
  8
1
  6
Continuous
100
AcDbLine
 10
216.5765257353039
 20
267.6984957753237
 30
0.0
 11
217.0765257353039
 21
267.1984957753236
 31
0.0
  0
LINE
  5
DA3
330
18
100
AcDbEntity
  8
4
  6
CENTER
100
AcDbLine
 10
209.8765257353038
 20
342.3846499888514
 30
0.0
 11
209.8765257353038
 21
364.9341065027748
 31
0.0
  0
LINE
  5
DA4
330
18
100
AcDbEntity
  8
1
  6
Continuous
100
AcDbLine
 10
217.0765257352203
 20
350.6748505597946
 30
0.0
 11
217.0765257352177
 21
356.6748505597946
 31
0.0
  0
LINE
  5
DA5
330
18
100
AcDbEntity
  8
1
  6
Continuous
100
AcDbLine
 10
216.5765257352175
 20
357.1748505597944
 30
0.0
 11
216.5765257352204
 21
350.1748505597944
 31
0.0
  0
ARC
  5
DA6
330
18
100
AcDbEntity
  8
1
  6
Continuous
100
AcDbCircle
 10
263.0765257352225
 20
353.6748505598047
 30
0.0
 40
60.0
100
AcDbArc
 50
171.8148219821419
 51
188.185178017723
  0
ARC
  5
DA7
330
18
100
AcDbEntity
  8
1
  6
Continuous
100
AcDbCircle
 10
266.0765257352191
 20
353.6748505598118
 30
0.0
 40
60.0
100
AcDbArc
 50
167.8306122694271
 51
180.0000000000279
  0
LINE
  5
DA8
330
18
100
AcDbEntity
  8
1
  6
Continuous
100
AcDbLine
 10
213.0765257352121
 20
369.6748505598359
 30
0.0
 11
213.0765257352259
 21
337.674850559836
 31
0.0
  0
ARC
  5
DA9
330
18
100
AcDbEntity
  8
1
  6
Continuous
100
AcDbCircle
 10
211.5765257352145
 20
341.9220096506334
 30
0.0
 40
4.247159090896102
100
AcDbArc
 50
192.1693877305785
 51
269.9999999999798
  0
ARC
  5
DAA
330
18
100
AcDbEntity
  8
1
  6
Continuous
100
AcDbCircle
 10
266.0765257352191
 20
353.6748505598118
 30
0.0
 40
60.0
100
AcDbArc
 50
180.0000000000279
 51
192.1693877306251
  0
ARC
  5
DAB
330
18
100
AcDbEntity
  8
1
  6
Continuous
100
AcDbCircle
 10
204.6775531415101
 20
345.2748505598736
 30
0.0
 40
1.0
100
AcDbArc
 50
188.185178017723
 51
270.0000000000246
  0
LINE
  5
DAC
330
18
100
AcDbEntity
  8
1
  6
Continuous
100
AcDbLine
 10
206.8174336058151
 20
344.2748505598747
 30
0.0
 11
204.6775531415105
 21
344.2748505598737
 31
0.0
  0
LINE
  5
DAD
330
18
100
AcDbEntity
  8
1
  6
Continuous
100
AcDbLine
 10
215.0765257352214
 20
350.1748505597936
 30
0.0
 11
215.0765257352237
 21
341.9748505597922
 31
0.0
  0
ARC
  5
DAE
330
18
100
AcDbEntity
  8
1
  6
Continuous
100
AcDbCircle
 10
214.0765257352236
 20
341.9748505597918
 30
0.0
 40
1.0
100
AcDbArc
 50
270.0000000000246
 51
0.0000000000246178
  0
LINE
  5
DAF
330
18
100
AcDbEntity
  8
1
  6
Continuous
100
AcDbLine
 10
211.5765257352259
 20
337.6748505598357
 30
0.0
 11
213.0765257352259
 21
337.674850559836
 31
0.0
  0
LINE
  5
DB0
330
18
100
AcDbEntity
  8
1
  6
Continuous
100
AcDbLine
 10
213.0765257352245
 20
340.9748505597908
 30
0.0
 11
214.0765257352247
 21
340.9748505597919
 31
0.0
  0
LINE
  5
DB1
330
18
100
AcDbEntity
  8
1
  6
Continuous
100
AcDbLine
 10
216.5765257352204
 20
350.1748505597944
 30
0.0
 11
213.0765257352205
 21
350.1748505597924
 31
0.0
  0
LINE
  5
DB2
330
18
100
AcDbEntity
  8
1
  6
Continuous
100
AcDbLine
 10
217.0765257352202
 20
350.6748505597947
 30
0.0
 11
216.5765257352205
 21
350.1748505597944
 31
0.0
  0
ARC
  5
DB3
330
18
100
AcDbEntity
  8
1
  6
Continuous
100
AcDbCircle
 10
211.5765257352136
 20
365.4276914689392
 30
0.0
 40
4.247159090896102
100
AcDbArc
 50
90.00000000002458
 51
167.8306122694256
  0
LINE
  5
DB4
330
18
100
AcDbEntity
  8
1
  6
Continuous
100
AcDbLine
 10
206.817433605835
 20
363.0748505598745
 30
0.0
 11
204.6775531415296
 21
363.0748505598735
 31
0.0
  0
ARC
  5
DB5
330
18
100
AcDbEntity
  8
1
  6
Continuous
100
AcDbCircle
 10
204.6775531415299
 20
362.0748505598736
 30
0.0
 40
1.0
100
AcDbArc
 50
90.00000000002458
 51
171.8148219821419
  0
LINE
  5
DB6
330
18
100
AcDbEntity
  8
1
  6
Continuous
100
AcDbLine
 10
215.0765257352136
 20
365.3748505597923
 30
0.0
 11
215.0765257352182
 21
357.1748505597937
 31
0.0
  0
LINE
  5
DB7
330
18
100
AcDbEntity
  8
1
  6
Continuous
100
AcDbLine
 10
216.5765257352175
 20
357.1748505597944
 30
0.0
 11
213.0765257352174
 21
357.1748505597924
 31
0.0
  0
LINE
  5
DB8
330
18
100
AcDbEntity
  8
1
  6
Continuous
100
AcDbLine
 10
216.5765257352175
 20
357.1748505597944
 30
0.0
 11
217.0765257352177
 21
356.6748505597947
 31
0.0
  0
ARC
  5
DB9
330
18
100
AcDbEntity
  8
1
  6
Continuous
100
AcDbCircle
 10
214.0765257352136
 20
365.3748505597918
 30
0.0
 40
1.0
100
AcDbArc
 50
0.0000000000246178
 51
90.00000000002458
  0
LINE
  5
DBA
330
18
100
AcDbEntity
  8
1
  6
Continuous
100
AcDbLine
 10
211.5765257352127
 20
369.6748505598354
 30
0.0
 11
213.0765257352122
 21
369.6748505598358
 31
0.0
  0
LINE
  5
DBB
330
18
100
AcDbEntity
  8
1
  6
Continuous
100
AcDbLine
 10
213.0765257352135
 20
366.3748505597908
 30
0.0
 11
214.0765257352125
 21
366.3748505597918
 31
0.0
  0
LINE
  5
DBD
330
18
100
AcDbEntity
  8
1
  6
Continuous
100
AcDbLine
 10
230.5765257353065
 20
250.698495775326
 30
0.0
 11
228.576525735304
 21
250.698495775327
 31
0.0
  0
LINE
  5
DBE
330
18
100
AcDbEntity
  8
1
  6
Continuous
100
AcDbLine
 10
230.5765257353042
 20
246.3553500247737
 30
0.0
 11
228.576525735304
 21
246.3553500247749
 31
0.0
  0
LINE
  5
DBF
330
18
100
AcDbEntity
  8
1
  6
Continuous
100
AcDbLine
 10
230.5765257353034
 20
245.0416415258984
 30
0.0
 11
228.5765257353042
 21
245.0416415258994
 31
0.0
  0
LINE
  5
DC0
330
18
100
AcDbEntity
  8
1
  6
Continuous
100
AcDbLine
 10
226.4765257353039
 20
252.6984957753229
 30
0.0
 11
226.5765257353026
 21
252.6984957753229
 31
0.0
  0
LINE
  5
DC1
330
18
100
AcDbEntity
  8
1
  6
Continuous
100
AcDbLine
 10
228.5765257353042
 20
255.4412815678865
 30
0.0
 11
228.276525735304
 21
255.4412815678865
 31
0.0
  0
LINE
  5
DC2
330
18
100
AcDbEntity
  8
1
  6
Continuous
100
AcDbLine
 10
228.5765257353044
 20
253.9984957753049
 30
0.0
 11
228.276525735304
 21
253.9984957753049
 31
0.0
  0
LINE
  5
DC3
330
18
100
AcDbEntity
  8
1
  6
Continuous
100
AcDbLine
 10
228.2765257353041
 20
257.9984957753242
 30
0.0
 11
228.2765257353041
 21
253.4517418444327
 31
0.0
  0
LINE
  5
DC4
330
18
100
AcDbEntity
  8
1
  6
Continuous
100
AcDbLine
 10
228.076525735304
 20
253.2517418444327
 30
0.0
 11
226.4765257353039
 21
253.2517418444327
 31
0.0
  0
ARC
  5
DC5
330
18
100
AcDbEntity
  8
1
  6
Continuous
100
AcDbCircle
 10
228.0765257353042
 20
257.9984957753242
 30
0.0
 40
0.2
100
AcDbArc
 50
0.0
 51
90.0
  0
ARC
  5
DC6
330
18
100
AcDbEntity
  8
1
  6
Continuous
100
AcDbCircle
 10
228.0765257353042
 20
256.598370146399
 30
0.0
 40
0.2
100
AcDbArc
 50
270.0
 51
0.0
  0
ARC
  5
DC7
330
18
100
AcDbEntity
  8
1
  6
Continuous
100
AcDbCircle
 10
228.0765257353042
 20
253.4517418444327
 30
0.0
 40
0.2
100
AcDbArc
 50
270.0
 51
0.0
  0
LINE
  5
DC8
330
18
100
AcDbEntity
  8
1
  6
Continuous
100
AcDbLine
 10
226.2765257353042
 20
254.3587498131515
 30
0.0
 11
226.0765257353042
 21
254.3587498131515
 31
0.0
  0
LINE
  5
DC9
330
18
100
AcDbEntity
  8
1
  6
Continuous
100
AcDbLine
 10
228.0765257353039
 20
256.3983701463988
 30
0.0
 11
226.0765257353042
 21
256.3983701464016
 31
0.0
  0
ARC
  5
DCA
330
18
100
AcDbEntity
  8
1
  6
Continuous
100
AcDbCircle
 10
226.2765257353042
 20
254.1587498131515
 30
0.0
 40
0.1999999999999886
100
AcDbArc
 50
0.0
 51
90.0
  0
LINE
  5
DCF
330
18
100
AcDbEntity
  8
1
  6
Continuous
100
AcDbLine
 10
257.6385044494092
 20
263.1984957753232
 30
0.0
 11
258.6385044494091
 21
264.1984957753232
 31
0.0
  0
ARC
  5
DD0
330
18
100
AcDbEntity
  8
1
  6
Continuous
100
AcDbCircle
 10
252.238504449409
 20
264.1984957753232
 30
0.0
 40
9.0
100
AcDbArc
 50
344.1191499917205
 51
15.88085000827938
  0
LINE
  5
DD1
330
18
100
AcDbEntity
  8
1
  6
Continuous
100
AcDbLine
 10
258.6385044494091
 20
267.9984957753233
 30
0.0
 11
258.6385044494091
 21
260.3984957753232
 31
0.0
  0
LINE
  5
DD2
330
18
100
AcDbEntity
  8
1
  6
Continuous
100
AcDbLine
 10
257.6385044494096
 20
259.6984957753242
 30
0.0
 11
257.6385044494086
 21
269.6984957753242
 31
0.0
  0
LINE
  5
DD3
330
18
100
AcDbEntity
  8
1
  6
Continuous
100
AcDbLine
 10
252.6385044494095
 20
259.1984957753239
 30
0.0
 11
252.6385044494086
 21
270.1984957753239
 31
0.0
  0
LINE
  5
DD4
330
18
100
AcDbEntity
  8
1
  6
Continuous
100
AcDbLine
 10
252.6385044494094
 20
259.1984957753239
 30
0.0
 11
257.1385044494094
 21
259.1984957753242
 31
0.0
  0
LINE
  5
DD5
330
18
100
AcDbEntity
  8
1
  6
Continuous
100
AcDbLine
 10
258.6385044494091
 20
260.6984957753232
 30
0.0
 11
259.7579196392435
 21
260.7964319142124
 31
0.0
  0
ARC
  5
DD6
330
18
100
AcDbEntity
  8
1
  6
Continuous
100
AcDbCircle
 10
259.6446171736318
 20
262.091485021737
 30
0.0
 40
1.3
100
AcDbArc
 50
274.9999999999997
 51
344.1191499917205
  0
LINE
  5
DD7
330
18
100
AcDbEntity
  8
1
  6
Continuous
100
AcDbLine
 10
258.6385044494091
 20
260.3984957753232
 30
0.0
 11
257.6385044494092
 21
260.3984957753232
 31
0.0
  0
ARC
  5
DD8
330
18
100
AcDbEntity
  8
1
  6
Continuous
100
AcDbCircle
 10
257.1385044494096
 20
259.6984957753242
 30
0.0
 40
0.5
100
AcDbArc
 50
270.0000000000049
 51
0.0000000000048853
  0
LINE
  5
DD9
330
18
100
AcDbEntity
  8
1
  6
Continuous
100
AcDbLine
 10
268.9385044494089
 20
251.6984957753193
 30
0.0
 11
268.1385044494089
 21
251.698495775319
 31
0.0
  0
LINE
  5
DDA
330
18
100
AcDbEntity
  8
4
  6
CENTER
100
AcDbLine
 10
275.743367154135
 20
245.6984957753197
 30
0.0
 11
265.0044097860975
 21
245.6984957753197
 31
0.0
  0
LINE
  5
DDB
330
18
100
AcDbEntity
  8
1
  6
Continuous
100
AcDbLine
 10
268.9385044494089
 20
244.3984957753198
 30
0.0
 11
270.2385044494089
 21
245.6984957753197
 31
0.0
  0
LINE
  5
DDC
330
18
100
AcDbEntity
  8
1
  6
Continuous
100
AcDbLine
 10
268.9385044494089
 20
245.6984957753197
 30
0.0
 11
270.2385044494089
 21
246.9984957753197
 31
0.0
  0
ARC
  5
DDD
330
18
100
AcDbEntity
  8
1
  6
Continuous
100
AcDbCircle
 10
261.5385044494091
 20
245.6984957753197
 30
0.0
 40
12.0
100
AcDbArc
 50
344.5060324994777
 51
15.4939675005222
  0
LINE
  5
DDE
330
18
100
AcDbEntity
  8
1
  6
Continuous
100
AcDbLine
 10
270.2385044494088
 20
250.1984957753197
 30
0.0
 11
271.7000029175042
 21
250.070631227601
 31
0.0
  0
ARC
  5
DDF
330
18
100
AcDbEntity
  8
1
  6
Continuous
100
AcDbCircle
 10
271.5605537290831
 20
248.4767197106401
 30
0.0
 40
1.6
100
AcDbArc
 50
15.4939675005222
 51
85.00000000000019
  0
LINE
  5
DE0
330
18
100
AcDbEntity
  8
1
  6
Continuous
100
AcDbLine
 10
270.2385044494089
 20
250.2984957753198
 30
0.0
 11
268.9385044494089
 21
250.2984957753198
 31
0.0
  0
LINE
  5
DE1
330
18
100
AcDbEntity
  8
4
  6
CENTER
100
AcDbLine
 10
263.6385044494092
 20
264.1984957753232
 30
0.0
 11
250.0915506912551
 21
264.1984957753232
 31
0.0
  0
LINE
  5
DE2
330
18
100
AcDbEntity
  8
1
  6
Continuous
100
AcDbLine
 10
252.6385044494086
 20
270.1984957753239
 30
0.0
 11
257.1385044494086
 21
270.1984957753241
 31
0.0
  0
LINE
  5
DE3
330
18
100
AcDbEntity
  8
1
  6
Continuous
100
AcDbLine
 10
257.6385044494092
 20
264.1984957753232
 30
0.0
 11
258.6385044494091
 21
265.1984957753231
 31
0.0
  0
LINE
  5
DE4
330
18
100
AcDbEntity
  8
1
  6
Continuous
100
AcDbLine
 10
258.6385044494091
 20
267.6984957753232
 30
0.0
 11
259.75791963921
 21
267.6005596364368
 31
0.0
  0
ARC
  5
DE5
330
18
100
AcDbEntity
  8
1
  6
Continuous
100
AcDbCircle
 10
259.6446171736181
 20
266.3055065289061
 30
0.0
 40
1.3
100
AcDbArc
 50
15.88085000827938
 51
85.00000000000019
  0
LINE
  5
DE6
330
18
100
AcDbEntity
  8
1
  6
Continuous
100
AcDbLine
 10
258.6385044494091
 20
267.9984957753233
 30
0.0
 11
257.6385044494092
 21
267.9984957753233
 31
0.0
  0
ARC
  5
DE7
330
18
100
AcDbEntity
  8
1
  6
Continuous
100
AcDbCircle
 10
257.1385044494084
 20
269.6984957753242
 30
0.0
 40
0.5
100
AcDbArc
 50
0.0000000000048853
 51
90.00000000000486
  0
LINE
  5
DEA
330
18
100
AcDbEntity
  8
1
  6
Continuous
100
AcDbLine
 10
228.076525735304
 20
347.4972752113817
 30
0.0
 11
228.076525735304
 21
359.8524259082306
 31
0.0
  0
LINE
  5
DEB
330
18
100
AcDbEntity
  8
1
  6
Continuous
100
AcDbLine
 10
230.576525735304
 20
358.6748505597843
 30
0.0
 11
230.576525735304
 21
348.6748505597752
 31
0.0
  0
LINE
  5
DED
330
18
100
AcDbEntity
  8
1
  6
Continuous
100
AcDbLine
 10
226.4765257353041
 20
343.874850559807
 30
0.0
 11
226.4765257353041
 21
347.4972752113817
 31
0.0
  0
LINE
  5
DEE
330
18
100
AcDbEntity
  8
1
  6
Continuous
100
AcDbLine
 10
228.576525735304
 20
348.6748505597752
 30
0.0
 11
228.576525735304
 21
343.9320647672266
 31
0.0
  0
LINE
  5
DEF
330
18
100
AcDbEntity
  8
1
  6
Continuous
100
AcDbLine
 10
226.5765257354534
 20
347.4972752113817
 30
0.0
 11
226.5765257354534
 21
343.9320647672266
 31
0.0
  0
LINE
  5
DF0
330
18
100
AcDbEntity
  8
1
  6
Continuous
100
AcDbLine
 10
226.0765257353042
 20
343.1748505597811
 30
0.0
 11
226.0765257353042
 21
347.4972752113817
 31
0.0
  0
ARC
  5
DF1
330
18
100
AcDbEntity
  8
1
  6
Continuous
100
AcDbCircle
 10
226.2765257353041
 20
343.874850559807
 30
0.0
 40
0.2
100
AcDbArc
 50
270.0000000000651
 51
0.0
  0
LINE
  5
DF2
330
18
100
AcDbEntity
  8
1
  6
Continuous
100
AcDbLine
 10
226.2765257353044
 20
343.674850559807
 30
0.0
 11
226.0765257353042
 21
343.6748505598068
 31
0.0
  0
LINE
  5
DF3
330
18
100
AcDbEntity
  8
1
  6
Continuous
100
AcDbLine
 10
228.576525735304
 20
343.9320647672266
 30
0.0
 11
226.5765257354534
 21
343.9320647672266
 31
0.0
  0
ARC
  5
DF4
330
18
100
AcDbEntity
  8
1
  6
Continuous
100
AcDbCircle
 10
225.0765257353041
 20
343.1748505597811
 30
0.0
 40
1.0
100
AcDbArc
 50
270.0000000001143
 51
0.0
  0
LINE
  5
DF5
330
18
100
AcDbEntity
  8
1
  6
Continuous
100
AcDbLine
 10
230.576525735304
 20
353.0887069884129
 30
0.0
 11
228.076525735304
 21
353.0887069884129
 31
0.0
  0
LINE
  5
DF6
330
18
100
AcDbEntity
  8
1
  6
Continuous
100
AcDbLine
 10
230.576525735304
 20
354.2609941310971
 30
0.0
 11
228.076525735304
 21
354.2609941310971
 31
0.0
  0
LINE
  5
DF7
330
18
100
AcDbEntity
  8
1
  6
Continuous
100
AcDbLine
 10
230.576525735304
 20
348.6748505597752
 30
0.0
 11
228.076525735304
 21
348.6748505597752
 31
0.0
  0
LINE
  5
DF8
330
18
100
AcDbEntity
  8
1
  6
Continuous
100
AcDbLine
 10
226.5765257354535
 20
346.6748505598075
 30
0.0
 11
226.4765257352873
 21
346.6748505598073
 31
0.0
  0
LINE
  5
DF9
330
18
100
AcDbEntity
  8
1
  6
Continuous
100
AcDbLine
 10
228.576525735304
 20
346.4868397083921
 30
0.0
 11
226.5765257354534
 21
346.4868397083921
 31
0.0
  0
LINE
  5
DFA
330
18
100
AcDbEntity
  8
1
  6
Continuous
100
AcDbLine
 10
228.076525735304
 20
347.4972752113817
 30
0.0
 11
226.0765257353042
 21
347.4972752113817
 31
0.0
  0
ARC
  5
DFB
330
18
100
AcDbEntity
  8
1
  6
Continuous
100
AcDbCircle
 10
225.0765257353041
 20
364.1748505599268
 30
0.0
 40
1.0
100
AcDbArc
 50
0.0
 51
90.00000000002458
  0
LINE
  5
DFC
330
18
100
AcDbEntity
  8
1
  6
Continuous
100
AcDbLine
 10
230.576525735304
 20
358.6748505597843
 30
0.0
 11
228.076525735304
 21
358.6748505597843
 31
0.0
  0
LINE
  5
DFD
330
18
100
AcDbEntity
  8
1
  6
Continuous
100
AcDbLine
 10
226.5765257354535
 20
360.6748505598075
 30
0.0
 11
226.4765257352873
 21
360.6748505598073
 31
0.0
  0
LINE
  5
DFE
330
18
100
AcDbEntity
  8
1
  6
Continuous
100
AcDbLine
 10
226.4765257352805
 20
363.4748505598076
 30
0.0
 11
226.4765257352892
 21
359.852425908233
 31
0.0
  0
ARC
  5
DFF
330
18
100
AcDbEntity
  8
1
  6
Continuous
100
AcDbCircle
 10
226.2765257352805
 20
363.4748505598071
 30
0.0
 40
0.2
100
AcDbArc
 50
0.0000000001380921
 51
90.00000000007293
  0
LINE
  5
E00
330
18
100
AcDbEntity
  8
1
  6
Continuous
100
AcDbLine
 10
226.2765257352802
 20
363.6748505598071
 30
0.0
 11
226.07652573528
 21
363.6748505598069
 31
0.0
  0
LINE
  5
E01
330
18
100
AcDbEntity
  8
1
  6
Continuous
100
AcDbLine
 10
226.5765257354534
 20
364.9248505598062
 30
0.0
 11
226.5765257354534
 21
359.8524259082306
 31
0.0
  0
LINE
  5
E02
330
18
100
AcDbEntity
  8
1
  6
Continuous
100
AcDbLine
 10
228.576525735304
 20
364.9248505598062
 30
0.0
 11
226.5765257354534
 21
364.9248505598062
 31
0.0
  0
LINE
  5
E03
330
18
100
AcDbEntity
  8
1
  6
Continuous
100
AcDbLine
 10
228.576525735304
 20
364.9248505598062
 30
0.0
 11
228.576525735304
 21
358.6748505597843
 31
0.0
  0
LINE
  5
E04
330
18
100
AcDbEntity
  8
1
  6
Continuous
100
AcDbLine
 10
226.0765257353042
 20
359.8524259082306
 30
0.0
 11
226.0765257353042
 21
364.1748505599268
 31
0.0
  0
LINE
  5
E05
330
18
100
AcDbEntity
  8
1
  6
Continuous
100
AcDbLine
 10
228.076525735304
 20
359.8524259082306
 30
0.0
 11
226.0765257353042
 21
359.8524259082306
 31
0.0
  0
LINE
  5
E0A
330
18
100
AcDbEntity
  8
1
  6
Continuous
100
AcDbLine
 10
257.6385044494086
 20
353.6748505598177
 30
0.0
 11
258.6385044494087
 21
354.6748505598177
 31
0.0
  0
LINE
  5
E0B
330
18
100
AcDbEntity
  8
1
  6
Continuous
100
AcDbLine
 10
252.6385044494093
 20
346.6748505598169
 30
0.0
 11
252.6385044494081
 21
360.6748505598184
 31
0.0
  0
LINE
  5
E0C
330
18
100
AcDbEntity
  8
1
  6
Continuous
100
AcDbLine
 10
257.6385044494093
 20
347.1748505598166
 30
0.0
 11
257.6385044494081
 21
360.1748505598187
 31
0.0
  0
LINE
  5
E0D
330
18
100
AcDbEntity
  8
1
  6
Continuous
100
AcDbLine
 10
258.6385044494087
 20
357.4748505598176
 30
0.0
 11
258.6385044494087
 21
349.8748505598177
 31
0.0
  0
ARC
  5
E0E
330
18
100
AcDbEntity
  8
1
  6
Continuous
100
AcDbCircle
 10
252.2385044494086
 20
353.6748505598177
 30
0.0
 40
9.0
100
AcDbArc
 50
344.1191499917205
 51
15.88085000827938
  0
LINE
  5
E0F
330
18
100
AcDbEntity
  8
4
  6
CENTER
100
AcDbLine
 10
263.6385044494086
 20
353.6748505598177
 30
0.0
 11
250.0915506912546
 21
353.6748505598177
 31
0.0
  0
LINE
  5
E10
330
18
100
AcDbEntity
  8
1
  6
Continuous
100
AcDbLine
 10
252.6385044494081
 20
346.6748505598169
 30
0.0
 11
257.1385044494082
 21
346.6748505598167
 31
0.0
  0
ARC
  5
E11
330
18
100
AcDbEntity
  8
1
  6
Continuous
100
AcDbCircle
 10
257.1385044494079
 20
347.1748505598166
 30
0.0
 40
0.5
100
AcDbArc
 50
269.999999999995
 51
359.9999999999951
  0
ARC
  5
E12
330
18
100
AcDbEntity
  8
1
  6
Continuous
100
AcDbCircle
 10
259.6446171736313
 20
351.5678398062315
 30
0.0
 40
1.3
100
AcDbArc
 50
274.9999999999997
 51
344.1191499917205
  0
LINE
  5
E13
330
18
100
AcDbEntity
  8
1
  6
Continuous
100
AcDbLine
 10
258.6385044494087
 20
349.8748505598177
 30
0.0
 11
257.6385044494086
 21
349.8748505598177
 31
0.0
  0
LINE
  5
E14
330
18
100
AcDbEntity
  8
1
  6
Continuous
100
AcDbLine
 10
258.6385044494086
 20
350.1748505598177
 30
0.0
 11
259.757919639243
 21
350.2727866987068
 31
0.0
  0
LINE
  5
E15
330
18
100
AcDbEntity
  8
1
  6
Continuous
100
AcDbLine
 10
257.6385044494086
 20
352.6748505598177
 30
0.0
 11
258.6385044494087
 21
353.6748505598177
 31
0.0
  0
LINE
  5
E16
330
18
100
AcDbEntity
  8
1
  6
Continuous
100
AcDbLine
 10
252.6385044494081
 20
360.6748505598184
 30
0.0
 11
257.1385044494082
 21
360.6748505598186
 31
0.0
  0
ARC
  5
E17
330
18
100
AcDbEntity
  8
1
  6
Continuous
100
AcDbCircle
 10
259.6446171736175
 20
355.7818613134005
 30
0.0
 40
1.3
100
AcDbArc
 50
15.88085000827938
 51
85.00000000000019
  0
ARC
  5
E18
330
18
100
AcDbEntity
  8
1
  6
Continuous
100
AcDbCircle
 10
257.1385044494079
 20
360.1748505598187
 30
0.0
 40
0.5
100
AcDbArc
 50
0.0000000000048853
 51
90.00000000000486
  0
LINE
  5
E19
330
18
100
AcDbEntity
  8
1
  6
Continuous
100
AcDbLine
 10
258.6385044494087
 20
357.4748505598176
 30
0.0
 11
257.6385044494086
 21
357.4748505598176
 31
0.0
  0
LINE
  5
E1A
330
18
100
AcDbEntity
  8
1
  6
Continuous
100
AcDbLine
 10
258.6385044494087
 20
357.1748505598177
 30
0.0
 11
259.7579196392095
 21
357.0769144209313
 31
0.0
  0
LINE
  5
E1F
330
18
100
AcDbEntity
  8
1
  6
Continuous
100
AcDbLine
 10
447.158599963727
 20
251.6984957753225
 30
0.0
 11
447.158599963727
 21
239.6984957753224
 31
0.0
  0
ARC
  5
E20
330
18
100
AcDbEntity
  8
1
  6
Continuous
100
AcDbCircle
 10
443.7365506840357
 20
242.9202718399988
 30
0.0
 40
1.6
100
AcDbArc
 50
195.4939675005222
 51
265.0000000000002
  0
LINE
  5
E21
330
18
100
AcDbEntity
  8
1
  6
Continuous
100
AcDbLine
 10
445.058599963727
 20
250.2984957753231
 30
0.0
 11
445.058599963727
 21
241.0984957753232
 31
0.0
  0
LINE
  5
E22
330
18
100
AcDbEntity
  8
1
  6
Continuous
100
AcDbLine
 10
446.358599963727
 20
251.6984957753225
 30
0.0
 11
446.358599963727
 21
239.6984957753224
 31
0.0
  0
LINE
  5
E36
330
18
100
AcDbEntity
  8
1
  6
Continuous
100
AcDbLine
 10
473.0831846336488
 20
255.4412815678924
 30
0.0
 11
473.0831846336488
 21
234.4484957752046
 31
0.0
  0
LINE
  5
E37
330
18
100
AcDbEntity
  8
1
  6
Continuous
100
AcDbLine
 10
469.0831846336478
 20
250.6984957753259
 30
0.0
 11
469.0831846336478
 21
240.6984957753241
 31
0.0
  0
LINE
  5
E38
330
18
100
AcDbEntity
  8
4
  6
CENTER
100
AcDbLine
 10
489.783184633648
 20
252.0625715211988
 30
0.0
 11
489.783184633648
 21
239.3195062236866
 31
0.0
  0
LINE
  5
E39
330
18
100
AcDbEntity
  8
1
  6
Continuous
100
AcDbLine
 10
473.5831846336477
 20
256.3983701464016
 30
0.0
 11
473.5831846336477
 21
234.1984957753237
 31
0.0
  0
LINE
  5
E3A
330
18
100
AcDbEntity
  8
1
  6
Continuous
100
AcDbLine
 10
473.1831846336477
 20
254.1587498131515
 30
0.0
 11
473.1831846336477
 21
235.9484957753228
 31
0.0
  0
LINE
  5
E3B
330
18
100
AcDbEntity
  8
1
  6
Continuous
100
AcDbLine
 10
471.0831846336478
 20
255.4412815678865
 30
0.0
 11
471.0831846336478
 21
234.4484957752115
 31
0.0
  0
LINE
  5
E3D
330
18
100
AcDbEntity
  8
1
  6
Continuous
100
AcDbLine
 10
480.0673956496876
 20
244.6984957753304
 30
0.0
 11
480.0673956496876
 21
235.6760166252012
 31
0.0
  0
LINE
  5
E3E
330
18
100
AcDbEntity
  8
5
  6
PHANTOM
100
AcDbLine
 10
494.783184633647
 20
245.6984957753197
 30
0.0
 11
494.7831846336526
 21
240.9411364624298
 31
0.0
  0
LINE
  5
E3F
330
18
100
AcDbEntity
  8
1
  6
Continuous
100
AcDbLine
 10
484.5831846336478
 20
257.1984957753213
 30
0.0
 11
484.5831846336478
 21
143.2845807051629
 31
0.0
  0
LINE
  5
E40
330
18
100
AcDbEntity
  8
1
  6
Continuous
100
AcDbLine
 10
496.5831846336481
 20
245.2804598907617
 30
0.0
 11
496.5831846336481
 21
125.1984957753222
 31
0.0
  0
LINE
  5
E41
330
18
100
AcDbEntity
  8
5
  6
PHANTOM
100
AcDbLine
 10
494.8871067544667
 20
250.211225878638
 30
0.0
 11
579.7978778786935
 21
165.300454754411
 31
0.0
  0
LINE
  5
E42
330
18
100
AcDbEntity
  8
1
  6
Continuous
100
AcDbLine
 10
493.583184633648
 20
263.9267379108521
 30
0.0
 11
493.583184633648
 21
136.4702536398118
 31
0.0
  0
LINE
  5
E43
330
18
100
AcDbEntity
  8
1
  6
Continuous
100
AcDbLine
 10
486.5831846336477
 20
271.1984957753238
 30
0.0
 11
486.5831846336477
 21
129.1984957753239
 31
0.0
  0
ARC
  5
E44
330
18
100
AcDbEntity
  8
1
  6
Continuous
100
AcDbCircle
 10
356.7367827710824
 20
245.6984957753101
 30
0.0
 40
9.999999999988064
100
AcDbArc
 50
119.9999999999231
 51
209.9999999999567
  0
ARC
  5
E45
330
18
100
AcDbEntity
  8
1
  6
Continuous
100
AcDbCircle
 10
356.7367827710824
 20
245.6984957753101
 30
0.0
 40
9.499999999988006
100
AcDbArc
 50
119.9999999999227
 51
209.9999999999567
  0
LINE
  5
E46
330
18
100
AcDbEntity
  8
1
  6
Continuous
100
AcDbLine
 10
351.0799285215168
 20
245.6984957753114
 30
0.0
 11
356.7367827710094
 21
240.0416415258189
 31
0.0
  0
LINE
  5
E47
330
18
100
AcDbEntity
  8
1
  6
Continuous
100
AcDbLine
 10
351.7367827711017
 20
245.1123522039168
 30
0.0
 11
356.1506391996889
 21
240.6984957753296
 31
0.0
  0
ARC
  5
E48
330
18
100
AcDbEntity
  8
1
  6
Continuous
100
AcDbCircle
 10
356.7367827710824
 20
244.6984957753293
 30
0.0
 40
11.5
100
AcDbArc
 50
180.0
 51
0.0
  0
LINE
  5
E49
330
18
100
AcDbEntity
  8
1
  6
Continuous
100
AcDbLine
 10
356.7367827710094
 20
240.0416415258189
 30
0.0
 11
362.3936370205017
 21
245.6984957753113
 31
0.0
  0
ARC
  5
E4A
330
18
100
AcDbEntity
  8
1
  6
Continuous
100
AcDbCircle
 10
356.7367827710824
 20
245.6984957753098
 30
0.0
 40
11.25
100
AcDbArc
 50
209.9999999999567
 51
60.00000000008632
  0
ARC
  5
E4B
330
18
100
AcDbEntity
  8
1
  6
Continuous
100
AcDbCircle
 10
356.7367827710824
 20
245.6984957753098
 30
0.0
 40
8.3
100
AcDbArc
 50
60.0000000000845
 51
209.9999999999567
  0
LINE
  5
E4C
330
18
100
AcDbEntity
  8
1
  6
Continuous
100
AcDbLine
 10
361.7367827710626
 20
245.1123522039167
 30
0.0
 11
357.3229263424253
 21
240.6984957752795
 31
0.0
  0
LINE
  5
E4D
330
18
100
AcDbEntity
  8
1
  6
Continuous
100
AcDbLine
 10
340.7367827710461
 20
270.1984957752916
 30
0.0
 11
340.7367827710461
 21
130.1984957752918
 31
0.0
  0
LINE
  5
E4E
330
18
100
AcDbEntity
  8
1
  6
Continuous
100
AcDbLine
 10
372.7367827710462
 20
270.1984957753079
 30
0.0
 11
372.7367827710462
 21
130.1984957753077
 31
0.0
  0
LINE
  5
E4F
330
18
100
AcDbEntity
  8
1
  6
Continuous
100
AcDbLine
 10
345.2367827710824
 20
246.6984957753294
 30
0.0
 11
345.2367827710824
 21
144.7479762019386
 31
0.0
  0
LINE
  5
E50
330
18
100
AcDbEntity
  8
1
  6
Continuous
100
AcDbLine
 10
368.2367827710824
 20
246.6984957753294
 30
0.0
 11
368.2367827710824
 21
144.7479762019483
 31
0.0
  0
LINE
  5
E51
330
18
100
AcDbEntity
  8
1
  6
Continuous
100
AcDbLine
 10
344.0367827710824
 20
255.6984957753255
 30
0.0
 11
344.0367827710824
 21
144.7479762019379
 31
0.0
  0
LINE
  5
E52
330
18
100
AcDbEntity
  8
1
  6
Continuous
100
AcDbLine
 10
369.4367827710824
 20
255.6984957753332
 30
0.0
 11
369.4367827710824
 21
144.7479762019488
 31
0.0
  0
LINE
  5
E53
330
18
100
AcDbEntity
  8
4
  6
CENTER
100
AcDbLine
 10
356.7367827710824
 20
274.9563665494704
 30
0.0
 11
356.7367827710824
 21
119.1050147378589
 31
0.0
  0
CIRCLE
  5
E5C
330
18
100
AcDbEntity
  8
1
  6
Continuous
 48
0.25
100
AcDbCircle
 10
356.7367827710824
 20
136.1984957753221
 30
0.0
 40
3.5
  0
CIRCLE
  5
E5D
330
18
100
AcDbEntity
  8
1
  6
Continuous
100
AcDbCircle
 10
356.7367827710824
 20
136.1984957753221
 30
0.0
 40
3.800000000001205
  0
LINE
  5
E5E
330
18
100
AcDbEntity
  8
1
  6
Continuous
 48
0.25
100
AcDbLine
 10
357.8770531159173
 20
136.724583220525
 30
0.0
 11
358.4879933748625
 21
137.3567366829057
 31
0.0
  0
LINE
  5
E5F
330
18
100
AcDbEntity
  8
1
  6
Continuous
 48
0.25
100
AcDbLine
 10
357.8770531159173
 20
135.6738225436817
 30
0.0
 11
358.4879933748626
 21
135.0402548677386
 31
0.0
  0
ARC
  5
E60
330
18
100
AcDbEntity
  8
1
  6
Continuous
 48
0.25
100
AcDbCircle
 10
356.7357827710823
 20
136.1984957753221
 30
0.0
 40
2.1
100
AcDbArc
 50
33.46300000000106
 51
56.53699999999894
  0
ARC
  5
E61
330
18
100
AcDbEntity
  8
1
  6
Continuous
 48
0.25
100
AcDbCircle
 10
356.7357827710823
 20
136.1984957753221
 30
0.0
 40
2.1
100
AcDbArc
 50
303.4630000000011
 51
326.5369999999989
  0
LINE
  5
E62
330
18
100
AcDbEntity
  8
1
  6
Continuous
100
AcDbLine
 10
365.7367827710396
 20
145.8926846249465
 30
0.0
 11
347.7367827710398
 21
145.8926846249369
 31
0.0
  0
ARC
  5
E63
330
18
100
AcDbEntity
  8
1
  6
Continuous
100
AcDbCircle
 10
356.7367827710824
 20
152.1984957754471
 30
0.0
 40
28.0
100
AcDbArc
 50
255.1671520791997
 51
284.8328479208203
  0
LINE
  5
E64
330
18
100
AcDbEntity
  8
1
  6
Continuous
100
AcDbLine
 10
371.7367827710467
 20
129.1984957753077
 30
0.0
 11
341.7367827710466
 21
129.1984957752918
 31
0.0
  0
LINE
  5
E65
330
18
100
AcDbEntity
  8
1
  6
Continuous
100
AcDbLine
 10
366.9367827710837
 20
142.2479762019488
 30
0.0
 11
346.5367827710837
 21
142.2479762019379
 31
0.0
  0
LINE
  5
E66
330
18
100
AcDbEntity
  8
4
  6
CENTER
100
AcDbLine
 10
348.218524612043
 20
136.1984957753221
 30
0.0
 11
365.0544795768583
 21
136.1984957753221
 31
0.0
  0
LINE
  5
E67
330
18
100
AcDbEntity
  8
1
  6
Continuous
100
AcDbLine
 10
360.8262369439824
 20
141.1984957753221
 30
0.0
 11
352.6473285981822
 21
141.1984957753221
 31
0.0
  0
ARC
  5
E68
330
18
100
AcDbEntity
  8
1
  6
Continuous
100
AcDbCircle
 10
356.7367827710824
 20
139.1984957753221
 30
0.0
 40
9.0
100
AcDbArc
 50
247.3801350519594
 51
292.6198649480405
  0
LINE
  5
E69
330
18
100
AcDbEntity
  8
1
  6
Continuous
 48
0.25
100
AcDbLine
 10
355.5952195330283
 20
135.6731154369006
 30
0.0
 11
354.9842792740832
 21
135.0409619745197
 31
0.0
  0
ARC
  5
E6A
330
18
100
AcDbEntity
  8
1
  6
Continuous
100
AcDbCircle
 10
355.4867827710824
 20
136.1984957753221
 30
0.0
 40
5.750000000000002
100
AcDbArc
 50
119.5918457939504
 51
247.3801350519594
  0
ARC
  5
E6B
330
18
100
AcDbEntity
  8
1
  6
Continuous
100
AcDbCircle
 10
341.7367827710461
 20
130.1984957752918
 30
0.0
 40
1.0
100
AcDbArc
 50
180.0
 51
270.0
  0
ARC
  5
E6C
330
18
100
AcDbEntity
  8
1
  6
Continuous
100
AcDbCircle
 10
350.3367827710866
 20
128.031576236539
 30
0.0
 40
3.0
100
AcDbArc
 50
180.0
 51
255.1671520791997
  0
LINE
  5
E6D
330
18
100
AcDbEntity
  8
1
  6
Continuous
100
AcDbLine
 10
347.3367827710867
 20
129.1984957752947
 30
0.0
 11
347.3367827710867
 21
128.031576236539
 31
0.0
  0
LINE
  5
E6E
330
18
100
AcDbEntity
  8
1
  6
Continuous
 48
0.25
100
AcDbLine
 10
356.7364898778635
 20
135.2488513681886
 30
0.0
 11
357.2611631095039
 21
135.0579325372682
 31
0.0
  0
LINE
  5
E6F
330
18
100
AcDbEntity
  8
1
  6
Continuous
 48
0.25
100
AcDbLine
 10
357.2611631095039
 20
135.0579325372682
 30
0.0
 11
357.8947307854472
 21
134.446992278323
 31
0.0
  0
LINE
  5
E70
330
18
100
AcDbEntity
  8
1
  6
Continuous
 48
0.25
100
AcDbLine
 10
356.2104024326607
 20
135.0579325372682
 30
0.0
 11
355.5782489702798
 21
134.446992278323
 31
0.0
  0
ARC
  5
E71
330
18
100
AcDbEntity
  8
1
  6
Continuous
 48
0.25
100
AcDbCircle
 10
356.7357827710823
 20
136.1984957753221
 30
0.0
 40
2.1
100
AcDbArc
 50
213.463000000001
 51
236.5369999999989
  0
LINE
  5
E72
330
18
100
AcDbEntity
  8
1
  6
Continuous
 48
0.25
100
AcDbLine
 10
356.7364898778635
 20
135.2488513681886
 30
0.0
 11
356.2104024326607
 21
135.0579325372682
 31
0.0
  0
ARC
  5
E73
330
18
100
AcDbEntity
  8
1
  6
Continuous
100
AcDbCircle
 10
347.7367827710823
 20
144.7479762019386
 30
0.0
 40
2.5
100
AcDbArc
 50
180.0
 51
270.0
  0
ARC
  5
E74
330
18
100
AcDbEntity
  8
1
  6
Continuous
100
AcDbCircle
 10
346.5367827710823
 20
144.7479762019379
 30
0.0
 40
2.5
100
AcDbArc
 50
180.0
 51
270.0
  0
LINE
  5
E75
330
18
100
AcDbEntity
  8
1
  6
Continuous
 48
0.25
100
AcDbLine
 10
356.7357827710823
 20
137.1488472892369
 30
0.0
 11
357.2618702162851
 21
137.3397661201573
 31
0.0
  0
LINE
  5
E76
330
18
100
AcDbEntity
  8
1
  6
Continuous
 48
0.25
100
AcDbLine
 10
357.686134284997
 20
136.1984957753221
 30
0.0
 11
357.8770531159173
 21
136.724583220525
 31
0.0
  0
LINE
  5
E77
330
18
100
AcDbEntity
  8
1
  6
Continuous
 48
0.25
100
AcDbLine
 10
357.686134284997
 20
136.1984957753221
 30
0.0
 11
357.8770531159173
 21
135.6738225436817
 31
0.0
  0
LINE
  5
E78
330
18
100
AcDbEntity
  8
1
  6
Continuous
 48
0.25
100
AcDbLine
 10
357.2618702162851
 20
137.3397661201573
 30
0.0
 11
357.8940236786658
 21
137.9507063791024
 31
0.0
  0
LINE
  5
E79
330
18
100
AcDbEntity
  8
1
  6
Continuous
 48
0.25
100
AcDbLine
 10
355.7861383639488
 20
136.1992028821034
 30
0.0
 11
355.5952195330283
 21
136.7238761137437
 31
0.0
  0
LINE
  5
E7A
330
18
100
AcDbEntity
  8
1
  6
Continuous
 48
0.25
100
AcDbLine
 10
356.2111095394419
 20
137.3397661201572
 30
0.0
 11
355.57824897028
 21
137.9499992723212
 31
0.0
  0
LINE
  5
E7B
330
18
100
AcDbEntity
  8
1
  6
Continuous
 48
0.25
100
AcDbLine
 10
355.7861383639488
 20
136.1992028821034
 30
0.0
 11
355.5952195330283
 21
135.6731154369006
 31
0.0
  0
LINE
  5
E7C
330
18
100
AcDbEntity
  8
1
  6
Continuous
 48
0.25
100
AcDbLine
 10
355.5952195330283
 20
136.7238761137437
 30
0.0
 11
354.9842792740832
 21
137.3560295761245
 31
0.0
  0
ARC
  5
E7D
330
18
100
AcDbEntity
  8
1
  6
Continuous
 48
0.25
100
AcDbCircle
 10
356.7357827710823
 20
136.1984957753221
 30
0.0
 40
2.1
100
AcDbArc
 50
123.4630000000009
 51
146.5369999999989
  0
LINE
  5
E7E
330
18
100
AcDbEntity
  8
1
  6
Continuous
 48
0.25
100
AcDbLine
 10
356.7357827710823
 20
137.1488472892369
 30
0.0
 11
356.2111095394419
 21
137.3397661201572
 31
0.0
  0
LINE
  5
E7F
330
18
100
AcDbEntity
  8
1
  6
Continuous
100
AcDbLine
 10
349.465077148871
 20
156.1948455532859
 30
0.0
 11
349.465077148871
 21
154.1948455533059
 31
0.0
  0
LINE
  5
E80
330
18
100
AcDbEntity
  8
1
  6
Continuous
100
AcDbLine
 10
350.0650771488651
 20
156.1948455532859
 30
0.0
 11
348.865077148877
 21
156.1948455532859
 31
0.0
  0
LINE
  5
E81
330
18
100
AcDbEntity
  8
1
  6
Continuous
100
AcDbLine
 10
353.6304434722802
 20
154.9448455532984
 30
0.0
 11
354.3804434722725
 21
154.9448455532984
 31
0.0
  0
LINE
  5
E82
330
18
100
AcDbEntity
  8
1
  6
Continuous
100
AcDbLine
 10
353.4054434722822
 20
154.1948455533059
 30
0.0
 11
354.0054434722764
 21
156.1948455532859
 31
0.0
  0
LINE
  5
E83
330
18
100
AcDbEntity
  8
1
  6
Continuous
100
AcDbLine
 10
354.0054434722764
 20
156.1948455532859
 30
0.0
 11
354.6054434722703
 21
154.1948455533059
 31
0.0
  0
LINE
  5
E84
330
18
100
AcDbEntity
  8
1
  6
Continuous
100
AcDbLine
 10
352.2768690604467
 20
156.1948455532859
 30
0.0
 11
352.2768690604467
 21
154.1948455533059
 31
0.0
  0
LINE
  5
E85
330
18
100
AcDbEntity
  8
1
  6
Continuous
100
AcDbLine
 10
351.1268690604582
 20
156.1948455532859
 30
0.0
 11
351.1268690604582
 21
154.1948455533059
 31
0.0
  0
LINE
  5
E86
330
18
100
AcDbEntity
  8
1
  6
Continuous
100
AcDbLine
 10
351.1268690604582
 20
155.1948455532959
 30
0.0
 11
352.2768690604467
 21
155.1948455532959
 31
0.0
  0
LINE
  5
E87
330
18
100
AcDbEntity
  8
1
  6
Continuous
100
AcDbLine
 10
356.14144053803
 20
155.1948455532959
 30
0.0
 11
355.202321993574
 21
155.1948455532959
 31
0.0
  0
LINE
  5
E88
330
18
100
AcDbEntity
  8
1
  6
Continuous
100
AcDbLine
 10
357.1408552438658
 20
156.1948455532859
 30
0.0
 11
357.1408552438658
 21
155.1948455532959
 31
0.0
  0
LINE
  5
E89
330
18
100
AcDbEntity
  8
1
  6
Continuous
100
AcDbLine
 10
357.6408552438608
 20
154.1948455533059
 30
0.0
 11
357.1408552438658
 21
154.1948455533059
 31
0.0
  0
LINE
  5
E8A
330
18
100
AcDbEntity
  8
1
  6
Continuous
100
AcDbLine
 10
357.6408552438608
 20
155.1948455532959
 30
0.0
 11
357.1408552438658
 21
155.1948455532959
 31
0.0
  0
ARC
  5
E8B
330
18
100
AcDbEntity
  8
1
  6
Continuous
100
AcDbCircle
 10
357.6408552438608
 20
154.6948455533009
 30
0.0
 40
0.499999999995
100
AcDbArc
 50
270.0
 51
89.99999999999998
  0
LINE
  5
E8C
330
18
100
AcDbEntity
  8
1
  6
Continuous
100
AcDbLine
 10
358.1408552438558
 20
156.1948455532859
 30
0.0
 11
357.1408552438658
 21
156.1948455532859
 31
0.0
  0
ARC
  5
E8E
330
18
100
AcDbEntity
  8
1
  6
Continuous
100
AcDbCircle
 10
357.9867827710824
 20
136.1984957753221
 30
0.0
 40
5.750000000000013
100
AcDbArc
 50
292.6198649480405
 51
60.40815420604918
  0
ARC
  5
E8F
330
18
100
AcDbEntity
  8
1
  6
Continuous
100
AcDbCircle
 10
363.1367827710868
 20
128.0315762365414
 30
0.0
 40
3.0
100
AcDbArc
 50
284.8328479208203
 51
0.0
  0
LINE
  5
E90
330
18
100
AcDbEntity
  8
1
  6
Continuous
100
AcDbLine
 10
366.1367827710868
 20
129.1984957753048
 30
0.0
 11
366.1367827710868
 21
128.0315762365414
 31
0.0
  0
ARC
  5
E91
330
18
100
AcDbEntity
  8
1
  6
Continuous
100
AcDbCircle
 10
371.7367827710462
 20
130.1984957753077
 30
0.0
 40
1.0
100
AcDbArc
 50
270.0
 51
0.0
  0
ARC
  5
E92
330
18
100
AcDbEntity
  8
1
  6
Continuous
100
AcDbCircle
 10
365.7367827710824
 20
144.7479762019483
 30
0.0
 40
2.5
100
AcDbArc
 50
270.0
 51
0.0
  0
ARC
  5
E93
330
18
100
AcDbEntity
  8
1
  6
Continuous
100
AcDbCircle
 10
366.9367827710824
 20
144.7479762019488
 30
0.0
 40
2.5
100
AcDbArc
 50
270.0
 51
0.0
  0
LINE
  5
E94
330
18
100
AcDbEntity
  8
1
  6
Continuous
100
AcDbLine
 10
363.1609301182655
 20
155.1948455532959
 30
0.0
 11
362.2218115738095
 21
155.1948455532959
 31
0.0
  0
ARC
  5
E95
330
18
100
AcDbEntity
  8
1
  6
Continuous
100
AcDbCircle
 10
359.3219660370813
 20
155.6948455532909
 30
0.0
 40
0.4999999999949998
100
AcDbArc
 50
0.0
 51
180.0
  0
ARC
  5
E96
330
18
100
AcDbEntity
  8
1
  6
Continuous
100
AcDbCircle
 10
359.3219660370813
 20
154.6948455533009
 30
0.0
 40
0.4999999999949998
100
AcDbArc
 50
180.0
 51
0.0
  0
LINE
  5
E97
330
18
100
AcDbEntity
  8
1
  6
Continuous
100
AcDbLine
 10
358.8219660370863
 20
155.6948455532909
 30
0.0
 11
358.8219660370863
 21
154.6948455533009
 31
0.0
  0
LINE
  5
E98
330
18
100
AcDbEntity
  8
1
  6
Continuous
100
AcDbLine
 10
359.8219660370763
 20
155.6948455532909
 30
0.0
 11
359.8219660370763
 21
154.6948455533009
 31
0.0
  0
LINE
  5
E99
330
18
100
AcDbEntity
  8
1
  6
Continuous
100
AcDbLine
 10
361.173232424962
 20
156.1948455532859
 30
0.0
 11
360.7018279041758
 21
154.861512219966
 31
0.0
  0
CIRCLE
  5
E9A
330
18
100
AcDbEntity
  8
1
  6
Continuous
100
AcDbCircle
 10
361.173232424962
 20
154.6948455533009
 30
0.0
 40
0.4999999999949998
  0
LINE
  5
E9B
330
18
100
AcDbEntity
  8
1
  6
Continuous
100
AcDbLine
 10
363.9833042898258
 20
156.1948455532859
 30
0.0
 11
363.9833042898258
 21
154.1948455533059
 31
0.0
  0
LINE
  5
E9C
330
18
100
AcDbEntity
  8
1
  6
Continuous
100
AcDbLine
 10
363.9833042898258
 20
156.1948455532859
 30
0.0
 11
363.7393055226478
 21
155.6715885084769
 31
0.0
  0
LINE
  5
E9E
330
18
100
AcDbEntity
  8
1
  6
Continuous
100
AcDbLine
 10
367.2367827710824
 20
230.7460140788689
 30
0.0
 11
346.2367827710824
 21
230.7460140788689
 31
0.0
  0
ARC
  5
E9F
330
18
100
AcDbEntity
  8
1
  6
Continuous
100
AcDbCircle
 10
356.7367827710824
 20
155.4652074054073
 30
0.0
 40
5.733264282363177
100
AcDbArc
 50
54.46232220799835
 51
125.5376777920001
  0
ARC
  5
EA0
330
18
100
AcDbEntity
  8
1
  6
Continuous
100
AcDbCircle
 10
356.7367827710824
 20
162.9317841452292
 30
0.0
 40
5.733264282363177
100
AcDbArc
 50
234.4623222080521
 51
305.5376777919478
  0
LINE
  5
EA1
330
18
100
AcDbEntity
  8
1
  6
Continuous
100
AcDbLine
 10
365.7367827710269
 20
169.1984957753194
 30
0.0
 11
347.7367827710271
 21
169.1984957753098
 31
0.0
  0
ARC
  5
EA2
330
18
100
AcDbEntity
  8
1
  6
Continuous
100
AcDbCircle
 10
347.7367827710823
 20
166.6984957753098
 30
0.0
 40
2.5
100
AcDbArc
 50
90.0
 51
180.0
  0
ARC
  5
EA3
330
18
100
AcDbEntity
  8
1
  6
Continuous
100
AcDbCircle
 10
356.7367827710824
 20
155.4652074054073
 30
0.0
 40
5.288825190707117
100
AcDbArc
 50
112.9439535565377
 51
116.0143659996371
  0
ARC
  5
EA4
330
18
100
AcDbEntity
  8
1
  6
Continuous
100
AcDbCircle
 10
354.6923629494647
 20
160.2946879798748
 30
0.0
 40
0.044443909165606
100
AcDbArc
 50
0.0
 51
112.9439535565377
  0
ARC
  5
EA5
330
18
100
AcDbEntity
  8
1
  6
Continuous
100
AcDbCircle
 10
355.5812411327766
 20
160.5806994197031
 30
0.0
 40
0.044443909165606
100
AcDbArc
 50
0.0
 51
102.7289438731228
  0
ARC
  5
EA6
330
18
100
AcDbEntity
  8
1
  6
Continuous
100
AcDbCircle
 10
356.7367827710824
 20
155.4652074054073
 30
0.0
 40
5.288825190707117
100
AcDbArc
 50
102.7289438731228
 51
103.2681189705554
  0
ARC
  5
EA7
330
18
100
AcDbEntity
  8
1
  6
Continuous
100
AcDbCircle
 10
356.7367827710824
 20
155.4652074054073
 30
0.0
 40
5.288825190707117
100
AcDbArc
 50
103.2681189705554
 51
105.2575232904568
  0
ARC
  5
EA8
330
18
100
AcDbEntity
  8
1
  6
Continuous
100
AcDbCircle
 10
355.4034654961142
 20
160.3532292757545
 30
0.0
 40
0.2222195458280301
100
AcDbArc
 50
105.2575232904568
 51
180.0
  0
ARC
  5
EA9
330
18
100
AcDbEntity
  8
1
  6
Continuous
100
AcDbCircle
 10
357.6256609543945
 20
160.4532318977241
 30
0.0
 40
0.2222195458280301
100
AcDbArc
 50
0.0
 51
79.8958172838747
  0
ARC
  5
EAA
330
18
100
AcDbEntity
  8
1
  6
Continuous
100
AcDbCircle
 10
356.7367827710824
 20
155.4652074054073
 30
0.0
 40
5.288825190707117
100
AcDbArc
 50
79.8958172838747
 51
82.20707566457726
  0
ARC
  5
EAB
330
18
100
AcDbEntity
  8
1
  6
Continuous
100
AcDbCircle
 10
357.4478853177322
 20
160.6611546909685
 30
0.0
 40
0.044443909165606
100
AcDbArc
 50
82.20707566457726
 51
180.0
  0
ARC
  5
EAC
330
18
100
AcDbEntity
  8
1
  6
Continuous
100
AcDbCircle
 10
354.5145873128019
 20
160.0184853571603
 30
0.0
 40
0.2222195458280301
100
AcDbArc
 50
116.0143659996371
 51
180.0
  0
ARC
  5
EAD
330
18
100
AcDbEntity
  8
1
  6
Continuous
100
AcDbCircle
 10
354.6923629494647
 20
158.1023035707616
 30
0.0
 40
0.044443909165606
100
AcDbArc
 50
247.0560464434622
 51
0.0
  0
ARC
  5
EAE
330
18
100
AcDbEntity
  8
1
  6
Continuous
100
AcDbCircle
 10
356.7367827710824
 20
162.9317841452292
 30
0.0
 40
5.288825190707117
100
AcDbArc
 50
243.9856340003628
 51
247.0560464434622
  0
ARC
  5
EAF
330
18
100
AcDbEntity
  8
1
  6
Continuous
100
AcDbCircle
 10
355.4034654961142
 20
158.0437622748819
 30
0.0
 40
0.2222195458280301
100
AcDbArc
 50
180.0
 51
254.7424767095431
  0
ARC
  5
EB0
330
18
100
AcDbEntity
  8
1
  6
Continuous
100
AcDbCircle
 10
356.7367827710824
 20
162.9317841452292
 30
0.0
 40
5.288825190707117
100
AcDbArc
 50
254.7424767095431
 51
254.7937121239421
  0
ARC
  5
EB1
330
18
100
AcDbEntity
  8
1
  6
Continuous
100
AcDbCircle
 10
356.7367827710824
 20
162.9317841452292
 30
0.0
 40
5.288825190707117
100
AcDbArc
 50
254.7937121239421
 51
257.2710561268771
  0
ARC
  5
EB2
330
18
100
AcDbEntity
  8
1
  6
Continuous
100
AcDbCircle
 10
355.5812411327766
 20
157.8162921309333
 30
0.0
 40
0.044443909165606
100
AcDbArc
 50
257.2710561268771
 51
0.0
  0
LINE
  5
EB3
330
18
100
AcDbEntity
  8
1
  6
Continuous
100
AcDbLine
 10
355.6256850419422
 20
157.8162921309333
 30
0.0
 11
355.6256850419422
 21
158.6651688653273
 31
0.0
  0
LINE
  5
EB4
330
18
100
AcDbEntity
  8
1
  6
Continuous
100
AcDbLine
 10
356.5145632252543
 20
159.1984957753145
 30
0.0
 11
356.0701241335982
 21
159.1984957753145
 31
0.0
  0
ARC
  5
EB5
330
18
100
AcDbEntity
  8
1
  6
Continuous
100
AcDbCircle
 10
357.4478853177322
 20
157.7358368596679
 30
0.0
 40
0.044443909165606
100
AcDbArc
 50
180.0
 51
277.7929243354226
  0
ARC
  5
EB6
330
18
100
AcDbEntity
  8
1
  6
Continuous
100
AcDbCircle
 10
356.7367827710824
 20
162.9317841452292
 30
0.0
 40
5.288825190707117
100
AcDbArc
 50
277.7929243354226
 51
280.1041827161252
  0
ARC
  5
EB7
330
18
100
AcDbEntity
  8
1
  6
Continuous
100
AcDbCircle
 10
357.6256609543945
 20
157.9437596529123
 30
0.0
 40
0.2222195458280301
100
AcDbArc
 50
280.1041827161252
 51
0.0
  0
LINE
  5
EB8
330
18
100
AcDbEntity
  8
1
  6
Continuous
100
AcDbLine
 10
357.8478805002224
 20
157.9437596529123
 30
0.0
 11
357.8478805002224
 21
159.1984957753145
 31
0.0
  0
LINE
  5
EB9
330
18
100
AcDbEntity
  8
1
  6
Continuous
100
AcDbLine
 10
357.8478805002224
 20
159.1984957753145
 30
0.0
 11
357.6256609543945
 21
159.1984957753145
 31
0.0
  0
ARC
  5
EBA
330
18
100
AcDbEntity
  8
1
  6
Continuous
100
AcDbCircle
 10
354.070148221146
 20
159.1984957753145
 30
0.0
 40
1.145412728988863
100
AcDbArc
 50
180.0
 51
234.4623222080521
  0
ARC
  5
EBB
330
18
100
AcDbEntity
  8
1
  6
Continuous
100
AcDbCircle
 10
354.5145873128019
 20
158.3785061934761
 30
0.0
 40
0.2222195458280301
100
AcDbArc
 50
180.0
 51
243.9856340003628
  0
ARC
  5
EBC
330
18
100
AcDbEntity
  8
1
  6
Continuous
100
AcDbCircle
 10
354.070148221146
 20
159.1984957753145
 30
0.0
 40
1.145412728988863
100
AcDbArc
 50
125.5376777920001
 51
166.5374393917332
  0
LINE
  5
EBD
330
18
100
AcDbEntity
  8
1
  6
Continuous
100
AcDbLine
 10
353.8479286753179
 20
160.4174635927231
 30
0.0
 11
353.8479286753179
 21
158.5016381079925
 31
0.0
  0
LINE
  5
EBE
330
18
100
AcDbEntity
  8
1
  6
Continuous
100
AcDbLine
 10
354.2923677669741
 20
158.3785061934761
 30
0.0
 11
354.2923677669741
 21
160.0184853571603
 31
0.0
  0
LINE
  5
EBF
330
18
100
AcDbEntity
  8
1
  6
Continuous
100
AcDbLine
 10
354.73680685863
 20
160.2946879798748
 30
0.0
 11
354.73680685863
 21
158.1023035707616
 31
0.0
  0
LINE
  5
EC0
330
18
100
AcDbEntity
  8
1
  6
Continuous
100
AcDbLine
 10
355.6256850419422
 20
159.7318226853019
 30
0.0
 11
355.6256850419422
 21
160.5806994197031
 31
0.0
  0
LINE
  5
EC1
330
18
100
AcDbEntity
  8
1
  6
Continuous
100
AcDbLine
 10
355.1812459502861
 20
160.3532292757545
 30
0.0
 11
355.1812459502861
 21
158.0437622748819
 31
0.0
  0
LINE
  5
EC2
330
18
100
AcDbEntity
  8
1
  6
Continuous
100
AcDbLine
 10
356.0701241335982
 20
160.7118480600478
 30
0.0
 11
356.0701241335982
 21
157.6851434905887
 31
0.0
  0
LINE
  5
EC3
330
18
100
AcDbEntity
  8
1
  6
Continuous
100
AcDbLine
 10
356.5145632252543
 20
160.7493620559933
 30
0.0
 11
356.5145632252543
 21
157.6476294946431
 31
0.0
  0
LINE
  5
EC4
330
18
100
AcDbEntity
  8
1
  6
Continuous
100
AcDbLine
 10
356.9590023169104
 20
160.7493620559933
 30
0.0
 11
356.9590023169104
 21
157.6476294946431
 31
0.0
  0
LINE
  5
EC5
330
18
100
AcDbEntity
  8
1
  6
Continuous
100
AcDbLine
 10
357.8478805002224
 20
159.7318226853019
 30
0.0
 11
357.8478805002224
 21
160.4532318977241
 31
0.0
  0
LINE
  5
EC6
330
18
100
AcDbEntity
  8
1
  6
Continuous
100
AcDbLine
 10
357.4034414085664
 20
160.6611546909685
 30
0.0
 11
357.4034414085664
 21
157.7358368596679
 31
0.0
  0
LINE
  5
EC7
330
18
100
AcDbEntity
  8
1
  6
Continuous
100
AcDbLine
 10
358.2923195918787
 20
160.65944371547
 30
0.0
 11
358.2923195918787
 21
157.8768877964397
 31
0.0
  0
ARC
  5
EC8
330
18
100
AcDbEntity
  8
1
  6
Continuous
100
AcDbCircle
 10
346.2367827710824
 20
231.7460140788689
 30
0.0
 40
1.0
100
AcDbArc
 50
180.0
 51
270.0
  0
ARC
  5
EC9
330
18
100
AcDbEntity
  8
1
  6
Continuous
100
AcDbCircle
 10
346.2367827710824
 20
236.2618030628283
 30
0.0
 40
1.0
100
AcDbArc
 50
180.0
 51
270.0
  0
LINE
  5
ECA
330
18
100
AcDbEntity
  8
1
  6
Continuous
100
AcDbLine
 10
350.1642010371037
 20
235.2618030628284
 30
0.0
 11
346.2367827710824
 21
235.2618030628284
 31
0.0
  0
LINE
  5
ECB
330
18
100
AcDbEntity
  8
1
  6
Continuous
100
AcDbLine
 10
349.5487719196681
 20
241.5484957753153
 30
0.0
 11
346.9939969785028
 21
240.0734957753172
 31
0.0
  0
LINE
  5
ECC
330
18
100
AcDbEntity
  8
1
  6
Continuous
100
AcDbLine
 10
356.1506391996891
 20
240.6984957753298
 30
0.0
 11
357.3229263423733
 21
240.6984957753318
 31
0.0
  0
ARC
  5
ECD
330
18
100
AcDbEntity
  8
1
  6
Continuous
100
AcDbCircle
 10
365.7367827710824
 20
166.6984957753195
 30
0.0
 40
2.5
100
AcDbArc
 50
0.0
 51
90.0
  0
ARC
  5
ECE
330
18
100
AcDbEntity
  8
1
  6
Continuous
100
AcDbCircle
 10
358.9589782293626
 20
159.4207153211427
 30
0.0
 40
0.2222195458280311
100
AcDbArc
 50
180.0
 51
0.0
  0
LINE
  5
ECF
330
18
100
AcDbEntity
  8
1
  6
Continuous
100
AcDbLine
 10
358.9589782293626
 20
159.1984957753145
 30
0.0
 11
358.9589782293626
 21
158.1324592715561
 31
0.0
  0
LINE
  5
ED0
330
18
100
AcDbEntity
  8
1
  6
Continuous
100
AcDbLine
 10
358.7367586835346
 20
160.4500628856557
 30
0.0
 11
358.7367586835346
 21
159.4207153211427
 31
0.0
  0
LINE
  5
ED1
330
18
100
AcDbEntity
  8
1
  6
Continuous
100
AcDbLine
 10
359.1811977751906
 20
159.4207153211427
 30
0.0
 11
359.1811977751906
 21
160.3701722099899
 31
0.0
  0
LINE
  5
ED2
330
18
100
AcDbEntity
  8
1
  6
Continuous
100
AcDbLine
 10
359.4074907084792
 20
158.3668097738901
 30
0.0
 11
359.9095559952492
 21
160.2405429328265
 31
0.0
  0
ARC
  5
ED3
330
18
100
AcDbEntity
  8
1
  6
Continuous
100
AcDbCircle
 10
359.4034173210186
 20
159.1984957753145
 30
0.0
 40
1.145412728988864
100
AcDbArc
 50
332.2496545546283
 51
54.46232220799835
  0
ARC
  5
ED4
330
18
100
AcDbEntity
  8
1
  6
Continuous
100
AcDbCircle
 10
359.4034173210186
 20
159.1984957753145
 30
0.0
 40
1.145412728988864
100
AcDbArc
 50
305.5376777919478
 51
315.6988392796176
  0
LINE
  5
ED5
330
18
100
AcDbEntity
  8
1
  6
Continuous
100
AcDbLine
 10
360.5488300500077
 20
159.1984957753145
 30
0.0
 11
359.6303403009179
 21
159.1984957753145
 31
0.0
  0
ARC
  5
ED6
330
18
100
AcDbEntity
  8
1
  6
Continuous
100
AcDbCircle
 10
367.2367827710824
 20
231.7460140788689
 30
0.0
 40
1.0
100
AcDbArc
 50
270.0
 51
0.0
  0
LINE
  5
ED7
330
18
100
AcDbEntity
  8
1
  6
Continuous
100
AcDbLine
 10
367.2367827710824
 20
235.2618030628284
 30
0.0
 11
363.3093645050611
 21
235.2618030628284
 31
0.0
  0
ARC
  5
ED8
330
18
100
AcDbEntity
  8
1
  6
Continuous
100
AcDbCircle
 10
367.2367827710824
 20
236.2618030628283
 30
0.0
 40
1.0
100
AcDbArc
 50
270.0
 51
0.0
  0
LINE
  5
EDD
330
18
100
AcDbEntity
  8
4
  6
CENTER
100
AcDbLine
 10
451.9853045491106
 20
136.1984957753194
 30
0.0
 11
465.8536290133008
 21
136.1984957753194
 31
0.0
  0
ARC
  5
EDE
330
18
100
AcDbEntity
  8
1
  6
Continuous
100
AcDbCircle
 10
463.3853045491107
 20
136.1984957753194
 30
0.0
 40
9.0
100
AcDbArc
 50
164.1191499917206
 51
195.8808500082794
  0
LINE
  5
EDF
330
18
100
AcDbEntity
  8
1
  6
Continuous
100
AcDbLine
 10
457.9853045491106
 20
136.1984957753194
 30
0.0
 11
456.9853045491107
 21
135.1984957753195
 31
0.0
  0
LINE
  5
EE1
330
18
100
AcDbEntity
  8
1
  6
Continuous
100
AcDbLine
 10
457.9853045491103
 20
140.6984957753224
 30
0.0
 11
457.9853045491112
 21
130.6984957753225
 31
0.0
  0
LINE
  5
EE2
330
18
100
AcDbEntity
  8
1
  6
Continuous
100
AcDbLine
 10
456.9853045491107
 20
139.9984957753193
 30
0.0
 11
456.9853045491107
 21
132.3984957753194
 31
0.0
  0
LINE
  5
EE3
330
18
100
AcDbEntity
  8
1
  6
Continuous
100
AcDbLine
 10
462.9853045491103
 20
141.1984957753227
 30
0.0
 11
462.9853045491113
 21
130.1984957753227
 31
0.0
  0
LINE
  5
EE4
330
18
100
AcDbEntity
  8
1
  6
Continuous
100
AcDbLine
 10
462.9853045491113
 20
130.1984957753227
 30
0.0
 11
458.4853045491112
 21
130.1984957753224
 31
0.0
  0
LINE
  5
EE5
330
18
100
AcDbEntity
  8
1
  6
Continuous
100
AcDbLine
 10
456.9853045491107
 20
132.3984957753194
 30
0.0
 11
457.9853045491106
 21
132.3984957753194
 31
0.0
  0
ARC
  5
EE6
330
18
100
AcDbEntity
  8
1
  6
Continuous
100
AcDbCircle
 10
458.4853045491113
 20
130.6984957753225
 30
0.0
 40
0.5
100
AcDbArc
 50
180.0000000000049
 51
270.0000000000049
  0
LINE
  5
EE7
330
18
100
AcDbEntity
  8
1
  6
Continuous
100
AcDbLine
 10
456.9853045491107
 20
132.6984957753194
 30
0.0
 11
455.8658893592761
 21
132.7964319142087
 31
0.0
  0
ARC
  5
EE8
330
18
100
AcDbEntity
  8
1
  6
Continuous
100
AcDbCircle
 10
455.9791918248878
 20
134.0914850217332
 30
0.0
 40
1.3
100
AcDbArc
 50
195.8808500082794
 51
265.0000000000002
  0
LINE
  5
EE9
330
18
100
AcDbEntity
  8
1
  6
Continuous
100
AcDbLine
 10
462.9853045491103
 20
141.1984957753228
 30
0.0
 11
458.4853045491103
 21
141.1984957753226
 31
0.0
  0
LINE
  5
EEA
330
18
100
AcDbEntity
  8
1
  6
Continuous
100
AcDbLine
 10
456.9853045491107
 20
139.9984957753193
 30
0.0
 11
457.9853045491106
 21
139.9984957753193
 31
0.0
  0
ARC
  5
EEB
330
18
100
AcDbEntity
  8
1
  6
Continuous
100
AcDbCircle
 10
458.4853045491103
 20
140.6984957753224
 30
0.0
 40
0.5
100
AcDbArc
 50
90.00000000000486
 51
180.0000000000049
  0
LINE
  5
EEC
330
18
100
AcDbEntity
  8
1
  6
Continuous
100
AcDbLine
 10
456.9853045491107
 20
139.6984957753194
 30
0.0
 11
455.8658893593096
 21
139.600559636433
 31
0.0
  0
LINE
  5
EED
330
18
100
AcDbEntity
  8
1
  6
Continuous
100
AcDbLine
 10
457.9853045491106
 20
137.1984957753194
 30
0.0
 11
456.9853045491107
 21
136.1984957753194
 31
0.0
  0
ARC
  5
EEE
330
18
100
AcDbEntity
  8
1
  6
Continuous
100
AcDbCircle
 10
455.9791918249016
 20
138.3055065289021
 30
0.0
 40
1.3
100
AcDbArc
 50
94.99999999999978
 51
164.1191499917206
  0
LINE
  5
EF1
330
18
100
AcDbEntity
  8
1
  6
Continuous
100
AcDbLine
 10
445.058599963727
 20
241.0984957753232
 30
0.0
 11
446.358599963727
 21
241.0984957753232
 31
0.0
  0
LINE
  5
EF2
330
18
100
AcDbEntity
  8
1
  6
Continuous
100
AcDbLine
 10
445.058599963727
 20
241.1984957753231
 30
0.0
 11
443.5971014955907
 21
241.3263603230455
 31
0.0
  0
LINE
  5
EF3
330
18
100
AcDbEntity
  8
1
  6
Continuous
100
AcDbLine
 10
446.358599963727
 20
239.6984957753227
 30
0.0
 11
447.158599963727
 21
239.6984957753224
 31
0.0
  0
ARC
  5
EF4
330
18
100
AcDbEntity
  8
5
  6
PHANTOM
100
AcDbCircle
 10
578.3836643163206
 20
163.8862411920379
 30
0.0
 40
1.0
100
AcDbArc
 50
225.0
 51
314.9999999999997
  0
LINE
  5
EF6
330
18
100
AcDbEntity
  8
1
  6
Continuous
100
AcDbLine
 10
481.6831846336476
 20
161.9984957753304
 30
0.0
 11
481.6831846336476
 21
151.3984957753303
 31
0.0
  0
LINE
  5
EF7
330
18
100
AcDbEntity
  8
1
  6
Continuous
100
AcDbLine
 10
477.9831846336476
 20
166.198495775336
 30
0.0
 11
477.9831846336476
 21
147.0749299874188
 31
0.0
  0
ARC
  5
EFC
330
18
100
AcDbEntity
  8
1
  6
Continuous
100
AcDbCircle
 10
485.5831846336477
 20
143.2845807051629
 30
0.0
 40
1.0
100
AcDbArc
 50
180.0
 51
267.651613027923
  0
ARC
  5
EFD
330
18
100
AcDbEntity
  8
1
  6
Continuous
100
AcDbCircle
 10
489.7831846336475
 20
245.6984957753328
 30
0.0
 40
103.4999999999999
100
AcDbArc
 50
266.724171040202
 51
268.2282539360035
  0
LINE
  5
EFE
330
18
100
AcDbEntity
  8
4
  6
CENTER
100
AcDbLine
 10
480.5389443298577
 20
136.1984957753242
 30
0.0
 11
490.7361317833482
 21
136.1984957753238
 31
0.0
  0
LINE
  5
EFF
330
18
100
AcDbEntity
  8
1
  6
Continuous
100
AcDbLine
 10
483.0831846336478
 20
139.6984957753242
 30
0.0
 11
486.5831846336477
 21
139.6984957753238
 31
0.0
  0
LINE
  5
F00
330
18
100
AcDbEntity
  8
1
  6
Continuous
100
AcDbLine
 10
483.0831846336478
 20
132.6984957753241
 30
0.0
 11
486.5831846336477
 21
132.6984957753237
 31
0.0
  0
LINE
  5
F01
330
18
100
AcDbEntity
  8
1
  6
Continuous
100
AcDbLine
 10
483.0831846336478
 20
139.6984957753242
 30
0.0
 11
483.0831846336478
 21
132.6984957753241
 31
0.0
  0
LINE
  5
F02
330
18
100
AcDbEntity
  8
1
  6
Continuous
100
AcDbLine
 10
482.5831846336477
 20
133.1984957753242
 30
0.0
 11
482.5831846336477
 21
139.1984957753242
 31
0.0
  0
LINE
  5
F03
330
18
100
AcDbEntity
  8
1
  6
Continuous
100
AcDbLine
 10
482.5831846336478
 20
133.1984957753242
 30
0.0
 11
483.0831846336478
 21
132.6984957753241
 31
0.0
  0
ARC
  5
F04
330
18
100
AcDbEntity
  8
1
  6
Continuous
100
AcDbCircle
 10
480.9831846336476
 20
147.0749299874188
 30
0.0
 40
3.0
100
AcDbArc
 50
180.0
 51
214.7719440319497
  0
ARC
  5
F05
330
18
100
AcDbEntity
  8
1
  6
Continuous
100
AcDbCircle
 10
484.2688989193617
 20
149.356175619229
 30
0.0
 40
7.0
100
AcDbArc
 50
228.9176668595492
 51
266.724171040202
  0
ARC
  5
F06
330
18
100
AcDbEntity
  8
1
  6
Continuous
100
AcDbCircle
 10
484.2688989193617
 20
149.356175619229
 30
0.0
 40
7.0
100
AcDbArc
 50
214.7719440319492
 51
228.9176668595492
  0
LINE
  5
F07
330
18
100
AcDbEntity
  8
1
  6
Continuous
100
AcDbLine
 10
483.0831846336478
 20
139.6984957753242
 30
0.0
 11
482.5831846336478
 21
139.1984957753243
 31
0.0
  0
LINE
  5
F08
330
18
100
AcDbEntity
  8
1
  6
Continuous
100
AcDbLine
 10
484.5831846336476
 20
151.3984957753304
 30
0.0
 11
481.6831846336476
 21
151.3984957753304
 31
0.0
  0
ARC
  5
F09
330
18
100
AcDbEntity
  8
1
  6
Continuous
100
AcDbCircle
 10
483.5831846336481
 20
135.3725695385552
 30
0.0
 40
10.0
100
AcDbArc
 50
0.000000000000007
 51
4.792940316870503
  0
ARC
  5
F0A
330
18
100
AcDbEntity
  8
1
  6
Continuous
100
AcDbCircle
 10
465.9156075707008
 20
152.2765920390676
 30
0.0
 40
32.0
100
AcDbArc
 50
314.5860766758552
 51
329.3440375942917
  0
ARC
  5
F0B
330
18
100
AcDbEntity
  8
1
  6
Continuous
100
AcDbCircle
 10
495.5831846336479
 20
125.1984957753222
 30
0.0
 40
1.0
100
AcDbArc
 50
270.0
 51
0.000000000000007
  0
ARC
  5
F0C
330
18
100
AcDbEntity
  8
1
  6
Continuous
100
AcDbCircle
 10
494.583184633648
 20
125.1984957753222
 30
0.0
 40
1.0
100
AcDbArc
 50
180.0
 51
270.0
  0
LINE
  5
F0D
330
18
100
AcDbEntity
  8
1
  6
Continuous
100
AcDbLine
 10
495.5831846336479
 20
124.1984957753222
 30
0.0
 11
494.583184633648
 21
124.1984957753222
 31
0.0
  0
ARC
  5
F0E
330
18
100
AcDbEntity
  8
1
  6
Continuous
100
AcDbCircle
 10
487.6769877054526
 20
130.1984957753305
 30
0.0
 40
1.0
100
AcDbArc
 50
270.0
 51
314.5860766758552
  0
LINE
  5
F0F
330
18
100
AcDbEntity
  8
1
  6
Continuous
100
AcDbLine
 10
486.5831846336477
 20
129.1984957753239
 30
0.0
 11
487.6769877054526
 21
129.1984957753239
 31
0.0
  0
LINE
  5
F10
330
18
100
AcDbEntity
  8
1
  6
Continuous
100
AcDbLine
 10
493.5831846336482
 20
125.1984957753222
 30
0.0
 11
493.5831846336482
 21
135.3725695385552
 31
0.0
  0
ARC
  5
F11
330
18
100
AcDbEntity
  8
1
  6
Continuous
100
AcDbCircle
 10
492.5831846336477
 20
136.4702536398118
 30
0.0
 40
1.0
100
AcDbArc
 50
329.3440375942917
 51
0.000000000000007
  0
LINE
  5
F12
330
18
100
AcDbEntity
  8
5
  6
PHANTOM
100
AcDbLine
 10
495.9547575089062
 20
238.1127093376883
 30
0.0
 11
541.0484262696727
 21
193.0190405769218
 31
0.0
  0
LINE
  5
F13
330
18
100
AcDbEntity
  8
5
  6
PHANTOM
100
AcDbLine
 10
496.3547575089067
 20
236.2984957753147
 30
0.0
 11
540.343087531739
 21
192.3101657524824
 31
0.0
  0
ARC
  5
F15
330
18
100
AcDbEntity
  8
1
  6
Continuous
100
AcDbCircle
 10
481.5831846336475
 20
172.198495775336
 30
0.0
 40
2.999999999999971
100
AcDbArc
 50
270.0
 51
0.000000000000007
  0
ARC
  5
F16
330
18
100
AcDbEntity
  8
1
  6
Continuous
100
AcDbCircle
 10
480.9831846336476
 20
166.198495775336
 30
0.0
 40
3.0
100
AcDbArc
 50
90.0
 51
180.0
  0
LINE
  5
F17
330
18
100
AcDbEntity
  8
1
  6
Continuous
100
AcDbLine
 10
484.5831846336476
 20
161.9984957753304
 30
0.0
 11
481.6831846336476
 21
161.9984957753304
 31
0.0
  0
LINE
  5
F18
330
18
100
AcDbEntity
  8
1
  6
Continuous
100
AcDbLine
 10
480.9831846336476
 20
169.198495775336
 30
0.0
 11
481.5831846336475
 21
169.198495775336
 31
0.0
  0
LINE
  5
F19
330
18
100
AcDbEntity
  8
1
  6
Continuous
100
AcDbLine
 10
469.0831846336505
 20
240.6984957753241
 30
0.0
 11
471.0831846336478
 21
240.6984957753251
 31
0.0
  0
LINE
  5
F1A
330
18
100
AcDbEntity
  8
1
  6
Continuous
100
AcDbLine
 10
480.3602888685011
 20
234.9689098440147
 30
0.0
 11
484.5831846336467
 21
230.7460140788689
 31
0.0
  0
LINE
  5
F1B
330
18
100
AcDbEntity
  8
1
  6
Continuous
100
AcDbLine
 10
480.3602888685011
 20
234.9689098440147
 30
0.0
 11
484.5831846336468
 21
230.7460140788689
 31
0.0
  0
LINE
  5
F1C
330
18
100
AcDbEntity
  8
1
  6
Continuous
100
AcDbLine
 10
482.1307029371935
 20
233.1984957753222
 30
0.0
 11
474.5831846336475
 21
233.1984957753236
 31
0.0
  0
LINE
  5
F1D
330
18
100
AcDbEntity
  8
1
  6
Continuous
100
AcDbLine
 10
473.1831846336478
 20
238.6984957753233
 30
0.0
 11
473.0831846336492
 21
238.6984957753235
 31
0.0
  0
ARC
  5
F1E
330
18
100
AcDbEntity
  8
1
  6
Continuous
100
AcDbCircle
 10
473.4394346336478
 20
235.9484957753228
 30
0.0
 40
0.2562500000000227
100
AcDbArc
 50
180.0
 51
257.3196165081736
  0
ARC
  5
F1F
330
18
100
AcDbEntity
  8
1
  6
Continuous
100
AcDbCircle
 10
474.5831846336478
 20
234.1984957753237
 30
0.0
 40
1.0
100
AcDbArc
 50
180.0
 51
270.0
  0
LINE
  5
F20
330
18
100
AcDbEntity
  8
1
  6
Continuous
100
AcDbLine
 10
473.5831846336477
 20
235.6984957753228
 30
0.0
 11
473.3831846336477
 21
235.6984957753228
 31
0.0
  0
LINE
  5
F21
330
18
100
AcDbEntity
  8
1
  6
Continuous
100
AcDbLine
 10
471.0831846336478
 20
234.4484957752115
 30
0.0
 11
473.0831846334983
 21
234.4484957752046
 31
0.0
  0
ARC
  5
F22
330
18
100
AcDbEntity
  8
1
  6
Continuous
100
AcDbCircle
 10
481.0673956496875
 20
235.6760166252012
 30
0.0
 40
1.0
100
AcDbArc
 50
180.0
 51
225.0
  0
ARC
  5
F23
330
18
100
AcDbEntity
  8
5
  6
PHANTOM
100
AcDbCircle
 10
498.7831846336526
 20
240.9411364624345
 30
0.0
 40
4.0
100
AcDbArc
 50
180.0000000000667
 51
225.0
  0
LINE
  5
F24
330
18
100
AcDbEntity
  8
5
  6
PHANTOM
100
AcDbLine
 10
494.2831846336479
 20
236.2984957753163
 30
0.0
 11
497.7689710712808
 21
236.2984957753137
 31
0.0
  0
LINE
  5
F25
330
18
100
AcDbEntity
  8
5
  6
PHANTOM
100
AcDbLine
 10
493.583184633648
 20
237.4730778528098
 30
0.0
 11
494.2831846335832
 21
237.4730778528099
 31
0.0
  0
LINE
  5
F26
330
18
100
AcDbEntity
  8
5
  6
PHANTOM
100
AcDbLine
 10
494.2831846336479
 20
237.4730778528101
 30
0.0
 11
494.2831846336479
 21
236.2984957753163
 31
0.0
  0
LINE
  5
F27
330
18
100
AcDbEntity
  8
5
  6
PHANTOM
100
AcDbLine
 10
540.4827408447232
 20
181.1396466529878
 30
0.0
 11
550.9659819750233
 21
170.6564055226878
 31
0.0
  0
ARC
  5
F28
330
18
100
AcDbEntity
  8
5
  6
PHANTOM
100
AcDbCircle
 10
536.8057855825534
 20
188.7763998898025
 30
0.0
 40
6.0
100
AcDbArc
 50
314.9999999999997
 51
45.00000000000028
  0
ARC
  5
F29
330
18
100
AcDbEntity
  8
5
  6
PHANTOM
100
AcDbCircle
 10
536.1004468446195
 20
188.0675250653631
 30
0.0
 40
6.0
100
AcDbArc
 50
316.4325437375671
 51
45.00000000000028
  0
LINE
  5
F2A
330
18
100
AcDbEntity
  8
5
  6
PHANTOM
100
AcDbLine
 10
540.4827408447232
 20
183.9680737777342
 30
0.0
 11
541.0484262696727
 21
184.5337592026834
 31
0.0
  0
ARC
  5
F2B
330
18
100
AcDbEntity
  8
5
  6
PHANTOM
100
AcDbCircle
 10
541.8969544070964
 20
182.553860215361
 30
0.0
 40
2.0
100
AcDbArc
 50
136.4325437375668
 51
225.0
  0
ARC
  5
F2C
330
18
100
AcDbEntity
  8
5
  6
PHANTOM
100
AcDbCircle
 10
563.4113331729942
 20
163.30222314926
 30
0.0
 40
10.0
100
AcDbArc
 50
45.00000000000028
 51
131.7835250024892
  0
ARC
  5
F2D
330
18
100
AcDbEntity
  8
5
  6
PHANTOM
100
AcDbCircle
 10
553.7944090997696
 20
173.484832647434
 30
0.0
 40
4.0
100
AcDbArc
 50
225.0
 51
306.3730734413206
  0
ARC
  5
F2E
330
18
100
AcDbEntity
  8
5
  6
PHANTOM
100
AcDbCircle
 10
489.7831846336479
 20
245.6984957753197
 30
0.0
 40
100.5
100
AcDbArc
 50
311.5542391111994
 51
311.7835250024889
  0
ARC
  5
F2F
330
18
100
AcDbEntity
  8
5
  6
PHANTOM
100
AcDbCircle
 10
553.7944090997696
 20
173.484832647434
 30
0.0
 40
4.0
100
AcDbArc
 50
306.3730734413206
 51
311.5542391111994
  0
LINE
  5
F30
330
18
100
AcDbEntity
  8
5
  6
PHANTOM
100
AcDbLine
 10
577.676557535134
 20
163.1791344108514
 30
0.0
 11
570.4824009848597
 21
170.3732909611255
 31
0.0
  0
LINE
  5
F31
330
18
100
AcDbEntity
  8
5
  6
PHANTOM
100
AcDbLine
 10
579.7978778786937
 20
163.8862411920379
 30
0.0
 11
579.090771097507
 21
163.1791344108514
 31
0.0
  0
ARC
  5
F32
330
18
100
AcDbEntity
  8
5
  6
PHANTOM
100
AcDbCircle
 10
579.090771097507
 20
164.5933479732245
 30
0.0
 40
1.0
100
AcDbArc
 50
314.9999999999997
 51
45.00000000000028
  0
CIRCLE
  5
F41
330
18
100
AcDbEntity
  8
1
  6
Continuous
100
AcDbCircle
 10
356.7367827710824
 20
264.1984957753221
 30
0.0
 40
3.800000000001205
  0
LINE
  5
F42
330
18
100
AcDbEntity
  8
1
  6
Continuous
 48
0.25
100
AcDbLine
 10
357.8770531159173
 20
264.724583220525
 30
0.0
 11
358.4879933748625
 21
265.3567366829057
 31
0.0
  0
LINE
  5
F43
330
18
100
AcDbEntity
  8
1
  6
Continuous
 48
0.25
100
AcDbLine
 10
357.8770531159173
 20
263.6738225436817
 30
0.0
 11
358.4879933748626
 21
263.0402548677386
 31
0.0
  0
ARC
  5
F44
330
18
100
AcDbEntity
  8
1
  6
Continuous
 48
0.25
100
AcDbCircle
 10
356.7357827710823
 20
264.1984957753221
 30
0.0
 40
2.1
100
AcDbArc
 50
33.46300000000106
 51
56.53699999999894
  0
ARC
  5
F45
330
18
100
AcDbEntity
  8
1
  6
Continuous
 48
0.25
100
AcDbCircle
 10
356.7357827710823
 20
264.1984957753221
 30
0.0
 40
2.1
100
AcDbArc
 50
303.4630000000011
 51
326.5369999999989
  0
CIRCLE
  5
F46
330
18
100
AcDbEntity
  8
1
  6
Continuous
 48
0.25
100
AcDbCircle
 10
356.7367827710824
 20
264.1984957753221
 30
0.0
 40
3.5
  0
CIRCLE
  5
F47
330
18
100
AcDbEntity
  8
1
  6
Continuous
100
AcDbCircle
 10
356.7367827710824
 20
296.0245042965614
 30
0.0
 40
6.000000000000683
  0
CIRCLE
  5
F48
330
18
100
AcDbEntity
  8
1
  6
Continuous
100
AcDbCircle
 10
356.7367827710824
 20
296.0245042965614
 30
0.0
 40
4.599999999999909
  0
LINE
  5
F49
330
18
100
AcDbEntity
  8
4
  6
CENTER
100
AcDbLine
 10
348.7367827710817
 20
296.0245042965614
 30
0.0
 11
364.7367827710831
 21
296.0245042965614
 31
0.0
  0
CIRCLE
  5
F4A
330
18
100
AcDbEntity
  8
1
  6
Continuous
 48
0.25
100
AcDbCircle
 10
356.7367827710824
 20
296.0245042965614
 30
0.0
 40
4.5
  0
ARC
  5
F4B
330
18
100
AcDbEntity
  8
1
  6
Continuous
 48
0.25
100
AcDbCircle
 10
356.7367827710824
 20
296.0245042965614
 30
0.0
 40
2.45
100
AcDbArc
 50
35.12899999999993
 51
54.87100000000009
  0
ARC
  5
F4C
330
18
100
AcDbEntity
  8
1
  6
Continuous
 48
0.25
100
AcDbCircle
 10
356.7367827710824
 20
296.0245042965614
 30
0.0
 40
2.45
100
AcDbArc
 50
305.1291099999997
 51
324.871
  0
LINE
  5
F4D
330
18
100
AcDbEntity
  8
1
  6
Continuous
 48
0.25
100
AcDbLine
 10
357.9862404534389
 20
296.6531222250362
 30
0.0
 11
358.740723388965
 21
297.4344752182474
 31
0.0
  0
LINE
  5
F4E
330
18
100
AcDbEntity
  8
1
  6
Continuous
 48
0.25
100
AcDbLine
 10
357.9862404534391
 20
295.3958863680863
 30
0.0
 11
358.7407233889649
 21
294.6145333748754
 31
0.0
  0
ARC
  5
F4F
330
18
100
AcDbEntity
  8
1
  6
Continuous
100
AcDbCircle
 10
356.7367827710824
 20
261.1984957753221
 30
0.0
 40
9.0
100
AcDbArc
 50
67.38013505195941
 51
112.6198649480405
  0
LINE
  5
F50
330
18
100
AcDbEntity
  8
1
  6
Continuous
100
AcDbLine
 10
360.8262369439824
 20
259.1984957753221
 30
0.0
 11
352.6473285981822
 21
259.1984957753221
 31
0.0
  0
CIRCLE
  5
F51
330
18
100
AcDbEntity
  8
1
  6
Continuous
100
AcDbCircle
 10
356.7367827710824
 20
245.6984957753101
 30
0.0
 40
2.066999999999999
  0
CIRCLE
  5
F52
330
18
100
AcDbEntity
  8
2
  6
Continuous
100
AcDbCircle
 10
356.7367827710824
 20
245.6984957753101
 30
0.0
 40
2.5
  0
LINE
  5
F53
330
18
100
AcDbEntity
  8
1
  6
Continuous
100
AcDbLine
 10
371.7367827710456
 20
271.1984957753078
 30
0.0
 11
341.7367827710457
 21
271.1984957752917
 31
0.0
  0
LINE
  5
F54
330
18
100
AcDbEntity
  8
4
  6
CENTER
100
AcDbLine
 10
371.4314798286036
 20
245.6984957753101
 30
0.0
 11
342.0771905386609
 21
245.6984957753101
 31
0.0
  0
ARC
  5
F55
330
18
100
AcDbEntity
  8
1
  6
Continuous
100
AcDbCircle
 10
356.7367827710824
 20
246.6984957753294
 30
0.0
 40
11.5
100
AcDbArc
 50
0.0
 51
180.0
  0
LINE
  5
F56
330
18
100
AcDbEntity
  8
1
  6
Continuous
100
AcDbLine
 10
366.9367827710813
 20
258.1984957753332
 30
0.0
 11
346.5367827710814
 21
258.1984957753255
 31
0.0
  0
ARC
  5
F57
330
18
100
AcDbEntity
  8
1
  6
Continuous
100
AcDbCircle
 10
356.7367827710824
 20
245.6984957753101
 30
0.0
 40
8.600000000101516
100
AcDbArc
 50
61.93168433155769
 51
118.0683156684423
  0
LINE
  5
F58
330
18
100
AcDbEntity
  8
4
  6
CENTER
100
AcDbLine
 10
347.5809256637658
 20
264.1984957753221
 30
0.0
 11
366.0187156228971
 21
264.1984957753221
 31
0.0
  0
LINE
  5
F59
330
18
100
AcDbEntity
  8
1
  6
Continuous
100
AcDbLine
 10
362.3936370205016
 20
245.6984957753113
 30
0.0
 11
356.7367827710091
 21
251.3553500248038
 31
0.0
  0
LINE
  5
F5A
330
18
100
AcDbEntity
  8
1
  6
Continuous
100
AcDbLine
 10
357.3229263424253
 20
250.6984957753406
 30
0.0
 11
361.7367827711126
 21
246.2846393466533
 31
0.0
  0
LINE
  5
F5F
330
18
100
AcDbEntity
  8
1
  6
Continuous
 48
0.25
100
AcDbLine
 10
355.5952195330283
 20
263.6731154369006
 30
0.0
 11
354.9842792740832
 21
263.0409619745197
 31
0.0
  0
ARC
  5
F60
330
18
100
AcDbEntity
  8
1
  6
Continuous
100
AcDbCircle
 10
355.4867827710824
 20
264.1984957753221
 30
0.0
 40
5.750000000000002
100
AcDbArc
 50
112.6198649480405
 51
240.4081542060495
  0
LINE
  5
F61
330
18
100
AcDbEntity
  8
1
  6
Continuous
100
AcDbLine
 10
356.1506391996891
 20
250.6984957752905
 30
0.0
 11
357.3229263423733
 21
250.6984957752886
 31
0.0
  0
LINE
  5
F62
330
18
100
AcDbEntity
  8
1
  6
Continuous
100
AcDbLine
 10
351.7367827711017
 20
245.1123522039168
 30
0.0
 11
351.7367827711037
 21
246.284639346601
 31
0.0
  0
LINE
  5
F63
330
18
100
AcDbEntity
  8
1
  6
Continuous
100
AcDbLine
 10
356.7367827710091
 20
251.3553500248038
 30
0.0
 11
351.0799285215168
 21
245.6984957753114
 31
0.0
  0
LINE
  5
F64
330
18
100
AcDbEntity
  8
1
  6
Continuous
100
AcDbLine
 10
356.1506391996889
 20
250.6984957752905
 30
0.0
 11
351.7367827710514
 21
246.2846393466529
 31
0.0
  0
LINE
  5
F65
330
18
100
AcDbEntity
  8
1
  6
Continuous
100
AcDbLine
 10
352.2893115794544
 20
253.4017418444323
 30
0.0
 11
350.559207422658
 21
256.3983701463993
 31
0.0
  0
ARC
  5
F66
330
18
100
AcDbEntity
  8
1
  6
Continuous
100
AcDbCircle
 10
346.5367827710823
 20
255.6984957753255
 30
0.0
 40
2.5
100
AcDbArc
 50
90.0
 51
180.0
  0
LINE
  5
F67
330
18
100
AcDbEntity
  8
1
  6
Continuous
 48
0.25
100
AcDbLine
 10
356.7364898778635
 20
263.2488513681887
 30
0.0
 11
356.2104024326607
 21
263.0579325372683
 31
0.0
  0
LINE
  5
F68
330
18
100
AcDbEntity
  8
1
  6
Continuous
 48
0.25
100
AcDbLine
 10
356.2104024326607
 20
263.0579325372683
 30
0.0
 11
355.5782489702798
 21
262.446992278323
 31
0.0
  0
LINE
  5
F69
330
18
100
AcDbEntity
  8
1
  6
Continuous
 48
0.25
100
AcDbLine
 10
356.7364898778635
 20
263.2488513681887
 30
0.0
 11
357.2611631095039
 21
263.0579325372683
 31
0.0
  0
ARC
  5
F6A
330
18
100
AcDbEntity
  8
1
  6
Continuous
 48
0.25
100
AcDbCircle
 10
356.7357827710823
 20
264.1984957753221
 30
0.0
 40
2.1
100
AcDbArc
 50
213.463000000001
 51
236.5369999999989
  0
LINE
  5
F6B
330
18
100
AcDbEntity
  8
1
  6
Continuous
 48
0.25
100
AcDbLine
 10
357.2611631095039
 20
263.0579325372683
 30
0.0
 11
357.8947307854472
 21
262.446992278323
 31
0.0
  0
ARC
  5
F6C
330
18
100
AcDbEntity
  8
1
  6
Continuous
100
AcDbCircle
 10
352.5491192005901
 20
253.5517418444319
 30
0.0
 40
0.3
100
AcDbArc
 50
209.9999999999229
 51
298.0683156684459
  0
ARC
  5
F6D
330
18
100
AcDbEntity
  8
1
  6
Continuous
100
AcDbCircle
 10
341.7367827710461
 20
270.1984957752916
 30
0.0
 40
1.0
100
AcDbArc
 50
90.0
 51
180.0
  0
LINE
  5
F6E
330
18
100
AcDbEntity
  8
1
  6
Continuous
 48
0.25
100
AcDbLine
 10
357.686134284997
 20
264.1984957753221
 30
0.0
 11
357.8770531159173
 21
264.724583220525
 31
0.0
  0
LINE
  5
F6F
330
18
100
AcDbEntity
  8
1
  6
Continuous
 48
0.25
100
AcDbLine
 10
357.686134284997
 20
264.1984957753221
 30
0.0
 11
357.8770531159173
 21
263.6738225436817
 31
0.0
  0
LINE
  5
F70
330
18
100
AcDbEntity
  8
1
  6
Continuous
 48
0.25
100
AcDbLine
 10
356.7357827710823
 20
265.1488472892369
 30
0.0
 11
357.2618702162851
 21
265.3397661201573
 31
0.0
  0
LINE
  5
F71
330
18
100
AcDbEntity
  8
1
  6
Continuous
 48
0.25
100
AcDbLine
 10
355.7861383639488
 20
264.1992028821034
 30
0.0
 11
355.5952195330283
 21
264.7238761137437
 31
0.0
  0
LINE
  5
F72
330
18
100
AcDbEntity
  8
1
  6
Continuous
 48
0.25
100
AcDbLine
 10
356.2111095394419
 20
265.3397661201572
 30
0.0
 11
355.57824897028
 21
265.9499992723212
 31
0.0
  0
LINE
  5
F73
330
18
100
AcDbEntity
  8
1
  6
Continuous
 48
0.25
100
AcDbLine
 10
356.7357827710823
 20
265.1488472892369
 30
0.0
 11
356.2111095394419
 21
265.3397661201572
 31
0.0
  0
LINE
  5
F74
330
18
100
AcDbEntity
  8
1
  6
Continuous
 48
0.25
100
AcDbLine
 10
355.7861383639488
 20
264.1992028821034
 30
0.0
 11
355.5952195330283
 21
263.6731154369006
 31
0.0
  0
LINE
  5
F75
330
18
100
AcDbEntity
  8
1
  6
Continuous
 48
0.25
100
AcDbLine
 10
355.5952195330283
 20
264.7238761137437
 30
0.0
 11
354.9842792740832
 21
265.3560295761244
 31
0.0
  0
ARC
  5
F76
330
18
100
AcDbEntity
  8
1
  6
Continuous
 48
0.25
100
AcDbCircle
 10
356.7357827710823
 20
264.1984957753221
 30
0.0
 40
2.1
100
AcDbArc
 50
123.4630000000009
 51
146.5369999999989
  0
LINE
  5
F77
330
18
100
AcDbEntity
  8
1
  6
Continuous
 48
0.25
100
AcDbLine
 10
357.2618702162851
 20
265.3397661201573
 30
0.0
 11
357.8940236786658
 21
265.9507063791024
 31
0.0
  0
LINE
  5
F78
330
18
100
AcDbEntity
  8
4
  6
CENTER
100
AcDbLine
 10
356.7367827710824
 20
288.0245042965607
 30
0.0
 11
356.7367827710824
 21
304.024504296562
 31
0.0
  0
LINE
  5
F79
330
18
100
AcDbEntity
  8
1
  6
Continuous
 48
0.25
100
AcDbLine
 10
357.3654006995574
 20
294.7750466142046
 30
0.0
 11
358.1467536927683
 21
294.0205636786787
 31
0.0
  0
LINE
  5
F7A
330
18
100
AcDbEntity
  8
1
  6
Continuous
 48
0.25
100
AcDbLine
 10
356.1081648426075
 20
294.7750466142046
 30
0.0
 11
355.3268118493963
 21
294.0205636786787
 31
0.0
  0
ARC
  5
F7B
330
18
100
AcDbEntity
  8
1
  6
Continuous
 48
0.25
100
AcDbCircle
 10
356.7367827710824
 20
296.0245042965614
 30
0.0
 40
2.45
100
AcDbArc
 50
215.1291
 51
234.8708999999987
  0
LINE
  5
F7C
330
18
100
AcDbEntity
  8
1
  6
Continuous
 48
0.25
100
AcDbLine
 10
357.3654006995572
 20
297.273961978918
 30
0.0
 11
358.1467536927683
 21
298.028444914444
 31
0.0
  0
LINE
  5
F7D
330
18
100
AcDbEntity
  8
1
  6
Continuous
 48
0.25
100
AcDbLine
 10
356.7374898778636
 20
297.0448593818135
 30
0.0
 11
357.3654006995572
 21
297.273961978918
 31
0.0
  0
LINE
  5
F7E
330
18
100
AcDbEntity
  8
1
  6
Continuous
 48
0.25
100
AcDbLine
 10
356.7367827710824
 20
295.003442104528
 30
0.0
 11
357.3654006995574
 21
294.7750466142046
 31
0.0
  0
LINE
  5
F7F
330
18
100
AcDbEntity
  8
1
  6
Continuous
 48
0.25
100
AcDbLine
 10
357.7578449631157
 20
296.0245042965614
 30
0.0
 11
357.9862404534389
 21
296.6531222250362
 31
0.0
  0
LINE
  5
F80
330
18
100
AcDbEntity
  8
1
  6
Continuous
 48
0.25
100
AcDbLine
 10
357.7578449631157
 20
296.0245042965614
 30
0.0
 11
357.9862404534391
 21
295.3958863680863
 31
0.0
  0
LINE
  5
F81
330
18
100
AcDbEntity
  8
1
  6
Continuous
 48
0.25
100
AcDbLine
 10
356.1081648426076
 20
297.273961978918
 30
0.0
 11
355.3268118493964
 21
298.028444914444
 31
0.0
  0
LINE
  5
F82
330
18
100
AcDbEntity
  8
1
  6
Continuous
 48
0.25
100
AcDbLine
 10
355.4873250887258
 20
296.6531222250362
 30
0.0
 11
354.7328421531997
 21
297.4344752182473
 31
0.0
  0
LINE
  5
F83
330
18
100
AcDbEntity
  8
1
  6
Continuous
 48
0.25
100
AcDbLine
 10
355.4873250887258
 20
295.3958863680865
 30
0.0
 11
354.7328421531997
 21
294.6145333748754
 31
0.0
  0
ARC
  5
F84
330
18
100
AcDbEntity
  8
1
  6
Continuous
 48
0.25
100
AcDbCircle
 10
356.7367827710824
 20
296.0245042965614
 30
0.0
 40
2.45
100
AcDbArc
 50
125.1289999999999
 51
144.8710000000001
  0
LINE
  5
F85
330
18
100
AcDbEntity
  8
1
  6
Continuous
 48
0.25
100
AcDbLine
 10
355.7164276858301
 20
296.0237971897802
 30
0.0
 11
355.4873250887258
 21
296.6531222250362
 31
0.0
  0
LINE
  5
F86
330
18
100
AcDbEntity
  8
1
  6
Continuous
 48
0.25
100
AcDbLine
 10
355.7164276858301
 20
296.0237971897802
 30
0.0
 11
355.4873250887258
 21
295.3958863680865
 31
0.0
  0
LINE
  5
F87
330
18
100
AcDbEntity
  8
1
  6
Continuous
 48
0.25
100
AcDbLine
 10
356.7374898778636
 20
297.0448593818135
 30
0.0
 11
356.1081648426076
 21
297.273961978918
 31
0.0
  0
LINE
  5
F88
330
18
100
AcDbEntity
  8
1
  6
Continuous
 48
0.25
100
AcDbLine
 10
356.7367827710824
 20
295.003442104528
 30
0.0
 11
356.1081648426075
 21
294.7750466142046
 31
0.0
  0
ARC
  5
F89
330
18
100
AcDbEntity
  8
1
  6
Continuous
100
AcDbCircle
 10
357.9867827710824
 20
264.1984957753221
 30
0.0
 40
5.750000000000013
100
AcDbArc
 50
299.5918457939508
 51
67.38013505195941
  0
LINE
  5
F8B
330
18
100
AcDbEntity
  8
1
  6
Continuous
100
AcDbLine
 10
361.7367827710626
 20
245.1123522039168
 30
0.0
 11
361.7367827710605
 21
246.284639346601
 31
0.0
  0
LINE
  5
F8C
330
18
100
AcDbEntity
  8
1
  6
Continuous
100
AcDbLine
 10
360.8867827710724
 20
252.8865066267264
 30
0.0
 11
362.9143581195069
 21
256.3983701463994
 31
0.0
  0
ARC
  5
F8D
330
18
100
AcDbEntity
  8
1
  6
Continuous
100
AcDbCircle
 10
360.9244463415747
 20
253.551741844432
 30
0.0
 40
0.3
100
AcDbArc
 50
241.9316843315558
 51
330.0000000000725
  0
ARC
  5
F8E
330
18
100
AcDbEntity
  8
1
  6
Continuous
100
AcDbCircle
 10
366.9367827710824
 20
255.6984957753332
 30
0.0
 40
2.5
100
AcDbArc
 50
0.0
 51
90.0
  0
ARC
  5
F8F
330
18
100
AcDbEntity
  8
1
  6
Continuous
100
AcDbCircle
 10
371.7367827710461
 20
270.1984957753079
 30
0.0
 40
1.0
100
AcDbArc
 50
0.0
 51
90.0
  0
LINE
  5
F94
330
18
100
AcDbEntity
  8
4
  6
CENTER
100
AcDbLine
 10
451.98530454918
 20
264.1984957753232
 30
0.0
 11
465.5322583073341
 21
264.1984957753232
 31
0.0
  0
LINE
  5
F95
330
18
100
AcDbEntity
  8
1
  6
Continuous
100
AcDbLine
 10
446.358599963727
 20
246.9984957753231
 30
0.0
 11
445.058599963727
 21
245.6984957753231
 31
0.0
  0
LINE
  5
F96
330
18
100
AcDbEntity
  8
1
  6
Continuous
100
AcDbLine
 10
446.358599963727
 20
245.6984957753231
 30
0.0
 11
445.058599963727
 21
244.3984957753232
 31
0.0
  0
LINE
  5
F97
330
18
100
AcDbEntity
  8
1
  6
Continuous
100
AcDbLine
 10
445.058599963727
 20
250.2984957753231
 30
0.0
 11
446.358599963727
 21
250.2984957753231
 31
0.0
  0
LINE
  5
F98
330
18
100
AcDbEntity
  8
4
  6
CENTER
100
AcDbLine
 10
439.5537372590011
 20
245.6984957753231
 30
0.0
 11
450.2926946270386
 21
245.6984957753231
 31
0.0
  0
ARC
  5
F99
330
18
100
AcDbEntity
  8
1
  6
Continuous
100
AcDbCircle
 10
443.7365506840528
 20
248.4767197106435
 30
0.0
 40
1.6
100
AcDbArc
 50
94.99999999999978
 51
164.5060324994778
  0
LINE
  5
F9A
330
18
100
AcDbEntity
  8
1
  6
Continuous
100
AcDbLine
 10
445.0585999637271
 20
250.1984957753232
 30
0.0
 11
443.5971014956319
 21
250.0706312276043
 31
0.0
  0
ARC
  5
F9B
330
18
100
AcDbEntity
  8
1
  6
Continuous
100
AcDbCircle
 10
453.7585999637268
 20
245.6984957753231
 30
0.0
 40
12.0
100
AcDbArc
 50
164.5060324994778
 51
195.4939675005222
  0
LINE
  5
F9C
330
18
100
AcDbEntity
  8
1
  6
Continuous
100
AcDbLine
 10
446.358599963727
 20
251.6984957753227
 30
0.0
 11
447.158599963727
 21
251.6984957753225
 31
0.0
  0
ARC
  5
F9D
330
18
100
AcDbEntity
  8
1
  6
Continuous
100
AcDbCircle
 10
463.3853045491802
 20
264.1984957753232
 30
0.0
 40
9.0
100
AcDbArc
 50
164.1191499917206
 51
195.8808500082794
  0
LINE
  5
F9E
330
18
100
AcDbEntity
  8
1
  6
Continuous
100
AcDbLine
 10
457.9853045491801
 20
264.1984957753232
 30
0.0
 11
456.9853045491801
 21
263.1984957753232
 31
0.0
  0
LINE
  5
FA0
330
18
100
AcDbEntity
  8
1
  6
Continuous
100
AcDbLine
 10
457.9853045491796
 20
259.6984957753242
 30
0.0
 11
457.9853045491806
 21
269.6984957753242
 31
0.0
  0
LINE
  5
FA1
330
18
100
AcDbEntity
  8
1
  6
Continuous
100
AcDbLine
 10
456.9853045491801
 20
267.9984957753233
 30
0.0
 11
456.9853045491801
 21
260.3984957753232
 31
0.0
  0
LINE
  5
FA2
330
18
100
AcDbEntity
  8
1
  6
Continuous
100
AcDbLine
 10
462.9853045491796
 20
259.1984957753239
 30
0.0
 11
462.9853045491806
 21
270.1984957753239
 31
0.0
  0
LINE
  5
FA3
330
18
100
AcDbEntity
  8
1
  6
Continuous
100
AcDbLine
 10
462.9853045491798
 20
259.1984957753239
 30
0.0
 11
458.4853045491798
 21
259.1984957753242
 31
0.0
  0
LINE
  5
FA4
330
18
100
AcDbEntity
  8
1
  6
Continuous
100
AcDbLine
 10
456.9853045491801
 20
260.3984957753232
 30
0.0
 11
457.9853045491801
 21
260.3984957753232
 31
0.0
  0
ARC
  5
FA5
330
18
100
AcDbEntity
  8
1
  6
Continuous
100
AcDbCircle
 10
458.4853045491796
 20
259.6984957753242
 30
0.0
 40
0.5
100
AcDbArc
 50
179.9999999999951
 51
269.999999999995
  0
LINE
  5
FA6
330
18
100
AcDbEntity
  8
1
  6
Continuous
100
AcDbLine
 10
456.9853045491802
 20
260.6984957753232
 30
0.0
 11
455.8658893593458
 21
260.7964319142124
 31
0.0
  0
ARC
  5
FA7
330
18
100
AcDbEntity
  8
1
  6
Continuous
100
AcDbCircle
 10
455.9791918249575
 20
262.091485021737
 30
0.0
 40
1.3
100
AcDbArc
 50
195.8808500082794
 51
265.0000000000002
  0
LINE
  5
FA8
330
18
100
AcDbEntity
  8
1
  6
Continuous
100
AcDbLine
 10
462.9853045491806
 20
270.1984957753239
 30
0.0
 11
458.4853045491806
 21
270.1984957753241
 31
0.0
  0
LINE
  5
FA9
330
18
100
AcDbEntity
  8
1
  6
Continuous
100
AcDbLine
 10
456.9853045491801
 20
267.9984957753233
 30
0.0
 11
457.9853045491801
 21
267.9984957753233
 31
0.0
  0
ARC
  5
FAA
330
18
100
AcDbEntity
  8
1
  6
Continuous
100
AcDbCircle
 10
458.4853045491809
 20
269.6984957753242
 30
0.0
 40
0.5
100
AcDbArc
 50
89.99999999999515
 51
179.9999999999951
  0
LINE
  5
FAB
330
18
100
AcDbEntity
  8
1
  6
Continuous
100
AcDbLine
 10
456.9853045491801
 20
267.6984957753232
 30
0.0
 11
455.8658893593793
 21
267.6005596364368
 31
0.0
  0
LINE
  5
FAC
330
18
100
AcDbEntity
  8
1
  6
Continuous
100
AcDbLine
 10
457.9853045491801
 20
265.1984957753231
 30
0.0
 11
456.9853045491801
 21
264.1984957753232
 31
0.0
  0
ARC
  5
FAD
330
18
100
AcDbEntity
  8
1
  6
Continuous
100
AcDbCircle
 10
455.9791918249711
 20
266.3055065289061
 30
0.0
 40
1.3
100
AcDbArc
 50
94.99999999999978
 51
164.1191499917206
  0
LINE
  5
FB4
330
18
100
AcDbEntity
  8
4
  6
CENTER
100
AcDbLine
 10
478.8536960335151
 20
264.1984957753241
 30
0.0
 11
490.7361317833482
 21
264.1984957753239
 31
0.0
  0
LINE
  5
FB5
330
18
100
AcDbEntity
  8
1
  6
Continuous
100
AcDbLine
 10
483.0831846336478
 20
260.6984957753239
 30
0.0
 11
486.5831846336477
 21
260.6984957753238
 31
0.0
  0
LINE
  5
FB6
330
18
100
AcDbEntity
  8
1
  6
Continuous
100
AcDbLine
 10
483.0831846336478
 20
267.6984957753239
 30
0.0
 11
486.5831846336477
 21
267.6984957753238
 31
0.0
  0
ARC
  5
FB7
330
18
100
AcDbEntity
  8
1
  6
Continuous
100
AcDbCircle
 10
485.5831846336477
 20
257.1984957753213
 30
0.0
 40
1.0
100
AcDbArc
 50
90.0
 51
180.0
  0
LINE
  5
FB8
330
18
100
AcDbEntity
  8
1
  6
Continuous
100
AcDbLine
 10
486.5831846336477
 20
258.198495775321
 30
0.0
 11
471.5831846336477
 21
258.1984957753241
 31
0.0
  0
LINE
  5
FB9
330
18
100
AcDbEntity
  8
4
  6
CENTER
100
AcDbLine
 10
501.3199849980128
 20
245.6984957753179
 30
0.0
 11
464.3613942839153
 21
245.6984957753259
 31
0.0
  0
LINE
  5
FBA
330
18
100
AcDbEntity
  8
1
  6
Continuous
100
AcDbLine
 10
483.0831846336478
 20
267.6984957753239
 30
0.0
 11
483.0831846336478
 21
260.698495775324
 31
0.0
  0
LINE
  5
FBB
330
18
100
AcDbEntity
  8
1
  6
Continuous
100
AcDbLine
 10
482.5831846336477
 20
261.1984957753239
 30
0.0
 11
482.5831846336477
 21
267.1984957753239
 31
0.0
  0
LINE
  5
FBC
330
18
100
AcDbEntity
  8
1
  6
Continuous
100
AcDbLine
 10
469.0831846336453
 20
250.698495775326
 30
0.0
 11
471.0831846336478
 21
250.698495775327
 31
0.0
  0
LINE
  5
FBD
330
18
100
AcDbEntity
  8
1
  6
Continuous
100
AcDbLine
 10
469.0831846336483
 20
245.0416415258984
 30
0.0
 11
471.0831846336478
 21
245.0416415258994
 31
0.0
  0
LINE
  5
FBE
330
18
100
AcDbEntity
  8
1
  6
Continuous
100
AcDbLine
 10
469.0831846336477
 20
246.3553500247737
 30
0.0
 11
471.0831846336478
 21
246.3553500247749
 31
0.0
  0
LINE
  5
FBF
330
18
100
AcDbEntity
  8
1
  6
Continuous
100
AcDbLine
 10
473.1831846336478
 20
252.6984957753229
 30
0.0
 11
473.0831846336492
 21
252.6984957753229
 31
0.0
  0
LINE
  5
FC0
330
18
100
AcDbEntity
  8
1
  6
Continuous
100
AcDbLine
 10
473.0831846336478
 20
255.4412815678924
 30
0.0
 11
471.0831846336478
 21
255.4412815678924
 31
0.0
  0
ARC
  5
FC1
330
18
100
AcDbEntity
  8
1
  6
Continuous
100
AcDbCircle
 10
473.3831846336475
 20
254.1587498131515
 30
0.0
 40
0.1999999999999886
100
AcDbArc
 50
90.0
 51
180.0
  0
LINE
  5
FC2
330
18
100
AcDbEntity
  8
1
  6
Continuous
100
AcDbLine
 10
471.5831846336477
 20
256.3983701463988
 30
0.0
 11
473.5831846336477
 21
256.3983701464016
 31
0.0
  0
LINE
  5
FC3
330
18
100
AcDbEntity
  8
1
  6
Continuous
100
AcDbLine
 10
473.3831846336475
 20
254.3587498131515
 30
0.0
 11
473.5831846336477
 21
254.3587498131515
 31
0.0
  0
ARC
  5
FC4
330
18
100
AcDbEntity
  8
1
  6
Continuous
100
AcDbCircle
 10
471.5831846336477
 20
256.598370146399
 30
0.0
 40
0.2
100
AcDbArc
 50
180.0
 51
270.0
  0
ARC
  5
FC5
330
18
100
AcDbEntity
  8
1
  6
Continuous
100
AcDbCircle
 10
471.5831846336477
 20
257.9984957753242
 30
0.0
 40
0.2
100
AcDbArc
 50
90.0
 51
180.0
  0
LINE
  5
FC6
330
18
100
AcDbEntity
  8
1
  6
Continuous
100
AcDbLine
 10
473.0831846336478
 20
253.2517418444327
 30
0.0
 11
473.1831846336478
 21
253.2517418444327
 31
0.0
  0
LINE
  5
FC7
330
18
100
AcDbEntity
  8
1
  6
Continuous
100
AcDbLine
 10
471.3831846336477
 20
257.9984957753242
 30
0.0
 11
471.3831846336477
 21
255.4412815678924
 31
0.0
  0
LINE
  5
FC8
330
18
100
AcDbEntity
  8
1
  6
Continuous
100
AcDbLine
 10
471.0831846336478
 20
255.4412815678865
 30
0.0
 11
471.3831846336478
 21
255.4412815678865
 31
0.0
  0
LINE
  5
FC9
330
18
100
AcDbEntity
  8
1
  6
Continuous
100
AcDbLine
 10
482.5831846336478
 20
261.1984957753238
 30
0.0
 11
483.0831846336478
 21
260.6984957753239
 31
0.0
  0
LINE
  5
FCA
330
18
100
AcDbEntity
  8
1
  6
Continuous
100
AcDbLine
 10
483.0831846336478
 20
267.6984957753237
 30
0.0
 11
482.5831846336478
 21
267.1984957753236
 31
0.0
  0
ARC
  5
FCB
330
18
100
AcDbEntity
  8
1
  6
Continuous
100
AcDbCircle
 10
492.5831846336481
 20
250.3158543275657
 30
0.0
 40
4.0
100
AcDbArc
 50
41.40962210927095
 51
58.76707098448759
  0
ARC
  5
FCC
330
18
100
AcDbEntity
  8
1
  6
Continuous
100
AcDbCircle
 10
466.5831846336479
 20
245.2804598907617
 30
0.0
 40
30.0
100
AcDbArc
 50
0.000000000000007
 51
14.83511158197576
  0
ARC
  5
FCD
330
18
100
AcDbEntity
  8
5
  6
PHANTOM
100
AcDbCircle
 10
473.6739033188703
 20
228.9980224430415
 30
0.0
 40
30.0
100
AcDbArc
 50
45.00000000000028
 51
48.42171808809201
  0
ARC
  5
FCE
330
18
100
AcDbEntity
  8
1
  6
Continuous
100
AcDbCircle
 10
489.783184633648
 20
245.6984957753196
 30
0.0
 40
9.4
100
AcDbArc
 50
58.76707098448759
 51
66.15552997649611
  0
ARC
  5
FCF
330
18
100
AcDbEntity
  8
1
  6
Continuous
100
AcDbCircle
 10
465.9156075707051
 20
248.1203995115897
 30
0.0
 40
32.0
100
AcDbArc
 50
30.6559624057232
 51
45.41392332415525
  0
ARC
  5
FD0
330
18
100
AcDbEntity
  8
1
  6
Continuous
100
AcDbCircle
 10
487.6769877054528
 20
270.1984957753305
 30
0.0
 40
1.0
100
AcDbArc
 50
45.41392332415525
 51
90.0
  0
LINE
  5
FD1
330
18
100
AcDbEntity
  8
1
  6
Continuous
100
AcDbLine
 10
486.5831846336477
 20
271.1984957753238
 30
0.0
 11
487.6769877054528
 21
271.1984957753238
 31
0.0
  0
ARC
  5
FD2
330
18
100
AcDbEntity
  8
1
  6
Continuous
100
AcDbCircle
 10
492.5831846336477
 20
263.9267379108521
 30
0.0
 40
1.0
100
AcDbArc
 50
0.000000000000007
 51
30.65596240572231
  0
LINE
  5
2285
330
18
100
AcDbEntity
  8
4
  6
CENTER
100
AcDbLine
 10
209.8765257353857
 20
45.35161328378296
 30
0.0
 11
209.8765257353857
 21
67.41475085030856
 31
0.0
  0
LINE
  5
229D
330
18
100
AcDbEntity
  8
4
  6
CENTER
100
AcDbLine
 10
210.6377041448088
 20
156.6984957753097
 30
0.0
 11
198.8817050442746
 21
156.6984957753097
 31
0.0
  0
LINE
  5
229F
330
18
100
AcDbEntity
  8
4
  6
CENTER
100
AcDbLine
 10
501.0709810468063
 20
156.6984957753097
 30
0.0
 11
490.2607090156158
 21
156.6984957753097
 31
0.0
  0
ENDSEC
  0
SECTION
  2
OBJECTS
  0
DICTIONARY
  5
C
330
0
100
AcDbDictionary
281
     1
  3
ACAD_CIP_PREVIOUS_PRODUCT_INFO
350
2368
  3
ACAD_COLOR
350
234B
  3
ACAD_DETAILVIEWSTYLE
350
2364
  3
ACAD_GROUP
350
D
  3
ACAD_LAYOUT
350
5D
  3
ACAD_MATERIAL
350
2319
  3
ACAD_MLEADERSTYLE
350
2360
  3
ACAD_MLINESTYLE
350
1B
  3
ACAD_PLOTSETTINGS
350
5E
  3
ACAD_PLOTSTYLENAME
350
2317
  3
ACAD_SCALELIST
350
234E
  3
ACAD_SECTIONVIEWSTYLE
350
2362
  3
ACAD_TABLESTYLE
350
234C
  3
ACAD_VISUALSTYLE
350
2332
  3
ACDB_RECOMPOSE_DATA
350
2386
  3
AcDbVariableDictionary
350
2379
  3
CONTENTDICTIONARY
350
3D
  3
DWGPROPS
350
2387
  0
DICTIONARY
  5
2369
330
E
100
AcDbDictionary
280
     1
281
     1
  3
ADSK_XREC_LAYER_RECONCILED
360
236A
  0
DICTIONARY
  5
236B
330
80F
100
AcDbDictionary
280
     1
281
     1
  3
ADSK_XREC_LAYER_RECONCILED
360
236C
  0
DICTIONARY
  5
236D
330
810
100
AcDbDictionary
280
     1
281
     1
  3
ADSK_XREC_LAYER_RECONCILED
360
236E
  0
DICTIONARY
  5
236F
330
811
100
AcDbDictionary
280
     1
281
     1
  3
ADSK_XREC_LAYER_RECONCILED
360
2370
  0
DICTIONARY
  5
2371
330
812
100
AcDbDictionary
280
     1
281
     1
  3
ADSK_XREC_LAYER_RECONCILED
360
2372
  0
DICTIONARY
  5
2373
330
813
100
AcDbDictionary
280
     1
281
     1
  3
ADSK_XREC_LAYER_RECONCILED
360
2374
  0
DICTIONARY
  5
2375
330
814
100
AcDbDictionary
280
     1
281
     1
  3
ADSK_XREC_LAYER_RECONCILED
360
2376
  0
DICTIONARY
  5
2377
330
815
100
AcDbDictionary
280
     1
281
     1
  3
ADSK_XREC_LAYER_RECONCILED
360
2378
  0
DICTIONARY
  5
2312
330
18
100
AcDbDictionary
281
     1
  3
ACAD_LAYOUTSELFREF
350
2313
  0
DICTIONARY
  5
2310
330
15
100
AcDbDictionary
281
     1
  3
ACAD_LAYOUTSELFREF
350
2311
  0
XRECORD
  5
2368
102
{ACAD_REACTORS
330
C
102
}
330
C
100
AcDbXrecord
280
     1
300
ACDLT
300
2014
300
ACDLT_F_S
  0
DICTIONARY
  5
234B
102
{ACAD_REACTORS
330
C
102
}
330
C
100
AcDbDictionary
281
     1
  0
DICTIONARY
  5
2364
102
{ACAD_REACTORS
330
C
102
}
330
C
100
AcDbDictionary
281
     1
  3
Imperial24
350
2365
  0
DICTIONARY
  5
D
102
{ACAD_REACTORS
330
C
102
}
330
C
100
AcDbDictionary
281
     1
  0
DICTIONARY
  5
5D
102
{ACAD_REACTORS
330
C
102
}
330
C
100
AcDbDictionary
281
     1
  3
Model
350
2366
  3
レイアウト1
350
2367
  0
DICTIONARY
  5
2319
102
{ACAD_REACTORS
330
C
102
}
330
C
100
AcDbDictionary
281
     1
  3
ByBlock
350
2322
  3
ByLayer
350
231A
  3
Global
350
232A
  0
DICTIONARY
  5
2360
102
{ACAD_REACTORS
330
C
102
}
330
C
100
AcDbDictionary
281
     1
  3
Standard
350
2361
  0
DICTIONARY
  5
1B
102
{ACAD_REACTORS
330
C
102
}
330
C
100
AcDbDictionary
281
     1
  3
STANDARD
350
1C
  0
DICTIONARY
  5
5E
102
{ACAD_REACTORS
330
C
102
}
330
C
100
AcDbDictionary
281
     1
  0
ACDBDICTIONARYWDFLT
  5
2317
102
{ACAD_REACTORS
330
C
102
}
330
C
100
AcDbDictionary
281
     1
  3
Normal
350
2318
100
AcDbDictionaryWithDefault
340
2318
  0
DICTIONARY
  5
234E
102
{ACAD_REACTORS
330
C
102
}
330
C
100
AcDbDictionary
281
     1
  3
A0
350
234F
  3
A1
350
2350
  3
A2
350
2351
  3
A3
350
2352
  3
A4
350
2353
  3
A5
350
2354
  3
A6
350
2355
  3
A7
350
2356
  3
A8
350
2357
  3
A9
350
2358
  3
B0
350
2359
  3
B1
350
235A
  3
B2
350
235B
  3
B3
350
235C
  3
B4
350
235D
  3
B5
350
235E
  3
B6
350
235F
  0
DICTIONARY
  5
2362
102
{ACAD_REACTORS
330
C
102
}
330
C
100
AcDbDictionary
281
     1
  3
Imperial24
350
2363
  0
DICTIONARY
  5
234C
102
{ACAD_REACTORS
330
C
102
}
330
C
100
AcDbDictionary
281
     1
  3
Standard
350
234D
  0
DICTIONARY
  5
2332
102
{ACAD_REACTORS
330
C
102
}
330
C
100
AcDbDictionary
281
     1
  3
2dWireframe
350
2338
  3
Basic
350
2337
  3
Brighten
350
233E
  3
ColorChange
350
2342
  3
Conceptual
350
233B
  3
Dim
350
233D
  3
EdgeColorOff
350
234A
  3
Facepattern
350
2341
  3
Flat
350
2333
  3
FlatWithEdges
350
2334
  3
Gouraud
350
2335
  3
GouraudWithEdges
350
2336
  3
Hidden
350
233A
  3
JitterOff
350
2348
  3
Linepattern
350
2340
  3
OverhangOff
350
2349
  3
Realistic
350
233C
  3
Shaded
350
2347
  3
Shaded with edges
350
2346
  3
Shades of Gray
350
2343
  3
Sketchy
350
2344
  3
Thicken
350
233F
  3
Wireframe
350
2339
  3
X-Ray
350
2345
  0
XRECORD
  5
2386
102
{ACAD_REACTORS
330
C
102
}
330
C
100
AcDbXrecord
280
     1
 90
        1
330
234D
  0
DICTIONARY
  5
2379
102
{ACAD_REACTORS
330
C
102
}
330
C
100
AcDbDictionary
281
     1
  3
CANNOSCALE
350
237E
  3
CMLEADERSTYLE
350
237B
  3
CTABLESTYLE
350
237A
  3
CVIEWDETAILSTYLE
350
237C
  3
CVIEWSECTIONSTYLE
350
237D
  3
DIMASSOC
350
2381
  3
INDEXCTL
350
2380
  3
SORTENTS
350
237F
  3
XCLIPFRAME
350
2382
  0
DICTIONARY
  5
3D
102
{ACAD_REACTORS
330
C
102
}
330
C
100
AcDbDictionary
281
     1
  0
XRECORD
  5
2387
102
{ACAD_REACTORS
330
C
102
}
330
C
100
AcDbXrecord
280
     1
  1
DWGPROPS COOKIE
  2

  3

  4

  6

  7

  8
Yoshitsune
  9

300
=
301
=
302
=
303
=
304
=
305
=
306
=
307
=
308
=
309
=
 40
0.0528567939814815
 41
2453031.60195529
 42
2457192.643659549
  1

 90
        0
  0
XRECORD
  5
236A
102
{ACAD_REACTORS
330
2369
102
}
330
2369
100
AcDbXrecord
280
     1
290
     1
  0
XRECORD
  5
236C
102
{ACAD_REACTORS
330
236B
102
}
330
236B
100
AcDbXrecord
280
     1
290
     1
  0
XRECORD
  5
236E
102
{ACAD_REACTORS
330
236D
102
}
330
236D
100
AcDbXrecord
280
     1
290
     1
  0
XRECORD
  5
2370
102
{ACAD_REACTORS
330
236F
102
}
330
236F
100
AcDbXrecord
280
     1
290
     1
  0
XRECORD
  5
2372
102
{ACAD_REACTORS
330
2371
102
}
330
2371
100
AcDbXrecord
280
     1
290
     1
  0
XRECORD
  5
2374
102
{ACAD_REACTORS
330
2373
102
}
330
2373
100
AcDbXrecord
280
     1
290
     1
  0
XRECORD
  5
2376
102
{ACAD_REACTORS
330
2375
102
}
330
2375
100
AcDbXrecord
280
     1
290
     1
  0
XRECORD
  5
2378
102
{ACAD_REACTORS
330
2377
102
}
330
2377
100
AcDbXrecord
280
     1
290
     1
  0
XRECORD
  5
2313
102
{ACAD_REACTORS
330
2312
102
}
330
2312
100
AcDbXrecord
280
     1
340
18
  0
XRECORD
  5
2311
102
{ACAD_REACTORS
330
2310
102
}
330
2310
100
AcDbXrecord
280
     1
340
15
  0
ACDBDETAILVIEWSTYLE
  5
2365
102
{ACAD_XDICTIONARY
360
23BF
102
}
102
{ACAD_REACTORS
330
2364
102
}
330
2364
100
AcDbModelDocViewStyle
 70
     0
  3
Imperial24
290
     0
100
AcDbDetailViewStyle
 70
     0
 71
     0
 90
        3
 71
     1
340
F
 40
0.24
340
0
 40
0.24
300

 40
0.36
280
     3
 71
     2
340
14
 90
       25
 71
     3
340
F
 40
0.24
 90
        1
 40
0.75
 90
        1
300
%<\AcVar ViewType \f "%tc1">% %<\AcVar ViewDetailId>%\PSCALE %<\AcVar ViewScale \f "%sn">%
 71
     4
340
14
 90
       25
340
14
 90
       25
280
     0
  0
LAYOUT
  5
2366
102
{ACAD_XDICTIONARY
360
23C1
102
}
102
{ACAD_REACTORS
330
5D
102
}
330
5D
100
AcDbPlotSettings
  1

  2
Canon LBP9100C
  4

  6

 40
0.0
 41
0.0
 42
0.0
 43
0.0
 44
0.0
 45
0.0
 46
0.0
 47
0.0
 48
0.0
 49
0.0
140
0.0
141
0.0
142
1.0
143
1.0
 70
  1712
 72
     0
 73
     0
 74
     0
  7

 75
     0
147
1.0
148
0.0
149
0.0
100
AcDbLayout
  1
Model
 70
     1
 71
     0
 10
0.0
 20
0.0
 11
12.0
 21
9.0
 12
0.0
 22
0.0
 32
0.0
 14
0.0
 24
0.0
 34
0.0
 15
0.0
 25
0.0
 35
0.0
146
0.0
 13
0.0
 23
0.0
 33
0.0
 16
1.0
 26
0.0
 36
0.0
 17
0.0
 27
1.0
 37
0.0
 76
     0
330
18
331
230F
  0
LAYOUT
  5
2367
102
{ACAD_XDICTIONARY
360
23C3
102
}
102
{ACAD_REACTORS
330
5D
102
}
330
5D
100
AcDbPlotSettings
  1

  2
Canon LBP9100C
  4

  6

 40
0.0
 41
0.0
 42
0.0
 43
0.0
 44
0.0
 45
0.0
 46
0.0
 47
0.0
 48
0.0
 49
0.0
140
0.0
141
0.0
142
1.0
143
1.0
 70
   688
 72
     0
 73
     0
 74
     5
  7

 75
    16
147
1.0
148
0.0
149
0.0
100
AcDbLayout
  1
レイアウト1
 70
     1
 71
     1
 10
0.0
 20
0.0
 11
420.0
 21
297.0
 12
0.0
 22
0.0
 32
0.0
 14
1.000000000000000E+20
 24
1.000000000000000E+20
 34
1.000000000000000E+20
 15
-1.000000000000000E+20
 25
-1.000000000000000E+20
 35
-1.000000000000000E+20
146
0.0
 13
0.0
 23
0.0
 33
0.0
 16
1.0
 26
0.0
 36
0.0
 17
0.0
 27
1.0
 37
0.0
 76
     0
330
15
  0
MATERIAL
  5
2322
102
{ACAD_XDICTIONARY
360
2323
102
}
102
{ACAD_REACTORS
330
2319
102
}
330
2319
100
AcDbMaterial
  1
ByBlock
 72
     0
 43
0.0208333333333333
 43
0.0
 43
0.0
 43
0.0
 43
0.0
 43
0.0208333333333333
 43
0.0
 43
0.0
 43
0.0
 43
0.0
 43
1.0
 43
0.0
 43
0.0
 43
0.0
 43
0.0
 43
1.0
 77
     0
 47
0.0208333333333333
 47
0.0
 47
0.0
 47
0.0
 47
0.0
 47
0.0208333333333333
 47
0.0
 47
0.0
 47
0.0
 47
0.0
 47
1.0
 47
0.0
 47
0.0
 47
0.0
 47
0.0
 47
1.0
171
     0
 49
0.0208333333333333
 49
0.0
 49
0.0
 49
0.0
 49
0.0
 49
0.0208333333333333
 49
0.0
 49
0.0
 49
0.0
 49
0.0
 49
1.0
 49
0.0
 49
0.0
 49
0.0
 49
0.0
 49
1.0
175
     0
142
0.0208333333333333
142
0.0
142
0.0
142
0.0
142
0.0
142
0.0208333333333333
142
0.0
142
0.0
142
0.0
142
0.0
142
1.0
142
0.0
142
0.0
142
0.0
142
0.0
142
1.0
179
     0
144
0.0208333333333333
144
0.0
144
0.0
144
0.0
144
0.0
144
0.0208333333333333
144
0.0
144
0.0
144
0.0
144
0.0
144
1.0
144
0.0
144
0.0
144
0.0
144
0.0
144
1.0
147
0.0208333333333333
147
0.0
147
0.0
147
0.0
147
0.0
147
0.0208333333333333
147
0.0
147
0.0
147
0.0
147
0.0
147
1.0
147
0.0
147
0.0
147
0.0
147
0.0
147
1.0
  0
MATERIAL
  5
231A
102
{ACAD_XDICTIONARY
360
231B
102
}
102
{ACAD_REACTORS
330
2319
102
}
330
2319
100
AcDbMaterial
  1
ByLayer
 72
     0
 43
0.0208333333333333
 43
0.0
 43
0.0
 43
0.0
 43
0.0
 43
0.0208333333333333
 43
0.0
 43
0.0
 43
0.0
 43
0.0
 43
1.0
 43
0.0
 43
0.0
 43
0.0
 43
0.0
 43
1.0
 77
     0
 47
0.0208333333333333
 47
0.0
 47
0.0
 47
0.0
 47
0.0
 47
0.0208333333333333
 47
0.0
 47
0.0
 47
0.0
 47
0.0
 47
1.0
 47
0.0
 47
0.0
 47
0.0
 47
0.0
 47
1.0
171
     0
 49
0.0208333333333333
 49
0.0
 49
0.0
 49
0.0
 49
0.0
 49
0.0208333333333333
 49
0.0
 49
0.0
 49
0.0
 49
0.0
 49
1.0
 49
0.0
 49
0.0
 49
0.0
 49
0.0
 49
1.0
175
     0
142
0.0208333333333333
142
0.0
142
0.0
142
0.0
142
0.0
142
0.0208333333333333
142
0.0
142
0.0
142
0.0
142
0.0
142
1.0
142
0.0
142
0.0
142
0.0
142
0.0
142
1.0
179
     0
144
0.0208333333333333
144
0.0
144
0.0
144
0.0
144
0.0
144
0.0208333333333333
144
0.0
144
0.0
144
0.0
144
0.0
144
1.0
144
0.0
144
0.0
144
0.0
144
0.0
144
1.0
147
0.0208333333333333
147
0.0
147
0.0
147
0.0
147
0.0
147
0.0208333333333333
147
0.0
147
0.0
147
0.0
147
0.0
147
1.0
147
0.0
147
0.0
147
0.0
147
0.0
147
1.0
  0
MATERIAL
  5
232A
102
{ACAD_XDICTIONARY
360
232B
102
}
102
{ACAD_REACTORS
330
2319
102
}
330
2319
100
AcDbMaterial
  1
Global
 72
     0
 43
0.0208333333333333
 43
0.0
 43
0.0
 43
0.0
 43
0.0
 43
0.0208333333333333
 43
0.0
 43
0.0
 43
0.0
 43
0.0
 43
1.0
 43
0.0
 43
0.0
 43
0.0
 43
0.0
 43
1.0
 77
     0
 47
0.0208333333333333
 47
0.0
 47
0.0
 47
0.0
 47
0.0
 47
0.0208333333333333
 47
0.0
 47
0.0
 47
0.0
 47
0.0
 47
1.0
 47
0.0
 47
0.0
 47
0.0
 47
0.0
 47
1.0
171
     0
 49
0.0208333333333333
 49
0.0
 49
0.0
 49
0.0
 49
0.0
 49
0.0208333333333333
 49
0.0
 49
0.0
 49
0.0
 49
0.0
 49
1.0
 49
0.0
 49
0.0
 49
0.0
 49
0.0
 49
1.0
175
     0
142
0.0208333333333333
142
0.0
142
0.0
142
0.0
142
0.0
142
0.0208333333333333
142
0.0
142
0.0
142
0.0
142
0.0
142
1.0
142
0.0
142
0.0
142
0.0
142
0.0
142
1.0
179
     0
144
0.0208333333333333
144
0.0
144
0.0
144
0.0
144
0.0
144
0.0208333333333333
144
0.0
144
0.0
144
0.0
144
0.0
144
1.0
144
0.0
144
0.0
144
0.0
144
0.0
144
1.0
147
0.0208333333333333
147
0.0
147
0.0
147
0.0
147
0.0
147
0.0208333333333333
147
0.0
147
0.0
147
0.0
147
0.0
147
1.0
147
0.0
147
0.0
147
0.0
147
0.0
147
1.0
  0
MLEADERSTYLE
  5
2361
102
{ACAD_REACTORS
330
2360
102
}
330
2360
100
AcDbMLeaderStyle
170
     2
171
     1
172
     0
 90
        2
 40
0.0
 41
0.0
173
     1
 91
-1056964608
340
12
 92
       -2
290
     1
 42
0.09
291
     1
 43
0.36
  3
Standard
 44
0.18
300

342
F
174
     1
178
     6
175
     1
176
     0
 93
-1056964608
 45
0.18
292
     0
297
     0
 46
0.18
 94
-1056964608
 47
1.0
 49
1.0
140
1.0
293
     1
141
0.0
294
     1
177
     0
142
1.0
295
     0
296
     0
143
0.125
1001
ACAD_MLEADERVER
1070
     2
  0
MLINESTYLE
  5
1C
102
{ACAD_REACTORS
330
1B
102
}
330
1B
100
AcDbMlineStyle
  2
STANDARD
 70
     0
  3

 62
   256
 51
90.0
 52
90.0
 71
     2
 49
0.5
 62
   256
  6
BYLAYER
 49
-0.5
 62
   256
  6
BYLAYER
  0
ACDBPLACEHOLDER
  5
2318
102
{ACAD_REACTORS
330
2317
102
}
330
2317
  0
SCALE
  5
234F
102
{ACAD_REACTORS
330
234E
102
}
330
234E
100
AcDbScale
 70
     0
300
1:1
140
1.0
141
1.0
290
     1
  0
SCALE
  5
2350
102
{ACAD_REACTORS
330
234E
102
}
330
234E
100
AcDbScale
 70
     0
300
1/128" = 1'-0"
140
0.0078125
141
12.0
290
     0
  0
SCALE
  5
2351
102
{ACAD_REACTORS
330
234E
102
}
330
234E
100
AcDbScale
 70
     0
300
1/64" = 1'-0"
140
0.015625
141
12.0
290
     0
  0
SCALE
  5
2352
102
{ACAD_REACTORS
330
234E
102
}
330
234E
100
AcDbScale
 70
     0
300
1/32" = 1'-0"
140
0.03125
141
12.0
290
     0
  0
SCALE
  5
2353
102
{ACAD_REACTORS
330
234E
102
}
330
234E
100
AcDbScale
 70
     0
300
1/16" = 1'-0"
140
0.0625
141
12.0
290
     0
  0
SCALE
  5
2354
102
{ACAD_REACTORS
330
234E
102
}
330
234E
100
AcDbScale
 70
     0
300
3/32" = 1'-0"
140
0.09375
141
12.0
290
     0
  0
SCALE
  5
2355
102
{ACAD_REACTORS
330
234E
102
}
330
234E
100
AcDbScale
 70
     0
300
1/8" = 1'-0"
140
0.125
141
12.0
290
     0
  0
SCALE
  5
2356
102
{ACAD_REACTORS
330
234E
102
}
330
234E
100
AcDbScale
 70
     0
300
3/16" = 1'-0"
140
0.1875
141
12.0
290
     0
  0
SCALE
  5
2357
102
{ACAD_REACTORS
330
234E
102
}
330
234E
100
AcDbScale
 70
     0
300
1/4" = 1'-0"
140
0.25
141
12.0
290
     0
  0
SCALE
  5
2358
102
{ACAD_REACTORS
330
234E
102
}
330
234E
100
AcDbScale
 70
     0
300
3/8" = 1'-0"
140
0.375
141
12.0
290
     0
  0
SCALE
  5
2359
102
{ACAD_REACTORS
330
234E
102
}
330
234E
100
AcDbScale
 70
     0
300
1/2" = 1'-0"
140
0.5
141
12.0
290
     0
  0
SCALE
  5
235A
102
{ACAD_REACTORS
330
234E
102
}
330
234E
100
AcDbScale
 70
     0
300
3/4" = 1'-0"
140
0.75
141
12.0
290
     0
  0
SCALE
  5
235B
102
{ACAD_REACTORS
330
234E
102
}
330
234E
100
AcDbScale
 70
     0
300
1" = 1'-0"
140
1.0
141
12.0
290
     0
  0
SCALE
  5
235C
102
{ACAD_REACTORS
330
234E
102
}
330
234E
100
AcDbScale
 70
     0
300
1-1/2" = 1'-0"
140
1.5
141
12.0
290
     0
  0
SCALE
  5
235D
102
{ACAD_REACTORS
330
234E
102
}
330
234E
100
AcDbScale
 70
     0
300
3" = 1'-0"
140
3.0
141
12.0
290
     0
  0
SCALE
  5
235E
102
{ACAD_REACTORS
330
234E
102
}
330
234E
100
AcDbScale
 70
     0
300
6" = 1'-0"
140
6.0
141
12.0
290
     0
  0
SCALE
  5
235F
102
{ACAD_REACTORS
330
234E
102
}
330
234E
100
AcDbScale
 70
     0
300
1'-0" = 1'-0"
140
12.0
141
12.0
290
     0
  0
ACDBSECTIONVIEWSTYLE
  5
2363
102
{ACAD_XDICTIONARY
360
23BD
102
}
102
{ACAD_REACTORS
330
2362
102
}
330
2362
100
AcDbModelDocViewStyle
 70
     0
  3
Imperial24
290
     0
100
AcDbSectionViewStyle
 70
     0
 71
     0
 90
       78
 71
     1
340
F
 40
0.24
340
0
340
0
 40
0.24
300
I, O, Q, S, X, Z
 40
0.48
 90
        3
 40
0.18
 90
        1
 71
     2
340
14
 90
       25
340
14
 90
       50
 40
0.24
 40
0.0
 40
0.24
 71
     3
340
F
 40
0.24
 90
        1
 40
0.75
 90
        1
300
%<\AcVar ViewType \f "%tc1">% %<\AcVar ViewSectionStartId>%-%<\AcVar ViewSectionEndId>%\PSCALE %<\AcVar ViewScale \f "%sn">%
 71
     4
300
ANSI31
 40
1.0
 90
        0
290
     0
290
     0
 90
        6
 40
0.0
 40
1.570796326794896
 40
0.2617993877991494
 40
1.308996938995747
 40
-0.2617993877991494
 40
1.832595714594046
  0
TABLESTYLE
  5
234D
102
{ACAD_XDICTIONARY
360
2384
102
}
102
{ACAD_REACTORS
330
234C
102
}
330
234C
100
AcDbTableStyle
  3
Standard
 70
     0
 71
     0
 40
0.06
 41
0.06
280
     0
281
     0
  7
STANDARD
140
0.18
170
     2
 62
     0
 63
     7
283
     0
274
    -2
284
     1
 64
     0
275
    -2
285
     1
 65
     0
276
    -2
286
     1
 66
     0
277
    -2
287
     1
 67
     0
278
    -2
288
     1
 68
     0
279
    -2
289
     1
 69
     0
  7
STANDARD
140
0.25
170
     5
 62
     0
 63
     7
283
     0
274
    -2
284
     1
 64
     0
275
    -2
285
     1
 65
     0
276
    -2
286
     1
 66
     0
277
    -2
287
     1
 67
     0
278
    -2
288
     1
 68
     0
279
    -2
289
     1
 69
     0
  7
STANDARD
140
0.18
170
     5
 62
     0
 63
     7
283
     0
274
    -2
284
     1
 64
     0
275
    -2
285
     1
 65
     0
276
    -2
286
     1
 66
     0
277
    -2
287
     1
 67
     0
278
    -2
288
     1
 68
     0
279
    -2
289
     1
 69
     0
  0
VISUALSTYLE
  5
2338
102
{ACAD_XDICTIONARY
360
2395
102
}
102
{ACAD_REACTORS
330
2332
102
}
330
2332
100
AcDbVisualStyle
  2
2dWireframe
 70
     4
 71
     0
 72
     2
 73
     0
 90
        0
 40
-0.6
 41
-30.0
 62
     5
 63
     7
 74
     1
 91
        4
 64
     7
 65
   257
 75
     1
175
     1
 42
1.0
 92
        0
 66
   257
 43
1.0
 76
     1
 77
     6
 78
     2
 67
     7
 79
     5
170
     0
171
     0
290
     0
174
     0
 93
        1
 44
0.0
173
     0
291
     0
 45
0.0
1001
ACAD
1000
AcDbSavedByObjectVersion
1070
     0
  0
VISUALSTYLE
  5
2337
102
{ACAD_XDICTIONARY
360
2393
102
}
102
{ACAD_REACTORS
330
2332
102
}
330
2332
100
AcDbVisualStyle
  2
Basic
 70
     7
 71
     1
 72
     0
 73
     1
 90
        0
 40
-0.6
 41
-30.0
 62
     5
 63
     7
 74
     0
 91
        4
 64
     7
 65
   257
 75
     1
175
     1
 42
1.0
 92
        8
 66
     7
 43
1.0
 76
     1
 77
     6
 78
     2
 67
     7
 79
     5
170
     0
171
     0
290
     0
174
     0
 93
        1
 44
0.0
173
     0
291
     1
 45
0.0
1001
ACAD
1000
AcDbSavedByObjectVersion
1070
     0
  0
VISUALSTYLE
  5
233E
102
{ACAD_XDICTIONARY
360
23A1
102
}
102
{ACAD_REACTORS
330
2332
102
}
330
2332
100
AcDbVisualStyle
  2
Brighten
 70
    12
 71
     2
 72
     2
 73
     0
 90
        0
 40
-0.6
 41
-30.0
 62
     5
 63
     7
 74
     1
 91
        4
 64
     7
 65
   257
 75
     1
175
     1
 42
1.0
 92
        8
 66
     7
 43
1.0
 76
     1
 77
     6
 78
     2
 67
     7
 79
     5
170
     0
171
     0
290
     0
174
     0
 93
        1
 44
50.0
173
     0
291
     1
 45
0.0
1001
ACAD
1000
AcDbSavedByObjectVersion
1070
     0
  0
VISUALSTYLE
  5
2342
102
{ACAD_XDICTIONARY
360
23A9
102
}
102
{ACAD_REACTORS
330
2332
102
}
330
2332
100
AcDbVisualStyle
  2
ColorChange
 70
    16
 71
     2
 72
     2
 73
     3
 90
        0
 40
-0.6
 41
-30.0
 62
     5
 63
     8
 74
     1
 91
        4
 64
     7
 65
   257
 75
     1
175
     1
 42
1.0
 92
        8
 66
     8
 43
1.0
 76
     1
 77
     6
 78
     2
 67
     7
 79
     5
170
     0
171
     0
290
     0
174
     0
 93
        1
 44
0.0
173
     0
291
     1
 45
0.0
1001
ACAD
1000
AcDbSavedByObjectVersion
1070
     0
  0
VISUALSTYLE
  5
233B
102
{ACAD_XDICTIONARY
360
239B
102
}
102
{ACAD_REACTORS
330
2332
102
}
330
2332
100
AcDbVisualStyle
  2
Conceptual
 70
     9
 71
     3
 72
     2
 73
     0
 90
        0
 40
-0.6
 41
-30.0
 62
     5
 63
     7
 74
     2
 91
        2
 64
     7
 65
   257
 75
     1
175
     1
 42
179.0
 92
        8
 66
     7
 43
1.0
 76
     1
 77
     6
 78
     2
 67
     7
 79
     3
170
     0
171
     0
290
     0
174
     0
 93
        1
 44
0.0
173
     0
291
     0
 45
0.0
1001
ACAD
1000
AcDbSavedByObjectVersion
1070
     0
  0
VISUALSTYLE
  5
233D
102
{ACAD_XDICTIONARY
360
239F
102
}
102
{ACAD_REACTORS
330
2332
102
}
330
2332
100
AcDbVisualStyle
  2
Dim
 70
    11
 71
     2
 72
     2
 73
     0
 90
        0
 40
-0.6
 41
-30.0
 62
     5
 63
     7
 74
     1
 91
        4
 64
     7
 65
   257
 75
     1
175
     1
 42
1.0
 92
        8
 66
     7
 43
1.0
 76
     1
 77
     6
 78
     2
 67
     7
 79
     5
170
     0
171
     0
290
     0
174
     0
 93
        1
 44
-50.0
173
     0
291
     1
 45
0.0
1001
ACAD
1000
AcDbSavedByObjectVersion
1070
     0
  0
VISUALSTYLE
  5
234A
102
{ACAD_XDICTIONARY
360
23B9
102
}
102
{ACAD_REACTORS
330
2332
102
}
330
2332
100
AcDbVisualStyle
  2
EdgeColorOff
 70
    22
 71
     2
 72
     2
 73
     0
 90
        0
 40
-0.6
 41
-30.0
 62
     5
 63
     7
 74
     1
 91
        4
 64
     7
 65
   257
 75
     1
175
     1
 42
1.0
 92
        8
 66
     7
 43
1.0
 76
     1
 77
     6
 78
     2
 67
     7
 79
     5
170
     0
171
     0
290
     0
174
     0
 93
        1
 44
0.0
173
     0
291
     1
 45
0.0
1001
ACAD
1000
AcDbSavedByObjectVersion
1070
     0
  0
VISUALSTYLE
  5
2341
102
{ACAD_XDICTIONARY
360
23A7
102
}
102
{ACAD_REACTORS
330
2332
102
}
330
2332
100
AcDbVisualStyle
  2
Facepattern
 70
    15
 71
     2
 72
     2
 73
     0
 90
        0
 40
-0.6
 41
-30.0
 62
     5
 63
     7
 74
     1
 91
        4
 64
     7
 65
   257
 75
     1
175
     1
 42
1.0
 92
        8
 66
     7
 43
1.0
 76
     1
 77
     6
 78
     2
 67
     7
 79
     5
170
     0
171
     0
290
     0
174
     0
 93
        1
 44
0.0
173
     0
291
     1
 45
0.0
1001
ACAD
1000
AcDbSavedByObjectVersion
1070
     0
  0
VISUALSTYLE
  5
2333
102
{ACAD_XDICTIONARY
360
238B
102
}
102
{ACAD_REACTORS
330
2332
102
}
330
2332
100
AcDbVisualStyle
  2
Flat
 70
     0
 71
     2
 72
     1
 73
     1
 90
        2
 40
-0.6
 41
30.0
 62
     5
 63
     7
 74
     0
 91
        0
 64
     7
 65
   257
 75
     1
175
     1
 42
1.0
 92
        8
 66
     7
 43
1.0
 76
     1
 77
     6
 78
     2
 67
     7
 79
     5
170
     0
171
     0
290
     0
174
     0
 93
       13
 44
0.0
173
     0
291
     1
 45
0.0
1001
ACAD
1000
AcDbSavedByObjectVersion
1070
     0
  0
VISUALSTYLE
  5
2334
102
{ACAD_XDICTIONARY
360
238D
102
}
102
{ACAD_REACTORS
330
2332
102
}
330
2332
100
AcDbVisualStyle
  2
FlatWithEdges
 70
     1
 71
     2
 72
     1
 73
     1
 90
        2
 40
-0.6
 41
30.0
 62
     5
 63
     7
 74
     1
 91
        0
 64
     7
 65
   257
 75
     1
175
     1
 42
1.0
 92
        0
 66
   257
 43
1.0
 76
     1
 77
     6
 78
     2
 67
     7
 79
     5
170
     0
171
     0
290
     0
174
     0
 93
       13
 44
0.0
173
     0
291
     1
 45
0.0
1001
ACAD
1000
AcDbSavedByObjectVersion
1070
     0
  0
VISUALSTYLE
  5
2335
102
{ACAD_XDICTIONARY
360
238F
102
}
102
{ACAD_REACTORS
330
2332
102
}
330
2332
100
AcDbVisualStyle
  2
Gouraud
 70
     2
 71
     2
 72
     2
 73
     1
 90
        2
 40
-0.6
 41
30.0
 62
     5
 63
     7
 74
     0
 91
        0
 64
     7
 65
   257
 75
     1
175
     1
 42
1.0
 92
        0
 66
     7
 43
1.0
 76
     1
 77
     6
 78
     2
 67
     7
 79
     5
170
     0
171
     0
290
     0
174
     0
 93
       13
 44
0.0
173
     0
291
     1
 45
0.0
1001
ACAD
1000
AcDbSavedByObjectVersion
1070
     0
  0
VISUALSTYLE
  5
2336
102
{ACAD_XDICTIONARY
360
2391
102
}
102
{ACAD_REACTORS
330
2332
102
}
330
2332
100
AcDbVisualStyle
  2
GouraudWithEdges
 70
     3
 71
     2
 72
     2
 73
     1
 90
        2
 40
-0.6
 41
30.0
 62
     5
 63
     7
 74
     1
 91
        0
 64
     7
 65
   257
 75
     1
175
     1
 42
1.0
 92
        0
 66
   257
 43
1.0
 76
     1
 77
     6
 78
     2
 67
     7
 79
     5
170
     0
171
     0
290
     0
174
     0
 93
       13
 44
0.0
173
     0
291
     1
 45
0.0
1001
ACAD
1000
AcDbSavedByObjectVersion
1070
     0
  0
VISUALSTYLE
  5
233A
102
{ACAD_XDICTIONARY
360
2399
102
}
102
{ACAD_REACTORS
330
2332
102
}
330
2332
100
AcDbVisualStyle
  2
Hidden
 70
     6
 71
     1
 72
     2
 73
     2
 90
        0
 40
-0.6
 41
-30.0
 62
     5
 63
     7
 74
     2
 91
        2
 64
     7
 65
   257
 75
     2
175
     1
 42
40.0
 92
        0
 66
   257
 43
1.0
 76
     1
 77
     6
 78
     2
 67
     7
 79
     3
170
     0
171
     0
290
     0
174
     0
 93
        1
 44
0.0
173
     0
291
     0
 45
0.0
1001
ACAD
1000
AcDbSavedByObjectVersion
1070
     0
  0
VISUALSTYLE
  5
2348
102
{ACAD_XDICTIONARY
360
23B5
102
}
102
{ACAD_REACTORS
330
2332
102
}
330
2332
100
AcDbVisualStyle
  2
JitterOff
 70
    20
 71
     2
 72
     2
 73
     0
 90
        0
 40
-0.6
 41
-30.0
 62
     5
 63
     7
 74
     1
 91
        4
 64
     7
 65
   257
 75
     1
175
     1
 42
1.0
 92
       10
 66
     7
 43
1.0
 76
     1
 77
     6
 78
     2
 67
     7
 79
     5
170
     0
171
     0
290
     0
174
     0
 93
        1
 44
0.0
173
     0
291
     1
 45
0.0
1001
ACAD
1000
AcDbSavedByObjectVersion
1070
     0
  0
VISUALSTYLE
  5
2340
102
{ACAD_XDICTIONARY
360
23A5
102
}
102
{ACAD_REACTORS
330
2332
102
}
330
2332
100
AcDbVisualStyle
  2
Linepattern
 70
    14
 71
     2
 72
     2
 73
     0
 90
        0
 40
-0.6
 41
-30.0
 62
     5
 63
     7
 74
     1
 91
        4
 64
     7
 65
   257
 75
     7
175
     7
 42
1.0
 92
        8
 66
     7
 43
1.0
 76
     1
 77
     6
 78
     2
 67
     7
 79
     5
170
     0
171
     0
290
     0
174
     0
 93
        1
 44
0.0
173
     0
291
     1
 45
0.0
1001
ACAD
1000
AcDbSavedByObjectVersion
1070
     0
  0
VISUALSTYLE
  5
2349
102
{ACAD_XDICTIONARY
360
23B7
102
}
102
{ACAD_REACTORS
330
2332
102
}
330
2332
100
AcDbVisualStyle
  2
OverhangOff
 70
    21
 71
     2
 72
     2
 73
     0
 90
        0
 40
-0.6
 41
-30.0
 62
     5
 63
     7
 74
     1
 91
        4
 64
     7
 65
   257
 75
     1
175
     1
 42
1.0
 92
        9
 66
     7
 43
1.0
 76
     1
 77
     6
 78
     2
 67
     7
 79
     5
170
     0
171
     0
290
     0
174
     0
 93
        1
 44
0.0
173
     0
291
     1
 45
0.0
1001
ACAD
1000
AcDbSavedByObjectVersion
1070
     0
  0
VISUALSTYLE
  5
233C
102
{ACAD_XDICTIONARY
360
239D
102
}
102
{ACAD_REACTORS
330
2332
102
}
330
2332
100
AcDbVisualStyle
  2
Realistic
 70
     8
 71
     2
 72
     3
 73
     0
 90
        2
 40
-0.6
 41
30.0
 62
     5
 63
     7
 74
     0
 91
        0
 64
     7
 65
   257
 75
     1
175
     1
 42
1.0
 92
        8
 66
   257
 43
1.0
 76
     1
 77
     6
 78
     2
 67
     7
 79
     3
170
     0
171
     0
290
     0
174
     0
 93
       13
 44
0.0
173
     0
291
     0
 45
0.0
1001
ACAD
1000
AcDbSavedByObjectVersion
1070
     0
  0
VISUALSTYLE
  5
2347
102
{ACAD_XDICTIONARY
360
23B3
102
}
102
{ACAD_REACTORS
330
2332
102
}
330
2332
100
AcDbVisualStyle
  2
Shaded
 70
    27
 71
     2
 72
     2
 73
     1
 90
        2
 40
-0.6
 41
30.0
 62
     5
 63
     7
 74
     0
 91
        4
 64
     7
 65
   257
 75
     1
175
     1
 42
1.0
 92
        8
 66
   257
 43
1.0
 76
     1
 77
     6
 78
     2
 67
     8
 79
     3
170
     0
171
     0
290
     0
174
     0
 93
        5
 44
0.0
173
     0
291
     0
 45
0.0
1001
ACAD
1000
AcDbSavedByObjectVersion
1070
     0
  0
VISUALSTYLE
  5
2346
102
{ACAD_XDICTIONARY
360
23B1
102
}
102
{ACAD_REACTORS
330
2332
102
}
330
2332
100
AcDbVisualStyle
  2
Shaded with edges
 70
    26
 71
     2
 72
     2
 73
     1
 90
        2
 40
-0.6
 41
30.0
 62
     5
 63
     7
 74
     1
 91
       10
 64
     7
 65
   257
 75
     2
175
     1
 42
1.0
 92
        8
 66
   257
 43
1.0
 76
     1
 77
     6
 78
     2
 67
     7
 79
     3
170
     0
171
     0
290
     0
174
     0
 93
        5
 44
0.0
173
     0
291
     0
 45
0.0
1001
ACAD
1000
AcDbSavedByObjectVersion
1070
     0
  0
VISUALSTYLE
  5
2343
102
{ACAD_XDICTIONARY
360
23AB
102
}
102
{ACAD_REACTORS
330
2332
102
}
330
2332
100
AcDbVisualStyle
  2
Shades of Gray
 70
    23
 71
     2
 72
     2
 73
     3
 90
        0
 40
-0.6
 41
-30.0
 62
     5
 63
     7
 74
     2
 91
        2
 64
     7
 65
     7
 75
     1
175
     1
 42
40.0
 92
        8
 66
     7
 43
1.0
 76
     1
 77
     6
 78
     2
 67
     7
 79
     3
170
     0
171
     0
290
     0
174
     0
 93
        1
 44
0.0
173
     0
291
     0
 45
0.0
1001
ACAD
1000
AcDbSavedByObjectVersion
1070
     0
  0
VISUALSTYLE
  5
2344
102
{ACAD_XDICTIONARY
360
23AD
102
}
102
{ACAD_REACTORS
330
2332
102
}
330
2332
100
AcDbVisualStyle
  2
Sketchy
 70
    24
 71
     1
 72
     2
 73
     2
 90
        0
 40
-0.6
 41
-30.0
 62
     5
 63
     7
 74
     2
 91
        2
 64
     7
 65
     7
 75
     1
175
     1
 42
40.0
 92
       11
 66
     7
 43
1.0
 76
     1
 77
     6
 78
     2
 67
     7
 79
     6
170
     0
171
     0
290
     0
174
     0
 93
        1
 44
0.0
173
     0
291
     0
 45
0.0
1001
ACAD
1000
AcDbSavedByObjectVersion
1070
     0
  0
VISUALSTYLE
  5
233F
102
{ACAD_XDICTIONARY
360
23A3
102
}
102
{ACAD_REACTORS
330
2332
102
}
330
2332
100
AcDbVisualStyle
  2
Thicken
 70
    13
 71
     2
 72
     2
 73
     0
 90
        0
 40
-0.6
 41
-30.0
 62
     5
 63
     7
 74
     1
 91
        4
 64
     7
 65
   257
 75
     1
175
     1
 42
1.0
 92
       12
 66
     7
 43
1.0
 76
     1
 77
     6
 78
     2
 67
     7
 79
     5
170
     0
171
     0
290
     0
174
     0
 93
        1
 44
0.0
173
     0
291
     1
 45
0.0
1001
ACAD
1000
AcDbSavedByObjectVersion
1070
     0
  0
VISUALSTYLE
  5
2339
102
{ACAD_XDICTIONARY
360
2397
102
}
102
{ACAD_REACTORS
330
2332
102
}
330
2332
100
AcDbVisualStyle
  2
Wireframe
 70
     5
 71
     0
 72
     2
 73
     0
 90
        0
 40
-0.6
 41
-30.0
 62
     5
 63
     7
 74
     1
 91
        4
 64
     7
 65
   257
 75
     1
175
     1
 42
1.0
 92
        0
 66
   257
 43
1.0
 76
     1
 77
     6
 78
     2
 67
     7
 79
     3
170
     0
171
     0
290
     0
174
     0
 93
        1
 44
0.0
173
     0
291
     0
 45
0.0
1001
ACAD
1000
AcDbSavedByObjectVersion
1070
     0
  0
VISUALSTYLE
  5
2345
102
{ACAD_XDICTIONARY
360
23AF
102
}
102
{ACAD_REACTORS
330
2332
102
}
330
2332
100
AcDbVisualStyle
  2
X-Ray
 70
    25
 71
     2
 72
     2
 73
     1
 90
        1
 40
0.5
 41
-30.0
 62
     5
 63
     7
 74
     1
 91
        0
 64
     7
 65
   257
 75
     1
175
     1
 42
1.0
 92
        8
 66
     7
 43
1.0
 76
     1
 77
     6
 78
     2
 67
     7
 79
     3
170
     0
171
     0
290
     0
174
     0
 93
       13
 44
0.0
173
     0
291
     0
 45
0.0
1001
ACAD
1000
AcDbSavedByObjectVersion
1070
     0
  0
DICTIONARYVAR
  5
237E
102
{ACAD_REACTORS
330
2379
102
}
330
2379
100
DictionaryVariables
280
     0
  1
1:1
  0
DICTIONARYVAR
  5
237B
102
{ACAD_REACTORS
330
2379
102
}
330
2379
100
DictionaryVariables
280
     0
  1
STANDARD
  0
DICTIONARYVAR
  5
237A
102
{ACAD_REACTORS
330
2379
102
}
330
2379
100
DictionaryVariables
280
     0
  1
STANDARD
  0
DICTIONARYVAR
  5
237C
102
{ACAD_REACTORS
330
2379
102
}
330
2379
100
DictionaryVariables
280
     0
  1
Imperial24
  0
DICTIONARYVAR
  5
237D
102
{ACAD_REACTORS
330
2379
102
}
330
2379
100
DictionaryVariables
280
     0
  1
Imperial24
  0
DICTIONARYVAR
  5
2381
102
{ACAD_REACTORS
330
2379
102
}
330
2379
100
DictionaryVariables
280
     0
  1
1
  0
DICTIONARYVAR
  5
2380
102
{ACAD_REACTORS
330
2379
102
}
330
2379
100
DictionaryVariables
280
     0
  1
0
  0
DICTIONARYVAR
  5
237F
102
{ACAD_REACTORS
330
2379
102
}
330
2379
100
DictionaryVariables
280
     0
  1
127
  0
DICTIONARYVAR
  5
2382
102
{ACAD_REACTORS
330
2379
102
}
330
2379
100
DictionaryVariables
280
     0
  1
2
  0
DICTIONARY
  5
23BF
330
2365
100
AcDbDictionary
280
     1
281
     1
  3
ACAD_XREC_ROUNDTRIP
360
23C0
  0
DICTIONARY
  5
23C1
330
2366
100
AcDbDictionary
280
     1
281
     1
  3
ACAD_XREC_ROUNDTRIP
360
23C2
  0
DICTIONARY
  5
23C3
330
2367
100
AcDbDictionary
280
     1
281
     1
  3
ACAD_XREC_ROUNDTRIP
360
23C4
  0
DICTIONARY
  5
2323
330
2322
100
AcDbDictionary
280
     1
281
     1
  3
ACAD_XREC_ROUNDTRIP
360
2389
  3
BUMPTILE
360
2325
  3
DIFFUSETILE
360
2324
  3
OPACITYTILE
360
2328
  3
REFLECTIONTILE
360
2327
  3
REFRACTIONTILE
360
2329
  3
SPECULARTILE
360
2326
  0
DICTIONARY
  5
231B
330
231A
100
AcDbDictionary
280
     1
281
     1
  3
ACAD_XREC_ROUNDTRIP
360
2388
  3
BUMPTILE
360
231D
  3
DIFFUSETILE
360
231C
  3
OPACITYTILE
360
2320
  3
REFLECTIONTILE
360
231F
  3
REFRACTIONTILE
360
2321
  3
SPECULARTILE
360
231E
  0
DICTIONARY
  5
232B
330
232A
100
AcDbDictionary
280
     1
281
     1
  3
ACAD_XREC_ROUNDTRIP
360
238A
  3
BUMPTILE
360
232D
  3
DIFFUSETILE
360
232C
  3
OPACITYTILE
360
2330
  3
REFLECTIONTILE
360
232F
  3
REFRACTIONTILE
360
2331
  3
SPECULARTILE
360
232E
  0
DICTIONARY
  5
23BD
330
2363
100
AcDbDictionary
280
     1
281
     1
  3
ACAD_XREC_ROUNDTRIP
360
23BE
  0
DICTIONARY
  5
2384
330
234D
100
AcDbDictionary
280
     1
281
     1
  3
ACAD_ROUNDTRIP_2008_TABLESTYLE_CELLSTYLEMAP
360
2385
  3
ACAD_XREC_ROUNDTRIP
360
23BB
  0
DICTIONARY
  5
2395
330
2338
100
AcDbDictionary
280
     1
281
     1
  3
ACAD_XREC_ROUNDTRIP
360
2396
  0
DICTIONARY
  5
2393
330
2337
100
AcDbDictionary
280
     1
281
     1
  3
ACAD_XREC_ROUNDTRIP
360
2394
  0
DICTIONARY
  5
23A1
330
233E
100
AcDbDictionary
280
     1
281
     1
  3
ACAD_XREC_ROUNDTRIP
360
23A2
  0
DICTIONARY
  5
23A9
330
2342
100
AcDbDictionary
280
     1
281
     1
  3
ACAD_XREC_ROUNDTRIP
360
23AA
  0
DICTIONARY
  5
239B
330
233B
100
AcDbDictionary
280
     1
281
     1
  3
ACAD_XREC_ROUNDTRIP
360
239C
  0
DICTIONARY
  5
239F
330
233D
100
AcDbDictionary
280
     1
281
     1
  3
ACAD_XREC_ROUNDTRIP
360
23A0
  0
DICTIONARY
  5
23B9
330
234A
100
AcDbDictionary
280
     1
281
     1
  3
ACAD_XREC_ROUNDTRIP
360
23BA
  0
DICTIONARY
  5
23A7
330
2341
100
AcDbDictionary
280
     1
281
     1
  3
ACAD_XREC_ROUNDTRIP
360
23A8
  0
DICTIONARY
  5
238B
330
2333
100
AcDbDictionary
280
     1
281
     1
  3
ACAD_XREC_ROUNDTRIP
360
238C
  0
DICTIONARY
  5
238D
330
2334
100
AcDbDictionary
280
     1
281
     1
  3
ACAD_XREC_ROUNDTRIP
360
238E
  0
DICTIONARY
  5
238F
330
2335
100
AcDbDictionary
280
     1
281
     1
  3
ACAD_XREC_ROUNDTRIP
360
2390
  0
DICTIONARY
  5
2391
330
2336
100
AcDbDictionary
280
     1
281
     1
  3
ACAD_XREC_ROUNDTRIP
360
2392
  0
DICTIONARY
  5
2399
330
233A
100
AcDbDictionary
280
     1
281
     1
  3
ACAD_XREC_ROUNDTRIP
360
239A
  0
DICTIONARY
  5
23B5
330
2348
100
AcDbDictionary
280
     1
281
     1
  3
ACAD_XREC_ROUNDTRIP
360
23B6
  0
DICTIONARY
  5
23A5
330
2340
100
AcDbDictionary
280
     1
281
     1
  3
ACAD_XREC_ROUNDTRIP
360
23A6
  0
DICTIONARY
  5
23B7
330
2349
100
AcDbDictionary
280
     1
281
     1
  3
ACAD_XREC_ROUNDTRIP
360
23B8
  0
DICTIONARY
  5
239D
330
233C
100
AcDbDictionary
280
     1
281
     1
  3
ACAD_XREC_ROUNDTRIP
360
239E
  0
DICTIONARY
  5
23B3
330
2347
100
AcDbDictionary
280
     1
281
     1
  3
ACAD_XREC_ROUNDTRIP
360
23B4
  0
DICTIONARY
  5
23B1
330
2346
100
AcDbDictionary
280
     1
281
     1
  3
ACAD_XREC_ROUNDTRIP
360
23B2
  0
DICTIONARY
  5
23AB
330
2343
100
AcDbDictionary
280
     1
281
     1
  3
ACAD_XREC_ROUNDTRIP
360
23AC
  0
DICTIONARY
  5
23AD
330
2344
100
AcDbDictionary
280
     1
281
     1
  3
ACAD_XREC_ROUNDTRIP
360
23AE
  0
DICTIONARY
  5
23A3
330
233F
100
AcDbDictionary
280
     1
281
     1
  3
ACAD_XREC_ROUNDTRIP
360
23A4
  0
DICTIONARY
  5
2397
330
2339
100
AcDbDictionary
280
     1
281
     1
  3
ACAD_XREC_ROUNDTRIP
360
2398
  0
DICTIONARY
  5
23AF
330
2345
100
AcDbDictionary
280
     1
281
     1
  3
ACAD_XREC_ROUNDTRIP
360
23B0
  0
XRECORD
  5
23C0
102
{ACAD_REACTORS
330
23BF
102
}
330
23BF
100
AcDbXrecord
280
     1
102
DISPLAYNAME
  1
Imperial24
102
FLAGS
 90
        0
  0
XRECORD
  5
23C2
102
{ACAD_REACTORS
330
23C1
102
}
330
23C1
100
AcDbXrecord
280
     1
102
SHADEPLOT
 70
     0
102
SHADEPLOTRESLEVEL
 70
     2
102
SHADEPLOTCUSTOMDPI
 70
   300
  0
XRECORD
  5
23C4
102
{ACAD_REACTORS
330
23C3
102
}
330
23C3
100
AcDbXrecord
280
     1
102
SHADEPLOT
 70
     0
102
SHADEPLOTRESLEVEL
 70
     2
102
SHADEPLOTCUSTOMDPI
 70
   300
  0
XRECORD
  5
2389
102
{ACAD_REACTORS
330
2323
102
}
330
2323
100
AcDbXrecord
280
     1
102
MATERIAL
148
0.0
149
0.0
149
0.0
 93
        0
 94
      127
282
     0
 72
     0
 77
     0
171
     0
175
     0
179
     0
273
     0
  0
XRECORD
  5
2325
102
{ACAD_REACTORS
330
2323
102
}
330
2323
100
AcDbXrecord
280
     1
270
     1
271
     1
  0
XRECORD
  5
2324
102
{ACAD_REACTORS
330
2323
102
}
330
2323
100
AcDbXrecord
280
     1
270
     1
271
     1
  0
XRECORD
  5
2328
102
{ACAD_REACTORS
330
2323
102
}
330
2323
100
AcDbXrecord
280
     1
270
     1
271
     1
  0
XRECORD
  5
2327
102
{ACAD_REACTORS
330
2323
102
}
330
2323
100
AcDbXrecord
280
     1
270
     1
271
     1
  0
XRECORD
  5
2329
102
{ACAD_REACTORS
330
2323
102
}
330
2323
100
AcDbXrecord
280
     1
270
     1
271
     1
  0
XRECORD
  5
2326
102
{ACAD_REACTORS
330
2323
102
}
330
2323
100
AcDbXrecord
280
     1
270
     1
271
     1
  0
XRECORD
  5
2388
102
{ACAD_REACTORS
330
231B
102
}
330
231B
100
AcDbXrecord
280
     1
102
MATERIAL
148
0.0
149
0.0
149
0.0
 93
        0
 94
      127
282
     0
 72
     0
 77
     0
171
     0
175
     0
179
     0
273
     0
  0
XRECORD
  5
231D
102
{ACAD_REACTORS
330
231B
102
}
330
231B
100
AcDbXrecord
280
     1
270
     1
271
     1
  0
XRECORD
  5
231C
102
{ACAD_REACTORS
330
231B
102
}
330
231B
100
AcDbXrecord
280
     1
270
     1
271
     1
  0
XRECORD
  5
2320
102
{ACAD_REACTORS
330
231B
102
}
330
231B
100
AcDbXrecord
280
     1
270
     1
271
     1
  0
XRECORD
  5
231F
102
{ACAD_REACTORS
330
231B
102
}
330
231B
100
AcDbXrecord
280
     1
270
     1
271
     1
  0
XRECORD
  5
2321
102
{ACAD_REACTORS
330
231B
102
}
330
231B
100
AcDbXrecord
280
     1
270
     1
271
     1
  0
XRECORD
  5
231E
102
{ACAD_REACTORS
330
231B
102
}
330
231B
100
AcDbXrecord
280
     1
270
     1
271
     1
  0
XRECORD
  5
238A
102
{ACAD_REACTORS
330
232B
102
}
330
232B
100
AcDbXrecord
280
     1
102
MATERIAL
148
0.0
149
0.0
149
0.0
 93
        0
 94
      127
282
     0
 72
     0
 77
     0
171
     0
175
     0
179
     0
273
     0
  0
XRECORD
  5
232D
102
{ACAD_REACTORS
330
232B
102
}
330
232B
100
AcDbXrecord
280
     1
270
     1
271
     1
  0
XRECORD
  5
232C
102
{ACAD_REACTORS
330
232B
102
}
330
232B
100
AcDbXrecord
280
     1
270
     1
271
     1
  0
XRECORD
  5
2330
102
{ACAD_REACTORS
330
232B
102
}
330
232B
100
AcDbXrecord
280
     1
270
     1
271
     1
  0
XRECORD
  5
232F
102
{ACAD_REACTORS
330
232B
102
}
330
232B
100
AcDbXrecord
280
     1
270
     1
271
     1
  0
XRECORD
  5
2331
102
{ACAD_REACTORS
330
232B
102
}
330
232B
100
AcDbXrecord
280
     1
270
     1
271
     1
  0
XRECORD
  5
232E
102
{ACAD_REACTORS
330
232B
102
}
330
232B
100
AcDbXrecord
280
     1
270
     1
271
     1
  0
XRECORD
  5
23BE
102
{ACAD_REACTORS
330
23BD
102
}
330
23BD
100
AcDbXrecord
280
     1
102
DISPLAYNAME
  1
Imperial24
102
FLAGS
 90
        0
  0
CELLSTYLEMAP
  5
2385
102
{ACAD_REACTORS
330
2384
102
}
330
2384
100
AcDbCellStyleMap
 90
        3
300
CELLSTYLE
  1
TABLEFORMAT_BEGIN
 90
        5
170
     1
 91
        0
 92
    32768
 62
   257
 93
        1
300
CONTENTFORMAT
  1
CONTENTFORMAT_BEGIN
 90
        0
 91
        0
 92
      512
 93
        0
300

 40
0.0
140
1.0
 94
        5
 62
     0
340
F
144
0.25
309
CONTENTFORMAT_END
171
     0
 94
        0
309
TABLEFORMAT_END
  1
CELLSTYLE_BEGIN
 90
        1
 91
        1
300
_TITLE
309
CELLSTYLE_END
300
CELLSTYLE
  1
TABLEFORMAT_BEGIN
 90
        5
170
     1
 91
        0
 92
        0
 62
   257
 93
        1
300
CONTENTFORMAT
  1
CONTENTFORMAT_BEGIN
 90
        0
 91
        0
 92
      512
 93
        0
300

 40
0.0
140
1.0
 94
        5
 62
     0
340
F
144
0.18
309
CONTENTFORMAT_END
171
     0
 94
        0
309
TABLEFORMAT_END
  1
CELLSTYLE_BEGIN
 90
        2
 91
        1
300
_HEADER
309
CELLSTYLE_END
300
CELLSTYLE
  1
TABLEFORMAT_BEGIN
 90
        5
170
     1
 91
        0
 92
        0
 62
   257
 93
        1
300
CONTENTFORMAT
  1
CONTENTFORMAT_BEGIN
 90
        0
 91
        0
 92
      512
 93
        0
300

 40
0.0
140
1.0
 94
        2
 62
     0
340
F
144
0.18
309
CONTENTFORMAT_END
171
     0
 94
        0
309
TABLEFORMAT_END
  1
CELLSTYLE_BEGIN
 90
        3
 91
        2
300
_DATA
309
CELLSTYLE_END
  0
XRECORD
  5
23BB
102
{ACAD_REACTORS
330
2384
102
}
330
2384
100
AcDbXrecord
280
     1
102
ACAD_ROUNDTRIP_PRE2007_TABLESTYLE
 90
      512
 91
        0
  1

 92
      512
 93
        0
  2

 94
      512
 95
        0
  3

  0
XRECORD
  5
2396
102
{ACAD_REACTORS
330
2395
102
}
330
2395
100
AcDbXrecord
280
     1
102
RTVSPost2010Prop28
280
     1
102
RTVSPost2010PropOp28
 70
     1
102
RTVSPost2010Prop29
280
     1
102
RTVSPost2010PropOp29
 70
     1
102
RTVSPost2010Prop30
280
     0
102
RTVSPost2010PropOp30
 70
     1
102
RTVSPost2010Prop31
280
     0
102
RTVSPost2010PropOp31
 70
     1
102
RTVSPost2010Prop32
280
     0
102
RTVSPost2010PropOp32
 70
     1
102
RTVSPost2010Prop33
280
     0
102
RTVSPost2010PropOp33
 70
     1
102
RTVSPost2010Prop34
280
     0
102
RTVSPost2010PropOp34
 70
     1
102
RTVSPost2010Prop35
280
     0
102
RTVSPost2010PropOp35
 70
     1
102
RTVSPost2010Prop36
280
     0
102
RTVSPost2010PropOp36
 70
     1
102
RTVSPost2010Prop37
 90
       50
102
RTVSPost2010PropOp37
 70
     1
102
RTVSPost2010Prop38
140
0.0
102
RTVSPost2010PropOp38
 70
     1
102
RTVSPost2010Prop39
140
1.0
102
RTVSPost2010PropOp39
 70
     1
102
RTVSPost2010Prop40
 90
        0
102
RTVSPost2010PropOp40
 70
     1
102
RTVSPost2010Prop41ColorIndex
 90
       18
102
RTVSPost2010Prop41ColorRGB
 90
        0
102
RTVSPost2010PropOp41
 70
     1
102
RTVSPost2010Prop42
 90
       50
102
RTVSPost2010PropOp42
 70
     1
102
RTVSPost2010Prop43
 90
        3
102
RTVSPost2010PropOp43
 70
     1
102
RTVSPost2010Prop44ColorIndex
 90
        5
102
RTVSPost2010Prop44ColorRGB
 90
      255
102
RTVSPost2010PropOp44
 70
     1
102
RTVSPost2010Prop45
280
     0
102
RTVSPost2010PropOp45
 70
     1
102
RTVSPost2010Prop46
 90
       50
102
RTVSPost2010PropOp46
 70
     1
102
RTVSPost2010Prop47
 90
       50
102
RTVSPost2010PropOp47
 70
     1
102
RTVSPost2010Prop48
 90
       50
102
RTVSPost2010PropOp48
 70
     1
102
RTVSPost2010Prop49
280
     0
102
RTVSPost2010PropOp49
 70
     1
102
RTVSPost2010Prop50
 90
       50
102
RTVSPost2010PropOp50
 70
     1
102
RTVSPost2010Prop51ColorIndex
 90
      256
102
RTVSPost2010Prop51ColorRGB
 90
-16777216
102
RTVSPost2010PropOp51
 70
     0
102
RTVSPost2010Prop52
140
1.0
102
RTVSPost2010PropOp52
 70
     0
102
RTVSPost2010Prop53
 90
        2
102
RTVSPost2010PropOp53
 70
     1
102
RTVSPost2010Prop54
  1
strokes_ogs.tif
102
RTVSPost2010PropOp54
 70
     1
102
RTVSPost2010Prop55
280
     0
102
RTVSPost2010PropOp55
 70
     1
102
RTVSPost2010Prop56
140
1.0
102
RTVSPost2010PropOp56
 70
     1
102
RTVSPost2010Prop57
140
1.0
102
RTVSPost2010PropOp57
 70
     1
102
RTVSPropertyOp0
 70
     1
102
RTVSPropertyOp1
 70
     1
102
RTVSPropertyOp2
 70
     1
102
RTVSPropertyOp3
 70
     1
102
RTVSPropertyOp4
 70
     1
102
RTVSPropertyOp5
 70
     1
102
RTVSPropertyOp6
 70
     1
102
RTVSPropertyOp7
 70
     1
102
RTVSPropertyOp8
 70
     1
102
RTVSPropertyOp9
 70
     1
102
RTVSPropertyOp10
 70
     1
102
RTVSPropertyOp11
 70
     1
102
RTVSPropertyOp12
 70
     1
102
RTVSPropertyOp13
 70
     1
102
RTVSPropertyOp14
 70
     1
102
RTVSPropertyOp15
 70
     1
102
RTVSPropertyOp16
 70
     1
102
RTVSPropertyOp17
 70
     1
102
RTVSPropertyOp18
 70
     1
102
RTVSPropertyOp19
 70
     1
102
RTVSPropertyOp20
 70
     1
102
RTVSPropertyOp21
 70
     1
102
RTVSPropertyOp22
 70
     1
102
RTVSPropertyOp23
 70
     1
102
RTVSPropertyOp24
 70
     1
102
RTVSPropertyOp25
 70
     1
102
RTVSPropertyOp26
 70
     1
102
RTVSPropertyOp27
 70
     1
102
RTVSPropertyOp28
 70
     1
102
RTVSPropertyOp29
 70
     1
102
RTVSPropertyOp30
 70
     1
102
RTVSPropertyOp31
 70
     1
102
RTVSPropertyOp32
 70
     1
102
RTVSPropertyOp33
 70
     1
102
RTVSPropertyOp34
 70
     1
102
RTVSPropertyOp35
 70
     1
102
RTVSPropertyOp36
 70
     1
102
RTVSPropertyOp37
 70
     1
102
RTVSPropertyOp38
 70
     1
102
RTVSPropertyOp39
 70
     1
102
RTVSPropertyOp40
 70
     1
102
RTVSPropertyOp41
 70
     1
102
RTVSPropertyOp42
 70
     1
102
RTVSPropertyOp43
 70
     1
102
RTVSPropertyOp44
 70
     1
102
RTVSPropertyOp45
 70
     1
102
RTVSPropertyOp46
 70
     1
102
RTVSPropertyOp47
 70
     1
102
RTVSPropertyOp48
 70
     1
102
RTVSPropertyOp49
 70
     1
102
RTVSPropertyOp50
 70
     1
102
RTVSPropertyOp51
 70
     0
102
RTVSPropertyOp52
 70
     0
102
RTVSPropertyOp53
 70
     1
102
RTVSPropertyOp54
 70
     1
102
RTVSPropertyOp55
 70
     1
102
RTVSPropertyOp56
 70
     1
102
RTVSPropertyOp57
 70
     1
102
RTVSPropertyOp58
 70
     1
102
RTVSPropertyOp59
 70
     1
102
RTVSPropertyOp60
 70
     1
102
RTVSPropertyOp61
 70
     1
102
RTVSPropertyOp62
 70
     1
  0
XRECORD
  5
2394
102
{ACAD_REACTORS
330
2393
102
}
330
2393
100
AcDbXrecord
280
     1
102
RTVSPost2010Prop28
280
     0
102
RTVSPost2010PropOp28
 70
     1
102
RTVSPost2010Prop29
280
     1
102
RTVSPost2010PropOp29
 70
     1
102
RTVSPost2010Prop30
280
     1
102
RTVSPost2010PropOp30
 70
     1
102
RTVSPost2010Prop31
280
     0
102
RTVSPost2010PropOp31
 70
     1
102
RTVSPost2010Prop32
280
     0
102
RTVSPost2010PropOp32
 70
     1
102
RTVSPost2010Prop33
280
     0
102
RTVSPost2010PropOp33
 70
     1
102
RTVSPost2010Prop34
280
     0
102
RTVSPost2010PropOp34
 70
     1
102
RTVSPost2010Prop35
280
     0
102
RTVSPost2010PropOp35
 70
     1
102
RTVSPost2010Prop36
280
     0
102
RTVSPost2010PropOp36
 70
     1
102
RTVSPost2010Prop37
 90
       50
102
RTVSPost2010PropOp37
 70
     1
102
RTVSPost2010Prop38
140
0.0
102
RTVSPost2010PropOp38
 70
     1
102
RTVSPost2010Prop39
140
1.0
102
RTVSPost2010PropOp39
 70
     1
102
RTVSPost2010Prop40
 90
        0
102
RTVSPost2010PropOp40
 70
     1
102
RTVSPost2010Prop41ColorIndex
 90
       18
102
RTVSPost2010Prop41ColorRGB
 90
        0
102
RTVSPost2010PropOp41
 70
     1
102
RTVSPost2010Prop42
 90
       50
102
RTVSPost2010PropOp42
 70
     1
102
RTVSPost2010Prop43
 90
        3
102
RTVSPost2010PropOp43
 70
     1
102
RTVSPost2010Prop44ColorIndex
 90
        5
102
RTVSPost2010Prop44ColorRGB
 90
      255
102
RTVSPost2010PropOp44
 70
     1
102
RTVSPost2010Prop45
280
     0
102
RTVSPost2010PropOp45
 70
     1
102
RTVSPost2010Prop46
 90
       50
102
RTVSPost2010PropOp46
 70
     1
102
RTVSPost2010Prop47
 90
       50
102
RTVSPost2010PropOp47
 70
     1
102
RTVSPost2010Prop48
 90
       50
102
RTVSPost2010PropOp48
 70
     1
102
RTVSPost2010Prop49
280
     0
102
RTVSPost2010PropOp49
 70
     1
102
RTVSPost2010Prop50
 90
       50
102
RTVSPost2010PropOp50
 70
     1
102
RTVSPost2010Prop51ColorIndex
 90
      256
102
RTVSPost2010Prop51ColorRGB
 90
-16777216
102
RTVSPost2010PropOp51
 70
     0
102
RTVSPost2010Prop52
140
1.0
102
RTVSPost2010PropOp52
 70
     0
102
RTVSPost2010Prop53
 90
        2
102
RTVSPost2010PropOp53
 70
     1
102
RTVSPost2010Prop54
  1
strokes_ogs.tif
102
RTVSPost2010PropOp54
 70
     1
102
RTVSPost2010Prop55
280
     0
102
RTVSPost2010PropOp55
 70
     1
102
RTVSPost2010Prop56
140
1.0
102
RTVSPost2010PropOp56
 70
     1
102
RTVSPost2010Prop57
140
1.0
102
RTVSPost2010PropOp57
 70
     1
102
RTVSPropertyOp0
 70
     1
102
RTVSPropertyOp1
 70
     1
102
RTVSPropertyOp2
 70
     1
102
RTVSPropertyOp3
 70
     1
102
RTVSPropertyOp4
 70
     1
102
RTVSPropertyOp5
 70
     1
102
RTVSPropertyOp6
 70
     1
102
RTVSPropertyOp7
 70
     1
102
RTVSPropertyOp8
 70
     1
102
RTVSPropertyOp9
 70
     1
102
RTVSPropertyOp10
 70
     1
102
RTVSPropertyOp11
 70
     1
102
RTVSPropertyOp12
 70
     1
102
RTVSPropertyOp13
 70
     1
102
RTVSPropertyOp14
 70
     1
102
RTVSPropertyOp15
 70
     1
102
RTVSPropertyOp16
 70
     1
102
RTVSPropertyOp17
 70
     1
102
RTVSPropertyOp18
 70
     1
102
RTVSPropertyOp19
 70
     1
102
RTVSPropertyOp20
 70
     1
102
RTVSPropertyOp21
 70
     1
102
RTVSPropertyOp22
 70
     1
102
RTVSPropertyOp23
 70
     1
102
RTVSPropertyOp24
 70
     1
102
RTVSPropertyOp25
 70
     1
102
RTVSPropertyOp26
 70
     1
102
RTVSPropertyOp27
 70
     1
102
RTVSPropertyOp28
 70
     1
102
RTVSPropertyOp29
 70
     1
102
RTVSPropertyOp30
 70
     1
102
RTVSPropertyOp31
 70
     1
102
RTVSPropertyOp32
 70
     1
102
RTVSPropertyOp33
 70
     1
102
RTVSPropertyOp34
 70
     1
102
RTVSPropertyOp35
 70
     1
102
RTVSPropertyOp36
 70
     1
102
RTVSPropertyOp37
 70
     1
102
RTVSPropertyOp38
 70
     1
102
RTVSPropertyOp39
 70
     1
102
RTVSPropertyOp40
 70
     1
102
RTVSPropertyOp41
 70
     1
102
RTVSPropertyOp42
 70
     1
102
RTVSPropertyOp43
 70
     1
102
RTVSPropertyOp44
 70
     1
102
RTVSPropertyOp45
 70
     1
102
RTVSPropertyOp46
 70
     1
102
RTVSPropertyOp47
 70
     1
102
RTVSPropertyOp48
 70
     1
102
RTVSPropertyOp49
 70
     1
102
RTVSPropertyOp50
 70
     1
102
RTVSPropertyOp51
 70
     0
102
RTVSPropertyOp52
 70
     0
102
RTVSPropertyOp53
 70
     1
102
RTVSPropertyOp54
 70
     1
102
RTVSPropertyOp55
 70
     1
102
RTVSPropertyOp56
 70
     1
102
RTVSPropertyOp57
 70
     1
102
RTVSPropertyOp58
 70
     1
102
RTVSPropertyOp59
 70
     1
102
RTVSPropertyOp60
 70
     1
102
RTVSPropertyOp61
 70
     1
102
RTVSPropertyOp62
 70
     1
  0
XRECORD
  5
23A2
102
{ACAD_REACTORS
330
23A1
102
}
330
23A1
100
AcDbXrecord
280
     1
102
RTVSPost2010Prop28
280
     0
102
RTVSPost2010PropOp28
 70
     1
102
RTVSPost2010Prop29
280
     1
102
RTVSPost2010PropOp29
 70
     1
102
RTVSPost2010Prop30
280
     1
102
RTVSPost2010PropOp30
 70
     1
102
RTVSPost2010Prop31
280
     0
102
RTVSPost2010PropOp31
 70
     1
102
RTVSPost2010Prop32
280
     0
102
RTVSPost2010PropOp32
 70
     1
102
RTVSPost2010Prop33
280
     0
102
RTVSPost2010PropOp33
 70
     1
102
RTVSPost2010Prop34
280
     0
102
RTVSPost2010PropOp34
 70
     1
102
RTVSPost2010Prop35
280
     0
102
RTVSPost2010PropOp35
 70
     1
102
RTVSPost2010Prop36
280
     0
102
RTVSPost2010PropOp36
 70
     1
102
RTVSPost2010Prop37
 90
       50
102
RTVSPost2010PropOp37
 70
     1
102
RTVSPost2010Prop38
140
0.0
102
RTVSPost2010PropOp38
 70
     1
102
RTVSPost2010Prop39
140
1.0
102
RTVSPost2010PropOp39
 70
     1
102
RTVSPost2010Prop40
 90
        0
102
RTVSPost2010PropOp40
 70
     1
102
RTVSPost2010Prop41ColorIndex
 90
       18
102
RTVSPost2010Prop41ColorRGB
 90
        0
102
RTVSPost2010PropOp41
 70
     1
102
RTVSPost2010Prop42
 90
       50
102
RTVSPost2010PropOp42
 70
     1
102
RTVSPost2010Prop43
 90
        3
102
RTVSPost2010PropOp43
 70
     1
102
RTVSPost2010Prop44ColorIndex
 90
        5
102
RTVSPost2010Prop44ColorRGB
 90
      255
102
RTVSPost2010PropOp44
 70
     1
102
RTVSPost2010Prop45
280
     0
102
RTVSPost2010PropOp45
 70
     1
102
RTVSPost2010Prop46
 90
       50
102
RTVSPost2010PropOp46
 70
     1
102
RTVSPost2010Prop47
 90
       50
102
RTVSPost2010PropOp47
 70
     1
102
RTVSPost2010Prop48
 90
       50
102
RTVSPost2010PropOp48
 70
     1
102
RTVSPost2010Prop49
280
     0
102
RTVSPost2010PropOp49
 70
     1
102
RTVSPost2010Prop50
 90
       50
102
RTVSPost2010PropOp50
 70
     1
102
RTVSPost2010Prop51ColorIndex
 90
      256
102
RTVSPost2010Prop51ColorRGB
 90
-16777216
102
RTVSPost2010PropOp51
 70
     0
102
RTVSPost2010Prop52
140
1.0
102
RTVSPost2010PropOp52
 70
     0
102
RTVSPost2010Prop53
 90
        2
102
RTVSPost2010PropOp53
 70
     1
102
RTVSPost2010Prop54
  1
strokes_ogs.tif
102
RTVSPost2010PropOp54
 70
     1
102
RTVSPost2010Prop55
280
     0
102
RTVSPost2010PropOp55
 70
     1
102
RTVSPost2010Prop56
140
1.0
102
RTVSPost2010PropOp56
 70
     1
102
RTVSPost2010Prop57
140
1.0
102
RTVSPost2010PropOp57
 70
     1
102
RTVSPropertyOp0
 70
     1
102
RTVSPropertyOp1
 70
     1
102
RTVSPropertyOp2
 70
     1
102
RTVSPropertyOp3
 70
     1
102
RTVSPropertyOp4
 70
     1
102
RTVSPropertyOp5
 70
     1
102
RTVSPropertyOp6
 70
     1
102
RTVSPropertyOp7
 70
     1
102
RTVSPropertyOp8
 70
     1
102
RTVSPropertyOp9
 70
     1
102
RTVSPropertyOp10
 70
     1
102
RTVSPropertyOp11
 70
     1
102
RTVSPropertyOp12
 70
     1
102
RTVSPropertyOp13
 70
     1
102
RTVSPropertyOp14
 70
     1
102
RTVSPropertyOp15
 70
     1
102
RTVSPropertyOp16
 70
     1
102
RTVSPropertyOp17
 70
     1
102
RTVSPropertyOp18
 70
     1
102
RTVSPropertyOp19
 70
     1
102
RTVSPropertyOp20
 70
     1
102
RTVSPropertyOp21
 70
     1
102
RTVSPropertyOp22
 70
     1
102
RTVSPropertyOp23
 70
     1
102
RTVSPropertyOp24
 70
     1
102
RTVSPropertyOp25
 70
     1
102
RTVSPropertyOp26
 70
     1
102
RTVSPropertyOp27
 70
     1
102
RTVSPropertyOp28
 70
     1
102
RTVSPropertyOp29
 70
     1
102
RTVSPropertyOp30
 70
     1
102
RTVSPropertyOp31
 70
     1
102
RTVSPropertyOp32
 70
     1
102
RTVSPropertyOp33
 70
     1
102
RTVSPropertyOp34
 70
     1
102
RTVSPropertyOp35
 70
     1
102
RTVSPropertyOp36
 70
     1
102
RTVSPropertyOp37
 70
     1
102
RTVSPropertyOp38
 70
     1
102
RTVSPropertyOp39
 70
     1
102
RTVSPropertyOp40
 70
     1
102
RTVSPropertyOp41
 70
     1
102
RTVSPropertyOp42
 70
     1
102
RTVSPropertyOp43
 70
     1
102
RTVSPropertyOp44
 70
     1
102
RTVSPropertyOp45
 70
     1
102
RTVSPropertyOp46
 70
     1
102
RTVSPropertyOp47
 70
     1
102
RTVSPropertyOp48
 70
     1
102
RTVSPropertyOp49
 70
     1
102
RTVSPropertyOp50
 70
     1
102
RTVSPropertyOp51
 70
     0
102
RTVSPropertyOp52
 70
     0
102
RTVSPropertyOp53
 70
     1
102
RTVSPropertyOp54
 70
     1
102
RTVSPropertyOp55
 70
     1
102
RTVSPropertyOp56
 70
     1
102
RTVSPropertyOp57
 70
     1
102
RTVSPropertyOp58
 70
     1
102
RTVSPropertyOp59
 70
     1
102
RTVSPropertyOp60
 70
     1
102
RTVSPropertyOp61
 70
     1
102
RTVSPropertyOp62
 70
     1
  0
XRECORD
  5
23AA
102
{ACAD_REACTORS
330
23A9
102
}
330
23A9
100
AcDbXrecord
280
     1
102
RTVSPost2010Prop28
280
     0
102
RTVSPost2010PropOp28
 70
     1
102
RTVSPost2010Prop29
280
     1
102
RTVSPost2010PropOp29
 70
     1
102
RTVSPost2010Prop30
280
     1
102
RTVSPost2010PropOp30
 70
     1
102
RTVSPost2010Prop31
280
     0
102
RTVSPost2010PropOp31
 70
     1
102
RTVSPost2010Prop32
280
     0
102
RTVSPost2010PropOp32
 70
     1
102
RTVSPost2010Prop33
280
     0
102
RTVSPost2010PropOp33
 70
     1
102
RTVSPost2010Prop34
280
     0
102
RTVSPost2010PropOp34
 70
     1
102
RTVSPost2010Prop35
280
     0
102
RTVSPost2010PropOp35
 70
     1
102
RTVSPost2010Prop36
280
     0
102
RTVSPost2010PropOp36
 70
     1
102
RTVSPost2010Prop37
 90
       50
102
RTVSPost2010PropOp37
 70
     1
102
RTVSPost2010Prop38
140
0.0
102
RTVSPost2010PropOp38
 70
     1
102
RTVSPost2010Prop39
140
1.0
102
RTVSPost2010PropOp39
 70
     1
102
RTVSPost2010Prop40
 90
        0
102
RTVSPost2010PropOp40
 70
     1
102
RTVSPost2010Prop41ColorIndex
 90
       18
102
RTVSPost2010Prop41ColorRGB
 90
        0
102
RTVSPost2010PropOp41
 70
     1
102
RTVSPost2010Prop42
 90
       50
102
RTVSPost2010PropOp42
 70
     1
102
RTVSPost2010Prop43
 90
        3
102
RTVSPost2010PropOp43
 70
     1
102
RTVSPost2010Prop44ColorIndex
 90
        5
102
RTVSPost2010Prop44ColorRGB
 90
      255
102
RTVSPost2010PropOp44
 70
     1
102
RTVSPost2010Prop45
280
     0
102
RTVSPost2010PropOp45
 70
     1
102
RTVSPost2010Prop46
 90
       50
102
RTVSPost2010PropOp46
 70
     1
102
RTVSPost2010Prop47
 90
       50
102
RTVSPost2010PropOp47
 70
     1
102
RTVSPost2010Prop48
 90
       50
102
RTVSPost2010PropOp48
 70
     1
102
RTVSPost2010Prop49
280
     0
102
RTVSPost2010PropOp49
 70
     1
102
RTVSPost2010Prop50
 90
       50
102
RTVSPost2010PropOp50
 70
     1
102
RTVSPost2010Prop51ColorIndex
 90
      256
102
RTVSPost2010Prop51ColorRGB
 90
-16777216
102
RTVSPost2010PropOp51
 70
     0
102
RTVSPost2010Prop52
140
1.0
102
RTVSPost2010PropOp52
 70
     0
102
RTVSPost2010Prop53
 90
        2
102
RTVSPost2010PropOp53
 70
     1
102
RTVSPost2010Prop54
  1
strokes_ogs.tif
102
RTVSPost2010PropOp54
 70
     1
102
RTVSPost2010Prop55
280
     0
102
RTVSPost2010PropOp55
 70
     1
102
RTVSPost2010Prop56
140
1.0
102
RTVSPost2010PropOp56
 70
     1
102
RTVSPost2010Prop57
140
1.0
102
RTVSPost2010PropOp57
 70
     1
102
RTVSPropertyOp0
 70
     1
102
RTVSPropertyOp1
 70
     1
102
RTVSPropertyOp2
 70
     1
102
RTVSPropertyOp3
 70
     1
102
RTVSPropertyOp4
 70
     1
102
RTVSPropertyOp5
 70
     1
102
RTVSPropertyOp6
 70
     1
102
RTVSPropertyOp7
 70
     1
102
RTVSPropertyOp8
 70
     1
102
RTVSPropertyOp9
 70
     1
102
RTVSPropertyOp10
 70
     1
102
RTVSPropertyOp11
 70
     1
102
RTVSPropertyOp12
 70
     1
102
RTVSPropertyOp13
 70
     1
102
RTVSPropertyOp14
 70
     1
102
RTVSPropertyOp15
 70
     1
102
RTVSPropertyOp16
 70
     1
102
RTVSPropertyOp17
 70
     1
102
RTVSPropertyOp18
 70
     1
102
RTVSPropertyOp19
 70
     1
102
RTVSPropertyOp20
 70
     1
102
RTVSPropertyOp21
 70
     1
102
RTVSPropertyOp22
 70
     1
102
RTVSPropertyOp23
 70
     1
102
RTVSPropertyOp24
 70
     1
102
RTVSPropertyOp25
 70
     1
102
RTVSPropertyOp26
 70
     1
102
RTVSPropertyOp27
 70
     1
102
RTVSPropertyOp28
 70
     1
102
RTVSPropertyOp29
 70
     1
102
RTVSPropertyOp30
 70
     1
102
RTVSPropertyOp31
 70
     1
102
RTVSPropertyOp32
 70
     1
102
RTVSPropertyOp33
 70
     1
102
RTVSPropertyOp34
 70
     1
102
RTVSPropertyOp35
 70
     1
102
RTVSPropertyOp36
 70
     1
102
RTVSPropertyOp37
 70
     1
102
RTVSPropertyOp38
 70
     1
102
RTVSPropertyOp39
 70
     1
102
RTVSPropertyOp40
 70
     1
102
RTVSPropertyOp41
 70
     1
102
RTVSPropertyOp42
 70
     1
102
RTVSPropertyOp43
 70
     1
102
RTVSPropertyOp44
 70
     1
102
RTVSPropertyOp45
 70
     1
102
RTVSPropertyOp46
 70
     1
102
RTVSPropertyOp47
 70
     1
102
RTVSPropertyOp48
 70
     1
102
RTVSPropertyOp49
 70
     1
102
RTVSPropertyOp50
 70
     1
102
RTVSPropertyOp51
 70
     0
102
RTVSPropertyOp52
 70
     0
102
RTVSPropertyOp53
 70
     1
102
RTVSPropertyOp54
 70
     1
102
RTVSPropertyOp55
 70
     1
102
RTVSPropertyOp56
 70
     1
102
RTVSPropertyOp57
 70
     1
102
RTVSPropertyOp58
 70
     1
102
RTVSPropertyOp59
 70
     1
102
RTVSPropertyOp60
 70
     1
102
RTVSPropertyOp61
 70
     1
102
RTVSPropertyOp62
 70
     1
  0
XRECORD
  5
239C
102
{ACAD_REACTORS
330
239B
102
}
330
239B
100
AcDbXrecord
280
     1
102
RTVSPost2010Prop28
280
     0
102
RTVSPost2010PropOp28
 70
     1
102
RTVSPost2010Prop29
280
     1
102
RTVSPost2010PropOp29
 70
     1
102
RTVSPost2010Prop30
280
     1
102
RTVSPost2010PropOp30
 70
     1
102
RTVSPost2010Prop31
280
     0
102
RTVSPost2010PropOp31
 70
     1
102
RTVSPost2010Prop32
280
     0
102
RTVSPost2010PropOp32
 70
     1
102
RTVSPost2010Prop33
280
     0
102
RTVSPost2010PropOp33
 70
     1
102
RTVSPost2010Prop34
280
     0
102
RTVSPost2010PropOp34
 70
     1
102
RTVSPost2010Prop35
280
     0
102
RTVSPost2010PropOp35
 70
     1
102
RTVSPost2010Prop36
280
     0
102
RTVSPost2010PropOp36
 70
     1
102
RTVSPost2010Prop37
 90
       50
102
RTVSPost2010PropOp37
 70
     1
102
RTVSPost2010Prop38
140
0.0
102
RTVSPost2010PropOp38
 70
     1
102
RTVSPost2010Prop39
140
1.0
102
RTVSPost2010PropOp39
 70
     1
102
RTVSPost2010Prop40
 90
        0
102
RTVSPost2010PropOp40
 70
     1
102
RTVSPost2010Prop41ColorIndex
 90
       18
102
RTVSPost2010Prop41ColorRGB
 90
        0
102
RTVSPost2010PropOp41
 70
     1
102
RTVSPost2010Prop42
 90
       50
102
RTVSPost2010PropOp42
 70
     1
102
RTVSPost2010Prop43
 90
        3
102
RTVSPost2010PropOp43
 70
     1
102
RTVSPost2010Prop44ColorIndex
 90
        5
102
RTVSPost2010Prop44ColorRGB
 90
      255
102
RTVSPost2010PropOp44
 70
     1
102
RTVSPost2010Prop45
280
     0
102
RTVSPost2010PropOp45
 70
     1
102
RTVSPost2010Prop46
 90
       50
102
RTVSPost2010PropOp46
 70
     1
102
RTVSPost2010Prop47
 90
       50
102
RTVSPost2010PropOp47
 70
     1
102
RTVSPost2010Prop48
 90
       50
102
RTVSPost2010PropOp48
 70
     1
102
RTVSPost2010Prop49
280
     0
102
RTVSPost2010PropOp49
 70
     1
102
RTVSPost2010Prop50
 90
       50
102
RTVSPost2010PropOp50
 70
     1
102
RTVSPost2010Prop51ColorIndex
 90
      256
102
RTVSPost2010Prop51ColorRGB
 90
-16777216
102
RTVSPost2010PropOp51
 70
     0
102
RTVSPost2010Prop52
140
1.0
102
RTVSPost2010PropOp52
 70
     0
102
RTVSPost2010Prop53
 90
        2
102
RTVSPost2010PropOp53
 70
     1
102
RTVSPost2010Prop54
  1
strokes_ogs.tif
102
RTVSPost2010PropOp54
 70
     1
102
RTVSPost2010Prop55
280
     0
102
RTVSPost2010PropOp55
 70
     1
102
RTVSPost2010Prop56
140
1.0
102
RTVSPost2010PropOp56
 70
     1
102
RTVSPost2010Prop57
140
1.0
102
RTVSPost2010PropOp57
 70
     1
102
RTVSPropertyOp0
 70
     1
102
RTVSPropertyOp1
 70
     1
102
RTVSPropertyOp2
 70
     1
102
RTVSPropertyOp3
 70
     1
102
RTVSPropertyOp4
 70
     1
102
RTVSPropertyOp5
 70
     1
102
RTVSPropertyOp6
 70
     1
102
RTVSPropertyOp7
 70
     1
102
RTVSPropertyOp8
 70
     1
102
RTVSPropertyOp9
 70
     1
102
RTVSPropertyOp10
 70
     1
102
RTVSPropertyOp11
 70
     1
102
RTVSPropertyOp12
 70
     1
102
RTVSPropertyOp13
 70
     1
102
RTVSPropertyOp14
 70
     1
102
RTVSPropertyOp15
 70
     1
102
RTVSPropertyOp16
 70
     1
102
RTVSPropertyOp17
 70
     1
102
RTVSPropertyOp18
 70
     1
102
RTVSPropertyOp19
 70
     1
102
RTVSPropertyOp20
 70
     1
102
RTVSPropertyOp21
 70
     1
102
RTVSPropertyOp22
 70
     1
102
RTVSPropertyOp23
 70
     1
102
RTVSPropertyOp24
 70
     1
102
RTVSPropertyOp25
 70
     1
102
RTVSPropertyOp26
 70
     1
102
RTVSPropertyOp27
 70
     1
102
RTVSPropertyOp28
 70
     1
102
RTVSPropertyOp29
 70
     1
102
RTVSPropertyOp30
 70
     1
102
RTVSPropertyOp31
 70
     1
102
RTVSPropertyOp32
 70
     1
102
RTVSPropertyOp33
 70
     1
102
RTVSPropertyOp34
 70
     1
102
RTVSPropertyOp35
 70
     1
102
RTVSPropertyOp36
 70
     1
102
RTVSPropertyOp37
 70
     1
102
RTVSPropertyOp38
 70
     1
102
RTVSPropertyOp39
 70
     1
102
RTVSPropertyOp40
 70
     1
102
RTVSPropertyOp41
 70
     1
102
RTVSPropertyOp42
 70
     1
102
RTVSPropertyOp43
 70
     1
102
RTVSPropertyOp44
 70
     1
102
RTVSPropertyOp45
 70
     1
102
RTVSPropertyOp46
 70
     1
102
RTVSPropertyOp47
 70
     1
102
RTVSPropertyOp48
 70
     1
102
RTVSPropertyOp49
 70
     1
102
RTVSPropertyOp50
 70
     1
102
RTVSPropertyOp51
 70
     0
102
RTVSPropertyOp52
 70
     0
102
RTVSPropertyOp53
 70
     1
102
RTVSPropertyOp54
 70
     1
102
RTVSPropertyOp55
 70
     1
102
RTVSPropertyOp56
 70
     1
102
RTVSPropertyOp57
 70
     1
102
RTVSPropertyOp58
 70
     1
102
RTVSPropertyOp59
 70
     1
102
RTVSPropertyOp60
 70
     1
102
RTVSPropertyOp61
 70
     1
102
RTVSPropertyOp62
 70
     1
  0
XRECORD
  5
23A0
102
{ACAD_REACTORS
330
239F
102
}
330
239F
100
AcDbXrecord
280
     1
102
RTVSPost2010Prop28
280
     0
102
RTVSPost2010PropOp28
 70
     1
102
RTVSPost2010Prop29
280
     1
102
RTVSPost2010PropOp29
 70
     1
102
RTVSPost2010Prop30
280
     1
102
RTVSPost2010PropOp30
 70
     1
102
RTVSPost2010Prop31
280
     0
102
RTVSPost2010PropOp31
 70
     1
102
RTVSPost2010Prop32
280
     0
102
RTVSPost2010PropOp32
 70
     1
102
RTVSPost2010Prop33
280
     0
102
RTVSPost2010PropOp33
 70
     1
102
RTVSPost2010Prop34
280
     0
102
RTVSPost2010PropOp34
 70
     1
102
RTVSPost2010Prop35
280
     0
102
RTVSPost2010PropOp35
 70
     1
102
RTVSPost2010Prop36
280
     0
102
RTVSPost2010PropOp36
 70
     1
102
RTVSPost2010Prop37
 90
       50
102
RTVSPost2010PropOp37
 70
     1
102
RTVSPost2010Prop38
140
0.0
102
RTVSPost2010PropOp38
 70
     1
102
RTVSPost2010Prop39
140
1.0
102
RTVSPost2010PropOp39
 70
     1
102
RTVSPost2010Prop40
 90
        0
102
RTVSPost2010PropOp40
 70
     1
102
RTVSPost2010Prop41ColorIndex
 90
       18
102
RTVSPost2010Prop41ColorRGB
 90
        0
102
RTVSPost2010PropOp41
 70
     1
102
RTVSPost2010Prop42
 90
       50
102
RTVSPost2010PropOp42
 70
     1
102
RTVSPost2010Prop43
 90
        3
102
RTVSPost2010PropOp43
 70
     1
102
RTVSPost2010Prop44ColorIndex
 90
        5
102
RTVSPost2010Prop44ColorRGB
 90
      255
102
RTVSPost2010PropOp44
 70
     1
102
RTVSPost2010Prop45
280
     0
102
RTVSPost2010PropOp45
 70
     1
102
RTVSPost2010Prop46
 90
       50
102
RTVSPost2010PropOp46
 70
     1
102
RTVSPost2010Prop47
 90
       50
102
RTVSPost2010PropOp47
 70
     1
102
RTVSPost2010Prop48
 90
       50
102
RTVSPost2010PropOp48
 70
     1
102
RTVSPost2010Prop49
280
     0
102
RTVSPost2010PropOp49
 70
     1
102
RTVSPost2010Prop50
 90
       50
102
RTVSPost2010PropOp50
 70
     1
102
RTVSPost2010Prop51ColorIndex
 90
      256
102
RTVSPost2010Prop51ColorRGB
 90
-16777216
102
RTVSPost2010PropOp51
 70
     0
102
RTVSPost2010Prop52
140
1.0
102
RTVSPost2010PropOp52
 70
     0
102
RTVSPost2010Prop53
 90
        2
102
RTVSPost2010PropOp53
 70
     1
102
RTVSPost2010Prop54
  1
strokes_ogs.tif
102
RTVSPost2010PropOp54
 70
     1
102
RTVSPost2010Prop55
280
     0
102
RTVSPost2010PropOp55
 70
     1
102
RTVSPost2010Prop56
140
1.0
102
RTVSPost2010PropOp56
 70
     1
102
RTVSPost2010Prop57
140
1.0
102
RTVSPost2010PropOp57
 70
     1
102
RTVSPropertyOp0
 70
     1
102
RTVSPropertyOp1
 70
     1
102
RTVSPropertyOp2
 70
     1
102
RTVSPropertyOp3
 70
     1
102
RTVSPropertyOp4
 70
     1
102
RTVSPropertyOp5
 70
     1
102
RTVSPropertyOp6
 70
     1
102
RTVSPropertyOp7
 70
     1
102
RTVSPropertyOp8
 70
     1
102
RTVSPropertyOp9
 70
     1
102
RTVSPropertyOp10
 70
     1
102
RTVSPropertyOp11
 70
     1
102
RTVSPropertyOp12
 70
     1
102
RTVSPropertyOp13
 70
     1
102
RTVSPropertyOp14
 70
     1
102
RTVSPropertyOp15
 70
     1
102
RTVSPropertyOp16
 70
     1
102
RTVSPropertyOp17
 70
     1
102
RTVSPropertyOp18
 70
     1
102
RTVSPropertyOp19
 70
     1
102
RTVSPropertyOp20
 70
     1
102
RTVSPropertyOp21
 70
     1
102
RTVSPropertyOp22
 70
     1
102
RTVSPropertyOp23
 70
     1
102
RTVSPropertyOp24
 70
     1
102
RTVSPropertyOp25
 70
     1
102
RTVSPropertyOp26
 70
     1
102
RTVSPropertyOp27
 70
     1
102
RTVSPropertyOp28
 70
     1
102
RTVSPropertyOp29
 70
     1
102
RTVSPropertyOp30
 70
     1
102
RTVSPropertyOp31
 70
     1
102
RTVSPropertyOp32
 70
     1
102
RTVSPropertyOp33
 70
     1
102
RTVSPropertyOp34
 70
     1
102
RTVSPropertyOp35
 70
     1
102
RTVSPropertyOp36
 70
     1
102
RTVSPropertyOp37
 70
     1
102
RTVSPropertyOp38
 70
     1
102
RTVSPropertyOp39
 70
     1
102
RTVSPropertyOp40
 70
     1
102
RTVSPropertyOp41
 70
     1
102
RTVSPropertyOp42
 70
     1
102
RTVSPropertyOp43
 70
     1
102
RTVSPropertyOp44
 70
     1
102
RTVSPropertyOp45
 70
     1
102
RTVSPropertyOp46
 70
     1
102
RTVSPropertyOp47
 70
     1
102
RTVSPropertyOp48
 70
     1
102
RTVSPropertyOp49
 70
     1
102
RTVSPropertyOp50
 70
     1
102
RTVSPropertyOp51
 70
     0
102
RTVSPropertyOp52
 70
     0
102
RTVSPropertyOp53
 70
     1
102
RTVSPropertyOp54
 70
     1
102
RTVSPropertyOp55
 70
     1
102
RTVSPropertyOp56
 70
     1
102
RTVSPropertyOp57
 70
     1
102
RTVSPropertyOp58
 70
     1
102
RTVSPropertyOp59
 70
     1
102
RTVSPropertyOp60
 70
     1
102
RTVSPropertyOp61
 70
     1
102
RTVSPropertyOp62
 70
     1
  0
XRECORD
  5
23BA
102
{ACAD_REACTORS
330
23B9
102
}
330
23B9
100
AcDbXrecord
280
     1
102
RTVSPost2010Prop28
280
     0
102
RTVSPost2010PropOp28
 70
     1
102
RTVSPost2010Prop29
280
     1
102
RTVSPost2010PropOp29
 70
     1
102
RTVSPost2010Prop30
280
     1
102
RTVSPost2010PropOp30
 70
     1
102
RTVSPost2010Prop31
280
     0
102
RTVSPost2010PropOp31
 70
     1
102
RTVSPost2010Prop32
280
     0
102
RTVSPost2010PropOp32
 70
     1
102
RTVSPost2010Prop33
280
     0
102
RTVSPost2010PropOp33
 70
     1
102
RTVSPost2010Prop34
280
     0
102
RTVSPost2010PropOp34
 70
     1
102
RTVSPost2010Prop35
280
     0
102
RTVSPost2010PropOp35
 70
     1
102
RTVSPost2010Prop36
280
     0
102
RTVSPost2010PropOp36
 70
     1
102
RTVSPost2010Prop37
 90
       50
102
RTVSPost2010PropOp37
 70
     0
102
RTVSPost2010Prop38
140
0.0
102
RTVSPost2010PropOp38
 70
     0
102
RTVSPost2010Prop39
140
1.0
102
RTVSPost2010PropOp39
 70
     0
102
RTVSPost2010Prop40
 90
        0
102
RTVSPost2010PropOp40
 70
     0
102
RTVSPost2010Prop41ColorIndex
 90
       18
102
RTVSPost2010Prop41ColorRGB
 90
        0
102
RTVSPost2010PropOp41
 70
     0
102
RTVSPost2010Prop42
 90
       50
102
RTVSPost2010PropOp42
 70
     0
102
RTVSPost2010Prop43
 90
        3
102
RTVSPost2010PropOp43
 70
     0
102
RTVSPost2010Prop44ColorIndex
 90
        5
102
RTVSPost2010Prop44ColorRGB
 90
      255
102
RTVSPost2010PropOp44
 70
     0
102
RTVSPost2010Prop45
280
     0
102
RTVSPost2010PropOp45
 70
     1
102
RTVSPost2010Prop46
 90
       50
102
RTVSPost2010PropOp46
 70
     0
102
RTVSPost2010Prop47
 90
       50
102
RTVSPost2010PropOp47
 70
     0
102
RTVSPost2010Prop48
 90
       50
102
RTVSPost2010PropOp48
 70
     0
102
RTVSPost2010Prop49
280
     0
102
RTVSPost2010PropOp49
 70
     1
102
RTVSPost2010Prop50
 90
       50
102
RTVSPost2010PropOp50
 70
     0
102
RTVSPost2010Prop51ColorIndex
 90
      256
102
RTVSPost2010Prop51ColorRGB
 90
-16777216
102
RTVSPost2010PropOp51
 70
     0
102
RTVSPost2010Prop52
140
1.0
102
RTVSPost2010PropOp52
 70
     0
102
RTVSPost2010Prop53
 90
        2
102
RTVSPost2010PropOp53
 70
     0
102
RTVSPost2010Prop54
  1
strokes_ogs.tif
102
RTVSPost2010PropOp54
 70
     0
102
RTVSPost2010Prop55
280
     0
102
RTVSPost2010PropOp55
 70
     1
102
RTVSPost2010Prop56
140
1.0
102
RTVSPost2010PropOp56
 70
     0
102
RTVSPost2010Prop57
140
1.0
102
RTVSPost2010PropOp57
 70
     0
102
RTVSPropertyOp0
 70
     0
102
RTVSPropertyOp1
 70
     0
102
RTVSPropertyOp2
 70
     0
102
RTVSPropertyOp3
 70
     0
102
RTVSPropertyOp4
 70
     0
102
RTVSPropertyOp5
 70
     0
102
RTVSPropertyOp6
 70
     0
102
RTVSPropertyOp7
 70
     0
102
RTVSPropertyOp8
 70
     0
102
RTVSPropertyOp9
 70
     0
102
RTVSPropertyOp10
 70
     0
102
RTVSPropertyOp11
 70
     0
102
RTVSPropertyOp12
 70
     0
102
RTVSPropertyOp13
 70
     0
102
RTVSPropertyOp14
 70
     2
102
RTVSPropertyOp15
 70
     0
102
RTVSPropertyOp16
 70
     0
102
RTVSPropertyOp17
 70
     0
102
RTVSPropertyOp18
 70
     0
102
RTVSPropertyOp19
 70
     0
102
RTVSPropertyOp20
 70
     0
102
RTVSPropertyOp21
 70
     0
102
RTVSPropertyOp22
 70
     0
102
RTVSPropertyOp23
 70
     0
102
RTVSPropertyOp24
 70
     0
102
RTVSPropertyOp25
 70
     0
102
RTVSPropertyOp26
 70
     0
102
RTVSPropertyOp27
 70
     0
102
RTVSPropertyOp28
 70
     1
102
RTVSPropertyOp29
 70
     1
102
RTVSPropertyOp30
 70
     1
102
RTVSPropertyOp31
 70
     1
102
RTVSPropertyOp32
 70
     1
102
RTVSPropertyOp33
 70
     1
102
RTVSPropertyOp34
 70
     1
102
RTVSPropertyOp35
 70
     1
102
RTVSPropertyOp36
 70
     1
102
RTVSPropertyOp37
 70
     0
102
RTVSPropertyOp38
 70
     0
102
RTVSPropertyOp39
 70
     0
102
RTVSPropertyOp40
 70
     0
102
RTVSPropertyOp41
 70
     0
102
RTVSPropertyOp42
 70
     0
102
RTVSPropertyOp43
 70
     0
102
RTVSPropertyOp44
 70
     0
102
RTVSPropertyOp45
 70
     1
102
RTVSPropertyOp46
 70
     0
102
RTVSPropertyOp47
 70
     0
102
RTVSPropertyOp48
 70
     0
102
RTVSPropertyOp49
 70
     1
102
RTVSPropertyOp50
 70
     0
102
RTVSPropertyOp51
 70
     0
102
RTVSPropertyOp52
 70
     0
102
RTVSPropertyOp53
 70
     0
102
RTVSPropertyOp54
 70
     0
102
RTVSPropertyOp55
 70
     1
102
RTVSPropertyOp56
 70
     0
102
RTVSPropertyOp57
 70
     0
102
RTVSPropertyOp58
 70
     0
102
RTVSPropertyOp59
 70
     0
102
RTVSPropertyOp60
 70
     0
102
RTVSPropertyOp61
 70
     0
102
RTVSPropertyOp62
 70
     0
  0
XRECORD
  5
23A8
102
{ACAD_REACTORS
330
23A7
102
}
330
23A7
100
AcDbXrecord
280
     1
102
RTVSPost2010Prop28
280
     0
102
RTVSPost2010PropOp28
 70
     1
102
RTVSPost2010Prop29
280
     1
102
RTVSPost2010PropOp29
 70
     1
102
RTVSPost2010Prop30
280
     1
102
RTVSPost2010PropOp30
 70
     1
102
RTVSPost2010Prop31
280
     0
102
RTVSPost2010PropOp31
 70
     1
102
RTVSPost2010Prop32
280
     0
102
RTVSPost2010PropOp32
 70
     1
102
RTVSPost2010Prop33
280
     0
102
RTVSPost2010PropOp33
 70
     1
102
RTVSPost2010Prop34
280
     0
102
RTVSPost2010PropOp34
 70
     1
102
RTVSPost2010Prop35
280
     0
102
RTVSPost2010PropOp35
 70
     1
102
RTVSPost2010Prop36
280
     0
102
RTVSPost2010PropOp36
 70
     1
102
RTVSPost2010Prop37
 90
       50
102
RTVSPost2010PropOp37
 70
     1
102
RTVSPost2010Prop38
140
0.0
102
RTVSPost2010PropOp38
 70
     1
102
RTVSPost2010Prop39
140
1.0
102
RTVSPost2010PropOp39
 70
     1
102
RTVSPost2010Prop40
 90
        0
102
RTVSPost2010PropOp40
 70
     1
102
RTVSPost2010Prop41ColorIndex
 90
       18
102
RTVSPost2010Prop41ColorRGB
 90
        0
102
RTVSPost2010PropOp41
 70
     1
102
RTVSPost2010Prop42
 90
       50
102
RTVSPost2010PropOp42
 70
     1
102
RTVSPost2010Prop43
 90
        3
102
RTVSPost2010PropOp43
 70
     1
102
RTVSPost2010Prop44ColorIndex
 90
        5
102
RTVSPost2010Prop44ColorRGB
 90
      255
102
RTVSPost2010PropOp44
 70
     1
102
RTVSPost2010Prop45
280
     0
102
RTVSPost2010PropOp45
 70
     1
102
RTVSPost2010Prop46
 90
       50
102
RTVSPost2010PropOp46
 70
     1
102
RTVSPost2010Prop47
 90
       50
102
RTVSPost2010PropOp47
 70
     1
102
RTVSPost2010Prop48
 90
       50
102
RTVSPost2010PropOp48
 70
     1
102
RTVSPost2010Prop49
280
     0
102
RTVSPost2010PropOp49
 70
     1
102
RTVSPost2010Prop50
 90
       50
102
RTVSPost2010PropOp50
 70
     1
102
RTVSPost2010Prop51ColorIndex
 90
      256
102
RTVSPost2010Prop51ColorRGB
 90
-16777216
102
RTVSPost2010PropOp51
 70
     0
102
RTVSPost2010Prop52
140
1.0
102
RTVSPost2010PropOp52
 70
     0
102
RTVSPost2010Prop53
 90
        2
102
RTVSPost2010PropOp53
 70
     1
102
RTVSPost2010Prop54
  1
strokes_ogs.tif
102
RTVSPost2010PropOp54
 70
     1
102
RTVSPost2010Prop55
280
     0
102
RTVSPost2010PropOp55
 70
     1
102
RTVSPost2010Prop56
140
1.0
102
RTVSPost2010PropOp56
 70
     1
102
RTVSPost2010Prop57
140
1.0
102
RTVSPost2010PropOp57
 70
     1
102
RTVSPropertyOp0
 70
     1
102
RTVSPropertyOp1
 70
     1
102
RTVSPropertyOp2
 70
     1
102
RTVSPropertyOp3
 70
     1
102
RTVSPropertyOp4
 70
     1
102
RTVSPropertyOp5
 70
     1
102
RTVSPropertyOp6
 70
     1
102
RTVSPropertyOp7
 70
     1
102
RTVSPropertyOp8
 70
     1
102
RTVSPropertyOp9
 70
     1
102
RTVSPropertyOp10
 70
     1
102
RTVSPropertyOp11
 70
     1
102
RTVSPropertyOp12
 70
     1
102
RTVSPropertyOp13
 70
     1
102
RTVSPropertyOp14
 70
     1
102
RTVSPropertyOp15
 70
     1
102
RTVSPropertyOp16
 70
     1
102
RTVSPropertyOp17
 70
     1
102
RTVSPropertyOp18
 70
     1
102
RTVSPropertyOp19
 70
     1
102
RTVSPropertyOp20
 70
     1
102
RTVSPropertyOp21
 70
     1
102
RTVSPropertyOp22
 70
     1
102
RTVSPropertyOp23
 70
     1
102
RTVSPropertyOp24
 70
     1
102
RTVSPropertyOp25
 70
     1
102
RTVSPropertyOp26
 70
     1
102
RTVSPropertyOp27
 70
     1
102
RTVSPropertyOp28
 70
     1
102
RTVSPropertyOp29
 70
     1
102
RTVSPropertyOp30
 70
     1
102
RTVSPropertyOp31
 70
     1
102
RTVSPropertyOp32
 70
     1
102
RTVSPropertyOp33
 70
     1
102
RTVSPropertyOp34
 70
     1
102
RTVSPropertyOp35
 70
     1
102
RTVSPropertyOp36
 70
     1
102
RTVSPropertyOp37
 70
     1
102
RTVSPropertyOp38
 70
     1
102
RTVSPropertyOp39
 70
     1
102
RTVSPropertyOp40
 70
     1
102
RTVSPropertyOp41
 70
     1
102
RTVSPropertyOp42
 70
     1
102
RTVSPropertyOp43
 70
     1
102
RTVSPropertyOp44
 70
     1
102
RTVSPropertyOp45
 70
     1
102
RTVSPropertyOp46
 70
     1
102
RTVSPropertyOp47
 70
     1
102
RTVSPropertyOp48
 70
     1
102
RTVSPropertyOp49
 70
     1
102
RTVSPropertyOp50
 70
     1
102
RTVSPropertyOp51
 70
     0
102
RTVSPropertyOp52
 70
     0
102
RTVSPropertyOp53
 70
     1
102
RTVSPropertyOp54
 70
     1
102
RTVSPropertyOp55
 70
     1
102
RTVSPropertyOp56
 70
     1
102
RTVSPropertyOp57
 70
     1
102
RTVSPropertyOp58
 70
     1
102
RTVSPropertyOp59
 70
     1
102
RTVSPropertyOp60
 70
     1
102
RTVSPropertyOp61
 70
     1
102
RTVSPropertyOp62
 70
     1
  0
XRECORD
  5
238C
102
{ACAD_REACTORS
330
238B
102
}
330
238B
100
AcDbXrecord
280
     1
102
RTVSPost2010Prop28
280
     0
102
RTVSPost2010PropOp28
 70
     1
102
RTVSPost2010Prop29
280
     1
102
RTVSPost2010PropOp29
 70
     1
102
RTVSPost2010Prop30
280
     1
102
RTVSPost2010PropOp30
 70
     1
102
RTVSPost2010Prop31
280
     0
102
RTVSPost2010PropOp31
 70
     1
102
RTVSPost2010Prop32
280
     0
102
RTVSPost2010PropOp32
 70
     1
102
RTVSPost2010Prop33
280
     0
102
RTVSPost2010PropOp33
 70
     1
102
RTVSPost2010Prop34
280
     0
102
RTVSPost2010PropOp34
 70
     1
102
RTVSPost2010Prop35
280
     0
102
RTVSPost2010PropOp35
 70
     1
102
RTVSPost2010Prop36
280
     0
102
RTVSPost2010PropOp36
 70
     1
102
RTVSPost2010Prop37
 90
       50
102
RTVSPost2010PropOp37
 70
     1
102
RTVSPost2010Prop38
140
0.0
102
RTVSPost2010PropOp38
 70
     1
102
RTVSPost2010Prop39
140
1.0
102
RTVSPost2010PropOp39
 70
     1
102
RTVSPost2010Prop40
 90
        0
102
RTVSPost2010PropOp40
 70
     1
102
RTVSPost2010Prop41ColorIndex
 90
       18
102
RTVSPost2010Prop41ColorRGB
 90
        0
102
RTVSPost2010PropOp41
 70
     1
102
RTVSPost2010Prop42
 90
       50
102
RTVSPost2010PropOp42
 70
     1
102
RTVSPost2010Prop43
 90
        3
102
RTVSPost2010PropOp43
 70
     1
102
RTVSPost2010Prop44ColorIndex
 90
        5
102
RTVSPost2010Prop44ColorRGB
 90
      255
102
RTVSPost2010PropOp44
 70
     1
102
RTVSPost2010Prop45
280
     0
102
RTVSPost2010PropOp45
 70
     1
102
RTVSPost2010Prop46
 90
       50
102
RTVSPost2010PropOp46
 70
     1
102
RTVSPost2010Prop47
 90
       50
102
RTVSPost2010PropOp47
 70
     1
102
RTVSPost2010Prop48
 90
       50
102
RTVSPost2010PropOp48
 70
     1
102
RTVSPost2010Prop49
280
     0
102
RTVSPost2010PropOp49
 70
     1
102
RTVSPost2010Prop50
 90
       50
102
RTVSPost2010PropOp50
 70
     1
102
RTVSPost2010Prop51ColorIndex
 90
      256
102
RTVSPost2010Prop51ColorRGB
 90
-16777216
102
RTVSPost2010PropOp51
 70
     0
102
RTVSPost2010Prop52
140
1.0
102
RTVSPost2010PropOp52
 70
     0
102
RTVSPost2010Prop53
 90
        2
102
RTVSPost2010PropOp53
 70
     1
102
RTVSPost2010Prop54
  1
strokes_ogs.tif
102
RTVSPost2010PropOp54
 70
     1
102
RTVSPost2010Prop55
280
     0
102
RTVSPost2010PropOp55
 70
     1
102
RTVSPost2010Prop56
140
1.0
102
RTVSPost2010PropOp56
 70
     1
102
RTVSPost2010Prop57
140
1.0
102
RTVSPost2010PropOp57
 70
     1
102
RTVSPropertyOp0
 70
     1
102
RTVSPropertyOp1
 70
     1
102
RTVSPropertyOp2
 70
     1
102
RTVSPropertyOp3
 70
     1
102
RTVSPropertyOp4
 70
     1
102
RTVSPropertyOp5
 70
     1
102
RTVSPropertyOp6
 70
     1
102
RTVSPropertyOp7
 70
     1
102
RTVSPropertyOp8
 70
     1
102
RTVSPropertyOp9
 70
     1
102
RTVSPropertyOp10
 70
     1
102
RTVSPropertyOp11
 70
     1
102
RTVSPropertyOp12
 70
     1
102
RTVSPropertyOp13
 70
     1
102
RTVSPropertyOp14
 70
     1
102
RTVSPropertyOp15
 70
     1
102
RTVSPropertyOp16
 70
     1
102
RTVSPropertyOp17
 70
     1
102
RTVSPropertyOp18
 70
     1
102
RTVSPropertyOp19
 70
     1
102
RTVSPropertyOp20
 70
     1
102
RTVSPropertyOp21
 70
     1
102
RTVSPropertyOp22
 70
     1
102
RTVSPropertyOp23
 70
     1
102
RTVSPropertyOp24
 70
     1
102
RTVSPropertyOp25
 70
     1
102
RTVSPropertyOp26
 70
     1
102
RTVSPropertyOp27
 70
     1
102
RTVSPropertyOp28
 70
     1
102
RTVSPropertyOp29
 70
     1
102
RTVSPropertyOp30
 70
     1
102
RTVSPropertyOp31
 70
     1
102
RTVSPropertyOp32
 70
     1
102
RTVSPropertyOp33
 70
     1
102
RTVSPropertyOp34
 70
     1
102
RTVSPropertyOp35
 70
     1
102
RTVSPropertyOp36
 70
     1
102
RTVSPropertyOp37
 70
     1
102
RTVSPropertyOp38
 70
     1
102
RTVSPropertyOp39
 70
     1
102
RTVSPropertyOp40
 70
     1
102
RTVSPropertyOp41
 70
     1
102
RTVSPropertyOp42
 70
     1
102
RTVSPropertyOp43
 70
     1
102
RTVSPropertyOp44
 70
     1
102
RTVSPropertyOp45
 70
     1
102
RTVSPropertyOp46
 70
     1
102
RTVSPropertyOp47
 70
     1
102
RTVSPropertyOp48
 70
     1
102
RTVSPropertyOp49
 70
     1
102
RTVSPropertyOp50
 70
     1
102
RTVSPropertyOp51
 70
     0
102
RTVSPropertyOp52
 70
     0
102
RTVSPropertyOp53
 70
     1
102
RTVSPropertyOp54
 70
     1
102
RTVSPropertyOp55
 70
     1
102
RTVSPropertyOp56
 70
     1
102
RTVSPropertyOp57
 70
     1
102
RTVSPropertyOp58
 70
     1
102
RTVSPropertyOp59
 70
     1
102
RTVSPropertyOp60
 70
     1
102
RTVSPropertyOp61
 70
     1
102
RTVSPropertyOp62
 70
     1
  0
XRECORD
  5
238E
102
{ACAD_REACTORS
330
238D
102
}
330
238D
100
AcDbXrecord
280
     1
102
RTVSPost2010Prop28
280
     0
102
RTVSPost2010PropOp28
 70
     1
102
RTVSPost2010Prop29
280
     1
102
RTVSPost2010PropOp29
 70
     1
102
RTVSPost2010Prop30
280
     1
102
RTVSPost2010PropOp30
 70
     1
102
RTVSPost2010Prop31
280
     0
102
RTVSPost2010PropOp31
 70
     1
102
RTVSPost2010Prop32
280
     0
102
RTVSPost2010PropOp32
 70
     1
102
RTVSPost2010Prop33
280
     0
102
RTVSPost2010PropOp33
 70
     1
102
RTVSPost2010Prop34
280
     0
102
RTVSPost2010PropOp34
 70
     1
102
RTVSPost2010Prop35
280
     0
102
RTVSPost2010PropOp35
 70
     1
102
RTVSPost2010Prop36
280
     0
102
RTVSPost2010PropOp36
 70
     1
102
RTVSPost2010Prop37
 90
       50
102
RTVSPost2010PropOp37
 70
     1
102
RTVSPost2010Prop38
140
0.0
102
RTVSPost2010PropOp38
 70
     1
102
RTVSPost2010Prop39
140
1.0
102
RTVSPost2010PropOp39
 70
     1
102
RTVSPost2010Prop40
 90
        0
102
RTVSPost2010PropOp40
 70
     1
102
RTVSPost2010Prop41ColorIndex
 90
       18
102
RTVSPost2010Prop41ColorRGB
 90
        0
102
RTVSPost2010PropOp41
 70
     1
102
RTVSPost2010Prop42
 90
       50
102
RTVSPost2010PropOp42
 70
     1
102
RTVSPost2010Prop43
 90
        3
102
RTVSPost2010PropOp43
 70
     1
102
RTVSPost2010Prop44ColorIndex
 90
        5
102
RTVSPost2010Prop44ColorRGB
 90
      255
102
RTVSPost2010PropOp44
 70
     1
102
RTVSPost2010Prop45
280
     0
102
RTVSPost2010PropOp45
 70
     1
102
RTVSPost2010Prop46
 90
       50
102
RTVSPost2010PropOp46
 70
     1
102
RTVSPost2010Prop47
 90
       50
102
RTVSPost2010PropOp47
 70
     1
102
RTVSPost2010Prop48
 90
       50
102
RTVSPost2010PropOp48
 70
     1
102
RTVSPost2010Prop49
280
     0
102
RTVSPost2010PropOp49
 70
     1
102
RTVSPost2010Prop50
 90
       50
102
RTVSPost2010PropOp50
 70
     1
102
RTVSPost2010Prop51ColorIndex
 90
      256
102
RTVSPost2010Prop51ColorRGB
 90
-16777216
102
RTVSPost2010PropOp51
 70
     0
102
RTVSPost2010Prop52
140
1.0
102
RTVSPost2010PropOp52
 70
     0
102
RTVSPost2010Prop53
 90
        2
102
RTVSPost2010PropOp53
 70
     1
102
RTVSPost2010Prop54
  1
strokes_ogs.tif
102
RTVSPost2010PropOp54
 70
     1
102
RTVSPost2010Prop55
280
     0
102
RTVSPost2010PropOp55
 70
     1
102
RTVSPost2010Prop56
140
1.0
102
RTVSPost2010PropOp56
 70
     1
102
RTVSPost2010Prop57
140
1.0
102
RTVSPost2010PropOp57
 70
     1
102
RTVSPropertyOp0
 70
     1
102
RTVSPropertyOp1
 70
     1
102
RTVSPropertyOp2
 70
     1
102
RTVSPropertyOp3
 70
     1
102
RTVSPropertyOp4
 70
     1
102
RTVSPropertyOp5
 70
     1
102
RTVSPropertyOp6
 70
     1
102
RTVSPropertyOp7
 70
     1
102
RTVSPropertyOp8
 70
     1
102
RTVSPropertyOp9
 70
     1
102
RTVSPropertyOp10
 70
     1
102
RTVSPropertyOp11
 70
     1
102
RTVSPropertyOp12
 70
     1
102
RTVSPropertyOp13
 70
     1
102
RTVSPropertyOp14
 70
     1
102
RTVSPropertyOp15
 70
     1
102
RTVSPropertyOp16
 70
     1
102
RTVSPropertyOp17
 70
     1
102
RTVSPropertyOp18
 70
     1
102
RTVSPropertyOp19
 70
     1
102
RTVSPropertyOp20
 70
     1
102
RTVSPropertyOp21
 70
     1
102
RTVSPropertyOp22
 70
     1
102
RTVSPropertyOp23
 70
     1
102
RTVSPropertyOp24
 70
     1
102
RTVSPropertyOp25
 70
     1
102
RTVSPropertyOp26
 70
     1
102
RTVSPropertyOp27
 70
     1
102
RTVSPropertyOp28
 70
     1
102
RTVSPropertyOp29
 70
     1
102
RTVSPropertyOp30
 70
     1
102
RTVSPropertyOp31
 70
     1
102
RTVSPropertyOp32
 70
     1
102
RTVSPropertyOp33
 70
     1
102
RTVSPropertyOp34
 70
     1
102
RTVSPropertyOp35
 70
     1
102
RTVSPropertyOp36
 70
     1
102
RTVSPropertyOp37
 70
     1
102
RTVSPropertyOp38
 70
     1
102
RTVSPropertyOp39
 70
     1
102
RTVSPropertyOp40
 70
     1
102
RTVSPropertyOp41
 70
     1
102
RTVSPropertyOp42
 70
     1
102
RTVSPropertyOp43
 70
     1
102
RTVSPropertyOp44
 70
     1
102
RTVSPropertyOp45
 70
     1
102
RTVSPropertyOp46
 70
     1
102
RTVSPropertyOp47
 70
     1
102
RTVSPropertyOp48
 70
     1
102
RTVSPropertyOp49
 70
     1
102
RTVSPropertyOp50
 70
     1
102
RTVSPropertyOp51
 70
     0
102
RTVSPropertyOp52
 70
     0
102
RTVSPropertyOp53
 70
     1
102
RTVSPropertyOp54
 70
     1
102
RTVSPropertyOp55
 70
     1
102
RTVSPropertyOp56
 70
     1
102
RTVSPropertyOp57
 70
     1
102
RTVSPropertyOp58
 70
     1
102
RTVSPropertyOp59
 70
     1
102
RTVSPropertyOp60
 70
     1
102
RTVSPropertyOp61
 70
     1
102
RTVSPropertyOp62
 70
     1
  0
XRECORD
  5
2390
102
{ACAD_REACTORS
330
238F
102
}
330
238F
100
AcDbXrecord
280
     1
102
RTVSPost2010Prop28
280
     0
102
RTVSPost2010PropOp28
 70
     1
102
RTVSPost2010Prop29
280
     1
102
RTVSPost2010PropOp29
 70
     1
102
RTVSPost2010Prop30
280
     1
102
RTVSPost2010PropOp30
 70
     1
102
RTVSPost2010Prop31
280
     0
102
RTVSPost2010PropOp31
 70
     1
102
RTVSPost2010Prop32
280
     0
102
RTVSPost2010PropOp32
 70
     1
102
RTVSPost2010Prop33
280
     0
102
RTVSPost2010PropOp33
 70
     1
102
RTVSPost2010Prop34
280
     0
102
RTVSPost2010PropOp34
 70
     1
102
RTVSPost2010Prop35
280
     0
102
RTVSPost2010PropOp35
 70
     1
102
RTVSPost2010Prop36
280
     0
102
RTVSPost2010PropOp36
 70
     1
102
RTVSPost2010Prop37
 90
       50
102
RTVSPost2010PropOp37
 70
     1
102
RTVSPost2010Prop38
140
0.0
102
RTVSPost2010PropOp38
 70
     1
102
RTVSPost2010Prop39
140
1.0
102
RTVSPost2010PropOp39
 70
     1
102
RTVSPost2010Prop40
 90
        0
102
RTVSPost2010PropOp40
 70
     1
102
RTVSPost2010Prop41ColorIndex
 90
       18
102
RTVSPost2010Prop41ColorRGB
 90
        0
102
RTVSPost2010PropOp41
 70
     1
102
RTVSPost2010Prop42
 90
       50
102
RTVSPost2010PropOp42
 70
     1
102
RTVSPost2010Prop43
 90
        3
102
RTVSPost2010PropOp43
 70
     1
102
RTVSPost2010Prop44ColorIndex
 90
        5
102
RTVSPost2010Prop44ColorRGB
 90
      255
102
RTVSPost2010PropOp44
 70
     1
102
RTVSPost2010Prop45
280
     0
102
RTVSPost2010PropOp45
 70
     1
102
RTVSPost2010Prop46
 90
       50
102
RTVSPost2010PropOp46
 70
     1
102
RTVSPost2010Prop47
 90
       50
102
RTVSPost2010PropOp47
 70
     1
102
RTVSPost2010Prop48
 90
       50
102
RTVSPost2010PropOp48
 70
     1
102
RTVSPost2010Prop49
280
     0
102
RTVSPost2010PropOp49
 70
     1
102
RTVSPost2010Prop50
 90
       50
102
RTVSPost2010PropOp50
 70
     1
102
RTVSPost2010Prop51ColorIndex
 90
      256
102
RTVSPost2010Prop51ColorRGB
 90
-16777216
102
RTVSPost2010PropOp51
 70
     0
102
RTVSPost2010Prop52
140
1.0
102
RTVSPost2010PropOp52
 70
     0
102
RTVSPost2010Prop53
 90
        2
102
RTVSPost2010PropOp53
 70
     1
102
RTVSPost2010Prop54
  1
strokes_ogs.tif
102
RTVSPost2010PropOp54
 70
     1
102
RTVSPost2010Prop55
280
     0
102
RTVSPost2010PropOp55
 70
     1
102
RTVSPost2010Prop56
140
1.0
102
RTVSPost2010PropOp56
 70
     1
102
RTVSPost2010Prop57
140
1.0
102
RTVSPost2010PropOp57
 70
     1
102
RTVSPropertyOp0
 70
     1
102
RTVSPropertyOp1
 70
     1
102
RTVSPropertyOp2
 70
     1
102
RTVSPropertyOp3
 70
     1
102
RTVSPropertyOp4
 70
     1
102
RTVSPropertyOp5
 70
     1
102
RTVSPropertyOp6
 70
     1
102
RTVSPropertyOp7
 70
     1
102
RTVSPropertyOp8
 70
     1
102
RTVSPropertyOp9
 70
     1
102
RTVSPropertyOp10
 70
     1
102
RTVSPropertyOp11
 70
     1
102
RTVSPropertyOp12
 70
     1
102
RTVSPropertyOp13
 70
     1
102
RTVSPropertyOp14
 70
     1
102
RTVSPropertyOp15
 70
     1
102
RTVSPropertyOp16
 70
     1
102
RTVSPropertyOp17
 70
     1
102
RTVSPropertyOp18
 70
     1
102
RTVSPropertyOp19
 70
     1
102
RTVSPropertyOp20
 70
     1
102
RTVSPropertyOp21
 70
     1
102
RTVSPropertyOp22
 70
     1
102
RTVSPropertyOp23
 70
     1
102
RTVSPropertyOp24
 70
     1
102
RTVSPropertyOp25
 70
     1
102
RTVSPropertyOp26
 70
     1
102
RTVSPropertyOp27
 70
     1
102
RTVSPropertyOp28
 70
     1
102
RTVSPropertyOp29
 70
     1
102
RTVSPropertyOp30
 70
     1
102
RTVSPropertyOp31
 70
     1
102
RTVSPropertyOp32
 70
     1
102
RTVSPropertyOp33
 70
     1
102
RTVSPropertyOp34
 70
     1
102
RTVSPropertyOp35
 70
     1
102
RTVSPropertyOp36
 70
     1
102
RTVSPropertyOp37
 70
     1
102
RTVSPropertyOp38
 70
     1
102
RTVSPropertyOp39
 70
     1
102
RTVSPropertyOp40
 70
     1
102
RTVSPropertyOp41
 70
     1
102
RTVSPropertyOp42
 70
     1
102
RTVSPropertyOp43
 70
     1
102
RTVSPropertyOp44
 70
     1
102
RTVSPropertyOp45
 70
     1
102
RTVSPropertyOp46
 70
     1
102
RTVSPropertyOp47
 70
     1
102
RTVSPropertyOp48
 70
     1
102
RTVSPropertyOp49
 70
     1
102
RTVSPropertyOp50
 70
     1
102
RTVSPropertyOp51
 70
     0
102
RTVSPropertyOp52
 70
     0
102
RTVSPropertyOp53
 70
     1
102
RTVSPropertyOp54
 70
     1
102
RTVSPropertyOp55
 70
     1
102
RTVSPropertyOp56
 70
     1
102
RTVSPropertyOp57
 70
     1
102
RTVSPropertyOp58
 70
     1
102
RTVSPropertyOp59
 70
     1
102
RTVSPropertyOp60
 70
     1
102
RTVSPropertyOp61
 70
     1
102
RTVSPropertyOp62
 70
     1
  0
XRECORD
  5
2392
102
{ACAD_REACTORS
330
2391
102
}
330
2391
100
AcDbXrecord
280
     1
102
RTVSPost2010Prop28
280
     0
102
RTVSPost2010PropOp28
 70
     1
102
RTVSPost2010Prop29
280
     1
102
RTVSPost2010PropOp29
 70
     1
102
RTVSPost2010Prop30
280
     1
102
RTVSPost2010PropOp30
 70
     1
102
RTVSPost2010Prop31
280
     0
102
RTVSPost2010PropOp31
 70
     1
102
RTVSPost2010Prop32
280
     0
102
RTVSPost2010PropOp32
 70
     1
102
RTVSPost2010Prop33
280
     0
102
RTVSPost2010PropOp33
 70
     1
102
RTVSPost2010Prop34
280
     0
102
RTVSPost2010PropOp34
 70
     1
102
RTVSPost2010Prop35
280
     0
102
RTVSPost2010PropOp35
 70
     1
102
RTVSPost2010Prop36
280
     0
102
RTVSPost2010PropOp36
 70
     1
102
RTVSPost2010Prop37
 90
       50
102
RTVSPost2010PropOp37
 70
     1
102
RTVSPost2010Prop38
140
0.0
102
RTVSPost2010PropOp38
 70
     1
102
RTVSPost2010Prop39
140
1.0
102
RTVSPost2010PropOp39
 70
     1
102
RTVSPost2010Prop40
 90
        0
102
RTVSPost2010PropOp40
 70
     1
102
RTVSPost2010Prop41ColorIndex
 90
       18
102
RTVSPost2010Prop41ColorRGB
 90
        0
102
RTVSPost2010PropOp41
 70
     1
102
RTVSPost2010Prop42
 90
       50
102
RTVSPost2010PropOp42
 70
     1
102
RTVSPost2010Prop43
 90
        3
102
RTVSPost2010PropOp43
 70
     1
102
RTVSPost2010Prop44ColorIndex
 90
        5
102
RTVSPost2010Prop44ColorRGB
 90
      255
102
RTVSPost2010PropOp44
 70
     1
102
RTVSPost2010Prop45
280
     0
102
RTVSPost2010PropOp45
 70
     1
102
RTVSPost2010Prop46
 90
       50
102
RTVSPost2010PropOp46
 70
     1
102
RTVSPost2010Prop47
 90
       50
102
RTVSPost2010PropOp47
 70
     1
102
RTVSPost2010Prop48
 90
       50
102
RTVSPost2010PropOp48
 70
     1
102
RTVSPost2010Prop49
280
     0
102
RTVSPost2010PropOp49
 70
     1
102
RTVSPost2010Prop50
 90
       50
102
RTVSPost2010PropOp50
 70
     1
102
RTVSPost2010Prop51ColorIndex
 90
      256
102
RTVSPost2010Prop51ColorRGB
 90
-16777216
102
RTVSPost2010PropOp51
 70
     0
102
RTVSPost2010Prop52
140
1.0
102
RTVSPost2010PropOp52
 70
     0
102
RTVSPost2010Prop53
 90
        2
102
RTVSPost2010PropOp53
 70
     1
102
RTVSPost2010Prop54
  1
strokes_ogs.tif
102
RTVSPost2010PropOp54
 70
     1
102
RTVSPost2010Prop55
280
     0
102
RTVSPost2010PropOp55
 70
     1
102
RTVSPost2010Prop56
140
1.0
102
RTVSPost2010PropOp56
 70
     1
102
RTVSPost2010Prop57
140
1.0
102
RTVSPost2010PropOp57
 70
     1
102
RTVSPropertyOp0
 70
     1
102
RTVSPropertyOp1
 70
     1
102
RTVSPropertyOp2
 70
     1
102
RTVSPropertyOp3
 70
     1
102
RTVSPropertyOp4
 70
     1
102
RTVSPropertyOp5
 70
     1
102
RTVSPropertyOp6
 70
     1
102
RTVSPropertyOp7
 70
     1
102
RTVSPropertyOp8
 70
     1
102
RTVSPropertyOp9
 70
     1
102
RTVSPropertyOp10
 70
     1
102
RTVSPropertyOp11
 70
     1
102
RTVSPropertyOp12
 70
     1
102
RTVSPropertyOp13
 70
     1
102
RTVSPropertyOp14
 70
     1
102
RTVSPropertyOp15
 70
     1
102
RTVSPropertyOp16
 70
     1
102
RTVSPropertyOp17
 70
     1
102
RTVSPropertyOp18
 70
     1
102
RTVSPropertyOp19
 70
     1
102
RTVSPropertyOp20
 70
     1
102
RTVSPropertyOp21
 70
     1
102
RTVSPropertyOp22
 70
     1
102
RTVSPropertyOp23
 70
     1
102
RTVSPropertyOp24
 70
     1
102
RTVSPropertyOp25
 70
     1
102
RTVSPropertyOp26
 70
     1
102
RTVSPropertyOp27
 70
     1
102
RTVSPropertyOp28
 70
     1
102
RTVSPropertyOp29
 70
     1
102
RTVSPropertyOp30
 70
     1
102
RTVSPropertyOp31
 70
     1
102
RTVSPropertyOp32
 70
     1
102
RTVSPropertyOp33
 70
     1
102
RTVSPropertyOp34
 70
     1
102
RTVSPropertyOp35
 70
     1
102
RTVSPropertyOp36
 70
     1
102
RTVSPropertyOp37
 70
     1
102
RTVSPropertyOp38
 70
     1
102
RTVSPropertyOp39
 70
     1
102
RTVSPropertyOp40
 70
     1
102
RTVSPropertyOp41
 70
     1
102
RTVSPropertyOp42
 70
     1
102
RTVSPropertyOp43
 70
     1
102
RTVSPropertyOp44
 70
     1
102
RTVSPropertyOp45
 70
     1
102
RTVSPropertyOp46
 70
     1
102
RTVSPropertyOp47
 70
     1
102
RTVSPropertyOp48
 70
     1
102
RTVSPropertyOp49
 70
     1
102
RTVSPropertyOp50
 70
     1
102
RTVSPropertyOp51
 70
     0
102
RTVSPropertyOp52
 70
     0
102
RTVSPropertyOp53
 70
     1
102
RTVSPropertyOp54
 70
     1
102
RTVSPropertyOp55
 70
     1
102
RTVSPropertyOp56
 70
     1
102
RTVSPropertyOp57
 70
     1
102
RTVSPropertyOp58
 70
     1
102
RTVSPropertyOp59
 70
     1
102
RTVSPropertyOp60
 70
     1
102
RTVSPropertyOp61
 70
     1
102
RTVSPropertyOp62
 70
     1
  0
XRECORD
  5
239A
102
{ACAD_REACTORS
330
2399
102
}
330
2399
100
AcDbXrecord
280
     1
102
RTVSPost2010Prop28
280
     0
102
RTVSPost2010PropOp28
 70
     1
102
RTVSPost2010Prop29
280
     1
102
RTVSPost2010PropOp29
 70
     1
102
RTVSPost2010Prop30
280
     1
102
RTVSPost2010PropOp30
 70
     1
102
RTVSPost2010Prop31
280
     0
102
RTVSPost2010PropOp31
 70
     1
102
RTVSPost2010Prop32
280
     0
102
RTVSPost2010PropOp32
 70
     1
102
RTVSPost2010Prop33
280
     0
102
RTVSPost2010PropOp33
 70
     1
102
RTVSPost2010Prop34
280
     0
102
RTVSPost2010PropOp34
 70
     1
102
RTVSPost2010Prop35
280
     0
102
RTVSPost2010PropOp35
 70
     1
102
RTVSPost2010Prop36
280
     0
102
RTVSPost2010PropOp36
 70
     1
102
RTVSPost2010Prop37
 90
       50
102
RTVSPost2010PropOp37
 70
     1
102
RTVSPost2010Prop38
140
0.0
102
RTVSPost2010PropOp38
 70
     1
102
RTVSPost2010Prop39
140
1.0
102
RTVSPost2010PropOp39
 70
     1
102
RTVSPost2010Prop40
 90
        0
102
RTVSPost2010PropOp40
 70
     1
102
RTVSPost2010Prop41ColorIndex
 90
       18
102
RTVSPost2010Prop41ColorRGB
 90
        0
102
RTVSPost2010PropOp41
 70
     1
102
RTVSPost2010Prop42
 90
       50
102
RTVSPost2010PropOp42
 70
     1
102
RTVSPost2010Prop43
 90
        3
102
RTVSPost2010PropOp43
 70
     1
102
RTVSPost2010Prop44ColorIndex
 90
        5
102
RTVSPost2010Prop44ColorRGB
 90
      255
102
RTVSPost2010PropOp44
 70
     1
102
RTVSPost2010Prop45
280
     0
102
RTVSPost2010PropOp45
 70
     1
102
RTVSPost2010Prop46
 90
       50
102
RTVSPost2010PropOp46
 70
     1
102
RTVSPost2010Prop47
 90
       50
102
RTVSPost2010PropOp47
 70
     1
102
RTVSPost2010Prop48
 90
       50
102
RTVSPost2010PropOp48
 70
     1
102
RTVSPost2010Prop49
280
     0
102
RTVSPost2010PropOp49
 70
     1
102
RTVSPost2010Prop50
 90
       50
102
RTVSPost2010PropOp50
 70
     1
102
RTVSPost2010Prop51ColorIndex
 90
      256
102
RTVSPost2010Prop51ColorRGB
 90
-16777216
102
RTVSPost2010PropOp51
 70
     0
102
RTVSPost2010Prop52
140
1.0
102
RTVSPost2010PropOp52
 70
     0
102
RTVSPost2010Prop53
 90
        2
102
RTVSPost2010PropOp53
 70
     1
102
RTVSPost2010Prop54
  1
strokes_ogs.tif
102
RTVSPost2010PropOp54
 70
     1
102
RTVSPost2010Prop55
280
     0
102
RTVSPost2010PropOp55
 70
     1
102
RTVSPost2010Prop56
140
1.0
102
RTVSPost2010PropOp56
 70
     1
102
RTVSPost2010Prop57
140
1.0
102
RTVSPost2010PropOp57
 70
     1
102
RTVSPropertyOp0
 70
     1
102
RTVSPropertyOp1
 70
     1
102
RTVSPropertyOp2
 70
     1
102
RTVSPropertyOp3
 70
     1
102
RTVSPropertyOp4
 70
     1
102
RTVSPropertyOp5
 70
     1
102
RTVSPropertyOp6
 70
     1
102
RTVSPropertyOp7
 70
     1
102
RTVSPropertyOp8
 70
     1
102
RTVSPropertyOp9
 70
     1
102
RTVSPropertyOp10
 70
     1
102
RTVSPropertyOp11
 70
     1
102
RTVSPropertyOp12
 70
     1
102
RTVSPropertyOp13
 70
     1
102
RTVSPropertyOp14
 70
     1
102
RTVSPropertyOp15
 70
     1
102
RTVSPropertyOp16
 70
     1
102
RTVSPropertyOp17
 70
     1
102
RTVSPropertyOp18
 70
     1
102
RTVSPropertyOp19
 70
     1
102
RTVSPropertyOp20
 70
     1
102
RTVSPropertyOp21
 70
     1
102
RTVSPropertyOp22
 70
     1
102
RTVSPropertyOp23
 70
     1
102
RTVSPropertyOp24
 70
     1
102
RTVSPropertyOp25
 70
     1
102
RTVSPropertyOp26
 70
     1
102
RTVSPropertyOp27
 70
     1
102
RTVSPropertyOp28
 70
     1
102
RTVSPropertyOp29
 70
     1
102
RTVSPropertyOp30
 70
     1
102
RTVSPropertyOp31
 70
     1
102
RTVSPropertyOp32
 70
     1
102
RTVSPropertyOp33
 70
     1
102
RTVSPropertyOp34
 70
     1
102
RTVSPropertyOp35
 70
     1
102
RTVSPropertyOp36
 70
     1
102
RTVSPropertyOp37
 70
     1
102
RTVSPropertyOp38
 70
     1
102
RTVSPropertyOp39
 70
     1
102
RTVSPropertyOp40
 70
     1
102
RTVSPropertyOp41
 70
     1
102
RTVSPropertyOp42
 70
     1
102
RTVSPropertyOp43
 70
     1
102
RTVSPropertyOp44
 70
     1
102
RTVSPropertyOp45
 70
     1
102
RTVSPropertyOp46
 70
     1
102
RTVSPropertyOp47
 70
     1
102
RTVSPropertyOp48
 70
     1
102
RTVSPropertyOp49
 70
     1
102
RTVSPropertyOp50
 70
     1
102
RTVSPropertyOp51
 70
     0
102
RTVSPropertyOp52
 70
     0
102
RTVSPropertyOp53
 70
     1
102
RTVSPropertyOp54
 70
     1
102
RTVSPropertyOp55
 70
     1
102
RTVSPropertyOp56
 70
     1
102
RTVSPropertyOp57
 70
     1
102
RTVSPropertyOp58
 70
     1
102
RTVSPropertyOp59
 70
     1
102
RTVSPropertyOp60
 70
     1
102
RTVSPropertyOp61
 70
     1
102
RTVSPropertyOp62
 70
     1
  0
XRECORD
  5
23B6
102
{ACAD_REACTORS
330
23B5
102
}
330
23B5
100
AcDbXrecord
280
     1
102
RTVSPost2010Prop28
280
     0
102
RTVSPost2010PropOp28
 70
     1
102
RTVSPost2010Prop29
280
     1
102
RTVSPost2010PropOp29
 70
     1
102
RTVSPost2010Prop30
280
     1
102
RTVSPost2010PropOp30
 70
     1
102
RTVSPost2010Prop31
280
     0
102
RTVSPost2010PropOp31
 70
     1
102
RTVSPost2010Prop32
280
     0
102
RTVSPost2010PropOp32
 70
     1
102
RTVSPost2010Prop33
280
     0
102
RTVSPost2010PropOp33
 70
     1
102
RTVSPost2010Prop34
280
     0
102
RTVSPost2010PropOp34
 70
     1
102
RTVSPost2010Prop35
280
     0
102
RTVSPost2010PropOp35
 70
     1
102
RTVSPost2010Prop36
280
     0
102
RTVSPost2010PropOp36
 70
     1
102
RTVSPost2010Prop37
 90
       50
102
RTVSPost2010PropOp37
 70
     0
102
RTVSPost2010Prop38
140
0.0
102
RTVSPost2010PropOp38
 70
     0
102
RTVSPost2010Prop39
140
1.0
102
RTVSPost2010PropOp39
 70
     0
102
RTVSPost2010Prop40
 90
        0
102
RTVSPost2010PropOp40
 70
     0
102
RTVSPost2010Prop41ColorIndex
 90
       18
102
RTVSPost2010Prop41ColorRGB
 90
        0
102
RTVSPost2010PropOp41
 70
     0
102
RTVSPost2010Prop42
 90
       50
102
RTVSPost2010PropOp42
 70
     0
102
RTVSPost2010Prop43
 90
        3
102
RTVSPost2010PropOp43
 70
     0
102
RTVSPost2010Prop44ColorIndex
 90
        5
102
RTVSPost2010Prop44ColorRGB
 90
      255
102
RTVSPost2010PropOp44
 70
     0
102
RTVSPost2010Prop45
280
     0
102
RTVSPost2010PropOp45
 70
     1
102
RTVSPost2010Prop46
 90
       50
102
RTVSPost2010PropOp46
 70
     0
102
RTVSPost2010Prop47
 90
       50
102
RTVSPost2010PropOp47
 70
     0
102
RTVSPost2010Prop48
 90
       50
102
RTVSPost2010PropOp48
 70
     0
102
RTVSPost2010Prop49
280
     0
102
RTVSPost2010PropOp49
 70
     1
102
RTVSPost2010Prop50
 90
       50
102
RTVSPost2010PropOp50
 70
     0
102
RTVSPost2010Prop51ColorIndex
 90
      256
102
RTVSPost2010Prop51ColorRGB
 90
-16777216
102
RTVSPost2010PropOp51
 70
     0
102
RTVSPost2010Prop52
140
1.0
102
RTVSPost2010PropOp52
 70
     0
102
RTVSPost2010Prop53
 90
        2
102
RTVSPost2010PropOp53
 70
     0
102
RTVSPost2010Prop54
  1
strokes_ogs.tif
102
RTVSPost2010PropOp54
 70
     0
102
RTVSPost2010Prop55
280
     0
102
RTVSPost2010PropOp55
 70
     1
102
RTVSPost2010Prop56
140
1.0
102
RTVSPost2010PropOp56
 70
     0
102
RTVSPost2010Prop57
140
1.0
102
RTVSPost2010PropOp57
 70
     0
102
RTVSPropertyOp0
 70
     0
102
RTVSPropertyOp1
 70
     0
102
RTVSPropertyOp2
 70
     0
102
RTVSPropertyOp3
 70
     0
102
RTVSPropertyOp4
 70
     0
102
RTVSPropertyOp5
 70
     0
102
RTVSPropertyOp6
 70
     0
102
RTVSPropertyOp7
 70
     0
102
RTVSPropertyOp8
 70
     0
102
RTVSPropertyOp9
 70
     0
102
RTVSPropertyOp10
 70
     0
102
RTVSPropertyOp11
 70
     0
102
RTVSPropertyOp12
 70
     0
102
RTVSPropertyOp13
 70
     0
102
RTVSPropertyOp14
 70
     2
102
RTVSPropertyOp15
 70
     0
102
RTVSPropertyOp16
 70
     0
102
RTVSPropertyOp17
 70
     0
102
RTVSPropertyOp18
 70
     0
102
RTVSPropertyOp19
 70
     0
102
RTVSPropertyOp20
 70
     0
102
RTVSPropertyOp21
 70
     0
102
RTVSPropertyOp22
 70
     0
102
RTVSPropertyOp23
 70
     0
102
RTVSPropertyOp24
 70
     0
102
RTVSPropertyOp25
 70
     0
102
RTVSPropertyOp26
 70
     0
102
RTVSPropertyOp27
 70
     0
102
RTVSPropertyOp28
 70
     1
102
RTVSPropertyOp29
 70
     1
102
RTVSPropertyOp30
 70
     1
102
RTVSPropertyOp31
 70
     1
102
RTVSPropertyOp32
 70
     1
102
RTVSPropertyOp33
 70
     1
102
RTVSPropertyOp34
 70
     1
102
RTVSPropertyOp35
 70
     1
102
RTVSPropertyOp36
 70
     1
102
RTVSPropertyOp37
 70
     0
102
RTVSPropertyOp38
 70
     0
102
RTVSPropertyOp39
 70
     0
102
RTVSPropertyOp40
 70
     0
102
RTVSPropertyOp41
 70
     0
102
RTVSPropertyOp42
 70
     0
102
RTVSPropertyOp43
 70
     0
102
RTVSPropertyOp44
 70
     0
102
RTVSPropertyOp45
 70
     1
102
RTVSPropertyOp46
 70
     0
102
RTVSPropertyOp47
 70
     0
102
RTVSPropertyOp48
 70
     0
102
RTVSPropertyOp49
 70
     1
102
RTVSPropertyOp50
 70
     0
102
RTVSPropertyOp51
 70
     0
102
RTVSPropertyOp52
 70
     0
102
RTVSPropertyOp53
 70
     0
102
RTVSPropertyOp54
 70
     0
102
RTVSPropertyOp55
 70
     1
102
RTVSPropertyOp56
 70
     0
102
RTVSPropertyOp57
 70
     0
102
RTVSPropertyOp58
 70
     0
102
RTVSPropertyOp59
 70
     0
102
RTVSPropertyOp60
 70
     0
102
RTVSPropertyOp61
 70
     0
102
RTVSPropertyOp62
 70
     0
  0
XRECORD
  5
23A6
102
{ACAD_REACTORS
330
23A5
102
}
330
23A5
100
AcDbXrecord
280
     1
102
RTVSPost2010Prop28
280
     0
102
RTVSPost2010PropOp28
 70
     1
102
RTVSPost2010Prop29
280
     1
102
RTVSPost2010PropOp29
 70
     1
102
RTVSPost2010Prop30
280
     1
102
RTVSPost2010PropOp30
 70
     1
102
RTVSPost2010Prop31
280
     0
102
RTVSPost2010PropOp31
 70
     1
102
RTVSPost2010Prop32
280
     0
102
RTVSPost2010PropOp32
 70
     1
102
RTVSPost2010Prop33
280
     0
102
RTVSPost2010PropOp33
 70
     1
102
RTVSPost2010Prop34
280
     0
102
RTVSPost2010PropOp34
 70
     1
102
RTVSPost2010Prop35
280
     0
102
RTVSPost2010PropOp35
 70
     1
102
RTVSPost2010Prop36
280
     0
102
RTVSPost2010PropOp36
 70
     1
102
RTVSPost2010Prop37
 90
       50
102
RTVSPost2010PropOp37
 70
     1
102
RTVSPost2010Prop38
140
0.0
102
RTVSPost2010PropOp38
 70
     1
102
RTVSPost2010Prop39
140
1.0
102
RTVSPost2010PropOp39
 70
     1
102
RTVSPost2010Prop40
 90
        0
102
RTVSPost2010PropOp40
 70
     1
102
RTVSPost2010Prop41ColorIndex
 90
       18
102
RTVSPost2010Prop41ColorRGB
 90
        0
102
RTVSPost2010PropOp41
 70
     1
102
RTVSPost2010Prop42
 90
       50
102
RTVSPost2010PropOp42
 70
     1
102
RTVSPost2010Prop43
 90
        3
102
RTVSPost2010PropOp43
 70
     1
102
RTVSPost2010Prop44ColorIndex
 90
        5
102
RTVSPost2010Prop44ColorRGB
 90
      255
102
RTVSPost2010PropOp44
 70
     1
102
RTVSPost2010Prop45
280
     0
102
RTVSPost2010PropOp45
 70
     1
102
RTVSPost2010Prop46
 90
       50
102
RTVSPost2010PropOp46
 70
     1
102
RTVSPost2010Prop47
 90
       50
102
RTVSPost2010PropOp47
 70
     1
102
RTVSPost2010Prop48
 90
       50
102
RTVSPost2010PropOp48
 70
     1
102
RTVSPost2010Prop49
280
     0
102
RTVSPost2010PropOp49
 70
     1
102
RTVSPost2010Prop50
 90
       50
102
RTVSPost2010PropOp50
 70
     1
102
RTVSPost2010Prop51ColorIndex
 90
      256
102
RTVSPost2010Prop51ColorRGB
 90
-16777216
102
RTVSPost2010PropOp51
 70
     0
102
RTVSPost2010Prop52
140
1.0
102
RTVSPost2010PropOp52
 70
     0
102
RTVSPost2010Prop53
 90
        2
102
RTVSPost2010PropOp53
 70
     1
102
RTVSPost2010Prop54
  1
strokes_ogs.tif
102
RTVSPost2010PropOp54
 70
     1
102
RTVSPost2010Prop55
280
     0
102
RTVSPost2010PropOp55
 70
     1
102
RTVSPost2010Prop56
140
1.0
102
RTVSPost2010PropOp56
 70
     1
102
RTVSPost2010Prop57
140
1.0
102
RTVSPost2010PropOp57
 70
     1
102
RTVSPropertyOp0
 70
     1
102
RTVSPropertyOp1
 70
     1
102
RTVSPropertyOp2
 70
     1
102
RTVSPropertyOp3
 70
     1
102
RTVSPropertyOp4
 70
     1
102
RTVSPropertyOp5
 70
     1
102
RTVSPropertyOp6
 70
     1
102
RTVSPropertyOp7
 70
     1
102
RTVSPropertyOp8
 70
     1
102
RTVSPropertyOp9
 70
     1
102
RTVSPropertyOp10
 70
     1
102
RTVSPropertyOp11
 70
     1
102
RTVSPropertyOp12
 70
     1
102
RTVSPropertyOp13
 70
     1
102
RTVSPropertyOp14
 70
     1
102
RTVSPropertyOp15
 70
     1
102
RTVSPropertyOp16
 70
     1
102
RTVSPropertyOp17
 70
     1
102
RTVSPropertyOp18
 70
     1
102
RTVSPropertyOp19
 70
     1
102
RTVSPropertyOp20
 70
     1
102
RTVSPropertyOp21
 70
     1
102
RTVSPropertyOp22
 70
     1
102
RTVSPropertyOp23
 70
     1
102
RTVSPropertyOp24
 70
     1
102
RTVSPropertyOp25
 70
     1
102
RTVSPropertyOp26
 70
     1
102
RTVSPropertyOp27
 70
     1
102
RTVSPropertyOp28
 70
     1
102
RTVSPropertyOp29
 70
     1
102
RTVSPropertyOp30
 70
     1
102
RTVSPropertyOp31
 70
     1
102
RTVSPropertyOp32
 70
     1
102
RTVSPropertyOp33
 70
     1
102
RTVSPropertyOp34
 70
     1
102
RTVSPropertyOp35
 70
     1
102
RTVSPropertyOp36
 70
     1
102
RTVSPropertyOp37
 70
     1
102
RTVSPropertyOp38
 70
     1
102
RTVSPropertyOp39
 70
     1
102
RTVSPropertyOp40
 70
     1
102
RTVSPropertyOp41
 70
     1
102
RTVSPropertyOp42
 70
     1
102
RTVSPropertyOp43
 70
     1
102
RTVSPropertyOp44
 70
     1
102
RTVSPropertyOp45
 70
     1
102
RTVSPropertyOp46
 70
     1
102
RTVSPropertyOp47
 70
     1
102
RTVSPropertyOp48
 70
     1
102
RTVSPropertyOp49
 70
     1
102
RTVSPropertyOp50
 70
     1
102
RTVSPropertyOp51
 70
     0
102
RTVSPropertyOp52
 70
     0
102
RTVSPropertyOp53
 70
     1
102
RTVSPropertyOp54
 70
     1
102
RTVSPropertyOp55
 70
     1
102
RTVSPropertyOp56
 70
     1
102
RTVSPropertyOp57
 70
     1
102
RTVSPropertyOp58
 70
     1
102
RTVSPropertyOp59
 70
     1
102
RTVSPropertyOp60
 70
     1
102
RTVSPropertyOp61
 70
     1
102
RTVSPropertyOp62
 70
     1
  0
XRECORD
  5
23B8
102
{ACAD_REACTORS
330
23B7
102
}
330
23B7
100
AcDbXrecord
280
     1
102
RTVSPost2010Prop28
280
     0
102
RTVSPost2010PropOp28
 70
     1
102
RTVSPost2010Prop29
280
     1
102
RTVSPost2010PropOp29
 70
     1
102
RTVSPost2010Prop30
280
     1
102
RTVSPost2010PropOp30
 70
     1
102
RTVSPost2010Prop31
280
     0
102
RTVSPost2010PropOp31
 70
     1
102
RTVSPost2010Prop32
280
     0
102
RTVSPost2010PropOp32
 70
     1
102
RTVSPost2010Prop33
280
     0
102
RTVSPost2010PropOp33
 70
     1
102
RTVSPost2010Prop34
280
     0
102
RTVSPost2010PropOp34
 70
     1
102
RTVSPost2010Prop35
280
     0
102
RTVSPost2010PropOp35
 70
     1
102
RTVSPost2010Prop36
280
     0
102
RTVSPost2010PropOp36
 70
     1
102
RTVSPost2010Prop37
 90
       50
102
RTVSPost2010PropOp37
 70
     0
102
RTVSPost2010Prop38
140
0.0
102
RTVSPost2010PropOp38
 70
     0
102
RTVSPost2010Prop39
140
1.0
102
RTVSPost2010PropOp39
 70
     0
102
RTVSPost2010Prop40
 90
        0
102
RTVSPost2010PropOp40
 70
     0
102
RTVSPost2010Prop41ColorIndex
 90
       18
102
RTVSPost2010Prop41ColorRGB
 90
        0
102
RTVSPost2010PropOp41
 70
     0
102
RTVSPost2010Prop42
 90
       50
102
RTVSPost2010PropOp42
 70
     0
102
RTVSPost2010Prop43
 90
        3
102
RTVSPost2010PropOp43
 70
     0
102
RTVSPost2010Prop44ColorIndex
 90
        5
102
RTVSPost2010Prop44ColorRGB
 90
      255
102
RTVSPost2010PropOp44
 70
     0
102
RTVSPost2010Prop45
280
     0
102
RTVSPost2010PropOp45
 70
     1
102
RTVSPost2010Prop46
 90
       50
102
RTVSPost2010PropOp46
 70
     0
102
RTVSPost2010Prop47
 90
       50
102
RTVSPost2010PropOp47
 70
     0
102
RTVSPost2010Prop48
 90
       50
102
RTVSPost2010PropOp48
 70
     0
102
RTVSPost2010Prop49
280
     0
102
RTVSPost2010PropOp49
 70
     1
102
RTVSPost2010Prop50
 90
       50
102
RTVSPost2010PropOp50
 70
     0
102
RTVSPost2010Prop51ColorIndex
 90
      256
102
RTVSPost2010Prop51ColorRGB
 90
-16777216
102
RTVSPost2010PropOp51
 70
     0
102
RTVSPost2010Prop52
140
1.0
102
RTVSPost2010PropOp52
 70
     0
102
RTVSPost2010Prop53
 90
        2
102
RTVSPost2010PropOp53
 70
     0
102
RTVSPost2010Prop54
  1
strokes_ogs.tif
102
RTVSPost2010PropOp54
 70
     0
102
RTVSPost2010Prop55
280
     0
102
RTVSPost2010PropOp55
 70
     1
102
RTVSPost2010Prop56
140
1.0
102
RTVSPost2010PropOp56
 70
     0
102
RTVSPost2010Prop57
140
1.0
102
RTVSPost2010PropOp57
 70
     0
102
RTVSPropertyOp0
 70
     0
102
RTVSPropertyOp1
 70
     0
102
RTVSPropertyOp2
 70
     0
102
RTVSPropertyOp3
 70
     0
102
RTVSPropertyOp4
 70
     0
102
RTVSPropertyOp5
 70
     0
102
RTVSPropertyOp6
 70
     0
102
RTVSPropertyOp7
 70
     0
102
RTVSPropertyOp8
 70
     0
102
RTVSPropertyOp9
 70
     0
102
RTVSPropertyOp10
 70
     0
102
RTVSPropertyOp11
 70
     0
102
RTVSPropertyOp12
 70
     0
102
RTVSPropertyOp13
 70
     0
102
RTVSPropertyOp14
 70
     2
102
RTVSPropertyOp15
 70
     0
102
RTVSPropertyOp16
 70
     0
102
RTVSPropertyOp17
 70
     0
102
RTVSPropertyOp18
 70
     0
102
RTVSPropertyOp19
 70
     0
102
RTVSPropertyOp20
 70
     0
102
RTVSPropertyOp21
 70
     0
102
RTVSPropertyOp22
 70
     0
102
RTVSPropertyOp23
 70
     0
102
RTVSPropertyOp24
 70
     0
102
RTVSPropertyOp25
 70
     0
102
RTVSPropertyOp26
 70
     0
102
RTVSPropertyOp27
 70
     0
102
RTVSPropertyOp28
 70
     1
102
RTVSPropertyOp29
 70
     1
102
RTVSPropertyOp30
 70
     1
102
RTVSPropertyOp31
 70
     1
102
RTVSPropertyOp32
 70
     1
102
RTVSPropertyOp33
 70
     1
102
RTVSPropertyOp34
 70
     1
102
RTVSPropertyOp35
 70
     1
102
RTVSPropertyOp36
 70
     1
102
RTVSPropertyOp37
 70
     0
102
RTVSPropertyOp38
 70
     0
102
RTVSPropertyOp39
 70
     0
102
RTVSPropertyOp40
 70
     0
102
RTVSPropertyOp41
 70
     0
102
RTVSPropertyOp42
 70
     0
102
RTVSPropertyOp43
 70
     0
102
RTVSPropertyOp44
 70
     0
102
RTVSPropertyOp45
 70
     1
102
RTVSPropertyOp46
 70
     0
102
RTVSPropertyOp47
 70
     0
102
RTVSPropertyOp48
 70
     0
102
RTVSPropertyOp49
 70
     1
102
RTVSPropertyOp50
 70
     0
102
RTVSPropertyOp51
 70
     0
102
RTVSPropertyOp52
 70
     0
102
RTVSPropertyOp53
 70
     0
102
RTVSPropertyOp54
 70
     0
102
RTVSPropertyOp55
 70
     1
102
RTVSPropertyOp56
 70
     0
102
RTVSPropertyOp57
 70
     0
102
RTVSPropertyOp58
 70
     0
102
RTVSPropertyOp59
 70
     0
102
RTVSPropertyOp60
 70
     0
102
RTVSPropertyOp61
 70
     0
102
RTVSPropertyOp62
 70
     0
  0
XRECORD
  5
239E
102
{ACAD_REACTORS
330
239D
102
}
330
239D
100
AcDbXrecord
280
     1
102
RTVSPost2010Prop28
280
     0
102
RTVSPost2010PropOp28
 70
     1
102
RTVSPost2010Prop29
280
     1
102
RTVSPost2010PropOp29
 70
     1
102
RTVSPost2010Prop30
280
     1
102
RTVSPost2010PropOp30
 70
     1
102
RTVSPost2010Prop31
280
     0
102
RTVSPost2010PropOp31
 70
     1
102
RTVSPost2010Prop32
280
     0
102
RTVSPost2010PropOp32
 70
     1
102
RTVSPost2010Prop33
280
     0
102
RTVSPost2010PropOp33
 70
     1
102
RTVSPost2010Prop34
280
     0
102
RTVSPost2010PropOp34
 70
     1
102
RTVSPost2010Prop35
280
     0
102
RTVSPost2010PropOp35
 70
     1
102
RTVSPost2010Prop36
280
     0
102
RTVSPost2010PropOp36
 70
     1
102
RTVSPost2010Prop37
 90
       50
102
RTVSPost2010PropOp37
 70
     1
102
RTVSPost2010Prop38
140
0.0
102
RTVSPost2010PropOp38
 70
     1
102
RTVSPost2010Prop39
140
1.0
102
RTVSPost2010PropOp39
 70
     1
102
RTVSPost2010Prop40
 90
        0
102
RTVSPost2010PropOp40
 70
     1
102
RTVSPost2010Prop41ColorIndex
 90
       18
102
RTVSPost2010Prop41ColorRGB
 90
        0
102
RTVSPost2010PropOp41
 70
     1
102
RTVSPost2010Prop42
 90
       50
102
RTVSPost2010PropOp42
 70
     1
102
RTVSPost2010Prop43
 90
        3
102
RTVSPost2010PropOp43
 70
     1
102
RTVSPost2010Prop44ColorIndex
 90
        5
102
RTVSPost2010Prop44ColorRGB
 90
      255
102
RTVSPost2010PropOp44
 70
     1
102
RTVSPost2010Prop45
280
     0
102
RTVSPost2010PropOp45
 70
     1
102
RTVSPost2010Prop46
 90
       50
102
RTVSPost2010PropOp46
 70
     1
102
RTVSPost2010Prop47
 90
       50
102
RTVSPost2010PropOp47
 70
     1
102
RTVSPost2010Prop48
 90
       50
102
RTVSPost2010PropOp48
 70
     1
102
RTVSPost2010Prop49
280
     0
102
RTVSPost2010PropOp49
 70
     1
102
RTVSPost2010Prop50
 90
       50
102
RTVSPost2010PropOp50
 70
     1
102
RTVSPost2010Prop51ColorIndex
 90
      256
102
RTVSPost2010Prop51ColorRGB
 90
-16777216
102
RTVSPost2010PropOp51
 70
     0
102
RTVSPost2010Prop52
140
1.0
102
RTVSPost2010PropOp52
 70
     0
102
RTVSPost2010Prop53
 90
        2
102
RTVSPost2010PropOp53
 70
     1
102
RTVSPost2010Prop54
  1
strokes_ogs.tif
102
RTVSPost2010PropOp54
 70
     1
102
RTVSPost2010Prop55
280
     0
102
RTVSPost2010PropOp55
 70
     1
102
RTVSPost2010Prop56
140
1.0
102
RTVSPost2010PropOp56
 70
     1
102
RTVSPost2010Prop57
140
1.0
102
RTVSPost2010PropOp57
 70
     1
102
RTVSPropertyOp0
 70
     1
102
RTVSPropertyOp1
 70
     1
102
RTVSPropertyOp2
 70
     1
102
RTVSPropertyOp3
 70
     1
102
RTVSPropertyOp4
 70
     1
102
RTVSPropertyOp5
 70
     1
102
RTVSPropertyOp6
 70
     1
102
RTVSPropertyOp7
 70
     1
102
RTVSPropertyOp8
 70
     1
102
RTVSPropertyOp9
 70
     1
102
RTVSPropertyOp10
 70
     1
102
RTVSPropertyOp11
 70
     1
102
RTVSPropertyOp12
 70
     1
102
RTVSPropertyOp13
 70
     1
102
RTVSPropertyOp14
 70
     1
102
RTVSPropertyOp15
 70
     1
102
RTVSPropertyOp16
 70
     1
102
RTVSPropertyOp17
 70
     1
102
RTVSPropertyOp18
 70
     1
102
RTVSPropertyOp19
 70
     1
102
RTVSPropertyOp20
 70
     1
102
RTVSPropertyOp21
 70
     1
102
RTVSPropertyOp22
 70
     1
102
RTVSPropertyOp23
 70
     1
102
RTVSPropertyOp24
 70
     1
102
RTVSPropertyOp25
 70
     1
102
RTVSPropertyOp26
 70
     1
102
RTVSPropertyOp27
 70
     1
102
RTVSPropertyOp28
 70
     1
102
RTVSPropertyOp29
 70
     1
102
RTVSPropertyOp30
 70
     1
102
RTVSPropertyOp31
 70
     1
102
RTVSPropertyOp32
 70
     1
102
RTVSPropertyOp33
 70
     1
102
RTVSPropertyOp34
 70
     1
102
RTVSPropertyOp35
 70
     1
102
RTVSPropertyOp36
 70
     1
102
RTVSPropertyOp37
 70
     1
102
RTVSPropertyOp38
 70
     1
102
RTVSPropertyOp39
 70
     1
102
RTVSPropertyOp40
 70
     1
102
RTVSPropertyOp41
 70
     1
102
RTVSPropertyOp42
 70
     1
102
RTVSPropertyOp43
 70
     1
102
RTVSPropertyOp44
 70
     1
102
RTVSPropertyOp45
 70
     1
102
RTVSPropertyOp46
 70
     1
102
RTVSPropertyOp47
 70
     1
102
RTVSPropertyOp48
 70
     1
102
RTVSPropertyOp49
 70
     1
102
RTVSPropertyOp50
 70
     1
102
RTVSPropertyOp51
 70
     0
102
RTVSPropertyOp52
 70
     0
102
RTVSPropertyOp53
 70
     1
102
RTVSPropertyOp54
 70
     1
102
RTVSPropertyOp55
 70
     1
102
RTVSPropertyOp56
 70
     1
102
RTVSPropertyOp57
 70
     1
102
RTVSPropertyOp58
 70
     1
102
RTVSPropertyOp59
 70
     1
102
RTVSPropertyOp60
 70
     1
102
RTVSPropertyOp61
 70
     1
102
RTVSPropertyOp62
 70
     1
  0
XRECORD
  5
23B4
102
{ACAD_REACTORS
330
23B3
102
}
330
23B3
100
AcDbXrecord
280
     1
102
RTVSPost2010Prop28
280
     0
102
RTVSPost2010PropOp28
 70
     1
102
RTVSPost2010Prop29
280
     1
102
RTVSPost2010PropOp29
 70
     1
102
RTVSPost2010Prop30
280
     1
102
RTVSPost2010PropOp30
 70
     1
102
RTVSPost2010Prop31
280
     0
102
RTVSPost2010PropOp31
 70
     1
102
RTVSPost2010Prop32
280
     0
102
RTVSPost2010PropOp32
 70
     1
102
RTVSPost2010Prop33
280
     0
102
RTVSPost2010PropOp33
 70
     1
102
RTVSPost2010Prop34
280
     0
102
RTVSPost2010PropOp34
 70
     1
102
RTVSPost2010Prop35
280
     0
102
RTVSPost2010PropOp35
 70
     1
102
RTVSPost2010Prop36
280
     0
102
RTVSPost2010PropOp36
 70
     1
102
RTVSPost2010Prop37
 90
       50
102
RTVSPost2010PropOp37
 70
     1
102
RTVSPost2010Prop38
140
0.0
102
RTVSPost2010PropOp38
 70
     1
102
RTVSPost2010Prop39
140
1.0
102
RTVSPost2010PropOp39
 70
     1
102
RTVSPost2010Prop40
 90
        0
102
RTVSPost2010PropOp40
 70
     1
102
RTVSPost2010Prop41ColorIndex
 90
       18
102
RTVSPost2010Prop41ColorRGB
 90
        0
102
RTVSPost2010PropOp41
 70
     1
102
RTVSPost2010Prop42
 90
       50
102
RTVSPost2010PropOp42
 70
     1
102
RTVSPost2010Prop43
 90
        3
102
RTVSPost2010PropOp43
 70
     1
102
RTVSPost2010Prop44ColorIndex
 90
        5
102
RTVSPost2010Prop44ColorRGB
 90
      255
102
RTVSPost2010PropOp44
 70
     1
102
RTVSPost2010Prop45
280
     0
102
RTVSPost2010PropOp45
 70
     1
102
RTVSPost2010Prop46
 90
       50
102
RTVSPost2010PropOp46
 70
     1
102
RTVSPost2010Prop47
 90
       50
102
RTVSPost2010PropOp47
 70
     1
102
RTVSPost2010Prop48
 90
       50
102
RTVSPost2010PropOp48
 70
     1
102
RTVSPost2010Prop49
280
     0
102
RTVSPost2010PropOp49
 70
     1
102
RTVSPost2010Prop50
 90
       50
102
RTVSPost2010PropOp50
 70
     1
102
RTVSPost2010Prop51ColorIndex
 90
      256
102
RTVSPost2010Prop51ColorRGB
 90
-16777216
102
RTVSPost2010PropOp51
 70
     0
102
RTVSPost2010Prop52
140
1.0
102
RTVSPost2010PropOp52
 70
     0
102
RTVSPost2010Prop53
 90
        2
102
RTVSPost2010PropOp53
 70
     1
102
RTVSPost2010Prop54
  1
strokes_ogs.tif
102
RTVSPost2010PropOp54
 70
     1
102
RTVSPost2010Prop55
280
     0
102
RTVSPost2010PropOp55
 70
     1
102
RTVSPost2010Prop56
140
1.0
102
RTVSPost2010PropOp56
 70
     1
102
RTVSPost2010Prop57
140
1.0
102
RTVSPost2010PropOp57
 70
     1
102
RTVSPropertyOp0
 70
     1
102
RTVSPropertyOp1
 70
     1
102
RTVSPropertyOp2
 70
     1
102
RTVSPropertyOp3
 70
     1
102
RTVSPropertyOp4
 70
     1
102
RTVSPropertyOp5
 70
     1
102
RTVSPropertyOp6
 70
     1
102
RTVSPropertyOp7
 70
     1
102
RTVSPropertyOp8
 70
     1
102
RTVSPropertyOp9
 70
     1
102
RTVSPropertyOp10
 70
     1
102
RTVSPropertyOp11
 70
     1
102
RTVSPropertyOp12
 70
     1
102
RTVSPropertyOp13
 70
     1
102
RTVSPropertyOp14
 70
     1
102
RTVSPropertyOp15
 70
     1
102
RTVSPropertyOp16
 70
     1
102
RTVSPropertyOp17
 70
     1
102
RTVSPropertyOp18
 70
     1
102
RTVSPropertyOp19
 70
     1
102
RTVSPropertyOp20
 70
     1
102
RTVSPropertyOp21
 70
     1
102
RTVSPropertyOp22
 70
     1
102
RTVSPropertyOp23
 70
     1
102
RTVSPropertyOp24
 70
     1
102
RTVSPropertyOp25
 70
     1
102
RTVSPropertyOp26
 70
     1
102
RTVSPropertyOp27
 70
     1
102
RTVSPropertyOp28
 70
     1
102
RTVSPropertyOp29
 70
     1
102
RTVSPropertyOp30
 70
     1
102
RTVSPropertyOp31
 70
     1
102
RTVSPropertyOp32
 70
     1
102
RTVSPropertyOp33
 70
     1
102
RTVSPropertyOp34
 70
     1
102
RTVSPropertyOp35
 70
     1
102
RTVSPropertyOp36
 70
     1
102
RTVSPropertyOp37
 70
     1
102
RTVSPropertyOp38
 70
     1
102
RTVSPropertyOp39
 70
     1
102
RTVSPropertyOp40
 70
     1
102
RTVSPropertyOp41
 70
     1
102
RTVSPropertyOp42
 70
     1
102
RTVSPropertyOp43
 70
     1
102
RTVSPropertyOp44
 70
     1
102
RTVSPropertyOp45
 70
     1
102
RTVSPropertyOp46
 70
     1
102
RTVSPropertyOp47
 70
     1
102
RTVSPropertyOp48
 70
     1
102
RTVSPropertyOp49
 70
     1
102
RTVSPropertyOp50
 70
     1
102
RTVSPropertyOp51
 70
     0
102
RTVSPropertyOp52
 70
     0
102
RTVSPropertyOp53
 70
     1
102
RTVSPropertyOp54
 70
     1
102
RTVSPropertyOp55
 70
     1
102
RTVSPropertyOp56
 70
     1
102
RTVSPropertyOp57
 70
     1
102
RTVSPropertyOp58
 70
     1
102
RTVSPropertyOp59
 70
     1
102
RTVSPropertyOp60
 70
     1
102
RTVSPropertyOp61
 70
     1
102
RTVSPropertyOp62
 70
     1
  0
XRECORD
  5
23B2
102
{ACAD_REACTORS
330
23B1
102
}
330
23B1
100
AcDbXrecord
280
     1
102
RTVSPost2010Prop28
280
     0
102
RTVSPost2010PropOp28
 70
     1
102
RTVSPost2010Prop29
280
     1
102
RTVSPost2010PropOp29
 70
     1
102
RTVSPost2010Prop30
280
     1
102
RTVSPost2010PropOp30
 70
     1
102
RTVSPost2010Prop31
280
     0
102
RTVSPost2010PropOp31
 70
     1
102
RTVSPost2010Prop32
280
     0
102
RTVSPost2010PropOp32
 70
     1
102
RTVSPost2010Prop33
280
     0
102
RTVSPost2010PropOp33
 70
     1
102
RTVSPost2010Prop34
280
     0
102
RTVSPost2010PropOp34
 70
     1
102
RTVSPost2010Prop35
280
     0
102
RTVSPost2010PropOp35
 70
     1
102
RTVSPost2010Prop36
280
     0
102
RTVSPost2010PropOp36
 70
     1
102
RTVSPost2010Prop37
 90
       50
102
RTVSPost2010PropOp37
 70
     1
102
RTVSPost2010Prop38
140
0.0
102
RTVSPost2010PropOp38
 70
     1
102
RTVSPost2010Prop39
140
1.0
102
RTVSPost2010PropOp39
 70
     1
102
RTVSPost2010Prop40
 90
        0
102
RTVSPost2010PropOp40
 70
     1
102
RTVSPost2010Prop41ColorIndex
 90
       18
102
RTVSPost2010Prop41ColorRGB
 90
        0
102
RTVSPost2010PropOp41
 70
     1
102
RTVSPost2010Prop42
 90
       50
102
RTVSPost2010PropOp42
 70
     1
102
RTVSPost2010Prop43
 90
        3
102
RTVSPost2010PropOp43
 70
     1
102
RTVSPost2010Prop44ColorIndex
 90
        5
102
RTVSPost2010Prop44ColorRGB
 90
      255
102
RTVSPost2010PropOp44
 70
     1
102
RTVSPost2010Prop45
280
     0
102
RTVSPost2010PropOp45
 70
     1
102
RTVSPost2010Prop46
 90
       50
102
RTVSPost2010PropOp46
 70
     1
102
RTVSPost2010Prop47
 90
       50
102
RTVSPost2010PropOp47
 70
     1
102
RTVSPost2010Prop48
 90
       50
102
RTVSPost2010PropOp48
 70
     1
102
RTVSPost2010Prop49
280
     0
102
RTVSPost2010PropOp49
 70
     1
102
RTVSPost2010Prop50
 90
       50
102
RTVSPost2010PropOp50
 70
     1
102
RTVSPost2010Prop51ColorIndex
 90
      256
102
RTVSPost2010Prop51ColorRGB
 90
-16777216
102
RTVSPost2010PropOp51
 70
     0
102
RTVSPost2010Prop52
140
1.0
102
RTVSPost2010PropOp52
 70
     0
102
RTVSPost2010Prop53
 90
        2
102
RTVSPost2010PropOp53
 70
     1
102
RTVSPost2010Prop54
  1
strokes_ogs.tif
102
RTVSPost2010PropOp54
 70
     1
102
RTVSPost2010Prop55
280
     0
102
RTVSPost2010PropOp55
 70
     1
102
RTVSPost2010Prop56
140
1.0
102
RTVSPost2010PropOp56
 70
     1
102
RTVSPost2010Prop57
140
1.0
102
RTVSPost2010PropOp57
 70
     1
102
RTVSPropertyOp0
 70
     1
102
RTVSPropertyOp1
 70
     1
102
RTVSPropertyOp2
 70
     1
102
RTVSPropertyOp3
 70
     1
102
RTVSPropertyOp4
 70
     1
102
RTVSPropertyOp5
 70
     1
102
RTVSPropertyOp6
 70
     1
102
RTVSPropertyOp7
 70
     1
102
RTVSPropertyOp8
 70
     1
102
RTVSPropertyOp9
 70
     1
102
RTVSPropertyOp10
 70
     1
102
RTVSPropertyOp11
 70
     1
102
RTVSPropertyOp12
 70
     1
102
RTVSPropertyOp13
 70
     1
102
RTVSPropertyOp14
 70
     1
102
RTVSPropertyOp15
 70
     1
102
RTVSPropertyOp16
 70
     1
102
RTVSPropertyOp17
 70
     1
102
RTVSPropertyOp18
 70
     1
102
RTVSPropertyOp19
 70
     1
102
RTVSPropertyOp20
 70
     1
102
RTVSPropertyOp21
 70
     1
102
RTVSPropertyOp22
 70
     1
102
RTVSPropertyOp23
 70
     1
102
RTVSPropertyOp24
 70
     1
102
RTVSPropertyOp25
 70
     1
102
RTVSPropertyOp26
 70
     1
102
RTVSPropertyOp27
 70
     1
102
RTVSPropertyOp28
 70
     1
102
RTVSPropertyOp29
 70
     1
102
RTVSPropertyOp30
 70
     1
102
RTVSPropertyOp31
 70
     1
102
RTVSPropertyOp32
 70
     1
102
RTVSPropertyOp33
 70
     1
102
RTVSPropertyOp34
 70
     1
102
RTVSPropertyOp35
 70
     1
102
RTVSPropertyOp36
 70
     1
102
RTVSPropertyOp37
 70
     1
102
RTVSPropertyOp38
 70
     1
102
RTVSPropertyOp39
 70
     1
102
RTVSPropertyOp40
 70
     1
102
RTVSPropertyOp41
 70
     1
102
RTVSPropertyOp42
 70
     1
102
RTVSPropertyOp43
 70
     1
102
RTVSPropertyOp44
 70
     1
102
RTVSPropertyOp45
 70
     1
102
RTVSPropertyOp46
 70
     1
102
RTVSPropertyOp47
 70
     1
102
RTVSPropertyOp48
 70
     1
102
RTVSPropertyOp49
 70
     1
102
RTVSPropertyOp50
 70
     1
102
RTVSPropertyOp51
 70
     0
102
RTVSPropertyOp52
 70
     0
102
RTVSPropertyOp53
 70
     1
102
RTVSPropertyOp54
 70
     1
102
RTVSPropertyOp55
 70
     1
102
RTVSPropertyOp56
 70
     1
102
RTVSPropertyOp57
 70
     1
102
RTVSPropertyOp58
 70
     1
102
RTVSPropertyOp59
 70
     1
102
RTVSPropertyOp60
 70
     1
102
RTVSPropertyOp61
 70
     1
102
RTVSPropertyOp62
 70
     1
  0
XRECORD
  5
23AC
102
{ACAD_REACTORS
330
23AB
102
}
330
23AB
100
AcDbXrecord
280
     1
102
RTVSPost2010Prop28
280
     0
102
RTVSPost2010PropOp28
 70
     1
102
RTVSPost2010Prop29
280
     1
102
RTVSPost2010PropOp29
 70
     1
102
RTVSPost2010Prop30
280
     1
102
RTVSPost2010PropOp30
 70
     1
102
RTVSPost2010Prop31
280
     0
102
RTVSPost2010PropOp31
 70
     1
102
RTVSPost2010Prop32
280
     0
102
RTVSPost2010PropOp32
 70
     1
102
RTVSPost2010Prop33
280
     0
102
RTVSPost2010PropOp33
 70
     1
102
RTVSPost2010Prop34
280
     0
102
RTVSPost2010PropOp34
 70
     1
102
RTVSPost2010Prop35
280
     0
102
RTVSPost2010PropOp35
 70
     1
102
RTVSPost2010Prop36
280
     0
102
RTVSPost2010PropOp36
 70
     1
102
RTVSPost2010Prop37
 90
       50
102
RTVSPost2010PropOp37
 70
     1
102
RTVSPost2010Prop38
140
0.0
102
RTVSPost2010PropOp38
 70
     1
102
RTVSPost2010Prop39
140
1.0
102
RTVSPost2010PropOp39
 70
     1
102
RTVSPost2010Prop40
 90
        0
102
RTVSPost2010PropOp40
 70
     1
102
RTVSPost2010Prop41ColorIndex
 90
       18
102
RTVSPost2010Prop41ColorRGB
 90
        0
102
RTVSPost2010PropOp41
 70
     1
102
RTVSPost2010Prop42
 90
       50
102
RTVSPost2010PropOp42
 70
     1
102
RTVSPost2010Prop43
 90
        3
102
RTVSPost2010PropOp43
 70
     1
102
RTVSPost2010Prop44ColorIndex
 90
        5
102
RTVSPost2010Prop44ColorRGB
 90
      255
102
RTVSPost2010PropOp44
 70
     1
102
RTVSPost2010Prop45
280
     0
102
RTVSPost2010PropOp45
 70
     1
102
RTVSPost2010Prop46
 90
       50
102
RTVSPost2010PropOp46
 70
     1
102
RTVSPost2010Prop47
 90
       50
102
RTVSPost2010PropOp47
 70
     1
102
RTVSPost2010Prop48
 90
       50
102
RTVSPost2010PropOp48
 70
     1
102
RTVSPost2010Prop49
280
     0
102
RTVSPost2010PropOp49
 70
     1
102
RTVSPost2010Prop50
 90
       50
102
RTVSPost2010PropOp50
 70
     1
102
RTVSPost2010Prop51ColorIndex
 90
      256
102
RTVSPost2010Prop51ColorRGB
 90
-16777216
102
RTVSPost2010PropOp51
 70
     0
102
RTVSPost2010Prop52
140
1.0
102
RTVSPost2010PropOp52
 70
     0
102
RTVSPost2010Prop53
 90
        2
102
RTVSPost2010PropOp53
 70
     1
102
RTVSPost2010Prop54
  1
strokes_ogs.tif
102
RTVSPost2010PropOp54
 70
     1
102
RTVSPost2010Prop55
280
     0
102
RTVSPost2010PropOp55
 70
     1
102
RTVSPost2010Prop56
140
1.0
102
RTVSPost2010PropOp56
 70
     1
102
RTVSPost2010Prop57
140
1.0
102
RTVSPost2010PropOp57
 70
     1
102
RTVSPropertyOp0
 70
     1
102
RTVSPropertyOp1
 70
     1
102
RTVSPropertyOp2
 70
     1
102
RTVSPropertyOp3
 70
     1
102
RTVSPropertyOp4
 70
     1
102
RTVSPropertyOp5
 70
     1
102
RTVSPropertyOp6
 70
     1
102
RTVSPropertyOp7
 70
     1
102
RTVSPropertyOp8
 70
     1
102
RTVSPropertyOp9
 70
     1
102
RTVSPropertyOp10
 70
     1
102
RTVSPropertyOp11
 70
     1
102
RTVSPropertyOp12
 70
     1
102
RTVSPropertyOp13
 70
     1
102
RTVSPropertyOp14
 70
     1
102
RTVSPropertyOp15
 70
     1
102
RTVSPropertyOp16
 70
     1
102
RTVSPropertyOp17
 70
     1
102
RTVSPropertyOp18
 70
     1
102
RTVSPropertyOp19
 70
     1
102
RTVSPropertyOp20
 70
     1
102
RTVSPropertyOp21
 70
     1
102
RTVSPropertyOp22
 70
     1
102
RTVSPropertyOp23
 70
     1
102
RTVSPropertyOp24
 70
     1
102
RTVSPropertyOp25
 70
     1
102
RTVSPropertyOp26
 70
     1
102
RTVSPropertyOp27
 70
     1
102
RTVSPropertyOp28
 70
     1
102
RTVSPropertyOp29
 70
     1
102
RTVSPropertyOp30
 70
     1
102
RTVSPropertyOp31
 70
     1
102
RTVSPropertyOp32
 70
     1
102
RTVSPropertyOp33
 70
     1
102
RTVSPropertyOp34
 70
     1
102
RTVSPropertyOp35
 70
     1
102
RTVSPropertyOp36
 70
     1
102
RTVSPropertyOp37
 70
     1
102
RTVSPropertyOp38
 70
     1
102
RTVSPropertyOp39
 70
     1
102
RTVSPropertyOp40
 70
     1
102
RTVSPropertyOp41
 70
     1
102
RTVSPropertyOp42
 70
     1
102
RTVSPropertyOp43
 70
     1
102
RTVSPropertyOp44
 70
     1
102
RTVSPropertyOp45
 70
     1
102
RTVSPropertyOp46
 70
     1
102
RTVSPropertyOp47
 70
     1
102
RTVSPropertyOp48
 70
     1
102
RTVSPropertyOp49
 70
     1
102
RTVSPropertyOp50
 70
     1
102
RTVSPropertyOp51
 70
     0
102
RTVSPropertyOp52
 70
     0
102
RTVSPropertyOp53
 70
     1
102
RTVSPropertyOp54
 70
     1
102
RTVSPropertyOp55
 70
     1
102
RTVSPropertyOp56
 70
     1
102
RTVSPropertyOp57
 70
     1
102
RTVSPropertyOp58
 70
     1
102
RTVSPropertyOp59
 70
     1
102
RTVSPropertyOp60
 70
     1
102
RTVSPropertyOp61
 70
     1
102
RTVSPropertyOp62
 70
     1
  0
XRECORD
  5
23AE
102
{ACAD_REACTORS
330
23AD
102
}
330
23AD
100
AcDbXrecord
280
     1
102
RTVSPost2010Prop28
280
     0
102
RTVSPost2010PropOp28
 70
     1
102
RTVSPost2010Prop29
280
     1
102
RTVSPost2010PropOp29
 70
     1
102
RTVSPost2010Prop30
280
     1
102
RTVSPost2010PropOp30
 70
     1
102
RTVSPost2010Prop31
280
     0
102
RTVSPost2010PropOp31
 70
     1
102
RTVSPost2010Prop32
280
     0
102
RTVSPost2010PropOp32
 70
     1
102
RTVSPost2010Prop33
280
     0
102
RTVSPost2010PropOp33
 70
     1
102
RTVSPost2010Prop34
280
     0
102
RTVSPost2010PropOp34
 70
     1
102
RTVSPost2010Prop35
280
     0
102
RTVSPost2010PropOp35
 70
     1
102
RTVSPost2010Prop36
280
     0
102
RTVSPost2010PropOp36
 70
     1
102
RTVSPost2010Prop37
 90
       50
102
RTVSPost2010PropOp37
 70
     1
102
RTVSPost2010Prop38
140
0.0
102
RTVSPost2010PropOp38
 70
     1
102
RTVSPost2010Prop39
140
1.0
102
RTVSPost2010PropOp39
 70
     1
102
RTVSPost2010Prop40
 90
        0
102
RTVSPost2010PropOp40
 70
     1
102
RTVSPost2010Prop41ColorIndex
 90
       18
102
RTVSPost2010Prop41ColorRGB
 90
        0
102
RTVSPost2010PropOp41
 70
     1
102
RTVSPost2010Prop42
 90
       50
102
RTVSPost2010PropOp42
 70
     1
102
RTVSPost2010Prop43
 90
        3
102
RTVSPost2010PropOp43
 70
     1
102
RTVSPost2010Prop44ColorIndex
 90
        5
102
RTVSPost2010Prop44ColorRGB
 90
      255
102
RTVSPost2010PropOp44
 70
     1
102
RTVSPost2010Prop45
280
     0
102
RTVSPost2010PropOp45
 70
     1
102
RTVSPost2010Prop46
 90
       50
102
RTVSPost2010PropOp46
 70
     1
102
RTVSPost2010Prop47
 90
       50
102
RTVSPost2010PropOp47
 70
     1
102
RTVSPost2010Prop48
 90
       50
102
RTVSPost2010PropOp48
 70
     1
102
RTVSPost2010Prop49
280
     0
102
RTVSPost2010PropOp49
 70
     1
102
RTVSPost2010Prop50
 90
       50
102
RTVSPost2010PropOp50
 70
     1
102
RTVSPost2010Prop51ColorIndex
 90
      256
102
RTVSPost2010Prop51ColorRGB
 90
-16777216
102
RTVSPost2010PropOp51
 70
     0
102
RTVSPost2010Prop52
140
1.0
102
RTVSPost2010PropOp52
 70
     0
102
RTVSPost2010Prop53
 90
        2
102
RTVSPost2010PropOp53
 70
     1
102
RTVSPost2010Prop54
  1
strokes_ogs.tif
102
RTVSPost2010PropOp54
 70
     1
102
RTVSPost2010Prop55
280
     0
102
RTVSPost2010PropOp55
 70
     1
102
RTVSPost2010Prop56
140
1.0
102
RTVSPost2010PropOp56
 70
     1
102
RTVSPost2010Prop57
140
1.0
102
RTVSPost2010PropOp57
 70
     1
102
RTVSPropertyOp0
 70
     1
102
RTVSPropertyOp1
 70
     1
102
RTVSPropertyOp2
 70
     1
102
RTVSPropertyOp3
 70
     1
102
RTVSPropertyOp4
 70
     1
102
RTVSPropertyOp5
 70
     1
102
RTVSPropertyOp6
 70
     1
102
RTVSPropertyOp7
 70
     1
102
RTVSPropertyOp8
 70
     1
102
RTVSPropertyOp9
 70
     1
102
RTVSPropertyOp10
 70
     1
102
RTVSPropertyOp11
 70
     1
102
RTVSPropertyOp12
 70
     1
102
RTVSPropertyOp13
 70
     1
102
RTVSPropertyOp14
 70
     1
102
RTVSPropertyOp15
 70
     1
102
RTVSPropertyOp16
 70
     1
102
RTVSPropertyOp17
 70
     1
102
RTVSPropertyOp18
 70
     1
102
RTVSPropertyOp19
 70
     1
102
RTVSPropertyOp20
 70
     1
102
RTVSPropertyOp21
 70
     1
102
RTVSPropertyOp22
 70
     1
102
RTVSPropertyOp23
 70
     1
102
RTVSPropertyOp24
 70
     1
102
RTVSPropertyOp25
 70
     1
102
RTVSPropertyOp26
 70
     1
102
RTVSPropertyOp27
 70
     1
102
RTVSPropertyOp28
 70
     1
102
RTVSPropertyOp29
 70
     1
102
RTVSPropertyOp30
 70
     1
102
RTVSPropertyOp31
 70
     1
102
RTVSPropertyOp32
 70
     1
102
RTVSPropertyOp33
 70
     1
102
RTVSPropertyOp34
 70
     1
102
RTVSPropertyOp35
 70
     1
102
RTVSPropertyOp36
 70
     1
102
RTVSPropertyOp37
 70
     1
102
RTVSPropertyOp38
 70
     1
102
RTVSPropertyOp39
 70
     1
102
RTVSPropertyOp40
 70
     1
102
RTVSPropertyOp41
 70
     1
102
RTVSPropertyOp42
 70
     1
102
RTVSPropertyOp43
 70
     1
102
RTVSPropertyOp44
 70
     1
102
RTVSPropertyOp45
 70
     1
102
RTVSPropertyOp46
 70
     1
102
RTVSPropertyOp47
 70
     1
102
RTVSPropertyOp48
 70
     1
102
RTVSPropertyOp49
 70
     1
102
RTVSPropertyOp50
 70
     1
102
RTVSPropertyOp51
 70
     0
102
RTVSPropertyOp52
 70
     0
102
RTVSPropertyOp53
 70
     1
102
RTVSPropertyOp54
 70
     1
102
RTVSPropertyOp55
 70
     1
102
RTVSPropertyOp56
 70
     1
102
RTVSPropertyOp57
 70
     1
102
RTVSPropertyOp58
 70
     1
102
RTVSPropertyOp59
 70
     1
102
RTVSPropertyOp60
 70
     1
102
RTVSPropertyOp61
 70
     1
102
RTVSPropertyOp62
 70
     1
  0
XRECORD
  5
23A4
102
{ACAD_REACTORS
330
23A3
102
}
330
23A3
100
AcDbXrecord
280
     1
102
RTVSPost2010Prop28
280
     0
102
RTVSPost2010PropOp28
 70
     1
102
RTVSPost2010Prop29
280
     1
102
RTVSPost2010PropOp29
 70
     1
102
RTVSPost2010Prop30
280
     1
102
RTVSPost2010PropOp30
 70
     1
102
RTVSPost2010Prop31
280
     0
102
RTVSPost2010PropOp31
 70
     1
102
RTVSPost2010Prop32
280
     0
102
RTVSPost2010PropOp32
 70
     1
102
RTVSPost2010Prop33
280
     0
102
RTVSPost2010PropOp33
 70
     1
102
RTVSPost2010Prop34
280
     0
102
RTVSPost2010PropOp34
 70
     1
102
RTVSPost2010Prop35
280
     0
102
RTVSPost2010PropOp35
 70
     1
102
RTVSPost2010Prop36
280
     0
102
RTVSPost2010PropOp36
 70
     1
102
RTVSPost2010Prop37
 90
       50
102
RTVSPost2010PropOp37
 70
     1
102
RTVSPost2010Prop38
140
0.0
102
RTVSPost2010PropOp38
 70
     1
102
RTVSPost2010Prop39
140
1.0
102
RTVSPost2010PropOp39
 70
     1
102
RTVSPost2010Prop40
 90
        0
102
RTVSPost2010PropOp40
 70
     1
102
RTVSPost2010Prop41ColorIndex
 90
       18
102
RTVSPost2010Prop41ColorRGB
 90
        0
102
RTVSPost2010PropOp41
 70
     1
102
RTVSPost2010Prop42
 90
       50
102
RTVSPost2010PropOp42
 70
     1
102
RTVSPost2010Prop43
 90
        3
102
RTVSPost2010PropOp43
 70
     1
102
RTVSPost2010Prop44ColorIndex
 90
        5
102
RTVSPost2010Prop44ColorRGB
 90
      255
102
RTVSPost2010PropOp44
 70
     1
102
RTVSPost2010Prop45
280
     0
102
RTVSPost2010PropOp45
 70
     1
102
RTVSPost2010Prop46
 90
       50
102
RTVSPost2010PropOp46
 70
     1
102
RTVSPost2010Prop47
 90
       50
102
RTVSPost2010PropOp47
 70
     1
102
RTVSPost2010Prop48
 90
       50
102
RTVSPost2010PropOp48
 70
     1
102
RTVSPost2010Prop49
280
     0
102
RTVSPost2010PropOp49
 70
     1
102
RTVSPost2010Prop50
 90
       50
102
RTVSPost2010PropOp50
 70
     1
102
RTVSPost2010Prop51ColorIndex
 90
      256
102
RTVSPost2010Prop51ColorRGB
 90
-16777216
102
RTVSPost2010PropOp51
 70
     0
102
RTVSPost2010Prop52
140
1.0
102
RTVSPost2010PropOp52
 70
     0
102
RTVSPost2010Prop53
 90
        2
102
RTVSPost2010PropOp53
 70
     1
102
RTVSPost2010Prop54
  1
strokes_ogs.tif
102
RTVSPost2010PropOp54
 70
     1
102
RTVSPost2010Prop55
280
     0
102
RTVSPost2010PropOp55
 70
     1
102
RTVSPost2010Prop56
140
1.0
102
RTVSPost2010PropOp56
 70
     1
102
RTVSPost2010Prop57
140
1.0
102
RTVSPost2010PropOp57
 70
     1
102
RTVSPropertyOp0
 70
     1
102
RTVSPropertyOp1
 70
     1
102
RTVSPropertyOp2
 70
     1
102
RTVSPropertyOp3
 70
     1
102
RTVSPropertyOp4
 70
     1
102
RTVSPropertyOp5
 70
     1
102
RTVSPropertyOp6
 70
     1
102
RTVSPropertyOp7
 70
     1
102
RTVSPropertyOp8
 70
     1
102
RTVSPropertyOp9
 70
     1
102
RTVSPropertyOp10
 70
     1
102
RTVSPropertyOp11
 70
     1
102
RTVSPropertyOp12
 70
     1
102
RTVSPropertyOp13
 70
     1
102
RTVSPropertyOp14
 70
     1
102
RTVSPropertyOp15
 70
     1
102
RTVSPropertyOp16
 70
     1
102
RTVSPropertyOp17
 70
     1
102
RTVSPropertyOp18
 70
     1
102
RTVSPropertyOp19
 70
     1
102
RTVSPropertyOp20
 70
     1
102
RTVSPropertyOp21
 70
     1
102
RTVSPropertyOp22
 70
     1
102
RTVSPropertyOp23
 70
     1
102
RTVSPropertyOp24
 70
     1
102
RTVSPropertyOp25
 70
     1
102
RTVSPropertyOp26
 70
     1
102
RTVSPropertyOp27
 70
     1
102
RTVSPropertyOp28
 70
     1
102
RTVSPropertyOp29
 70
     1
102
RTVSPropertyOp30
 70
     1
102
RTVSPropertyOp31
 70
     1
102
RTVSPropertyOp32
 70
     1
102
RTVSPropertyOp33
 70
     1
102
RTVSPropertyOp34
 70
     1
102
RTVSPropertyOp35
 70
     1
102
RTVSPropertyOp36
 70
     1
102
RTVSPropertyOp37
 70
     1
102
RTVSPropertyOp38
 70
     1
102
RTVSPropertyOp39
 70
     1
102
RTVSPropertyOp40
 70
     1
102
RTVSPropertyOp41
 70
     1
102
RTVSPropertyOp42
 70
     1
102
RTVSPropertyOp43
 70
     1
102
RTVSPropertyOp44
 70
     1
102
RTVSPropertyOp45
 70
     1
102
RTVSPropertyOp46
 70
     1
102
RTVSPropertyOp47
 70
     1
102
RTVSPropertyOp48
 70
     1
102
RTVSPropertyOp49
 70
     1
102
RTVSPropertyOp50
 70
     1
102
RTVSPropertyOp51
 70
     0
102
RTVSPropertyOp52
 70
     0
102
RTVSPropertyOp53
 70
     1
102
RTVSPropertyOp54
 70
     1
102
RTVSPropertyOp55
 70
     1
102
RTVSPropertyOp56
 70
     1
102
RTVSPropertyOp57
 70
     1
102
RTVSPropertyOp58
 70
     1
102
RTVSPropertyOp59
 70
     1
102
RTVSPropertyOp60
 70
     1
102
RTVSPropertyOp61
 70
     1
102
RTVSPropertyOp62
 70
     1
  0
XRECORD
  5
2398
102
{ACAD_REACTORS
330
2397
102
}
330
2397
100
AcDbXrecord
280
     1
102
RTVSPost2010Prop28
280
     0
102
RTVSPost2010PropOp28
 70
     1
102
RTVSPost2010Prop29
280
     1
102
RTVSPost2010PropOp29
 70
     1
102
RTVSPost2010Prop30
280
     1
102
RTVSPost2010PropOp30
 70
     1
102
RTVSPost2010Prop31
280
     0
102
RTVSPost2010PropOp31
 70
     1
102
RTVSPost2010Prop32
280
     0
102
RTVSPost2010PropOp32
 70
     1
102
RTVSPost2010Prop33
280
     0
102
RTVSPost2010PropOp33
 70
     1
102
RTVSPost2010Prop34
280
     0
102
RTVSPost2010PropOp34
 70
     1
102
RTVSPost2010Prop35
280
     0
102
RTVSPost2010PropOp35
 70
     1
102
RTVSPost2010Prop36
280
     0
102
RTVSPost2010PropOp36
 70
     1
102
RTVSPost2010Prop37
 90
       50
102
RTVSPost2010PropOp37
 70
     1
102
RTVSPost2010Prop38
140
0.0
102
RTVSPost2010PropOp38
 70
     1
102
RTVSPost2010Prop39
140
1.0
102
RTVSPost2010PropOp39
 70
     1
102
RTVSPost2010Prop40
 90
        0
102
RTVSPost2010PropOp40
 70
     1
102
RTVSPost2010Prop41ColorIndex
 90
       18
102
RTVSPost2010Prop41ColorRGB
 90
        0
102
RTVSPost2010PropOp41
 70
     1
102
RTVSPost2010Prop42
 90
       50
102
RTVSPost2010PropOp42
 70
     1
102
RTVSPost2010Prop43
 90
        3
102
RTVSPost2010PropOp43
 70
     1
102
RTVSPost2010Prop44ColorIndex
 90
        5
102
RTVSPost2010Prop44ColorRGB
 90
      255
102
RTVSPost2010PropOp44
 70
     1
102
RTVSPost2010Prop45
280
     0
102
RTVSPost2010PropOp45
 70
     1
102
RTVSPost2010Prop46
 90
       50
102
RTVSPost2010PropOp46
 70
     1
102
RTVSPost2010Prop47
 90
       50
102
RTVSPost2010PropOp47
 70
     1
102
RTVSPost2010Prop48
 90
       50
102
RTVSPost2010PropOp48
 70
     1
102
RTVSPost2010Prop49
280
     0
102
RTVSPost2010PropOp49
 70
     1
102
RTVSPost2010Prop50
 90
       50
102
RTVSPost2010PropOp50
 70
     1
102
RTVSPost2010Prop51ColorIndex
 90
      256
102
RTVSPost2010Prop51ColorRGB
 90
-16777216
102
RTVSPost2010PropOp51
 70
     0
102
RTVSPost2010Prop52
140
1.0
102
RTVSPost2010PropOp52
 70
     0
102
RTVSPost2010Prop53
 90
        2
102
RTVSPost2010PropOp53
 70
     1
102
RTVSPost2010Prop54
  1
strokes_ogs.tif
102
RTVSPost2010PropOp54
 70
     1
102
RTVSPost2010Prop55
280
     0
102
RTVSPost2010PropOp55
 70
     1
102
RTVSPost2010Prop56
140
1.0
102
RTVSPost2010PropOp56
 70
     1
102
RTVSPost2010Prop57
140
1.0
102
RTVSPost2010PropOp57
 70
     1
102
RTVSPropertyOp0
 70
     1
102
RTVSPropertyOp1
 70
     1
102
RTVSPropertyOp2
 70
     1
102
RTVSPropertyOp3
 70
     1
102
RTVSPropertyOp4
 70
     1
102
RTVSPropertyOp5
 70
     1
102
RTVSPropertyOp6
 70
     1
102
RTVSPropertyOp7
 70
     1
102
RTVSPropertyOp8
 70
     1
102
RTVSPropertyOp9
 70
     1
102
RTVSPropertyOp10
 70
     1
102
RTVSPropertyOp11
 70
     1
102
RTVSPropertyOp12
 70
     1
102
RTVSPropertyOp13
 70
     1
102
RTVSPropertyOp14
 70
     1
102
RTVSPropertyOp15
 70
     1
102
RTVSPropertyOp16
 70
     1
102
RTVSPropertyOp17
 70
     1
102
RTVSPropertyOp18
 70
     1
102
RTVSPropertyOp19
 70
     1
102
RTVSPropertyOp20
 70
     1
102
RTVSPropertyOp21
 70
     1
102
RTVSPropertyOp22
 70
     1
102
RTVSPropertyOp23
 70
     1
102
RTVSPropertyOp24
 70
     1
102
RTVSPropertyOp25
 70
     1
102
RTVSPropertyOp26
 70
     1
102
RTVSPropertyOp27
 70
     1
102
RTVSPropertyOp28
 70
     1
102
RTVSPropertyOp29
 70
     1
102
RTVSPropertyOp30
 70
     1
102
RTVSPropertyOp31
 70
     1
102
RTVSPropertyOp32
 70
     1
102
RTVSPropertyOp33
 70
     1
102
RTVSPropertyOp34
 70
     1
102
RTVSPropertyOp35
 70
     1
102
RTVSPropertyOp36
 70
     1
102
RTVSPropertyOp37
 70
     1
102
RTVSPropertyOp38
 70
     1
102
RTVSPropertyOp39
 70
     1
102
RTVSPropertyOp40
 70
     1
102
RTVSPropertyOp41
 70
     1
102
RTVSPropertyOp42
 70
     1
102
RTVSPropertyOp43
 70
     1
102
RTVSPropertyOp44
 70
     1
102
RTVSPropertyOp45
 70
     1
102
RTVSPropertyOp46
 70
     1
102
RTVSPropertyOp47
 70
     1
102
RTVSPropertyOp48
 70
     1
102
RTVSPropertyOp49
 70
     1
102
RTVSPropertyOp50
 70
     1
102
RTVSPropertyOp51
 70
     0
102
RTVSPropertyOp52
 70
     0
102
RTVSPropertyOp53
 70
     1
102
RTVSPropertyOp54
 70
     1
102
RTVSPropertyOp55
 70
     1
102
RTVSPropertyOp56
 70
     1
102
RTVSPropertyOp57
 70
     1
102
RTVSPropertyOp58
 70
     1
102
RTVSPropertyOp59
 70
     1
102
RTVSPropertyOp60
 70
     1
102
RTVSPropertyOp61
 70
     1
102
RTVSPropertyOp62
 70
     1
  0
XRECORD
  5
23B0
102
{ACAD_REACTORS
330
23AF
102
}
330
23AF
100
AcDbXrecord
280
     1
102
RTVSPost2010Prop28
280
     0
102
RTVSPost2010PropOp28
 70
     1
102
RTVSPost2010Prop29
280
     1
102
RTVSPost2010PropOp29
 70
     1
102
RTVSPost2010Prop30
280
     1
102
RTVSPost2010PropOp30
 70
     1
102
RTVSPost2010Prop31
280
     0
102
RTVSPost2010PropOp31
 70
     1
102
RTVSPost2010Prop32
280
     0
102
RTVSPost2010PropOp32
 70
     1
102
RTVSPost2010Prop33
280
     0
102
RTVSPost2010PropOp33
 70
     1
102
RTVSPost2010Prop34
280
     0
102
RTVSPost2010PropOp34
 70
     1
102
RTVSPost2010Prop35
280
     0
102
RTVSPost2010PropOp35
 70
     1
102
RTVSPost2010Prop36
280
     0
102
RTVSPost2010PropOp36
 70
     1
102
RTVSPost2010Prop37
 90
       50
102
RTVSPost2010PropOp37
 70
     1
102
RTVSPost2010Prop38
140
0.0
102
RTVSPost2010PropOp38
 70
     1
102
RTVSPost2010Prop39
140
1.0
102
RTVSPost2010PropOp39
 70
     1
102
RTVSPost2010Prop40
 90
        0
102
RTVSPost2010PropOp40
 70
     1
102
RTVSPost2010Prop41ColorIndex
 90
       18
102
RTVSPost2010Prop41ColorRGB
 90
        0
102
RTVSPost2010PropOp41
 70
     1
102
RTVSPost2010Prop42
 90
       50
102
RTVSPost2010PropOp42
 70
     1
102
RTVSPost2010Prop43
 90
        3
102
RTVSPost2010PropOp43
 70
     1
102
RTVSPost2010Prop44ColorIndex
 90
        5
102
RTVSPost2010Prop44ColorRGB
 90
      255
102
RTVSPost2010PropOp44
 70
     1
102
RTVSPost2010Prop45
280
     0
102
RTVSPost2010PropOp45
 70
     1
102
RTVSPost2010Prop46
 90
       50
102
RTVSPost2010PropOp46
 70
     1
102
RTVSPost2010Prop47
 90
       50
102
RTVSPost2010PropOp47
 70
     1
102
RTVSPost2010Prop48
 90
       50
102
RTVSPost2010PropOp48
 70
     1
102
RTVSPost2010Prop49
280
     0
102
RTVSPost2010PropOp49
 70
     1
102
RTVSPost2010Prop50
 90
       50
102
RTVSPost2010PropOp50
 70
     1
102
RTVSPost2010Prop51ColorIndex
 90
      256
102
RTVSPost2010Prop51ColorRGB
 90
-16777216
102
RTVSPost2010PropOp51
 70
     0
102
RTVSPost2010Prop52
140
1.0
102
RTVSPost2010PropOp52
 70
     0
102
RTVSPost2010Prop53
 90
        2
102
RTVSPost2010PropOp53
 70
     1
102
RTVSPost2010Prop54
  1
strokes_ogs.tif
102
RTVSPost2010PropOp54
 70
     1
102
RTVSPost2010Prop55
280
     0
102
RTVSPost2010PropOp55
 70
     1
102
RTVSPost2010Prop56
140
1.0
102
RTVSPost2010PropOp56
 70
     1
102
RTVSPost2010Prop57
140
1.0
102
RTVSPost2010PropOp57
 70
     1
102
RTVSPropertyOp0
 70
     1
102
RTVSPropertyOp1
 70
     1
102
RTVSPropertyOp2
 70
     1
102
RTVSPropertyOp3
 70
     1
102
RTVSPropertyOp4
 70
     1
102
RTVSPropertyOp5
 70
     1
102
RTVSPropertyOp6
 70
     1
102
RTVSPropertyOp7
 70
     1
102
RTVSPropertyOp8
 70
     1
102
RTVSPropertyOp9
 70
     1
102
RTVSPropertyOp10
 70
     1
102
RTVSPropertyOp11
 70
     1
102
RTVSPropertyOp12
 70
     1
102
RTVSPropertyOp13
 70
     1
102
RTVSPropertyOp14
 70
     1
102
RTVSPropertyOp15
 70
     1
102
RTVSPropertyOp16
 70
     1
102
RTVSPropertyOp17
 70
     1
102
RTVSPropertyOp18
 70
     1
102
RTVSPropertyOp19
 70
     1
102
RTVSPropertyOp20
 70
     1
102
RTVSPropertyOp21
 70
     1
102
RTVSPropertyOp22
 70
     1
102
RTVSPropertyOp23
 70
     1
102
RTVSPropertyOp24
 70
     1
102
RTVSPropertyOp25
 70
     1
102
RTVSPropertyOp26
 70
     1
102
RTVSPropertyOp27
 70
     1
102
RTVSPropertyOp28
 70
     1
102
RTVSPropertyOp29
 70
     1
102
RTVSPropertyOp30
 70
     1
102
RTVSPropertyOp31
 70
     1
102
RTVSPropertyOp32
 70
     1
102
RTVSPropertyOp33
 70
     1
102
RTVSPropertyOp34
 70
     1
102
RTVSPropertyOp35
 70
     1
102
RTVSPropertyOp36
 70
     1
102
RTVSPropertyOp37
 70
     1
102
RTVSPropertyOp38
 70
     1
102
RTVSPropertyOp39
 70
     1
102
RTVSPropertyOp40
 70
     1
102
RTVSPropertyOp41
 70
     1
102
RTVSPropertyOp42
 70
     1
102
RTVSPropertyOp43
 70
     1
102
RTVSPropertyOp44
 70
     1
102
RTVSPropertyOp45
 70
     1
102
RTVSPropertyOp46
 70
     1
102
RTVSPropertyOp47
 70
     1
102
RTVSPropertyOp48
 70
     1
102
RTVSPropertyOp49
 70
     1
102
RTVSPropertyOp50
 70
     1
102
RTVSPropertyOp51
 70
     0
102
RTVSPropertyOp52
 70
     0
102
RTVSPropertyOp53
 70
     1
102
RTVSPropertyOp54
 70
     1
102
RTVSPropertyOp55
 70
     1
102
RTVSPropertyOp56
 70
     1
102
RTVSPropertyOp57
 70
     1
102
RTVSPropertyOp58
 70
     1
102
RTVSPropertyOp59
 70
     1
102
RTVSPropertyOp60
 70
     1
102
RTVSPropertyOp61
 70
     1
102
RTVSPropertyOp62
 70
     1
  0
ENDSEC
  0
EOF
