  0
SECTION
  2
HEADER
  9
$ACADVER
  1
AC1015
  9
$ACADMAINTVER
 70
    20
  9
$DWGCODEPAGE
  3
ANSI_932
  9
$INSBASE
 10
0.0
 20
0.0
 30
0.0
  9
$EXTMIN
 10
7.932248914129559
 20
10.0
 30
0.0
  9
$EXTMAX
 10
452.1677812881535
 20
302.7799069849318
 30
0.0
  9
$LIMMIN
 10
0.0000015376081137
 20
-0.0000001931532552
  9
$LIMMAX
 10
695.0000015376082
 20
479.1287876856345
  9
$ORTHOMODE
 70
     1
  9
$REGENMODE
 70
     1
  9
$FILLMODE
 70
     1
  9
$QTEXTMODE
 70
     0
  9
$MIRRTEXT
 70
     1
  9
$LTSCALE
 40
0.3
  9
$ATTMODE
 70
     1
  9
$TEXTSIZE
 40
2.5
  9
$TRACEWID
 40
1.0
  9
$TEXTSTYLE
  7
STANDARD
  9
$CLAYER
  8
0
  9
$CELTYPE
  6
BYLAYER
  9
$CECOLOR
 62
   256
  9
$CELTSCALE
 40
1.0
  9
$DISPSILH
 70
     0
  9
$DIMSCALE
 40
1.0
  9
$DIMASZ
 40
3.0
  9
$DIMEXO
 40
1.0
  9
$DIMDLI
 40
10.0
  9
$DIMRND
 40
0.0
  9
$DIMDLE
 40
0.0
  9
$DIMEXE
 40
1.0
  9
$DIMTP
 40
0.0
  9
$DIMTM
 40
0.0
  9
$DIMTXT
 40
3.2
  9
$DIMCEN
 40
0.0
  9
$DIMTSZ
 40
0.0
  9
$DIMTOL
 70
     0
  9
$DIMLIM
 70
     0
  9
$DIMTIH
 70
     0
  9
$DIMTOH
 70
     0
  9
$DIMSE1
 70
     0
  9
$DIMSE2
 70
     0
  9
$DIMTAD
 70
     3
  9
$DIMZIN
 70
     8
  9
$DIMBLK
  1

  9
$DIMASO
 70
     1
  9
$DIMSHO
 70
     1
  9
$DIMPOST
  1

  9
$DIMAPOST
  1

  9
$DIMALT
 70
     0
  9
$DIMALTD
 70
     2
  9
$DIMALTF
 40
25.4
  9
$DIMLFAC
 40
1.0
  9
$DIMTOFL
 70
     1
  9
$DIMTVP
 40
0.0
  9
$DIMTIX
 70
     0
  9
$DIMSOXD
 70
     0
  9
$DIMSAH
 70
     1
  9
$DIMBLK1
  1
OPEN
  9
$DIMBLK2
  1
OPEN
  9
$DIMSTYLE
  2
STANDARD
  9
$DIMCLRD
 70
     0
  9
$DIMCLRE
 70
     0
  9
$DIMCLRT
 70
     0
  9
$DIMTFAC
 40
1.0
  9
$DIMGAP
 40
1.0
  9
$DIMJUST
 70
     0
  9
$DIMSD1
 70
     0
  9
$DIMSD2
 70
     0
  9
$DIMTOLJ
 70
     1
  9
$DIMTZIN
 70
     0
  9
$DIMALTZ
 70
     0
  9
$DIMALTTZ
 70
     0
  9
$DIMUPT
 70
     0
  9
$DIMDEC
 70
     4
  9
$DIMTDEC
 70
     4
  9
$DIMALTU
 70
     2
  9
$DIMALTTD
 70
     2
  9
$DIMTXSTY
  7
STANDARD
  9
$DIMAUNIT
 70
     0
  9
$DIMADEC
 70
     0
  9
$DIMALTRND
 40
0.0
  9
$DIMAZIN
 70
     0
  9
$DIMDSEP
 70
    46
  9
$DIMATFIT
 70
     3
  9
$DIMFRAC
 70
     0
  9
$DIMLDRBLK
  1
OPEN
  9
$DIMLUNIT
 70
     2
  9
$DIMLWD
 70
    -2
  9
$DIMLWE
 70
    -2
  9
$DIMTMOVE
 70
     0
  9
$LUNITS
 70
     2
  9
$LUPREC
 70
     4
  9
$SKETCHINC
 40
1.0
  9
$FILLETRAD
 40
1.0
  9
$AUNITS
 70
     0
  9
$AUPREC
 70
     0
  9
$MENU
  1
.
  9
$ELEVATION
 40
0.0
  9
$PELEVATION
 40
0.0
  9
$THICKNESS
 40
0.0
  9
$LIMCHECK
 70
     0
  9
$CHAMFERA
 40
10.0
  9
$CHAMFERB
 40
10.0
  9
$CHAMFERC
 40
20.0
  9
$CHAMFERD
 40
0.0
  9
$SKPOLY
 70
     0
  9
$TDCREATE
 40
2453028.673886898
  9
$TDUCREATE
 40
2453028.298886898
  9
$TDUPDATE
 40
2457192.643709387
  9
$TDUUPDATE
 40
2457192.268709387
  9
$TDINDWG
 40
0.1086934954
  9
$TDUSRTIMER
 40
0.1086934838
  9
$USRTIMER
 70
     1
  9
$ANGBASE
 50
0.0
  9
$ANGDIR
 70
     0
  9
$PDMODE
 70
     0
  9
$PDSIZE
 40
0.0
  9
$PLINEWID
 40
0.0
  9
$SPLFRAME
 70
     0
  9
$SPLINETYPE
 70
     6
  9
$SPLINESEGS
 70
     8
  9
$HANDSEED
  5
30C6
  9
$SURFTAB1
 70
     6
  9
$SURFTAB2
 70
     6
  9
$SURFTYPE
 70
     6
  9
$SURFU
 70
     6
  9
$SURFV
 70
     6
  9
$UCSBASE
  2

  9
$UCSNAME
  2

  9
$UCSORG
 10
0.0
 20
0.0
 30
0.0
  9
$UCSXDIR
 10
1.0
 20
0.0
 30
0.0
  9
$UCSYDIR
 10
0.0
 20
1.0
 30
0.0
  9
$UCSORTHOREF
  2

  9
$UCSORTHOVIEW
 70
     0
  9
$UCSORGTOP
 10
0.0
 20
0.0
 30
0.0
  9
$UCSORGBOTTOM
 10
0.0
 20
0.0
 30
0.0
  9
$UCSORGLEFT
 10
0.0
 20
0.0
 30
0.0
  9
$UCSORGRIGHT
 10
0.0
 20
0.0
 30
0.0
  9
$UCSORGFRONT
 10
0.0
 20
0.0
 30
0.0
  9
$UCSORGBACK
 10
0.0
 20
0.0
 30
0.0
  9
$PUCSBASE
  2

  9
$PUCSNAME
  2

  9
$PUCSORG
 10
0.0
 20
0.0
 30
0.0
  9
$PUCSXDIR
 10
1.0
 20
0.0
 30
0.0
  9
$PUCSYDIR
 10
0.0
 20
1.0
 30
0.0
  9
$PUCSORTHOREF
  2

  9
$PUCSORTHOVIEW
 70
     0
  9
$PUCSORGTOP
 10
0.0
 20
0.0
 30
0.0
  9
$PUCSORGBOTTOM
 10
0.0
 20
0.0
 30
0.0
  9
$PUCSORGLEFT
 10
0.0
 20
0.0
 30
0.0
  9
$PUCSORGRIGHT
 10
0.0
 20
0.0
 30
0.0
  9
$PUCSORGFRONT
 10
0.0
 20
0.0
 30
0.0
  9
$PUCSORGBACK
 10
0.0
 20
0.0
 30
0.0
  9
$USERI1
 70
     0
  9
$USERI2
 70
     0
  9
$USERI3
 70
     0
  9
$USERI4
 70
     0
  9
$USERI5
 70
     0
  9
$USERR1
 40
0.0
  9
$USERR2
 40
0.0
  9
$USERR3
 40
0.0
  9
$USERR4
 40
0.0
  9
$USERR5
 40
0.0
  9
$WORLDVIEW
 70
     1
  9
$SHADEDGE
 70
     3
  9
$SHADEDIF
 70
    70
  9
$TILEMODE
 70
     1
  9
$MAXACTVP
 70
    48
  9
$PINSBASE
 10
0.0
 20
0.0
 30
0.0
  9
$PLIMCHECK
 70
     0
  9
$PEXTMIN
 10
1.000000000000000E+20
 20
1.000000000000000E+20
 30
1.000000000000000E+20
  9
$PEXTMAX
 10
-1.000000000000000E+20
 20
-1.000000000000000E+20
 30
-1.000000000000000E+20
  9
$PLIMMIN
 10
0.0
 20
0.0
  9
$PLIMMAX
 10
420.0
 20
297.0
  9
$UNITMODE
 70
     0
  9
$VISRETAIN
 70
     1
  9
$PLINEGEN
 70
     0
  9
$PSLTSCALE
 70
     1
  9
$TREEDEPTH
 70
  3020
  9
$CMLSTYLE
  2
STANDARD
  9
$CMLJUST
 70
     0
  9
$CMLSCALE
 40
20.0
  9
$PROXYGRAPHICS
 70
     1
  9
$MEASUREMENT
 70
     0
  9
$CELWEIGHT
370
    -1
  9
$ENDCAPS
280
     0
  9
$JOINSTYLE
280
     0
  9
$LWDISPLAY
290
     0
  9
$INSUNITS
 70
     0
  9
$HYPERLINKBASE
  1

  9
$STYLESHEET
  1

  9
$XEDIT
290
     1
  9
$CEPSNTYPE
380
     0
  9
$PSTYLEMODE
290
     1
  9
$FINGERPRINTGUID
  2
{D6C92314-99F8-473A-AE8F-4D1808FB2CEB}
  9
$VERSIONGUID
  2
{60C69961-F768-45B3-B722-FC33160C46C5}
  9
$EXTNAMES
290
     1
  9
$PSVPSCALE
 40
0.0
  9
$OLESTARTUP
290
     0
  0
ENDSEC
  0
SECTION
  2
CLASSES
  0
CLASS
  1
ACDBDICTIONARYWDFLT
  2
AcDbDictionaryWithDefault
  3
ObjectDBX Classes
 90
        0
280
     0
281
     0
  0
CLASS
  1
ACDBPLACEHOLDER
  2
AcDbPlaceHolder
  3
ObjectDBX Classes
 90
        0
280
     0
281
     0
  0
CLASS
  1
LAYOUT
  2
AcDbLayout
  3
ObjectDBX Classes
 90
        0
280
     0
281
     0
  0
CLASS
  1
DICTIONARYVAR
  2
AcDbDictionaryVar
  3
ObjectDBX Classes
 90
        0
280
     0
281
     0
  0
CLASS
  1
MATERIAL
  2
AcDbMaterial
  3
ObjectDBX Classes
 90
     1153
280
     0
281
     0
  0
CLASS
  1
VISUALSTYLE
  2
AcDbVisualStyle
  3
ObjectDBX Classes
 90
     4095
280
     0
281
     0
  0
CLASS
  1
TABLESTYLE
  2
AcDbTableStyle
  3
ObjectDBX Classes
 90
     4095
280
     0
281
     0
  0
CLASS
  1
SCALE
  2
AcDbScale
  3
ObjectDBX Classes
 90
     1153
280
     0
281
     0
  0
CLASS
  1
MLEADERSTYLE
  2
AcDbMLeaderStyle
  3
ACDB_MLEADERSTYLE_CLASS
 90
     4095
280
     0
281
     0
  0
CLASS
  1
ACDBSECTIONVIEWSTYLE
  2
AcDbSectionViewStyle
  3
ObjectDBX Classes
 90
     1025
280
     0
281
     0
  0
CLASS
  1
ACDBDETAILVIEWSTYLE
  2
AcDbDetailViewStyle
  3
ObjectDBX Classes
 90
     1025
280
     0
281
     0
  0
CLASS
  1
CELLSTYLEMAP
  2
AcDbCellStyleMap
  3
ObjectDBX Classes
 90
     1152
280
     0
281
     0
  0
ENDSEC
  0
SECTION
  2
TABLES
  0
TABLE
  2
VPORT
  5
8
330
0
100
AcDbSymbolTable
 70
     1
  0
VPORT
  5
3010
330
8
100
AcDbSymbolTableRecord
100
AcDbViewportTableRecord
  2
*ACTIVE
 70
     0
 10
0.0
 20
0.0
 11
1.0
 21
1.0
 12
318.7203649615558
 22
156.3843443485388
 13
0.0
 23
0.0
 14
10.0
 24
10.0
 15
10.0
 25
10.0
 16
0.0
 26
0.0
 36
1.0
 17
0.0
 27
0.0
 37
0.0
 40
296.1143398480906
 41
1.899603698811096
 42
50.0
 43
0.0
 44
0.0
 50
0.0
 51
0.0
 71
     0
 72
   100
 73
     1
 74
     0
 75
     0
 76
     0
 77
     0
 78
     0
281
     0
 65
     1
110
0.0
120
0.0
130
0.0
111
1.0
121
0.0
131
0.0
112
0.0
122
1.0
132
0.0
 79
     0
146
0.0
1001
ACAD_NAV_VCDISPLAY
1070
     3
  0
ENDTAB
  0
TABLE
  2
LTYPE
  5
5
330
0
100
AcDbSymbolTable
 70
     4
  0
LTYPE
  5
12
330
5
100
AcDbSymbolTableRecord
100
AcDbLinetypeTableRecord
  2
BYBLOCK
 70
     0
  3

 72
    65
 73
     0
 40
0.0
  0
LTYPE
  5
13
330
5
100
AcDbSymbolTableRecord
100
AcDbLinetypeTableRecord
  2
BYLAYER
 70
     0
  3

 72
    65
 73
     0
 40
0.0
  0
LTYPE
  5
14
330
5
100
AcDbSymbolTableRecord
100
AcDbLinetypeTableRecord
  2
CONTINUOUS
 70
     0
  3
Solid line
 72
    65
 73
     0
 40
0.0
  0
LTYPE
  5
4B
330
5
100
AcDbSymbolTableRecord
100
AcDbLinetypeTableRecord
  2
DASHED
 70
     0
  3
Dashed __ __ __ __ __ __ __ __ __ __ __ __ __ _
 72
    65
 73
     2
 40
19.04999999999999
 49
12.7
 74
     0
 49
-6.349999999999998
 74
     0
  0
LTYPE
  5
4C
330
5
100
AcDbSymbolTableRecord
100
AcDbLinetypeTableRecord
  2
CENTER
 70
     0
  3
Center ____ _ ____ _ ____ _ ____ _ ____ _ ____
 72
    65
 73
     4
 40
50.8
 49
31.75
 74
     0
 49
-6.349999999999998
 74
     0
 49
6.349999999999998
 74
     0
 49
-6.349999999999998
 74
     0
  0
LTYPE
  5
4D
330
5
100
AcDbSymbolTableRecord
100
AcDbLinetypeTableRecord
  2
PHANTOM
 70
     0
  3
Phantom ______  __  __  ______  __  __  ______
 72
    65
 73
     6
 40
63.5
 49
31.75
 74
     0
 49
-6.349999999999998
 74
     0
 49
6.349999999999998
 74
     0
 49
-6.349999999999998
 74
     0
 49
6.349999999999998
 74
     0
 49
-6.349999999999998
 74
     0
  0
ENDTAB
  0
TABLE
  2
LAYER
  5
2
330
0
100
AcDbSymbolTable
 70
     8
  0
LAYER
  5
E
102
{ACAD_XDICTIONARY
360
306A
102
}
330
2
100
AcDbSymbolTableRecord
100
AcDbLayerTableRecord
  2
0
 70
     0
 62
     7
  6
CONTINUOUS
370
    -3
390
3019
  0
LAYER
  5
4E
102
{ACAD_XDICTIONARY
360
306C
102
}
330
2
100
AcDbSymbolTableRecord
100
AcDbLayerTableRecord
  2
4
 70
     0
 62
     1
  6
CENTER
370
    -3
390
3019
  0
LAYER
  5
4F
102
{ACAD_XDICTIONARY
360
306E
102
}
330
2
100
AcDbSymbolTableRecord
100
AcDbLayerTableRecord
  2
5
 70
     0
 62
     6
  6
PHANTOM
370
    -3
390
3019
  0
LAYER
  5
50
102
{ACAD_XDICTIONARY
360
3070
102
}
330
2
100
AcDbSymbolTableRecord
100
AcDbLayerTableRecord
  2
1
 70
     0
 62
     7
  6
CONTINUOUS
370
    -3
390
3019
  0
LAYER
  5
51
102
{ACAD_XDICTIONARY
360
3072
102
}
330
2
100
AcDbSymbolTableRecord
100
AcDbLayerTableRecord
  2
2
 70
     0
 62
     4
  6
CONTINUOUS
370
    -3
390
3019
  0
LAYER
  5
52
102
{ACAD_XDICTIONARY
360
3074
102
}
330
2
100
AcDbSymbolTableRecord
100
AcDbLayerTableRecord
  2
3
 70
     0
 62
     2
  6
DASHED
370
    -3
390
3019
  0
LAYER
  5
53
102
{ACAD_XDICTIONARY
360
3076
102
}
330
2
100
AcDbSymbolTableRecord
100
AcDbLayerTableRecord
  2
6
 70
     0
 62
     5
  6
CONTINUOUS
370
    -3
390
3019
  0
LAYER
  5
54
102
{ACAD_XDICTIONARY
360
3078
102
}
330
2
100
AcDbSymbolTableRecord
100
AcDbLayerTableRecord
  2
7
 70
     0
 62
     3
  6
CONTINUOUS
370
    -3
390
3019
  0
ENDTAB
  0
TABLE
  2
STYLE
  5
3
330
0
100
AcDbSymbolTable
 70
     1
  0
STYLE
  5
F
330
3
100
AcDbSymbolTableRecord
100
AcDbTextStyleTableRecord
  2
STANDARD
 70
     0
 40
0.0
 41
1.0
 50
0.0
 71
     0
 42
2.5
  3
simplex.shx
  4

  0
ENDTAB
  0
TABLE
  2
VIEW
  5
6
330
0
100
AcDbSymbolTable
 70
     0
  0
ENDTAB
  0
TABLE
  2
UCS
  5
7
330
0
100
AcDbSymbolTable
 70
     0
  0
ENDTAB
  0
TABLE
  2
APPID
  5
9
330
0
100
AcDbSymbolTable
 70
     7
  0
APPID
  5
10
330
9
100
AcDbSymbolTableRecord
100
AcDbRegAppTableRecord
  2
ACAD
 70
     0
  0
APPID
  5
3E
330
9
100
AcDbSymbolTableRecord
100
AcDbRegAppTableRecord
  2
CONTENTTABDATA
 70
     0
  0
APPID
  5
3F
330
9
100
AcDbSymbolTableRecord
100
AcDbRegAppTableRecord
  2
CONTENTCURRENTTAB
 70
     0
  0
APPID
  5
2FE1
330
9
100
AcDbSymbolTableRecord
100
AcDbRegAppTableRecord
  2
CONTENTBLOCKICON
 70
     0
  0
APPID
  5
2FE2
330
9
100
AcDbSymbolTableRecord
100
AcDbRegAppTableRecord
  2
CONTENTBLOCKDESCRIPTION
 70
     0
  0
APPID
  5
3084
330
9
100
AcDbSymbolTableRecord
100
AcDbRegAppTableRecord
  2
ACAD_NAV_VCDISPLAY
 70
     0
  0
APPID
  5
30BD
330
9
100
AcDbSymbolTableRecord
100
AcDbRegAppTableRecord
  2
ACAD_MLEADERVER
 70
     0
  0
ENDTAB
  0
TABLE
  2
DIMSTYLE
  5
A
330
0
100
AcDbSymbolTable
 70
     1
100
AcDbDimStyleTable
 71
     0
  0
DIMSTYLE
105
1D
330
A
100
AcDbSymbolTableRecord
100
AcDbDimStyleTableRecord
  2
STANDARD
 70
     0
 41
3.0
 42
1.0
 43
10.0
 44
1.0
 73
     0
 74
     0
 77
     3
 78
     8
140
3.2
141
0.0
147
1.0
172
     1
173
     1
340
F
341
2E
343
2E
344
2E
  0
ENDTAB
  0
TABLE
  2
BLOCK_RECORD
  5
1
330
0
100
AcDbSymbolTable
 70
     1
  0
BLOCK_RECORD
  5
18
102
{ACAD_XDICTIONARY
360
3013
102
}
330
1
100
AcDbSymbolTableRecord
100
AcDbBlockTableRecord
  2
*MODEL_SPACE
340
3067
  0
BLOCK_RECORD
  5
15
102
{ACAD_XDICTIONARY
360
3011
102
}
330
1
100
AcDbSymbolTableRecord
100
AcDbBlockTableRecord
  2
*PAPER_SPACE
340
3068
  0
BLOCK_RECORD
  5
2E
330
1
100
AcDbSymbolTableRecord
100
AcDbBlockTableRecord
  2
_OPEN
340
0
  0
ENDTAB
  0
ENDSEC
  0
SECTION
  2
BLOCKS
  0
BLOCK
  5
19
330
18
100
AcDbEntity
  8
0
100
AcDbBlockBegin
  2
*MODEL_SPACE
 70
     0
 10
0.0
 20
0.0
 30
0.0
  3
*MODEL_SPACE
  1

  0
ENDBLK
  5
1A
330
18
100
AcDbEntity
  8
0
100
AcDbBlockEnd
  0
BLOCK
  5
16
330
15
100
AcDbEntity
 67
     1
  8
0
100
AcDbBlockBegin
  2
*PAPER_SPACE
 70
     0
 10
0.0
 20
0.0
 30
0.0
  3
*PAPER_SPACE
  1

  0
ENDBLK
  5
17
330
15
100
AcDbEntity
 67
     1
  8
0
100
AcDbBlockEnd
  0
BLOCK
  5
2F
330
2E
100
AcDbEntity
  8
0
100
AcDbBlockBegin
  2
_OPEN
 70
     0
 10
0.0
 20
0.0
 30
0.0
  3
_OPEN
  1

  0
LINE
  5
30
330
2E
100
AcDbEntity
  8
0
  6
ByBlock
 62
     0
100
AcDbLine
 10
-1.0
 20
0.1666666666666666
 30
0.0
 11
0.0
 21
0.0
 31
0.0
  0
LINE
  5
31
330
2E
100
AcDbEntity
  8
0
  6
ByBlock
 62
     0
100
AcDbLine
 10
0.0
 20
0.0
 30
0.0
 11
-1.0
 21
-0.1666666666666666
 31
0.0
  0
LINE
  5
32
330
2E
100
AcDbEntity
  8
0
  6
ByBlock
 62
     0
100
AcDbLine
 10
0.0
 20
0.0
 30
0.0
 11
-1.0
 21
0.0
 31
0.0
  0
ENDBLK
  5
33
330
2E
100
AcDbEntity
  8
0
100
AcDbBlockEnd
  0
ENDSEC
  0
SECTION
  2
ENTITIES
  0
TEXT
  5
63
330
18
100
AcDbEntity
  8
4
  6
CENTER
 48
0.25
100
AcDbText
 10
23.97950852663849
 20
10.0
 30
0.0
 40
1.399999999999999
  1
4
100
AcDbText
  0
TEXT
  5
64
330
18
100
AcDbEntity
  8
7
  6
Continuous
 48
0.25
100
AcDbText
 10
9.999997526638502
 20
26.0000007607689
 30
0.0
 40
3.0
  1
CODE No.13276
100
AcDbText
  0
TEXT
  5
65
330
18
100
AcDbEntity
  8
7
  6
Continuous
 48
0.25
100
AcDbText
 10
9.999997526638502
 20
18.00000076076889
 30
0.0
 40
3.0
  1
TYPE No.THA-506-3K
100
AcDbText
  0
TEXT
  5
66
330
18
100
AcDbEntity
  8
1
  6
Continuous
 48
0.25
100
AcDbText
 10
9.999997526638502
 20
10.00000076076889
 30
0.0
 40
1.399999999999999
  1
LAYER
100
AcDbText
  0
TEXT
  5
67
330
18
100
AcDbEntity
  8
2
  6
Continuous
 48
0.25
100
AcDbText
 10
19.9795085266385
 20
10.0
 30
0.0
 40
1.399999999999999
  1
2
100
AcDbText
  0
TEXT
  5
68
330
18
100
AcDbEntity
  8
3
  6
DASHED
 48
0.25
100
AcDbText
 10
21.9795085266385
 20
10.0
 30
0.0
 40
1.399999999999999
  1
3
100
AcDbText
  0
TEXT
  5
69
330
18
100
AcDbEntity
  8
1
  6
Continuous
 48
0.25
100
AcDbText
 10
17.9795085266385
 20
10.0
 30
0.0
 40
1.399999999999999
  1
1
100
AcDbText
  0
TEXT
  5
6A
330
18
100
AcDbEntity
  8
5
  6
PHANTOM
 48
0.25
100
AcDbText
 10
25.9795085266385
 20
10.0
 30
0.0
 40
1.399999999999999
  1
5
100
AcDbText
  0
TEXT
  5
6B
330
18
100
AcDbEntity
  8
6
  6
Continuous
 48
0.25
100
AcDbText
 10
27.9795085266385
 20
10.0
 30
0.0
 40
1.399999999999999
  1
6
100
AcDbText
  0
TEXT
  5
6C
330
18
100
AcDbEntity
  8
7
  6
Continuous
 48
0.25
100
AcDbText
 10
29.9795085266385
 20
10.0
 30
0.0
 40
1.399999999999999
  1
7
100
AcDbText
  0
LINE
  5
1B6
330
18
100
AcDbEntity
  8
4
  6
CENTER
100
AcDbLine
 10
131.4522581280816
 20
182.1144334576859
 30
0.0
 11
168.0564555939581
 21
182.114433457694
 31
0.0
  0
LINE
  5
1B7
330
18
100
AcDbEntity
  8
5
  6
PHANTOM
100
AcDbLine
 10
130.8259819984103
 20
156.4464573006167
 30
0.0
 11
120.507384814858
 21
146.1278601170643
 31
0.0
  0
LINE
  5
1B9
330
18
100
AcDbEntity
  8
5
  6
PHANTOM
100
AcDbLine
 10
137.5307431234069
 20
186.6271635610067
 30
0.0
 11
91.51084496444026
 21
140.6072654020398
 31
0.0
  0
LINE
  5
1BA
330
18
100
AcDbEntity
  8
1
  6
Continuous
100
AcDbLine
 10
135.8346652442257
 20
181.6963975731304
 30
0.0
 11
135.8346652442257
 21
116.614433457691
 31
0.0
  0
CIRCLE
  5
1BB
330
18
100
AcDbEntity
  8
1
  6
Continuous
100
AcDbCircle
 10
25.54092993662357
 20
148.1144334576989
 30
0.0
 40
7.65
  0
CIRCLE
  5
1BC
330
18
100
AcDbEntity
  8
1
  6
Continuous
100
AcDbCircle
 10
25.54092993662357
 20
148.114433457691
 30
0.0
 40
7.799999999999998
  0
LINE
  5
1BD
330
18
100
AcDbEntity
  8
1
  6
Continuous
100
AcDbLine
 10
34.94092993662354
 20
182.114433457691
 30
0.0
 11
34.94092993662354
 21
119.4475139187842
 31
0.0
  0
LINE
  5
1BE
330
18
100
AcDbEntity
  8
1
  6
Continuous
100
AcDbLine
 10
16.14092993662359
 20
182.114433457691
 30
0.0
 11
16.14092993662359
 21
119.447513918784
 31
0.0
  0
LINE
  5
1BF
330
18
100
AcDbEntity
  8
1
  6
Continuous
100
AcDbLine
 10
138.8346652442257
 20
199.8426755932202
 30
0.0
 11
138.8346652442257
 21
128.3861913221798
 31
0.0
  0
LINE
  5
1C0
330
18
100
AcDbEntity
  8
1
  6
Continuous
100
AcDbLine
 10
154.4346652442259
 20
158.114433457704
 30
0.0
 11
154.4346652442259
 21
138.3759820649772
 31
0.0
  0
LINE
  5
1C1
330
18
100
AcDbEntity
  8
1
  6
Continuous
100
AcDbLine
 10
145.8346652442259
 20
207.1144334576918
 30
0.0
 11
145.8346652442259
 21
121.1144334576919
 31
0.0
  0
LINE
  5
1C3
330
18
100
AcDbEntity
  8
1
  6
Continuous
100
AcDbLine
 10
35.44092993658728
 20
181.6644334577571
 30
0.0
 11
35.44092993658728
 21
121.1144334576867
 31
0.0
  0
LINE
  5
1C4
330
18
100
AcDbEntity
  8
1
  6
Continuous
100
AcDbLine
 10
15.64092993658732
 20
181.6644334577571
 30
0.0
 11
15.64092993658732
 21
121.114433457676
 31
0.0
  0
LINE
  5
1C5
330
18
100
AcDbEntity
  8
1
  6
Continuous
100
AcDbLine
 10
39.5409299365873
 20
206.1144334576884
 30
0.0
 11
39.5409299365873
 21
122.1144334576884
 31
0.0
  0
LINE
  5
1C6
330
18
100
AcDbEntity
  8
1
  6
Continuous
100
AcDbLine
 10
11.5409299365873
 20
206.1144334576744
 30
0.0
 11
11.5409299365873
 21
122.1144334576744
 31
0.0
  0
LINE
  5
1C7
330
18
100
AcDbEntity
  8
1
  6
Continuous
100
AcDbLine
 10
16.14092993662359
 20
121.1144334576764
 30
0.0
 11
12.54092993658787
 21
121.1144334576744
 31
0.0
  0
ARC
  5
1C8
330
18
100
AcDbEntity
  8
1
  6
Continuous
100
AcDbCircle
 10
25.54092993659299
 20
110.6144334576814
 30
0.0
 40
17.49999999999998
100
AcDbArc
 50
124.4519072966346
 51
138.9176668595174
  0
ARC
  5
1C9
330
18
100
AcDbEntity
  8
1
  6
Continuous
100
AcDbCircle
 10
12.5409299365873
 20
122.1144334576744
 30
0.0
 40
1.0
100
AcDbArc
 50
180.0
 51
270.0
  0
ARC
  5
1CA
330
18
100
AcDbEntity
  8
1
  6
Continuous
100
AcDbCircle
 10
25.54092993662357
 20
143.6144334576911
 30
0.0
 40
28.0
100
AcDbArc
 50
255.1671520791898
 51
284.83284792081
  0
ARC
  5
1CB
330
18
100
AcDbEntity
  8
1
  6
Continuous
100
AcDbCircle
 10
19.14092993662359
 20
119.447513918784
 30
0.0
 40
3.0
100
AcDbArc
 50
180.0
 51
255.1671520791898
  0
ARC
  5
1CC
330
18
100
AcDbEntity
  8
1
  6
Continuous
100
AcDbCircle
 10
31.94092993662354
 20
119.4475139187842
 30
0.0
 40
3.0
100
AcDbArc
 50
284.83284792081
 51
0.0
  0
LINE
  5
1CD
330
18
100
AcDbEntity
  8
1
  6
Continuous
100
AcDbLine
 10
38.54092993658787
 20
121.1144334576884
 30
0.0
 11
34.94092993662354
 21
121.1144334576864
 31
0.0
  0
ARC
  5
1CE
330
18
100
AcDbEntity
  8
1
  6
Continuous
100
AcDbCircle
 10
25.54092993659299
 20
110.6144334576814
 30
0.0
 40
17.49999999999998
100
AcDbArc
 50
41.08233314048257
 51
55.54809270341038
  0
ARC
  5
1CF
330
18
100
AcDbEntity
  8
1
  6
Continuous
100
AcDbCircle
 10
38.54092993658736
 20
122.1144334576884
 30
0.0
 40
1.0
100
AcDbArc
 50
270.0
 51
0.0
  0
LINE
  5
1D1
330
18
100
AcDbEntity
  8
4
  6
CENTER
100
AcDbLine
 10
36.51210116034008
 20
148.114433457691
 30
0.0
 11
14.37066804902542
 21
148.114433457691
 31
0.0
  0
ARC
  5
1D2
330
18
100
AcDbEntity
  8
1
  6
Continuous
100
AcDbCircle
 10
18.14092993658732
 20
138.1184587168209
 30
0.0
 40
2.5
100
AcDbArc
 50
180.0
 51
216.8698976472321
  0
LINE
  5
1D5
330
18
100
AcDbEntity
  8
1
  6
Continuous
100
AcDbLine
 10
26.59092993662352
 20
144.764433457699
 30
0.0
 11
26.59092993662352
 21
151.764433457699
 31
0.0
  0
LINE
  5
1D6
330
18
100
AcDbEntity
  8
1
  6
Continuous
100
AcDbLine
 10
24.49092993662356
 20
144.764433457699
 30
0.0
 11
24.49092993662356
 21
151.764433457699
 31
0.0
  0
LINE
  5
1D7
330
18
100
AcDbEntity
  8
1
  6
Continuous
100
AcDbLine
 10
26.59092993662352
 20
144.764433457699
 30
0.0
 11
24.49092993662356
 21
144.764433457699
 31
0.0
  0
LINE
  5
1DB
330
18
100
AcDbEntity
  8
1
  6
Continuous
100
AcDbLine
 10
26.59092993662352
 20
151.764433457699
 30
0.0
 11
24.49092993662356
 21
151.764433457699
 31
0.0
  0
ARC
  5
1E5
330
18
100
AcDbEntity
  8
1
  6
Continuous
100
AcDbCircle
 10
32.94092993658728
 20
138.1184587168289
 30
0.0
 40
2.5
100
AcDbArc
 50
323.1301023555425
 51
0.0
  0
LINE
  5
1E6
330
18
100
AcDbEntity
  8
5
  6
PHANTOM
100
AcDbLine
 10
93.63216530799991
 20
138.4859450584802
 30
0.0
 11
100.9488774434534
 21
145.8026571939337
 31
0.0
  0
ARC
  5
1E7
330
18
100
AcDbEntity
  8
5
  6
PHANTOM
100
AcDbCircle
 10
92.21795174562684
 20
139.9001586208533
 30
0.0
 40
1.0
100
AcDbArc
 50
134.9999999999994
 51
225.0000000000006
  0
ARC
  5
1E8
330
18
100
AcDbEntity
  8
5
  6
PHANTOM
100
AcDbCircle
 10
92.92505852681335
 20
139.1930518396667
 30
0.0
 40
1.0
100
AcDbArc
 50
225.0000000000006
 51
314.9999999999994
  0
LINE
  5
1E9
330
18
100
AcDbEntity
  8
5
  6
PHANTOM
100
AcDbLine
 10
91.51084496444026
 20
139.1930518396667
 30
0.0
 11
92.21795174562684
 21
138.4859450584802
 31
0.0
  0
ARC
  5
1EA
330
18
100
AcDbEntity
  8
5
  6
PHANTOM
100
AcDbCircle
 10
117.6789576901118
 20
148.9562872418106
 30
0.0
 40
4.0
100
AcDbArc
 50
233.0339029522765
 51
314.9999999999994
  0
ARC
  5
1EB
330
18
100
AcDbEntity
  8
5
  6
PHANTOM
100
AcDbCircle
 10
108.0199452553188
 20
138.7315893820682
 30
0.0
 40
10.0
100
AcDbArc
 50
51.41399766633306
 51
134.9999999999994
  0
LINE
  5
1EC
330
18
100
AcDbEntity
  8
5
  6
PHANTOM
100
AcDbLine
 10
100.826321858274
 20
145.6801016087543
 30
0.0
 11
100.8569880208972
 21
145.7107677713775
 31
0.0
  0
ARC
  5
1ED
330
18
100
AcDbEntity
  8
5
  6
PHANTOM
100
AcDbCircle
 10
142.6346652442258
 20
182.1144334576884
 30
0.0
 40
45.49999999999999
100
AcDbArc
 50
231.4139976663331
 51
233.0339029522765
  0
LINE
  5
1EE
330
18
100
AcDbEntity
  8
1
  6
Continuous
100
AcDbLine
 10
149.3346652442258
 20
131.6144334576921
 30
0.0
 11
149.3346652442258
 21
124.6144334576922
 31
0.0
  0
LINE
  5
1EF
330
18
100
AcDbEntity
  8
1
  6
Continuous
100
AcDbLine
 10
149.8346652442259
 20
125.1144334576921
 30
0.0
 11
149.8346652442259
 21
131.1144334576922
 31
0.0
  0
LINE
  5
1F0
330
18
100
AcDbEntity
  8
4
  6
CENTER
100
AcDbLine
 10
153.9249134927858
 20
128.1144334576923
 30
0.0
 11
141.6817180945253
 21
128.1144334576918
 31
0.0
  0
LINE
  5
1F1
330
18
100
AcDbEntity
  8
1
  6
Continuous
100
AcDbLine
 10
138.8346652442257
 20
116.614433457691
 30
0.0
 11
138.8346652442257
 21
126.8318757240115
 31
0.0
  0
LINE
  5
1F2
330
18
100
AcDbEntity
  8
1
  6
Continuous
100
AcDbLine
 10
136.8346652442257
 20
115.614433457691
 30
0.0
 11
137.8346652442257
 21
115.614433457691
 31
0.0
  0
ARC
  5
1F3
330
18
100
AcDbEntity
  8
1
  6
Continuous
100
AcDbCircle
 10
136.8346652442257
 20
116.614433457691
 30
0.0
 40
1.0
100
AcDbArc
 50
180.0
 51
270.0
  0
ARC
  5
1F4
330
18
100
AcDbEntity
  8
1
  6
Continuous
100
AcDbCircle
 10
137.8346652442257
 20
116.614433457691
 30
0.0
 40
1.0
100
AcDbArc
 50
270.0
 51
0.0
  0
ARC
  5
1F5
330
18
100
AcDbEntity
  8
1
  6
Continuous
100
AcDbCircle
 10
166.5022423071726
 20
144.1925297214355
 30
0.0
 40
32.0
100
AcDbArc
 50
210.655962405708
 51
225.4139233241457
  0
ARC
  5
1F6
330
18
100
AcDbEntity
  8
1
  6
Continuous
100
AcDbCircle
 10
148.8346652442257
 20
126.8318757240115
 30
0.0
 40
10.0
100
AcDbArc
 50
173.1918167184608
 51
180.0
  0
ARC
  5
1F8
330
18
100
AcDbEntity
  8
1
  6
Continuous
100
AcDbCircle
 10
139.8346652442257
 20
128.3861913221798
 30
0.0
 40
1.0
100
AcDbArc
 50
180.0
 51
210.655962405708
  0
LINE
  5
1F9
330
18
100
AcDbEntity
  8
1
  6
Continuous
100
AcDbLine
 10
145.8346652442259
 20
121.1144334576919
 30
0.0
 11
144.740862172421
 21
121.1144334576919
 31
0.0
  0
ARC
  5
1FA
330
18
100
AcDbEntity
  8
1
  6
Continuous
100
AcDbCircle
 10
144.740862172421
 20
122.1144334576986
 30
0.0
 40
1.0
100
AcDbArc
 50
225.4139233241457
 51
270.0
  0
LINE
  5
1FB
330
18
100
AcDbEntity
  8
1
  6
Continuous
100
AcDbLine
 10
149.8346652442258
 20
125.1144334576921
 30
0.0
 11
149.3346652442259
 21
124.6144334576922
 31
0.0
  0
LINE
  5
1FC
330
18
100
AcDbEntity
  8
1
  6
Continuous
100
AcDbLine
 10
149.3346652442259
 20
124.6144334576922
 30
0.0
 11
145.8346652442259
 21
124.6144334576918
 31
0.0
  0
ARC
  5
1FD
330
18
100
AcDbEntity
  8
1
  6
Continuous
100
AcDbCircle
 10
148.4346652442263
 20
141.0217333760424
 30
0.0
 40
7.0
100
AcDbArc
 50
278.0339029522764
 51
318.5903778907158
  0
LINE
  5
1FE
330
18
100
AcDbEntity
  8
1
  6
Continuous
100
AcDbLine
 10
149.3346652442259
 20
131.6144334576921
 30
0.0
 11
149.8346652442259
 21
131.1144334576922
 31
0.0
  0
LINE
  5
1FF
330
18
100
AcDbEntity
  8
1
  6
Continuous
100
AcDbLine
 10
149.3346652442259
 20
131.6144334576921
 30
0.0
 11
145.8346652442259
 21
131.6144334576917
 31
0.0
  0
ARC
  5
200
330
18
100
AcDbEntity
  8
1
  6
Continuous
100
AcDbCircle
 10
142.6346652442264
 20
182.1144334576872
 30
0.0
 40
48.5
100
AcDbArc
 50
273.7830882910313
 51
278.0339029522764
  0
ARC
  5
201
330
18
100
AcDbEntity
  8
1
  6
Continuous
100
AcDbCircle
 10
151.4346652442257
 20
138.3759820649772
 30
0.0
 40
3.0
100
AcDbArc
 50
318.5903778907158
 51
0.0
  0
LINE
  5
202
330
18
100
AcDbEntity
  8
4
  6
CENTER
100
AcDbLine
 10
13.4216992161912
 20
182.114433457691
 30
0.0
 11
95.50369894371895
 21
182.114433457691
 31
0.0
  0
LINE
  5
206
330
18
100
AcDbEntity
  8
4
  6
CENTER
100
AcDbLine
 10
25.54092993662357
 20
211.258886584178
 30
0.0
 11
25.54092993662357
 21
110.6318650190423
 31
0.0
  0
ARC
  5
207
330
18
100
AcDbEntity
  8
1
  6
Continuous
100
AcDbCircle
 10
25.54092993658156
 20
182.1644334577571
 30
0.0
 40
9.900000000005332
100
AcDbArc
 50
341.7126811218273
 51
198.2873188797233
  0
ARC
  5
208
330
18
100
AcDbEntity
  8
5
  6
PHANTOM
100
AcDbCircle
 10
25.54092993660458
 20
182.114433457691
 30
0.0
 40
9.4
100
AcDbArc
 50
221.1947459530544
 51
270.0
  0
ARC
  5
209
330
18
100
AcDbEntity
  8
1
  6
Continuous
100
AcDbCircle
 10
18.14092993658732
 20
156.6144334576722
 30
0.0
 40
2.5
100
AcDbArc
 50
143.1301023527747
 51
180.0
  0
CIRCLE
  5
20B
330
18
100
AcDbEntity
  8
1
  6
Continuous
100
AcDbCircle
 10
25.54092993662357
 20
153.8144334576989
 30
0.0
 40
0.4500000000085933
  0
ARC
  5
20D
330
18
100
AcDbEntity
  8
1
  6
Continuous
100
AcDbCircle
 10
32.94092993658728
 20
156.6144334576801
 30
0.0
 40
2.5
100
AcDbArc
 50
0.0
 51
36.86989764446098
  0
ARC
  5
20F
330
18
100
AcDbEntity
  8
1
  6
Continuous
100
AcDbCircle
 10
25.54092993662357
 20
182.114433457691
 30
0.0
 40
9.4
100
AcDbArc
 50
131.1947459530562
 51
180.0
  0
ARC
  5
211
330
18
100
AcDbEntity
  8
5
  6
PHANTOM
100
AcDbCircle
 10
25.54092993660458
 20
182.114433457691
 30
0.0
 40
9.4
100
AcDbArc
 50
90.0
 51
138.8052546311457
  0
ARC
  5
212
330
18
100
AcDbEntity
  8
1
  6
Continuous
100
AcDbCircle
 10
25.54092993662357
 20
182.114433457691
 30
0.0
 40
9.4
100
AcDbArc
 50
0.0
 51
48.76453208015324
  0
ARC
  5
213
330
18
100
AcDbEntity
  8
1
  6
Continuous
100
AcDbCircle
 10
25.54092993658167
 20
217.6144334576276
 30
0.0
 40
17.49999999996778
100
AcDbArc
 50
221.0823331402799
 51
318.91766685972
  0
LINE
  5
214
330
18
100
AcDbEntity
  8
1
  6
Continuous
100
AcDbLine
 10
38.54092993658673
 20
207.1144334576883
 30
0.0
 11
12.54092993658673
 21
207.1144334576743
 31
0.0
  0
ARC
  5
215
330
18
100
AcDbEntity
  8
1
  6
Continuous
100
AcDbCircle
 10
12.5409299365873
 20
206.1144334576744
 30
0.0
 40
1.0
100
AcDbArc
 50
90.0
 51
180.0
  0
ARC
  5
216
330
18
100
AcDbEntity
  8
1
  6
Continuous
100
AcDbCircle
 10
38.5409299365873
 20
206.1144334576884
 30
0.0
 40
1.0
100
AcDbArc
 50
0.0
 51
90.0
  0
LINE
  5
217
330
18
100
AcDbEntity
  8
1
  6
Continuous
100
AcDbLine
 10
149.3346652442258
 20
203.614433457692
 30
0.0
 11
149.3346652442258
 21
196.614433457692
 31
0.0
  0
LINE
  5
218
330
18
100
AcDbEntity
  8
1
  6
Continuous
100
AcDbLine
 10
149.8346652442259
 20
197.1144334576919
 30
0.0
 11
149.8346652442259
 21
203.114433457692
 31
0.0
  0
LINE
  5
219
330
18
100
AcDbEntity
  8
5
  6
PHANTOM
100
AcDbLine
 10
136.4630923689674
 20
174.5286470200569
 30
0.0
 11
130.2602965734611
 21
168.3258512245506
 31
0.0
  0
LINE
  5
21A
330
18
100
AcDbEntity
  8
5
  6
PHANTOM
100
AcDbLine
 10
136.063092368967
 20
172.7144334576836
 30
0.0
 11
130.9656353113948
 21
167.6169764001112
 31
0.0
  0
ARC
  5
21B
330
18
100
AcDbEntity
  8
5
  6
PHANTOM
100
AcDbCircle
 10
135.2082759985141
 20
163.374335712992
 30
0.0
 40
6.0
100
AcDbArc
 50
134.9999999999994
 51
223.5674562624337
  0
ARC
  5
21C
330
18
100
AcDbEntity
  8
5
  6
PHANTOM
100
AcDbCircle
 10
134.5029372605804
 20
164.0832105374315
 30
0.0
 40
6.0
100
AcDbArc
 50
134.9999999999994
 51
225.0000000000006
  0
ARC
  5
21D
330
18
100
AcDbEntity
  8
5
  6
PHANTOM
100
AcDbCircle
 10
129.4117684360372
 20
157.8606708629898
 30
0.0
 40
2.0
100
AcDbArc
 50
314.9999999999994
 51
43.56745626243371
  0
LINE
  5
21E
330
18
100
AcDbEntity
  8
5
  6
PHANTOM
100
AcDbLine
 10
130.8259819984104
 20
159.274884425363
 30
0.0
 11
130.2602965734612
 21
159.8405698503121
 31
0.0
  0
ARC
  5
21F
330
18
100
AcDbEntity
  8
5
  6
PHANTOM
100
AcDbCircle
 10
133.6346652442212
 20
177.3570741448032
 30
0.0
 40
4.0
100
AcDbArc
 50
314.9999999999994
 51
359.9999999999332
  0
LINE
  5
220
330
18
100
AcDbEntity
  8
1
  6
Continuous
100
AcDbLine
 10
161.3346652442251
 20
191.8572192503555
 30
0.0
 11
161.3346652442251
 21
170.8644334577915
 31
0.0
  0
LINE
  5
221
330
18
100
AcDbEntity
  8
1
  6
Continuous
100
AcDbLine
 10
159.3346652442251
 20
189.6676795268885
 30
0.0
 11
159.3346652442251
 21
170.8644334577903
 31
0.0
  0
LINE
  5
222
330
18
100
AcDbEntity
  8
1
  6
Continuous
100
AcDbLine
 10
152.350454228186
 20
181.1144334576983
 30
0.0
 11
152.350454228186
 21
172.0919543075691
 31
0.0
  0
LINE
  5
223
330
18
100
AcDbEntity
  8
1
  6
Continuous
100
AcDbLine
 10
158.8346652442259
 20
192.8143078287696
 30
0.0
 11
158.8346652442259
 21
170.6144334576917
 31
0.0
  0
LINE
  5
224
330
18
100
AcDbEntity
  8
1
  6
Continuous
100
AcDbLine
 10
159.2346652442258
 20
190.5746874955196
 30
0.0
 11
159.2346652442258
 21
172.3644334576908
 31
0.0
  0
LINE
  5
225
330
18
100
AcDbEntity
  8
1
  6
Continuous
100
AcDbLine
 10
152.0575610093725
 20
171.3848475263826
 30
0.0
 11
147.8346652442269
 21
167.161951761237
 31
0.0
  0
ARC
  5
226
330
18
100
AcDbEntity
  8
1
  6
Continuous
100
AcDbCircle
 10
150.834665244226
 20
164.114433457704
 30
0.0
 40
2.999999999999971
100
AcDbArc
 50
180.0
 51
270.0
  0
LINE
  5
227
330
18
100
AcDbEntity
  8
5
  6
PHANTOM
100
AcDbLine
 10
138.1346652442256
 20
172.714433457685
 30
0.0
 11
134.6488788065929
 21
172.7144334576825
 31
0.0
  0
LINE
  5
228
330
18
100
AcDbEntity
  8
5
  6
PHANTOM
100
AcDbLine
 10
138.8346652442256
 20
173.8890155351786
 30
0.0
 11
138.1346652442904
 21
173.8890155351786
 31
0.0
  0
LINE
  5
229
330
18
100
AcDbEntity
  8
5
  6
PHANTOM
100
AcDbLine
 10
138.1346652442257
 20
173.8890155351787
 30
0.0
 11
138.1346652442257
 21
172.714433457685
 31
0.0
  0
LINE
  5
22B
330
18
100
AcDbEntity
  8
1
  6
Continuous
100
AcDbLine
 10
147.8346652442269
 20
167.161951761237
 30
0.0
 11
147.8346652442258
 21
164.114433457704
 31
0.0
  0
ARC
  5
22C
330
18
100
AcDbEntity
  8
1
  6
Continuous
100
AcDbCircle
 10
151.4346652442259
 20
158.114433457704
 30
0.0
 40
3.0
100
AcDbArc
 50
0.0
 51
90.0
  0
LINE
  5
22D
330
18
100
AcDbEntity
  8
1
  6
Continuous
100
AcDbLine
 10
151.4346652442259
 20
161.114433457704
 30
0.0
 11
150.834665244226
 21
161.114433457704
 31
0.0
  0
ARC
  5
22E
330
18
100
AcDbEntity
  8
1
  6
Continuous
100
AcDbCircle
 10
157.8346652442259
 20
170.6144334576917
 30
0.0
 40
1.0
100
AcDbArc
 50
270.0
 51
0.0
  0
LINE
  5
22F
330
18
100
AcDbEntity
  8
1
  6
Continuous
100
AcDbLine
 10
150.28714694068
 20
169.6144334576901
 30
0.0
 11
157.8346652442261
 21
169.6144334576917
 31
0.0
  0
ARC
  5
230
330
18
100
AcDbEntity
  8
1
  6
Continuous
100
AcDbCircle
 10
151.350454228186
 20
172.0919543075691
 30
0.0
 40
1.0
100
AcDbArc
 50
315.0
 51
0.0
  0
LINE
  5
231
330
18
100
AcDbEntity
  8
1
  6
Continuous
100
AcDbLine
 10
161.3346652442251
 20
170.8644334577916
 30
0.0
 11
159.3346652442246
 21
170.8644334577903
 31
0.0
  0
LINE
  5
232
330
18
100
AcDbEntity
  8
1
  6
Continuous
100
AcDbLine
 10
158.8346652442259
 20
172.1144334576908
 30
0.0
 11
159.0346652442258
 21
172.1144334576908
 31
0.0
  0
ARC
  5
233
330
18
100
AcDbEntity
  8
1
  6
Continuous
100
AcDbCircle
 10
158.9784152442258
 20
172.3644334576908
 30
0.0
 40
0.2562500000000227
100
AcDbArc
 50
282.6803834918257
 51
0.0
  0
LINE
  5
234
330
18
100
AcDbEntity
  8
1
  6
Continuous
100
AcDbLine
 10
145.8346652442259
 20
194.6144334576891
 30
0.0
 11
160.8346652442258
 21
194.6144334576923
 31
0.0
  0
ARC
  5
235
330
18
100
AcDbEntity
  8
5
  6
PHANTOM
100
AcDbCircle
 10
158.7439465590034
 20
165.4139601254102
 30
0.0
 40
30.0
100
AcDbArc
 50
131.5782819119091
 51
134.9999999999994
  0
ARC
  5
236
330
18
100
AcDbEntity
  8
1
  6
Continuous
100
AcDbCircle
 10
165.8346652442257
 20
181.6963975731304
 30
0.0
 40
30.0
100
AcDbArc
 50
165.1648884180242
 51
180.0
  0
LINE
  5
237
330
18
100
AcDbEntity
  8
1
  6
Continuous
100
AcDbLine
 10
147.8346652442259
 20
193.6144334576891
 30
0.0
 11
147.8346652442259
 21
183.1144334577133
 31
0.0
  0
LINE
  5
238
330
18
100
AcDbEntity
  8
5
  6
PHANTOM
100
AcDbLine
 10
137.6346652442266
 20
182.1144334576884
 30
0.0
 11
137.634665244221
 21
177.3570741447985
 31
0.0
  0
ARC
  5
239
330
18
100
AcDbEntity
  8
1
  6
Continuous
100
AcDbCircle
 10
139.8346652442257
 20
186.7317920099345
 30
0.0
 40
4.0
100
AcDbArc
 50
121.2329290155135
 51
138.590377890729
  0
ARC
  5
23A
330
18
100
AcDbEntity
  8
1
  6
Continuous
100
AcDbCircle
 10
142.6346652442257
 20
182.1144334576883
 30
0.0
 40
9.4
100
AcDbArc
 50
113.8444700235049
 51
121.2329290155135
  0
ARC
  5
23B
330
18
100
AcDbEntity
  8
1
  6
Continuous
100
AcDbCircle
 10
146.8346652442259
 20
193.6144334576891
 30
0.0
 40
1.0
100
AcDbArc
 50
0.0
 51
90.0
  0
LINE
  5
23C
330
18
100
AcDbEntity
  8
1
  6
Continuous
100
AcDbLine
 10
149.3346652442259
 20
196.6144334576918
 30
0.0
 11
145.8346652442259
 21
196.6144334576917
 31
0.0
  0
LINE
  5
23D
330
18
100
AcDbEntity
  8
1
  6
Continuous
100
AcDbLine
 10
149.8346652442257
 20
197.1144334576918
 30
0.0
 11
149.3346652442257
 21
196.6144334576918
 31
0.0
  0
LINE
  5
23E
330
18
100
AcDbEntity
  8
1
  6
Continuous
100
AcDbLine
 10
163.3346652442251
 20
187.1144334577856
 30
0.0
 11
163.3346652442251
 21
177.1144334577837
 31
0.0
  0
LINE
  5
23F
330
18
100
AcDbEntity
  8
1
  6
Continuous
100
AcDbLine
 10
163.3346652442223
 20
177.1144334577838
 30
0.0
 11
161.3346652442251
 21
177.1144334577853
 31
0.0
  0
LINE
  5
240
330
18
100
AcDbEntity
  8
1
  6
Continuous
100
AcDbLine
 10
161.3346652442215
 20
176.4894334578046
 30
0.0
 11
159.3346652442211
 21
176.4894334578035
 31
0.0
  0
LINE
  5
241
330
18
100
AcDbEntity
  8
1
  6
Continuous
100
AcDbLine
 10
161.3346652442207
 20
177.9644334578011
 30
0.0
 11
159.3346652442202
 21
177.9644334578
 31
0.0
  0
LINE
  5
242
330
18
100
AcDbEntity
  8
1
  6
Continuous
100
AcDbLine
 10
159.2346652442258
 20
176.2144334577826
 30
0.0
 11
159.3346652442251
 21
176.2144334577826
 31
0.0
  0
LINE
  5
243
330
18
100
AcDbEntity
  8
1
  6
Continuous
100
AcDbLine
 10
163.3346652442246
 20
181.457579208358
 30
0.0
 11
161.3346652442251
 21
181.4575792083596
 31
0.0
  0
LINE
  5
244
330
18
100
AcDbEntity
  8
1
  6
Continuous
100
AcDbLine
 10
163.3346652442253
 20
182.7712877072335
 30
0.0
 11
161.3346652442251
 21
182.771287707235
 31
0.0
  0
LINE
  5
245
330
18
100
AcDbEntity
  8
1
  6
Continuous
100
AcDbLine
 10
161.0346652442258
 20
194.4144334576923
 30
0.0
 11
161.0346652442258
 21
189.8676795268005
 31
0.0
  0
LINE
  5
246
330
18
100
AcDbEntity
  8
1
  6
Continuous
100
AcDbLine
 10
163.3346652442276
 20
187.1144334577856
 30
0.0
 11
161.3346652442251
 21
187.1144334577871
 31
0.0
  0
LINE
  5
247
330
18
100
AcDbEntity
  8
1
  6
Continuous
100
AcDbLine
 10
161.3346652442251
 20
190.4144334578368
 30
0.0
 11
161.034665244178
 21
190.4144334578368
 31
0.0
  0
LINE
  5
248
330
18
100
AcDbEntity
  8
1
  6
Continuous
100
AcDbLine
 10
161.3346652442251
 20
191.8572192503555
 30
0.0
 11
161.034665244178
 21
191.8572192503553
 31
0.0
  0
LINE
  5
249
330
18
100
AcDbEntity
  8
1
  6
Continuous
100
AcDbLine
 10
159.2346652442258
 20
188.0144334577828
 30
0.0
 11
159.3346652442251
 21
188.0144334577828
 31
0.0
  0
ARC
  5
24A
330
18
100
AcDbEntity
  8
1
  6
Continuous
100
AcDbCircle
 10
159.0346652442259
 20
190.5746874955196
 30
0.0
 40
0.1999999999999886
100
AcDbArc
 50
0.0
 51
90.0
  0
LINE
  5
24B
330
18
100
AcDbEntity
  8
1
  6
Continuous
100
AcDbLine
 10
159.0346652442259
 20
190.7746874955195
 30
0.0
 11
158.8346652442259
 21
190.7746874955195
 31
0.0
  0
ARC
  5
24C
330
18
100
AcDbEntity
  8
1
  6
Continuous
100
AcDbCircle
 10
160.8346652442259
 20
189.8676795268005
 30
0.0
 40
0.2
100
AcDbArc
 50
270.0
 51
0.0
  0
LINE
  5
24D
330
18
100
AcDbEntity
  8
1
  6
Continuous
100
AcDbLine
 10
160.8346652442257
 20
189.6676795268007
 30
0.0
 11
159.2346652442257
 21
189.6676795268007
 31
0.0
  0
ARC
  5
24E
330
18
100
AcDbEntity
  8
1
  6
Continuous
100
AcDbCircle
 10
160.8346652442259
 20
193.014307828767
 30
0.0
 40
0.2
100
AcDbArc
 50
270.0
 51
0.0
  0
ARC
  5
24F
330
18
100
AcDbEntity
  8
1
  6
Continuous
100
AcDbCircle
 10
160.8346652442259
 20
194.4144334576923
 30
0.0
 40
0.2
100
AcDbArc
 50
0.0
 51
90.0
  0
LINE
  5
250
330
18
100
AcDbEntity
  8
1
  6
Continuous
100
AcDbLine
 10
160.8346652442256
 20
192.814307828767
 30
0.0
 11
158.8346652442259
 21
192.8143078287696
 31
0.0
  0
LINE
  5
251
330
18
100
AcDbEntity
  8
4
  6
CENTER
100
AcDbLine
 10
153.5641538443584
 20
200.1144334576921
 30
0.0
 11
141.6817180945253
 21
200.1144334576919
 31
0.0
  0
ARC
  5
252
330
18
100
AcDbEntity
  8
1
  6
Continuous
100
AcDbCircle
 10
166.5022423071686
 20
184.0363371939576
 30
0.0
 40
32.0
100
AcDbArc
 50
134.586076675845
 51
149.3440375942765
  0
ARC
  5
253
330
18
100
AcDbEntity
  8
1
  6
Continuous
100
AcDbCircle
 10
139.8346652442257
 20
199.8426755932202
 30
0.0
 40
1.0
100
AcDbArc
 50
149.3440375942784
 51
180.0
  0
LINE
  5
254
330
18
100
AcDbEntity
  8
1
  6
Continuous
100
AcDbLine
 10
149.3346652442257
 20
203.6144334576917
 30
0.0
 11
149.8346652442257
 21
203.1144334576918
 31
0.0
  0
LINE
  5
255
330
18
100
AcDbEntity
  8
1
  6
Continuous
100
AcDbLine
 10
149.3346652442259
 20
203.6144334576919
 30
0.0
 11
145.8346652442259
 21
203.6144334576917
 31
0.0
  0
LINE
  5
256
330
18
100
AcDbEntity
  8
1
  6
Continuous
100
AcDbLine
 10
145.8346652442259
 20
207.1144334576918
 30
0.0
 11
144.7408621724209
 21
207.1144334576918
 31
0.0
  0
ARC
  5
257
330
18
100
AcDbEntity
  8
1
  6
Continuous
100
AcDbCircle
 10
144.7408621724209
 20
206.1144334576985
 30
0.0
 40
1.0
100
AcDbArc
 50
90.0
 51
134.586076675845
  0
LINE
  5
258
330
18
100
AcDbEntity
  8
1
  6
Continuous
100
AcDbLine
 10
279.5581685126911
 20
150.2827474562744
 30
0.0
 11
280.0602337994611
 21
152.1564806152109
 31
0.0
  0
LINE
  5
259
330
18
100
AcDbEntity
  8
1
  6
Continuous
100
AcDbLine
 10
279.3318755794026
 20
151.3366530035271
 30
0.0
 11
279.3318755794026
 21
152.2861098923743
 31
0.0
  0
LINE
  5
25A
330
18
100
AcDbEntity
  8
1
  6
Continuous
100
AcDbLine
 10
278.8874364877464
 20
152.3660005680401
 30
0.0
 11
278.8874364877464
 21
151.3366530035271
 31
0.0
  0
LINE
  5
25B
330
18
100
AcDbEntity
  8
1
  6
Continuous
100
AcDbLine
 10
278.4429973960905
 20
152.5753813978545
 30
0.0
 11
278.4429973960905
 21
149.792825478824
 31
0.0
  0
LINE
  5
25C
330
18
100
AcDbEntity
  8
1
  6
Continuous
100
AcDbLine
 10
277.5541192127783
 20
152.5770923733531
 30
0.0
 11
277.5541192127783
 21
149.6517745420523
 31
0.0
  0
LINE
  5
25D
330
18
100
AcDbEntity
  8
1
  6
Continuous
100
AcDbLine
 10
277.9985583044344
 20
151.6477603676862
 30
0.0
 11
277.9985583044344
 21
152.3691695801085
 31
0.0
  0
LINE
  5
25E
330
18
100
AcDbEntity
  8
1
  6
Continuous
100
AcDbLine
 10
277.1096801211223
 20
152.6652997383778
 30
0.0
 11
277.1096801211223
 21
149.5635671770276
 31
0.0
  0
LINE
  5
25F
330
18
100
AcDbEntity
  8
1
  6
Continuous
100
AcDbLine
 10
276.6652410294663
 20
152.6652997383778
 30
0.0
 11
276.6652410294663
 21
149.5635671770276
 31
0.0
  0
LINE
  5
260
330
18
100
AcDbEntity
  8
1
  6
Continuous
100
AcDbLine
 10
276.2208019378101
 20
152.6277857424322
 30
0.0
 11
276.2208019378101
 21
149.6010811729731
 31
0.0
  0
LINE
  5
261
330
18
100
AcDbEntity
  8
1
  6
Continuous
100
AcDbLine
 10
275.3319237544979
 20
152.2691669581388
 30
0.0
 11
275.3319237544979
 21
149.9596999572664
 31
0.0
  0
LINE
  5
262
330
18
100
AcDbEntity
  8
1
  6
Continuous
100
AcDbLine
 10
275.7763628461541
 20
151.6477603676862
 30
0.0
 11
275.7763628461541
 21
152.4966371020876
 31
0.0
  0
LINE
  5
263
330
18
100
AcDbEntity
  8
1
  6
Continuous
100
AcDbLine
 10
274.8874846628419
 20
152.2106256622593
 30
0.0
 11
274.8874846628419
 21
150.0182412531461
 31
0.0
  0
LINE
  5
264
330
18
100
AcDbEntity
  8
1
  6
Continuous
100
AcDbLine
 10
274.4430455711859
 20
150.2944438758607
 30
0.0
 11
274.4430455711859
 21
151.9344230395446
 31
0.0
  0
LINE
  5
265
330
18
100
AcDbEntity
  8
1
  6
Continuous
100
AcDbLine
 10
273.9986064795297
 20
152.3334012751075
 30
0.0
 11
273.9986064795297
 21
150.417575790377
 31
0.0
  0
ARC
  5
266
330
18
100
AcDbEntity
  8
1
  6
Continuous
100
AcDbCircle
 10
279.5540951252306
 20
151.114433457699
 30
0.0
 40
1.145412728988864
100
AcDbArc
 50
332.2496545546283
 51
54.46232220799902
  0
ARC
  5
267
330
18
100
AcDbEntity
  8
1
  6
Continuous
100
AcDbCircle
 10
274.2208260253578
 20
151.114433457699
 30
0.0
 40
1.145412728988863
100
AcDbArc
 50
125.5376777920009
 51
166.5374393917324
  0
LINE
  5
268
330
18
100
AcDbEntity
  8
1
  6
Continuous
100
AcDbLine
 10
288.3874605752943
 20
192.1144334577177
 30
0.0
 11
288.3874605752943
 21
136.2201156094155
 31
0.0
  0
LINE
  5
269
330
18
100
AcDbEntity
  8
1
  6
Continuous
100
AcDbLine
 10
265.3874605752942
 20
192.1144334577101
 30
0.0
 11
265.3874605752942
 21
136.1772797746172
 31
0.0
  0
LINE
  5
26A
330
18
100
AcDbEntity
  8
1
  6
Continuous
100
AcDbLine
 10
290.8874605752579
 20
206.114433457691
 30
0.0
 11
290.8874605752579
 21
122.1144334576912
 31
0.0
  0
LINE
  5
26B
330
18
100
AcDbEntity
  8
1
  6
Continuous
100
AcDbLine
 10
262.8874605752579
 20
206.1144334576772
 30
0.0
 11
262.8874605752579
 21
122.1144334576773
 31
0.0
  0
ARC
  5
26C
330
18
100
AcDbEntity
  8
1
  6
Continuous
100
AcDbCircle
 10
263.887460575258
 20
122.1144334576773
 30
0.0
 40
1.0
100
AcDbArc
 50
180.0
 51
270.0
  0
LINE
  5
272
330
18
100
AcDbEntity
  8
4
  6
CENTER
100
AcDbLine
 10
267.6135805843325
 20
128.1144334577064
 30
0.0
 11
286.0721301434953
 21
128.1144334577064
 31
0.0
  0
LINE
  5
273
330
18
100
AcDbEntity
  8
1
  6
Continuous
100
AcDbLine
 10
289.8874605752584
 20
121.1144334576912
 30
0.0
 11
263.8874605752586
 21
121.1144334576773
 31
0.0
  0
ARC
  5
274
330
18
100
AcDbEntity
  8
1
  6
Continuous
100
AcDbCircle
 10
289.8874605752579
 20
122.1144334576912
 30
0.0
 40
1.0
100
AcDbArc
 50
270.0
 51
0.0
  0
ARC
  5
275
330
18
100
AcDbEntity
  8
1
  6
Continuous
100
AcDbCircle
 10
279.1096560335745
 20
151.3366530035271
 30
0.0
 40
0.2222195458280311
100
AcDbArc
 50
180.0
 51
0.0
  0
ARC
  5
276
330
18
100
AcDbEntity
  8
1
  6
Continuous
100
AcDbCircle
 10
276.8874605752943
 20
154.8477218276136
 30
0.0
 40
5.733264282363177
100
AcDbArc
 50
234.4623222080521
 51
305.5376777919478
  0
LINE
  5
278
330
18
100
AcDbEntity
  8
1
  6
Continuous
100
AcDbLine
 10
285.8874605752516
 20
137.808622307331
 30
0.0
 11
267.8874605752517
 21
137.8086223073212
 31
0.0
  0
LINE
  5
279
330
18
100
AcDbEntity
  8
1
  6
Continuous
100
AcDbLine
 10
285.8874605752955
 20
133.7201156094155
 30
0.0
 11
267.8874605752955
 21
133.7201156094058
 31
0.0
  0
ARC
  5
27A
330
18
100
AcDbEntity
  8
1
  6
Continuous
100
AcDbCircle
 10
267.8874605752943
 20
136.1772797746172
 30
0.0
 40
2.5
100
AcDbArc
 50
180.0
 51
270.0
  0
ARC
  5
27B
330
18
100
AcDbEntity
  8
1
  6
Continuous
100
AcDbCircle
 10
274.6652651170139
 20
150.2944438758607
 30
0.0
 40
0.2222195458280301
100
AcDbArc
 50
180.0
 51
243.9856340003631
  0
ARC
  5
27C
330
18
100
AcDbEntity
  8
1
  6
Continuous
100
AcDbCircle
 10
276.8874605752943
 20
154.8477218276136
 30
0.0
 40
5.288825190707117
100
AcDbArc
 50
243.9856340003631
 51
247.0560464434622
  0
ARC
  5
27D
330
18
100
AcDbEntity
  8
1
  6
Continuous
100
AcDbCircle
 10
274.8430407536764
 20
150.0182412531461
 30
0.0
 40
0.044443909165606
100
AcDbArc
 50
247.0560464434622
 51
0.0
  0
ARC
  5
27E
330
18
100
AcDbEntity
  8
1
  6
Continuous
100
AcDbCircle
 10
274.2208260253578
 20
151.114433457699
 30
0.0
 40
1.145412728988863
100
AcDbArc
 50
180.0
 51
234.4623222080521
  0
LINE
  5
27F
330
18
100
AcDbEntity
  8
1
  6
Continuous
100
AcDbLine
 10
279.1096560335745
 20
151.114433457699
 30
0.0
 11
279.1096560335745
 21
150.0483969539406
 31
0.0
  0
LINE
  5
280
330
18
100
AcDbEntity
  8
1
  6
Continuous
100
AcDbLine
 10
277.9985583044344
 20
151.114433457699
 30
0.0
 11
277.7763387586064
 21
151.114433457699
 31
0.0
  0
LINE
  5
281
330
18
100
AcDbEntity
  8
1
  6
Continuous
100
AcDbLine
 10
277.9985583044344
 20
149.8596973352968
 30
0.0
 11
277.9985583044344
 21
151.114433457699
 31
0.0
  0
ARC
  5
282
330
18
100
AcDbEntity
  8
1
  6
Continuous
100
AcDbCircle
 10
277.7763387586064
 20
149.8596973352968
 30
0.0
 40
0.2222195458280301
100
AcDbArc
 50
280.1041827161252
 51
0.0
  0
ARC
  5
283
330
18
100
AcDbEntity
  8
1
  6
Continuous
100
AcDbCircle
 10
276.8874605752943
 20
154.8477218276136
 30
0.0
 40
5.288825190707117
100
AcDbArc
 50
277.7929243354226
 51
280.1041827161252
  0
ARC
  5
284
330
18
100
AcDbEntity
  8
1
  6
Continuous
100
AcDbCircle
 10
277.5985631219439
 20
149.6517745420523
 30
0.0
 40
0.044443909165606
100
AcDbArc
 50
180.0
 51
277.7929243354226
  0
LINE
  5
285
330
18
100
AcDbEntity
  8
1
  6
Continuous
100
AcDbLine
 10
276.6652410294663
 20
151.114433457699
 30
0.0
 11
276.2208019378101
 21
151.114433457699
 31
0.0
  0
LINE
  5
286
330
18
100
AcDbEntity
  8
1
  6
Continuous
100
AcDbLine
 10
275.7763628461541
 20
149.7322298133177
 30
0.0
 11
275.7763628461541
 21
150.5811065477117
 31
0.0
  0
ARC
  5
287
330
18
100
AcDbEntity
  8
1
  6
Continuous
100
AcDbCircle
 10
275.7319189369884
 20
149.7322298133177
 30
0.0
 40
0.044443909165606
100
AcDbArc
 50
257.2710561268771
 51
0.0
  0
ARC
  5
288
330
18
100
AcDbEntity
  8
1
  6
Continuous
100
AcDbCircle
 10
276.8874605752943
 20
154.8477218276136
 30
0.0
 40
5.288825190707117
100
AcDbArc
 50
254.7937121239413
 51
257.2710561268771
  0
ARC
  5
289
330
18
100
AcDbEntity
  8
1
  6
Continuous
100
AcDbCircle
 10
276.8874605752943
 20
154.8477218276136
 30
0.0
 40
5.288825190707117
100
AcDbArc
 50
254.7424767095433
 51
254.7937121239413
  0
ARC
  5
28A
330
18
100
AcDbEntity
  8
1
  6
Continuous
100
AcDbCircle
 10
275.554143300326
 20
149.9596999572664
 30
0.0
 40
0.2222195458280301
100
AcDbArc
 50
180.0
 51
254.7424767095433
  0
ARC
  5
28B
330
18
100
AcDbEntity
  8
1
  6
Continuous
100
AcDbCircle
 10
285.8874605752943
 20
136.2201156094155
 30
0.0
 40
2.5
100
AcDbArc
 50
270.0
 51
0.0
  0
LINE
  5
28C
330
18
100
AcDbEntity
  8
1
  6
Continuous
100
AcDbLine
 10
280.6995078542194
 20
151.114433457699
 30
0.0
 11
279.7810181051298
 21
151.114433457699
 31
0.0
  0
ARC
  5
28D
330
18
100
AcDbEntity
  8
1
  6
Continuous
100
AcDbCircle
 10
279.5540951252306
 20
151.114433457699
 30
0.0
 40
1.145412728988864
100
AcDbArc
 50
305.5376777919478
 51
315.698839279617
  0
ARC
  5
28E
330
18
100
AcDbEntity
  8
1
  6
Continuous
100
AcDbCircle
 10
263.887460575258
 20
206.1144334576772
 30
0.0
 40
1.0
100
AcDbArc
 50
90.0
 51
180.0
  0
LINE
  5
28F
330
18
100
AcDbEntity
  8
4
  6
CENTER
100
AcDbLine
 10
292.9857087432114
 20
182.1144334576945
 30
0.0
 11
260.4818668949694
 21
182.1144334576945
 31
0.0
  0
LINE
  5
290
330
18
100
AcDbEntity
  8
4
  6
CENTER
100
AcDbLine
 10
276.8874605752943
 20
211.3723042318549
 30
0.0
 11
276.8874605752943
 21
111.1111946516164
 31
0.0
  0
ARC
  5
294
330
18
100
AcDbEntity
  8
1
  6
Continuous
100
AcDbCircle
 10
276.8874605752941
 20
182.1144334576945
 30
0.0
 40
9.499999999988006
100
AcDbArc
 50
119.9999999999231
 51
209.999999999957
  0
ARC
  5
295
330
18
100
AcDbEntity
  8
1
  6
Continuous
100
AcDbCircle
 10
276.8874605752943
 20
182.1144334576946
 30
0.0
 40
9.999999999988064
100
AcDbArc
 50
119.9999999999238
 51
209.9999999999567
  0
ARC
  5
296
330
18
100
AcDbEntity
  8
1
  6
Continuous
100
AcDbCircle
 10
276.8874605752943
 20
181.1144334577137
 30
0.0
 40
11.5
100
AcDbArc
 50
180.0
 51
0.0
  0
ARC
  5
297
330
18
100
AcDbEntity
  8
1
  6
Continuous
100
AcDbCircle
 10
276.8874605752943
 20
182.1144334576943
 30
0.0
 40
11.25
100
AcDbArc
 50
209.9999999999567
 51
60.00000000008562
  0
ARC
  5
298
330
18
100
AcDbEntity
  8
1
  6
Continuous
100
AcDbCircle
 10
276.8874605752943
 20
147.3811450877918
 30
0.0
 40
5.733264282363177
100
AcDbArc
 50
54.46232220799902
 51
125.5376777920009
  0
LINE
  5
299
330
18
100
AcDbEntity
  8
1
  6
Continuous
100
AcDbLine
 10
287.3874605752943
 20
171.6777407451962
 30
0.0
 11
283.4600423092494
 21
171.6777407451962
 31
0.0
  0
LINE
  5
29A
330
18
100
AcDbEntity
  8
1
  6
Continuous
100
AcDbLine
 10
285.8874605752387
 20
161.1144334577039
 30
0.0
 11
267.8874605752387
 21
161.1144334576943
 31
0.0
  0
LINE
  5
29B
330
18
100
AcDbEntity
  8
1
  6
Continuous
100
AcDbLine
 10
266.3874605875392
 20
167.1634646273201
 30
0.0
 11
287.3874605630492
 21
167.1644788164775
 31
0.0
  0
ARC
  5
29C
330
18
100
AcDbEntity
  8
1
  6
Continuous
100
AcDbCircle
 10
267.8874605752943
 20
158.6144334576941
 30
0.0
 40
2.5
100
AcDbArc
 50
90.0
 51
180.0
  0
ARC
  5
29D
330
18
100
AcDbEntity
  8
1
  6
Continuous
100
AcDbCircle
 10
274.8430407536764
 20
152.2106256622593
 30
0.0
 40
0.044443909165606
100
AcDbArc
 50
0.0
 51
112.9439535565377
  0
ARC
  5
29E
330
18
100
AcDbEntity
  8
1
  6
Continuous
100
AcDbCircle
 10
276.8874605752943
 20
147.3811450877918
 30
0.0
 40
5.288825190707117
100
AcDbArc
 50
112.9439535565377
 51
116.0143659996368
  0
ARC
  5
29F
330
18
100
AcDbEntity
  8
1
  6
Continuous
100
AcDbCircle
 10
274.6652651170139
 20
151.9344230395446
 30
0.0
 40
0.2222195458280301
100
AcDbArc
 50
116.0143659996368
 51
180.0
  0
ARC
  5
2A0
330
18
100
AcDbEntity
  8
1
  6
Continuous
100
AcDbCircle
 10
277.5985631219439
 20
152.5770923733531
 30
0.0
 40
0.044443909165606
100
AcDbArc
 50
82.20707566457726
 51
180.0
  0
ARC
  5
2A1
330
18
100
AcDbEntity
  8
1
  6
Continuous
100
AcDbCircle
 10
276.8874605752943
 20
147.3811450877918
 30
0.0
 40
5.288825190707117
100
AcDbArc
 50
79.8958172838747
 51
82.20707566457726
  0
ARC
  5
2A2
330
18
100
AcDbEntity
  8
1
  6
Continuous
100
AcDbCircle
 10
277.7763387586064
 20
152.3691695801085
 30
0.0
 40
0.2222195458280301
100
AcDbArc
 50
0.0
 51
79.8958172838747
  0
ARC
  5
2A3
330
18
100
AcDbEntity
  8
1
  6
Continuous
100
AcDbCircle
 10
275.554143300326
 20
152.2691669581388
 30
0.0
 40
0.2222195458280301
100
AcDbArc
 50
105.2575232904566
 51
180.0
  0
ARC
  5
2A4
330
18
100
AcDbEntity
  8
1
  6
Continuous
100
AcDbCircle
 10
276.8874605752943
 20
147.3811450877918
 30
0.0
 40
5.288825190707117
100
AcDbArc
 50
103.2681189705564
 51
105.2575232904566
  0
ARC
  5
2A5
330
18
100
AcDbEntity
  8
1
  6
Continuous
100
AcDbCircle
 10
276.8874605752943
 20
147.3811450877918
 30
0.0
 40
5.288825190707117
100
AcDbArc
 50
102.7289438731228
 51
103.2681189705564
  0
ARC
  5
2A6
330
18
100
AcDbEntity
  8
1
  6
Continuous
100
AcDbCircle
 10
275.7319189369884
 20
152.4966371020876
 30
0.0
 40
0.044443909165606
100
AcDbArc
 50
0.0
 51
102.7289438731228
  0
LINE
  5
2A7
330
18
100
AcDbEntity
  8
1
  6
Continuous
100
AcDbLine
 10
270.3148788413392
 20
171.6777407451962
 30
0.0
 11
266.3874605752943
 21
171.6777407451962
 31
0.0
  0
ARC
  5
2A9
330
18
100
AcDbEntity
  8
1
  6
Continuous
100
AcDbCircle
 10
266.3874605752943
 20
172.6777407451962
 30
0.0
 40
1.0
100
AcDbArc
 50
180.0
 51
270.0
  0
ARC
  5
2AA
330
18
100
AcDbEntity
  8
1
  6
Continuous
100
AcDbCircle
 10
285.8874605752943
 20
158.6144334577038
 30
0.0
 40
2.5
100
AcDbArc
 50
0.0
 51
90.0
  0
ARC
  5
2AB
330
18
100
AcDbEntity
  8
1
  6
Continuous
100
AcDbCircle
 10
287.3874605752943
 20
172.6777407451962
 30
0.0
 40
1.0
100
AcDbArc
 50
270.0
 51
0.0
  0
CIRCLE
  5
2AD
330
18
100
AcDbEntity
  8
2
  6
Continuous
100
AcDbCircle
 10
276.8874605752943
 20
182.1144334576945
 30
0.0
 40
2.5
  0
ARC
  5
2AE
330
18
100
AcDbEntity
  8
1
  6
Continuous
100
AcDbCircle
 10
276.8874605752943
 20
182.1144334576946
 30
0.0
 40
8.600000000101516
100
AcDbArc
 50
61.93168433155769
 51
118.0683156684423
  0
LINE
  5
2AF
330
18
100
AcDbEntity
  8
1
  6
Continuous
100
AcDbLine
 10
285.8874605752932
 20
194.6144334577171
 30
0.0
 11
267.887460575293
 21
194.6144334577105
 31
0.0
  0
ARC
  5
2B0
330
18
100
AcDbEntity
  8
1
  6
Continuous
100
AcDbCircle
 10
276.8874605752943
 20
183.1144334577138
 30
0.0
 40
11.5
100
AcDbArc
 50
0.0
 51
180.0
  0
ARC
  5
2B2
330
18
100
AcDbEntity
  8
1
  6
Continuous
100
AcDbCircle
 10
276.8874605752943
 20
182.1144334576943
 30
0.0
 40
8.3
100
AcDbArc
 50
60.00000000008562
 51
209.9999999999567
  0
LINE
  5
2B3
330
18
100
AcDbEntity
  8
1
  6
Continuous
100
AcDbLine
 10
282.5443148247136
 20
182.1144334576958
 30
0.0
 11
276.8874605752211
 21
187.7712877071882
 31
0.0
  0
LINE
  5
2B4
330
18
100
AcDbEntity
  8
1
  6
Continuous
100
AcDbLine
 10
276.8874605752212
 20
176.4575792082034
 30
0.0
 11
282.5443148247136
 21
182.1144334576958
 31
0.0
  0
LINE
  5
2B5
330
18
100
AcDbEntity
  8
1
  6
Continuous
100
AcDbLine
 10
281.8874605752747
 20
181.5282898863013
 30
0.0
 11
277.4736041466374
 21
177.1144334576641
 31
0.0
  0
LINE
  5
2B6
330
18
100
AcDbEntity
  8
1
  6
Continuous
100
AcDbLine
 10
277.4736041466372
 20
187.1144334577251
 30
0.0
 11
281.8874605753246
 21
182.7005770290377
 31
0.0
  0
LINE
  5
2B7
330
18
100
AcDbEntity
  8
1
  6
Continuous
100
AcDbLine
 10
276.8874605752211
 20
187.7712877071882
 30
0.0
 11
271.2306063257289
 21
182.114433457696
 31
0.0
  0
LINE
  5
2B8
330
18
100
AcDbEntity
  8
1
  6
Continuous
100
AcDbLine
 10
276.3013170039009
 20
187.114433457675
 30
0.0
 11
271.8874605752634
 21
182.7005770290375
 31
0.0
  0
LINE
  5
2B9
330
18
100
AcDbEntity
  8
1
  6
Continuous
100
AcDbLine
 10
269.6994497238801
 20
177.9644334576999
 30
0.0
 11
267.1446747827149
 21
176.4894334577018
 31
0.0
  0
CIRCLE
  5
2BA
330
18
100
AcDbEntity
  8
1
  6
Continuous
100
AcDbCircle
 10
276.8874605752943
 20
182.1144334576945
 30
0.0
 40
2.066999999999999
  0
LINE
  5
2BB
330
18
100
AcDbEntity
  8
1
  6
Continuous
100
AcDbLine
 10
271.2306063257289
 20
182.114433457696
 30
0.0
 11
276.8874605752212
 21
176.4575792082034
 31
0.0
  0
LINE
  5
2BC
330
18
100
AcDbEntity
  8
1
  6
Continuous
100
AcDbLine
 10
271.8874605753137
 20
181.5282898863015
 30
0.0
 11
276.3013170039009
 21
177.1144334577142
 31
0.0
  0
LINE
  5
2BD
330
18
100
AcDbEntity
  8
1
  6
Continuous
100
AcDbLine
 10
276.3013170039009
 20
177.1144334577142
 30
0.0
 11
277.4736041465852
 21
177.1144334577162
 31
0.0
  0
LINE
  5
2BE
330
18
100
AcDbEntity
  8
1
  6
Continuous
100
AcDbLine
 10
271.8874605753135
 20
181.5282898863014
 30
0.0
 11
271.8874605753156
 21
182.7005770289856
 31
0.0
  0
LINE
  5
2BF
330
18
100
AcDbEntity
  8
1
  6
Continuous
100
AcDbLine
 10
272.4399893836662
 20
189.8176795268166
 30
0.0
 11
270.7098852268698
 21
192.8143078287837
 31
0.0
  0
ARC
  5
2C0
330
18
100
AcDbEntity
  8
1
  6
Continuous
100
AcDbCircle
 10
267.8874605752943
 20
192.1144334577101
 30
0.0
 40
2.5
100
AcDbArc
 50
90.0
 51
180.0
  0
ARC
  5
2C1
330
18
100
AcDbEntity
  8
1
  6
Continuous
100
AcDbCircle
 10
272.6997970048019
 20
189.9676795268163
 30
0.0
 40
0.3
100
AcDbArc
 50
209.9999999999226
 51
298.0683156684467
  0
LINE
  5
2C2
330
18
100
AcDbEntity
  8
1
  6
Continuous
100
AcDbLine
 10
276.3013170039011
 20
187.1144334576752
 30
0.0
 11
277.4736041465852
 21
187.1144334576731
 31
0.0
  0
LINE
  5
2C3
330
18
100
AcDbEntity
  8
1
  6
Continuous
100
AcDbLine
 10
281.8874605752745
 20
181.5282898863013
 30
0.0
 11
281.8874605752725
 21
182.7005770289854
 31
0.0
  0
ARC
  5
2C4
330
18
100
AcDbEntity
  8
1
  6
Continuous
100
AcDbCircle
 10
285.8874605752943
 20
192.1144334577177
 30
0.0
 40
2.5
100
AcDbArc
 50
0.0
 51
90.0
  0
LINE
  5
2C5
330
18
100
AcDbEntity
  8
1
  6
Continuous
100
AcDbLine
 10
281.334931766922
 20
189.8176795268168
 30
0.0
 11
283.0650359237186
 21
192.8143078287839
 31
0.0
  0
ARC
  5
2C6
330
18
100
AcDbEntity
  8
1
  6
Continuous
100
AcDbCircle
 10
281.0751241457866
 20
189.9676795268163
 30
0.0
 40
0.3
100
AcDbArc
 50
241.9316843315562
 51
330.0000000000717
  0
LINE
  5
2C7
330
18
100
AcDbEntity
  8
1
  6
Continuous
100
AcDbLine
 10
281.0374605752834
 20
189.3024443091113
 30
0.0
 11
281.3349317669209
 21
189.8176795268173
 31
0.0
  0
LINE
  5
2C8
330
18
100
AcDbEntity
  8
4
  6
CENTER
100
AcDbLine
 10
267.8226289244134
 20
200.1144334577064
 30
0.0
 11
286.0633108539054
 21
200.1144334577064
 31
0.0
  0
LINE
  5
2C9
330
18
100
AcDbEntity
  8
1
  6
Continuous
100
AcDbLine
 10
289.8874605752575
 20
207.114433457691
 30
0.0
 11
263.8874605752576
 21
207.1144334576771
 31
0.0
  0
ARC
  5
2CB
330
18
100
AcDbEntity
  8
1
  6
Continuous
100
AcDbCircle
 10
289.8874605752579
 20
206.114433457691
 30
0.0
 40
1.0
100
AcDbArc
 50
0.0
 51
90.0
  0
ARC
  5
2CD
330
18
100
AcDbEntity
  8
1
  6
Continuous
100
AcDbCircle
 10
25.54055805209788
 20
181.0679509535511
 30
0.0
 40
10.21051532818231
100
AcDbArc
 50
52.63665458699304
 51
127.322623446211
  0
LINE
  5
2EA
330
18
100
AcDbEntity
  8
1
  6
Continuous
100
AcDbLine
 10
270.143482918642
 20
147.2898655660309
 30
0.0
 11
268.943482918654
 21
147.2898655660309
 31
0.0
  0
LINE
  5
2EB
330
18
100
AcDbEntity
  8
1
  6
Continuous
100
AcDbLine
 10
272.3552748302237
 20
147.2898655660309
 30
0.0
 11
272.3552748302237
 21
145.2898655660509
 31
0.0
  0
LINE
  5
2EC
330
18
100
AcDbEntity
  8
1
  6
Continuous
100
AcDbLine
 10
271.2052748302351
 20
147.2898655660309
 30
0.0
 11
271.2052748302351
 21
145.2898655660509
 31
0.0
  0
LINE
  5
2ED
330
18
100
AcDbEntity
  8
1
  6
Continuous
100
AcDbLine
 10
271.2052748302351
 20
146.2898655660409
 30
0.0
 11
272.3552748302237
 21
146.2898655660409
 31
0.0
  0
LINE
  5
2EE
330
18
100
AcDbEntity
  8
1
  6
Continuous
100
AcDbLine
 10
269.543482918648
 20
147.2898655660309
 30
0.0
 11
269.543482918648
 21
145.2898655660509
 31
0.0
  0
LINE
  5
2EF
330
18
100
AcDbEntity
  8
1
  6
Continuous
100
AcDbLine
 10
273.708849242057
 20
146.0398655660434
 30
0.0
 11
274.4588492420494
 21
146.0398655660434
 31
0.0
  0
LINE
  5
2F0
330
18
100
AcDbEntity
  8
1
  6
Continuous
100
AcDbLine
 10
273.4838492420592
 20
145.2898655660509
 30
0.0
 11
274.0838492420533
 21
147.2898655660309
 31
0.0
  0
LINE
  5
2F1
330
18
100
AcDbEntity
  8
1
  6
Continuous
100
AcDbLine
 10
274.0838492420533
 20
147.2898655660309
 30
0.0
 11
274.6838492420473
 21
145.2898655660509
 31
0.0
  0
LINE
  5
2F2
330
18
100
AcDbEntity
  8
1
  6
Continuous
100
AcDbLine
 10
276.219846307807
 20
146.2898655660409
 30
0.0
 11
275.280727763351
 21
146.2898655660409
 31
0.0
  0
LINE
  5
2F3
330
18
100
AcDbEntity
  8
1
  6
Continuous
100
AcDbLine
 10
277.2192610136428
 20
147.2898655660309
 30
0.0
 11
277.2192610136428
 21
146.2898655660409
 31
0.0
  0
LINE
  5
2F4
330
18
100
AcDbEntity
  8
1
  6
Continuous
100
AcDbLine
 10
277.7192610136378
 20
145.2898655660509
 30
0.0
 11
277.2192610136428
 21
145.2898655660509
 31
0.0
  0
LINE
  5
2F5
330
18
100
AcDbEntity
  8
1
  6
Continuous
100
AcDbLine
 10
277.7192610136378
 20
146.2898655660409
 30
0.0
 11
277.2192610136428
 21
146.2898655660409
 31
0.0
  0
ARC
  5
2F6
330
18
100
AcDbEntity
  8
1
  6
Continuous
100
AcDbCircle
 10
277.7192610136378
 20
145.7898655660459
 30
0.0
 40
0.499999999995
100
AcDbArc
 50
270.0
 51
90.0
  0
LINE
  5
2F7
330
18
100
AcDbEntity
  8
1
  6
Continuous
100
AcDbLine
 10
278.2192610136328
 20
147.2898655660309
 30
0.0
 11
277.2192610136428
 21
147.2898655660309
 31
0.0
  0
LINE
  5
2F8
330
18
100
AcDbEntity
  8
1
  6
Continuous
100
AcDbLine
 10
280.4003718068532
 20
146.7898655660359
 30
0.0
 11
280.4003718068532
 21
145.7898655660459
 31
0.0
  0
LINE
  5
2F9
330
18
100
AcDbEntity
  8
1
  6
Continuous
100
AcDbLine
 10
279.4003718068633
 20
146.7898655660359
 30
0.0
 11
279.4003718068633
 21
145.7898655660459
 31
0.0
  0
ARC
  5
2FA
330
18
100
AcDbEntity
  8
1
  6
Continuous
100
AcDbCircle
 10
279.9003718068582
 20
145.7898655660459
 30
0.0
 40
0.4999999999949998
100
AcDbArc
 50
180.0
 51
0.0
  0
ARC
  5
2FB
330
18
100
AcDbEntity
  8
1
  6
Continuous
100
AcDbCircle
 10
279.9003718068582
 20
146.7898655660359
 30
0.0
 40
0.4999999999949998
100
AcDbArc
 50
0.0
 51
180.0
  0
CIRCLE
  5
2FC
330
18
100
AcDbEntity
  8
1
  6
Continuous
100
AcDbCircle
 10
282.051638194739
 20
145.7898655660459
 30
0.0
 40
0.4999999999949998
  0
LINE
  5
2FD
330
18
100
AcDbEntity
  8
1
  6
Continuous
100
AcDbLine
 10
282.051638194739
 20
147.2898655660309
 30
0.0
 11
281.5802336739528
 21
145.9565322327109
 31
0.0
  0
LINE
  5
301
330
18
100
AcDbEntity
  8
1
  6
Continuous
100
AcDbLine
 10
284.0393358880425
 20
146.2898655660409
 30
0.0
 11
283.1002173435864
 21
146.2898655660409
 31
0.0
  0
ARC
  5
309
330
18
100
AcDbEntity
  8
1
  6
Continuous
100
AcDbCircle
 10
285.768720356643
 20
145.789865623789
 30
0.0
 40
0.5000000000000005
100
AcDbArc
 50
180.0
 51
90.0
  0
LINE
  5
30A
330
18
100
AcDbEntity
  8
1
  6
Continuous
100
AcDbLine
 10
285.768720356643
 20
146.289865623789
 30
0.0
 11
285.6185570377201
 21
146.289865623789
 31
0.0
  0
ARC
  5
30B
330
18
100
AcDbEntity
  8
1
  6
Continuous
100
AcDbCircle
 10
285.768720356643
 20
146.789865623789
 30
0.0
 40
0.5
100
AcDbArc
 50
270.0
 51
180.0
  0
LINE
  5
99A
330
18
100
AcDbEntity
  8
1
  6
Continuous
100
AcDbLine
 10
39.86188139715319
 20
291.8799069848632
 30
0.0
 11
56.36188139715319
 21
291.8799069848632
 31
0.0
  0
LINE
  5
99B
330
18
100
AcDbEntity
  8
1
  6
Continuous
100
AcDbLine
 10
36.36188139715319
 20
289.6799069848632
 30
0.0
 11
58.70695083585747
 21
289.6799069848632
 31
0.0
  0
LINE
  5
99C
330
18
100
AcDbEntity
  8
1
  6
Continuous
100
AcDbLine
 10
36.36188139715319
 20
287.5799069848632
 30
0.0
 11
59.26763666248143
 21
287.5799069848632
 31
0.0
  0
LINE
  5
99D
330
18
100
AcDbEntity
  8
1
  6
Continuous
100
AcDbLine
 10
36.36188139715319
 20
286.3799069848633
 30
0.0
 11
58.06400175806357
 21
286.3799069848633
 31
0.0
  0
LINE
  5
99E
330
18
100
AcDbEntity
  8
1
  6
Continuous
100
AcDbLine
 10
39.86188139715319
 20
285.6799069848633
 30
0.0
 11
57.36188139715317
 21
285.6799069848633
 31
0.0
  0
LINE
  5
99F
330
18
100
AcDbEntity
  8
4
  6
CENTER
100
AcDbLine
 10
7.932248914129559
 20
288.7799069848633
 30
0.0
 11
63.345232076
 21
288.7799069848627
 31
0.0
  0
LINE
  5
9A0
330
18
100
AcDbEntity
  8
1
  6
Continuous
100
AcDbLine
 10
36.36188139715319
 20
287.5799069848632
 30
0.0
 11
36.36188139715319
 21
286.3799069848633
 31
0.0
  0
LINE
  5
9A2
330
18
100
AcDbEntity
  8
1
  6
Continuous
100
AcDbLine
 10
20.85836356602579
 20
286.910257034418
 30
0.0
 11
20.85836356602579
 21
288.635257034418
 31
0.0
  0
LINE
  5
9A3
330
18
100
AcDbEntity
  8
1
  6
Continuous
100
AcDbLine
 10
13.86188139715363
 20
292.2799069848633
 30
0.0
 11
13.86188139715363
 21
285.279906984863
 31
0.0
  0
LINE
  5
9A4
330
18
100
AcDbEntity
  8
1
  6
Continuous
100
AcDbLine
 10
22.86188139715318
 20
280.7799069848631
 30
0.0
 11
22.86188139715318
 21
296.7799069848632
 31
0.0
  0
LINE
  5
9A5
330
18
100
AcDbEntity
  8
1
  6
Continuous
100
AcDbLine
 10
18.86188139715329
 20
280.7799069848631
 30
0.0
 11
18.86188139715329
 21
296.7799069848632
 31
0.0
  0
LINE
  5
9A6
330
18
100
AcDbEntity
  8
1
  6
Continuous
100
AcDbLine
 10
17.86188139715341
 20
292.2799069848632
 30
0.0
 11
17.86188139715341
 21
285.2799069848633
 31
0.0
  0
LINE
  5
9A7
330
18
100
AcDbEntity
  8
1
  6
Continuous
100
AcDbLine
 10
26.86188139715318
 20
293.7799069848632
 30
0.0
 11
26.86188139715318
 21
283.7799069848632
 31
0.0
  0
LINE
  5
9A8
330
18
100
AcDbEntity
  8
1
  6
Continuous
100
AcDbLine
 10
23.86188139715319
 20
283.779906984863
 30
0.0
 11
23.86188139715319
 21
293.779906984863
 31
0.0
  0
LINE
  5
9A9
330
18
100
AcDbEntity
  8
1
  6
Continuous
100
AcDbLine
 10
11.86188139715363
 20
284.8854582603274
 30
0.0
 11
11.86188139715363
 21
292.674355709399
 31
0.0
  0
ARC
  5
9AA
330
18
100
AcDbEntity
  8
1
  6
Continuous
100
AcDbCircle
 10
24.73636108814253
 20
286.5209515952661
 30
0.0
 40
0.6000000000000007
100
AcDbArc
 50
53.13010235415532
 51
270.0
  0
LINE
  5
9AB
330
18
100
AcDbEntity
  8
1
  6
Continuous
100
AcDbLine
 10
23.39521473048671
 20
277.1799069848632
 30
0.0
 11
32.86188139715341
 21
284.2799069848633
 31
0.0
  0
LINE
  5
9AC
330
18
100
AcDbEntity
  8
1
  6
Continuous
100
AcDbLine
 10
23.86188139715319
 20
283.779906984863
 30
0.0
 11
26.86188139715318
 21
283.779906984863
 31
0.0
  0
ARC
  5
9AE
330
18
100
AcDbEntity
  8
1
  6
Continuous
100
AcDbCircle
 10
22.19521473048666
 20
278.7799069848631
 30
0.0
 40
2.0
100
AcDbArc
 50
270.0
 51
306.8698976458446
  0
ARC
  5
9AF
330
18
100
AcDbEntity
  8
1
  6
Continuous
100
AcDbCircle
 10
17.93224891412944
 20
278.7799069848631
 30
0.0
 40
2.0
100
AcDbArc
 50
213.6900675259797
 51
270.0
  0
LINE
  5
9B0
330
18
100
AcDbEntity
  8
1
  6
Continuous
100
AcDbLine
 10
17.93224891412921
 20
276.7799069848633
 30
0.0
 11
22.19521473048666
 21
276.7799069848633
 31
0.0
  0
LINE
  5
9B1
330
18
100
AcDbEntity
  8
1
  6
Continuous
100
AcDbLine
 10
14.36188139715341
 20
284.7799069848634
 30
0.0
 11
17.36188139715341
 21
284.7799069848634
 31
0.0
  0
ARC
  5
9B4
330
18
100
AcDbEntity
  8
1
  6
Continuous
100
AcDbCircle
 10
14.36188139715341
 20
285.279906984863
 30
0.0
 40
0.5
100
AcDbArc
 50
180.0
 51
270.0
  0
LINE
  5
9B5
330
18
100
AcDbEntity
  8
1
  6
Continuous
100
AcDbLine
 10
15.36188139715341
 20
284.7799069848633
 30
0.0
 11
16.86188139715341
 21
284.7799069848633
 31
0.0
  0
LINE
  5
9B6
330
18
100
AcDbEntity
  8
1
  6
Continuous
100
AcDbLine
 10
12.19778080847777
 20
283.7760578678767
 30
0.0
 11
16.26814832545369
 21
277.6705065924127
 31
0.0
  0
ARC
  5
9B7
330
18
100
AcDbEntity
  8
1
  6
Continuous
100
AcDbCircle
 10
13.86188139715341
 20
284.8854582603274
 30
0.0
 40
2.0
100
AcDbArc
 50
180.0
 51
213.6900675259797
  0
LINE
  5
9B8
330
18
100
AcDbEntity
  8
1
  6
Continuous
100
AcDbLine
 10
19.35836356602578
 20
286.910257034418
 30
0.0
 11
22.35836356602578
 21
286.910257034418
 31
0.0
  0
LINE
  5
9B9
330
18
100
AcDbEntity
  8
1
  6
Continuous
100
AcDbLine
 10
18.86188139715329
 20
280.7799069848631
 30
0.0
 11
22.86188139715318
 21
280.7799069848631
 31
0.0
  0
ARC
  5
9BA
330
18
100
AcDbEntity
  8
1
  6
Continuous
100
AcDbCircle
 10
21.64705821519965
 20
283.7299182286585
 30
0.0
 40
0.7113053508261391
100
AcDbArc
 50
302.0053832080797
 51
57.99461679191479
  0
ARC
  5
9BB
330
18
100
AcDbEntity
  8
1
  6
Continuous
100
AcDbCircle
 10
20.06966891685192
 20
283.7299182286585
 30
0.0
 40
0.7113053508261391
100
AcDbArc
 50
122.0053832080852
 51
237.9946167919148
  0
LINE
  5
9BC
330
18
100
AcDbEntity
  8
1
  6
Continuous
100
AcDbLine
 10
19.35836356602578
 20
282.9377395883518
 30
0.0
 11
19.35836356602578
 21
281.1377395883519
 31
0.0
  0
LINE
  5
9BD
330
18
100
AcDbEntity
  8
1
  6
Continuous
100
AcDbLine
 10
19.35836356602578
 20
282.0377395883519
 30
0.0
 11
22.35836356602578
 21
282.0377395883519
 31
0.0
  0
ARC
  5
9BE
330
18
100
AcDbEntity
  8
1
  6
Continuous
100
AcDbCircle
 10
20.85836356602579
 20
284.9918296673367
 30
0.0
 40
2.199411438678189
100
AcDbArc
 50
237.9946167919148
 51
302.0053832080797
  0
ARC
  5
9BF
330
18
100
AcDbEntity
  8
1
  6
Continuous
100
AcDbCircle
 10
20.85836356602579
 20
287.1758968155144
 30
0.0
 40
2.199411438678189
100
AcDbArc
 50
237.9946167919148
 51
302.0053832080797
  0
ARC
  5
9C0
330
18
100
AcDbEntity
  8
1
  6
Continuous
100
AcDbCircle
 10
20.85836356602579
 20
282.4680067899803
 30
0.0
 40
2.199411438678189
100
AcDbArc
 50
57.99461679191479
 51
122.0053832080852
  0
ARC
  5
9C1
330
18
100
AcDbEntity
  8
1
  6
Continuous
100
AcDbCircle
 10
17.36188139715341
 20
285.279906984863
 30
0.0
 40
0.5
100
AcDbArc
 50
270.0
 51
0.0
  0
ARC
  5
9C3
330
18
100
AcDbEntity
  8
1
  6
Continuous
100
AcDbCircle
 10
21.64705821519965
 20
285.9139853768362
 30
0.0
 40
0.7113053508261391
100
AcDbArc
 50
302.0053832080797
 51
57.99461679191479
  0
ARC
  5
9C4
330
18
100
AcDbEntity
  8
1
  6
Continuous
100
AcDbCircle
 10
20.06966891685192
 20
285.9139853768362
 30
0.0
 40
0.7113053508261391
100
AcDbArc
 50
122.0053832080852
 51
237.9946167919148
  0
LINE
  5
9C5
330
18
100
AcDbEntity
  8
1
  6
Continuous
100
AcDbLine
 10
26.53636108814259
 20
287.120951595266
 30
0.0
 11
26.53636108814259
 21
285.920951595266
 31
0.0
  0
LINE
  5
9C6
330
18
100
AcDbEntity
  8
1
  6
Continuous
100
AcDbLine
 10
25.09636108814266
 20
287.0009515952661
 30
0.0
 11
26.53636108814259
 21
285.920951595266
 31
0.0
  0
ARC
  5
9C7
330
18
100
AcDbEntity
  8
1
  6
Continuous
100
AcDbCircle
 10
39.56188139715357
 20
284.5799069848631
 30
0.0
 40
0.3
100
AcDbArc
 50
270.0
 51
0.0
  0
LINE
  5
9C8
330
18
100
AcDbEntity
  8
1
  6
Continuous
100
AcDbLine
 10
39.86188139715319
 20
285.6799069848633
 30
0.0
 11
39.86188139715319
 21
284.5799069848632
 31
0.0
  0
LINE
  5
9C9
330
18
100
AcDbEntity
  8
1
  6
Continuous
100
AcDbLine
 10
32.86188139715318
 20
284.2799069848633
 30
0.0
 11
39.56188139715334
 21
284.2799069848633
 31
0.0
  0
ARC
  5
9CA
330
18
100
AcDbEntity
  8
1
  6
Continuous
100
AcDbCircle
 10
24.73636108814253
 20
291.2029202101755
 30
0.0
 40
0.5999999999999998
100
AcDbArc
 50
90.0
 51
270.0
  0
ARC
  5
9CB
330
18
100
AcDbEntity
  8
1
  6
Continuous
100
AcDbCircle
 10
24.73636108814253
 20
288.7788758475845
 30
0.0
 40
0.5999999999999998
100
AcDbArc
 50
90.0
 51
270.0
  0
LINE
  5
9CC
330
18
100
AcDbEntity
  8
1
  6
Continuous
100
AcDbLine
 10
23.86188139715319
 20
293.779906984863
 30
0.0
 11
26.86188139715318
 21
293.779906984863
 31
0.0
  0
LINE
  5
9CD
330
18
100
AcDbEntity
  8
1
  6
Continuous
100
AcDbLine
 10
23.39521473048671
 20
300.3799069848633
 30
0.0
 11
32.86188139715341
 21
293.2799069848633
 31
0.0
  0
LINE
  5
9D0
330
18
100
AcDbEntity
  8
1
  6
Continuous
100
AcDbLine
 10
12.19778080847777
 20
293.7837561018497
 30
0.0
 11
16.26814832545369
 21
299.8893073773137
 31
0.0
  0
LINE
  5
9D1
330
18
100
AcDbEntity
  8
1
  6
Continuous
100
AcDbLine
 10
14.36188139715364
 20
292.7799069848633
 30
0.0
 11
17.36188139715341
 21
292.7799069848633
 31
0.0
  0
ARC
  5
9D2
330
18
100
AcDbEntity
  8
1
  6
Continuous
100
AcDbCircle
 10
13.86188139715341
 20
292.674355709399
 30
0.0
 40
2.0
100
AcDbArc
 50
146.3099324740202
 51
180.0
  0
LINE
  5
9D3
330
18
100
AcDbEntity
  8
1
  6
Continuous
100
AcDbLine
 10
15.36188139715341
 20
292.7799069848632
 30
0.0
 11
16.86188139715341
 21
292.7799069848632
 31
0.0
  0
ARC
  5
9D4
330
18
100
AcDbEntity
  8
1
  6
Continuous
100
AcDbCircle
 10
14.36188139715364
 20
292.2799069848633
 30
0.0
 40
0.5
100
AcDbArc
 50
90.0
 51
180.0
  0
LINE
  5
9D5
330
18
100
AcDbEntity
  8
1
  6
Continuous
100
AcDbLine
 10
18.86188139715329
 20
296.779906984863
 30
0.0
 11
22.86188139715318
 21
296.779906984863
 31
0.0
  0
ARC
  5
9D6
330
18
100
AcDbEntity
  8
1
  6
Continuous
100
AcDbCircle
 10
20.71366757344674
 20
289.7748597194174
 30
0.0
 40
2.281208007415607
100
AcDbArc
 50
54.94066185635056
 51
86.36331323836275
  0
LINE
  5
9D7
330
18
100
AcDbEntity
  8
1
  6
Continuous
100
AcDbLine
 10
20.85836356602579
 20
292.0514741010879
 30
0.0
 11
20.85836356602579
 21
291.0177962843897
 31
0.0
  0
ARC
  5
9D8
330
18
100
AcDbEntity
  8
1
  6
Continuous
100
AcDbCircle
 10
21.00305955860483
 20
289.7748597194174
 30
0.0
 40
2.281208007415607
100
AcDbArc
 50
115.7201063039159
 51
125.0593381436494
  0
ARC
  5
9D9
330
18
100
AcDbEntity
  8
1
  6
Continuous
100
AcDbCircle
 10
20.13943138913953
 20
291.0014741010878
 30
0.0
 40
0.781067823113782
100
AcDbArc
 50
124.8882680994094
 51
235.1117319005905
  0
ARC
  5
9DA
330
18
100
AcDbEntity
  8
1
  6
Continuous
100
AcDbCircle
 10
21.57729574291193
 20
291.0014741010878
 30
0.0
 40
0.781067823113782
100
AcDbArc
 50
304.8882680994093
 51
55.11173190059058
  0
LINE
  5
9DB
330
18
100
AcDbEntity
  8
1
  6
Continuous
100
AcDbLine
 10
20.85836356602579
 20
292.0514741010879
 30
0.0
 11
22.21300133688419
 21
292.0514741010879
 31
0.0
  0
LINE
  5
9DC
330
18
100
AcDbEntity
  8
1
  6
Continuous
100
AcDbLine
 10
19.35836356602578
 20
288.635257034418
 30
0.0
 11
22.35836356602578
 21
288.635257034418
 31
0.0
  0
LINE
  5
9DD
330
18
100
AcDbEntity
  8
1
  6
Continuous
100
AcDbLine
 10
19.35836356602578
 20
289.3102570344179
 30
0.0
 11
22.35836356602578
 21
289.3102570344179
 31
0.0
  0
ARC
  5
9DE
330
18
100
AcDbEntity
  8
1
  6
Continuous
100
AcDbCircle
 10
20.85836356602579
 20
292.2258855397661
 30
0.0
 40
2.199411438678189
100
AcDbArc
 50
237.9946167919148
 51
302.0053832080797
  0
LINE
  5
9DF
330
18
100
AcDbEntity
  8
1
  6
Continuous
100
AcDbLine
 10
22.35836356602578
 20
294.5897761396971
 30
0.0
 11
19.35836356602578
 21
295.4897761396972
 31
0.0
  0
LINE
  5
9E0
330
18
100
AcDbEntity
  8
1
  6
Continuous
100
AcDbLine
 10
20.85836356602579
 20
293.9668898399161
 30
0.0
 11
19.35836356602578
 21
294.8668898399161
 31
0.0
  0
LINE
  5
9E1
330
18
100
AcDbEntity
  8
1
  6
Continuous
100
AcDbLine
 10
20.85836356602579
 20
293.9668898399161
 30
0.0
 11
22.35836356602578
 21
293.9668898399161
 31
0.0
  0
LINE
  5
9E2
330
18
100
AcDbEntity
  8
1
  6
Continuous
100
AcDbLine
 10
19.35836356602578
 20
292.6358183573824
 30
0.0
 11
22.35836356602578
 21
292.6358183573824
 31
0.0
  0
LINE
  5
9E3
330
18
100
AcDbEntity
  8
1
  6
Continuous
100
AcDbLine
 10
19.35836356602578
 20
293.0668898399161
 30
0.0
 11
20.85836356602579
 21
293.9668898399161
 31
0.0
  0
LINE
  5
9E4
330
18
100
AcDbEntity
  8
1
  6
Continuous
100
AcDbLine
 10
21.23336356602578
 20
294.9272761396972
 30
0.0
 11
21.23336356602578
 21
296.0522761396971
 31
0.0
  0
LINE
  5
9E5
330
18
100
AcDbEntity
  8
1
  6
Continuous
100
AcDbLine
 10
19.35836356602578
 20
295.4897761396972
 30
0.0
 11
22.35836356602578
 21
296.3897761396972
 31
0.0
  0
ARC
  5
9E6
330
18
100
AcDbEntity
  8
1
  6
Continuous
100
AcDbCircle
 10
17.36188139715341
 20
292.279906984863
 30
0.0
 40
0.5
100
AcDbArc
 50
0.0
 51
90.0
  0
ARC
  5
9E7
330
18
100
AcDbEntity
  8
1
  6
Continuous
100
AcDbCircle
 10
17.93224891412944
 20
298.779906984863
 30
0.0
 40
2.0
100
AcDbArc
 50
90.0
 51
146.3099324740202
  0
ARC
  5
9E8
330
18
100
AcDbEntity
  8
1
  6
Continuous
100
AcDbCircle
 10
22.19521473048689
 20
298.779906984863
 30
0.0
 40
2.0
100
AcDbArc
 50
53.13010235415532
 51
90.0
  0
LINE
  5
9EA
330
18
100
AcDbEntity
  8
1
  6
Continuous
100
AcDbLine
 10
17.93224891412933
 20
300.7799069848633
 30
0.0
 11
22.19521473048678
 21
300.7799069848633
 31
0.0
  0
LINE
  5
9EB
330
18
100
AcDbEntity
  8
1
  6
Continuous
100
AcDbLine
 10
24.73636108814253
 20
291.8029202101756
 30
0.0
 11
25.93636108814257
 21
291.8029202101756
 31
0.0
  0
LINE
  5
9EC
330
18
100
AcDbEntity
  8
1
  6
Continuous
100
AcDbLine
 10
24.73636108814253
 20
290.6029202101756
 30
0.0
 11
25.93636108814257
 21
290.6029202101756
 31
0.0
  0
LINE
  5
9ED
330
18
100
AcDbEntity
  8
1
  6
Continuous
100
AcDbLine
 10
24.73636108814253
 20
289.3788758475846
 30
0.0
 11
25.93636108814257
 21
289.3788758475846
 31
0.0
  0
LINE
  5
9EE
330
18
100
AcDbEntity
  8
1
  6
Continuous
100
AcDbLine
 10
24.73636108814253
 20
288.1788758475845
 30
0.0
 11
25.93636108814257
 21
288.1788758475845
 31
0.0
  0
ARC
  5
9EF
330
18
100
AcDbEntity
  8
1
  6
Continuous
100
AcDbCircle
 10
25.93636108814257
 20
291.2029202101755
 30
0.0
 40
0.5999999999999998
100
AcDbArc
 50
270.0
 51
90.0
  0
ARC
  5
9F0
330
18
100
AcDbEntity
  8
1
  6
Continuous
100
AcDbCircle
 10
25.93636108814257
 20
288.7788758475845
 30
0.0
 40
0.5999999999999998
100
AcDbArc
 50
270.0
 51
90.0
  0
LINE
  5
9F1
330
18
100
AcDbEntity
  8
1
  6
Continuous
100
AcDbLine
 10
39.86188139715319
 20
292.9799069848633
 30
0.0
 11
39.86188139715319
 21
291.8799069848632
 31
0.0
  0
LINE
  5
9F2
330
18
100
AcDbEntity
  8
1
  6
Continuous
100
AcDbLine
 10
36.36188139715319
 20
292.1799069848633
 30
0.0
 11
36.36188139715319
 21
289.6799069848632
 31
0.0
  0
ARC
  5
9F3
330
18
100
AcDbEntity
  8
1
  6
Continuous
100
AcDbCircle
 10
39.56188139715357
 20
292.9799069848631
 30
0.0
 40
0.3
100
AcDbArc
 50
0.0
 51
90.0
  0
LINE
  5
9F4
330
18
100
AcDbEntity
  8
1
  6
Continuous
100
AcDbLine
 10
36.36188139715319
 20
292.1799069848633
 30
0.0
 11
39.86188139715319
 21
292.1799069848633
 31
0.0
  0
LINE
  5
9F5
330
18
100
AcDbEntity
  8
1
  6
Continuous
100
AcDbLine
 10
32.86188139715318
 20
293.2799069848631
 30
0.0
 11
39.56188139715334
 21
293.2799069848631
 31
0.0
  0
LINE
  5
9F6
330
18
100
AcDbEntity
  8
1
  6
Continuous
100
AcDbLine
 10
57.36188139715317
 20
285.6799069848631
 30
0.0
 11
59.71489972186327
 21
288.0258193369298
 31
0.0
  0
ARC
  5
9F7
330
18
100
AcDbEntity
  8
1
  6
Continuous
100
AcDbCircle
 10
59.36188139715341
 20
288.3799069848632
 30
0.0
 40
0.5
100
AcDbArc
 50
314.9133543439028
 51
46.82814494213825
  0
LINE
  5
9F8
330
18
100
AcDbEntity
  8
1
  6
Continuous
100
AcDbLine
 10
56.36188139715319
 20
291.8799069848631
 30
0.0
 11
59.70397586614968
 21
288.7445593868599
 31
0.0
  0
ARC
  5
BF4
330
18
100
AcDbEntity
  8
1
  6
Continuous
100
AcDbCircle
 10
278.1374605752943
 20
200.1144334577064
 30
0.0
 40
5.750000000000013
100
AcDbArc
 50
299.5918457939493
 51
67.38013505196057
  0
ARC
  5
BF5
330
18
100
AcDbEntity
  8
1
  6
Continuous
100
AcDbCircle
 10
275.6374605752943
 20
200.1144334577064
 30
0.0
 40
5.750000000000002
100
AcDbArc
 50
112.6198649480394
 51
240.4081542060509
  0
CIRCLE
  5
BF6
330
18
100
AcDbEntity
  8
1
  6
Continuous
 48
0.25
100
AcDbCircle
 10
276.8874605752943
 20
200.1144334577064
 30
0.0
 40
3.5
  0
CIRCLE
  5
BF7
330
18
100
AcDbEntity
  8
1
  6
Continuous
100
AcDbCircle
 10
276.8874605752943
 20
200.1144334577064
 30
0.0
 40
3.800000000001205
  0
LINE
  5
BF8
330
18
100
AcDbEntity
  8
1
  6
Continuous
100
AcDbLine
 10
280.9769147481942
 20
195.1144334577064
 30
0.0
 11
272.7980064023939
 21
195.1144334577064
 31
0.0
  0
LINE
  5
BF9
330
18
100
AcDbEntity
  8
1
  6
Continuous
 48
0.25
100
AcDbLine
 10
276.8871676820753
 20
199.164789050573
 30
0.0
 11
277.4118409137157
 21
198.9738702196525
 31
0.0
  0
LINE
  5
BFA
330
18
100
AcDbEntity
  8
1
  6
Continuous
 48
0.25
100
AcDbLine
 10
276.886460575294
 20
201.0647849716213
 30
0.0
 11
277.4125480204969
 21
201.2557038025416
 31
0.0
  0
ARC
  5
BFB
330
18
100
AcDbEntity
  8
1
  6
Continuous
100
AcDbCircle
 10
276.8874605752943
 20
197.1144334577064
 30
0.0
 40
9.0
100
AcDbArc
 50
67.38013505196057
 51
112.6198649480394
  0
LINE
  5
BFC
330
18
100
AcDbEntity
  8
1
  6
Continuous
 48
0.25
100
AcDbLine
 10
275.9368161681606
 20
200.1151405644877
 30
0.0
 11
275.7458973372403
 21
199.589053119285
 31
0.0
  0
ARC
  5
BFD
330
18
100
AcDbEntity
  8
1
  6
Continuous
 48
0.25
100
AcDbCircle
 10
276.886460575294
 20
200.1144334577064
 30
0.0
 40
2.1
100
AcDbArc
 50
213.4630000000017
 51
236.5369999999993
  0
LINE
  5
BFE
330
18
100
AcDbEntity
  8
1
  6
Continuous
 48
0.25
100
AcDbLine
 10
276.3610802368724
 20
198.9738702196525
 30
0.0
 11
275.7289267744917
 21
198.3629299607074
 31
0.0
  0
LINE
  5
BFF
330
18
100
AcDbEntity
  8
1
  6
Continuous
 48
0.25
100
AcDbLine
 10
276.8871676820753
 20
199.164789050573
 30
0.0
 11
276.3610802368724
 21
198.9738702196525
 31
0.0
  0
LINE
  5
C00
330
18
100
AcDbEntity
  8
1
  6
Continuous
 48
0.25
100
AcDbLine
 10
275.7458973372403
 20
199.589053119285
 30
0.0
 11
275.1349570782948
 21
198.9568996569041
 31
0.0
  0
LINE
  5
C01
330
18
100
AcDbEntity
  8
1
  6
Continuous
 48
0.25
100
AcDbLine
 10
276.3617873436536
 20
201.2557038025415
 30
0.0
 11
275.7289267744917
 21
201.8659369547056
 31
0.0
  0
LINE
  5
C02
330
18
100
AcDbEntity
  8
1
  6
Continuous
 48
0.25
100
AcDbLine
 10
276.886460575294
 20
201.0647849716213
 30
0.0
 11
276.3617873436536
 21
201.2557038025415
 31
0.0
  0
ARC
  5
C03
330
18
100
AcDbEntity
  8
1
  6
Continuous
 48
0.25
100
AcDbCircle
 10
276.886460575294
 20
200.1144334577064
 30
0.0
 40
2.1
100
AcDbArc
 50
123.4630000000006
 51
146.5369999999982
  0
LINE
  5
C04
330
18
100
AcDbEntity
  8
1
  6
Continuous
 48
0.25
100
AcDbLine
 10
275.7458973372403
 20
200.6398137961281
 30
0.0
 11
275.1349570782948
 21
201.2719672585088
 31
0.0
  0
LINE
  5
C05
330
18
100
AcDbEntity
  8
1
  6
Continuous
 48
0.25
100
AcDbLine
 10
275.9368161681606
 20
200.1151405644877
 30
0.0
 11
275.7458973372403
 21
200.6398137961281
 31
0.0
  0
LINE
  5
C06
330
18
100
AcDbEntity
  8
1
  6
Continuous
 48
0.25
100
AcDbLine
 10
277.4118409137157
 20
198.9738702196525
 30
0.0
 11
278.0454085896589
 21
198.3629299607074
 31
0.0
  0
ARC
  5
C07
330
18
100
AcDbEntity
  8
1
  6
Continuous
 48
0.25
100
AcDbCircle
 10
276.886460575294
 20
200.1144334577064
 30
0.0
 40
2.1
100
AcDbArc
 50
303.4630000000006
 51
326.5369999999983
  0
LINE
  5
C08
330
18
100
AcDbEntity
  8
1
  6
Continuous
 48
0.25
100
AcDbLine
 10
278.0277309201291
 20
199.5897602260661
 30
0.0
 11
278.6386711790745
 21
198.9561925501229
 31
0.0
  0
LINE
  5
C09
330
18
100
AcDbEntity
  8
1
  6
Continuous
 48
0.25
100
AcDbLine
 10
277.8368120892088
 20
200.1144334577065
 30
0.0
 11
278.0277309201291
 21
199.5897602260661
 31
0.0
  0
LINE
  5
C0A
330
18
100
AcDbEntity
  8
1
  6
Continuous
 48
0.25
100
AcDbLine
 10
277.4125480204969
 20
201.2557038025416
 30
0.0
 11
278.0447014828776
 21
201.8666440614867
 31
0.0
  0
ARC
  5
C0B
330
18
100
AcDbEntity
  8
1
  6
Continuous
 48
0.25
100
AcDbCircle
 10
276.886460575294
 20
200.1144334577064
 30
0.0
 40
2.1
100
AcDbArc
 50
33.46300000000175
 51
56.53699999999938
  0
LINE
  5
C0C
330
18
100
AcDbEntity
  8
1
  6
Continuous
 48
0.25
100
AcDbLine
 10
278.0277309201291
 20
200.6405209029094
 30
0.0
 11
278.6386711790743
 21
201.27267436529
 31
0.0
  0
LINE
  5
C0D
330
18
100
AcDbEntity
  8
1
  6
Continuous
 48
0.25
100
AcDbLine
 10
277.8368120892088
 20
200.1144334577065
 30
0.0
 11
278.0277309201291
 21
200.6405209029094
 31
0.0
  0
ARC
  5
C0E
330
18
100
AcDbEntity
  8
1
  6
Continuous
100
AcDbCircle
 10
278.1374605752943
 20
128.1144334577064
 30
0.0
 40
5.750000000000013
100
AcDbArc
 50
292.6198649480394
 51
60.40815420605017
  0
ARC
  5
C0F
330
18
100
AcDbEntity
  8
1
  6
Continuous
100
AcDbCircle
 10
275.6374605752943
 20
128.1144334577064
 30
0.0
 40
5.750000000000002
100
AcDbArc
 50
119.591845793949
 51
247.3801350519605
  0
ARC
  5
C10
330
18
100
AcDbEntity
  8
1
  6
Continuous
100
AcDbCircle
 10
276.8874605752943
 20
131.1144334577064
 30
0.0
 40
9.0
100
AcDbArc
 50
247.3801350519605
 51
292.6198649480394
  0
LINE
  5
C11
330
18
100
AcDbEntity
  8
1
  6
Continuous
 48
0.25
100
AcDbLine
 10
276.886460575294
 20
129.0647849716213
 30
0.0
 11
277.4125480204969
 21
129.2557038025416
 31
0.0
  0
LINE
  5
C12
330
18
100
AcDbEntity
  8
1
  6
Continuous
 48
0.25
100
AcDbLine
 10
276.8871676820753
 20
127.164789050573
 30
0.0
 11
277.4118409137157
 21
126.9738702196526
 31
0.0
  0
CIRCLE
  5
C13
330
18
100
AcDbEntity
  8
1
  6
Continuous
100
AcDbCircle
 10
276.8874605752943
 20
128.1144334577064
 30
0.0
 40
3.800000000001205
  0
CIRCLE
  5
C14
330
18
100
AcDbEntity
  8
1
  6
Continuous
 48
0.25
100
AcDbCircle
 10
276.8874605752943
 20
128.1144334577064
 30
0.0
 40
3.5
  0
LINE
  5
C15
330
18
100
AcDbEntity
  8
1
  6
Continuous
100
AcDbLine
 10
280.9769147481942
 20
133.1144334577064
 30
0.0
 11
272.7980064023939
 21
133.1144334577064
 31
0.0
  0
ARC
  5
C16
330
18
100
AcDbEntity
  8
1
  6
Continuous
 48
0.25
100
AcDbCircle
 10
276.886460575294
 20
128.1144334577064
 30
0.0
 40
2.1
100
AcDbArc
 50
123.4630000000001
 51
146.5369999999982
  0
LINE
  5
C17
330
18
100
AcDbEntity
  8
1
  6
Continuous
 48
0.25
100
AcDbLine
 10
276.3617873436536
 20
129.2557038025415
 30
0.0
 11
275.7289267744917
 21
129.8659369547056
 31
0.0
  0
LINE
  5
C18
330
18
100
AcDbEntity
  8
1
  6
Continuous
 48
0.25
100
AcDbLine
 10
276.886460575294
 20
129.0647849716213
 30
0.0
 11
276.3617873436536
 21
129.2557038025415
 31
0.0
  0
LINE
  5
C19
330
18
100
AcDbEntity
  8
1
  6
Continuous
 48
0.25
100
AcDbLine
 10
275.9368161681606
 20
128.1151405644877
 30
0.0
 11
275.7458973372403
 21
127.589053119285
 31
0.0
  0
LINE
  5
C1A
330
18
100
AcDbEntity
  8
1
  6
Continuous
 48
0.25
100
AcDbLine
 10
275.9368161681606
 20
128.1151405644877
 30
0.0
 11
275.7458973372403
 21
128.6398137961281
 31
0.0
  0
ARC
  5
C1B
330
18
100
AcDbEntity
  8
1
  6
Continuous
 48
0.25
100
AcDbCircle
 10
276.886460575294
 20
128.1144334577064
 30
0.0
 40
2.1
100
AcDbArc
 50
213.4630000000017
 51
236.5369999999998
  0
LINE
  5
C1C
330
18
100
AcDbEntity
  8
1
  6
Continuous
 48
0.25
100
AcDbLine
 10
276.3610802368724
 20
126.9738702196526
 30
0.0
 11
275.7289267744917
 21
126.3629299607074
 31
0.0
  0
LINE
  5
C1D
330
18
100
AcDbEntity
  8
1
  6
Continuous
 48
0.25
100
AcDbLine
 10
276.8871676820753
 20
127.164789050573
 30
0.0
 11
276.3610802368724
 21
126.9738702196526
 31
0.0
  0
LINE
  5
C1E
330
18
100
AcDbEntity
  8
1
  6
Continuous
 48
0.25
100
AcDbLine
 10
275.7458973372403
 20
127.589053119285
 30
0.0
 11
275.1349570782948
 21
126.9568996569041
 31
0.0
  0
LINE
  5
C1F
330
18
100
AcDbEntity
  8
1
  6
Continuous
 48
0.25
100
AcDbLine
 10
275.7458973372403
 20
128.6398137961281
 30
0.0
 11
275.1349570782948
 21
129.2719672585088
 31
0.0
  0
LINE
  5
C20
330
18
100
AcDbEntity
  8
1
  6
Continuous
 48
0.25
100
AcDbLine
 10
277.4125480204969
 20
129.2557038025416
 30
0.0
 11
278.0447014828776
 21
129.8666440614868
 31
0.0
  0
ARC
  5
C21
330
18
100
AcDbEntity
  8
1
  6
Continuous
 48
0.25
100
AcDbCircle
 10
276.886460575294
 20
128.1144334577064
 30
0.0
 40
2.1
100
AcDbArc
 50
33.46300000000175
 51
56.53699999999985
  0
LINE
  5
C22
330
18
100
AcDbEntity
  8
1
  6
Continuous
 48
0.25
100
AcDbLine
 10
277.8368120892088
 20
128.1144334577065
 30
0.0
 11
278.0277309201291
 21
127.5897602260661
 31
0.0
  0
LINE
  5
C23
330
18
100
AcDbEntity
  8
1
  6
Continuous
 48
0.25
100
AcDbLine
 10
277.8368120892088
 20
128.1144334577065
 30
0.0
 11
278.0277309201291
 21
128.6405209029094
 31
0.0
  0
LINE
  5
C24
330
18
100
AcDbEntity
  8
1
  6
Continuous
 48
0.25
100
AcDbLine
 10
277.4118409137157
 20
126.9738702196526
 30
0.0
 11
278.0454085896589
 21
126.3629299607074
 31
0.0
  0
ARC
  5
C25
330
18
100
AcDbEntity
  8
1
  6
Continuous
 48
0.25
100
AcDbCircle
 10
276.886460575294
 20
128.1144334577064
 30
0.0
 40
2.1
100
AcDbArc
 50
303.4630000000001
 51
326.5369999999983
  0
LINE
  5
C26
330
18
100
AcDbEntity
  8
1
  6
Continuous
 48
0.25
100
AcDbLine
 10
278.0277309201291
 20
127.5897602260661
 30
0.0
 11
278.6386711790745
 21
126.9561925501229
 31
0.0
  0
LINE
  5
C27
330
18
100
AcDbEntity
  8
1
  6
Continuous
 48
0.25
100
AcDbLine
 10
278.0277309201291
 20
128.6405209029094
 30
0.0
 11
278.6386711790743
 21
129.27267436529
 31
0.0
  0
LINE
  5
C9D
330
18
100
AcDbEntity
  8
1
  6
Continuous
100
AcDbLine
 10
163.334665244289
 20
293.7799069849941
 30
0.0
 11
163.334665244289
 21
283.7799069849923
 31
0.0
  0
LINE
  5
C9E
330
18
100
AcDbEntity
  8
1
  6
Continuous
100
AcDbLine
 10
149.3346652442207
 20
292.2799069848836
 30
0.0
 11
149.3346652442239
 21
285.2799069848836
 31
0.0
  0
LINE
  5
C9F
330
18
100
AcDbEntity
  8
1
  6
Continuous
100
AcDbLine
 10
149.8346652442237
 20
285.7799069848837
 30
0.0
 11
149.834665244221
 21
291.7799069848836
 31
0.0
  0
LINE
  5
CA0
330
18
100
AcDbEntity
  8
1
  6
Continuous
100
AcDbLine
 10
161.0346652442899
 20
282.6023316364707
 30
0.0
 11
161.0346652442899
 21
294.9574823333196
 31
0.0
  0
LINE
  5
CA1
330
18
100
AcDbEntity
  8
1
  6
Continuous
100
AcDbLine
 10
145.8346652442162
 20
302.7799069849248
 30
0.0
 11
145.8346652442285
 21
274.779906984925
 31
0.0
  0
ARC
  5
CA2
330
18
100
AcDbEntity
  8
1
  6
Continuous
100
AcDbCircle
 10
195.8346652442257
 20
288.7799069848942
 30
0.0
 40
60.0
100
AcDbArc
 50
171.8148219821421
 51
188.1851780177228
  0
ARC
  5
CA3
330
18
100
AcDbEntity
  8
1
  6
Continuous
100
AcDbCircle
 10
198.8013226464845
 20
290.7799069849029
 30
0.0
 40
60.0
100
AcDbArc
 50
181.9102131717399
 51
192.1693877306261
  0
ARC
  5
CA5
330
18
100
AcDbEntity
  8
1
  6
Continuous
100
AcDbCircle
 10
157.8346652442896
 20
278.2799069848703
 30
0.0
 40
1.0
100
AcDbArc
 50
270.0000000001172
 51
0.0
  0
ARC
  5
CA6
330
18
100
AcDbEntity
  8
1
  6
Continuous
100
AcDbCircle
 10
144.3013226464801
 20
279.0270660757241
 30
0.0
 40
4.247159090896102
100
AcDbArc
 50
192.1693877305788
 51
270.0000000000152
  0
ARC
  5
CA7
330
18
100
AcDbEntity
  8
1
  6
Continuous
100
AcDbCircle
 10
137.4356926505136
 20
280.3799069849628
 30
0.0
 40
1.0
100
AcDbArc
 50
188.1851780177228
 51
270.000000000026
  0
LINE
  5
CA8
330
18
100
AcDbEntity
  8
1
  6
Continuous
100
AcDbLine
 10
139.8942772274398
 20
279.3799069849638
 30
0.0
 11
137.435692650514
 21
279.3799069849628
 31
0.0
  0
LINE
  5
CA9
330
18
100
AcDbEntity
  8
1
  6
Continuous
100
AcDbLine
 10
144.3013226464813
 20
274.7799069849246
 30
0.0
 11
145.8346652442285
 21
274.779906984925
 31
0.0
  0
LINE
  5
CAA
330
18
100
AcDbEntity
  8
1
  6
Continuous
100
AcDbLine
 10
145.8346652442273
 20
277.2799069848463
 30
0.0
 11
157.8346652442917
 21
277.2799069848708
 31
0.0
  0
LINE
  5
CAB
330
18
100
AcDbEntity
  8
1
  6
Continuous
100
AcDbLine
 10
149.8346652442237
 20
285.7799069848839
 30
0.0
 11
149.3346652442239
 21
285.2799069848836
 31
0.0
  0
LINE
  5
CAC
330
18
100
AcDbEntity
  8
1
  6
Continuous
100
AcDbLine
 10
149.3346652442239
 20
285.2799069848836
 30
0.0
 11
145.8346652442239
 21
285.2799069848815
 31
0.0
  0
LINE
  5
CAD
330
18
100
AcDbEntity
  8
1
  6
Continuous
100
AcDbLine
 10
161.0346652442899
 20
282.6023316364707
 30
0.0
 11
158.8346652442896
 21
282.6023316364707
 31
0.0
  0
LINE
  5
CAE
330
18
100
AcDbEntity
  8
1
  6
Continuous
100
AcDbLine
 10
159.3346652442251
 20
281.5918961334813
 30
0.0
 11
161.334665244289
 21
281.5918961334813
 31
0.0
  0
LINE
  5
CAF
330
18
100
AcDbEntity
  8
1
  6
Continuous
100
AcDbLine
 10
163.3346652442862
 20
283.7799069849925
 30
0.0
 11
161.0346652442899
 21
283.7799069849942
 31
0.0
  0
LINE
  5
CB0
330
18
100
AcDbEntity
  8
1
  6
Continuous
100
AcDbLine
 10
159.0346652442898
 20
278.7799069849073
 30
0.0
 11
158.8346652442896
 21
278.7799069849073
 31
0.0
  0
LINE
  5
CB1
330
18
100
AcDbEntity
  8
1
  6
Continuous
100
AcDbLine
 10
161.334665244289
 20
279.037121192316
 30
0.0
 11
159.3346652442251
 21
279.037121192316
 31
0.0
  0
LINE
  5
CB2
330
18
100
AcDbEntity
  8
1
  6
Continuous
100
AcDbLine
 10
158.8346652442896
 20
278.2799069848703
 30
0.0
 11
158.8346652442896
 21
282.6023316364707
 31
0.0
  0
LINE
  5
CB3
330
18
100
AcDbEntity
  8
1
  6
Continuous
100
AcDbLine
 10
159.2346652442897
 20
278.9799069849073
 30
0.0
 11
159.2346652442897
 21
282.6023316364707
 31
0.0
  0
LINE
  5
CB4
330
18
100
AcDbEntity
  8
1
  6
Continuous
100
AcDbLine
 10
161.334665244289
 20
283.779906984994
 30
0.0
 11
161.334665244289
 21
279.037121192316
 31
0.0
  0
ARC
  5
CB5
330
18
100
AcDbEntity
  8
1
  6
Continuous
100
AcDbCircle
 10
157.8346652442896
 20
299.279906985016
 30
0.0
 40
1.0
100
AcDbArc
 50
0.0
 51
90.00000000002605
  0
LINE
  5
CB6
330
18
100
AcDbEntity
  8
4
  6
CENTER
100
AcDbLine
 10
168.0337206369879
 20
288.7799069849073
 30
0.0
 11
131.5574953146708
 21
288.7799069848627
 31
0.0
  0
ARC
  5
CB7
330
18
100
AcDbEntity
  8
1
  6
Continuous
100
AcDbCircle
 10
144.3013226464563
 20
298.5327478940357
 30
0.0
 40
4.247159090896102
100
AcDbArc
 50
90.00000000001303
 51
167.8306122695603
  0
ARC
  5
CB8
330
18
100
AcDbEntity
  8
1
  6
Continuous
100
AcDbCircle
 10
198.8013226464895
 20
286.7799069849901
 30
0.0
 40
60.0
100
AcDbArc
 50
167.8306122695144
 51
178.0897868284034
  0
ARC
  5
CB9
330
18
100
AcDbEntity
  8
1
  6
Continuous
100
AcDbCircle
 10
137.4356926505333
 20
297.1799069849625
 30
0.0
 40
1.0
100
AcDbArc
 50
90.00000000002605
 51
171.8148219821421
  0
LINE
  5
CBA
330
18
100
AcDbEntity
  8
1
  6
Continuous
100
AcDbLine
 10
139.8942772274516
 20
298.1799069849638
 30
0.0
 11
137.4356926505329
 21
298.1799069849626
 31
0.0
  0
LINE
  5
CBB
330
18
100
AcDbEntity
  8
1
  6
Continuous
100
AcDbLine
 10
149.3346652442207
 20
292.2799069848836
 30
0.0
 11
149.834665244221
 21
291.7799069848839
 31
0.0
  0
LINE
  5
CBC
330
18
100
AcDbEntity
  8
1
  6
Continuous
100
AcDbLine
 10
149.3346652442207
 20
292.2799069848836
 30
0.0
 11
145.8346652442207
 21
292.2799069848815
 31
0.0
  0
LINE
  5
CBD
330
18
100
AcDbEntity
  8
1
  6
Continuous
100
AcDbLine
 10
145.8346652442173
 20
300.2799069850108
 30
0.0
 11
157.8346652442892
 21
300.2799069850155
 31
0.0
  0
LINE
  5
CBE
330
18
100
AcDbEntity
  8
1
  6
Continuous
100
AcDbLine
 10
144.3013226464553
 20
302.7799069849245
 30
0.0
 11
145.8346652442162
 21
302.7799069849248
 31
0.0
  0
LINE
  5
CBF
330
18
100
AcDbEntity
  8
1
  6
Continuous
100
AcDbLine
 10
158.8346652442896
 20
294.9574823333196
 30
0.0
 11
158.8346652442896
 21
299.279906985016
 31
0.0
  0
LINE
  5
CC0
330
18
100
AcDbEntity
  8
1
  6
Continuous
100
AcDbLine
 10
161.334665244289
 20
300.0299069848953
 30
0.0
 11
161.3346652442892
 21
293.7799069849957
 31
0.0
  0
LINE
  5
CC1
330
18
100
AcDbEntity
  8
1
  6
Continuous
100
AcDbLine
 10
159.2346652442897
 20
294.9574823333196
 30
0.0
 11
159.2346652442897
 21
298.5799069848963
 31
0.0
  0
LINE
  5
CC2
330
18
100
AcDbEntity
  8
1
  6
Continuous
100
AcDbLine
 10
158.8346652442896
 20
294.9574823333196
 30
0.0
 11
161.0346652442899
 21
294.9574823333196
 31
0.0
  0
LINE
  5
CC3
330
18
100
AcDbEntity
  8
1
  6
Continuous
100
AcDbLine
 10
163.3346652442885
 20
288.1230527355667
 30
0.0
 11
161.0346652442899
 21
288.1230527355683
 31
0.0
  0
LINE
  5
CC4
330
18
100
AcDbEntity
  8
1
  6
Continuous
100
AcDbLine
 10
163.3346652442915
 20
293.7799069849941
 30
0.0
 11
161.0346652442899
 21
293.779906984996
 31
0.0
  0
LINE
  5
CC5
330
18
100
AcDbEntity
  8
1
  6
Continuous
100
AcDbLine
 10
163.3346652442892
 20
289.436761234442
 30
0.0
 11
161.0346652442899
 21
289.4367612344438
 31
0.0
  0
LINE
  5
CC6
330
18
100
AcDbEntity
  8
1
  6
Continuous
100
AcDbLine
 10
161.334665244289
 20
300.0299069848953
 30
0.0
 11
159.3346652442251
 21
300.0299069848953
 31
0.0
  0
LINE
  5
CC7
330
18
100
AcDbEntity
  8
1
  6
Continuous
100
AcDbLine
 10
159.0346652442895
 20
298.7799069848962
 30
0.0
 11
158.8346652442896
 21
298.779906984896
 31
0.0
  0
LINE
  5
CCA
330
18
100
AcDbEntity
  8
1
  6
Continuous
100
AcDbLine
 10
145.8346652442223
 20
38.34182283199305
 30
0.0
 11
145.8346652442223
 21
66.34182283199283
 31
0.0
  0
ARC
  5
CCB
330
18
100
AcDbEntity
  8
1
  6
Continuous
100
AcDbCircle
 10
137.8346652442257
 20
43.94182283195312
 30
0.0
 40
1.0
100
AcDbArc
 50
270.0
 51
0.0
  0
ARC
  5
CCC
330
18
100
AcDbEntity
  8
1
  6
Continuous
100
AcDbCircle
 10
137.435692650537
 20
43.94182283195164
 30
0.0
 40
1.0
100
AcDbArc
 50
188.1851780178829
 51
270.0
  0
LINE
  5
CCD
330
18
100
AcDbEntity
  8
1
  6
Continuous
100
AcDbLine
 10
141.8346652442257
 20
43.47432224306721
 30
0.0
 11
141.8346652442257
 21
61.20932342101339
 31
0.0
  0
LINE
  5
CCE
330
18
100
AcDbEntity
  8
1
  6
Continuous
100
AcDbLine
 10
144.3346652442258
 20
43.54252653978159
 30
0.0
 11
144.3346652442258
 21
61.14111912430093
 31
0.0
  0
LINE
  5
CCF
330
18
100
AcDbEntity
  8
1
  6
Continuous
100
AcDbLine
 10
154.4346652442257
 20
61.34182283206206
 30
0.0
 11
154.4346652442257
 21
43.34182283190711
 31
0.0
  0
LINE
  5
CD0
330
18
100
AcDbEntity
  8
1
  6
Continuous
100
AcDbLine
 10
140.2627409010353
 20
42.45834708716471
 30
0.0
 11
143.3619368157744
 21
42.54289847825549
 31
0.0
  0
ARC
  5
CD2
330
18
100
AcDbEntity
  8
1
  6
Continuous
100
AcDbCircle
 10
140.5541779551813
 20
43.94182283195164
 30
0.0
 40
1.0
100
AcDbArc
 50
270.0
 51
276.7539945882274
  0
ARC
  5
CD3
330
18
100
AcDbEntity
  8
1
  6
Continuous
100
AcDbCircle
 10
140.8346652442257
 20
43.47432224306721
 30
0.0
 40
1.0
100
AcDbArc
 50
271.5627397038331
 51
0.0
  0
LINE
  5
CD4
330
18
100
AcDbEntity
  8
1
  6
Continuous
100
AcDbLine
 10
141.7522218789902
 20
43.07671713495159
 30
0.0
 11
140.6717845878117
 21
42.94876257196659
 31
0.0
  0
ARC
  5
CD6
330
18
100
AcDbEntity
  8
1
  6
Continuous
100
AcDbCircle
 10
140.2681952153479
 20
42.25842147486008
 30
0.0
 40
0.2
100
AcDbArc
 50
91.56273970369623
 51
191.6576568658283
  0
LINE
  5
CD7
330
18
100
AcDbEntity
  8
1
  6
Continuous
100
AcDbLine
 10
140.5541779551813
 20
42.94182283195158
 30
0.0
 11
137.435692650537
 21
42.94182283195158
 31
0.0
  0
LINE
  5
CD8
330
18
100
AcDbEntity
  8
1
  6
Continuous
100
AcDbLine
 10
145.8346652442223
 20
40.84182283190711
 30
0.0
 11
157.8346652442917
 21
40.84182283190711
 31
0.0
  0
ARC
  5
CDA
330
18
100
AcDbEntity
  8
1
  6
Continuous
100
AcDbCircle
 10
143.3346652442257
 20
43.54252653978159
 30
0.0
 40
1.0
100
AcDbArc
 50
271.5627397038331
 51
0.0
  0
ARC
  5
CDB
330
18
100
AcDbEntity
  8
1
  6
Continuous
100
AcDbCircle
 10
151.9346652442257
 20
43.34182283190711
 30
0.0
 40
2.5
100
AcDbArc
 50
270.0
 51
0.0
  0
LINE
  5
CDC
330
18
100
AcDbEntity
  8
1
  6
Continuous
100
AcDbLine
 10
140.2627409010508
 20
62.22529857691961
 30
0.0
 11
143.3619368157899
 21
62.14074718582395
 31
0.0
  0
LINE
  5
CDD
330
18
100
AcDbEntity
  8
4
  6
CENTER
100
AcDbLine
 10
167.4173294358608
 20
52.34182283202085
 30
0.0
 11
131.5574953146708
 21
52.34182283204899
 31
0.0
  0
LINE
  5
CDE
330
18
100
AcDbEntity
  8
1
  6
Continuous
100
AcDbLine
 10
138.8346652442257
 20
43.94182283195312
 30
0.0
 11
138.8346652442257
 21
60.74182283195312
 31
0.0
  0
ARC
  5
CDF
330
18
100
AcDbEntity
  8
1
  6
Continuous
100
AcDbCircle
 10
195.8346652442257
 20
52.34182283204557
 30
0.0
 40
60.0
100
AcDbArc
 50
171.8148219823013
 51
188.1851780178829
  0
ARC
  5
CE0
330
18
100
AcDbEntity
  8
1
  6
Continuous
100
AcDbCircle
 10
139.3346652442257
 20
45.44182283195164
 30
0.0
 40
0.5
100
AcDbArc
 50
180.0
 51
270.0
  0
LINE
  5
CE1
330
18
100
AcDbEntity
  8
1
  6
Continuous
100
AcDbLine
 10
141.8346652442257
 20
44.94182283195158
 30
0.0
 11
139.3346652442257
 21
44.94182283195158
 31
0.0
  0
ARC
  5
CE2
330
18
100
AcDbEntity
  8
1
  6
Continuous
100
AcDbCircle
 10
140.8346652442257
 20
61.20932342101339
 30
0.0
 40
1.0
100
AcDbArc
 50
0.0
 51
88.43726029620603
  0
ARC
  5
CE3
330
18
100
AcDbEntity
  8
1
  6
Continuous
100
AcDbCircle
 10
140.5541779567213
 20
60.74182283195147
 30
0.0
 40
1.0
100
AcDbArc
 50
83.24600541168074
 51
90.0
  0
LINE
  5
CE4
330
18
100
AcDbEntity
  8
1
  6
Continuous
100
AcDbLine
 10
141.7522218789888
 20
61.60692852913228
 30
0.0
 11
140.6717845893535
 21
61.73488309193629
 31
0.0
  0
ARC
  5
CE6
330
18
100
AcDbEntity
  8
1
  6
Continuous
100
AcDbCircle
 10
140.2681952153636
 20
62.42522418922419
 30
0.0
 40
0.2
100
AcDbArc
 50
168.3423431340816
 51
268.4372602962125
  0
ARC
  5
CE7
330
18
100
AcDbEntity
  8
1
  6
Continuous
100
AcDbCircle
 10
137.8346652442257
 20
60.74182283195312
 30
0.0
 40
1.0
100
AcDbArc
 50
0.0
 51
90.0
  0
ARC
  5
CE8
330
18
100
AcDbEntity
  8
1
  6
Continuous
100
AcDbCircle
 10
137.4356926505099
 20
60.74182283195147
 30
0.0
 40
1.0
100
AcDbArc
 50
90.0
 51
171.8148219823013
  0
LINE
  5
CE9
330
18
100
AcDbEntity
  8
1
  6
Continuous
100
AcDbLine
 10
140.5541779567213
 20
61.74182283195147
 30
0.0
 11
137.4356926505099
 21
61.74182283195147
 31
0.0
  0
LINE
  5
CEA
330
18
100
AcDbEntity
  8
1
  6
Continuous
100
AcDbLine
 10
141.8346652442257
 20
59.74182283195148
 30
0.0
 11
139.3346652442257
 21
59.74182283195148
 31
0.0
  0
ARC
  5
CEB
330
18
100
AcDbEntity
  8
1
  6
Continuous
100
AcDbCircle
 10
139.3346652442257
 20
59.24182283195147
 30
0.0
 40
0.5
100
AcDbArc
 50
90.0
 51
180.0
  0
LINE
  5
CEC
330
18
100
AcDbEntity
  8
1
  6
Continuous
100
AcDbLine
 10
149.3346652442223
 20
48.8418228320358
 30
0.0
 11
149.3346652442223
 21
55.8418228320358
 31
0.0
  0
LINE
  5
CED
330
18
100
AcDbEntity
  8
1
  6
Continuous
100
AcDbLine
 10
149.8346652442223
 20
55.3418228320359
 30
0.0
 11
149.8346652442223
 21
49.3418228320359
 31
0.0
  0
LINE
  5
CEE
330
18
100
AcDbEntity
  8
1
  6
Continuous
100
AcDbLine
 10
149.3346652442223
 20
48.8418228320358
 30
0.0
 11
149.8346652442223
 21
49.3418228320358
 31
0.0
  0
LINE
  5
CEF
330
18
100
AcDbEntity
  8
1
  6
Continuous
100
AcDbLine
 10
149.3346652442223
 20
48.8418228320358
 30
0.0
 11
145.8346652442223
 21
48.84182283203637
 31
0.0
  0
LINE
  5
CF0
330
18
100
AcDbEntity
  8
1
  6
Continuous
100
AcDbLine
 10
145.8346652442223
 20
63.8418228320716
 30
0.0
 11
157.8346652442892
 21
63.84182283205279
 31
0.0
  0
ARC
  5
CF1
330
18
100
AcDbEntity
  8
1
  6
Continuous
100
AcDbCircle
 10
143.3346652442257
 20
61.14111912430093
 30
0.0
 40
1.0
100
AcDbArc
 50
0.0
 51
88.43726029620603
  0
LINE
  5
CF2
330
18
100
AcDbEntity
  8
1
  6
Continuous
100
AcDbLine
 10
149.8346652442223
 20
55.3418228320358
 30
0.0
 11
149.3346652442223
 21
55.8418228320358
 31
0.0
  0
LINE
  5
CF3
330
18
100
AcDbEntity
  8
1
  6
Continuous
100
AcDbLine
 10
149.3346652442223
 20
55.8418228320358
 30
0.0
 11
145.8346652442223
 21
55.84182283203637
 31
0.0
  0
ARC
  5
CF4
330
18
100
AcDbEntity
  8
1
  6
Continuous
100
AcDbCircle
 10
151.9346652442257
 20
61.34182283206212
 30
0.0
 40
2.5
100
AcDbArc
 50
0.0
 51
90.0
  0
LINE
  5
E13
330
18
100
AcDbEntity
  8
1
  6
Continuous
100
AcDbLine
 10
404.5510677895546
 20
199.8426755932202
 30
0.0
 11
404.5510677895546
 21
128.3861913221798
 31
0.0
  0
LINE
  5
E14
330
18
100
AcDbEntity
  8
1
  6
Continuous
100
AcDbLine
 10
397.5510677895545
 20
207.1144334576918
 30
0.0
 11
397.5510677895545
 21
121.1144334576919
 31
0.0
  0
LINE
  5
E15
330
18
100
AcDbEntity
  8
1
  6
Continuous
100
AcDbLine
 10
407.5510677895547
 20
181.6963975731304
 30
0.0
 11
407.5510677895547
 21
116.614433457691
 31
0.0
  0
LINE
  5
E16
330
18
100
AcDbEntity
  8
1
  6
Continuous
100
AcDbLine
 10
394.0510677895545
 20
131.6144334576921
 30
0.0
 11
397.5510677895545
 21
131.6144334576917
 31
0.0
  0
LINE
  5
E17
330
18
100
AcDbEntity
  8
1
  6
Continuous
100
AcDbLine
 10
394.0510677895545
 20
124.6144334576922
 30
0.0
 11
397.5510677895545
 21
124.6144334576918
 31
0.0
  0
LINE
  5
E18
330
18
100
AcDbEntity
  8
4
  6
CENTER
100
AcDbLine
 10
389.8805019105195
 20
128.1144334576923
 30
0.0
 11
401.7040149392552
 21
128.1144334576918
 31
0.0
  0
LINE
  5
E19
330
18
100
AcDbEntity
  8
1
  6
Continuous
100
AcDbLine
 10
404.5510677895546
 20
116.614433457691
 30
0.0
 11
404.5510677895546
 21
126.8318757240115
 31
0.0
  0
ARC
  5
E1A
330
18
100
AcDbEntity
  8
1
  6
Continuous
100
AcDbCircle
 10
376.8834907266076
 20
144.1925297214355
 30
0.0
 40
32.0
100
AcDbArc
 50
314.5860766758542
 51
329.3440375942919
  0
ARC
  5
E1B
330
18
100
AcDbEntity
  8
1
  6
Continuous
100
AcDbCircle
 10
405.5510677895546
 20
116.614433457691
 30
0.0
 40
1.0
100
AcDbArc
 50
180.0
 51
270.0
  0
ARC
  5
E1C
330
18
100
AcDbEntity
  8
1
  6
Continuous
100
AcDbCircle
 10
406.5510677895546
 20
116.614433457691
 30
0.0
 40
1.0
100
AcDbArc
 50
270.0
 51
0.000000000000007
  0
LINE
  5
E1D
330
18
100
AcDbEntity
  8
1
  6
Continuous
100
AcDbLine
 10
406.5510677895546
 20
115.614433457691
 30
0.0
 11
405.5510677895546
 21
115.614433457691
 31
0.0
  0
ARC
  5
E1E
330
18
100
AcDbEntity
  8
1
  6
Continuous
100
AcDbCircle
 10
398.6448708613594
 20
122.1144334576986
 30
0.0
 40
1.0
100
AcDbArc
 50
270.0
 51
314.5860766758542
  0
LINE
  5
E1F
330
18
100
AcDbEntity
  8
1
  6
Continuous
100
AcDbLine
 10
397.5510677895545
 20
121.1144334576919
 30
0.0
 11
398.6448708613594
 21
121.1144334576919
 31
0.0
  0
ARC
  5
E20
330
18
100
AcDbEntity
  8
1
  6
Continuous
100
AcDbCircle
 10
403.5510677895547
 20
128.3861913221798
 30
0.0
 40
1.0
100
AcDbArc
 50
329.3440375942919
 51
0.000000000000007
  0
ARC
  5
E21
330
18
100
AcDbEntity
  8
1
  6
Continuous
100
AcDbCircle
 10
394.5510677895547
 20
126.8318757240115
 30
0.0
 40
10.0
100
AcDbArc
 50
0.000000000000007
 51
6.808183281539143
  0
LINE
  5
E22
330
18
100
AcDbEntity
  8
1
  6
Continuous
100
AcDbLine
 10
394.0510677895545
 20
131.6144334576921
 30
0.0
 11
393.5510677895545
 21
131.1144334576922
 31
0.0
  0
LINE
  5
E23
330
18
100
AcDbEntity
  8
1
  6
Continuous
100
AcDbLine
 10
393.5510677895547
 20
125.1144334576921
 30
0.0
 11
394.0510677895545
 21
124.6144334576922
 31
0.0
  0
LINE
  5
E24
330
18
100
AcDbEntity
  8
1
  6
Continuous
100
AcDbLine
 10
393.5510677895545
 20
125.1144334576921
 30
0.0
 11
393.5510677895545
 21
131.1144334576922
 31
0.0
  0
LINE
  5
E25
330
18
100
AcDbEntity
  8
1
  6
Continuous
100
AcDbLine
 10
394.0510677895547
 20
131.6144334576921
 30
0.0
 11
394.0510677895547
 21
124.6144334576922
 31
0.0
  0
LINE
  5
E26
330
18
100
AcDbEntity
  8
5
  6
PHANTOM
100
AcDbLine
 10
407.3226406648133
 20
172.7144334576836
 30
0.0
 11
412.4200977223856
 21
167.6169764001112
 31
0.0
  0
LINE
  5
E27
330
18
100
AcDbEntity
  8
5
  6
PHANTOM
100
AcDbLine
 10
406.9226406648131
 20
174.5286470200569
 30
0.0
 11
413.1254364603193
 21
168.3258512245506
 31
0.0
  0
LINE
  5
E28
330
18
100
AcDbEntity
  8
5
  6
PHANTOM
100
AcDbLine
 10
405.8549899103735
 20
186.6271635610067
 30
0.0
 11
451.8748880693403
 21
140.6072654020398
 31
0.0
  0
ARC
  5
E29
330
18
100
AcDbEntity
  8
5
  6
PHANTOM
100
AcDbCircle
 10
435.3657877784617
 20
138.7315893820682
 30
0.0
 40
10.0
100
AcDbArc
 50
45.00000000000059
 51
128.5860023336669
  0
LINE
  5
E2A
330
18
100
AcDbEntity
  8
5
  6
PHANTOM
100
AcDbLine
 10
449.7535677257806
 20
138.4859450584802
 30
0.0
 11
442.436855590327
 21
145.8026571939337
 31
0.0
  0
LINE
  5
E2B
330
18
100
AcDbEntity
  8
5
  6
PHANTOM
100
AcDbLine
 10
451.8748880693403
 20
139.1930518396667
 30
0.0
 11
451.1677812881536
 21
138.4859450584802
 31
0.0
  0
ARC
  5
E2C
330
18
100
AcDbEntity
  8
5
  6
PHANTOM
100
AcDbCircle
 10
450.4606745069671
 20
139.1930518396667
 30
0.0
 40
1.0
100
AcDbArc
 50
225.0000000000006
 51
314.9999999999994
  0
ARC
  5
E2D
330
18
100
AcDbEntity
  8
5
  6
PHANTOM
100
AcDbCircle
 10
451.1677812881536
 20
139.9001586208533
 30
0.0
 40
1.0
100
AcDbArc
 50
314.9999999999994
 51
45.00000000000059
  0
LINE
  5
E2E
330
18
100
AcDbEntity
  8
5
  6
PHANTOM
100
AcDbLine
 10
442.5594111755065
 20
145.6801016087543
 30
0.0
 11
442.5287450128832
 21
145.7107677713775
 31
0.0
  0
LINE
  5
E30
330
18
100
AcDbEntity
  8
5
  6
PHANTOM
100
AcDbLine
 10
412.5597510353702
 20
156.4464573006167
 30
0.0
 11
422.8783482189225
 21
146.1278601170643
 31
0.0
  0
ARC
  5
E31
330
18
100
AcDbEntity
  8
5
  6
PHANTOM
100
AcDbCircle
 10
425.7067753436686
 20
148.9562872418106
 30
0.0
 40
4.0
100
AcDbArc
 50
225.0000000000006
 51
306.9660970477235
  0
ARC
  5
E32
330
18
100
AcDbEntity
  8
5
  6
PHANTOM
100
AcDbCircle
 10
400.7510677895545
 20
182.1144334576884
 30
0.0
 40
45.49999999999999
100
AcDbArc
 50
306.9660970477235
 51
308.5860023336669
  0
ARC
  5
E33
330
18
100
AcDbEntity
  8
5
  6
PHANTOM
100
AcDbCircle
 10
408.8827957731999
 20
164.0832105374315
 30
0.0
 40
6.0
100
AcDbArc
 50
314.9999999999994
 51
45.00000000000059
  0
ARC
  5
E34
330
18
100
AcDbEntity
  8
5
  6
PHANTOM
100
AcDbCircle
 10
408.1774570352663
 20
163.374335712992
 30
0.0
 40
6.0
100
AcDbArc
 50
316.4325437375662
 51
45.00000000000059
  0
LINE
  5
E35
330
18
100
AcDbEntity
  8
5
  6
PHANTOM
100
AcDbLine
 10
412.55975103537
 20
159.274884425363
 30
0.0
 11
413.1254364603193
 21
159.8405698503121
 31
0.0
  0
ARC
  5
E36
330
18
100
AcDbEntity
  8
5
  6
PHANTOM
100
AcDbCircle
 10
413.9739645977432
 20
157.8606708629898
 30
0.0
 40
2.0
100
AcDbArc
 50
136.4325437375662
 51
225.0000000000006
  0
LINE
  5
E37
330
18
100
AcDbEntity
  8
1
  6
Continuous
100
AcDbLine
 10
384.1510677895546
 20
190.5746874955196
 30
0.0
 11
384.1510677895546
 21
172.3644334576908
 31
0.0
  0
LINE
  5
E38
330
18
100
AcDbEntity
  8
1
  6
Continuous
100
AcDbLine
 10
384.5510677895545
 20
192.8143078287696
 30
0.0
 11
384.5510677895545
 21
170.6144334576917
 31
0.0
  0
LINE
  5
E39
330
18
100
AcDbEntity
  8
1
  6
Continuous
100
AcDbLine
 10
391.0352788055945
 20
181.1144334576983
 30
0.0
 11
391.0352788055945
 21
172.0919543075691
 31
0.0
  0
LINE
  5
E3A
330
18
100
AcDbEntity
  8
1
  6
Continuous
100
AcDbLine
 10
384.0510677895554
 20
191.8572192503538
 30
0.0
 11
384.0510677895554
 21
170.8644334577903
 31
0.0
  0
LINE
  5
E3B
330
18
100
AcDbEntity
  8
1
  6
Continuous
100
AcDbLine
 10
382.0510677895553
 20
191.8572192503555
 30
0.0
 11
382.0510677895553
 21
170.8644334577915
 31
0.0
  0
ARC
  5
E3C
330
18
100
AcDbEntity
  8
5
  6
PHANTOM
100
AcDbCircle
 10
409.7510677895593
 20
177.3570741448032
 30
0.0
 40
4.0
100
AcDbArc
 50
180.0000000000667
 51
225.0000000000006
  0
LINE
  5
E3D
330
18
100
AcDbEntity
  8
1
  6
Continuous
100
AcDbLine
 10
388.9510677895545
 20
158.114433457704
 30
0.0
 11
388.9510677895545
 21
138.3759820649772
 31
0.0
  0
ARC
  5
E3E
330
18
100
AcDbEntity
  8
1
  6
Continuous
100
AcDbCircle
 10
400.7510677895541
 20
182.1144334576872
 30
0.0
 40
48.5
100
AcDbArc
 50
261.9660970477235
 51
266.2169117089686
  0
ARC
  5
E3F
330
18
100
AcDbEntity
  8
1
  6
Continuous
100
AcDbCircle
 10
391.9510677895548
 20
138.3759820649772
 30
0.0
 40
3.0
100
AcDbArc
 50
180.0
 51
221.4096221092842
  0
ARC
  5
E40
330
18
100
AcDbEntity
  8
1
  6
Continuous
100
AcDbCircle
 10
394.9510677895542
 20
141.0217333760424
 30
0.0
 40
7.0
100
AcDbArc
 50
221.4096221092842
 51
261.9660970477235
  0
ARC
  5
E41
330
18
100
AcDbEntity
  8
1
  6
Continuous
100
AcDbCircle
 10
392.5510677895545
 20
164.114433457704
 30
0.0
 40
2.999999999999971
100
AcDbArc
 50
270.0
 51
0.000000000000007
  0
LINE
  5
E42
330
18
100
AcDbEntity
  8
1
  6
Continuous
100
AcDbLine
 10
391.3281720244079
 20
171.3848475263826
 30
0.0
 11
395.5510677895535
 21
167.161951761237
 31
0.0
  0
LINE
  5
E43
330
18
100
AcDbEntity
  8
1
  6
Continuous
100
AcDbLine
 10
395.5510677895535
 20
167.161951761237
 30
0.0
 11
395.5510677895547
 21
164.114433457704
 31
0.0
  0
LINE
  5
E45
330
18
100
AcDbEntity
  8
5
  6
PHANTOM
100
AcDbLine
 10
405.2510677895546
 20
173.8890155351787
 30
0.0
 11
405.2510677895546
 21
172.714433457685
 31
0.0
  0
LINE
  5
E46
330
18
100
AcDbEntity
  8
5
  6
PHANTOM
100
AcDbLine
 10
404.5510677895548
 20
173.8890155351786
 30
0.0
 11
405.25106778949
 21
173.8890155351786
 31
0.0
  0
LINE
  5
E47
330
18
100
AcDbEntity
  8
5
  6
PHANTOM
100
AcDbLine
 10
405.2510677895549
 20
172.714433457685
 30
0.0
 11
408.7368542271875
 21
172.7144334576825
 31
0.0
  0
LINE
  5
E48
330
18
100
AcDbEntity
  8
1
  6
Continuous
100
AcDbLine
 10
391.9510677895546
 20
161.114433457704
 30
0.0
 11
392.5510677895545
 21
161.114433457704
 31
0.0
  0
ARC
  5
E49
330
18
100
AcDbEntity
  8
1
  6
Continuous
100
AcDbCircle
 10
391.9510677895546
 20
158.114433457704
 30
0.0
 40
3.0
100
AcDbArc
 50
90.0
 51
180.0
  0
LINE
  5
E4A
330
18
100
AcDbEntity
  8
1
  6
Continuous
100
AcDbLine
 10
393.0985860931004
 20
169.6144334576901
 30
0.0
 11
385.5510677895543
 21
169.6144334576917
 31
0.0
  0
ARC
  5
E4B
330
18
100
AcDbEntity
  8
1
  6
Continuous
100
AcDbCircle
 10
392.0352788055944
 20
172.0919543075691
 30
0.0
 40
1.0
100
AcDbArc
 50
180.0
 51
225.0
  0
ARC
  5
E4C
330
18
100
AcDbEntity
  8
1
  6
Continuous
100
AcDbCircle
 10
384.4073177895546
 20
172.3644334576908
 30
0.0
 40
0.2562500000000227
100
AcDbArc
 50
180.0
 51
257.3196165081742
  0
LINE
  5
E4D
330
18
100
AcDbEntity
  8
1
  6
Continuous
100
AcDbLine
 10
384.5510677895545
 20
172.1144334576908
 30
0.0
 11
384.3510677895547
 21
172.1144334576908
 31
0.0
  0
LINE
  5
E4E
330
18
100
AcDbEntity
  8
1
  6
Continuous
100
AcDbLine
 10
382.0510677895553
 20
170.8644334577916
 30
0.0
 11
384.0510677895558
 21
170.8644334577903
 31
0.0
  0
ARC
  5
E4F
330
18
100
AcDbEntity
  8
1
  6
Continuous
100
AcDbCircle
 10
385.5510677895545
 20
170.6144334576917
 30
0.0
 40
1.0
100
AcDbArc
 50
180.0
 51
270.0
  0
LINE
  5
E50
330
18
100
AcDbEntity
  8
4
  6
CENTER
100
AcDbLine
 10
411.0676206108961
 20
182.1144334576861
 30
0.0
 11
375.3292774398223
 21
182.114433457694
 31
0.0
  0
LINE
  5
E51
330
18
100
AcDbEntity
  8
1
  6
Continuous
100
AcDbLine
 10
393.5510677895545
 20
197.1144334576919
 30
0.0
 11
393.5510677895545
 21
203.114433457692
 31
0.0
  0
LINE
  5
E52
330
18
100
AcDbEntity
  8
1
  6
Continuous
100
AcDbLine
 10
394.0510677895547
 20
203.614433457692
 30
0.0
 11
394.0510677895547
 21
196.614433457692
 31
0.0
  0
LINE
  5
E53
330
18
100
AcDbEntity
  8
1
  6
Continuous
100
AcDbLine
 10
394.0510677895545
 20
196.6144334576918
 30
0.0
 11
397.5510677895545
 21
196.6144334576917
 31
0.0
  0
LINE
  5
E54
330
18
100
AcDbEntity
  8
1
  6
Continuous
100
AcDbLine
 10
397.5510677895545
 20
194.6144334576891
 30
0.0
 11
382.5510677895547
 21
194.6144334576923
 31
0.0
  0
LINE
  5
E55
330
18
100
AcDbEntity
  8
1
  6
Continuous
100
AcDbLine
 10
395.5510677895545
 20
193.6144334576891
 30
0.0
 11
395.5510677895545
 21
183.1144334577133
 31
0.0
  0
ARC
  5
E56
330
18
100
AcDbEntity
  8
1
  6
Continuous
100
AcDbCircle
 10
377.5510677895547
 20
181.6963975731304
 30
0.0
 40
30.0
100
AcDbArc
 50
0.000000000000007
 51
14.83511158197576
  0
ARC
  5
E57
330
18
100
AcDbEntity
  8
5
  6
PHANTOM
100
AcDbCircle
 10
384.641786474777
 20
165.4139601254102
 30
0.0
 40
30.0
100
AcDbArc
 50
45.00000000000059
 51
48.42171808809087
  0
LINE
  5
E58
330
18
100
AcDbEntity
  8
5
  6
PHANTOM
100
AcDbLine
 10
405.7510677895538
 20
182.1144334576884
 30
0.0
 11
405.7510677895593
 21
177.3570741447985
 31
0.0
  0
ARC
  5
E59
330
18
100
AcDbEntity
  8
1
  6
Continuous
100
AcDbCircle
 10
400.7510677895546
 20
182.1144334576883
 30
0.0
 40
9.4
100
AcDbArc
 50
58.76707098448645
 51
66.155529976495
  0
ARC
  5
E5A
330
18
100
AcDbEntity
  8
1
  6
Continuous
100
AcDbCircle
 10
403.5510677895547
 20
186.7317920099345
 30
0.0
 40
4.0
100
AcDbArc
 50
41.40962210927095
 51
58.76707098448645
  0
ARC
  5
E5B
330
18
100
AcDbEntity
  8
1
  6
Continuous
100
AcDbCircle
 10
396.5510677895545
 20
193.6144334576891
 30
0.0
 40
1.0
100
AcDbArc
 50
90.0
 51
180.0
  0
LINE
  5
E5C
330
18
100
AcDbEntity
  8
1
  6
Continuous
100
AcDbLine
 10
380.0510677895553
 20
187.1144334577856
 30
0.0
 11
380.0510677895553
 21
177.1144334577837
 31
0.0
  0
LINE
  5
E5D
330
18
100
AcDbEntity
  8
1
  6
Continuous
100
AcDbLine
 10
380.0510677895552
 20
182.7712877072335
 30
0.0
 11
382.0510677895553
 21
182.771287707235
 31
0.0
  0
LINE
  5
E5E
330
18
100
AcDbEntity
  8
1
  6
Continuous
100
AcDbLine
 10
380.0510677895558
 20
181.457579208358
 30
0.0
 11
382.0510677895553
 21
181.4575792083596
 31
0.0
  0
LINE
  5
E5F
330
18
100
AcDbEntity
  8
1
  6
Continuous
100
AcDbLine
 10
384.1510677895546
 20
176.2144334577826
 30
0.0
 11
384.0510677895554
 21
176.2144334577826
 31
0.0
  0
LINE
  5
E62
330
18
100
AcDbEntity
  8
1
  6
Continuous
100
AcDbLine
 10
380.0510677895581
 20
177.1144334577838
 30
0.0
 11
382.0510677895553
 21
177.1144334577853
 31
0.0
  0
LINE
  5
E63
330
18
100
AcDbEntity
  8
1
  6
Continuous
100
AcDbLine
 10
393.5510677895547
 20
197.1144334576918
 30
0.0
 11
394.0510677895547
 21
196.6144334576918
 31
0.0
  0
LINE
  5
E64
330
18
100
AcDbEntity
  8
1
  6
Continuous
100
AcDbLine
 10
382.5510677895548
 20
192.814307828767
 30
0.0
 11
384.5510677895545
 21
192.8143078287696
 31
0.0
  0
ARC
  5
E65
330
18
100
AcDbEntity
  8
1
  6
Continuous
100
AcDbCircle
 10
382.5510677895545
 20
194.4144334576923
 30
0.0
 40
0.2
100
AcDbArc
 50
90.0
 51
180.0
  0
ARC
  5
E66
330
18
100
AcDbEntity
  8
1
  6
Continuous
100
AcDbCircle
 10
382.5510677895545
 20
193.014307828767
 30
0.0
 40
0.2
100
AcDbArc
 50
180.0
 51
270.0
  0
LINE
  5
E67
330
18
100
AcDbEntity
  8
1
  6
Continuous
100
AcDbLine
 10
384.0510677895555
 20
189.6676795268007
 30
0.0
 11
384.1510677895546
 21
189.6676795268007
 31
0.0
  0
LINE
  5
E69
330
18
100
AcDbEntity
  8
1
  6
Continuous
100
AcDbLine
 10
384.3510677895545
 20
190.7746874955195
 30
0.0
 11
384.5510677895545
 21
190.7746874955195
 31
0.0
  0
ARC
  5
E6A
330
18
100
AcDbEntity
  8
1
  6
Continuous
100
AcDbCircle
 10
384.3510677895545
 20
190.5746874955196
 30
0.0
 40
0.1999999999999886
100
AcDbArc
 50
90.0
 51
180.0
  0
LINE
  5
E6B
330
18
100
AcDbEntity
  8
1
  6
Continuous
100
AcDbLine
 10
384.1510677895546
 20
188.0144334577828
 30
0.0
 11
384.0510677895554
 21
188.0144334577828
 31
0.0
  0
LINE
  5
E6C
330
18
100
AcDbEntity
  8
1
  6
Continuous
100
AcDbLine
 10
382.0510677895553
 20
191.8572192503555
 30
0.0
 11
384.0510677895554
 21
191.857219250354
 31
0.0
  0
LINE
  5
E6E
330
18
100
AcDbEntity
  8
1
  6
Continuous
100
AcDbLine
 10
380.0510677895529
 20
187.1144334577856
 30
0.0
 11
382.0510677895553
 21
187.1144334577871
 31
0.0
  0
LINE
  5
E6F
330
18
100
AcDbEntity
  8
1
  6
Continuous
100
AcDbLine
 10
382.3510677895546
 20
194.4144334576923
 30
0.0
 11
382.3510677895546
 21
191.8572192503555
 31
0.0
  0
LINE
  5
E70
330
18
100
AcDbEntity
  8
1
  6
Continuous
100
AcDbLine
 10
394.0510677895545
 20
203.6144334576919
 30
0.0
 11
397.5510677895545
 21
203.6144334576917
 31
0.0
  0
LINE
  5
E71
330
18
100
AcDbEntity
  8
4
  6
CENTER
100
AcDbLine
 10
389.8215791894219
 20
200.1144334576921
 30
0.0
 11
401.7040149392552
 21
200.1144334576919
 31
0.0
  0
ARC
  5
E72
330
18
100
AcDbEntity
  8
1
  6
Continuous
100
AcDbCircle
 10
376.8834907266118
 20
184.0363371939576
 30
0.0
 40
32.0
100
AcDbArc
 50
30.65596240572343
 51
45.413923324155
  0
ARC
  5
E73
330
18
100
AcDbEntity
  8
1
  6
Continuous
100
AcDbCircle
 10
403.5510677895547
 20
199.8426755932202
 30
0.0
 40
1.0
100
AcDbArc
 50
0.000000000000007
 51
30.6559624057216
  0
ARC
  5
E74
330
18
100
AcDbEntity
  8
1
  6
Continuous
100
AcDbCircle
 10
398.6448708613595
 20
206.1144334576985
 30
0.0
 40
1.0
100
AcDbArc
 50
45.413923324155
 51
90.0
  0
LINE
  5
E75
330
18
100
AcDbEntity
  8
1
  6
Continuous
100
AcDbLine
 10
397.5510677895545
 20
207.1144334576918
 30
0.0
 11
398.6448708613595
 21
207.1144334576918
 31
0.0
  0
LINE
  5
E76
330
18
100
AcDbEntity
  8
1
  6
Continuous
100
AcDbLine
 10
394.0510677895547
 20
203.6144334576917
 30
0.0
 11
393.5510677895547
 21
203.1144334576918
 31
0.0
  0
LINE
  5
1037
330
18
100
AcDbEntity
  8
1
  6
Continuous
100
AcDbLine
 10
395.5510677895545
 20
142.814433457691
 30
0.0
 11
392.6510677895544
 21
142.814433457691
 31
0.0
  0
LINE
  5
1038
330
18
100
AcDbEntity
  8
1
  6
Continuous
100
AcDbLine
 10
395.5510677895545
 20
153.414433457691
 30
0.0
 11
392.6510677895544
 21
153.414433457691
 31
0.0
  0
LINE
  5
103B
330
18
100
AcDbEntity
  8
1
  6
Continuous
100
AcDbLine
 10
395.5510677895545
 20
153.414433457691
 30
0.0
 11
395.5510677895545
 21
142.8144334576909
 31
0.0
  0
LINE
  5
1041
330
18
100
AcDbEntity
  8
1
  6
Continuous
100
AcDbLine
 10
392.6510677895544
 20
153.414433457691
 30
0.0
 11
392.6510677895544
 21
142.8144334576909
 31
0.0
  0
LINE
  5
11E2
330
18
100
AcDbEntity
  8
1
  6
Continuous
100
AcDbLine
 10
22.79521473048663
 20
277.979906984863
 30
0.0
 11
32.86188139715341
 21
285.529906984863
 31
0.0
  0
LINE
  5
11E5
330
18
100
AcDbEntity
  8
1
  6
Continuous
100
AcDbLine
 10
13.02983110281559
 20
284.3307580641019
 30
0.0
 11
17.10019861979162
 21
278.2252067886379
 31
0.0
  0
ARC
  5
11E6
330
18
100
AcDbEntity
  8
1
  6
Continuous
100
AcDbCircle
 10
17.93224891412933
 20
278.7799069848629
 30
0.0
 40
1.0
100
AcDbArc
 50
213.690067525982
 51
270.0
  0
LINE
  5
11E7
330
18
100
AcDbEntity
  8
1
  6
Continuous
100
AcDbLine
 10
17.93224891412921
 20
277.7799069848632
 30
0.0
 11
22.19521473048661
 21
277.7799069848632
 31
0.0
  0
ARC
  5
11E8
330
18
100
AcDbEntity
  8
1
  6
Continuous
100
AcDbCircle
 10
22.19521473048661
 20
278.7799069848629
 30
0.0
 40
1.0
100
AcDbArc
 50
270.0
 51
306.8698976458446
  0
ARC
  5
11EA
330
18
100
AcDbEntity
  8
1
  6
Continuous
100
AcDbCircle
 10
17.93224891412933
 20
298.7799069848628
 30
0.0
 40
1.0
100
AcDbArc
 50
90.0
 51
146.3099324740213
  0
LINE
  5
11EB
330
18
100
AcDbEntity
  8
1
  6
Continuous
100
AcDbLine
 10
17.10019861979151
 20
299.3346071810885
 30
0.0
 11
13.0298311028157
 21
293.2290559056248
 31
0.0
  0
ARC
  5
11EC
330
18
100
AcDbEntity
  8
1
  6
Continuous
100
AcDbCircle
 10
13.86188139715352
 20
292.6743557093995
 30
0.0
 40
1.0
100
AcDbArc
 50
146.3099324740208
 51
180.0
  0
LINE
  5
11ED
330
18
100
AcDbEntity
  8
1
  6
Continuous
100
AcDbLine
 10
12.86188139715352
 20
292.6743557093995
 30
0.0
 11
12.86188139715352
 21
284.885458260327
 31
0.0
  0
ARC
  5
11EE
330
18
100
AcDbEntity
  8
1
  6
Continuous
100
AcDbCircle
 10
13.86188139715341
 20
284.885458260327
 30
0.0
 40
1.0
100
AcDbArc
 50
180.0
 51
213.6900675259786
  0
LINE
  5
11EF
330
18
100
AcDbEntity
  8
1
  6
Continuous
100
AcDbLine
 10
32.86188139715318
 20
292.0299069848632
 30
0.0
 11
22.79521473048652
 21
299.5799069848632
 31
0.0
  0
LINE
  5
11F3
330
18
100
AcDbEntity
  8
1
  6
Continuous
100
AcDbLine
 10
32.86188139715306
 20
292.029906984863
 30
0.0
 11
32.86188139715306
 21
285.5299069848632
 31
0.0
  0
ARC
  5
11F5
330
18
100
AcDbEntity
  8
1
  6
Continuous
100
AcDbCircle
 10
22.19521473048678
 20
298.7799069848628
 30
0.0
 40
1.0
100
AcDbArc
 50
53.13010235415664
 51
90.0
  0
LINE
  5
11F6
330
18
100
AcDbEntity
  8
1
  6
Continuous
100
AcDbLine
 10
22.19521473048666
 20
299.7799069848632
 30
0.0
 11
17.93224891412933
 21
299.7799069848632
 31
0.0
  0
LINE
  5
1201
330
18
100
AcDbEntity
  8
5
  6
PHANTOM
100
AcDbLine
 10
25.54092993662357
 20
172.714433457691
 30
0.0
 11
88.20784947553045
 21
172.714433457691
 31
0.0
  0
LINE
  5
1202
330
18
100
AcDbEntity
  8
5
  6
PHANTOM
100
AcDbLine
 10
25.54092993662357
 20
191.514433457691
 30
0.0
 11
88.20784947553034
 21
191.514433457691
 31
0.0
  0
ARC
  5
1203
330
18
100
AcDbEntity
  8
5
  6
PHANTOM
100
AcDbCircle
 10
64.04092993662345
 20
182.114433457691
 30
0.0
 40
28.0
100
AcDbArc
 50
345.1671520791899
 51
14.83284792081009
  0
ARC
  5
1206
330
18
100
AcDbEntity
  8
5
  6
PHANTOM
100
AcDbCircle
 10
88.20784947553045
 20
175.714433457691
 30
0.0
 40
3.0
100
AcDbArc
 50
270.0
 51
345.1671520791899
  0
ARC
  5
1209
330
18
100
AcDbEntity
  8
5
  6
PHANTOM
100
AcDbCircle
 10
88.20784947553034
 20
188.514433457691
 30
0.0
 40
3.0
100
AcDbArc
 50
14.83284792081009
 51
90.0
  0
LINE
  5
1226
330
18
100
AcDbEntity
  8
1
  6
Continuous
100
AcDbLine
 10
267.4874605752943
 20
121.1144334576792
 30
0.0
 11
267.4874605752943
 21
119.4475139187868
 31
0.0
  0
LINE
  5
1227
330
18
100
AcDbEntity
  8
1
  6
Continuous
100
AcDbLine
 10
286.2874605752942
 20
121.1144334576893
 30
0.0
 11
286.2874605752942
 21
119.4475139187869
 31
0.0
  0
ARC
  5
1228
330
18
100
AcDbEntity
  8
1
  6
Continuous
100
AcDbCircle
 10
276.8874605752943
 20
143.6144334576938
 30
0.0
 40
28.0
100
AcDbArc
 50
255.1671520791898
 51
284.83284792081
  0
ARC
  5
1229
330
18
100
AcDbEntity
  8
1
  6
Continuous
100
AcDbCircle
 10
270.4874605752943
 20
119.4475139187868
 30
0.0
 40
3.0
100
AcDbArc
 50
180.0
 51
255.1671520791898
  0
ARC
  5
122A
330
18
100
AcDbEntity
  8
1
  6
Continuous
100
AcDbCircle
 10
283.2874605752942
 20
119.4475139187869
 30
0.0
 40
3.0
100
AcDbArc
 50
284.83284792081
 51
0.0
  0
LINE
  5
122B
330
18
100
AcDbEntity
  8
1
  6
Continuous
100
AcDbLine
 10
159.3346652442251
 20
300.0299069848953
 30
0.0
 11
159.3346652442251
 21
294.9574823333195
 31
0.0
  0
ARC
  5
122C
330
18
100
AcDbEntity
  8
1
  6
Continuous
100
AcDbCircle
 10
159.0346652442898
 20
278.9799069849073
 30
0.0
 40
0.2
100
AcDbArc
 50
270.0
 51
0.0
  0
ARC
  5
122D
330
18
100
AcDbEntity
  8
1
  6
Continuous
100
AcDbCircle
 10
159.0346652442898
 20
298.5799069848963
 30
0.0
 40
0.2
100
AcDbArc
 50
0.0
 51
90.00000000006512
  0
LINE
  5
122E
330
18
100
AcDbEntity
  8
1
  6
Continuous
100
AcDbLine
 10
159.3346652442251
 20
282.6023316364707
 30
0.0
 11
159.3346652442251
 21
279.037121192316
 31
0.0
  0
LINE
  5
1231
330
18
100
AcDbEntity
  8
1
  6
Continuous
100
AcDbLine
 10
159.3346652442074
 20
41.09182283198122
 30
0.0
 11
159.3346652442404
 21
62.08460862456053
 31
0.0
  0
LINE
  5
1232
330
18
100
AcDbEntity
  8
1
  6
Continuous
100
AcDbLine
 10
159.2346652443051
 20
62.14182283196947
 30
0.0
 11
159.2346652442743
 21
42.54182283198047
 31
0.0
  0
LINE
  5
1233
330
18
100
AcDbEntity
  8
1
  6
Continuous
100
AcDbLine
 10
161.3346652442713
 20
41.09182283197809
 30
0.0
 11
161.334665244305
 21
62.08460862455741
 31
0.0
  0
LINE
  5
1234
330
18
100
AcDbEntity
  8
1
  6
Continuous
100
AcDbLine
 10
158.8346652442896
 20
41.84182283204807
 30
0.0
 11
158.8346652442896
 21
62.84182283219378
 31
0.0
  0
LINE
  5
1236
330
18
100
AcDbEntity
  8
1
  6
Continuous
100
AcDbLine
 10
163.3346652442811
 20
47.34182283187617
 30
0.0
 11
163.3346652442968
 21
57.341822831878
 31
0.0
  0
LINE
  5
1239
330
18
100
AcDbEntity
  8
1
  6
Continuous
100
AcDbLine
 10
159.0346652443055
 20
62.34182283196981
 30
0.0
 11
158.8346652443053
 21
62.34182283197009
 31
0.0
  0
ARC
  5
123A
330
18
100
AcDbEntity
  8
1
  6
Continuous
100
AcDbCircle
 10
159.0346652443051
 20
62.14182283196976
 30
0.0
 40
0.2
100
AcDbArc
 50
359.9999999999099
 51
89.99999999990995
  0
LINE
  5
123C
330
18
100
AcDbEntity
  8
1
  6
Continuous
100
AcDbLine
 10
161.3346652443043
 20
62.08460862455741
 30
0.0
 11
159.3346652442404
 21
62.08460862456053
 31
0.0
  0
LINE
  5
123F
330
18
100
AcDbEntity
  8
1
  6
Continuous
100
AcDbLine
 10
163.3346652442941
 20
57.34182283187789
 30
0.0
 11
161.3346652442974
 21
57.34182283187942
 31
0.0
  0
ARC
  5
1241
330
18
100
AcDbEntity
  8
1
  6
Continuous
100
AcDbCircle
 10
157.8346652442896
 20
41.84182283204807
 30
0.0
 40
1.0
100
AcDbArc
 50
270.0000000001172
 51
0.0
  0
LINE
  5
1242
330
18
100
AcDbEntity
  8
1
  6
Continuous
100
AcDbLine
 10
163.3346652442882
 20
51.68496858242828
 30
0.0
 11
161.3346652442883
 21
51.68496858242986
 31
0.0
  0
LINE
  5
1243
330
18
100
AcDbEntity
  8
1
  6
Continuous
100
AcDbLine
 10
163.3346652442836
 20
47.34182283187617
 30
0.0
 11
161.3346652442813
 21
47.34182283187772
 31
0.0
  0
LINE
  5
1244
330
18
100
AcDbEntity
  8
1
  6
Continuous
100
AcDbLine
 10
163.3346652442894
 20
52.99867708130371
 30
0.0
 11
161.3346652442904
 21
52.99867708130522
 31
0.0
  0
LINE
  5
1246
330
18
100
AcDbEntity
  8
1
  6
Continuous
100
AcDbLine
 10
159.0346652442738
 20
42.34182283198083
 30
0.0
 11
158.8346652442739
 21
42.34182283198134
 31
0.0
  0
ARC
  5
1247
330
18
100
AcDbEntity
  8
1
  6
Continuous
100
AcDbCircle
 10
159.0346652442743
 20
42.54182283198075
 30
0.0
 40
0.2
100
AcDbArc
 50
269.9999999998448
 51
359.9999999999099
  0
LINE
  5
1248
330
18
100
AcDbEntity
  8
1
  6
Continuous
100
AcDbLine
 10
161.3346652442713
 20
41.09182283197809
 30
0.0
 11
159.3346652442074
 21
41.09182283198122
 31
0.0
  0
ARC
  5
1249
330
18
100
AcDbEntity
  8
1
  6
Continuous
100
AcDbCircle
 10
157.8346652442896
 20
62.84182283219378
 30
0.0
 40
1.0
100
AcDbArc
 50
0.0
 51
90.00000000002605
  0
LINE
  5
124A
330
18
100
AcDbEntity
  8
1
  6
Continuous
100
AcDbLine
 10
159.2346652442804
 20
46.44182283194054
 30
0.0
 11
159.3346652442797
 21
46.44182283194038
 31
0.0
  0
LINE
  5
124B
330
18
100
AcDbEntity
  8
1
  6
Continuous
100
AcDbLine
 10
159.2346652442989
 20
58.24182283194068
 30
0.0
 11
159.3346652442981
 21
58.24182283194051
 31
0.0
  0
ARC
  5
124C
330
18
100
AcDbEntity
  8
5
  6
PHANTOM
100
AcDbCircle
 10
26.58851365597911
 20
182.1144334630317
 30
0.0
 40
10.2116165366446
100
AcDbArc
 50
142.6794639787655
 51
217.3205366054345
  0
LINE
  5
124D
330
18
100
AcDbEntity
  8
1
  6
Continuous
100
AcDbLine
 10
147.834665244226
 20
278.2799069848483
 30
0.0
 11
147.8346652442259
 21
285.2799069848827
 31
0.0
  0
LINE
  5
124E
330
18
100
AcDbEntity
  8
1
  6
Continuous
100
AcDbLine
 10
147.8346652442259
 20
292.2799069848827
 30
0.0
 11
147.8346652442259
 21
299.2799069850112
 31
0.0
  0
LINE
  5
12B7
330
18
100
AcDbEntity
  8
4
  6
CENTER
100
AcDbLine
 10
142.6346652442257
 20
174.4611896787175
 30
0.0
 11
142.6346652442257
 21
189.7676772366592
 31
0.0
  0
LINE
  5
12B8
330
18
100
AcDbEntity
  8
4
  6
CENTER
100
AcDbLine
 10
400.7510677895546
 20
189.7676772366592
 30
0.0
 11
400.7510677895546
 21
174.4611896787175
 31
0.0
  0
ARC
  5
1CD8
330
18
100
AcDbEntity
  8
1
  6
Continuous
100
AcDbCircle
 10
178.5498887940245
 20
288.7799069848627
 30
0.0
 40
9.0
100
AcDbArc
 50
344.1191499917188
 51
15.88085000828116
  0
LINE
  5
1CD9
330
18
100
AcDbEntity
  8
1
  6
Continuous
100
AcDbLine
 10
184.9498887940246
 20
292.5799069848626
 30
0.0
 11
184.9498887940246
 21
284.9799069848626
 31
0.0
  0
LINE
  5
1CDA
330
18
100
AcDbEntity
  8
1
  6
Continuous
100
AcDbLine
 10
183.9498887940252
 20
282.2799069848617
 30
0.0
 11
183.9498887940241
 21
295.2799069848637
 31
0.0
  0
LINE
  5
1CDB
330
18
100
AcDbEntity
  8
1
  6
Continuous
100
AcDbLine
 10
178.9498887940252
 20
281.7799069848618
 30
0.0
 11
178.949888794024
 21
295.7799069848633
 31
0.0
  0
LINE
  5
1CDC
330
18
100
AcDbEntity
  8
1
  6
Continuous
100
AcDbLine
 10
183.9498887940246
 20
288.7799069848627
 30
0.0
 11
184.9498887940246
 21
289.7799069848625
 31
0.0
  0
LINE
  5
1CDE
330
18
100
AcDbEntity
  8
4
  6
CENTER
100
AcDbLine
 10
189.9498887940246
 20
288.7799069848627
 30
0.0
 11
176.4029350358705
 21
288.7799069848627
 31
0.0
  0
LINE
  5
1CDF
330
18
100
AcDbEntity
  8
1
  6
Continuous
100
AcDbLine
 10
178.949888794024
 20
281.7799069848618
 30
0.0
 11
183.4498887940241
 21
281.7799069848616
 31
0.0
  0
LINE
  5
1CE0
330
18
100
AcDbEntity
  8
1
  6
Continuous
100
AcDbLine
 10
183.9498887940246
 20
287.7799069848628
 30
0.0
 11
184.9498887940246
 21
288.7799069848627
 31
0.0
  0
LINE
  5
1CE1
330
18
100
AcDbEntity
  8
1
  6
Continuous
100
AcDbLine
 10
184.9498887940245
 20
285.2799069848627
 30
0.0
 11
186.0693039838589
 21
285.3778431237519
 31
0.0
  0
LINE
  5
1CE2
330
18
100
AcDbEntity
  8
1
  6
Continuous
100
AcDbLine
 10
184.9498887940246
 20
284.9799069848626
 30
0.0
 11
183.9498887940246
 21
284.9799069848626
 31
0.0
  0
ARC
  5
1CE3
330
18
100
AcDbEntity
  8
1
  6
Continuous
100
AcDbCircle
 10
185.9560015182472
 20
286.6728962312763
 30
0.0
 40
1.3
100
AcDbArc
 50
274.9999999999997
 51
344.1191499917188
  0
ARC
  5
1CE4
330
18
100
AcDbEntity
  8
1
  6
Continuous
100
AcDbCircle
 10
183.4498887940238
 20
282.2799069848617
 30
0.0
 40
0.5
100
AcDbArc
 50
269.9999999999934
 51
359.9999999999933
  0
LINE
  5
1CE5
330
18
100
AcDbEntity
  8
1
  6
Continuous
100
AcDbLine
 10
178.949888794024
 20
295.7799069848634
 30
0.0
 11
183.4498887940241
 21
295.7799069848637
 31
0.0
  0
LINE
  5
1CE6
330
18
100
AcDbEntity
  8
1
  6
Continuous
100
AcDbLine
 10
184.9498887940246
 20
292.2799069848626
 30
0.0
 11
186.0693039838254
 21
292.1819708459762
 31
0.0
  0
LINE
  5
1CE7
330
18
100
AcDbEntity
  8
1
  6
Continuous
100
AcDbLine
 10
184.9498887940246
 20
292.5799069848626
 30
0.0
 11
183.9498887940246
 21
292.5799069848626
 31
0.0
  0
ARC
  5
1CE8
330
18
100
AcDbEntity
  8
1
  6
Continuous
100
AcDbCircle
 10
183.4498887940238
 20
295.2799069848637
 30
0.0
 40
0.5
100
AcDbArc
 50
0.0000000000065138
 51
90.00000000000325
  0
ARC
  5
1CE9
330
18
100
AcDbEntity
  8
1
  6
Continuous
100
AcDbCircle
 10
185.9560015182335
 20
290.8869177384455
 30
0.0
 40
1.3
100
AcDbArc
 50
15.88085000828116
 51
85.00000000000026
  0
LINE
  5
1CEC
330
18
100
AcDbEntity
  8
1
  6
Continuous
 48
0.25
100
AcDbLine
 10
278.136918257651
 20
231.1671489847233
 30
0.0
 11
278.8914011931769
 21
230.3857959915124
 31
0.0
  0
LINE
  5
1CED
330
18
100
AcDbEntity
  8
1
  6
Continuous
 48
0.25
100
AcDbLine
 10
278.1369182576509
 20
232.4243848416731
 30
0.0
 11
278.8914011931769
 21
233.2057378348843
 31
0.0
  0
ARC
  5
1CEE
330
18
100
AcDbEntity
  8
1
  6
Continuous
 48
0.25
100
AcDbCircle
 10
276.8874605752943
 20
231.7957669131983
 30
0.0
 40
2.45
100
AcDbArc
 50
305.1291099999997
 51
324.871
  0
ARC
  5
1CEF
330
18
100
AcDbEntity
  8
1
  6
Continuous
 48
0.25
100
AcDbCircle
 10
276.8874605752943
 20
231.7957669131983
 30
0.0
 40
2.45
100
AcDbArc
 50
35.12899999999993
 51
54.87100000000006
  0
CIRCLE
  5
1CF0
330
18
100
AcDbEntity
  8
1
  6
Continuous
 48
0.25
100
AcDbCircle
 10
276.8874605752943
 20
231.7957669131983
 30
0.0
 40
4.5
  0
LINE
  5
1CF1
330
18
100
AcDbEntity
  8
4
  6
CENTER
100
AcDbLine
 10
268.8874605752936
 20
231.7957669131983
 30
0.0
 11
284.887460575295
 21
231.7957669131983
 31
0.0
  0
CIRCLE
  5
1CF2
330
18
100
AcDbEntity
  8
1
  6
Continuous
100
AcDbCircle
 10
276.8874605752943
 20
231.7957669131983
 30
0.0
 40
4.599999999999909
  0
CIRCLE
  5
1CF3
330
18
100
AcDbEntity
  8
1
  6
Continuous
100
AcDbCircle
 10
276.8874605752943
 20
231.7957669131983
 30
0.0
 40
6.000000000000683
  0
ARC
  5
1CF4
330
18
100
AcDbEntity
  8
1
  6
Continuous
 48
0.25
100
AcDbCircle
 10
276.8874605752943
 20
231.7957669131983
 30
0.0
 40
2.45
100
AcDbArc
 50
215.1291000000012
 51
234.8708999999987
  0
LINE
  5
1CF5
330
18
100
AcDbEntity
  8
1
  6
Continuous
 48
0.25
100
AcDbLine
 10
276.2588426468194
 20
230.5463092308416
 30
0.0
 11
275.4774896536082
 21
229.7918262953156
 31
0.0
  0
LINE
  5
1CF6
330
18
100
AcDbEntity
  8
1
  6
Continuous
 48
0.25
100
AcDbLine
 10
277.5160785037692
 20
230.5463092308416
 30
0.0
 11
278.2974314969802
 21
229.7918262953156
 31
0.0
  0
LINE
  5
1CF7
330
18
100
AcDbEntity
  8
4
  6
CENTER
100
AcDbLine
 10
276.8874605752943
 20
223.7957669131976
 30
0.0
 11
276.8874605752943
 21
239.795766913199
 31
0.0
  0
LINE
  5
1CF8
330
18
100
AcDbEntity
  8
1
  6
Continuous
 48
0.25
100
AcDbLine
 10
276.8874605752943
 20
230.7747047211648
 30
0.0
 11
276.2588426468194
 21
230.5463092308416
 31
0.0
  0
LINE
  5
1CF9
330
18
100
AcDbEntity
  8
1
  6
Continuous
 48
0.25
100
AcDbLine
 10
276.8881676820754
 20
232.8161219984504
 30
0.0
 11
276.2588426468195
 21
233.0452245955549
 31
0.0
  0
LINE
  5
1CFA
330
18
100
AcDbEntity
  8
1
  6
Continuous
 48
0.25
100
AcDbLine
 10
275.867105490042
 20
231.7950598064171
 30
0.0
 11
275.6380028929377
 21
231.1671489847235
 31
0.0
  0
LINE
  5
1CFB
330
18
100
AcDbEntity
  8
1
  6
Continuous
 48
0.25
100
AcDbLine
 10
275.867105490042
 20
231.7950598064171
 30
0.0
 11
275.6380028929377
 21
232.4243848416731
 31
0.0
  0
ARC
  5
1CFC
330
18
100
AcDbEntity
  8
1
  6
Continuous
 48
0.25
100
AcDbCircle
 10
276.8874605752943
 20
231.7957669131983
 30
0.0
 40
2.45
100
AcDbArc
 50
125.1289999999999
 51
144.8710000000001
  0
LINE
  5
1CFD
330
18
100
AcDbEntity
  8
1
  6
Continuous
 48
0.25
100
AcDbLine
 10
275.6380028929377
 20
231.1671489847235
 30
0.0
 11
274.8835199574116
 21
230.3857959915124
 31
0.0
  0
LINE
  5
1CFE
330
18
100
AcDbEntity
  8
1
  6
Continuous
 48
0.25
100
AcDbLine
 10
275.6380028929377
 20
232.4243848416731
 30
0.0
 11
274.8835199574116
 21
233.2057378348843
 31
0.0
  0
LINE
  5
1CFF
330
18
100
AcDbEntity
  8
1
  6
Continuous
 48
0.25
100
AcDbLine
 10
276.2588426468195
 20
233.0452245955549
 30
0.0
 11
275.4774896536083
 21
233.7997075310809
 31
0.0
  0
LINE
  5
1D00
330
18
100
AcDbEntity
  8
1
  6
Continuous
 48
0.25
100
AcDbLine
 10
277.9085227673276
 20
231.7957669131983
 30
0.0
 11
278.136918257651
 21
231.1671489847233
 31
0.0
  0
LINE
  5
1D01
330
18
100
AcDbEntity
  8
1
  6
Continuous
 48
0.25
100
AcDbLine
 10
277.9085227673276
 20
231.7957669131983
 30
0.0
 11
278.1369182576509
 21
232.4243848416731
 31
0.0
  0
LINE
  5
1D02
330
18
100
AcDbEntity
  8
1
  6
Continuous
 48
0.25
100
AcDbLine
 10
276.8874605752943
 20
230.7747047211648
 30
0.0
 11
277.5160785037692
 21
230.5463092308416
 31
0.0
  0
LINE
  5
1D03
330
18
100
AcDbEntity
  8
1
  6
Continuous
 48
0.25
100
AcDbLine
 10
276.8881676820754
 20
232.8161219984504
 30
0.0
 11
277.516078503769
 21
233.0452245955549
 31
0.0
  0
LINE
  5
1D04
330
18
100
AcDbEntity
  8
1
  6
Continuous
 48
0.25
100
AcDbLine
 10
277.516078503769
 20
233.0452245955549
 30
0.0
 11
278.2974314969802
 21
233.7997075310809
 31
0.0
  0
LINE
  5
1D08
330
18
100
AcDbEntity
  8
1
  6
Continuous
100
AcDbLine
 10
197.2498887940245
 20
188.1144334576933
 30
0.0
 11
197.2498887940245
 21
176.1144334576933
 31
0.0
  0
LINE
  5
1D09
330
18
100
AcDbEntity
  8
1
  6
Continuous
100
AcDbLine
 10
198.5498887940245
 20
186.714433457694
 30
0.0
 11
198.5498887940245
 21
177.5144334576941
 31
0.0
  0
ARC
  5
1D0A
330
18
100
AcDbEntity
  8
1
  6
Continuous
100
AcDbCircle
 10
199.871938073716
 20
179.3362095223696
 30
0.0
 40
1.6
100
AcDbArc
 50
274.9999999999997
 51
344.506032499479
  0
LINE
  5
1D0B
330
18
100
AcDbEntity
  8
1
  6
Continuous
100
AcDbLine
 10
196.4498887940245
 20
188.1144334576933
 30
0.0
 11
196.4498887940245
 21
176.1144334576933
 31
0.0
  0
LINE
  5
1D0E
330
18
100
AcDbEntity
  8
1
  6
Continuous
100
AcDbLine
 10
197.2498887940245
 20
176.1144334576935
 30
0.0
 11
196.4498887940245
 21
176.1144334576933
 31
0.0
  0
LINE
  5
1D0F
330
18
100
AcDbEntity
  8
1
  6
Continuous
100
AcDbLine
 10
198.5498887940245
 20
177.5144334576941
 30
0.0
 11
197.2498887940245
 21
177.5144334576941
 31
0.0
  0
LINE
  5
1D10
330
18
100
AcDbEntity
  8
1
  6
Continuous
100
AcDbLine
 10
198.5498887940245
 20
177.614433457694
 30
0.0
 11
200.011387262161
 21
177.7422980054164
 31
0.0
  0
LINE
  5
1D15
330
18
100
AcDbEntity
  8
1
  6
Continuous
100
AcDbLine
 10
178.949888794025
 20
195.1144334576928
 30
0.0
 11
178.9498887940242
 21
206.1144334576928
 31
0.0
  0
LINE
  5
1D16
330
18
100
AcDbEntity
  8
1
  6
Continuous
100
AcDbLine
 10
183.949888794025
 20
195.6144334576931
 30
0.0
 11
183.9498887940242
 21
205.6144334576931
 31
0.0
  0
LINE
  5
1D17
330
18
100
AcDbEntity
  8
1
  6
Continuous
100
AcDbLine
 10
184.9498887940247
 20
203.9144334576923
 30
0.0
 11
184.9498887940247
 21
196.3144334576922
 31
0.0
  0
ARC
  5
1D18
330
18
100
AcDbEntity
  8
1
  6
Continuous
100
AcDbCircle
 10
178.5498887940246
 20
200.1144334576921
 30
0.0
 40
9.0
100
AcDbArc
 50
344.1191499917188
 51
15.88085000828116
  0
LINE
  5
1D19
330
18
100
AcDbEntity
  8
1
  6
Continuous
100
AcDbLine
 10
183.9498887940247
 20
199.1144334576921
 30
0.0
 11
184.9498887940247
 21
200.1144334576921
 31
0.0
  0
LINE
  5
1D1A
330
18
100
AcDbEntity
  8
1
  6
Continuous
100
AcDbLine
 10
178.949888794025
 20
195.1144334576929
 30
0.0
 11
183.449888794025
 21
195.1144334576931
 31
0.0
  0
ARC
  5
1D1B
330
18
100
AcDbEntity
  8
1
  6
Continuous
100
AcDbCircle
 10
183.4498887940251
 20
195.6144334576933
 30
0.0
 40
0.5
100
AcDbArc
 50
270.0000000000032
 51
0.0000000000065138
  0
LINE
  5
1D1C
330
18
100
AcDbEntity
  8
1
  6
Continuous
100
AcDbLine
 10
184.9498887940247
 20
196.3144334576922
 30
0.0
 11
183.9498887940247
 21
196.3144334576922
 31
0.0
  0
ARC
  5
1D1D
330
18
100
AcDbEntity
  8
1
  6
Continuous
100
AcDbCircle
 10
185.9560015182474
 20
198.007422704106
 30
0.0
 40
1.3
100
AcDbArc
 50
274.9999999999997
 51
344.1191499917188
  0
LINE
  5
1D1E
330
18
100
AcDbEntity
  8
1
  6
Continuous
100
AcDbLine
 10
184.9498887940247
 20
196.6144334576921
 30
0.0
 11
186.0693039838591
 21
196.7123695965814
 31
0.0
  0
LINE
  5
1D1F
330
18
100
AcDbEntity
  8
4
  6
CENTER
100
AcDbLine
 10
204.0547514987506
 20
182.114433457694
 30
0.0
 11
193.3157941307131
 21
182.114433457694
 31
0.0
  0
LINE
  5
1D20
330
18
100
AcDbEntity
  8
1
  6
Continuous
100
AcDbLine
 10
197.2498887940245
 20
188.1144334576934
 30
0.0
 11
196.4498887940245
 21
188.1144334576933
 31
0.0
  0
LINE
  5
1D21
330
18
100
AcDbEntity
  8
1
  6
Continuous
100
AcDbLine
 10
198.5498887940245
 20
186.714433457694
 30
0.0
 11
197.2498887940245
 21
186.714433457694
 31
0.0
  0
ARC
  5
1D22
330
18
100
AcDbEntity
  8
1
  6
Continuous
100
AcDbCircle
 10
199.8719380736988
 20
184.8926573930144
 30
0.0
 40
1.6
100
AcDbArc
 50
15.49396750052098
 51
85.00000000000026
  0
LINE
  5
1D23
330
18
100
AcDbEntity
  8
1
  6
Continuous
100
AcDbLine
 10
198.5498887940244
 20
186.614433457694
 30
0.0
 11
200.0113872621198
 21
186.4865689099752
 31
0.0
  0
ARC
  5
1D24
330
18
100
AcDbEntity
  8
1
  6
Continuous
100
AcDbCircle
 10
189.8498887940247
 20
182.114433457694
 30
0.0
 40
12.0
100
AcDbArc
 50
344.506032499479
 51
15.49396750052098
  0
LINE
  5
1D25
330
18
100
AcDbEntity
  8
1
  6
Continuous
100
AcDbLine
 10
197.2498887940245
 20
182.114433457694
 30
0.0
 11
198.5498887940245
 21
183.4144334576938
 31
0.0
  0
LINE
  5
1D26
330
18
100
AcDbEntity
  8
1
  6
Continuous
100
AcDbLine
 10
197.2498887940245
 20
180.814433457694
 30
0.0
 11
198.5498887940245
 21
182.114433457694
 31
0.0
  0
LINE
  5
1D27
330
18
100
AcDbEntity
  8
4
  6
CENTER
100
AcDbLine
 10
189.9498887940247
 20
200.1144334576921
 30
0.0
 11
176.4029350358707
 21
200.1144334576921
 31
0.0
  0
LINE
  5
1D28
330
18
100
AcDbEntity
  8
1
  6
Continuous
100
AcDbLine
 10
178.9498887940242
 20
206.1144334576929
 30
0.0
 11
183.4498887940242
 21
206.1144334576931
 31
0.0
  0
ARC
  5
1D29
330
18
100
AcDbEntity
  8
1
  6
Continuous
100
AcDbCircle
 10
183.449888794024
 20
205.6144334576933
 30
0.0
 40
0.5
100
AcDbArc
 50
0.0000000000065138
 51
90.00000000000325
  0
LINE
  5
1D2A
330
18
100
AcDbEntity
  8
1
  6
Continuous
100
AcDbLine
 10
184.9498887940247
 20
203.9144334576923
 30
0.0
 11
183.9498887940247
 21
203.9144334576923
 31
0.0
  0
ARC
  5
1D2B
330
18
100
AcDbEntity
  8
1
  6
Continuous
100
AcDbCircle
 10
185.9560015182336
 20
202.221444211275
 30
0.0
 40
1.3
100
AcDbArc
 50
15.88085000828116
 51
85.00000000000026
  0
LINE
  5
1D2C
330
18
100
AcDbEntity
  8
1
  6
Continuous
100
AcDbLine
 10
184.9498887940247
 20
203.6144334576921
 30
0.0
 11
186.0693039838256
 21
203.5164973188058
 31
0.0
  0
LINE
  5
1D2D
330
18
100
AcDbEntity
  8
1
  6
Continuous
100
AcDbLine
 10
183.9498887940247
 20
200.1144334576921
 30
0.0
 11
184.9498887940247
 21
201.1144334576921
 31
0.0
  0
LINE
  5
1D32
330
18
100
AcDbEntity
  8
1
  6
Continuous
100
AcDbLine
 10
178.949888794025
 20
133.1144334576956
 30
0.0
 11
178.949888794024
 21
122.1144334576956
 31
0.0
  0
LINE
  5
1D33
330
18
100
AcDbEntity
  8
1
  6
Continuous
100
AcDbLine
 10
183.949888794025
 20
132.6144334576954
 30
0.0
 11
183.9498887940242
 21
122.6144334576954
 31
0.0
  0
LINE
  5
1D34
330
18
100
AcDbEntity
  8
1
  6
Continuous
100
AcDbLine
 10
184.9498887940247
 20
131.9144334576923
 30
0.0
 11
184.9498887940247
 21
124.3144334576923
 31
0.0
  0
ARC
  5
1D35
330
18
100
AcDbEntity
  8
1
  6
Continuous
100
AcDbCircle
 10
178.5498887940247
 20
128.1144334576923
 30
0.0
 40
9.0
100
AcDbArc
 50
344.1191499917188
 51
15.88085000828116
  0
LINE
  5
1D36
330
18
100
AcDbEntity
  8
1
  6
Continuous
100
AcDbLine
 10
183.9498887940247
 20
127.1144334576923
 30
0.0
 11
184.9498887940247
 21
128.1144334576923
 31
0.0
  0
LINE
  5
1D38
330
18
100
AcDbEntity
  8
1
  6
Continuous
100
AcDbLine
 10
178.949888794024
 20
122.1144334576956
 30
0.0
 11
183.4498887940242
 21
122.1144334576954
 31
0.0
  0
ARC
  5
1D39
330
18
100
AcDbEntity
  8
1
  6
Continuous
100
AcDbCircle
 10
183.449888794024
 20
122.6144334576954
 30
0.0
 40
0.5
100
AcDbArc
 50
269.9999999999934
 51
359.9999999999933
  0
LINE
  5
1D3A
330
18
100
AcDbEntity
  8
1
  6
Continuous
100
AcDbLine
 10
184.9498887940247
 20
124.3144334576923
 30
0.0
 11
183.9498887940247
 21
124.3144334576923
 31
0.0
  0
ARC
  5
1D3B
330
18
100
AcDbEntity
  8
1
  6
Continuous
100
AcDbCircle
 10
185.9560015182476
 20
126.0074227041061
 30
0.0
 40
1.3
100
AcDbArc
 50
274.9999999999997
 51
344.1191499917188
  0
LINE
  5
1D3C
330
18
100
AcDbEntity
  8
1
  6
Continuous
100
AcDbLine
 10
184.9498887940247
 20
124.6144334576923
 30
0.0
 11
186.0693039838592
 21
124.7123695965816
 31
0.0
  0
LINE
  5
1D3D
330
18
100
AcDbEntity
  8
4
  6
CENTER
100
AcDbLine
 10
189.9498887940247
 20
128.1144334576923
 30
0.0
 11
176.0815643298344
 21
128.1144334576923
 31
0.0
  0
LINE
  5
1D3E
330
18
100
AcDbEntity
  8
1
  6
Continuous
100
AcDbLine
 10
178.949888794025
 20
133.1144334576957
 30
0.0
 11
183.4498887940251
 21
133.1144334576955
 31
0.0
  0
ARC
  5
1D3F
330
18
100
AcDbEntity
  8
1
  6
Continuous
100
AcDbCircle
 10
183.4498887940251
 20
132.6144334576954
 30
0.0
 40
0.5
100
AcDbArc
 50
359.9999999999933
 51
89.99999999999348
  0
LINE
  5
1D40
330
18
100
AcDbEntity
  8
1
  6
Continuous
100
AcDbLine
 10
184.9498887940247
 20
131.9144334576923
 30
0.0
 11
183.9498887940247
 21
131.9144334576923
 31
0.0
  0
ARC
  5
1D41
330
18
100
AcDbEntity
  8
1
  6
Continuous
100
AcDbCircle
 10
185.9560015182335
 20
130.2214442112751
 30
0.0
 40
1.3
100
AcDbArc
 50
15.88085000828116
 51
85.00000000000026
  0
LINE
  5
1D42
330
18
100
AcDbEntity
  8
1
  6
Continuous
100
AcDbLine
 10
184.9498887940247
 20
131.6144334576923
 30
0.0
 11
186.0693039838256
 21
131.516497318806
 31
0.0
  0
LINE
  5
1D43
330
18
100
AcDbEntity
  8
1
  6
Continuous
100
AcDbLine
 10
183.9498887940247
 20
128.1144334576923
 30
0.0
 11
184.9498887940247
 21
129.1144334576922
 31
0.0
  0
LINE
  5
1D49
330
18
100
AcDbEntity
  8
4
  6
CENTER
100
AcDbLine
 10
189.9498887940247
 20
52.3418228320208
 30
0.0
 11
176.4029350358706
 21
52.3418228320208
 31
0.0
  0
ARC
  5
1D4A
330
18
100
AcDbEntity
  8
1
  6
Continuous
100
AcDbCircle
 10
178.5498887940246
 20
52.3418228320208
 30
0.0
 40
9.0
100
AcDbArc
 50
344.1191499917188
 51
15.88085000828116
  0
LINE
  5
1D4B
330
18
100
AcDbEntity
  8
1
  6
Continuous
100
AcDbLine
 10
178.9498887940253
 20
45.34182283202006
 30
0.0
 11
178.949888794024
 21
59.34182283202146
 31
0.0
  0
LINE
  5
1D4C
330
18
100
AcDbEntity
  8
1
  6
Continuous
100
AcDbLine
 10
183.9498887940253
 20
45.84182283201971
 30
0.0
 11
183.9498887940242
 21
58.84182283202176
 31
0.0
  0
LINE
  5
1D4D
330
18
100
AcDbEntity
  8
1
  6
Continuous
100
AcDbLine
 10
184.9498887940247
 20
56.14182283202087
 30
0.0
 11
184.9498887940247
 21
48.54182283202078
 31
0.0
  0
ARC
  5
1D4E
330
18
100
AcDbEntity
  8
1
  6
Continuous
100
AcDbCircle
 10
185.9560015182336
 20
54.44883358560367
 30
0.0
 40
1.3
100
AcDbArc
 50
15.88085000828116
 51
85.00000000000026
  0
LINE
  5
1D4F
330
18
100
AcDbEntity
  8
1
  6
Continuous
100
AcDbLine
 10
178.949888794024
 20
45.34182283202006
 30
0.0
 11
183.4498887940242
 21
45.34182283201982
 31
0.0
  0
LINE
  5
1D50
330
18
100
AcDbEntity
  8
1
  6
Continuous
100
AcDbLine
 10
183.9498887940247
 20
52.3418228320208
 30
0.0
 11
184.9498887940247
 21
53.34182283202074
 31
0.0
  0
LINE
  5
1D51
330
18
100
AcDbEntity
  8
1
  6
Continuous
100
AcDbLine
 10
184.9498887940246
 20
48.84182283202079
 30
0.0
 11
186.069303983859
 21
48.93975897090996
 31
0.0
  0
ARC
  5
1D52
330
18
100
AcDbEntity
  8
1
  6
Continuous
100
AcDbCircle
 10
183.449888794024
 20
45.84182283201978
 30
0.0
 40
0.5
100
AcDbArc
 50
269.9999999999934
 51
359.9999999999933
  0
LINE
  5
1D53
330
18
100
AcDbEntity
  8
1
  6
Continuous
100
AcDbLine
 10
184.9498887940247
 20
48.54182283202078
 30
0.0
 11
183.9498887940247
 21
48.54182283202078
 31
0.0
  0
LINE
  5
1D54
330
18
100
AcDbEntity
  8
1
  6
Continuous
100
AcDbLine
 10
183.9498887940247
 20
51.34182283202085
 30
0.0
 11
184.9498887940247
 21
52.3418228320208
 31
0.0
  0
ARC
  5
1D55
330
18
100
AcDbEntity
  8
1
  6
Continuous
100
AcDbCircle
 10
185.9560015182473
 20
50.23481207843463
 30
0.0
 40
1.3
100
AcDbArc
 50
274.9999999999997
 51
344.1191499917188
  0
LINE
  5
1D56
330
18
100
AcDbEntity
  8
1
  6
Continuous
100
AcDbLine
 10
178.949888794024
 20
59.34182283202154
 30
0.0
 11
183.4498887940242
 21
59.34182283202176
 31
0.0
  0
LINE
  5
1D57
330
18
100
AcDbEntity
  8
1
  6
Continuous
100
AcDbLine
 10
184.9498887940247
 20
55.84182283202078
 30
0.0
 11
186.0693039838255
 21
55.74388669313441
 31
0.0
  0
ARC
  5
1D58
330
18
100
AcDbEntity
  8
1
  6
Continuous
100
AcDbCircle
 10
183.449888794024
 20
58.84182283202182
 30
0.0
 40
0.5
100
AcDbArc
 50
0.0000000000065138
 51
90.00000000000325
  0
LINE
  5
1D59
330
18
100
AcDbEntity
  8
1
  6
Continuous
100
AcDbLine
 10
184.9498887940247
 20
56.14182283202087
 30
0.0
 11
183.9498887940247
 21
56.14182283202087
 31
0.0
  0
LINE
  5
1D5B
330
18
100
AcDbEntity
  8
1
  6
Continuous
100
AcDbLine
 10
353.5393739183763
 20
188.1144334576967
 30
0.0
 11
353.5393739183763
 21
176.1144334576967
 31
0.0
  0
LINE
  5
1D5C
330
18
100
AcDbEntity
  8
1
  6
Continuous
100
AcDbLine
 10
352.2393739183763
 20
186.7144334576974
 30
0.0
 11
352.2393739183763
 21
177.5144334576975
 31
0.0
  0
ARC
  5
1D5D
330
18
100
AcDbEntity
  8
1
  6
Continuous
100
AcDbCircle
 10
350.9173246386602
 20
179.336209522387
 30
0.0
 40
1.6
100
AcDbArc
 50
195.493967500521
 51
265.0000000000003
  0
LINE
  5
1D5E
330
18
100
AcDbEntity
  8
1
  6
Continuous
100
AcDbLine
 10
354.3393739183763
 20
188.1144334576967
 30
0.0
 11
354.3393739183763
 21
176.1144334576967
 31
0.0
  0
LINE
  5
1D62
330
18
100
AcDbEntity
  8
4
  6
CENTER
100
AcDbLine
 10
360.8393739183767
 20
128.1144334576923
 30
0.0
 11
374.707698382567
 21
128.1144334576923
 31
0.0
  0
LINE
  5
1D64
330
18
100
AcDbEntity
  8
1
  6
Continuous
100
AcDbLine
 10
371.8393739183763
 20
133.1144334576956
 30
0.0
 11
371.8393739183774
 21
122.1144334576956
 31
0.0
  0
LINE
  5
1D65
330
18
100
AcDbEntity
  8
1
  6
Continuous
100
AcDbLine
 10
365.8393739183767
 20
131.9144334576923
 30
0.0
 11
365.8393739183767
 21
124.3144334576923
 31
0.0
  0
LINE
  5
1D66
330
18
100
AcDbEntity
  8
1
  6
Continuous
100
AcDbLine
 10
366.8393739183763
 20
132.6144334576954
 30
0.0
 11
366.8393739183773
 21
122.6144334576954
 31
0.0
  0
LINE
  5
1D68
330
18
100
AcDbEntity
  8
1
  6
Continuous
100
AcDbLine
 10
366.8393739183767
 20
128.1144334576923
 30
0.0
 11
365.8393739183767
 21
127.1144334576924
 31
0.0
  0
ARC
  5
1D69
330
18
100
AcDbEntity
  8
1
  6
Continuous
100
AcDbCircle
 10
372.2393739183768
 20
128.1144334576923
 30
0.0
 40
9.0
100
AcDbArc
 50
164.1191499917188
 51
195.8808500082812
  0
LINE
  5
1D6B
330
18
100
AcDbEntity
  8
1
  6
Continuous
100
AcDbLine
 10
371.8393739183774
 20
122.1144334576956
 30
0.0
 11
367.3393739183773
 21
122.1144334576954
 31
0.0
  0
ARC
  5
1D6C
330
18
100
AcDbEntity
  8
1
  6
Continuous
100
AcDbCircle
 10
364.8332611941539
 20
126.0074227041061
 30
0.0
 40
1.3
100
AcDbArc
 50
195.8808500082812
 51
265.0000000000003
  0
LINE
  5
1D6D
330
18
100
AcDbEntity
  8
1
  6
Continuous
100
AcDbLine
 10
365.8393739183767
 20
124.6144334576923
 30
0.0
 11
364.7199587285423
 21
124.7123695965816
 31
0.0
  0
ARC
  5
1D6E
330
18
100
AcDbEntity
  8
1
  6
Continuous
100
AcDbCircle
 10
367.3393739183775
 20
122.6144334576954
 30
0.0
 40
0.5
100
AcDbArc
 50
180.0000000000032
 51
270.0000000000032
  0
LINE
  5
1D6F
330
18
100
AcDbEntity
  8
1
  6
Continuous
100
AcDbLine
 10
365.8393739183767
 20
124.3144334576923
 30
0.0
 11
366.8393739183767
 21
124.3144334576923
 31
0.0
  0
LINE
  5
1D70
330
18
100
AcDbEntity
  8
1
  6
Continuous
100
AcDbLine
 10
371.8393739183763
 20
133.1144334576957
 30
0.0
 11
367.3393739183763
 21
133.1144334576955
 31
0.0
  0
ARC
  5
1D71
330
18
100
AcDbEntity
  8
1
  6
Continuous
100
AcDbCircle
 10
364.8332611941679
 20
130.2214442112751
 30
0.0
 40
1.3
100
AcDbArc
 50
94.99999999999976
 51
164.1191499917188
  0
LINE
  5
1D72
330
18
100
AcDbEntity
  8
1
  6
Continuous
100
AcDbLine
 10
366.8393739183767
 20
129.1144334576923
 30
0.0
 11
365.8393739183767
 21
128.1144334576923
 31
0.0
  0
LINE
  5
1D73
330
18
100
AcDbEntity
  8
1
  6
Continuous
100
AcDbLine
 10
365.8393739183767
 20
131.6144334576923
 30
0.0
 11
364.7199587285756
 21
131.516497318806
 31
0.0
  0
ARC
  5
1D74
330
18
100
AcDbEntity
  8
1
  6
Continuous
100
AcDbCircle
 10
367.3393739183763
 20
132.6144334576954
 30
0.0
 40
0.5
100
AcDbArc
 50
90.00000000000325
 51
180.0000000000032
  0
LINE
  5
1D75
330
18
100
AcDbEntity
  8
1
  6
Continuous
100
AcDbLine
 10
365.8393739183767
 20
131.9144334576923
 30
0.0
 11
366.8393739183767
 21
131.9144334576923
 31
0.0
  0
LINE
  5
1D78
330
18
100
AcDbEntity
  8
1
  6
Continuous
100
AcDbLine
 10
352.2393739183763
 20
177.5144334576975
 30
0.0
 11
353.5393739183763
 21
177.5144334576975
 31
0.0
  0
LINE
  5
1D79
330
18
100
AcDbEntity
  8
1
  6
Continuous
100
AcDbLine
 10
352.2393739183763
 20
177.6144334576974
 30
0.0
 11
350.77787545024
 21
177.7422980054198
 31
0.0
  0
LINE
  5
1D7A
330
18
100
AcDbEntity
  8
1
  6
Continuous
100
AcDbLine
 10
353.5393739183763
 20
176.1144334576969
 30
0.0
 11
354.3393739183763
 21
176.1144334576967
 31
0.0
  0
LINE
  5
1D7E
330
18
100
AcDbEntity
  8
4
  6
CENTER
100
AcDbLine
 10
360.8393739183767
 20
200.1144334576921
 30
0.0
 11
374.3863276765307
 21
200.1144334576921
 31
0.0
  0
LINE
  5
1D80
330
18
100
AcDbEntity
  8
4
  6
CENTER
100
AcDbLine
 10
346.7345112136503
 20
182.1144334576974
 30
0.0
 11
357.4734685816878
 21
182.1144334576974
 31
0.0
  0
LINE
  5
1D81
330
18
100
AcDbEntity
  8
1
  6
Continuous
100
AcDbLine
 10
352.2393739183763
 20
186.7144334576974
 30
0.0
 11
353.5393739183763
 21
186.7144334576974
 31
0.0
  0
LINE
  5
1D82
330
18
100
AcDbEntity
  8
1
  6
Continuous
100
AcDbLine
 10
353.5393739183763
 20
182.1144334576974
 30
0.0
 11
352.2393739183763
 21
180.8144334576974
 31
0.0
  0
LINE
  5
1D83
330
18
100
AcDbEntity
  8
1
  6
Continuous
100
AcDbLine
 10
353.5393739183763
 20
183.4144334576973
 30
0.0
 11
352.2393739183763
 21
182.1144334576974
 31
0.0
  0
ARC
  5
1D84
330
18
100
AcDbEntity
  8
1
  6
Continuous
100
AcDbCircle
 10
360.9393739183515
 20
182.1144334577114
 30
0.0
 40
12.0
100
AcDbArc
 50
164.506032499479
 51
195.493967500521
  0
LINE
  5
1D85
330
18
100
AcDbEntity
  8
1
  6
Continuous
100
AcDbLine
 10
352.2393739183764
 20
186.6144334576974
 30
0.0
 11
350.7778754502812
 21
186.4865689099786
 31
0.0
  0
ARC
  5
1D86
330
18
100
AcDbEntity
  8
1
  6
Continuous
100
AcDbCircle
 10
350.9173246386774
 20
184.8926573930318
 30
0.0
 40
1.6
100
AcDbArc
 50
94.99999999999976
 51
164.506032499479
  0
LINE
  5
1D87
330
18
100
AcDbEntity
  8
1
  6
Continuous
100
AcDbLine
 10
353.5393739183763
 20
188.1144334576969
 30
0.0
 11
354.3393739183763
 21
188.1144334576967
 31
0.0
  0
LINE
  5
1D88
330
18
100
AcDbEntity
  8
1
  6
Continuous
100
AcDbLine
 10
371.8393739183763
 20
195.1144334576928
 30
0.0
 11
371.8393739183773
 21
206.1144334576928
 31
0.0
  0
LINE
  5
1D89
330
18
100
AcDbEntity
  8
1
  6
Continuous
100
AcDbLine
 10
365.8393739183767
 20
203.9144334576923
 30
0.0
 11
365.8393739183767
 21
196.3144334576922
 31
0.0
  0
LINE
  5
1D8A
330
18
100
AcDbEntity
  8
1
  6
Continuous
100
AcDbLine
 10
366.8393739183763
 20
195.6144334576931
 30
0.0
 11
366.8393739183773
 21
205.6144334576931
 31
0.0
  0
LINE
  5
1D8C
330
18
100
AcDbEntity
  8
1
  6
Continuous
100
AcDbLine
 10
366.8393739183767
 20
200.1144334576921
 30
0.0
 11
365.8393739183767
 21
199.1144334576921
 31
0.0
  0
ARC
  5
1D8D
330
18
100
AcDbEntity
  8
1
  6
Continuous
100
AcDbCircle
 10
372.2393739183768
 20
200.1144334576921
 30
0.0
 40
9.0
100
AcDbArc
 50
164.1191499917188
 51
195.8808500082812
  0
LINE
  5
1D8E
330
18
100
AcDbEntity
  8
1
  6
Continuous
100
AcDbLine
 10
371.8393739183765
 20
195.1144334576929
 30
0.0
 11
367.3393739183765
 21
195.1144334576931
 31
0.0
  0
ARC
  5
1D8F
330
18
100
AcDbEntity
  8
1
  6
Continuous
100
AcDbCircle
 10
364.8332611941541
 20
198.007422704106
 30
0.0
 40
1.3
100
AcDbArc
 50
195.8808500082812
 51
265.0000000000003
  0
LINE
  5
1D90
330
18
100
AcDbEntity
  8
1
  6
Continuous
100
AcDbLine
 10
365.8393739183769
 20
196.6144334576921
 30
0.0
 11
364.7199587285424
 21
196.7123695965814
 31
0.0
  0
ARC
  5
1D91
330
18
100
AcDbEntity
  8
1
  6
Continuous
100
AcDbCircle
 10
367.3393739183763
 20
195.6144334576933
 30
0.0
 40
0.5
100
AcDbArc
 50
179.9999999999934
 51
269.9999999999934
  0
LINE
  5
1D92
330
18
100
AcDbEntity
  8
1
  6
Continuous
100
AcDbLine
 10
365.8393739183767
 20
196.3144334576922
 30
0.0
 11
366.8393739183767
 21
196.3144334576922
 31
0.0
  0
LINE
  5
1D93
330
18
100
AcDbEntity
  8
1
  6
Continuous
100
AcDbLine
 10
371.8393739183773
 20
206.1144334576929
 30
0.0
 11
367.3393739183773
 21
206.1144334576931
 31
0.0
  0
ARC
  5
1D94
330
18
100
AcDbEntity
  8
1
  6
Continuous
100
AcDbCircle
 10
364.8332611941678
 20
202.221444211275
 30
0.0
 40
1.3
100
AcDbArc
 50
94.99999999999976
 51
164.1191499917188
  0
LINE
  5
1D95
330
18
100
AcDbEntity
  8
1
  6
Continuous
100
AcDbLine
 10
366.8393739183767
 20
201.1144334576921
 30
0.0
 11
365.8393739183767
 21
200.1144334576921
 31
0.0
  0
LINE
  5
1D96
330
18
100
AcDbEntity
  8
1
  6
Continuous
100
AcDbLine
 10
365.8393739183767
 20
203.6144334576921
 30
0.0
 11
364.7199587285758
 21
203.5164973188058
 31
0.0
  0
ARC
  5
1D97
330
18
100
AcDbEntity
  8
1
  6
Continuous
100
AcDbCircle
 10
367.3393739183775
 20
205.6144334576933
 30
0.0
 40
0.5
100
AcDbArc
 50
89.99999999999673
 51
179.9999999999934
  0
LINE
  5
1D98
330
18
100
AcDbEntity
  8
1
  6
Continuous
100
AcDbLine
 10
365.8393739183767
 20
203.9144334576923
 30
0.0
 11
366.8393739183767
 21
203.9144334576923
 31
0.0
  0
LINE
  5
2F31
330
18
100
AcDbEntity
  8
1
  6
Continuous
100
AcDbLine
 10
144.3013226464553
 20
38.34182283199186
 30
0.0
 11
145.8346652442161
 21
38.34182283199152
 31
0.0
  0
ARC
  5
2F32
330
18
100
AcDbEntity
  8
1
  6
Continuous
100
AcDbCircle
 10
144.3013226464562
 20
42.58898192288068
 30
0.0
 40
4.247159090896102
100
AcDbArc
 50
192.1693877304395
 51
269.9999999999874
  0
ARC
  5
2F33
330
18
100
AcDbEntity
  8
1
  6
Continuous
100
AcDbCircle
 10
198.8013226464894
 20
54.34182283192622
 30
0.0
 40
60.0
100
AcDbArc
 50
190.9527841988664
 51
192.1693877304855
  0
ARC
  5
2F34
330
18
100
AcDbEntity
  8
1
  6
Continuous
100
AcDbCircle
 10
198.8013226464844
 20
50.34182283201346
 30
0.0
 40
60.0
100
AcDbArc
 50
167.8306122693738
 51
169.0472158011691
  0
ARC
  5
2F35
330
18
100
AcDbEntity
  8
1
  6
Continuous
100
AcDbCircle
 10
144.3013226464801
 20
62.09466374119227
 30
0.0
 40
4.247159090896102
100
AcDbArc
 50
89.99999999998506
 51
167.8306122694211
  0
LINE
  5
2F36
330
18
100
AcDbEntity
  8
1
  6
Continuous
100
AcDbLine
 10
144.3013226464812
 20
66.34182283199169
 30
0.0
 11
145.8346652442284
 21
66.34182283199129
 31
0.0
  0
LINE
  5
2F3F
330
18
100
AcDbEntity
  8
4
  6
CENTER
100
AcDbLine
 10
132.2307364189559
 20
148.114433457691
 30
0.0
 11
142.3028405349195
 21
148.114433457691
 31
0.0
  0
LINE
  5
2F40
330
18
100
AcDbEntity
  8
4
  6
CENTER
100
AcDbLine
 10
401.5459678877467
 20
148.114433457691
 30
0.0
 11
411.2237945269708
 21
148.114433457691
 31
0.0
  0
ARC
  5
2F41
330
18
100
AcDbEntity
  8
1
  6
Continuous
100
AcDbCircle
 10
266.3874122928175
 20
168.1634646261539
 30
0.0
 40
1.0
100
AcDbArc
 50
180.0027670837319
 51
270.0027670837318
  0
ARC
  5
2F42
330
18
100
AcDbEntity
  8
1
  6
Continuous
100
AcDbCircle
 10
287.3874122683274
 20
168.1644788153113
 30
0.0
 40
1.0
100
AcDbArc
 50
270.0027670837318
 51
0.0027670837319277
  0
ARC
  5
2FA4
330
18
100
AcDbEntity
  8
1
  6
Continuous
100
AcDbCircle
 10
146.8346652442259
 20
299.2799069850112
 30
0.0
 40
1.0
100
AcDbArc
 50
0.0
 51
90.00000000002492
  0
ARC
  5
2FA5
330
18
100
AcDbEntity
  8
1
  6
Continuous
100
AcDbCircle
 10
146.834665244226
 20
278.2799069848483
 30
0.0
 40
1.0
100
AcDbArc
 50
270.0000000001148
 51
0.0
  0
LINE
  5
2FA6
330
18
100
AcDbEntity
  8
4
  6
CENTER
100
AcDbLine
 10
142.634665244222
 20
281.1266632059085
 30
0.0
 11
142.634665244222
 21
296.4331507638501
 31
0.0
  0
LINE
  5
2FB2
330
18
100
AcDbEntity
  8
4
  6
CENTER
100
AcDbLine
 10
142.634665244222
 20
44.68857905306623
 30
0.0
 11
142.634665244222
 21
59.99506661100793
 31
0.0
  0
ENDSEC
  0
SECTION
  2
OBJECTS
  0
DICTIONARY
  5
C
330
0
100
AcDbDictionary
281
     1
  3
ACAD_CIP_PREVIOUS_PRODUCT_INFO
350
3069
  3
ACAD_COLOR
350
304C
  3
ACAD_DETAILVIEWSTYLE
350
3065
  3
ACAD_GROUP
350
D
  3
ACAD_LAYOUT
350
94
  3
ACAD_MATERIAL
350
301A
  3
ACAD_MLEADERSTYLE
350
3061
  3
ACAD_MLINESTYLE
350
1B
  3
ACAD_PLOTSETTINGS
350
95
  3
ACAD_PLOTSTYLENAME
350
3018
  3
ACAD_SCALELIST
350
304F
  3
ACAD_SECTIONVIEWSTYLE
350
3063
  3
ACAD_TABLESTYLE
350
304D
  3
ACAD_VISUALSTYLE
350
3033
  3
ACDB_RECOMPOSE_DATA
350
3087
  3
AcDbVariableDictionary
350
307A
  3
CONTENTDICTIONARY
350
3D
  3
DWGPROPS
350
3088
  0
DICTIONARY
  5
306A
330
E
100
AcDbDictionary
280
     1
281
     1
  3
ADSK_XREC_LAYER_RECONCILED
360
306B
  0
DICTIONARY
  5
306C
330
4E
100
AcDbDictionary
280
     1
281
     1
  3
ADSK_XREC_LAYER_RECONCILED
360
306D
  0
DICTIONARY
  5
306E
330
4F
100
AcDbDictionary
280
     1
281
     1
  3
ADSK_XREC_LAYER_RECONCILED
360
306F
  0
DICTIONARY
  5
3070
330
50
100
AcDbDictionary
280
     1
281
     1
  3
ADSK_XREC_LAYER_RECONCILED
360
3071
  0
DICTIONARY
  5
3072
330
51
100
AcDbDictionary
280
     1
281
     1
  3
ADSK_XREC_LAYER_RECONCILED
360
3073
  0
DICTIONARY
  5
3074
330
52
100
AcDbDictionary
280
     1
281
     1
  3
ADSK_XREC_LAYER_RECONCILED
360
3075
  0
DICTIONARY
  5
3076
330
53
100
AcDbDictionary
280
     1
281
     1
  3
ADSK_XREC_LAYER_RECONCILED
360
3077
  0
DICTIONARY
  5
3078
330
54
100
AcDbDictionary
280
     1
281
     1
  3
ADSK_XREC_LAYER_RECONCILED
360
3079
  0
DICTIONARY
  5
3013
330
18
100
AcDbDictionary
281
     1
  3
ACAD_LAYOUTSELFREF
350
3014
  0
DICTIONARY
  5
3011
330
15
100
AcDbDictionary
281
     1
  3
ACAD_LAYOUTSELFREF
350
3012
  0
XRECORD
  5
3069
102
{ACAD_REACTORS
330
C
102
}
330
C
100
AcDbXrecord
280
     1
300
ACDLT
300
2014
300
ACDLT_F_S
  0
DICTIONARY
  5
304C
102
{ACAD_REACTORS
330
C
102
}
330
C
100
AcDbDictionary
281
     1
  0
DICTIONARY
  5
3065
102
{ACAD_REACTORS
330
C
102
}
330
C
100
AcDbDictionary
281
     1
  3
Imperial24
350
3066
  0
DICTIONARY
  5
D
102
{ACAD_REACTORS
330
C
102
}
330
C
100
AcDbDictionary
281
     1
  0
DICTIONARY
  5
94
102
{ACAD_REACTORS
330
C
102
}
330
C
100
AcDbDictionary
281
     1
  3
Model
350
3067
  3
レイアウト1
350
3068
  0
DICTIONARY
  5
301A
102
{ACAD_REACTORS
330
C
102
}
330
C
100
AcDbDictionary
281
     1
  3
ByBlock
350
3023
  3
ByLayer
350
301B
  3
Global
350
302B
  0
DICTIONARY
  5
3061
102
{ACAD_REACTORS
330
C
102
}
330
C
100
AcDbDictionary
281
     1
  3
Standard
350
3062
  0
DICTIONARY
  5
1B
102
{ACAD_REACTORS
330
C
102
}
330
C
100
AcDbDictionary
281
     1
  3
STANDARD
350
1C
  0
DICTIONARY
  5
95
102
{ACAD_REACTORS
330
C
102
}
330
C
100
AcDbDictionary
281
     1
  0
ACDBDICTIONARYWDFLT
  5
3018
102
{ACAD_REACTORS
330
C
102
}
330
C
100
AcDbDictionary
281
     1
  3
Normal
350
3019
100
AcDbDictionaryWithDefault
340
3019
  0
DICTIONARY
  5
304F
102
{ACAD_REACTORS
330
C
102
}
330
C
100
AcDbDictionary
281
     1
  3
A0
350
3050
  3
A1
350
3051
  3
A2
350
3052
  3
A3
350
3053
  3
A4
350
3054
  3
A5
350
3055
  3
A6
350
3056
  3
A7
350
3057
  3
A8
350
3058
  3
A9
350
3059
  3
B0
350
305A
  3
B1
350
305B
  3
B2
350
305C
  3
B3
350
305D
  3
B4
350
305E
  3
B5
350
305F
  3
B6
350
3060
  0
DICTIONARY
  5
3063
102
{ACAD_REACTORS
330
C
102
}
330
C
100
AcDbDictionary
281
     1
  3
Imperial24
350
3064
  0
DICTIONARY
  5
304D
102
{ACAD_REACTORS
330
C
102
}
330
C
100
AcDbDictionary
281
     1
  3
Standard
350
304E
  0
DICTIONARY
  5
3033
102
{ACAD_REACTORS
330
C
102
}
330
C
100
AcDbDictionary
281
     1
  3
2dWireframe
350
3039
  3
Basic
350
3038
  3
Brighten
350
303F
  3
ColorChange
350
3043
  3
Conceptual
350
303C
  3
Dim
350
303E
  3
EdgeColorOff
350
304B
  3
Facepattern
350
3042
  3
Flat
350
3034
  3
FlatWithEdges
350
3035
  3
Gouraud
350
3036
  3
GouraudWithEdges
350
3037
  3
Hidden
350
303B
  3
JitterOff
350
3049
  3
Linepattern
350
3041
  3
OverhangOff
350
304A
  3
Realistic
350
303D
  3
Shaded
350
3048
  3
Shaded with edges
350
3047
  3
Shades of Gray
350
3044
  3
Sketchy
350
3045
  3
Thicken
350
3040
  3
Wireframe
350
303A
  3
X-Ray
350
3046
  0
XRECORD
  5
3087
102
{ACAD_REACTORS
330
C
102
}
330
C
100
AcDbXrecord
280
     1
 90
        1
330
304E
  0
DICTIONARY
  5
307A
102
{ACAD_REACTORS
330
C
102
}
330
C
100
AcDbDictionary
281
     1
  3
CANNOSCALE
350
307F
  3
CMLEADERSTYLE
350
307C
  3
CTABLESTYLE
350
307B
  3
CVIEWDETAILSTYLE
350
307D
  3
CVIEWSECTIONSTYLE
350
307E
  3
DIMASSOC
350
3082
  3
INDEXCTL
350
3081
  3
SORTENTS
350
3080
  3
XCLIPFRAME
350
3083
  0
DICTIONARY
  5
3D
102
{ACAD_REACTORS
330
C
102
}
330
C
100
AcDbDictionary
281
     1
  0
XRECORD
  5
3088
102
{ACAD_REACTORS
330
C
102
}
330
C
100
AcDbXrecord
280
     1
  1
DWGPROPS COOKIE
  2

  3

  4

  6

  7

  8
Yoshitsune
  9

300
=
301
=
302
=
303
=
304
=
305
=
306
=
307
=
308
=
309
=
 40
0.1086927662037037
 41
2453028.673886898
 42
2457192.643709387
  1

 90
        0
  0
XRECORD
  5
306B
102
{ACAD_REACTORS
330
306A
102
}
330
306A
100
AcDbXrecord
280
     1
290
     1
  0
XRECORD
  5
306D
102
{ACAD_REACTORS
330
306C
102
}
330
306C
100
AcDbXrecord
280
     1
290
     1
  0
XRECORD
  5
306F
102
{ACAD_REACTORS
330
306E
102
}
330
306E
100
AcDbXrecord
280
     1
290
     1
  0
XRECORD
  5
3071
102
{ACAD_REACTORS
330
3070
102
}
330
3070
100
AcDbXrecord
280
     1
290
     1
  0
XRECORD
  5
3073
102
{ACAD_REACTORS
330
3072
102
}
330
3072
100
AcDbXrecord
280
     1
290
     1
  0
XRECORD
  5
3075
102
{ACAD_REACTORS
330
3074
102
}
330
3074
100
AcDbXrecord
280
     1
290
     1
  0
XRECORD
  5
3077
102
{ACAD_REACTORS
330
3076
102
}
330
3076
100
AcDbXrecord
280
     1
290
     1
  0
XRECORD
  5
3079
102
{ACAD_REACTORS
330
3078
102
}
330
3078
100
AcDbXrecord
280
     1
290
     1
  0
XRECORD
  5
3014
102
{ACAD_REACTORS
330
3013
102
}
330
3013
100
AcDbXrecord
280
     1
340
18
  0
XRECORD
  5
3012
102
{ACAD_REACTORS
330
3011
102
}
330
3011
100
AcDbXrecord
280
     1
340
15
  0
ACDBDETAILVIEWSTYLE
  5
3066
102
{ACAD_XDICTIONARY
360
30C0
102
}
102
{ACAD_REACTORS
330
3065
102
}
330
3065
100
AcDbModelDocViewStyle
 70
     0
  3
Imperial24
290
     0
100
AcDbDetailViewStyle
 70
     0
 71
     0
 90
        3
 71
     1
340
F
 40
0.24
340
0
 40
0.24
300

 40
0.36
280
     3
 71
     2
340
14
 90
       25
 71
     3
340
F
 40
0.24
 90
        1
 40
0.75
 90
        1
300
%<\AcVar ViewType \f "%tc1">% %<\AcVar ViewDetailId>%\PSCALE %<\AcVar ViewScale \f "%sn">%
 71
     4
340
14
 90
       25
340
14
 90
       25
280
     0
  0
LAYOUT
  5
3067
102
{ACAD_XDICTIONARY
360
30C2
102
}
102
{ACAD_REACTORS
330
94
102
}
330
94
100
AcDbPlotSettings
  1

  2
Canon LBP9100C
  4

  6

 40
0.0
 41
0.0
 42
0.0
 43
0.0
 44
0.0
 45
0.0
 46
0.0
 47
0.0
 48
0.0
 49
0.0
140
0.0
141
0.0
142
1.0
143
1.0
 70
  1712
 72
     0
 73
     0
 74
     0
  7

 75
     0
147
1.0
148
0.0
149
0.0
100
AcDbLayout
  1
Model
 70
     1
 71
     0
 10
0.0
 20
0.0
 11
12.0
 21
9.0
 12
0.0
 22
0.0
 32
0.0
 14
0.0
 24
0.0
 34
0.0
 15
0.0
 25
0.0
 35
0.0
146
0.0
 13
0.0
 23
0.0
 33
0.0
 16
1.0
 26
0.0
 36
0.0
 17
0.0
 27
1.0
 37
0.0
 76
     0
330
18
331
3010
  0
LAYOUT
  5
3068
102
{ACAD_XDICTIONARY
360
30C4
102
}
102
{ACAD_REACTORS
330
94
102
}
330
94
100
AcDbPlotSettings
  1

  2
Canon LBP9100C
  4

  6

 40
0.0
 41
0.0
 42
0.0
 43
0.0
 44
0.0
 45
0.0
 46
0.0
 47
0.0
 48
0.0
 49
0.0
140
0.0
141
0.0
142
1.0
143
1.0
 70
   688
 72
     0
 73
     0
 74
     5
  7

 75
    16
147
1.0
148
0.0
149
0.0
100
AcDbLayout
  1
レイアウト1
 70
     1
 71
     1
 10
0.0
 20
0.0
 11
420.0
 21
297.0
 12
0.0
 22
0.0
 32
0.0
 14
1.000000000000000E+20
 24
1.000000000000000E+20
 34
1.000000000000000E+20
 15
-1.000000000000000E+20
 25
-1.000000000000000E+20
 35
-1.000000000000000E+20
146
0.0
 13
0.0
 23
0.0
 33
0.0
 16
1.0
 26
0.0
 36
0.0
 17
0.0
 27
1.0
 37
0.0
 76
     0
330
15
  0
MATERIAL
  5
3023
102
{ACAD_XDICTIONARY
360
3024
102
}
102
{ACAD_REACTORS
330
301A
102
}
330
301A
100
AcDbMaterial
  1
ByBlock
 72
     0
 43
0.0208333333333333
 43
0.0
 43
0.0
 43
0.0
 43
0.0
 43
0.0208333333333333
 43
0.0
 43
0.0
 43
0.0
 43
0.0
 43
1.0
 43
0.0
 43
0.0
 43
0.0
 43
0.0
 43
1.0
 77
     0
 47
0.0208333333333333
 47
0.0
 47
0.0
 47
0.0
 47
0.0
 47
0.0208333333333333
 47
0.0
 47
0.0
 47
0.0
 47
0.0
 47
1.0
 47
0.0
 47
0.0
 47
0.0
 47
0.0
 47
1.0
171
     0
 49
0.0208333333333333
 49
0.0
 49
0.0
 49
0.0
 49
0.0
 49
0.0208333333333333
 49
0.0
 49
0.0
 49
0.0
 49
0.0
 49
1.0
 49
0.0
 49
0.0
 49
0.0
 49
0.0
 49
1.0
175
     0
142
0.0208333333333333
142
0.0
142
0.0
142
0.0
142
0.0
142
0.0208333333333333
142
0.0
142
0.0
142
0.0
142
0.0
142
1.0
142
0.0
142
0.0
142
0.0
142
0.0
142
1.0
179
     0
144
0.0208333333333333
144
0.0
144
0.0
144
0.0
144
0.0
144
0.0208333333333333
144
0.0
144
0.0
144
0.0
144
0.0
144
1.0
144
0.0
144
0.0
144
0.0
144
0.0
144
1.0
147
0.0208333333333333
147
0.0
147
0.0
147
0.0
147
0.0
147
0.0208333333333333
147
0.0
147
0.0
147
0.0
147
0.0
147
1.0
147
0.0
147
0.0
147
0.0
147
0.0
147
1.0
  0
MATERIAL
  5
301B
102
{ACAD_XDICTIONARY
360
301C
102
}
102
{ACAD_REACTORS
330
301A
102
}
330
301A
100
AcDbMaterial
  1
ByLayer
 72
     0
 43
0.0208333333333333
 43
0.0
 43
0.0
 43
0.0
 43
0.0
 43
0.0208333333333333
 43
0.0
 43
0.0
 43
0.0
 43
0.0
 43
1.0
 43
0.0
 43
0.0
 43
0.0
 43
0.0
 43
1.0
 77
     0
 47
0.0208333333333333
 47
0.0
 47
0.0
 47
0.0
 47
0.0
 47
0.0208333333333333
 47
0.0
 47
0.0
 47
0.0
 47
0.0
 47
1.0
 47
0.0
 47
0.0
 47
0.0
 47
0.0
 47
1.0
171
     0
 49
0.0208333333333333
 49
0.0
 49
0.0
 49
0.0
 49
0.0
 49
0.0208333333333333
 49
0.0
 49
0.0
 49
0.0
 49
0.0
 49
1.0
 49
0.0
 49
0.0
 49
0.0
 49
0.0
 49
1.0
175
     0
142
0.0208333333333333
142
0.0
142
0.0
142
0.0
142
0.0
142
0.0208333333333333
142
0.0
142
0.0
142
0.0
142
0.0
142
1.0
142
0.0
142
0.0
142
0.0
142
0.0
142
1.0
179
     0
144
0.0208333333333333
144
0.0
144
0.0
144
0.0
144
0.0
144
0.0208333333333333
144
0.0
144
0.0
144
0.0
144
0.0
144
1.0
144
0.0
144
0.0
144
0.0
144
0.0
144
1.0
147
0.0208333333333333
147
0.0
147
0.0
147
0.0
147
0.0
147
0.0208333333333333
147
0.0
147
0.0
147
0.0
147
0.0
147
1.0
147
0.0
147
0.0
147
0.0
147
0.0
147
1.0
  0
MATERIAL
  5
302B
102
{ACAD_XDICTIONARY
360
302C
102
}
102
{ACAD_REACTORS
330
301A
102
}
330
301A
100
AcDbMaterial
  1
Global
 72
     0
 43
0.0208333333333333
 43
0.0
 43
0.0
 43
0.0
 43
0.0
 43
0.0208333333333333
 43
0.0
 43
0.0
 43
0.0
 43
0.0
 43
1.0
 43
0.0
 43
0.0
 43
0.0
 43
0.0
 43
1.0
 77
     0
 47
0.0208333333333333
 47
0.0
 47
0.0
 47
0.0
 47
0.0
 47
0.0208333333333333
 47
0.0
 47
0.0
 47
0.0
 47
0.0
 47
1.0
 47
0.0
 47
0.0
 47
0.0
 47
0.0
 47
1.0
171
     0
 49
0.0208333333333333
 49
0.0
 49
0.0
 49
0.0
 49
0.0
 49
0.0208333333333333
 49
0.0
 49
0.0
 49
0.0
 49
0.0
 49
1.0
 49
0.0
 49
0.0
 49
0.0
 49
0.0
 49
1.0
175
     0
142
0.0208333333333333
142
0.0
142
0.0
142
0.0
142
0.0
142
0.0208333333333333
142
0.0
142
0.0
142
0.0
142
0.0
142
1.0
142
0.0
142
0.0
142
0.0
142
0.0
142
1.0
179
     0
144
0.0208333333333333
144
0.0
144
0.0
144
0.0
144
0.0
144
0.0208333333333333
144
0.0
144
0.0
144
0.0
144
0.0
144
1.0
144
0.0
144
0.0
144
0.0
144
0.0
144
1.0
147
0.0208333333333333
147
0.0
147
0.0
147
0.0
147
0.0
147
0.0208333333333333
147
0.0
147
0.0
147
0.0
147
0.0
147
1.0
147
0.0
147
0.0
147
0.0
147
0.0
147
1.0
  0
MLEADERSTYLE
  5
3062
102
{ACAD_REACTORS
330
3061
102
}
330
3061
100
AcDbMLeaderStyle
170
     2
171
     1
172
     0
 90
        2
 40
0.0
 41
0.0
173
     1
 91
-1056964608
340
12
 92
       -2
290
     1
 42
0.09
291
     1
 43
0.36
  3
Standard
 44
0.18
300

342
F
174
     1
178
     6
175
     1
176
     0
 93
-1056964608
 45
0.18
292
     0
297
     0
 46
0.18
 94
-1056964608
 47
1.0
 49
1.0
140
1.0
293
     1
141
0.0
294
     1
177
     0
142
1.0
295
     0
296
     0
143
0.125
1001
ACAD_MLEADERVER
1070
     2
  0
MLINESTYLE
  5
1C
102
{ACAD_REACTORS
330
1B
102
}
330
1B
100
AcDbMlineStyle
  2
STANDARD
 70
     0
  3

 62
   256
 51
90.0
 52
90.0
 71
     2
 49
0.5
 62
   256
  6
BYLAYER
 49
-0.5
 62
   256
  6
BYLAYER
  0
ACDBPLACEHOLDER
  5
3019
102
{ACAD_REACTORS
330
3018
102
}
330
3018
  0
SCALE
  5
3050
102
{ACAD_REACTORS
330
304F
102
}
330
304F
100
AcDbScale
 70
     0
300
1:1
140
1.0
141
1.0
290
     1
  0
SCALE
  5
3051
102
{ACAD_REACTORS
330
304F
102
}
330
304F
100
AcDbScale
 70
     0
300
1/128" = 1'-0"
140
0.0078125
141
12.0
290
     0
  0
SCALE
  5
3052
102
{ACAD_REACTORS
330
304F
102
}
330
304F
100
AcDbScale
 70
     0
300
1/64" = 1'-0"
140
0.015625
141
12.0
290
     0
  0
SCALE
  5
3053
102
{ACAD_REACTORS
330
304F
102
}
330
304F
100
AcDbScale
 70
     0
300
1/32" = 1'-0"
140
0.03125
141
12.0
290
     0
  0
SCALE
  5
3054
102
{ACAD_REACTORS
330
304F
102
}
330
304F
100
AcDbScale
 70
     0
300
1/16" = 1'-0"
140
0.0625
141
12.0
290
     0
  0
SCALE
  5
3055
102
{ACAD_REACTORS
330
304F
102
}
330
304F
100
AcDbScale
 70
     0
300
3/32" = 1'-0"
140
0.09375
141
12.0
290
     0
  0
SCALE
  5
3056
102
{ACAD_REACTORS
330
304F
102
}
330
304F
100
AcDbScale
 70
     0
300
1/8" = 1'-0"
140
0.125
141
12.0
290
     0
  0
SCALE
  5
3057
102
{ACAD_REACTORS
330
304F
102
}
330
304F
100
AcDbScale
 70
     0
300
3/16" = 1'-0"
140
0.1875
141
12.0
290
     0
  0
SCALE
  5
3058
102
{ACAD_REACTORS
330
304F
102
}
330
304F
100
AcDbScale
 70
     0
300
1/4" = 1'-0"
140
0.25
141
12.0
290
     0
  0
SCALE
  5
3059
102
{ACAD_REACTORS
330
304F
102
}
330
304F
100
AcDbScale
 70
     0
300
3/8" = 1'-0"
140
0.375
141
12.0
290
     0
  0
SCALE
  5
305A
102
{ACAD_REACTORS
330
304F
102
}
330
304F
100
AcDbScale
 70
     0
300
1/2" = 1'-0"
140
0.5
141
12.0
290
     0
  0
SCALE
  5
305B
102
{ACAD_REACTORS
330
304F
102
}
330
304F
100
AcDbScale
 70
     0
300
3/4" = 1'-0"
140
0.75
141
12.0
290
     0
  0
SCALE
  5
305C
102
{ACAD_REACTORS
330
304F
102
}
330
304F
100
AcDbScale
 70
     0
300
1" = 1'-0"
140
1.0
141
12.0
290
     0
  0
SCALE
  5
305D
102
{ACAD_REACTORS
330
304F
102
}
330
304F
100
AcDbScale
 70
     0
300
1-1/2" = 1'-0"
140
1.5
141
12.0
290
     0
  0
SCALE
  5
305E
102
{ACAD_REACTORS
330
304F
102
}
330
304F
100
AcDbScale
 70
     0
300
3" = 1'-0"
140
3.0
141
12.0
290
     0
  0
SCALE
  5
305F
102
{ACAD_REACTORS
330
304F
102
}
330
304F
100
AcDbScale
 70
     0
300
6" = 1'-0"
140
6.0
141
12.0
290
     0
  0
SCALE
  5
3060
102
{ACAD_REACTORS
330
304F
102
}
330
304F
100
AcDbScale
 70
     0
300
1'-0" = 1'-0"
140
12.0
141
12.0
290
     0
  0
ACDBSECTIONVIEWSTYLE
  5
3064
102
{ACAD_XDICTIONARY
360
30BE
102
}
102
{ACAD_REACTORS
330
3063
102
}
330
3063
100
AcDbModelDocViewStyle
 70
     0
  3
Imperial24
290
     0
100
AcDbSectionViewStyle
 70
     0
 71
     0
 90
       78
 71
     1
340
F
 40
0.24
340
0
340
0
 40
0.24
300
I, O, Q, S, X, Z
 40
0.48
 90
        3
 40
0.18
 90
        1
 71
     2
340
14
 90
       25
340
14
 90
       50
 40
0.24
 40
0.0
 40
0.24
 71
     3
340
F
 40
0.24
 90
        1
 40
0.75
 90
        1
300
%<\AcVar ViewType \f "%tc1">% %<\AcVar ViewSectionStartId>%-%<\AcVar ViewSectionEndId>%\PSCALE %<\AcVar ViewScale \f "%sn">%
 71
     4
300
ANSI31
 40
1.0
 90
        0
290
     0
290
     0
 90
        6
 40
0.0
 40
1.570796326794896
 40
0.2617993877991494
 40
1.308996938995747
 40
-0.2617993877991494
 40
1.832595714594046
  0
TABLESTYLE
  5
304E
102
{ACAD_XDICTIONARY
360
3085
102
}
102
{ACAD_REACTORS
330
304D
102
}
330
304D
100
AcDbTableStyle
  3
Standard
 70
     0
 71
     0
 40
0.06
 41
0.06
280
     0
281
     0
  7
STANDARD
140
0.18
170
     2
 62
     0
 63
     7
283
     0
274
    -2
284
     1
 64
     0
275
    -2
285
     1
 65
     0
276
    -2
286
     1
 66
     0
277
    -2
287
     1
 67
     0
278
    -2
288
     1
 68
     0
279
    -2
289
     1
 69
     0
  7
STANDARD
140
0.25
170
     5
 62
     0
 63
     7
283
     0
274
    -2
284
     1
 64
     0
275
    -2
285
     1
 65
     0
276
    -2
286
     1
 66
     0
277
    -2
287
     1
 67
     0
278
    -2
288
     1
 68
     0
279
    -2
289
     1
 69
     0
  7
STANDARD
140
0.18
170
     5
 62
     0
 63
     7
283
     0
274
    -2
284
     1
 64
     0
275
    -2
285
     1
 65
     0
276
    -2
286
     1
 66
     0
277
    -2
287
     1
 67
     0
278
    -2
288
     1
 68
     0
279
    -2
289
     1
 69
     0
  0
VISUALSTYLE
  5
3039
102
{ACAD_XDICTIONARY
360
3096
102
}
102
{ACAD_REACTORS
330
3033
102
}
330
3033
100
AcDbVisualStyle
  2
2dWireframe
 70
     4
 71
     0
 72
     2
 73
     0
 90
        0
 40
-0.6
 41
-30.0
 62
     5
 63
     7
 74
     1
 91
        4
 64
     7
 65
   257
 75
     1
175
     1
 42
1.0
 92
        0
 66
   257
 43
1.0
 76
     1
 77
     6
 78
     2
 67
     7
 79
     5
170
     0
171
     0
290
     0
174
     0
 93
        1
 44
0.0
173
     0
291
     0
 45
0.0
1001
ACAD
1000
AcDbSavedByObjectVersion
1070
     0
  0
VISUALSTYLE
  5
3038
102
{ACAD_XDICTIONARY
360
3094
102
}
102
{ACAD_REACTORS
330
3033
102
}
330
3033
100
AcDbVisualStyle
  2
Basic
 70
     7
 71
     1
 72
     0
 73
     1
 90
        0
 40
-0.6
 41
-30.0
 62
     5
 63
     7
 74
     0
 91
        4
 64
     7
 65
   257
 75
     1
175
     1
 42
1.0
 92
        8
 66
     7
 43
1.0
 76
     1
 77
     6
 78
     2
 67
     7
 79
     5
170
     0
171
     0
290
     0
174
     0
 93
        1
 44
0.0
173
     0
291
     1
 45
0.0
1001
ACAD
1000
AcDbSavedByObjectVersion
1070
     0
  0
VISUALSTYLE
  5
303F
102
{ACAD_XDICTIONARY
360
30A2
102
}
102
{ACAD_REACTORS
330
3033
102
}
330
3033
100
AcDbVisualStyle
  2
Brighten
 70
    12
 71
     2
 72
     2
 73
     0
 90
        0
 40
-0.6
 41
-30.0
 62
     5
 63
     7
 74
     1
 91
        4
 64
     7
 65
   257
 75
     1
175
     1
 42
1.0
 92
        8
 66
     7
 43
1.0
 76
     1
 77
     6
 78
     2
 67
     7
 79
     5
170
     0
171
     0
290
     0
174
     0
 93
        1
 44
50.0
173
     0
291
     1
 45
0.0
1001
ACAD
1000
AcDbSavedByObjectVersion
1070
     0
  0
VISUALSTYLE
  5
3043
102
{ACAD_XDICTIONARY
360
30AA
102
}
102
{ACAD_REACTORS
330
3033
102
}
330
3033
100
AcDbVisualStyle
  2
ColorChange
 70
    16
 71
     2
 72
     2
 73
     3
 90
        0
 40
-0.6
 41
-30.0
 62
     5
 63
     8
 74
     1
 91
        4
 64
     7
 65
   257
 75
     1
175
     1
 42
1.0
 92
        8
 66
     8
 43
1.0
 76
     1
 77
     6
 78
     2
 67
     7
 79
     5
170
     0
171
     0
290
     0
174
     0
 93
        1
 44
0.0
173
     0
291
     1
 45
0.0
1001
ACAD
1000
AcDbSavedByObjectVersion
1070
     0
  0
VISUALSTYLE
  5
303C
102
{ACAD_XDICTIONARY
360
309C
102
}
102
{ACAD_REACTORS
330
3033
102
}
330
3033
100
AcDbVisualStyle
  2
Conceptual
 70
     9
 71
     3
 72
     2
 73
     0
 90
        0
 40
-0.6
 41
-30.0
 62
     5
 63
     7
 74
     2
 91
        2
 64
     7
 65
   257
 75
     1
175
     1
 42
179.0
 92
        8
 66
     7
 43
1.0
 76
     1
 77
     6
 78
     2
 67
     7
 79
     3
170
     0
171
     0
290
     0
174
     0
 93
        1
 44
0.0
173
     0
291
     0
 45
0.0
1001
ACAD
1000
AcDbSavedByObjectVersion
1070
     0
  0
VISUALSTYLE
  5
303E
102
{ACAD_XDICTIONARY
360
30A0
102
}
102
{ACAD_REACTORS
330
3033
102
}
330
3033
100
AcDbVisualStyle
  2
Dim
 70
    11
 71
     2
 72
     2
 73
     0
 90
        0
 40
-0.6
 41
-30.0
 62
     5
 63
     7
 74
     1
 91
        4
 64
     7
 65
   257
 75
     1
175
     1
 42
1.0
 92
        8
 66
     7
 43
1.0
 76
     1
 77
     6
 78
     2
 67
     7
 79
     5
170
     0
171
     0
290
     0
174
     0
 93
        1
 44
-50.0
173
     0
291
     1
 45
0.0
1001
ACAD
1000
AcDbSavedByObjectVersion
1070
     0
  0
VISUALSTYLE
  5
304B
102
{ACAD_XDICTIONARY
360
30BA
102
}
102
{ACAD_REACTORS
330
3033
102
}
330
3033
100
AcDbVisualStyle
  2
EdgeColorOff
 70
    22
 71
     2
 72
     2
 73
     0
 90
        0
 40
-0.6
 41
-30.0
 62
     5
 63
     7
 74
     1
 91
        4
 64
     7
 65
   257
 75
     1
175
     1
 42
1.0
 92
        8
 66
     7
 43
1.0
 76
     1
 77
     6
 78
     2
 67
     7
 79
     5
170
     0
171
     0
290
     0
174
     0
 93
        1
 44
0.0
173
     0
291
     1
 45
0.0
1001
ACAD
1000
AcDbSavedByObjectVersion
1070
     0
  0
VISUALSTYLE
  5
3042
102
{ACAD_XDICTIONARY
360
30A8
102
}
102
{ACAD_REACTORS
330
3033
102
}
330
3033
100
AcDbVisualStyle
  2
Facepattern
 70
    15
 71
     2
 72
     2
 73
     0
 90
        0
 40
-0.6
 41
-30.0
 62
     5
 63
     7
 74
     1
 91
        4
 64
     7
 65
   257
 75
     1
175
     1
 42
1.0
 92
        8
 66
     7
 43
1.0
 76
     1
 77
     6
 78
     2
 67
     7
 79
     5
170
     0
171
     0
290
     0
174
     0
 93
        1
 44
0.0
173
     0
291
     1
 45
0.0
1001
ACAD
1000
AcDbSavedByObjectVersion
1070
     0
  0
VISUALSTYLE
  5
3034
102
{ACAD_XDICTIONARY
360
308C
102
}
102
{ACAD_REACTORS
330
3033
102
}
330
3033
100
AcDbVisualStyle
  2
Flat
 70
     0
 71
     2
 72
     1
 73
     1
 90
        2
 40
-0.6
 41
30.0
 62
     5
 63
     7
 74
     0
 91
        0
 64
     7
 65
   257
 75
     1
175
     1
 42
1.0
 92
        8
 66
     7
 43
1.0
 76
     1
 77
     6
 78
     2
 67
     7
 79
     5
170
     0
171
     0
290
     0
174
     0
 93
       13
 44
0.0
173
     0
291
     1
 45
0.0
1001
ACAD
1000
AcDbSavedByObjectVersion
1070
     0
  0
VISUALSTYLE
  5
3035
102
{ACAD_XDICTIONARY
360
308E
102
}
102
{ACAD_REACTORS
330
3033
102
}
330
3033
100
AcDbVisualStyle
  2
FlatWithEdges
 70
     1
 71
     2
 72
     1
 73
     1
 90
        2
 40
-0.6
 41
30.0
 62
     5
 63
     7
 74
     1
 91
        0
 64
     7
 65
   257
 75
     1
175
     1
 42
1.0
 92
        0
 66
   257
 43
1.0
 76
     1
 77
     6
 78
     2
 67
     7
 79
     5
170
     0
171
     0
290
     0
174
     0
 93
       13
 44
0.0
173
     0
291
     1
 45
0.0
1001
ACAD
1000
AcDbSavedByObjectVersion
1070
     0
  0
VISUALSTYLE
  5
3036
102
{ACAD_XDICTIONARY
360
3090
102
}
102
{ACAD_REACTORS
330
3033
102
}
330
3033
100
AcDbVisualStyle
  2
Gouraud
 70
     2
 71
     2
 72
     2
 73
     1
 90
        2
 40
-0.6
 41
30.0
 62
     5
 63
     7
 74
     0
 91
        0
 64
     7
 65
   257
 75
     1
175
     1
 42
1.0
 92
        0
 66
     7
 43
1.0
 76
     1
 77
     6
 78
     2
 67
     7
 79
     5
170
     0
171
     0
290
     0
174
     0
 93
       13
 44
0.0
173
     0
291
     1
 45
0.0
1001
ACAD
1000
AcDbSavedByObjectVersion
1070
     0
  0
VISUALSTYLE
  5
3037
102
{ACAD_XDICTIONARY
360
3092
102
}
102
{ACAD_REACTORS
330
3033
102
}
330
3033
100
AcDbVisualStyle
  2
GouraudWithEdges
 70
     3
 71
     2
 72
     2
 73
     1
 90
        2
 40
-0.6
 41
30.0
 62
     5
 63
     7
 74
     1
 91
        0
 64
     7
 65
   257
 75
     1
175
     1
 42
1.0
 92
        0
 66
   257
 43
1.0
 76
     1
 77
     6
 78
     2
 67
     7
 79
     5
170
     0
171
     0
290
     0
174
     0
 93
       13
 44
0.0
173
     0
291
     1
 45
0.0
1001
ACAD
1000
AcDbSavedByObjectVersion
1070
     0
  0
VISUALSTYLE
  5
303B
102
{ACAD_XDICTIONARY
360
309A
102
}
102
{ACAD_REACTORS
330
3033
102
}
330
3033
100
AcDbVisualStyle
  2
Hidden
 70
     6
 71
     1
 72
     2
 73
     2
 90
        0
 40
-0.6
 41
-30.0
 62
     5
 63
     7
 74
     2
 91
        2
 64
     7
 65
   257
 75
     2
175
     1
 42
40.0
 92
        0
 66
   257
 43
1.0
 76
     1
 77
     6
 78
     2
 67
     7
 79
     3
170
     0
171
     0
290
     0
174
     0
 93
        1
 44
0.0
173
     0
291
     0
 45
0.0
1001
ACAD
1000
AcDbSavedByObjectVersion
1070
     0
  0
VISUALSTYLE
  5
3049
102
{ACAD_XDICTIONARY
360
30B6
102
}
102
{ACAD_REACTORS
330
3033
102
}
330
3033
100
AcDbVisualStyle
  2
JitterOff
 70
    20
 71
     2
 72
     2
 73
     0
 90
        0
 40
-0.6
 41
-30.0
 62
     5
 63
     7
 74
     1
 91
        4
 64
     7
 65
   257
 75
     1
175
     1
 42
1.0
 92
       10
 66
     7
 43
1.0
 76
     1
 77
     6
 78
     2
 67
     7
 79
     5
170
     0
171
     0
290
     0
174
     0
 93
        1
 44
0.0
173
     0
291
     1
 45
0.0
1001
ACAD
1000
AcDbSavedByObjectVersion
1070
     0
  0
VISUALSTYLE
  5
3041
102
{ACAD_XDICTIONARY
360
30A6
102
}
102
{ACAD_REACTORS
330
3033
102
}
330
3033
100
AcDbVisualStyle
  2
Linepattern
 70
    14
 71
     2
 72
     2
 73
     0
 90
        0
 40
-0.6
 41
-30.0
 62
     5
 63
     7
 74
     1
 91
        4
 64
     7
 65
   257
 75
     7
175
     7
 42
1.0
 92
        8
 66
     7
 43
1.0
 76
     1
 77
     6
 78
     2
 67
     7
 79
     5
170
     0
171
     0
290
     0
174
     0
 93
        1
 44
0.0
173
     0
291
     1
 45
0.0
1001
ACAD
1000
AcDbSavedByObjectVersion
1070
     0
  0
VISUALSTYLE
  5
304A
102
{ACAD_XDICTIONARY
360
30B8
102
}
102
{ACAD_REACTORS
330
3033
102
}
330
3033
100
AcDbVisualStyle
  2
OverhangOff
 70
    21
 71
     2
 72
     2
 73
     0
 90
        0
 40
-0.6
 41
-30.0
 62
     5
 63
     7
 74
     1
 91
        4
 64
     7
 65
   257
 75
     1
175
     1
 42
1.0
 92
        9
 66
     7
 43
1.0
 76
     1
 77
     6
 78
     2
 67
     7
 79
     5
170
     0
171
     0
290
     0
174
     0
 93
        1
 44
0.0
173
     0
291
     1
 45
0.0
1001
ACAD
1000
AcDbSavedByObjectVersion
1070
     0
  0
VISUALSTYLE
  5
303D
102
{ACAD_XDICTIONARY
360
309E
102
}
102
{ACAD_REACTORS
330
3033
102
}
330
3033
100
AcDbVisualStyle
  2
Realistic
 70
     8
 71
     2
 72
     3
 73
     0
 90
        2
 40
-0.6
 41
30.0
 62
     5
 63
     7
 74
     0
 91
        0
 64
     7
 65
   257
 75
     1
175
     1
 42
1.0
 92
        8
 66
   257
 43
1.0
 76
     1
 77
     6
 78
     2
 67
     7
 79
     3
170
     0
171
     0
290
     0
174
     0
 93
       13
 44
0.0
173
     0
291
     0
 45
0.0
1001
ACAD
1000
AcDbSavedByObjectVersion
1070
     0
  0
VISUALSTYLE
  5
3048
102
{ACAD_XDICTIONARY
360
30B4
102
}
102
{ACAD_REACTORS
330
3033
102
}
330
3033
100
AcDbVisualStyle
  2
Shaded
 70
    27
 71
     2
 72
     2
 73
     1
 90
        2
 40
-0.6
 41
30.0
 62
     5
 63
     7
 74
     0
 91
        4
 64
     7
 65
   257
 75
     1
175
     1
 42
1.0
 92
        8
 66
   257
 43
1.0
 76
     1
 77
     6
 78
     2
 67
     8
 79
     3
170
     0
171
     0
290
     0
174
     0
 93
        5
 44
0.0
173
     0
291
     0
 45
0.0
1001
ACAD
1000
AcDbSavedByObjectVersion
1070
     0
  0
VISUALSTYLE
  5
3047
102
{ACAD_XDICTIONARY
360
30B2
102
}
102
{ACAD_REACTORS
330
3033
102
}
330
3033
100
AcDbVisualStyle
  2
Shaded with edges
 70
    26
 71
     2
 72
     2
 73
     1
 90
        2
 40
-0.6
 41
30.0
 62
     5
 63
     7
 74
     1
 91
       10
 64
     7
 65
   257
 75
     2
175
     1
 42
1.0
 92
        8
 66
   257
 43
1.0
 76
     1
 77
     6
 78
     2
 67
     7
 79
     3
170
     0
171
     0
290
     0
174
     0
 93
        5
 44
0.0
173
     0
291
     0
 45
0.0
1001
ACAD
1000
AcDbSavedByObjectVersion
1070
     0
  0
VISUALSTYLE
  5
3044
102
{ACAD_XDICTIONARY
360
30AC
102
}
102
{ACAD_REACTORS
330
3033
102
}
330
3033
100
AcDbVisualStyle
  2
Shades of Gray
 70
    23
 71
     2
 72
     2
 73
     3
 90
        0
 40
-0.6
 41
-30.0
 62
     5
 63
     7
 74
     2
 91
        2
 64
     7
 65
     7
 75
     1
175
     1
 42
40.0
 92
        8
 66
     7
 43
1.0
 76
     1
 77
     6
 78
     2
 67
     7
 79
     3
170
     0
171
     0
290
     0
174
     0
 93
        1
 44
0.0
173
     0
291
     0
 45
0.0
1001
ACAD
1000
AcDbSavedByObjectVersion
1070
     0
  0
VISUALSTYLE
  5
3045
102
{ACAD_XDICTIONARY
360
30AE
102
}
102
{ACAD_REACTORS
330
3033
102
}
330
3033
100
AcDbVisualStyle
  2
Sketchy
 70
    24
 71
     1
 72
     2
 73
     2
 90
        0
 40
-0.6
 41
-30.0
 62
     5
 63
     7
 74
     2
 91
        2
 64
     7
 65
     7
 75
     1
175
     1
 42
40.0
 92
       11
 66
     7
 43
1.0
 76
     1
 77
     6
 78
     2
 67
     7
 79
     6
170
     0
171
     0
290
     0
174
     0
 93
        1
 44
0.0
173
     0
291
     0
 45
0.0
1001
ACAD
1000
AcDbSavedByObjectVersion
1070
     0
  0
VISUALSTYLE
  5
3040
102
{ACAD_XDICTIONARY
360
30A4
102
}
102
{ACAD_REACTORS
330
3033
102
}
330
3033
100
AcDbVisualStyle
  2
Thicken
 70
    13
 71
     2
 72
     2
 73
     0
 90
        0
 40
-0.6
 41
-30.0
 62
     5
 63
     7
 74
     1
 91
        4
 64
     7
 65
   257
 75
     1
175
     1
 42
1.0
 92
       12
 66
     7
 43
1.0
 76
     1
 77
     6
 78
     2
 67
     7
 79
     5
170
     0
171
     0
290
     0
174
     0
 93
        1
 44
0.0
173
     0
291
     1
 45
0.0
1001
ACAD
1000
AcDbSavedByObjectVersion
1070
     0
  0
VISUALSTYLE
  5
303A
102
{ACAD_XDICTIONARY
360
3098
102
}
102
{ACAD_REACTORS
330
3033
102
}
330
3033
100
AcDbVisualStyle
  2
Wireframe
 70
     5
 71
     0
 72
     2
 73
     0
 90
        0
 40
-0.6
 41
-30.0
 62
     5
 63
     7
 74
     1
 91
        4
 64
     7
 65
   257
 75
     1
175
     1
 42
1.0
 92
        0
 66
   257
 43
1.0
 76
     1
 77
     6
 78
     2
 67
     7
 79
     3
170
     0
171
     0
290
     0
174
     0
 93
        1
 44
0.0
173
     0
291
     0
 45
0.0
1001
ACAD
1000
AcDbSavedByObjectVersion
1070
     0
  0
VISUALSTYLE
  5
3046
102
{ACAD_XDICTIONARY
360
30B0
102
}
102
{ACAD_REACTORS
330
3033
102
}
330
3033
100
AcDbVisualStyle
  2
X-Ray
 70
    25
 71
     2
 72
     2
 73
     1
 90
        1
 40
0.5
 41
-30.0
 62
     5
 63
     7
 74
     1
 91
        0
 64
     7
 65
   257
 75
     1
175
     1
 42
1.0
 92
        8
 66
     7
 43
1.0
 76
     1
 77
     6
 78
     2
 67
     7
 79
     3
170
     0
171
     0
290
     0
174
     0
 93
       13
 44
0.0
173
     0
291
     0
 45
0.0
1001
ACAD
1000
AcDbSavedByObjectVersion
1070
     0
  0
DICTIONARYVAR
  5
307F
102
{ACAD_REACTORS
330
307A
102
}
330
307A
100
DictionaryVariables
280
     0
  1
1:1
  0
DICTIONARYVAR
  5
307C
102
{ACAD_REACTORS
330
307A
102
}
330
307A
100
DictionaryVariables
280
     0
  1
STANDARD
  0
DICTIONARYVAR
  5
307B
102
{ACAD_REACTORS
330
307A
102
}
330
307A
100
DictionaryVariables
280
     0
  1
STANDARD
  0
DICTIONARYVAR
  5
307D
102
{ACAD_REACTORS
330
307A
102
}
330
307A
100
DictionaryVariables
280
     0
  1
Imperial24
  0
DICTIONARYVAR
  5
307E
102
{ACAD_REACTORS
330
307A
102
}
330
307A
100
DictionaryVariables
280
     0
  1
Imperial24
  0
DICTIONARYVAR
  5
3082
102
{ACAD_REACTORS
330
307A
102
}
330
307A
100
DictionaryVariables
280
     0
  1
1
  0
DICTIONARYVAR
  5
3081
102
{ACAD_REACTORS
330
307A
102
}
330
307A
100
DictionaryVariables
280
     0
  1
0
  0
DICTIONARYVAR
  5
3080
102
{ACAD_REACTORS
330
307A
102
}
330
307A
100
DictionaryVariables
280
     0
  1
127
  0
DICTIONARYVAR
  5
3083
102
{ACAD_REACTORS
330
307A
102
}
330
307A
100
DictionaryVariables
280
     0
  1
2
  0
DICTIONARY
  5
30C0
330
3066
100
AcDbDictionary
280
     1
281
     1
  3
ACAD_XREC_ROUNDTRIP
360
30C1
  0
DICTIONARY
  5
30C2
330
3067
100
AcDbDictionary
280
     1
281
     1
  3
ACAD_XREC_ROUNDTRIP
360
30C3
  0
DICTIONARY
  5
30C4
330
3068
100
AcDbDictionary
280
     1
281
     1
  3
ACAD_XREC_ROUNDTRIP
360
30C5
  0
DICTIONARY
  5
3024
330
3023
100
AcDbDictionary
280
     1
281
     1
  3
ACAD_XREC_ROUNDTRIP
360
308A
  3
BUMPTILE
360
3026
  3
DIFFUSETILE
360
3025
  3
OPACITYTILE
360
3029
  3
REFLECTIONTILE
360
3028
  3
REFRACTIONTILE
360
302A
  3
SPECULARTILE
360
3027
  0
DICTIONARY
  5
301C
330
301B
100
AcDbDictionary
280
     1
281
     1
  3
ACAD_XREC_ROUNDTRIP
360
3089
  3
BUMPTILE
360
301E
  3
DIFFUSETILE
360
301D
  3
OPACITYTILE
360
3021
  3
REFLECTIONTILE
360
3020
  3
REFRACTIONTILE
360
3022
  3
SPECULARTILE
360
301F
  0
DICTIONARY
  5
302C
330
302B
100
AcDbDictionary
280
     1
281
     1
  3
ACAD_XREC_ROUNDTRIP
360
308B
  3
BUMPTILE
360
302E
  3
DIFFUSETILE
360
302D
  3
OPACITYTILE
360
3031
  3
REFLECTIONTILE
360
3030
  3
REFRACTIONTILE
360
3032
  3
SPECULARTILE
360
302F
  0
DICTIONARY
  5
30BE
330
3064
100
AcDbDictionary
280
     1
281
     1
  3
ACAD_XREC_ROUNDTRIP
360
30BF
  0
DICTIONARY
  5
3085
330
304E
100
AcDbDictionary
280
     1
281
     1
  3
ACAD_ROUNDTRIP_2008_TABLESTYLE_CELLSTYLEMAP
360
3086
  3
ACAD_XREC_ROUNDTRIP
360
30BC
  0
DICTIONARY
  5
3096
330
3039
100
AcDbDictionary
280
     1
281
     1
  3
ACAD_XREC_ROUNDTRIP
360
3097
  0
DICTIONARY
  5
3094
330
3038
100
AcDbDictionary
280
     1
281
     1
  3
ACAD_XREC_ROUNDTRIP
360
3095
  0
DICTIONARY
  5
30A2
330
303F
100
AcDbDictionary
280
     1
281
     1
  3
ACAD_XREC_ROUNDTRIP
360
30A3
  0
DICTIONARY
  5
30AA
330
3043
100
AcDbDictionary
280
     1
281
     1
  3
ACAD_XREC_ROUNDTRIP
360
30AB
  0
DICTIONARY
  5
309C
330
303C
100
AcDbDictionary
280
     1
281
     1
  3
ACAD_XREC_ROUNDTRIP
360
309D
  0
DICTIONARY
  5
30A0
330
303E
100
AcDbDictionary
280
     1
281
     1
  3
ACAD_XREC_ROUNDTRIP
360
30A1
  0
DICTIONARY
  5
30BA
330
304B
100
AcDbDictionary
280
     1
281
     1
  3
ACAD_XREC_ROUNDTRIP
360
30BB
  0
DICTIONARY
  5
30A8
330
3042
100
AcDbDictionary
280
     1
281
     1
  3
ACAD_XREC_ROUNDTRIP
360
30A9
  0
DICTIONARY
  5
308C
330
3034
100
AcDbDictionary
280
     1
281
     1
  3
ACAD_XREC_ROUNDTRIP
360
308D
  0
DICTIONARY
  5
308E
330
3035
100
AcDbDictionary
280
     1
281
     1
  3
ACAD_XREC_ROUNDTRIP
360
308F
  0
DICTIONARY
  5
3090
330
3036
100
AcDbDictionary
280
     1
281
     1
  3
ACAD_XREC_ROUNDTRIP
360
3091
  0
DICTIONARY
  5
3092
330
3037
100
AcDbDictionary
280
     1
281
     1
  3
ACAD_XREC_ROUNDTRIP
360
3093
  0
DICTIONARY
  5
309A
330
303B
100
AcDbDictionary
280
     1
281
     1
  3
ACAD_XREC_ROUNDTRIP
360
309B
  0
DICTIONARY
  5
30B6
330
3049
100
AcDbDictionary
280
     1
281
     1
  3
ACAD_XREC_ROUNDTRIP
360
30B7
  0
DICTIONARY
  5
30A6
330
3041
100
AcDbDictionary
280
     1
281
     1
  3
ACAD_XREC_ROUNDTRIP
360
30A7
  0
DICTIONARY
  5
30B8
330
304A
100
AcDbDictionary
280
     1
281
     1
  3
ACAD_XREC_ROUNDTRIP
360
30B9
  0
DICTIONARY
  5
309E
330
303D
100
AcDbDictionary
280
     1
281
     1
  3
ACAD_XREC_ROUNDTRIP
360
309F
  0
DICTIONARY
  5
30B4
330
3048
100
AcDbDictionary
280
     1
281
     1
  3
ACAD_XREC_ROUNDTRIP
360
30B5
  0
DICTIONARY
  5
30B2
330
3047
100
AcDbDictionary
280
     1
281
     1
  3
ACAD_XREC_ROUNDTRIP
360
30B3
  0
DICTIONARY
  5
30AC
330
3044
100
AcDbDictionary
280
     1
281
     1
  3
ACAD_XREC_ROUNDTRIP
360
30AD
  0
DICTIONARY
  5
30AE
330
3045
100
AcDbDictionary
280
     1
281
     1
  3
ACAD_XREC_ROUNDTRIP
360
30AF
  0
DICTIONARY
  5
30A4
330
3040
100
AcDbDictionary
280
     1
281
     1
  3
ACAD_XREC_ROUNDTRIP
360
30A5
  0
DICTIONARY
  5
3098
330
303A
100
AcDbDictionary
280
     1
281
     1
  3
ACAD_XREC_ROUNDTRIP
360
3099
  0
DICTIONARY
  5
30B0
330
3046
100
AcDbDictionary
280
     1
281
     1
  3
ACAD_XREC_ROUNDTRIP
360
30B1
  0
XRECORD
  5
30C1
102
{ACAD_REACTORS
330
30C0
102
}
330
30C0
100
AcDbXrecord
280
     1
102
DISPLAYNAME
  1
Imperial24
102
FLAGS
 90
        0
  0
XRECORD
  5
30C3
102
{ACAD_REACTORS
330
30C2
102
}
330
30C2
100
AcDbXrecord
280
     1
102
SHADEPLOT
 70
     0
102
SHADEPLOTRESLEVEL
 70
     2
102
SHADEPLOTCUSTOMDPI
 70
   300
  0
XRECORD
  5
30C5
102
{ACAD_REACTORS
330
30C4
102
}
330
30C4
100
AcDbXrecord
280
     1
102
SHADEPLOT
 70
     0
102
SHADEPLOTRESLEVEL
 70
     2
102
SHADEPLOTCUSTOMDPI
 70
   300
  0
XRECORD
  5
308A
102
{ACAD_REACTORS
330
3024
102
}
330
3024
100
AcDbXrecord
280
     1
102
MATERIAL
148
0.0
149
0.0
149
0.0
 93
        0
 94
      127
282
     0
 72
     0
 77
     0
171
     0
175
     0
179
     0
273
     0
  0
XRECORD
  5
3026
102
{ACAD_REACTORS
330
3024
102
}
330
3024
100
AcDbXrecord
280
     1
270
     1
271
     1
  0
XRECORD
  5
3025
102
{ACAD_REACTORS
330
3024
102
}
330
3024
100
AcDbXrecord
280
     1
270
     1
271
     1
  0
XRECORD
  5
3029
102
{ACAD_REACTORS
330
3024
102
}
330
3024
100
AcDbXrecord
280
     1
270
     1
271
     1
  0
XRECORD
  5
3028
102
{ACAD_REACTORS
330
3024
102
}
330
3024
100
AcDbXrecord
280
     1
270
     1
271
     1
  0
XRECORD
  5
302A
102
{ACAD_REACTORS
330
3024
102
}
330
3024
100
AcDbXrecord
280
     1
270
     1
271
     1
  0
XRECORD
  5
3027
102
{ACAD_REACTORS
330
3024
102
}
330
3024
100
AcDbXrecord
280
     1
270
     1
271
     1
  0
XRECORD
  5
3089
102
{ACAD_REACTORS
330
301C
102
}
330
301C
100
AcDbXrecord
280
     1
102
MATERIAL
148
0.0
149
0.0
149
0.0
 93
        0
 94
      127
282
     0
 72
     0
 77
     0
171
     0
175
     0
179
     0
273
     0
  0
XRECORD
  5
301E
102
{ACAD_REACTORS
330
301C
102
}
330
301C
100
AcDbXrecord
280
     1
270
     1
271
     1
  0
XRECORD
  5
301D
102
{ACAD_REACTORS
330
301C
102
}
330
301C
100
AcDbXrecord
280
     1
270
     1
271
     1
  0
XRECORD
  5
3021
102
{ACAD_REACTORS
330
301C
102
}
330
301C
100
AcDbXrecord
280
     1
270
     1
271
     1
  0
XRECORD
  5
3020
102
{ACAD_REACTORS
330
301C
102
}
330
301C
100
AcDbXrecord
280
     1
270
     1
271
     1
  0
XRECORD
  5
3022
102
{ACAD_REACTORS
330
301C
102
}
330
301C
100
AcDbXrecord
280
     1
270
     1
271
     1
  0
XRECORD
  5
301F
102
{ACAD_REACTORS
330
301C
102
}
330
301C
100
AcDbXrecord
280
     1
270
     1
271
     1
  0
XRECORD
  5
308B
102
{ACAD_REACTORS
330
302C
102
}
330
302C
100
AcDbXrecord
280
     1
102
MATERIAL
148
0.0
149
0.0
149
0.0
 93
        0
 94
      127
282
     0
 72
     0
 77
     0
171
     0
175
     0
179
     0
273
     0
  0
XRECORD
  5
302E
102
{ACAD_REACTORS
330
302C
102
}
330
302C
100
AcDbXrecord
280
     1
270
     1
271
     1
  0
XRECORD
  5
302D
102
{ACAD_REACTORS
330
302C
102
}
330
302C
100
AcDbXrecord
280
     1
270
     1
271
     1
  0
XRECORD
  5
3031
102
{ACAD_REACTORS
330
302C
102
}
330
302C
100
AcDbXrecord
280
     1
270
     1
271
     1
  0
XRECORD
  5
3030
102
{ACAD_REACTORS
330
302C
102
}
330
302C
100
AcDbXrecord
280
     1
270
     1
271
     1
  0
XRECORD
  5
3032
102
{ACAD_REACTORS
330
302C
102
}
330
302C
100
AcDbXrecord
280
     1
270
     1
271
     1
  0
XRECORD
  5
302F
102
{ACAD_REACTORS
330
302C
102
}
330
302C
100
AcDbXrecord
280
     1
270
     1
271
     1
  0
XRECORD
  5
30BF
102
{ACAD_REACTORS
330
30BE
102
}
330
30BE
100
AcDbXrecord
280
     1
102
DISPLAYNAME
  1
Imperial24
102
FLAGS
 90
        0
  0
CELLSTYLEMAP
  5
3086
102
{ACAD_REACTORS
330
3085
102
}
330
3085
100
AcDbCellStyleMap
 90
        3
300
CELLSTYLE
  1
TABLEFORMAT_BEGIN
 90
        5
170
     1
 91
        0
 92
    32768
 62
   257
 93
        1
300
CONTENTFORMAT
  1
CONTENTFORMAT_BEGIN
 90
        0
 91
        0
 92
      512
 93
        0
300

 40
0.0
140
1.0
 94
        5
 62
     0
340
F
144
0.25
309
CONTENTFORMAT_END
171
     0
 94
        0
309
TABLEFORMAT_END
  1
CELLSTYLE_BEGIN
 90
        1
 91
        1
300
_TITLE
309
CELLSTYLE_END
300
CELLSTYLE
  1
TABLEFORMAT_BEGIN
 90
        5
170
     1
 91
        0
 92
        0
 62
   257
 93
        1
300
CONTENTFORMAT
  1
CONTENTFORMAT_BEGIN
 90
        0
 91
        0
 92
      512
 93
        0
300

 40
0.0
140
1.0
 94
        5
 62
     0
340
F
144
0.18
309
CONTENTFORMAT_END
171
     0
 94
        0
309
TABLEFORMAT_END
  1
CELLSTYLE_BEGIN
 90
        2
 91
        1
300
_HEADER
309
CELLSTYLE_END
300
CELLSTYLE
  1
TABLEFORMAT_BEGIN
 90
        5
170
     1
 91
        0
 92
        0
 62
   257
 93
        1
300
CONTENTFORMAT
  1
CONTENTFORMAT_BEGIN
 90
        0
 91
        0
 92
      512
 93
        0
300

 40
0.0
140
1.0
 94
        2
 62
     0
340
F
144
0.18
309
CONTENTFORMAT_END
171
     0
 94
        0
309
TABLEFORMAT_END
  1
CELLSTYLE_BEGIN
 90
        3
 91
        2
300
_DATA
309
CELLSTYLE_END
  0
XRECORD
  5
30BC
102
{ACAD_REACTORS
330
3085
102
}
330
3085
100
AcDbXrecord
280
     1
102
ACAD_ROUNDTRIP_PRE2007_TABLESTYLE
 90
      512
 91
        0
  1

 92
      512
 93
        0
  2

 94
      512
 95
        0
  3

  0
XRECORD
  5
3097
102
{ACAD_REACTORS
330
3096
102
}
330
3096
100
AcDbXrecord
280
     1
102
RTVSPost2010Prop28
280
     1
102
RTVSPost2010PropOp28
 70
     1
102
RTVSPost2010Prop29
280
     1
102
RTVSPost2010PropOp29
 70
     1
102
RTVSPost2010Prop30
280
     0
102
RTVSPost2010PropOp30
 70
     1
102
RTVSPost2010Prop31
280
     0
102
RTVSPost2010PropOp31
 70
     1
102
RTVSPost2010Prop32
280
     0
102
RTVSPost2010PropOp32
 70
     1
102
RTVSPost2010Prop33
280
     0
102
RTVSPost2010PropOp33
 70
     1
102
RTVSPost2010Prop34
280
     0
102
RTVSPost2010PropOp34
 70
     1
102
RTVSPost2010Prop35
280
     0
102
RTVSPost2010PropOp35
 70
     1
102
RTVSPost2010Prop36
280
     0
102
RTVSPost2010PropOp36
 70
     1
102
RTVSPost2010Prop37
 90
       50
102
RTVSPost2010PropOp37
 70
     1
102
RTVSPost2010Prop38
140
0.0
102
RTVSPost2010PropOp38
 70
     1
102
RTVSPost2010Prop39
140
1.0
102
RTVSPost2010PropOp39
 70
     1
102
RTVSPost2010Prop40
 90
        0
102
RTVSPost2010PropOp40
 70
     1
102
RTVSPost2010Prop41ColorIndex
 90
       18
102
RTVSPost2010Prop41ColorRGB
 90
        0
102
RTVSPost2010PropOp41
 70
     1
102
RTVSPost2010Prop42
 90
       50
102
RTVSPost2010PropOp42
 70
     1
102
RTVSPost2010Prop43
 90
        3
102
RTVSPost2010PropOp43
 70
     1
102
RTVSPost2010Prop44ColorIndex
 90
        5
102
RTVSPost2010Prop44ColorRGB
 90
      255
102
RTVSPost2010PropOp44
 70
     1
102
RTVSPost2010Prop45
280
     0
102
RTVSPost2010PropOp45
 70
     1
102
RTVSPost2010Prop46
 90
       50
102
RTVSPost2010PropOp46
 70
     1
102
RTVSPost2010Prop47
 90
       50
102
RTVSPost2010PropOp47
 70
     1
102
RTVSPost2010Prop48
 90
       50
102
RTVSPost2010PropOp48
 70
     1
102
RTVSPost2010Prop49
280
     0
102
RTVSPost2010PropOp49
 70
     1
102
RTVSPost2010Prop50
 90
       50
102
RTVSPost2010PropOp50
 70
     1
102
RTVSPost2010Prop51ColorIndex
 90
      256
102
RTVSPost2010Prop51ColorRGB
 90
-16777216
102
RTVSPost2010PropOp51
 70
     0
102
RTVSPost2010Prop52
140
1.0
102
RTVSPost2010PropOp52
 70
     0
102
RTVSPost2010Prop53
 90
        2
102
RTVSPost2010PropOp53
 70
     1
102
RTVSPost2010Prop54
  1
strokes_ogs.tif
102
RTVSPost2010PropOp54
 70
     1
102
RTVSPost2010Prop55
280
     0
102
RTVSPost2010PropOp55
 70
     1
102
RTVSPost2010Prop56
140
1.0
102
RTVSPost2010PropOp56
 70
     1
102
RTVSPost2010Prop57
140
1.0
102
RTVSPost2010PropOp57
 70
     1
102
RTVSPropertyOp0
 70
     1
102
RTVSPropertyOp1
 70
     1
102
RTVSPropertyOp2
 70
     1
102
RTVSPropertyOp3
 70
     1
102
RTVSPropertyOp4
 70
     1
102
RTVSPropertyOp5
 70
     1
102
RTVSPropertyOp6
 70
     1
102
RTVSPropertyOp7
 70
     1
102
RTVSPropertyOp8
 70
     1
102
RTVSPropertyOp9
 70
     1
102
RTVSPropertyOp10
 70
     1
102
RTVSPropertyOp11
 70
     1
102
RTVSPropertyOp12
 70
     1
102
RTVSPropertyOp13
 70
     1
102
RTVSPropertyOp14
 70
     1
102
RTVSPropertyOp15
 70
     1
102
RTVSPropertyOp16
 70
     1
102
RTVSPropertyOp17
 70
     1
102
RTVSPropertyOp18
 70
     1
102
RTVSPropertyOp19
 70
     1
102
RTVSPropertyOp20
 70
     1
102
RTVSPropertyOp21
 70
     1
102
RTVSPropertyOp22
 70
     1
102
RTVSPropertyOp23
 70
     1
102
RTVSPropertyOp24
 70
     1
102
RTVSPropertyOp25
 70
     1
102
RTVSPropertyOp26
 70
     1
102
RTVSPropertyOp27
 70
     1
102
RTVSPropertyOp28
 70
     1
102
RTVSPropertyOp29
 70
     1
102
RTVSPropertyOp30
 70
     1
102
RTVSPropertyOp31
 70
     1
102
RTVSPropertyOp32
 70
     1
102
RTVSPropertyOp33
 70
     1
102
RTVSPropertyOp34
 70
     1
102
RTVSPropertyOp35
 70
     1
102
RTVSPropertyOp36
 70
     1
102
RTVSPropertyOp37
 70
     1
102
RTVSPropertyOp38
 70
     1
102
RTVSPropertyOp39
 70
     1
102
RTVSPropertyOp40
 70
     1
102
RTVSPropertyOp41
 70
     1
102
RTVSPropertyOp42
 70
     1
102
RTVSPropertyOp43
 70
     1
102
RTVSPropertyOp44
 70
     1
102
RTVSPropertyOp45
 70
     1
102
RTVSPropertyOp46
 70
     1
102
RTVSPropertyOp47
 70
     1
102
RTVSPropertyOp48
 70
     1
102
RTVSPropertyOp49
 70
     1
102
RTVSPropertyOp50
 70
     1
102
RTVSPropertyOp51
 70
     0
102
RTVSPropertyOp52
 70
     0
102
RTVSPropertyOp53
 70
     1
102
RTVSPropertyOp54
 70
     1
102
RTVSPropertyOp55
 70
     1
102
RTVSPropertyOp56
 70
     1
102
RTVSPropertyOp57
 70
     1
102
RTVSPropertyOp58
 70
     1
102
RTVSPropertyOp59
 70
     1
102
RTVSPropertyOp60
 70
     1
102
RTVSPropertyOp61
 70
     1
102
RTVSPropertyOp62
 70
     1
  0
XRECORD
  5
3095
102
{ACAD_REACTORS
330
3094
102
}
330
3094
100
AcDbXrecord
280
     1
102
RTVSPost2010Prop28
280
     0
102
RTVSPost2010PropOp28
 70
     1
102
RTVSPost2010Prop29
280
     1
102
RTVSPost2010PropOp29
 70
     1
102
RTVSPost2010Prop30
280
     1
102
RTVSPost2010PropOp30
 70
     1
102
RTVSPost2010Prop31
280
     0
102
RTVSPost2010PropOp31
 70
     1
102
RTVSPost2010Prop32
280
     0
102
RTVSPost2010PropOp32
 70
     1
102
RTVSPost2010Prop33
280
     0
102
RTVSPost2010PropOp33
 70
     1
102
RTVSPost2010Prop34
280
     0
102
RTVSPost2010PropOp34
 70
     1
102
RTVSPost2010Prop35
280
     0
102
RTVSPost2010PropOp35
 70
     1
102
RTVSPost2010Prop36
280
     0
102
RTVSPost2010PropOp36
 70
     1
102
RTVSPost2010Prop37
 90
       50
102
RTVSPost2010PropOp37
 70
     1
102
RTVSPost2010Prop38
140
0.0
102
RTVSPost2010PropOp38
 70
     1
102
RTVSPost2010Prop39
140
1.0
102
RTVSPost2010PropOp39
 70
     1
102
RTVSPost2010Prop40
 90
        0
102
RTVSPost2010PropOp40
 70
     1
102
RTVSPost2010Prop41ColorIndex
 90
       18
102
RTVSPost2010Prop41ColorRGB
 90
        0
102
RTVSPost2010PropOp41
 70
     1
102
RTVSPost2010Prop42
 90
       50
102
RTVSPost2010PropOp42
 70
     1
102
RTVSPost2010Prop43
 90
        3
102
RTVSPost2010PropOp43
 70
     1
102
RTVSPost2010Prop44ColorIndex
 90
        5
102
RTVSPost2010Prop44ColorRGB
 90
      255
102
RTVSPost2010PropOp44
 70
     1
102
RTVSPost2010Prop45
280
     0
102
RTVSPost2010PropOp45
 70
     1
102
RTVSPost2010Prop46
 90
       50
102
RTVSPost2010PropOp46
 70
     1
102
RTVSPost2010Prop47
 90
       50
102
RTVSPost2010PropOp47
 70
     1
102
RTVSPost2010Prop48
 90
       50
102
RTVSPost2010PropOp48
 70
     1
102
RTVSPost2010Prop49
280
     0
102
RTVSPost2010PropOp49
 70
     1
102
RTVSPost2010Prop50
 90
       50
102
RTVSPost2010PropOp50
 70
     1
102
RTVSPost2010Prop51ColorIndex
 90
      256
102
RTVSPost2010Prop51ColorRGB
 90
-16777216
102
RTVSPost2010PropOp51
 70
     0
102
RTVSPost2010Prop52
140
1.0
102
RTVSPost2010PropOp52
 70
     0
102
RTVSPost2010Prop53
 90
        2
102
RTVSPost2010PropOp53
 70
     1
102
RTVSPost2010Prop54
  1
strokes_ogs.tif
102
RTVSPost2010PropOp54
 70
     1
102
RTVSPost2010Prop55
280
     0
102
RTVSPost2010PropOp55
 70
     1
102
RTVSPost2010Prop56
140
1.0
102
RTVSPost2010PropOp56
 70
     1
102
RTVSPost2010Prop57
140
1.0
102
RTVSPost2010PropOp57
 70
     1
102
RTVSPropertyOp0
 70
     1
102
RTVSPropertyOp1
 70
     1
102
RTVSPropertyOp2
 70
     1
102
RTVSPropertyOp3
 70
     1
102
RTVSPropertyOp4
 70
     1
102
RTVSPropertyOp5
 70
     1
102
RTVSPropertyOp6
 70
     1
102
RTVSPropertyOp7
 70
     1
102
RTVSPropertyOp8
 70
     1
102
RTVSPropertyOp9
 70
     1
102
RTVSPropertyOp10
 70
     1
102
RTVSPropertyOp11
 70
     1
102
RTVSPropertyOp12
 70
     1
102
RTVSPropertyOp13
 70
     1
102
RTVSPropertyOp14
 70
     1
102
RTVSPropertyOp15
 70
     1
102
RTVSPropertyOp16
 70
     1
102
RTVSPropertyOp17
 70
     1
102
RTVSPropertyOp18
 70
     1
102
RTVSPropertyOp19
 70
     1
102
RTVSPropertyOp20
 70
     1
102
RTVSPropertyOp21
 70
     1
102
RTVSPropertyOp22
 70
     1
102
RTVSPropertyOp23
 70
     1
102
RTVSPropertyOp24
 70
     1
102
RTVSPropertyOp25
 70
     1
102
RTVSPropertyOp26
 70
     1
102
RTVSPropertyOp27
 70
     1
102
RTVSPropertyOp28
 70
     1
102
RTVSPropertyOp29
 70
     1
102
RTVSPropertyOp30
 70
     1
102
RTVSPropertyOp31
 70
     1
102
RTVSPropertyOp32
 70
     1
102
RTVSPropertyOp33
 70
     1
102
RTVSPropertyOp34
 70
     1
102
RTVSPropertyOp35
 70
     1
102
RTVSPropertyOp36
 70
     1
102
RTVSPropertyOp37
 70
     1
102
RTVSPropertyOp38
 70
     1
102
RTVSPropertyOp39
 70
     1
102
RTVSPropertyOp40
 70
     1
102
RTVSPropertyOp41
 70
     1
102
RTVSPropertyOp42
 70
     1
102
RTVSPropertyOp43
 70
     1
102
RTVSPropertyOp44
 70
     1
102
RTVSPropertyOp45
 70
     1
102
RTVSPropertyOp46
 70
     1
102
RTVSPropertyOp47
 70
     1
102
RTVSPropertyOp48
 70
     1
102
RTVSPropertyOp49
 70
     1
102
RTVSPropertyOp50
 70
     1
102
RTVSPropertyOp51
 70
     0
102
RTVSPropertyOp52
 70
     0
102
RTVSPropertyOp53
 70
     1
102
RTVSPropertyOp54
 70
     1
102
RTVSPropertyOp55
 70
     1
102
RTVSPropertyOp56
 70
     1
102
RTVSPropertyOp57
 70
     1
102
RTVSPropertyOp58
 70
     1
102
RTVSPropertyOp59
 70
     1
102
RTVSPropertyOp60
 70
     1
102
RTVSPropertyOp61
 70
     1
102
RTVSPropertyOp62
 70
     1
  0
XRECORD
  5
30A3
102
{ACAD_REACTORS
330
30A2
102
}
330
30A2
100
AcDbXrecord
280
     1
102
RTVSPost2010Prop28
280
     0
102
RTVSPost2010PropOp28
 70
     1
102
RTVSPost2010Prop29
280
     1
102
RTVSPost2010PropOp29
 70
     1
102
RTVSPost2010Prop30
280
     1
102
RTVSPost2010PropOp30
 70
     1
102
RTVSPost2010Prop31
280
     0
102
RTVSPost2010PropOp31
 70
     1
102
RTVSPost2010Prop32
280
     0
102
RTVSPost2010PropOp32
 70
     1
102
RTVSPost2010Prop33
280
     0
102
RTVSPost2010PropOp33
 70
     1
102
RTVSPost2010Prop34
280
     0
102
RTVSPost2010PropOp34
 70
     1
102
RTVSPost2010Prop35
280
     0
102
RTVSPost2010PropOp35
 70
     1
102
RTVSPost2010Prop36
280
     0
102
RTVSPost2010PropOp36
 70
     1
102
RTVSPost2010Prop37
 90
       50
102
RTVSPost2010PropOp37
 70
     1
102
RTVSPost2010Prop38
140
0.0
102
RTVSPost2010PropOp38
 70
     1
102
RTVSPost2010Prop39
140
1.0
102
RTVSPost2010PropOp39
 70
     1
102
RTVSPost2010Prop40
 90
        0
102
RTVSPost2010PropOp40
 70
     1
102
RTVSPost2010Prop41ColorIndex
 90
       18
102
RTVSPost2010Prop41ColorRGB
 90
        0
102
RTVSPost2010PropOp41
 70
     1
102
RTVSPost2010Prop42
 90
       50
102
RTVSPost2010PropOp42
 70
     1
102
RTVSPost2010Prop43
 90
        3
102
RTVSPost2010PropOp43
 70
     1
102
RTVSPost2010Prop44ColorIndex
 90
        5
102
RTVSPost2010Prop44ColorRGB
 90
      255
102
RTVSPost2010PropOp44
 70
     1
102
RTVSPost2010Prop45
280
     0
102
RTVSPost2010PropOp45
 70
     1
102
RTVSPost2010Prop46
 90
       50
102
RTVSPost2010PropOp46
 70
     1
102
RTVSPost2010Prop47
 90
       50
102
RTVSPost2010PropOp47
 70
     1
102
RTVSPost2010Prop48
 90
       50
102
RTVSPost2010PropOp48
 70
     1
102
RTVSPost2010Prop49
280
     0
102
RTVSPost2010PropOp49
 70
     1
102
RTVSPost2010Prop50
 90
       50
102
RTVSPost2010PropOp50
 70
     1
102
RTVSPost2010Prop51ColorIndex
 90
      256
102
RTVSPost2010Prop51ColorRGB
 90
-16777216
102
RTVSPost2010PropOp51
 70
     0
102
RTVSPost2010Prop52
140
1.0
102
RTVSPost2010PropOp52
 70
     0
102
RTVSPost2010Prop53
 90
        2
102
RTVSPost2010PropOp53
 70
     1
102
RTVSPost2010Prop54
  1
strokes_ogs.tif
102
RTVSPost2010PropOp54
 70
     1
102
RTVSPost2010Prop55
280
     0
102
RTVSPost2010PropOp55
 70
     1
102
RTVSPost2010Prop56
140
1.0
102
RTVSPost2010PropOp56
 70
     1
102
RTVSPost2010Prop57
140
1.0
102
RTVSPost2010PropOp57
 70
     1
102
RTVSPropertyOp0
 70
     1
102
RTVSPropertyOp1
 70
     1
102
RTVSPropertyOp2
 70
     1
102
RTVSPropertyOp3
 70
     1
102
RTVSPropertyOp4
 70
     1
102
RTVSPropertyOp5
 70
     1
102
RTVSPropertyOp6
 70
     1
102
RTVSPropertyOp7
 70
     1
102
RTVSPropertyOp8
 70
     1
102
RTVSPropertyOp9
 70
     1
102
RTVSPropertyOp10
 70
     1
102
RTVSPropertyOp11
 70
     1
102
RTVSPropertyOp12
 70
     1
102
RTVSPropertyOp13
 70
     1
102
RTVSPropertyOp14
 70
     1
102
RTVSPropertyOp15
 70
     1
102
RTVSPropertyOp16
 70
     1
102
RTVSPropertyOp17
 70
     1
102
RTVSPropertyOp18
 70
     1
102
RTVSPropertyOp19
 70
     1
102
RTVSPropertyOp20
 70
     1
102
RTVSPropertyOp21
 70
     1
102
RTVSPropertyOp22
 70
     1
102
RTVSPropertyOp23
 70
     1
102
RTVSPropertyOp24
 70
     1
102
RTVSPropertyOp25
 70
     1
102
RTVSPropertyOp26
 70
     1
102
RTVSPropertyOp27
 70
     1
102
RTVSPropertyOp28
 70
     1
102
RTVSPropertyOp29
 70
     1
102
RTVSPropertyOp30
 70
     1
102
RTVSPropertyOp31
 70
     1
102
RTVSPropertyOp32
 70
     1
102
RTVSPropertyOp33
 70
     1
102
RTVSPropertyOp34
 70
     1
102
RTVSPropertyOp35
 70
     1
102
RTVSPropertyOp36
 70
     1
102
RTVSPropertyOp37
 70
     1
102
RTVSPropertyOp38
 70
     1
102
RTVSPropertyOp39
 70
     1
102
RTVSPropertyOp40
 70
     1
102
RTVSPropertyOp41
 70
     1
102
RTVSPropertyOp42
 70
     1
102
RTVSPropertyOp43
 70
     1
102
RTVSPropertyOp44
 70
     1
102
RTVSPropertyOp45
 70
     1
102
RTVSPropertyOp46
 70
     1
102
RTVSPropertyOp47
 70
     1
102
RTVSPropertyOp48
 70
     1
102
RTVSPropertyOp49
 70
     1
102
RTVSPropertyOp50
 70
     1
102
RTVSPropertyOp51
 70
     0
102
RTVSPropertyOp52
 70
     0
102
RTVSPropertyOp53
 70
     1
102
RTVSPropertyOp54
 70
     1
102
RTVSPropertyOp55
 70
     1
102
RTVSPropertyOp56
 70
     1
102
RTVSPropertyOp57
 70
     1
102
RTVSPropertyOp58
 70
     1
102
RTVSPropertyOp59
 70
     1
102
RTVSPropertyOp60
 70
     1
102
RTVSPropertyOp61
 70
     1
102
RTVSPropertyOp62
 70
     1
  0
XRECORD
  5
30AB
102
{ACAD_REACTORS
330
30AA
102
}
330
30AA
100
AcDbXrecord
280
     1
102
RTVSPost2010Prop28
280
     0
102
RTVSPost2010PropOp28
 70
     1
102
RTVSPost2010Prop29
280
     1
102
RTVSPost2010PropOp29
 70
     1
102
RTVSPost2010Prop30
280
     1
102
RTVSPost2010PropOp30
 70
     1
102
RTVSPost2010Prop31
280
     0
102
RTVSPost2010PropOp31
 70
     1
102
RTVSPost2010Prop32
280
     0
102
RTVSPost2010PropOp32
 70
     1
102
RTVSPost2010Prop33
280
     0
102
RTVSPost2010PropOp33
 70
     1
102
RTVSPost2010Prop34
280
     0
102
RTVSPost2010PropOp34
 70
     1
102
RTVSPost2010Prop35
280
     0
102
RTVSPost2010PropOp35
 70
     1
102
RTVSPost2010Prop36
280
     0
102
RTVSPost2010PropOp36
 70
     1
102
RTVSPost2010Prop37
 90
       50
102
RTVSPost2010PropOp37
 70
     1
102
RTVSPost2010Prop38
140
0.0
102
RTVSPost2010PropOp38
 70
     1
102
RTVSPost2010Prop39
140
1.0
102
RTVSPost2010PropOp39
 70
     1
102
RTVSPost2010Prop40
 90
        0
102
RTVSPost2010PropOp40
 70
     1
102
RTVSPost2010Prop41ColorIndex
 90
       18
102
RTVSPost2010Prop41ColorRGB
 90
        0
102
RTVSPost2010PropOp41
 70
     1
102
RTVSPost2010Prop42
 90
       50
102
RTVSPost2010PropOp42
 70
     1
102
RTVSPost2010Prop43
 90
        3
102
RTVSPost2010PropOp43
 70
     1
102
RTVSPost2010Prop44ColorIndex
 90
        5
102
RTVSPost2010Prop44ColorRGB
 90
      255
102
RTVSPost2010PropOp44
 70
     1
102
RTVSPost2010Prop45
280
     0
102
RTVSPost2010PropOp45
 70
     1
102
RTVSPost2010Prop46
 90
       50
102
RTVSPost2010PropOp46
 70
     1
102
RTVSPost2010Prop47
 90
       50
102
RTVSPost2010PropOp47
 70
     1
102
RTVSPost2010Prop48
 90
       50
102
RTVSPost2010PropOp48
 70
     1
102
RTVSPost2010Prop49
280
     0
102
RTVSPost2010PropOp49
 70
     1
102
RTVSPost2010Prop50
 90
       50
102
RTVSPost2010PropOp50
 70
     1
102
RTVSPost2010Prop51ColorIndex
 90
      256
102
RTVSPost2010Prop51ColorRGB
 90
-16777216
102
RTVSPost2010PropOp51
 70
     0
102
RTVSPost2010Prop52
140
1.0
102
RTVSPost2010PropOp52
 70
     0
102
RTVSPost2010Prop53
 90
        2
102
RTVSPost2010PropOp53
 70
     1
102
RTVSPost2010Prop54
  1
strokes_ogs.tif
102
RTVSPost2010PropOp54
 70
     1
102
RTVSPost2010Prop55
280
     0
102
RTVSPost2010PropOp55
 70
     1
102
RTVSPost2010Prop56
140
1.0
102
RTVSPost2010PropOp56
 70
     1
102
RTVSPost2010Prop57
140
1.0
102
RTVSPost2010PropOp57
 70
     1
102
RTVSPropertyOp0
 70
     1
102
RTVSPropertyOp1
 70
     1
102
RTVSPropertyOp2
 70
     1
102
RTVSPropertyOp3
 70
     1
102
RTVSPropertyOp4
 70
     1
102
RTVSPropertyOp5
 70
     1
102
RTVSPropertyOp6
 70
     1
102
RTVSPropertyOp7
 70
     1
102
RTVSPropertyOp8
 70
     1
102
RTVSPropertyOp9
 70
     1
102
RTVSPropertyOp10
 70
     1
102
RTVSPropertyOp11
 70
     1
102
RTVSPropertyOp12
 70
     1
102
RTVSPropertyOp13
 70
     1
102
RTVSPropertyOp14
 70
     1
102
RTVSPropertyOp15
 70
     1
102
RTVSPropertyOp16
 70
     1
102
RTVSPropertyOp17
 70
     1
102
RTVSPropertyOp18
 70
     1
102
RTVSPropertyOp19
 70
     1
102
RTVSPropertyOp20
 70
     1
102
RTVSPropertyOp21
 70
     1
102
RTVSPropertyOp22
 70
     1
102
RTVSPropertyOp23
 70
     1
102
RTVSPropertyOp24
 70
     1
102
RTVSPropertyOp25
 70
     1
102
RTVSPropertyOp26
 70
     1
102
RTVSPropertyOp27
 70
     1
102
RTVSPropertyOp28
 70
     1
102
RTVSPropertyOp29
 70
     1
102
RTVSPropertyOp30
 70
     1
102
RTVSPropertyOp31
 70
     1
102
RTVSPropertyOp32
 70
     1
102
RTVSPropertyOp33
 70
     1
102
RTVSPropertyOp34
 70
     1
102
RTVSPropertyOp35
 70
     1
102
RTVSPropertyOp36
 70
     1
102
RTVSPropertyOp37
 70
     1
102
RTVSPropertyOp38
 70
     1
102
RTVSPropertyOp39
 70
     1
102
RTVSPropertyOp40
 70
     1
102
RTVSPropertyOp41
 70
     1
102
RTVSPropertyOp42
 70
     1
102
RTVSPropertyOp43
 70
     1
102
RTVSPropertyOp44
 70
     1
102
RTVSPropertyOp45
 70
     1
102
RTVSPropertyOp46
 70
     1
102
RTVSPropertyOp47
 70
     1
102
RTVSPropertyOp48
 70
     1
102
RTVSPropertyOp49
 70
     1
102
RTVSPropertyOp50
 70
     1
102
RTVSPropertyOp51
 70
     0
102
RTVSPropertyOp52
 70
     0
102
RTVSPropertyOp53
 70
     1
102
RTVSPropertyOp54
 70
     1
102
RTVSPropertyOp55
 70
     1
102
RTVSPropertyOp56
 70
     1
102
RTVSPropertyOp57
 70
     1
102
RTVSPropertyOp58
 70
     1
102
RTVSPropertyOp59
 70
     1
102
RTVSPropertyOp60
 70
     1
102
RTVSPropertyOp61
 70
     1
102
RTVSPropertyOp62
 70
     1
  0
XRECORD
  5
309D
102
{ACAD_REACTORS
330
309C
102
}
330
309C
100
AcDbXrecord
280
     1
102
RTVSPost2010Prop28
280
     0
102
RTVSPost2010PropOp28
 70
     1
102
RTVSPost2010Prop29
280
     1
102
RTVSPost2010PropOp29
 70
     1
102
RTVSPost2010Prop30
280
     1
102
RTVSPost2010PropOp30
 70
     1
102
RTVSPost2010Prop31
280
     0
102
RTVSPost2010PropOp31
 70
     1
102
RTVSPost2010Prop32
280
     0
102
RTVSPost2010PropOp32
 70
     1
102
RTVSPost2010Prop33
280
     0
102
RTVSPost2010PropOp33
 70
     1
102
RTVSPost2010Prop34
280
     0
102
RTVSPost2010PropOp34
 70
     1
102
RTVSPost2010Prop35
280
     0
102
RTVSPost2010PropOp35
 70
     1
102
RTVSPost2010Prop36
280
     0
102
RTVSPost2010PropOp36
 70
     1
102
RTVSPost2010Prop37
 90
       50
102
RTVSPost2010PropOp37
 70
     1
102
RTVSPost2010Prop38
140
0.0
102
RTVSPost2010PropOp38
 70
     1
102
RTVSPost2010Prop39
140
1.0
102
RTVSPost2010PropOp39
 70
     1
102
RTVSPost2010Prop40
 90
        0
102
RTVSPost2010PropOp40
 70
     1
102
RTVSPost2010Prop41ColorIndex
 90
       18
102
RTVSPost2010Prop41ColorRGB
 90
        0
102
RTVSPost2010PropOp41
 70
     1
102
RTVSPost2010Prop42
 90
       50
102
RTVSPost2010PropOp42
 70
     1
102
RTVSPost2010Prop43
 90
        3
102
RTVSPost2010PropOp43
 70
     1
102
RTVSPost2010Prop44ColorIndex
 90
        5
102
RTVSPost2010Prop44ColorRGB
 90
      255
102
RTVSPost2010PropOp44
 70
     1
102
RTVSPost2010Prop45
280
     0
102
RTVSPost2010PropOp45
 70
     1
102
RTVSPost2010Prop46
 90
       50
102
RTVSPost2010PropOp46
 70
     1
102
RTVSPost2010Prop47
 90
       50
102
RTVSPost2010PropOp47
 70
     1
102
RTVSPost2010Prop48
 90
       50
102
RTVSPost2010PropOp48
 70
     1
102
RTVSPost2010Prop49
280
     0
102
RTVSPost2010PropOp49
 70
     1
102
RTVSPost2010Prop50
 90
       50
102
RTVSPost2010PropOp50
 70
     1
102
RTVSPost2010Prop51ColorIndex
 90
      256
102
RTVSPost2010Prop51ColorRGB
 90
-16777216
102
RTVSPost2010PropOp51
 70
     0
102
RTVSPost2010Prop52
140
1.0
102
RTVSPost2010PropOp52
 70
     0
102
RTVSPost2010Prop53
 90
        2
102
RTVSPost2010PropOp53
 70
     1
102
RTVSPost2010Prop54
  1
strokes_ogs.tif
102
RTVSPost2010PropOp54
 70
     1
102
RTVSPost2010Prop55
280
     0
102
RTVSPost2010PropOp55
 70
     1
102
RTVSPost2010Prop56
140
1.0
102
RTVSPost2010PropOp56
 70
     1
102
RTVSPost2010Prop57
140
1.0
102
RTVSPost2010PropOp57
 70
     1
102
RTVSPropertyOp0
 70
     1
102
RTVSPropertyOp1
 70
     1
102
RTVSPropertyOp2
 70
     1
102
RTVSPropertyOp3
 70
     1
102
RTVSPropertyOp4
 70
     1
102
RTVSPropertyOp5
 70
     1
102
RTVSPropertyOp6
 70
     1
102
RTVSPropertyOp7
 70
     1
102
RTVSPropertyOp8
 70
     1
102
RTVSPropertyOp9
 70
     1
102
RTVSPropertyOp10
 70
     1
102
RTVSPropertyOp11
 70
     1
102
RTVSPropertyOp12
 70
     1
102
RTVSPropertyOp13
 70
     1
102
RTVSPropertyOp14
 70
     1
102
RTVSPropertyOp15
 70
     1
102
RTVSPropertyOp16
 70
     1
102
RTVSPropertyOp17
 70
     1
102
RTVSPropertyOp18
 70
     1
102
RTVSPropertyOp19
 70
     1
102
RTVSPropertyOp20
 70
     1
102
RTVSPropertyOp21
 70
     1
102
RTVSPropertyOp22
 70
     1
102
RTVSPropertyOp23
 70
     1
102
RTVSPropertyOp24
 70
     1
102
RTVSPropertyOp25
 70
     1
102
RTVSPropertyOp26
 70
     1
102
RTVSPropertyOp27
 70
     1
102
RTVSPropertyOp28
 70
     1
102
RTVSPropertyOp29
 70
     1
102
RTVSPropertyOp30
 70
     1
102
RTVSPropertyOp31
 70
     1
102
RTVSPropertyOp32
 70
     1
102
RTVSPropertyOp33
 70
     1
102
RTVSPropertyOp34
 70
     1
102
RTVSPropertyOp35
 70
     1
102
RTVSPropertyOp36
 70
     1
102
RTVSPropertyOp37
 70
     1
102
RTVSPropertyOp38
 70
     1
102
RTVSPropertyOp39
 70
     1
102
RTVSPropertyOp40
 70
     1
102
RTVSPropertyOp41
 70
     1
102
RTVSPropertyOp42
 70
     1
102
RTVSPropertyOp43
 70
     1
102
RTVSPropertyOp44
 70
     1
102
RTVSPropertyOp45
 70
     1
102
RTVSPropertyOp46
 70
     1
102
RTVSPropertyOp47
 70
     1
102
RTVSPropertyOp48
 70
     1
102
RTVSPropertyOp49
 70
     1
102
RTVSPropertyOp50
 70
     1
102
RTVSPropertyOp51
 70
     0
102
RTVSPropertyOp52
 70
     0
102
RTVSPropertyOp53
 70
     1
102
RTVSPropertyOp54
 70
     1
102
RTVSPropertyOp55
 70
     1
102
RTVSPropertyOp56
 70
     1
102
RTVSPropertyOp57
 70
     1
102
RTVSPropertyOp58
 70
     1
102
RTVSPropertyOp59
 70
     1
102
RTVSPropertyOp60
 70
     1
102
RTVSPropertyOp61
 70
     1
102
RTVSPropertyOp62
 70
     1
  0
XRECORD
  5
30A1
102
{ACAD_REACTORS
330
30A0
102
}
330
30A0
100
AcDbXrecord
280
     1
102
RTVSPost2010Prop28
280
     0
102
RTVSPost2010PropOp28
 70
     1
102
RTVSPost2010Prop29
280
     1
102
RTVSPost2010PropOp29
 70
     1
102
RTVSPost2010Prop30
280
     1
102
RTVSPost2010PropOp30
 70
     1
102
RTVSPost2010Prop31
280
     0
102
RTVSPost2010PropOp31
 70
     1
102
RTVSPost2010Prop32
280
     0
102
RTVSPost2010PropOp32
 70
     1
102
RTVSPost2010Prop33
280
     0
102
RTVSPost2010PropOp33
 70
     1
102
RTVSPost2010Prop34
280
     0
102
RTVSPost2010PropOp34
 70
     1
102
RTVSPost2010Prop35
280
     0
102
RTVSPost2010PropOp35
 70
     1
102
RTVSPost2010Prop36
280
     0
102
RTVSPost2010PropOp36
 70
     1
102
RTVSPost2010Prop37
 90
       50
102
RTVSPost2010PropOp37
 70
     1
102
RTVSPost2010Prop38
140
0.0
102
RTVSPost2010PropOp38
 70
     1
102
RTVSPost2010Prop39
140
1.0
102
RTVSPost2010PropOp39
 70
     1
102
RTVSPost2010Prop40
 90
        0
102
RTVSPost2010PropOp40
 70
     1
102
RTVSPost2010Prop41ColorIndex
 90
       18
102
RTVSPost2010Prop41ColorRGB
 90
        0
102
RTVSPost2010PropOp41
 70
     1
102
RTVSPost2010Prop42
 90
       50
102
RTVSPost2010PropOp42
 70
     1
102
RTVSPost2010Prop43
 90
        3
102
RTVSPost2010PropOp43
 70
     1
102
RTVSPost2010Prop44ColorIndex
 90
        5
102
RTVSPost2010Prop44ColorRGB
 90
      255
102
RTVSPost2010PropOp44
 70
     1
102
RTVSPost2010Prop45
280
     0
102
RTVSPost2010PropOp45
 70
     1
102
RTVSPost2010Prop46
 90
       50
102
RTVSPost2010PropOp46
 70
     1
102
RTVSPost2010Prop47
 90
       50
102
RTVSPost2010PropOp47
 70
     1
102
RTVSPost2010Prop48
 90
       50
102
RTVSPost2010PropOp48
 70
     1
102
RTVSPost2010Prop49
280
     0
102
RTVSPost2010PropOp49
 70
     1
102
RTVSPost2010Prop50
 90
       50
102
RTVSPost2010PropOp50
 70
     1
102
RTVSPost2010Prop51ColorIndex
 90
      256
102
RTVSPost2010Prop51ColorRGB
 90
-16777216
102
RTVSPost2010PropOp51
 70
     0
102
RTVSPost2010Prop52
140
1.0
102
RTVSPost2010PropOp52
 70
     0
102
RTVSPost2010Prop53
 90
        2
102
RTVSPost2010PropOp53
 70
     1
102
RTVSPost2010Prop54
  1
strokes_ogs.tif
102
RTVSPost2010PropOp54
 70
     1
102
RTVSPost2010Prop55
280
     0
102
RTVSPost2010PropOp55
 70
     1
102
RTVSPost2010Prop56
140
1.0
102
RTVSPost2010PropOp56
 70
     1
102
RTVSPost2010Prop57
140
1.0
102
RTVSPost2010PropOp57
 70
     1
102
RTVSPropertyOp0
 70
     1
102
RTVSPropertyOp1
 70
     1
102
RTVSPropertyOp2
 70
     1
102
RTVSPropertyOp3
 70
     1
102
RTVSPropertyOp4
 70
     1
102
RTVSPropertyOp5
 70
     1
102
RTVSPropertyOp6
 70
     1
102
RTVSPropertyOp7
 70
     1
102
RTVSPropertyOp8
 70
     1
102
RTVSPropertyOp9
 70
     1
102
RTVSPropertyOp10
 70
     1
102
RTVSPropertyOp11
 70
     1
102
RTVSPropertyOp12
 70
     1
102
RTVSPropertyOp13
 70
     1
102
RTVSPropertyOp14
 70
     1
102
RTVSPropertyOp15
 70
     1
102
RTVSPropertyOp16
 70
     1
102
RTVSPropertyOp17
 70
     1
102
RTVSPropertyOp18
 70
     1
102
RTVSPropertyOp19
 70
     1
102
RTVSPropertyOp20
 70
     1
102
RTVSPropertyOp21
 70
     1
102
RTVSPropertyOp22
 70
     1
102
RTVSPropertyOp23
 70
     1
102
RTVSPropertyOp24
 70
     1
102
RTVSPropertyOp25
 70
     1
102
RTVSPropertyOp26
 70
     1
102
RTVSPropertyOp27
 70
     1
102
RTVSPropertyOp28
 70
     1
102
RTVSPropertyOp29
 70
     1
102
RTVSPropertyOp30
 70
     1
102
RTVSPropertyOp31
 70
     1
102
RTVSPropertyOp32
 70
     1
102
RTVSPropertyOp33
 70
     1
102
RTVSPropertyOp34
 70
     1
102
RTVSPropertyOp35
 70
     1
102
RTVSPropertyOp36
 70
     1
102
RTVSPropertyOp37
 70
     1
102
RTVSPropertyOp38
 70
     1
102
RTVSPropertyOp39
 70
     1
102
RTVSPropertyOp40
 70
     1
102
RTVSPropertyOp41
 70
     1
102
RTVSPropertyOp42
 70
     1
102
RTVSPropertyOp43
 70
     1
102
RTVSPropertyOp44
 70
     1
102
RTVSPropertyOp45
 70
     1
102
RTVSPropertyOp46
 70
     1
102
RTVSPropertyOp47
 70
     1
102
RTVSPropertyOp48
 70
     1
102
RTVSPropertyOp49
 70
     1
102
RTVSPropertyOp50
 70
     1
102
RTVSPropertyOp51
 70
     0
102
RTVSPropertyOp52
 70
     0
102
RTVSPropertyOp53
 70
     1
102
RTVSPropertyOp54
 70
     1
102
RTVSPropertyOp55
 70
     1
102
RTVSPropertyOp56
 70
     1
102
RTVSPropertyOp57
 70
     1
102
RTVSPropertyOp58
 70
     1
102
RTVSPropertyOp59
 70
     1
102
RTVSPropertyOp60
 70
     1
102
RTVSPropertyOp61
 70
     1
102
RTVSPropertyOp62
 70
     1
  0
XRECORD
  5
30BB
102
{ACAD_REACTORS
330
30BA
102
}
330
30BA
100
AcDbXrecord
280
     1
102
RTVSPost2010Prop28
280
     0
102
RTVSPost2010PropOp28
 70
     1
102
RTVSPost2010Prop29
280
     1
102
RTVSPost2010PropOp29
 70
     1
102
RTVSPost2010Prop30
280
     1
102
RTVSPost2010PropOp30
 70
     1
102
RTVSPost2010Prop31
280
     0
102
RTVSPost2010PropOp31
 70
     1
102
RTVSPost2010Prop32
280
     0
102
RTVSPost2010PropOp32
 70
     1
102
RTVSPost2010Prop33
280
     0
102
RTVSPost2010PropOp33
 70
     1
102
RTVSPost2010Prop34
280
     0
102
RTVSPost2010PropOp34
 70
     1
102
RTVSPost2010Prop35
280
     0
102
RTVSPost2010PropOp35
 70
     1
102
RTVSPost2010Prop36
280
     0
102
RTVSPost2010PropOp36
 70
     1
102
RTVSPost2010Prop37
 90
       50
102
RTVSPost2010PropOp37
 70
     0
102
RTVSPost2010Prop38
140
0.0
102
RTVSPost2010PropOp38
 70
     0
102
RTVSPost2010Prop39
140
1.0
102
RTVSPost2010PropOp39
 70
     0
102
RTVSPost2010Prop40
 90
        0
102
RTVSPost2010PropOp40
 70
     0
102
RTVSPost2010Prop41ColorIndex
 90
       18
102
RTVSPost2010Prop41ColorRGB
 90
        0
102
RTVSPost2010PropOp41
 70
     0
102
RTVSPost2010Prop42
 90
       50
102
RTVSPost2010PropOp42
 70
     0
102
RTVSPost2010Prop43
 90
        3
102
RTVSPost2010PropOp43
 70
     0
102
RTVSPost2010Prop44ColorIndex
 90
        5
102
RTVSPost2010Prop44ColorRGB
 90
      255
102
RTVSPost2010PropOp44
 70
     0
102
RTVSPost2010Prop45
280
     0
102
RTVSPost2010PropOp45
 70
     1
102
RTVSPost2010Prop46
 90
       50
102
RTVSPost2010PropOp46
 70
     0
102
RTVSPost2010Prop47
 90
       50
102
RTVSPost2010PropOp47
 70
     0
102
RTVSPost2010Prop48
 90
       50
102
RTVSPost2010PropOp48
 70
     0
102
RTVSPost2010Prop49
280
     0
102
RTVSPost2010PropOp49
 70
     1
102
RTVSPost2010Prop50
 90
       50
102
RTVSPost2010PropOp50
 70
     0
102
RTVSPost2010Prop51ColorIndex
 90
      256
102
RTVSPost2010Prop51ColorRGB
 90
-16777216
102
RTVSPost2010PropOp51
 70
     0
102
RTVSPost2010Prop52
140
1.0
102
RTVSPost2010PropOp52
 70
     0
102
RTVSPost2010Prop53
 90
        2
102
RTVSPost2010PropOp53
 70
     0
102
RTVSPost2010Prop54
  1
strokes_ogs.tif
102
RTVSPost2010PropOp54
 70
     0
102
RTVSPost2010Prop55
280
     0
102
RTVSPost2010PropOp55
 70
     1
102
RTVSPost2010Prop56
140
1.0
102
RTVSPost2010PropOp56
 70
     0
102
RTVSPost2010Prop57
140
1.0
102
RTVSPost2010PropOp57
 70
     0
102
RTVSPropertyOp0
 70
     0
102
RTVSPropertyOp1
 70
     0
102
RTVSPropertyOp2
 70
     0
102
RTVSPropertyOp3
 70
     0
102
RTVSPropertyOp4
 70
     0
102
RTVSPropertyOp5
 70
     0
102
RTVSPropertyOp6
 70
     0
102
RTVSPropertyOp7
 70
     0
102
RTVSPropertyOp8
 70
     0
102
RTVSPropertyOp9
 70
     0
102
RTVSPropertyOp10
 70
     0
102
RTVSPropertyOp11
 70
     0
102
RTVSPropertyOp12
 70
     0
102
RTVSPropertyOp13
 70
     0
102
RTVSPropertyOp14
 70
     2
102
RTVSPropertyOp15
 70
     0
102
RTVSPropertyOp16
 70
     0
102
RTVSPropertyOp17
 70
     0
102
RTVSPropertyOp18
 70
     0
102
RTVSPropertyOp19
 70
     0
102
RTVSPropertyOp20
 70
     0
102
RTVSPropertyOp21
 70
     0
102
RTVSPropertyOp22
 70
     0
102
RTVSPropertyOp23
 70
     0
102
RTVSPropertyOp24
 70
     0
102
RTVSPropertyOp25
 70
     0
102
RTVSPropertyOp26
 70
     0
102
RTVSPropertyOp27
 70
     0
102
RTVSPropertyOp28
 70
     1
102
RTVSPropertyOp29
 70
     1
102
RTVSPropertyOp30
 70
     1
102
RTVSPropertyOp31
 70
     1
102
RTVSPropertyOp32
 70
     1
102
RTVSPropertyOp33
 70
     1
102
RTVSPropertyOp34
 70
     1
102
RTVSPropertyOp35
 70
     1
102
RTVSPropertyOp36
 70
     1
102
RTVSPropertyOp37
 70
     0
102
RTVSPropertyOp38
 70
     0
102
RTVSPropertyOp39
 70
     0
102
RTVSPropertyOp40
 70
     0
102
RTVSPropertyOp41
 70
     0
102
RTVSPropertyOp42
 70
     0
102
RTVSPropertyOp43
 70
     0
102
RTVSPropertyOp44
 70
     0
102
RTVSPropertyOp45
 70
     1
102
RTVSPropertyOp46
 70
     0
102
RTVSPropertyOp47
 70
     0
102
RTVSPropertyOp48
 70
     0
102
RTVSPropertyOp49
 70
     1
102
RTVSPropertyOp50
 70
     0
102
RTVSPropertyOp51
 70
     0
102
RTVSPropertyOp52
 70
     0
102
RTVSPropertyOp53
 70
     0
102
RTVSPropertyOp54
 70
     0
102
RTVSPropertyOp55
 70
     1
102
RTVSPropertyOp56
 70
     0
102
RTVSPropertyOp57
 70
     0
102
RTVSPropertyOp58
 70
     0
102
RTVSPropertyOp59
 70
     0
102
RTVSPropertyOp60
 70
     0
102
RTVSPropertyOp61
 70
     0
102
RTVSPropertyOp62
 70
     0
  0
XRECORD
  5
30A9
102
{ACAD_REACTORS
330
30A8
102
}
330
30A8
100
AcDbXrecord
280
     1
102
RTVSPost2010Prop28
280
     0
102
RTVSPost2010PropOp28
 70
     1
102
RTVSPost2010Prop29
280
     1
102
RTVSPost2010PropOp29
 70
     1
102
RTVSPost2010Prop30
280
     1
102
RTVSPost2010PropOp30
 70
     1
102
RTVSPost2010Prop31
280
     0
102
RTVSPost2010PropOp31
 70
     1
102
RTVSPost2010Prop32
280
     0
102
RTVSPost2010PropOp32
 70
     1
102
RTVSPost2010Prop33
280
     0
102
RTVSPost2010PropOp33
 70
     1
102
RTVSPost2010Prop34
280
     0
102
RTVSPost2010PropOp34
 70
     1
102
RTVSPost2010Prop35
280
     0
102
RTVSPost2010PropOp35
 70
     1
102
RTVSPost2010Prop36
280
     0
102
RTVSPost2010PropOp36
 70
     1
102
RTVSPost2010Prop37
 90
       50
102
RTVSPost2010PropOp37
 70
     1
102
RTVSPost2010Prop38
140
0.0
102
RTVSPost2010PropOp38
 70
     1
102
RTVSPost2010Prop39
140
1.0
102
RTVSPost2010PropOp39
 70
     1
102
RTVSPost2010Prop40
 90
        0
102
RTVSPost2010PropOp40
 70
     1
102
RTVSPost2010Prop41ColorIndex
 90
       18
102
RTVSPost2010Prop41ColorRGB
 90
        0
102
RTVSPost2010PropOp41
 70
     1
102
RTVSPost2010Prop42
 90
       50
102
RTVSPost2010PropOp42
 70
     1
102
RTVSPost2010Prop43
 90
        3
102
RTVSPost2010PropOp43
 70
     1
102
RTVSPost2010Prop44ColorIndex
 90
        5
102
RTVSPost2010Prop44ColorRGB
 90
      255
102
RTVSPost2010PropOp44
 70
     1
102
RTVSPost2010Prop45
280
     0
102
RTVSPost2010PropOp45
 70
     1
102
RTVSPost2010Prop46
 90
       50
102
RTVSPost2010PropOp46
 70
     1
102
RTVSPost2010Prop47
 90
       50
102
RTVSPost2010PropOp47
 70
     1
102
RTVSPost2010Prop48
 90
       50
102
RTVSPost2010PropOp48
 70
     1
102
RTVSPost2010Prop49
280
     0
102
RTVSPost2010PropOp49
 70
     1
102
RTVSPost2010Prop50
 90
       50
102
RTVSPost2010PropOp50
 70
     1
102
RTVSPost2010Prop51ColorIndex
 90
      256
102
RTVSPost2010Prop51ColorRGB
 90
-16777216
102
RTVSPost2010PropOp51
 70
     0
102
RTVSPost2010Prop52
140
1.0
102
RTVSPost2010PropOp52
 70
     0
102
RTVSPost2010Prop53
 90
        2
102
RTVSPost2010PropOp53
 70
     1
102
RTVSPost2010Prop54
  1
strokes_ogs.tif
102
RTVSPost2010PropOp54
 70
     1
102
RTVSPost2010Prop55
280
     0
102
RTVSPost2010PropOp55
 70
     1
102
RTVSPost2010Prop56
140
1.0
102
RTVSPost2010PropOp56
 70
     1
102
RTVSPost2010Prop57
140
1.0
102
RTVSPost2010PropOp57
 70
     1
102
RTVSPropertyOp0
 70
     1
102
RTVSPropertyOp1
 70
     1
102
RTVSPropertyOp2
 70
     1
102
RTVSPropertyOp3
 70
     1
102
RTVSPropertyOp4
 70
     1
102
RTVSPropertyOp5
 70
     1
102
RTVSPropertyOp6
 70
     1
102
RTVSPropertyOp7
 70
     1
102
RTVSPropertyOp8
 70
     1
102
RTVSPropertyOp9
 70
     1
102
RTVSPropertyOp10
 70
     1
102
RTVSPropertyOp11
 70
     1
102
RTVSPropertyOp12
 70
     1
102
RTVSPropertyOp13
 70
     1
102
RTVSPropertyOp14
 70
     1
102
RTVSPropertyOp15
 70
     1
102
RTVSPropertyOp16
 70
     1
102
RTVSPropertyOp17
 70
     1
102
RTVSPropertyOp18
 70
     1
102
RTVSPropertyOp19
 70
     1
102
RTVSPropertyOp20
 70
     1
102
RTVSPropertyOp21
 70
     1
102
RTVSPropertyOp22
 70
     1
102
RTVSPropertyOp23
 70
     1
102
RTVSPropertyOp24
 70
     1
102
RTVSPropertyOp25
 70
     1
102
RTVSPropertyOp26
 70
     1
102
RTVSPropertyOp27
 70
     1
102
RTVSPropertyOp28
 70
     1
102
RTVSPropertyOp29
 70
     1
102
RTVSPropertyOp30
 70
     1
102
RTVSPropertyOp31
 70
     1
102
RTVSPropertyOp32
 70
     1
102
RTVSPropertyOp33
 70
     1
102
RTVSPropertyOp34
 70
     1
102
RTVSPropertyOp35
 70
     1
102
RTVSPropertyOp36
 70
     1
102
RTVSPropertyOp37
 70
     1
102
RTVSPropertyOp38
 70
     1
102
RTVSPropertyOp39
 70
     1
102
RTVSPropertyOp40
 70
     1
102
RTVSPropertyOp41
 70
     1
102
RTVSPropertyOp42
 70
     1
102
RTVSPropertyOp43
 70
     1
102
RTVSPropertyOp44
 70
     1
102
RTVSPropertyOp45
 70
     1
102
RTVSPropertyOp46
 70
     1
102
RTVSPropertyOp47
 70
     1
102
RTVSPropertyOp48
 70
     1
102
RTVSPropertyOp49
 70
     1
102
RTVSPropertyOp50
 70
     1
102
RTVSPropertyOp51
 70
     0
102
RTVSPropertyOp52
 70
     0
102
RTVSPropertyOp53
 70
     1
102
RTVSPropertyOp54
 70
     1
102
RTVSPropertyOp55
 70
     1
102
RTVSPropertyOp56
 70
     1
102
RTVSPropertyOp57
 70
     1
102
RTVSPropertyOp58
 70
     1
102
RTVSPropertyOp59
 70
     1
102
RTVSPropertyOp60
 70
     1
102
RTVSPropertyOp61
 70
     1
102
RTVSPropertyOp62
 70
     1
  0
XRECORD
  5
308D
102
{ACAD_REACTORS
330
308C
102
}
330
308C
100
AcDbXrecord
280
     1
102
RTVSPost2010Prop28
280
     0
102
RTVSPost2010PropOp28
 70
     1
102
RTVSPost2010Prop29
280
     1
102
RTVSPost2010PropOp29
 70
     1
102
RTVSPost2010Prop30
280
     1
102
RTVSPost2010PropOp30
 70
     1
102
RTVSPost2010Prop31
280
     0
102
RTVSPost2010PropOp31
 70
     1
102
RTVSPost2010Prop32
280
     0
102
RTVSPost2010PropOp32
 70
     1
102
RTVSPost2010Prop33
280
     0
102
RTVSPost2010PropOp33
 70
     1
102
RTVSPost2010Prop34
280
     0
102
RTVSPost2010PropOp34
 70
     1
102
RTVSPost2010Prop35
280
     0
102
RTVSPost2010PropOp35
 70
     1
102
RTVSPost2010Prop36
280
     0
102
RTVSPost2010PropOp36
 70
     1
102
RTVSPost2010Prop37
 90
       50
102
RTVSPost2010PropOp37
 70
     1
102
RTVSPost2010Prop38
140
0.0
102
RTVSPost2010PropOp38
 70
     1
102
RTVSPost2010Prop39
140
1.0
102
RTVSPost2010PropOp39
 70
     1
102
RTVSPost2010Prop40
 90
        0
102
RTVSPost2010PropOp40
 70
     1
102
RTVSPost2010Prop41ColorIndex
 90
       18
102
RTVSPost2010Prop41ColorRGB
 90
        0
102
RTVSPost2010PropOp41
 70
     1
102
RTVSPost2010Prop42
 90
       50
102
RTVSPost2010PropOp42
 70
     1
102
RTVSPost2010Prop43
 90
        3
102
RTVSPost2010PropOp43
 70
     1
102
RTVSPost2010Prop44ColorIndex
 90
        5
102
RTVSPost2010Prop44ColorRGB
 90
      255
102
RTVSPost2010PropOp44
 70
     1
102
RTVSPost2010Prop45
280
     0
102
RTVSPost2010PropOp45
 70
     1
102
RTVSPost2010Prop46
 90
       50
102
RTVSPost2010PropOp46
 70
     1
102
RTVSPost2010Prop47
 90
       50
102
RTVSPost2010PropOp47
 70
     1
102
RTVSPost2010Prop48
 90
       50
102
RTVSPost2010PropOp48
 70
     1
102
RTVSPost2010Prop49
280
     0
102
RTVSPost2010PropOp49
 70
     1
102
RTVSPost2010Prop50
 90
       50
102
RTVSPost2010PropOp50
 70
     1
102
RTVSPost2010Prop51ColorIndex
 90
      256
102
RTVSPost2010Prop51ColorRGB
 90
-16777216
102
RTVSPost2010PropOp51
 70
     0
102
RTVSPost2010Prop52
140
1.0
102
RTVSPost2010PropOp52
 70
     0
102
RTVSPost2010Prop53
 90
        2
102
RTVSPost2010PropOp53
 70
     1
102
RTVSPost2010Prop54
  1
strokes_ogs.tif
102
RTVSPost2010PropOp54
 70
     1
102
RTVSPost2010Prop55
280
     0
102
RTVSPost2010PropOp55
 70
     1
102
RTVSPost2010Prop56
140
1.0
102
RTVSPost2010PropOp56
 70
     1
102
RTVSPost2010Prop57
140
1.0
102
RTVSPost2010PropOp57
 70
     1
102
RTVSPropertyOp0
 70
     1
102
RTVSPropertyOp1
 70
     1
102
RTVSPropertyOp2
 70
     1
102
RTVSPropertyOp3
 70
     1
102
RTVSPropertyOp4
 70
     1
102
RTVSPropertyOp5
 70
     1
102
RTVSPropertyOp6
 70
     1
102
RTVSPropertyOp7
 70
     1
102
RTVSPropertyOp8
 70
     1
102
RTVSPropertyOp9
 70
     1
102
RTVSPropertyOp10
 70
     1
102
RTVSPropertyOp11
 70
     1
102
RTVSPropertyOp12
 70
     1
102
RTVSPropertyOp13
 70
     1
102
RTVSPropertyOp14
 70
     1
102
RTVSPropertyOp15
 70
     1
102
RTVSPropertyOp16
 70
     1
102
RTVSPropertyOp17
 70
     1
102
RTVSPropertyOp18
 70
     1
102
RTVSPropertyOp19
 70
     1
102
RTVSPropertyOp20
 70
     1
102
RTVSPropertyOp21
 70
     1
102
RTVSPropertyOp22
 70
     1
102
RTVSPropertyOp23
 70
     1
102
RTVSPropertyOp24
 70
     1
102
RTVSPropertyOp25
 70
     1
102
RTVSPropertyOp26
 70
     1
102
RTVSPropertyOp27
 70
     1
102
RTVSPropertyOp28
 70
     1
102
RTVSPropertyOp29
 70
     1
102
RTVSPropertyOp30
 70
     1
102
RTVSPropertyOp31
 70
     1
102
RTVSPropertyOp32
 70
     1
102
RTVSPropertyOp33
 70
     1
102
RTVSPropertyOp34
 70
     1
102
RTVSPropertyOp35
 70
     1
102
RTVSPropertyOp36
 70
     1
102
RTVSPropertyOp37
 70
     1
102
RTVSPropertyOp38
 70
     1
102
RTVSPropertyOp39
 70
     1
102
RTVSPropertyOp40
 70
     1
102
RTVSPropertyOp41
 70
     1
102
RTVSPropertyOp42
 70
     1
102
RTVSPropertyOp43
 70
     1
102
RTVSPropertyOp44
 70
     1
102
RTVSPropertyOp45
 70
     1
102
RTVSPropertyOp46
 70
     1
102
RTVSPropertyOp47
 70
     1
102
RTVSPropertyOp48
 70
     1
102
RTVSPropertyOp49
 70
     1
102
RTVSPropertyOp50
 70
     1
102
RTVSPropertyOp51
 70
     0
102
RTVSPropertyOp52
 70
     0
102
RTVSPropertyOp53
 70
     1
102
RTVSPropertyOp54
 70
     1
102
RTVSPropertyOp55
 70
     1
102
RTVSPropertyOp56
 70
     1
102
RTVSPropertyOp57
 70
     1
102
RTVSPropertyOp58
 70
     1
102
RTVSPropertyOp59
 70
     1
102
RTVSPropertyOp60
 70
     1
102
RTVSPropertyOp61
 70
     1
102
RTVSPropertyOp62
 70
     1
  0
XRECORD
  5
308F
102
{ACAD_REACTORS
330
308E
102
}
330
308E
100
AcDbXrecord
280
     1
102
RTVSPost2010Prop28
280
     0
102
RTVSPost2010PropOp28
 70
     1
102
RTVSPost2010Prop29
280
     1
102
RTVSPost2010PropOp29
 70
     1
102
RTVSPost2010Prop30
280
     1
102
RTVSPost2010PropOp30
 70
     1
102
RTVSPost2010Prop31
280
     0
102
RTVSPost2010PropOp31
 70
     1
102
RTVSPost2010Prop32
280
     0
102
RTVSPost2010PropOp32
 70
     1
102
RTVSPost2010Prop33
280
     0
102
RTVSPost2010PropOp33
 70
     1
102
RTVSPost2010Prop34
280
     0
102
RTVSPost2010PropOp34
 70
     1
102
RTVSPost2010Prop35
280
     0
102
RTVSPost2010PropOp35
 70
     1
102
RTVSPost2010Prop36
280
     0
102
RTVSPost2010PropOp36
 70
     1
102
RTVSPost2010Prop37
 90
       50
102
RTVSPost2010PropOp37
 70
     1
102
RTVSPost2010Prop38
140
0.0
102
RTVSPost2010PropOp38
 70
     1
102
RTVSPost2010Prop39
140
1.0
102
RTVSPost2010PropOp39
 70
     1
102
RTVSPost2010Prop40
 90
        0
102
RTVSPost2010PropOp40
 70
     1
102
RTVSPost2010Prop41ColorIndex
 90
       18
102
RTVSPost2010Prop41ColorRGB
 90
        0
102
RTVSPost2010PropOp41
 70
     1
102
RTVSPost2010Prop42
 90
       50
102
RTVSPost2010PropOp42
 70
     1
102
RTVSPost2010Prop43
 90
        3
102
RTVSPost2010PropOp43
 70
     1
102
RTVSPost2010Prop44ColorIndex
 90
        5
102
RTVSPost2010Prop44ColorRGB
 90
      255
102
RTVSPost2010PropOp44
 70
     1
102
RTVSPost2010Prop45
280
     0
102
RTVSPost2010PropOp45
 70
     1
102
RTVSPost2010Prop46
 90
       50
102
RTVSPost2010PropOp46
 70
     1
102
RTVSPost2010Prop47
 90
       50
102
RTVSPost2010PropOp47
 70
     1
102
RTVSPost2010Prop48
 90
       50
102
RTVSPost2010PropOp48
 70
     1
102
RTVSPost2010Prop49
280
     0
102
RTVSPost2010PropOp49
 70
     1
102
RTVSPost2010Prop50
 90
       50
102
RTVSPost2010PropOp50
 70
     1
102
RTVSPost2010Prop51ColorIndex
 90
      256
102
RTVSPost2010Prop51ColorRGB
 90
-16777216
102
RTVSPost2010PropOp51
 70
     0
102
RTVSPost2010Prop52
140
1.0
102
RTVSPost2010PropOp52
 70
     0
102
RTVSPost2010Prop53
 90
        2
102
RTVSPost2010PropOp53
 70
     1
102
RTVSPost2010Prop54
  1
strokes_ogs.tif
102
RTVSPost2010PropOp54
 70
     1
102
RTVSPost2010Prop55
280
     0
102
RTVSPost2010PropOp55
 70
     1
102
RTVSPost2010Prop56
140
1.0
102
RTVSPost2010PropOp56
 70
     1
102
RTVSPost2010Prop57
140
1.0
102
RTVSPost2010PropOp57
 70
     1
102
RTVSPropertyOp0
 70
     1
102
RTVSPropertyOp1
 70
     1
102
RTVSPropertyOp2
 70
     1
102
RTVSPropertyOp3
 70
     1
102
RTVSPropertyOp4
 70
     1
102
RTVSPropertyOp5
 70
     1
102
RTVSPropertyOp6
 70
     1
102
RTVSPropertyOp7
 70
     1
102
RTVSPropertyOp8
 70
     1
102
RTVSPropertyOp9
 70
     1
102
RTVSPropertyOp10
 70
     1
102
RTVSPropertyOp11
 70
     1
102
RTVSPropertyOp12
 70
     1
102
RTVSPropertyOp13
 70
     1
102
RTVSPropertyOp14
 70
     1
102
RTVSPropertyOp15
 70
     1
102
RTVSPropertyOp16
 70
     1
102
RTVSPropertyOp17
 70
     1
102
RTVSPropertyOp18
 70
     1
102
RTVSPropertyOp19
 70
     1
102
RTVSPropertyOp20
 70
     1
102
RTVSPropertyOp21
 70
     1
102
RTVSPropertyOp22
 70
     1
102
RTVSPropertyOp23
 70
     1
102
RTVSPropertyOp24
 70
     1
102
RTVSPropertyOp25
 70
     1
102
RTVSPropertyOp26
 70
     1
102
RTVSPropertyOp27
 70
     1
102
RTVSPropertyOp28
 70
     1
102
RTVSPropertyOp29
 70
     1
102
RTVSPropertyOp30
 70
     1
102
RTVSPropertyOp31
 70
     1
102
RTVSPropertyOp32
 70
     1
102
RTVSPropertyOp33
 70
     1
102
RTVSPropertyOp34
 70
     1
102
RTVSPropertyOp35
 70
     1
102
RTVSPropertyOp36
 70
     1
102
RTVSPropertyOp37
 70
     1
102
RTVSPropertyOp38
 70
     1
102
RTVSPropertyOp39
 70
     1
102
RTVSPropertyOp40
 70
     1
102
RTVSPropertyOp41
 70
     1
102
RTVSPropertyOp42
 70
     1
102
RTVSPropertyOp43
 70
     1
102
RTVSPropertyOp44
 70
     1
102
RTVSPropertyOp45
 70
     1
102
RTVSPropertyOp46
 70
     1
102
RTVSPropertyOp47
 70
     1
102
RTVSPropertyOp48
 70
     1
102
RTVSPropertyOp49
 70
     1
102
RTVSPropertyOp50
 70
     1
102
RTVSPropertyOp51
 70
     0
102
RTVSPropertyOp52
 70
     0
102
RTVSPropertyOp53
 70
     1
102
RTVSPropertyOp54
 70
     1
102
RTVSPropertyOp55
 70
     1
102
RTVSPropertyOp56
 70
     1
102
RTVSPropertyOp57
 70
     1
102
RTVSPropertyOp58
 70
     1
102
RTVSPropertyOp59
 70
     1
102
RTVSPropertyOp60
 70
     1
102
RTVSPropertyOp61
 70
     1
102
RTVSPropertyOp62
 70
     1
  0
XRECORD
  5
3091
102
{ACAD_REACTORS
330
3090
102
}
330
3090
100
AcDbXrecord
280
     1
102
RTVSPost2010Prop28
280
     0
102
RTVSPost2010PropOp28
 70
     1
102
RTVSPost2010Prop29
280
     1
102
RTVSPost2010PropOp29
 70
     1
102
RTVSPost2010Prop30
280
     1
102
RTVSPost2010PropOp30
 70
     1
102
RTVSPost2010Prop31
280
     0
102
RTVSPost2010PropOp31
 70
     1
102
RTVSPost2010Prop32
280
     0
102
RTVSPost2010PropOp32
 70
     1
102
RTVSPost2010Prop33
280
     0
102
RTVSPost2010PropOp33
 70
     1
102
RTVSPost2010Prop34
280
     0
102
RTVSPost2010PropOp34
 70
     1
102
RTVSPost2010Prop35
280
     0
102
RTVSPost2010PropOp35
 70
     1
102
RTVSPost2010Prop36
280
     0
102
RTVSPost2010PropOp36
 70
     1
102
RTVSPost2010Prop37
 90
       50
102
RTVSPost2010PropOp37
 70
     1
102
RTVSPost2010Prop38
140
0.0
102
RTVSPost2010PropOp38
 70
     1
102
RTVSPost2010Prop39
140
1.0
102
RTVSPost2010PropOp39
 70
     1
102
RTVSPost2010Prop40
 90
        0
102
RTVSPost2010PropOp40
 70
     1
102
RTVSPost2010Prop41ColorIndex
 90
       18
102
RTVSPost2010Prop41ColorRGB
 90
        0
102
RTVSPost2010PropOp41
 70
     1
102
RTVSPost2010Prop42
 90
       50
102
RTVSPost2010PropOp42
 70
     1
102
RTVSPost2010Prop43
 90
        3
102
RTVSPost2010PropOp43
 70
     1
102
RTVSPost2010Prop44ColorIndex
 90
        5
102
RTVSPost2010Prop44ColorRGB
 90
      255
102
RTVSPost2010PropOp44
 70
     1
102
RTVSPost2010Prop45
280
     0
102
RTVSPost2010PropOp45
 70
     1
102
RTVSPost2010Prop46
 90
       50
102
RTVSPost2010PropOp46
 70
     1
102
RTVSPost2010Prop47
 90
       50
102
RTVSPost2010PropOp47
 70
     1
102
RTVSPost2010Prop48
 90
       50
102
RTVSPost2010PropOp48
 70
     1
102
RTVSPost2010Prop49
280
     0
102
RTVSPost2010PropOp49
 70
     1
102
RTVSPost2010Prop50
 90
       50
102
RTVSPost2010PropOp50
 70
     1
102
RTVSPost2010Prop51ColorIndex
 90
      256
102
RTVSPost2010Prop51ColorRGB
 90
-16777216
102
RTVSPost2010PropOp51
 70
     0
102
RTVSPost2010Prop52
140
1.0
102
RTVSPost2010PropOp52
 70
     0
102
RTVSPost2010Prop53
 90
        2
102
RTVSPost2010PropOp53
 70
     1
102
RTVSPost2010Prop54
  1
strokes_ogs.tif
102
RTVSPost2010PropOp54
 70
     1
102
RTVSPost2010Prop55
280
     0
102
RTVSPost2010PropOp55
 70
     1
102
RTVSPost2010Prop56
140
1.0
102
RTVSPost2010PropOp56
 70
     1
102
RTVSPost2010Prop57
140
1.0
102
RTVSPost2010PropOp57
 70
     1
102
RTVSPropertyOp0
 70
     1
102
RTVSPropertyOp1
 70
     1
102
RTVSPropertyOp2
 70
     1
102
RTVSPropertyOp3
 70
     1
102
RTVSPropertyOp4
 70
     1
102
RTVSPropertyOp5
 70
     1
102
RTVSPropertyOp6
 70
     1
102
RTVSPropertyOp7
 70
     1
102
RTVSPropertyOp8
 70
     1
102
RTVSPropertyOp9
 70
     1
102
RTVSPropertyOp10
 70
     1
102
RTVSPropertyOp11
 70
     1
102
RTVSPropertyOp12
 70
     1
102
RTVSPropertyOp13
 70
     1
102
RTVSPropertyOp14
 70
     1
102
RTVSPropertyOp15
 70
     1
102
RTVSPropertyOp16
 70
     1
102
RTVSPropertyOp17
 70
     1
102
RTVSPropertyOp18
 70
     1
102
RTVSPropertyOp19
 70
     1
102
RTVSPropertyOp20
 70
     1
102
RTVSPropertyOp21
 70
     1
102
RTVSPropertyOp22
 70
     1
102
RTVSPropertyOp23
 70
     1
102
RTVSPropertyOp24
 70
     1
102
RTVSPropertyOp25
 70
     1
102
RTVSPropertyOp26
 70
     1
102
RTVSPropertyOp27
 70
     1
102
RTVSPropertyOp28
 70
     1
102
RTVSPropertyOp29
 70
     1
102
RTVSPropertyOp30
 70
     1
102
RTVSPropertyOp31
 70
     1
102
RTVSPropertyOp32
 70
     1
102
RTVSPropertyOp33
 70
     1
102
RTVSPropertyOp34
 70
     1
102
RTVSPropertyOp35
 70
     1
102
RTVSPropertyOp36
 70
     1
102
RTVSPropertyOp37
 70
     1
102
RTVSPropertyOp38
 70
     1
102
RTVSPropertyOp39
 70
     1
102
RTVSPropertyOp40
 70
     1
102
RTVSPropertyOp41
 70
     1
102
RTVSPropertyOp42
 70
     1
102
RTVSPropertyOp43
 70
     1
102
RTVSPropertyOp44
 70
     1
102
RTVSPropertyOp45
 70
     1
102
RTVSPropertyOp46
 70
     1
102
RTVSPropertyOp47
 70
     1
102
RTVSPropertyOp48
 70
     1
102
RTVSPropertyOp49
 70
     1
102
RTVSPropertyOp50
 70
     1
102
RTVSPropertyOp51
 70
     0
102
RTVSPropertyOp52
 70
     0
102
RTVSPropertyOp53
 70
     1
102
RTVSPropertyOp54
 70
     1
102
RTVSPropertyOp55
 70
     1
102
RTVSPropertyOp56
 70
     1
102
RTVSPropertyOp57
 70
     1
102
RTVSPropertyOp58
 70
     1
102
RTVSPropertyOp59
 70
     1
102
RTVSPropertyOp60
 70
     1
102
RTVSPropertyOp61
 70
     1
102
RTVSPropertyOp62
 70
     1
  0
XRECORD
  5
3093
102
{ACAD_REACTORS
330
3092
102
}
330
3092
100
AcDbXrecord
280
     1
102
RTVSPost2010Prop28
280
     0
102
RTVSPost2010PropOp28
 70
     1
102
RTVSPost2010Prop29
280
     1
102
RTVSPost2010PropOp29
 70
     1
102
RTVSPost2010Prop30
280
     1
102
RTVSPost2010PropOp30
 70
     1
102
RTVSPost2010Prop31
280
     0
102
RTVSPost2010PropOp31
 70
     1
102
RTVSPost2010Prop32
280
     0
102
RTVSPost2010PropOp32
 70
     1
102
RTVSPost2010Prop33
280
     0
102
RTVSPost2010PropOp33
 70
     1
102
RTVSPost2010Prop34
280
     0
102
RTVSPost2010PropOp34
 70
     1
102
RTVSPost2010Prop35
280
     0
102
RTVSPost2010PropOp35
 70
     1
102
RTVSPost2010Prop36
280
     0
102
RTVSPost2010PropOp36
 70
     1
102
RTVSPost2010Prop37
 90
       50
102
RTVSPost2010PropOp37
 70
     1
102
RTVSPost2010Prop38
140
0.0
102
RTVSPost2010PropOp38
 70
     1
102
RTVSPost2010Prop39
140
1.0
102
RTVSPost2010PropOp39
 70
     1
102
RTVSPost2010Prop40
 90
        0
102
RTVSPost2010PropOp40
 70
     1
102
RTVSPost2010Prop41ColorIndex
 90
       18
102
RTVSPost2010Prop41ColorRGB
 90
        0
102
RTVSPost2010PropOp41
 70
     1
102
RTVSPost2010Prop42
 90
       50
102
RTVSPost2010PropOp42
 70
     1
102
RTVSPost2010Prop43
 90
        3
102
RTVSPost2010PropOp43
 70
     1
102
RTVSPost2010Prop44ColorIndex
 90
        5
102
RTVSPost2010Prop44ColorRGB
 90
      255
102
RTVSPost2010PropOp44
 70
     1
102
RTVSPost2010Prop45
280
     0
102
RTVSPost2010PropOp45
 70
     1
102
RTVSPost2010Prop46
 90
       50
102
RTVSPost2010PropOp46
 70
     1
102
RTVSPost2010Prop47
 90
       50
102
RTVSPost2010PropOp47
 70
     1
102
RTVSPost2010Prop48
 90
       50
102
RTVSPost2010PropOp48
 70
     1
102
RTVSPost2010Prop49
280
     0
102
RTVSPost2010PropOp49
 70
     1
102
RTVSPost2010Prop50
 90
       50
102
RTVSPost2010PropOp50
 70
     1
102
RTVSPost2010Prop51ColorIndex
 90
      256
102
RTVSPost2010Prop51ColorRGB
 90
-16777216
102
RTVSPost2010PropOp51
 70
     0
102
RTVSPost2010Prop52
140
1.0
102
RTVSPost2010PropOp52
 70
     0
102
RTVSPost2010Prop53
 90
        2
102
RTVSPost2010PropOp53
 70
     1
102
RTVSPost2010Prop54
  1
strokes_ogs.tif
102
RTVSPost2010PropOp54
 70
     1
102
RTVSPost2010Prop55
280
     0
102
RTVSPost2010PropOp55
 70
     1
102
RTVSPost2010Prop56
140
1.0
102
RTVSPost2010PropOp56
 70
     1
102
RTVSPost2010Prop57
140
1.0
102
RTVSPost2010PropOp57
 70
     1
102
RTVSPropertyOp0
 70
     1
102
RTVSPropertyOp1
 70
     1
102
RTVSPropertyOp2
 70
     1
102
RTVSPropertyOp3
 70
     1
102
RTVSPropertyOp4
 70
     1
102
RTVSPropertyOp5
 70
     1
102
RTVSPropertyOp6
 70
     1
102
RTVSPropertyOp7
 70
     1
102
RTVSPropertyOp8
 70
     1
102
RTVSPropertyOp9
 70
     1
102
RTVSPropertyOp10
 70
     1
102
RTVSPropertyOp11
 70
     1
102
RTVSPropertyOp12
 70
     1
102
RTVSPropertyOp13
 70
     1
102
RTVSPropertyOp14
 70
     1
102
RTVSPropertyOp15
 70
     1
102
RTVSPropertyOp16
 70
     1
102
RTVSPropertyOp17
 70
     1
102
RTVSPropertyOp18
 70
     1
102
RTVSPropertyOp19
 70
     1
102
RTVSPropertyOp20
 70
     1
102
RTVSPropertyOp21
 70
     1
102
RTVSPropertyOp22
 70
     1
102
RTVSPropertyOp23
 70
     1
102
RTVSPropertyOp24
 70
     1
102
RTVSPropertyOp25
 70
     1
102
RTVSPropertyOp26
 70
     1
102
RTVSPropertyOp27
 70
     1
102
RTVSPropertyOp28
 70
     1
102
RTVSPropertyOp29
 70
     1
102
RTVSPropertyOp30
 70
     1
102
RTVSPropertyOp31
 70
     1
102
RTVSPropertyOp32
 70
     1
102
RTVSPropertyOp33
 70
     1
102
RTVSPropertyOp34
 70
     1
102
RTVSPropertyOp35
 70
     1
102
RTVSPropertyOp36
 70
     1
102
RTVSPropertyOp37
 70
     1
102
RTVSPropertyOp38
 70
     1
102
RTVSPropertyOp39
 70
     1
102
RTVSPropertyOp40
 70
     1
102
RTVSPropertyOp41
 70
     1
102
RTVSPropertyOp42
 70
     1
102
RTVSPropertyOp43
 70
     1
102
RTVSPropertyOp44
 70
     1
102
RTVSPropertyOp45
 70
     1
102
RTVSPropertyOp46
 70
     1
102
RTVSPropertyOp47
 70
     1
102
RTVSPropertyOp48
 70
     1
102
RTVSPropertyOp49
 70
     1
102
RTVSPropertyOp50
 70
     1
102
RTVSPropertyOp51
 70
     0
102
RTVSPropertyOp52
 70
     0
102
RTVSPropertyOp53
 70
     1
102
RTVSPropertyOp54
 70
     1
102
RTVSPropertyOp55
 70
     1
102
RTVSPropertyOp56
 70
     1
102
RTVSPropertyOp57
 70
     1
102
RTVSPropertyOp58
 70
     1
102
RTVSPropertyOp59
 70
     1
102
RTVSPropertyOp60
 70
     1
102
RTVSPropertyOp61
 70
     1
102
RTVSPropertyOp62
 70
     1
  0
XRECORD
  5
309B
102
{ACAD_REACTORS
330
309A
102
}
330
309A
100
AcDbXrecord
280
     1
102
RTVSPost2010Prop28
280
     0
102
RTVSPost2010PropOp28
 70
     1
102
RTVSPost2010Prop29
280
     1
102
RTVSPost2010PropOp29
 70
     1
102
RTVSPost2010Prop30
280
     1
102
RTVSPost2010PropOp30
 70
     1
102
RTVSPost2010Prop31
280
     0
102
RTVSPost2010PropOp31
 70
     1
102
RTVSPost2010Prop32
280
     0
102
RTVSPost2010PropOp32
 70
     1
102
RTVSPost2010Prop33
280
     0
102
RTVSPost2010PropOp33
 70
     1
102
RTVSPost2010Prop34
280
     0
102
RTVSPost2010PropOp34
 70
     1
102
RTVSPost2010Prop35
280
     0
102
RTVSPost2010PropOp35
 70
     1
102
RTVSPost2010Prop36
280
     0
102
RTVSPost2010PropOp36
 70
     1
102
RTVSPost2010Prop37
 90
       50
102
RTVSPost2010PropOp37
 70
     1
102
RTVSPost2010Prop38
140
0.0
102
RTVSPost2010PropOp38
 70
     1
102
RTVSPost2010Prop39
140
1.0
102
RTVSPost2010PropOp39
 70
     1
102
RTVSPost2010Prop40
 90
        0
102
RTVSPost2010PropOp40
 70
     1
102
RTVSPost2010Prop41ColorIndex
 90
       18
102
RTVSPost2010Prop41ColorRGB
 90
        0
102
RTVSPost2010PropOp41
 70
     1
102
RTVSPost2010Prop42
 90
       50
102
RTVSPost2010PropOp42
 70
     1
102
RTVSPost2010Prop43
 90
        3
102
RTVSPost2010PropOp43
 70
     1
102
RTVSPost2010Prop44ColorIndex
 90
        5
102
RTVSPost2010Prop44ColorRGB
 90
      255
102
RTVSPost2010PropOp44
 70
     1
102
RTVSPost2010Prop45
280
     0
102
RTVSPost2010PropOp45
 70
     1
102
RTVSPost2010Prop46
 90
       50
102
RTVSPost2010PropOp46
 70
     1
102
RTVSPost2010Prop47
 90
       50
102
RTVSPost2010PropOp47
 70
     1
102
RTVSPost2010Prop48
 90
       50
102
RTVSPost2010PropOp48
 70
     1
102
RTVSPost2010Prop49
280
     0
102
RTVSPost2010PropOp49
 70
     1
102
RTVSPost2010Prop50
 90
       50
102
RTVSPost2010PropOp50
 70
     1
102
RTVSPost2010Prop51ColorIndex
 90
      256
102
RTVSPost2010Prop51ColorRGB
 90
-16777216
102
RTVSPost2010PropOp51
 70
     0
102
RTVSPost2010Prop52
140
1.0
102
RTVSPost2010PropOp52
 70
     0
102
RTVSPost2010Prop53
 90
        2
102
RTVSPost2010PropOp53
 70
     1
102
RTVSPost2010Prop54
  1
strokes_ogs.tif
102
RTVSPost2010PropOp54
 70
     1
102
RTVSPost2010Prop55
280
     0
102
RTVSPost2010PropOp55
 70
     1
102
RTVSPost2010Prop56
140
1.0
102
RTVSPost2010PropOp56
 70
     1
102
RTVSPost2010Prop57
140
1.0
102
RTVSPost2010PropOp57
 70
     1
102
RTVSPropertyOp0
 70
     1
102
RTVSPropertyOp1
 70
     1
102
RTVSPropertyOp2
 70
     1
102
RTVSPropertyOp3
 70
     1
102
RTVSPropertyOp4
 70
     1
102
RTVSPropertyOp5
 70
     1
102
RTVSPropertyOp6
 70
     1
102
RTVSPropertyOp7
 70
     1
102
RTVSPropertyOp8
 70
     1
102
RTVSPropertyOp9
 70
     1
102
RTVSPropertyOp10
 70
     1
102
RTVSPropertyOp11
 70
     1
102
RTVSPropertyOp12
 70
     1
102
RTVSPropertyOp13
 70
     1
102
RTVSPropertyOp14
 70
     1
102
RTVSPropertyOp15
 70
     1
102
RTVSPropertyOp16
 70
     1
102
RTVSPropertyOp17
 70
     1
102
RTVSPropertyOp18
 70
     1
102
RTVSPropertyOp19
 70
     1
102
RTVSPropertyOp20
 70
     1
102
RTVSPropertyOp21
 70
     1
102
RTVSPropertyOp22
 70
     1
102
RTVSPropertyOp23
 70
     1
102
RTVSPropertyOp24
 70
     1
102
RTVSPropertyOp25
 70
     1
102
RTVSPropertyOp26
 70
     1
102
RTVSPropertyOp27
 70
     1
102
RTVSPropertyOp28
 70
     1
102
RTVSPropertyOp29
 70
     1
102
RTVSPropertyOp30
 70
     1
102
RTVSPropertyOp31
 70
     1
102
RTVSPropertyOp32
 70
     1
102
RTVSPropertyOp33
 70
     1
102
RTVSPropertyOp34
 70
     1
102
RTVSPropertyOp35
 70
     1
102
RTVSPropertyOp36
 70
     1
102
RTVSPropertyOp37
 70
     1
102
RTVSPropertyOp38
 70
     1
102
RTVSPropertyOp39
 70
     1
102
RTVSPropertyOp40
 70
     1
102
RTVSPropertyOp41
 70
     1
102
RTVSPropertyOp42
 70
     1
102
RTVSPropertyOp43
 70
     1
102
RTVSPropertyOp44
 70
     1
102
RTVSPropertyOp45
 70
     1
102
RTVSPropertyOp46
 70
     1
102
RTVSPropertyOp47
 70
     1
102
RTVSPropertyOp48
 70
     1
102
RTVSPropertyOp49
 70
     1
102
RTVSPropertyOp50
 70
     1
102
RTVSPropertyOp51
 70
     0
102
RTVSPropertyOp52
 70
     0
102
RTVSPropertyOp53
 70
     1
102
RTVSPropertyOp54
 70
     1
102
RTVSPropertyOp55
 70
     1
102
RTVSPropertyOp56
 70
     1
102
RTVSPropertyOp57
 70
     1
102
RTVSPropertyOp58
 70
     1
102
RTVSPropertyOp59
 70
     1
102
RTVSPropertyOp60
 70
     1
102
RTVSPropertyOp61
 70
     1
102
RTVSPropertyOp62
 70
     1
  0
XRECORD
  5
30B7
102
{ACAD_REACTORS
330
30B6
102
}
330
30B6
100
AcDbXrecord
280
     1
102
RTVSPost2010Prop28
280
     0
102
RTVSPost2010PropOp28
 70
     1
102
RTVSPost2010Prop29
280
     1
102
RTVSPost2010PropOp29
 70
     1
102
RTVSPost2010Prop30
280
     1
102
RTVSPost2010PropOp30
 70
     1
102
RTVSPost2010Prop31
280
     0
102
RTVSPost2010PropOp31
 70
     1
102
RTVSPost2010Prop32
280
     0
102
RTVSPost2010PropOp32
 70
     1
102
RTVSPost2010Prop33
280
     0
102
RTVSPost2010PropOp33
 70
     1
102
RTVSPost2010Prop34
280
     0
102
RTVSPost2010PropOp34
 70
     1
102
RTVSPost2010Prop35
280
     0
102
RTVSPost2010PropOp35
 70
     1
102
RTVSPost2010Prop36
280
     0
102
RTVSPost2010PropOp36
 70
     1
102
RTVSPost2010Prop37
 90
       50
102
RTVSPost2010PropOp37
 70
     0
102
RTVSPost2010Prop38
140
0.0
102
RTVSPost2010PropOp38
 70
     0
102
RTVSPost2010Prop39
140
1.0
102
RTVSPost2010PropOp39
 70
     0
102
RTVSPost2010Prop40
 90
        0
102
RTVSPost2010PropOp40
 70
     0
102
RTVSPost2010Prop41ColorIndex
 90
       18
102
RTVSPost2010Prop41ColorRGB
 90
        0
102
RTVSPost2010PropOp41
 70
     0
102
RTVSPost2010Prop42
 90
       50
102
RTVSPost2010PropOp42
 70
     0
102
RTVSPost2010Prop43
 90
        3
102
RTVSPost2010PropOp43
 70
     0
102
RTVSPost2010Prop44ColorIndex
 90
        5
102
RTVSPost2010Prop44ColorRGB
 90
      255
102
RTVSPost2010PropOp44
 70
     0
102
RTVSPost2010Prop45
280
     0
102
RTVSPost2010PropOp45
 70
     1
102
RTVSPost2010Prop46
 90
       50
102
RTVSPost2010PropOp46
 70
     0
102
RTVSPost2010Prop47
 90
       50
102
RTVSPost2010PropOp47
 70
     0
102
RTVSPost2010Prop48
 90
       50
102
RTVSPost2010PropOp48
 70
     0
102
RTVSPost2010Prop49
280
     0
102
RTVSPost2010PropOp49
 70
     1
102
RTVSPost2010Prop50
 90
       50
102
RTVSPost2010PropOp50
 70
     0
102
RTVSPost2010Prop51ColorIndex
 90
      256
102
RTVSPost2010Prop51ColorRGB
 90
-16777216
102
RTVSPost2010PropOp51
 70
     0
102
RTVSPost2010Prop52
140
1.0
102
RTVSPost2010PropOp52
 70
     0
102
RTVSPost2010Prop53
 90
        2
102
RTVSPost2010PropOp53
 70
     0
102
RTVSPost2010Prop54
  1
strokes_ogs.tif
102
RTVSPost2010PropOp54
 70
     0
102
RTVSPost2010Prop55
280
     0
102
RTVSPost2010PropOp55
 70
     1
102
RTVSPost2010Prop56
140
1.0
102
RTVSPost2010PropOp56
 70
     0
102
RTVSPost2010Prop57
140
1.0
102
RTVSPost2010PropOp57
 70
     0
102
RTVSPropertyOp0
 70
     0
102
RTVSPropertyOp1
 70
     0
102
RTVSPropertyOp2
 70
     0
102
RTVSPropertyOp3
 70
     0
102
RTVSPropertyOp4
 70
     0
102
RTVSPropertyOp5
 70
     0
102
RTVSPropertyOp6
 70
     0
102
RTVSPropertyOp7
 70
     0
102
RTVSPropertyOp8
 70
     0
102
RTVSPropertyOp9
 70
     0
102
RTVSPropertyOp10
 70
     0
102
RTVSPropertyOp11
 70
     0
102
RTVSPropertyOp12
 70
     0
102
RTVSPropertyOp13
 70
     0
102
RTVSPropertyOp14
 70
     2
102
RTVSPropertyOp15
 70
     0
102
RTVSPropertyOp16
 70
     0
102
RTVSPropertyOp17
 70
     0
102
RTVSPropertyOp18
 70
     0
102
RTVSPropertyOp19
 70
     0
102
RTVSPropertyOp20
 70
     0
102
RTVSPropertyOp21
 70
     0
102
RTVSPropertyOp22
 70
     0
102
RTVSPropertyOp23
 70
     0
102
RTVSPropertyOp24
 70
     0
102
RTVSPropertyOp25
 70
     0
102
RTVSPropertyOp26
 70
     0
102
RTVSPropertyOp27
 70
     0
102
RTVSPropertyOp28
 70
     1
102
RTVSPropertyOp29
 70
     1
102
RTVSPropertyOp30
 70
     1
102
RTVSPropertyOp31
 70
     1
102
RTVSPropertyOp32
 70
     1
102
RTVSPropertyOp33
 70
     1
102
RTVSPropertyOp34
 70
     1
102
RTVSPropertyOp35
 70
     1
102
RTVSPropertyOp36
 70
     1
102
RTVSPropertyOp37
 70
     0
102
RTVSPropertyOp38
 70
     0
102
RTVSPropertyOp39
 70
     0
102
RTVSPropertyOp40
 70
     0
102
RTVSPropertyOp41
 70
     0
102
RTVSPropertyOp42
 70
     0
102
RTVSPropertyOp43
 70
     0
102
RTVSPropertyOp44
 70
     0
102
RTVSPropertyOp45
 70
     1
102
RTVSPropertyOp46
 70
     0
102
RTVSPropertyOp47
 70
     0
102
RTVSPropertyOp48
 70
     0
102
RTVSPropertyOp49
 70
     1
102
RTVSPropertyOp50
 70
     0
102
RTVSPropertyOp51
 70
     0
102
RTVSPropertyOp52
 70
     0
102
RTVSPropertyOp53
 70
     0
102
RTVSPropertyOp54
 70
     0
102
RTVSPropertyOp55
 70
     1
102
RTVSPropertyOp56
 70
     0
102
RTVSPropertyOp57
 70
     0
102
RTVSPropertyOp58
 70
     0
102
RTVSPropertyOp59
 70
     0
102
RTVSPropertyOp60
 70
     0
102
RTVSPropertyOp61
 70
     0
102
RTVSPropertyOp62
 70
     0
  0
XRECORD
  5
30A7
102
{ACAD_REACTORS
330
30A6
102
}
330
30A6
100
AcDbXrecord
280
     1
102
RTVSPost2010Prop28
280
     0
102
RTVSPost2010PropOp28
 70
     1
102
RTVSPost2010Prop29
280
     1
102
RTVSPost2010PropOp29
 70
     1
102
RTVSPost2010Prop30
280
     1
102
RTVSPost2010PropOp30
 70
     1
102
RTVSPost2010Prop31
280
     0
102
RTVSPost2010PropOp31
 70
     1
102
RTVSPost2010Prop32
280
     0
102
RTVSPost2010PropOp32
 70
     1
102
RTVSPost2010Prop33
280
     0
102
RTVSPost2010PropOp33
 70
     1
102
RTVSPost2010Prop34
280
     0
102
RTVSPost2010PropOp34
 70
     1
102
RTVSPost2010Prop35
280
     0
102
RTVSPost2010PropOp35
 70
     1
102
RTVSPost2010Prop36
280
     0
102
RTVSPost2010PropOp36
 70
     1
102
RTVSPost2010Prop37
 90
       50
102
RTVSPost2010PropOp37
 70
     1
102
RTVSPost2010Prop38
140
0.0
102
RTVSPost2010PropOp38
 70
     1
102
RTVSPost2010Prop39
140
1.0
102
RTVSPost2010PropOp39
 70
     1
102
RTVSPost2010Prop40
 90
        0
102
RTVSPost2010PropOp40
 70
     1
102
RTVSPost2010Prop41ColorIndex
 90
       18
102
RTVSPost2010Prop41ColorRGB
 90
        0
102
RTVSPost2010PropOp41
 70
     1
102
RTVSPost2010Prop42
 90
       50
102
RTVSPost2010PropOp42
 70
     1
102
RTVSPost2010Prop43
 90
        3
102
RTVSPost2010PropOp43
 70
     1
102
RTVSPost2010Prop44ColorIndex
 90
        5
102
RTVSPost2010Prop44ColorRGB
 90
      255
102
RTVSPost2010PropOp44
 70
     1
102
RTVSPost2010Prop45
280
     0
102
RTVSPost2010PropOp45
 70
     1
102
RTVSPost2010Prop46
 90
       50
102
RTVSPost2010PropOp46
 70
     1
102
RTVSPost2010Prop47
 90
       50
102
RTVSPost2010PropOp47
 70
     1
102
RTVSPost2010Prop48
 90
       50
102
RTVSPost2010PropOp48
 70
     1
102
RTVSPost2010Prop49
280
     0
102
RTVSPost2010PropOp49
 70
     1
102
RTVSPost2010Prop50
 90
       50
102
RTVSPost2010PropOp50
 70
     1
102
RTVSPost2010Prop51ColorIndex
 90
      256
102
RTVSPost2010Prop51ColorRGB
 90
-16777216
102
RTVSPost2010PropOp51
 70
     0
102
RTVSPost2010Prop52
140
1.0
102
RTVSPost2010PropOp52
 70
     0
102
RTVSPost2010Prop53
 90
        2
102
RTVSPost2010PropOp53
 70
     1
102
RTVSPost2010Prop54
  1
strokes_ogs.tif
102
RTVSPost2010PropOp54
 70
     1
102
RTVSPost2010Prop55
280
     0
102
RTVSPost2010PropOp55
 70
     1
102
RTVSPost2010Prop56
140
1.0
102
RTVSPost2010PropOp56
 70
     1
102
RTVSPost2010Prop57
140
1.0
102
RTVSPost2010PropOp57
 70
     1
102
RTVSPropertyOp0
 70
     1
102
RTVSPropertyOp1
 70
     1
102
RTVSPropertyOp2
 70
     1
102
RTVSPropertyOp3
 70
     1
102
RTVSPropertyOp4
 70
     1
102
RTVSPropertyOp5
 70
     1
102
RTVSPropertyOp6
 70
     1
102
RTVSPropertyOp7
 70
     1
102
RTVSPropertyOp8
 70
     1
102
RTVSPropertyOp9
 70
     1
102
RTVSPropertyOp10
 70
     1
102
RTVSPropertyOp11
 70
     1
102
RTVSPropertyOp12
 70
     1
102
RTVSPropertyOp13
 70
     1
102
RTVSPropertyOp14
 70
     1
102
RTVSPropertyOp15
 70
     1
102
RTVSPropertyOp16
 70
     1
102
RTVSPropertyOp17
 70
     1
102
RTVSPropertyOp18
 70
     1
102
RTVSPropertyOp19
 70
     1
102
RTVSPropertyOp20
 70
     1
102
RTVSPropertyOp21
 70
     1
102
RTVSPropertyOp22
 70
     1
102
RTVSPropertyOp23
 70
     1
102
RTVSPropertyOp24
 70
     1
102
RTVSPropertyOp25
 70
     1
102
RTVSPropertyOp26
 70
     1
102
RTVSPropertyOp27
 70
     1
102
RTVSPropertyOp28
 70
     1
102
RTVSPropertyOp29
 70
     1
102
RTVSPropertyOp30
 70
     1
102
RTVSPropertyOp31
 70
     1
102
RTVSPropertyOp32
 70
     1
102
RTVSPropertyOp33
 70
     1
102
RTVSPropertyOp34
 70
     1
102
RTVSPropertyOp35
 70
     1
102
RTVSPropertyOp36
 70
     1
102
RTVSPropertyOp37
 70
     1
102
RTVSPropertyOp38
 70
     1
102
RTVSPropertyOp39
 70
     1
102
RTVSPropertyOp40
 70
     1
102
RTVSPropertyOp41
 70
     1
102
RTVSPropertyOp42
 70
     1
102
RTVSPropertyOp43
 70
     1
102
RTVSPropertyOp44
 70
     1
102
RTVSPropertyOp45
 70
     1
102
RTVSPropertyOp46
 70
     1
102
RTVSPropertyOp47
 70
     1
102
RTVSPropertyOp48
 70
     1
102
RTVSPropertyOp49
 70
     1
102
RTVSPropertyOp50
 70
     1
102
RTVSPropertyOp51
 70
     0
102
RTVSPropertyOp52
 70
     0
102
RTVSPropertyOp53
 70
     1
102
RTVSPropertyOp54
 70
     1
102
RTVSPropertyOp55
 70
     1
102
RTVSPropertyOp56
 70
     1
102
RTVSPropertyOp57
 70
     1
102
RTVSPropertyOp58
 70
     1
102
RTVSPropertyOp59
 70
     1
102
RTVSPropertyOp60
 70
     1
102
RTVSPropertyOp61
 70
     1
102
RTVSPropertyOp62
 70
     1
  0
XRECORD
  5
30B9
102
{ACAD_REACTORS
330
30B8
102
}
330
30B8
100
AcDbXrecord
280
     1
102
RTVSPost2010Prop28
280
     0
102
RTVSPost2010PropOp28
 70
     1
102
RTVSPost2010Prop29
280
     1
102
RTVSPost2010PropOp29
 70
     1
102
RTVSPost2010Prop30
280
     1
102
RTVSPost2010PropOp30
 70
     1
102
RTVSPost2010Prop31
280
     0
102
RTVSPost2010PropOp31
 70
     1
102
RTVSPost2010Prop32
280
     0
102
RTVSPost2010PropOp32
 70
     1
102
RTVSPost2010Prop33
280
     0
102
RTVSPost2010PropOp33
 70
     1
102
RTVSPost2010Prop34
280
     0
102
RTVSPost2010PropOp34
 70
     1
102
RTVSPost2010Prop35
280
     0
102
RTVSPost2010PropOp35
 70
     1
102
RTVSPost2010Prop36
280
     0
102
RTVSPost2010PropOp36
 70
     1
102
RTVSPost2010Prop37
 90
       50
102
RTVSPost2010PropOp37
 70
     0
102
RTVSPost2010Prop38
140
0.0
102
RTVSPost2010PropOp38
 70
     0
102
RTVSPost2010Prop39
140
1.0
102
RTVSPost2010PropOp39
 70
     0
102
RTVSPost2010Prop40
 90
        0
102
RTVSPost2010PropOp40
 70
     0
102
RTVSPost2010Prop41ColorIndex
 90
       18
102
RTVSPost2010Prop41ColorRGB
 90
        0
102
RTVSPost2010PropOp41
 70
     0
102
RTVSPost2010Prop42
 90
       50
102
RTVSPost2010PropOp42
 70
     0
102
RTVSPost2010Prop43
 90
        3
102
RTVSPost2010PropOp43
 70
     0
102
RTVSPost2010Prop44ColorIndex
 90
        5
102
RTVSPost2010Prop44ColorRGB
 90
      255
102
RTVSPost2010PropOp44
 70
     0
102
RTVSPost2010Prop45
280
     0
102
RTVSPost2010PropOp45
 70
     1
102
RTVSPost2010Prop46
 90
       50
102
RTVSPost2010PropOp46
 70
     0
102
RTVSPost2010Prop47
 90
       50
102
RTVSPost2010PropOp47
 70
     0
102
RTVSPost2010Prop48
 90
       50
102
RTVSPost2010PropOp48
 70
     0
102
RTVSPost2010Prop49
280
     0
102
RTVSPost2010PropOp49
 70
     1
102
RTVSPost2010Prop50
 90
       50
102
RTVSPost2010PropOp50
 70
     0
102
RTVSPost2010Prop51ColorIndex
 90
      256
102
RTVSPost2010Prop51ColorRGB
 90
-16777216
102
RTVSPost2010PropOp51
 70
     0
102
RTVSPost2010Prop52
140
1.0
102
RTVSPost2010PropOp52
 70
     0
102
RTVSPost2010Prop53
 90
        2
102
RTVSPost2010PropOp53
 70
     0
102
RTVSPost2010Prop54
  1
strokes_ogs.tif
102
RTVSPost2010PropOp54
 70
     0
102
RTVSPost2010Prop55
280
     0
102
RTVSPost2010PropOp55
 70
     1
102
RTVSPost2010Prop56
140
1.0
102
RTVSPost2010PropOp56
 70
     0
102
RTVSPost2010Prop57
140
1.0
102
RTVSPost2010PropOp57
 70
     0
102
RTVSPropertyOp0
 70
     0
102
RTVSPropertyOp1
 70
     0
102
RTVSPropertyOp2
 70
     0
102
RTVSPropertyOp3
 70
     0
102
RTVSPropertyOp4
 70
     0
102
RTVSPropertyOp5
 70
     0
102
RTVSPropertyOp6
 70
     0
102
RTVSPropertyOp7
 70
     0
102
RTVSPropertyOp8
 70
     0
102
RTVSPropertyOp9
 70
     0
102
RTVSPropertyOp10
 70
     0
102
RTVSPropertyOp11
 70
     0
102
RTVSPropertyOp12
 70
     0
102
RTVSPropertyOp13
 70
     0
102
RTVSPropertyOp14
 70
     2
102
RTVSPropertyOp15
 70
     0
102
RTVSPropertyOp16
 70
     0
102
RTVSPropertyOp17
 70
     0
102
RTVSPropertyOp18
 70
     0
102
RTVSPropertyOp19
 70
     0
102
RTVSPropertyOp20
 70
     0
102
RTVSPropertyOp21
 70
     0
102
RTVSPropertyOp22
 70
     0
102
RTVSPropertyOp23
 70
     0
102
RTVSPropertyOp24
 70
     0
102
RTVSPropertyOp25
 70
     0
102
RTVSPropertyOp26
 70
     0
102
RTVSPropertyOp27
 70
     0
102
RTVSPropertyOp28
 70
     1
102
RTVSPropertyOp29
 70
     1
102
RTVSPropertyOp30
 70
     1
102
RTVSPropertyOp31
 70
     1
102
RTVSPropertyOp32
 70
     1
102
RTVSPropertyOp33
 70
     1
102
RTVSPropertyOp34
 70
     1
102
RTVSPropertyOp35
 70
     1
102
RTVSPropertyOp36
 70
     1
102
RTVSPropertyOp37
 70
     0
102
RTVSPropertyOp38
 70
     0
102
RTVSPropertyOp39
 70
     0
102
RTVSPropertyOp40
 70
     0
102
RTVSPropertyOp41
 70
     0
102
RTVSPropertyOp42
 70
     0
102
RTVSPropertyOp43
 70
     0
102
RTVSPropertyOp44
 70
     0
102
RTVSPropertyOp45
 70
     1
102
RTVSPropertyOp46
 70
     0
102
RTVSPropertyOp47
 70
     0
102
RTVSPropertyOp48
 70
     0
102
RTVSPropertyOp49
 70
     1
102
RTVSPropertyOp50
 70
     0
102
RTVSPropertyOp51
 70
     0
102
RTVSPropertyOp52
 70
     0
102
RTVSPropertyOp53
 70
     0
102
RTVSPropertyOp54
 70
     0
102
RTVSPropertyOp55
 70
     1
102
RTVSPropertyOp56
 70
     0
102
RTVSPropertyOp57
 70
     0
102
RTVSPropertyOp58
 70
     0
102
RTVSPropertyOp59
 70
     0
102
RTVSPropertyOp60
 70
     0
102
RTVSPropertyOp61
 70
     0
102
RTVSPropertyOp62
 70
     0
  0
XRECORD
  5
309F
102
{ACAD_REACTORS
330
309E
102
}
330
309E
100
AcDbXrecord
280
     1
102
RTVSPost2010Prop28
280
     0
102
RTVSPost2010PropOp28
 70
     1
102
RTVSPost2010Prop29
280
     1
102
RTVSPost2010PropOp29
 70
     1
102
RTVSPost2010Prop30
280
     1
102
RTVSPost2010PropOp30
 70
     1
102
RTVSPost2010Prop31
280
     0
102
RTVSPost2010PropOp31
 70
     1
102
RTVSPost2010Prop32
280
     0
102
RTVSPost2010PropOp32
 70
     1
102
RTVSPost2010Prop33
280
     0
102
RTVSPost2010PropOp33
 70
     1
102
RTVSPost2010Prop34
280
     0
102
RTVSPost2010PropOp34
 70
     1
102
RTVSPost2010Prop35
280
     0
102
RTVSPost2010PropOp35
 70
     1
102
RTVSPost2010Prop36
280
     0
102
RTVSPost2010PropOp36
 70
     1
102
RTVSPost2010Prop37
 90
       50
102
RTVSPost2010PropOp37
 70
     1
102
RTVSPost2010Prop38
140
0.0
102
RTVSPost2010PropOp38
 70
     1
102
RTVSPost2010Prop39
140
1.0
102
RTVSPost2010PropOp39
 70
     1
102
RTVSPost2010Prop40
 90
        0
102
RTVSPost2010PropOp40
 70
     1
102
RTVSPost2010Prop41ColorIndex
 90
       18
102
RTVSPost2010Prop41ColorRGB
 90
        0
102
RTVSPost2010PropOp41
 70
     1
102
RTVSPost2010Prop42
 90
       50
102
RTVSPost2010PropOp42
 70
     1
102
RTVSPost2010Prop43
 90
        3
102
RTVSPost2010PropOp43
 70
     1
102
RTVSPost2010Prop44ColorIndex
 90
        5
102
RTVSPost2010Prop44ColorRGB
 90
      255
102
RTVSPost2010PropOp44
 70
     1
102
RTVSPost2010Prop45
280
     0
102
RTVSPost2010PropOp45
 70
     1
102
RTVSPost2010Prop46
 90
       50
102
RTVSPost2010PropOp46
 70
     1
102
RTVSPost2010Prop47
 90
       50
102
RTVSPost2010PropOp47
 70
     1
102
RTVSPost2010Prop48
 90
       50
102
RTVSPost2010PropOp48
 70
     1
102
RTVSPost2010Prop49
280
     0
102
RTVSPost2010PropOp49
 70
     1
102
RTVSPost2010Prop50
 90
       50
102
RTVSPost2010PropOp50
 70
     1
102
RTVSPost2010Prop51ColorIndex
 90
      256
102
RTVSPost2010Prop51ColorRGB
 90
-16777216
102
RTVSPost2010PropOp51
 70
     0
102
RTVSPost2010Prop52
140
1.0
102
RTVSPost2010PropOp52
 70
     0
102
RTVSPost2010Prop53
 90
        2
102
RTVSPost2010PropOp53
 70
     1
102
RTVSPost2010Prop54
  1
strokes_ogs.tif
102
RTVSPost2010PropOp54
 70
     1
102
RTVSPost2010Prop55
280
     0
102
RTVSPost2010PropOp55
 70
     1
102
RTVSPost2010Prop56
140
1.0
102
RTVSPost2010PropOp56
 70
     1
102
RTVSPost2010Prop57
140
1.0
102
RTVSPost2010PropOp57
 70
     1
102
RTVSPropertyOp0
 70
     1
102
RTVSPropertyOp1
 70
     1
102
RTVSPropertyOp2
 70
     1
102
RTVSPropertyOp3
 70
     1
102
RTVSPropertyOp4
 70
     1
102
RTVSPropertyOp5
 70
     1
102
RTVSPropertyOp6
 70
     1
102
RTVSPropertyOp7
 70
     1
102
RTVSPropertyOp8
 70
     1
102
RTVSPropertyOp9
 70
     1
102
RTVSPropertyOp10
 70
     1
102
RTVSPropertyOp11
 70
     1
102
RTVSPropertyOp12
 70
     1
102
RTVSPropertyOp13
 70
     1
102
RTVSPropertyOp14
 70
     1
102
RTVSPropertyOp15
 70
     1
102
RTVSPropertyOp16
 70
     1
102
RTVSPropertyOp17
 70
     1
102
RTVSPropertyOp18
 70
     1
102
RTVSPropertyOp19
 70
     1
102
RTVSPropertyOp20
 70
     1
102
RTVSPropertyOp21
 70
     1
102
RTVSPropertyOp22
 70
     1
102
RTVSPropertyOp23
 70
     1
102
RTVSPropertyOp24
 70
     1
102
RTVSPropertyOp25
 70
     1
102
RTVSPropertyOp26
 70
     1
102
RTVSPropertyOp27
 70
     1
102
RTVSPropertyOp28
 70
     1
102
RTVSPropertyOp29
 70
     1
102
RTVSPropertyOp30
 70
     1
102
RTVSPropertyOp31
 70
     1
102
RTVSPropertyOp32
 70
     1
102
RTVSPropertyOp33
 70
     1
102
RTVSPropertyOp34
 70
     1
102
RTVSPropertyOp35
 70
     1
102
RTVSPropertyOp36
 70
     1
102
RTVSPropertyOp37
 70
     1
102
RTVSPropertyOp38
 70
     1
102
RTVSPropertyOp39
 70
     1
102
RTVSPropertyOp40
 70
     1
102
RTVSPropertyOp41
 70
     1
102
RTVSPropertyOp42
 70
     1
102
RTVSPropertyOp43
 70
     1
102
RTVSPropertyOp44
 70
     1
102
RTVSPropertyOp45
 70
     1
102
RTVSPropertyOp46
 70
     1
102
RTVSPropertyOp47
 70
     1
102
RTVSPropertyOp48
 70
     1
102
RTVSPropertyOp49
 70
     1
102
RTVSPropertyOp50
 70
     1
102
RTVSPropertyOp51
 70
     0
102
RTVSPropertyOp52
 70
     0
102
RTVSPropertyOp53
 70
     1
102
RTVSPropertyOp54
 70
     1
102
RTVSPropertyOp55
 70
     1
102
RTVSPropertyOp56
 70
     1
102
RTVSPropertyOp57
 70
     1
102
RTVSPropertyOp58
 70
     1
102
RTVSPropertyOp59
 70
     1
102
RTVSPropertyOp60
 70
     1
102
RTVSPropertyOp61
 70
     1
102
RTVSPropertyOp62
 70
     1
  0
XRECORD
  5
30B5
102
{ACAD_REACTORS
330
30B4
102
}
330
30B4
100
AcDbXrecord
280
     1
102
RTVSPost2010Prop28
280
     0
102
RTVSPost2010PropOp28
 70
     1
102
RTVSPost2010Prop29
280
     1
102
RTVSPost2010PropOp29
 70
     1
102
RTVSPost2010Prop30
280
     1
102
RTVSPost2010PropOp30
 70
     1
102
RTVSPost2010Prop31
280
     0
102
RTVSPost2010PropOp31
 70
     1
102
RTVSPost2010Prop32
280
     0
102
RTVSPost2010PropOp32
 70
     1
102
RTVSPost2010Prop33
280
     0
102
RTVSPost2010PropOp33
 70
     1
102
RTVSPost2010Prop34
280
     0
102
RTVSPost2010PropOp34
 70
     1
102
RTVSPost2010Prop35
280
     0
102
RTVSPost2010PropOp35
 70
     1
102
RTVSPost2010Prop36
280
     0
102
RTVSPost2010PropOp36
 70
     1
102
RTVSPost2010Prop37
 90
       50
102
RTVSPost2010PropOp37
 70
     1
102
RTVSPost2010Prop38
140
0.0
102
RTVSPost2010PropOp38
 70
     1
102
RTVSPost2010Prop39
140
1.0
102
RTVSPost2010PropOp39
 70
     1
102
RTVSPost2010Prop40
 90
        0
102
RTVSPost2010PropOp40
 70
     1
102
RTVSPost2010Prop41ColorIndex
 90
       18
102
RTVSPost2010Prop41ColorRGB
 90
        0
102
RTVSPost2010PropOp41
 70
     1
102
RTVSPost2010Prop42
 90
       50
102
RTVSPost2010PropOp42
 70
     1
102
RTVSPost2010Prop43
 90
        3
102
RTVSPost2010PropOp43
 70
     1
102
RTVSPost2010Prop44ColorIndex
 90
        5
102
RTVSPost2010Prop44ColorRGB
 90
      255
102
RTVSPost2010PropOp44
 70
     1
102
RTVSPost2010Prop45
280
     0
102
RTVSPost2010PropOp45
 70
     1
102
RTVSPost2010Prop46
 90
       50
102
RTVSPost2010PropOp46
 70
     1
102
RTVSPost2010Prop47
 90
       50
102
RTVSPost2010PropOp47
 70
     1
102
RTVSPost2010Prop48
 90
       50
102
RTVSPost2010PropOp48
 70
     1
102
RTVSPost2010Prop49
280
     0
102
RTVSPost2010PropOp49
 70
     1
102
RTVSPost2010Prop50
 90
       50
102
RTVSPost2010PropOp50
 70
     1
102
RTVSPost2010Prop51ColorIndex
 90
      256
102
RTVSPost2010Prop51ColorRGB
 90
-16777216
102
RTVSPost2010PropOp51
 70
     0
102
RTVSPost2010Prop52
140
1.0
102
RTVSPost2010PropOp52
 70
     0
102
RTVSPost2010Prop53
 90
        2
102
RTVSPost2010PropOp53
 70
     1
102
RTVSPost2010Prop54
  1
strokes_ogs.tif
102
RTVSPost2010PropOp54
 70
     1
102
RTVSPost2010Prop55
280
     0
102
RTVSPost2010PropOp55
 70
     1
102
RTVSPost2010Prop56
140
1.0
102
RTVSPost2010PropOp56
 70
     1
102
RTVSPost2010Prop57
140
1.0
102
RTVSPost2010PropOp57
 70
     1
102
RTVSPropertyOp0
 70
     1
102
RTVSPropertyOp1
 70
     1
102
RTVSPropertyOp2
 70
     1
102
RTVSPropertyOp3
 70
     1
102
RTVSPropertyOp4
 70
     1
102
RTVSPropertyOp5
 70
     1
102
RTVSPropertyOp6
 70
     1
102
RTVSPropertyOp7
 70
     1
102
RTVSPropertyOp8
 70
     1
102
RTVSPropertyOp9
 70
     1
102
RTVSPropertyOp10
 70
     1
102
RTVSPropertyOp11
 70
     1
102
RTVSPropertyOp12
 70
     1
102
RTVSPropertyOp13
 70
     1
102
RTVSPropertyOp14
 70
     1
102
RTVSPropertyOp15
 70
     1
102
RTVSPropertyOp16
 70
     1
102
RTVSPropertyOp17
 70
     1
102
RTVSPropertyOp18
 70
     1
102
RTVSPropertyOp19
 70
     1
102
RTVSPropertyOp20
 70
     1
102
RTVSPropertyOp21
 70
     1
102
RTVSPropertyOp22
 70
     1
102
RTVSPropertyOp23
 70
     1
102
RTVSPropertyOp24
 70
     1
102
RTVSPropertyOp25
 70
     1
102
RTVSPropertyOp26
 70
     1
102
RTVSPropertyOp27
 70
     1
102
RTVSPropertyOp28
 70
     1
102
RTVSPropertyOp29
 70
     1
102
RTVSPropertyOp30
 70
     1
102
RTVSPropertyOp31
 70
     1
102
RTVSPropertyOp32
 70
     1
102
RTVSPropertyOp33
 70
     1
102
RTVSPropertyOp34
 70
     1
102
RTVSPropertyOp35
 70
     1
102
RTVSPropertyOp36
 70
     1
102
RTVSPropertyOp37
 70
     1
102
RTVSPropertyOp38
 70
     1
102
RTVSPropertyOp39
 70
     1
102
RTVSPropertyOp40
 70
     1
102
RTVSPropertyOp41
 70
     1
102
RTVSPropertyOp42
 70
     1
102
RTVSPropertyOp43
 70
     1
102
RTVSPropertyOp44
 70
     1
102
RTVSPropertyOp45
 70
     1
102
RTVSPropertyOp46
 70
     1
102
RTVSPropertyOp47
 70
     1
102
RTVSPropertyOp48
 70
     1
102
RTVSPropertyOp49
 70
     1
102
RTVSPropertyOp50
 70
     1
102
RTVSPropertyOp51
 70
     0
102
RTVSPropertyOp52
 70
     0
102
RTVSPropertyOp53
 70
     1
102
RTVSPropertyOp54
 70
     1
102
RTVSPropertyOp55
 70
     1
102
RTVSPropertyOp56
 70
     1
102
RTVSPropertyOp57
 70
     1
102
RTVSPropertyOp58
 70
     1
102
RTVSPropertyOp59
 70
     1
102
RTVSPropertyOp60
 70
     1
102
RTVSPropertyOp61
 70
     1
102
RTVSPropertyOp62
 70
     1
  0
XRECORD
  5
30B3
102
{ACAD_REACTORS
330
30B2
102
}
330
30B2
100
AcDbXrecord
280
     1
102
RTVSPost2010Prop28
280
     0
102
RTVSPost2010PropOp28
 70
     1
102
RTVSPost2010Prop29
280
     1
102
RTVSPost2010PropOp29
 70
     1
102
RTVSPost2010Prop30
280
     1
102
RTVSPost2010PropOp30
 70
     1
102
RTVSPost2010Prop31
280
     0
102
RTVSPost2010PropOp31
 70
     1
102
RTVSPost2010Prop32
280
     0
102
RTVSPost2010PropOp32
 70
     1
102
RTVSPost2010Prop33
280
     0
102
RTVSPost2010PropOp33
 70
     1
102
RTVSPost2010Prop34
280
     0
102
RTVSPost2010PropOp34
 70
     1
102
RTVSPost2010Prop35
280
     0
102
RTVSPost2010PropOp35
 70
     1
102
RTVSPost2010Prop36
280
     0
102
RTVSPost2010PropOp36
 70
     1
102
RTVSPost2010Prop37
 90
       50
102
RTVSPost2010PropOp37
 70
     1
102
RTVSPost2010Prop38
140
0.0
102
RTVSPost2010PropOp38
 70
     1
102
RTVSPost2010Prop39
140
1.0
102
RTVSPost2010PropOp39
 70
     1
102
RTVSPost2010Prop40
 90
        0
102
RTVSPost2010PropOp40
 70
     1
102
RTVSPost2010Prop41ColorIndex
 90
       18
102
RTVSPost2010Prop41ColorRGB
 90
        0
102
RTVSPost2010PropOp41
 70
     1
102
RTVSPost2010Prop42
 90
       50
102
RTVSPost2010PropOp42
 70
     1
102
RTVSPost2010Prop43
 90
        3
102
RTVSPost2010PropOp43
 70
     1
102
RTVSPost2010Prop44ColorIndex
 90
        5
102
RTVSPost2010Prop44ColorRGB
 90
      255
102
RTVSPost2010PropOp44
 70
     1
102
RTVSPost2010Prop45
280
     0
102
RTVSPost2010PropOp45
 70
     1
102
RTVSPost2010Prop46
 90
       50
102
RTVSPost2010PropOp46
 70
     1
102
RTVSPost2010Prop47
 90
       50
102
RTVSPost2010PropOp47
 70
     1
102
RTVSPost2010Prop48
 90
       50
102
RTVSPost2010PropOp48
 70
     1
102
RTVSPost2010Prop49
280
     0
102
RTVSPost2010PropOp49
 70
     1
102
RTVSPost2010Prop50
 90
       50
102
RTVSPost2010PropOp50
 70
     1
102
RTVSPost2010Prop51ColorIndex
 90
      256
102
RTVSPost2010Prop51ColorRGB
 90
-16777216
102
RTVSPost2010PropOp51
 70
     0
102
RTVSPost2010Prop52
140
1.0
102
RTVSPost2010PropOp52
 70
     0
102
RTVSPost2010Prop53
 90
        2
102
RTVSPost2010PropOp53
 70
     1
102
RTVSPost2010Prop54
  1
strokes_ogs.tif
102
RTVSPost2010PropOp54
 70
     1
102
RTVSPost2010Prop55
280
     0
102
RTVSPost2010PropOp55
 70
     1
102
RTVSPost2010Prop56
140
1.0
102
RTVSPost2010PropOp56
 70
     1
102
RTVSPost2010Prop57
140
1.0
102
RTVSPost2010PropOp57
 70
     1
102
RTVSPropertyOp0
 70
     1
102
RTVSPropertyOp1
 70
     1
102
RTVSPropertyOp2
 70
     1
102
RTVSPropertyOp3
 70
     1
102
RTVSPropertyOp4
 70
     1
102
RTVSPropertyOp5
 70
     1
102
RTVSPropertyOp6
 70
     1
102
RTVSPropertyOp7
 70
     1
102
RTVSPropertyOp8
 70
     1
102
RTVSPropertyOp9
 70
     1
102
RTVSPropertyOp10
 70
     1
102
RTVSPropertyOp11
 70
     1
102
RTVSPropertyOp12
 70
     1
102
RTVSPropertyOp13
 70
     1
102
RTVSPropertyOp14
 70
     1
102
RTVSPropertyOp15
 70
     1
102
RTVSPropertyOp16
 70
     1
102
RTVSPropertyOp17
 70
     1
102
RTVSPropertyOp18
 70
     1
102
RTVSPropertyOp19
 70
     1
102
RTVSPropertyOp20
 70
     1
102
RTVSPropertyOp21
 70
     1
102
RTVSPropertyOp22
 70
     1
102
RTVSPropertyOp23
 70
     1
102
RTVSPropertyOp24
 70
     1
102
RTVSPropertyOp25
 70
     1
102
RTVSPropertyOp26
 70
     1
102
RTVSPropertyOp27
 70
     1
102
RTVSPropertyOp28
 70
     1
102
RTVSPropertyOp29
 70
     1
102
RTVSPropertyOp30
 70
     1
102
RTVSPropertyOp31
 70
     1
102
RTVSPropertyOp32
 70
     1
102
RTVSPropertyOp33
 70
     1
102
RTVSPropertyOp34
 70
     1
102
RTVSPropertyOp35
 70
     1
102
RTVSPropertyOp36
 70
     1
102
RTVSPropertyOp37
 70
     1
102
RTVSPropertyOp38
 70
     1
102
RTVSPropertyOp39
 70
     1
102
RTVSPropertyOp40
 70
     1
102
RTVSPropertyOp41
 70
     1
102
RTVSPropertyOp42
 70
     1
102
RTVSPropertyOp43
 70
     1
102
RTVSPropertyOp44
 70
     1
102
RTVSPropertyOp45
 70
     1
102
RTVSPropertyOp46
 70
     1
102
RTVSPropertyOp47
 70
     1
102
RTVSPropertyOp48
 70
     1
102
RTVSPropertyOp49
 70
     1
102
RTVSPropertyOp50
 70
     1
102
RTVSPropertyOp51
 70
     0
102
RTVSPropertyOp52
 70
     0
102
RTVSPropertyOp53
 70
     1
102
RTVSPropertyOp54
 70
     1
102
RTVSPropertyOp55
 70
     1
102
RTVSPropertyOp56
 70
     1
102
RTVSPropertyOp57
 70
     1
102
RTVSPropertyOp58
 70
     1
102
RTVSPropertyOp59
 70
     1
102
RTVSPropertyOp60
 70
     1
102
RTVSPropertyOp61
 70
     1
102
RTVSPropertyOp62
 70
     1
  0
XRECORD
  5
30AD
102
{ACAD_REACTORS
330
30AC
102
}
330
30AC
100
AcDbXrecord
280
     1
102
RTVSPost2010Prop28
280
     0
102
RTVSPost2010PropOp28
 70
     1
102
RTVSPost2010Prop29
280
     1
102
RTVSPost2010PropOp29
 70
     1
102
RTVSPost2010Prop30
280
     1
102
RTVSPost2010PropOp30
 70
     1
102
RTVSPost2010Prop31
280
     0
102
RTVSPost2010PropOp31
 70
     1
102
RTVSPost2010Prop32
280
     0
102
RTVSPost2010PropOp32
 70
     1
102
RTVSPost2010Prop33
280
     0
102
RTVSPost2010PropOp33
 70
     1
102
RTVSPost2010Prop34
280
     0
102
RTVSPost2010PropOp34
 70
     1
102
RTVSPost2010Prop35
280
     0
102
RTVSPost2010PropOp35
 70
     1
102
RTVSPost2010Prop36
280
     0
102
RTVSPost2010PropOp36
 70
     1
102
RTVSPost2010Prop37
 90
       50
102
RTVSPost2010PropOp37
 70
     1
102
RTVSPost2010Prop38
140
0.0
102
RTVSPost2010PropOp38
 70
     1
102
RTVSPost2010Prop39
140
1.0
102
RTVSPost2010PropOp39
 70
     1
102
RTVSPost2010Prop40
 90
        0
102
RTVSPost2010PropOp40
 70
     1
102
RTVSPost2010Prop41ColorIndex
 90
       18
102
RTVSPost2010Prop41ColorRGB
 90
        0
102
RTVSPost2010PropOp41
 70
     1
102
RTVSPost2010Prop42
 90
       50
102
RTVSPost2010PropOp42
 70
     1
102
RTVSPost2010Prop43
 90
        3
102
RTVSPost2010PropOp43
 70
     1
102
RTVSPost2010Prop44ColorIndex
 90
        5
102
RTVSPost2010Prop44ColorRGB
 90
      255
102
RTVSPost2010PropOp44
 70
     1
102
RTVSPost2010Prop45
280
     0
102
RTVSPost2010PropOp45
 70
     1
102
RTVSPost2010Prop46
 90
       50
102
RTVSPost2010PropOp46
 70
     1
102
RTVSPost2010Prop47
 90
       50
102
RTVSPost2010PropOp47
 70
     1
102
RTVSPost2010Prop48
 90
       50
102
RTVSPost2010PropOp48
 70
     1
102
RTVSPost2010Prop49
280
     0
102
RTVSPost2010PropOp49
 70
     1
102
RTVSPost2010Prop50
 90
       50
102
RTVSPost2010PropOp50
 70
     1
102
RTVSPost2010Prop51ColorIndex
 90
      256
102
RTVSPost2010Prop51ColorRGB
 90
-16777216
102
RTVSPost2010PropOp51
 70
     0
102
RTVSPost2010Prop52
140
1.0
102
RTVSPost2010PropOp52
 70
     0
102
RTVSPost2010Prop53
 90
        2
102
RTVSPost2010PropOp53
 70
     1
102
RTVSPost2010Prop54
  1
strokes_ogs.tif
102
RTVSPost2010PropOp54
 70
     1
102
RTVSPost2010Prop55
280
     0
102
RTVSPost2010PropOp55
 70
     1
102
RTVSPost2010Prop56
140
1.0
102
RTVSPost2010PropOp56
 70
     1
102
RTVSPost2010Prop57
140
1.0
102
RTVSPost2010PropOp57
 70
     1
102
RTVSPropertyOp0
 70
     1
102
RTVSPropertyOp1
 70
     1
102
RTVSPropertyOp2
 70
     1
102
RTVSPropertyOp3
 70
     1
102
RTVSPropertyOp4
 70
     1
102
RTVSPropertyOp5
 70
     1
102
RTVSPropertyOp6
 70
     1
102
RTVSPropertyOp7
 70
     1
102
RTVSPropertyOp8
 70
     1
102
RTVSPropertyOp9
 70
     1
102
RTVSPropertyOp10
 70
     1
102
RTVSPropertyOp11
 70
     1
102
RTVSPropertyOp12
 70
     1
102
RTVSPropertyOp13
 70
     1
102
RTVSPropertyOp14
 70
     1
102
RTVSPropertyOp15
 70
     1
102
RTVSPropertyOp16
 70
     1
102
RTVSPropertyOp17
 70
     1
102
RTVSPropertyOp18
 70
     1
102
RTVSPropertyOp19
 70
     1
102
RTVSPropertyOp20
 70
     1
102
RTVSPropertyOp21
 70
     1
102
RTVSPropertyOp22
 70
     1
102
RTVSPropertyOp23
 70
     1
102
RTVSPropertyOp24
 70
     1
102
RTVSPropertyOp25
 70
     1
102
RTVSPropertyOp26
 70
     1
102
RTVSPropertyOp27
 70
     1
102
RTVSPropertyOp28
 70
     1
102
RTVSPropertyOp29
 70
     1
102
RTVSPropertyOp30
 70
     1
102
RTVSPropertyOp31
 70
     1
102
RTVSPropertyOp32
 70
     1
102
RTVSPropertyOp33
 70
     1
102
RTVSPropertyOp34
 70
     1
102
RTVSPropertyOp35
 70
     1
102
RTVSPropertyOp36
 70
     1
102
RTVSPropertyOp37
 70
     1
102
RTVSPropertyOp38
 70
     1
102
RTVSPropertyOp39
 70
     1
102
RTVSPropertyOp40
 70
     1
102
RTVSPropertyOp41
 70
     1
102
RTVSPropertyOp42
 70
     1
102
RTVSPropertyOp43
 70
     1
102
RTVSPropertyOp44
 70
     1
102
RTVSPropertyOp45
 70
     1
102
RTVSPropertyOp46
 70
     1
102
RTVSPropertyOp47
 70
     1
102
RTVSPropertyOp48
 70
     1
102
RTVSPropertyOp49
 70
     1
102
RTVSPropertyOp50
 70
     1
102
RTVSPropertyOp51
 70
     0
102
RTVSPropertyOp52
 70
     0
102
RTVSPropertyOp53
 70
     1
102
RTVSPropertyOp54
 70
     1
102
RTVSPropertyOp55
 70
     1
102
RTVSPropertyOp56
 70
     1
102
RTVSPropertyOp57
 70
     1
102
RTVSPropertyOp58
 70
     1
102
RTVSPropertyOp59
 70
     1
102
RTVSPropertyOp60
 70
     1
102
RTVSPropertyOp61
 70
     1
102
RTVSPropertyOp62
 70
     1
  0
XRECORD
  5
30AF
102
{ACAD_REACTORS
330
30AE
102
}
330
30AE
100
AcDbXrecord
280
     1
102
RTVSPost2010Prop28
280
     0
102
RTVSPost2010PropOp28
 70
     1
102
RTVSPost2010Prop29
280
     1
102
RTVSPost2010PropOp29
 70
     1
102
RTVSPost2010Prop30
280
     1
102
RTVSPost2010PropOp30
 70
     1
102
RTVSPost2010Prop31
280
     0
102
RTVSPost2010PropOp31
 70
     1
102
RTVSPost2010Prop32
280
     0
102
RTVSPost2010PropOp32
 70
     1
102
RTVSPost2010Prop33
280
     0
102
RTVSPost2010PropOp33
 70
     1
102
RTVSPost2010Prop34
280
     0
102
RTVSPost2010PropOp34
 70
     1
102
RTVSPost2010Prop35
280
     0
102
RTVSPost2010PropOp35
 70
     1
102
RTVSPost2010Prop36
280
     0
102
RTVSPost2010PropOp36
 70
     1
102
RTVSPost2010Prop37
 90
       50
102
RTVSPost2010PropOp37
 70
     1
102
RTVSPost2010Prop38
140
0.0
102
RTVSPost2010PropOp38
 70
     1
102
RTVSPost2010Prop39
140
1.0
102
RTVSPost2010PropOp39
 70
     1
102
RTVSPost2010Prop40
 90
        0
102
RTVSPost2010PropOp40
 70
     1
102
RTVSPost2010Prop41ColorIndex
 90
       18
102
RTVSPost2010Prop41ColorRGB
 90
        0
102
RTVSPost2010PropOp41
 70
     1
102
RTVSPost2010Prop42
 90
       50
102
RTVSPost2010PropOp42
 70
     1
102
RTVSPost2010Prop43
 90
        3
102
RTVSPost2010PropOp43
 70
     1
102
RTVSPost2010Prop44ColorIndex
 90
        5
102
RTVSPost2010Prop44ColorRGB
 90
      255
102
RTVSPost2010PropOp44
 70
     1
102
RTVSPost2010Prop45
280
     0
102
RTVSPost2010PropOp45
 70
     1
102
RTVSPost2010Prop46
 90
       50
102
RTVSPost2010PropOp46
 70
     1
102
RTVSPost2010Prop47
 90
       50
102
RTVSPost2010PropOp47
 70
     1
102
RTVSPost2010Prop48
 90
       50
102
RTVSPost2010PropOp48
 70
     1
102
RTVSPost2010Prop49
280
     0
102
RTVSPost2010PropOp49
 70
     1
102
RTVSPost2010Prop50
 90
       50
102
RTVSPost2010PropOp50
 70
     1
102
RTVSPost2010Prop51ColorIndex
 90
      256
102
RTVSPost2010Prop51ColorRGB
 90
-16777216
102
RTVSPost2010PropOp51
 70
     0
102
RTVSPost2010Prop52
140
1.0
102
RTVSPost2010PropOp52
 70
     0
102
RTVSPost2010Prop53
 90
        2
102
RTVSPost2010PropOp53
 70
     1
102
RTVSPost2010Prop54
  1
strokes_ogs.tif
102
RTVSPost2010PropOp54
 70
     1
102
RTVSPost2010Prop55
280
     0
102
RTVSPost2010PropOp55
 70
     1
102
RTVSPost2010Prop56
140
1.0
102
RTVSPost2010PropOp56
 70
     1
102
RTVSPost2010Prop57
140
1.0
102
RTVSPost2010PropOp57
 70
     1
102
RTVSPropertyOp0
 70
     1
102
RTVSPropertyOp1
 70
     1
102
RTVSPropertyOp2
 70
     1
102
RTVSPropertyOp3
 70
     1
102
RTVSPropertyOp4
 70
     1
102
RTVSPropertyOp5
 70
     1
102
RTVSPropertyOp6
 70
     1
102
RTVSPropertyOp7
 70
     1
102
RTVSPropertyOp8
 70
     1
102
RTVSPropertyOp9
 70
     1
102
RTVSPropertyOp10
 70
     1
102
RTVSPropertyOp11
 70
     1
102
RTVSPropertyOp12
 70
     1
102
RTVSPropertyOp13
 70
     1
102
RTVSPropertyOp14
 70
     1
102
RTVSPropertyOp15
 70
     1
102
RTVSPropertyOp16
 70
     1
102
RTVSPropertyOp17
 70
     1
102
RTVSPropertyOp18
 70
     1
102
RTVSPropertyOp19
 70
     1
102
RTVSPropertyOp20
 70
     1
102
RTVSPropertyOp21
 70
     1
102
RTVSPropertyOp22
 70
     1
102
RTVSPropertyOp23
 70
     1
102
RTVSPropertyOp24
 70
     1
102
RTVSPropertyOp25
 70
     1
102
RTVSPropertyOp26
 70
     1
102
RTVSPropertyOp27
 70
     1
102
RTVSPropertyOp28
 70
     1
102
RTVSPropertyOp29
 70
     1
102
RTVSPropertyOp30
 70
     1
102
RTVSPropertyOp31
 70
     1
102
RTVSPropertyOp32
 70
     1
102
RTVSPropertyOp33
 70
     1
102
RTVSPropertyOp34
 70
     1
102
RTVSPropertyOp35
 70
     1
102
RTVSPropertyOp36
 70
     1
102
RTVSPropertyOp37
 70
     1
102
RTVSPropertyOp38
 70
     1
102
RTVSPropertyOp39
 70
     1
102
RTVSPropertyOp40
 70
     1
102
RTVSPropertyOp41
 70
     1
102
RTVSPropertyOp42
 70
     1
102
RTVSPropertyOp43
 70
     1
102
RTVSPropertyOp44
 70
     1
102
RTVSPropertyOp45
 70
     1
102
RTVSPropertyOp46
 70
     1
102
RTVSPropertyOp47
 70
     1
102
RTVSPropertyOp48
 70
     1
102
RTVSPropertyOp49
 70
     1
102
RTVSPropertyOp50
 70
     1
102
RTVSPropertyOp51
 70
     0
102
RTVSPropertyOp52
 70
     0
102
RTVSPropertyOp53
 70
     1
102
RTVSPropertyOp54
 70
     1
102
RTVSPropertyOp55
 70
     1
102
RTVSPropertyOp56
 70
     1
102
RTVSPropertyOp57
 70
     1
102
RTVSPropertyOp58
 70
     1
102
RTVSPropertyOp59
 70
     1
102
RTVSPropertyOp60
 70
     1
102
RTVSPropertyOp61
 70
     1
102
RTVSPropertyOp62
 70
     1
  0
XRECORD
  5
30A5
102
{ACAD_REACTORS
330
30A4
102
}
330
30A4
100
AcDbXrecord
280
     1
102
RTVSPost2010Prop28
280
     0
102
RTVSPost2010PropOp28
 70
     1
102
RTVSPost2010Prop29
280
     1
102
RTVSPost2010PropOp29
 70
     1
102
RTVSPost2010Prop30
280
     1
102
RTVSPost2010PropOp30
 70
     1
102
RTVSPost2010Prop31
280
     0
102
RTVSPost2010PropOp31
 70
     1
102
RTVSPost2010Prop32
280
     0
102
RTVSPost2010PropOp32
 70
     1
102
RTVSPost2010Prop33
280
     0
102
RTVSPost2010PropOp33
 70
     1
102
RTVSPost2010Prop34
280
     0
102
RTVSPost2010PropOp34
 70
     1
102
RTVSPost2010Prop35
280
     0
102
RTVSPost2010PropOp35
 70
     1
102
RTVSPost2010Prop36
280
     0
102
RTVSPost2010PropOp36
 70
     1
102
RTVSPost2010Prop37
 90
       50
102
RTVSPost2010PropOp37
 70
     1
102
RTVSPost2010Prop38
140
0.0
102
RTVSPost2010PropOp38
 70
     1
102
RTVSPost2010Prop39
140
1.0
102
RTVSPost2010PropOp39
 70
     1
102
RTVSPost2010Prop40
 90
        0
102
RTVSPost2010PropOp40
 70
     1
102
RTVSPost2010Prop41ColorIndex
 90
       18
102
RTVSPost2010Prop41ColorRGB
 90
        0
102
RTVSPost2010PropOp41
 70
     1
102
RTVSPost2010Prop42
 90
       50
102
RTVSPost2010PropOp42
 70
     1
102
RTVSPost2010Prop43
 90
        3
102
RTVSPost2010PropOp43
 70
     1
102
RTVSPost2010Prop44ColorIndex
 90
        5
102
RTVSPost2010Prop44ColorRGB
 90
      255
102
RTVSPost2010PropOp44
 70
     1
102
RTVSPost2010Prop45
280
     0
102
RTVSPost2010PropOp45
 70
     1
102
RTVSPost2010Prop46
 90
       50
102
RTVSPost2010PropOp46
 70
     1
102
RTVSPost2010Prop47
 90
       50
102
RTVSPost2010PropOp47
 70
     1
102
RTVSPost2010Prop48
 90
       50
102
RTVSPost2010PropOp48
 70
     1
102
RTVSPost2010Prop49
280
     0
102
RTVSPost2010PropOp49
 70
     1
102
RTVSPost2010Prop50
 90
       50
102
RTVSPost2010PropOp50
 70
     1
102
RTVSPost2010Prop51ColorIndex
 90
      256
102
RTVSPost2010Prop51ColorRGB
 90
-16777216
102
RTVSPost2010PropOp51
 70
     0
102
RTVSPost2010Prop52
140
1.0
102
RTVSPost2010PropOp52
 70
     0
102
RTVSPost2010Prop53
 90
        2
102
RTVSPost2010PropOp53
 70
     1
102
RTVSPost2010Prop54
  1
strokes_ogs.tif
102
RTVSPost2010PropOp54
 70
     1
102
RTVSPost2010Prop55
280
     0
102
RTVSPost2010PropOp55
 70
     1
102
RTVSPost2010Prop56
140
1.0
102
RTVSPost2010PropOp56
 70
     1
102
RTVSPost2010Prop57
140
1.0
102
RTVSPost2010PropOp57
 70
     1
102
RTVSPropertyOp0
 70
     1
102
RTVSPropertyOp1
 70
     1
102
RTVSPropertyOp2
 70
     1
102
RTVSPropertyOp3
 70
     1
102
RTVSPropertyOp4
 70
     1
102
RTVSPropertyOp5
 70
     1
102
RTVSPropertyOp6
 70
     1
102
RTVSPropertyOp7
 70
     1
102
RTVSPropertyOp8
 70
     1
102
RTVSPropertyOp9
 70
     1
102
RTVSPropertyOp10
 70
     1
102
RTVSPropertyOp11
 70
     1
102
RTVSPropertyOp12
 70
     1
102
RTVSPropertyOp13
 70
     1
102
RTVSPropertyOp14
 70
     1
102
RTVSPropertyOp15
 70
     1
102
RTVSPropertyOp16
 70
     1
102
RTVSPropertyOp17
 70
     1
102
RTVSPropertyOp18
 70
     1
102
RTVSPropertyOp19
 70
     1
102
RTVSPropertyOp20
 70
     1
102
RTVSPropertyOp21
 70
     1
102
RTVSPropertyOp22
 70
     1
102
RTVSPropertyOp23
 70
     1
102
RTVSPropertyOp24
 70
     1
102
RTVSPropertyOp25
 70
     1
102
RTVSPropertyOp26
 70
     1
102
RTVSPropertyOp27
 70
     1
102
RTVSPropertyOp28
 70
     1
102
RTVSPropertyOp29
 70
     1
102
RTVSPropertyOp30
 70
     1
102
RTVSPropertyOp31
 70
     1
102
RTVSPropertyOp32
 70
     1
102
RTVSPropertyOp33
 70
     1
102
RTVSPropertyOp34
 70
     1
102
RTVSPropertyOp35
 70
     1
102
RTVSPropertyOp36
 70
     1
102
RTVSPropertyOp37
 70
     1
102
RTVSPropertyOp38
 70
     1
102
RTVSPropertyOp39
 70
     1
102
RTVSPropertyOp40
 70
     1
102
RTVSPropertyOp41
 70
     1
102
RTVSPropertyOp42
 70
     1
102
RTVSPropertyOp43
 70
     1
102
RTVSPropertyOp44
 70
     1
102
RTVSPropertyOp45
 70
     1
102
RTVSPropertyOp46
 70
     1
102
RTVSPropertyOp47
 70
     1
102
RTVSPropertyOp48
 70
     1
102
RTVSPropertyOp49
 70
     1
102
RTVSPropertyOp50
 70
     1
102
RTVSPropertyOp51
 70
     0
102
RTVSPropertyOp52
 70
     0
102
RTVSPropertyOp53
 70
     1
102
RTVSPropertyOp54
 70
     1
102
RTVSPropertyOp55
 70
     1
102
RTVSPropertyOp56
 70
     1
102
RTVSPropertyOp57
 70
     1
102
RTVSPropertyOp58
 70
     1
102
RTVSPropertyOp59
 70
     1
102
RTVSPropertyOp60
 70
     1
102
RTVSPropertyOp61
 70
     1
102
RTVSPropertyOp62
 70
     1
  0
XRECORD
  5
3099
102
{ACAD_REACTORS
330
3098
102
}
330
3098
100
AcDbXrecord
280
     1
102
RTVSPost2010Prop28
280
     0
102
RTVSPost2010PropOp28
 70
     1
102
RTVSPost2010Prop29
280
     1
102
RTVSPost2010PropOp29
 70
     1
102
RTVSPost2010Prop30
280
     1
102
RTVSPost2010PropOp30
 70
     1
102
RTVSPost2010Prop31
280
     0
102
RTVSPost2010PropOp31
 70
     1
102
RTVSPost2010Prop32
280
     0
102
RTVSPost2010PropOp32
 70
     1
102
RTVSPost2010Prop33
280
     0
102
RTVSPost2010PropOp33
 70
     1
102
RTVSPost2010Prop34
280
     0
102
RTVSPost2010PropOp34
 70
     1
102
RTVSPost2010Prop35
280
     0
102
RTVSPost2010PropOp35
 70
     1
102
RTVSPost2010Prop36
280
     0
102
RTVSPost2010PropOp36
 70
     1
102
RTVSPost2010Prop37
 90
       50
102
RTVSPost2010PropOp37
 70
     1
102
RTVSPost2010Prop38
140
0.0
102
RTVSPost2010PropOp38
 70
     1
102
RTVSPost2010Prop39
140
1.0
102
RTVSPost2010PropOp39
 70
     1
102
RTVSPost2010Prop40
 90
        0
102
RTVSPost2010PropOp40
 70
     1
102
RTVSPost2010Prop41ColorIndex
 90
       18
102
RTVSPost2010Prop41ColorRGB
 90
        0
102
RTVSPost2010PropOp41
 70
     1
102
RTVSPost2010Prop42
 90
       50
102
RTVSPost2010PropOp42
 70
     1
102
RTVSPost2010Prop43
 90
        3
102
RTVSPost2010PropOp43
 70
     1
102
RTVSPost2010Prop44ColorIndex
 90
        5
102
RTVSPost2010Prop44ColorRGB
 90
      255
102
RTVSPost2010PropOp44
 70
     1
102
RTVSPost2010Prop45
280
     0
102
RTVSPost2010PropOp45
 70
     1
102
RTVSPost2010Prop46
 90
       50
102
RTVSPost2010PropOp46
 70
     1
102
RTVSPost2010Prop47
 90
       50
102
RTVSPost2010PropOp47
 70
     1
102
RTVSPost2010Prop48
 90
       50
102
RTVSPost2010PropOp48
 70
     1
102
RTVSPost2010Prop49
280
     0
102
RTVSPost2010PropOp49
 70
     1
102
RTVSPost2010Prop50
 90
       50
102
RTVSPost2010PropOp50
 70
     1
102
RTVSPost2010Prop51ColorIndex
 90
      256
102
RTVSPost2010Prop51ColorRGB
 90
-16777216
102
RTVSPost2010PropOp51
 70
     0
102
RTVSPost2010Prop52
140
1.0
102
RTVSPost2010PropOp52
 70
     0
102
RTVSPost2010Prop53
 90
        2
102
RTVSPost2010PropOp53
 70
     1
102
RTVSPost2010Prop54
  1
strokes_ogs.tif
102
RTVSPost2010PropOp54
 70
     1
102
RTVSPost2010Prop55
280
     0
102
RTVSPost2010PropOp55
 70
     1
102
RTVSPost2010Prop56
140
1.0
102
RTVSPost2010PropOp56
 70
     1
102
RTVSPost2010Prop57
140
1.0
102
RTVSPost2010PropOp57
 70
     1
102
RTVSPropertyOp0
 70
     1
102
RTVSPropertyOp1
 70
     1
102
RTVSPropertyOp2
 70
     1
102
RTVSPropertyOp3
 70
     1
102
RTVSPropertyOp4
 70
     1
102
RTVSPropertyOp5
 70
     1
102
RTVSPropertyOp6
 70
     1
102
RTVSPropertyOp7
 70
     1
102
RTVSPropertyOp8
 70
     1
102
RTVSPropertyOp9
 70
     1
102
RTVSPropertyOp10
 70
     1
102
RTVSPropertyOp11
 70
     1
102
RTVSPropertyOp12
 70
     1
102
RTVSPropertyOp13
 70
     1
102
RTVSPropertyOp14
 70
     1
102
RTVSPropertyOp15
 70
     1
102
RTVSPropertyOp16
 70
     1
102
RTVSPropertyOp17
 70
     1
102
RTVSPropertyOp18
 70
     1
102
RTVSPropertyOp19
 70
     1
102
RTVSPropertyOp20
 70
     1
102
RTVSPropertyOp21
 70
     1
102
RTVSPropertyOp22
 70
     1
102
RTVSPropertyOp23
 70
     1
102
RTVSPropertyOp24
 70
     1
102
RTVSPropertyOp25
 70
     1
102
RTVSPropertyOp26
 70
     1
102
RTVSPropertyOp27
 70
     1
102
RTVSPropertyOp28
 70
     1
102
RTVSPropertyOp29
 70
     1
102
RTVSPropertyOp30
 70
     1
102
RTVSPropertyOp31
 70
     1
102
RTVSPropertyOp32
 70
     1
102
RTVSPropertyOp33
 70
     1
102
RTVSPropertyOp34
 70
     1
102
RTVSPropertyOp35
 70
     1
102
RTVSPropertyOp36
 70
     1
102
RTVSPropertyOp37
 70
     1
102
RTVSPropertyOp38
 70
     1
102
RTVSPropertyOp39
 70
     1
102
RTVSPropertyOp40
 70
     1
102
RTVSPropertyOp41
 70
     1
102
RTVSPropertyOp42
 70
     1
102
RTVSPropertyOp43
 70
     1
102
RTVSPropertyOp44
 70
     1
102
RTVSPropertyOp45
 70
     1
102
RTVSPropertyOp46
 70
     1
102
RTVSPropertyOp47
 70
     1
102
RTVSPropertyOp48
 70
     1
102
RTVSPropertyOp49
 70
     1
102
RTVSPropertyOp50
 70
     1
102
RTVSPropertyOp51
 70
     0
102
RTVSPropertyOp52
 70
     0
102
RTVSPropertyOp53
 70
     1
102
RTVSPropertyOp54
 70
     1
102
RTVSPropertyOp55
 70
     1
102
RTVSPropertyOp56
 70
     1
102
RTVSPropertyOp57
 70
     1
102
RTVSPropertyOp58
 70
     1
102
RTVSPropertyOp59
 70
     1
102
RTVSPropertyOp60
 70
     1
102
RTVSPropertyOp61
 70
     1
102
RTVSPropertyOp62
 70
     1
  0
XRECORD
  5
30B1
102
{ACAD_REACTORS
330
30B0
102
}
330
30B0
100
AcDbXrecord
280
     1
102
RTVSPost2010Prop28
280
     0
102
RTVSPost2010PropOp28
 70
     1
102
RTVSPost2010Prop29
280
     1
102
RTVSPost2010PropOp29
 70
     1
102
RTVSPost2010Prop30
280
     1
102
RTVSPost2010PropOp30
 70
     1
102
RTVSPost2010Prop31
280
     0
102
RTVSPost2010PropOp31
 70
     1
102
RTVSPost2010Prop32
280
     0
102
RTVSPost2010PropOp32
 70
     1
102
RTVSPost2010Prop33
280
     0
102
RTVSPost2010PropOp33
 70
     1
102
RTVSPost2010Prop34
280
     0
102
RTVSPost2010PropOp34
 70
     1
102
RTVSPost2010Prop35
280
     0
102
RTVSPost2010PropOp35
 70
     1
102
RTVSPost2010Prop36
280
     0
102
RTVSPost2010PropOp36
 70
     1
102
RTVSPost2010Prop37
 90
       50
102
RTVSPost2010PropOp37
 70
     1
102
RTVSPost2010Prop38
140
0.0
102
RTVSPost2010PropOp38
 70
     1
102
RTVSPost2010Prop39
140
1.0
102
RTVSPost2010PropOp39
 70
     1
102
RTVSPost2010Prop40
 90
        0
102
RTVSPost2010PropOp40
 70
     1
102
RTVSPost2010Prop41ColorIndex
 90
       18
102
RTVSPost2010Prop41ColorRGB
 90
        0
102
RTVSPost2010PropOp41
 70
     1
102
RTVSPost2010Prop42
 90
       50
102
RTVSPost2010PropOp42
 70
     1
102
RTVSPost2010Prop43
 90
        3
102
RTVSPost2010PropOp43
 70
     1
102
RTVSPost2010Prop44ColorIndex
 90
        5
102
RTVSPost2010Prop44ColorRGB
 90
      255
102
RTVSPost2010PropOp44
 70
     1
102
RTVSPost2010Prop45
280
     0
102
RTVSPost2010PropOp45
 70
     1
102
RTVSPost2010Prop46
 90
       50
102
RTVSPost2010PropOp46
 70
     1
102
RTVSPost2010Prop47
 90
       50
102
RTVSPost2010PropOp47
 70
     1
102
RTVSPost2010Prop48
 90
       50
102
RTVSPost2010PropOp48
 70
     1
102
RTVSPost2010Prop49
280
     0
102
RTVSPost2010PropOp49
 70
     1
102
RTVSPost2010Prop50
 90
       50
102
RTVSPost2010PropOp50
 70
     1
102
RTVSPost2010Prop51ColorIndex
 90
      256
102
RTVSPost2010Prop51ColorRGB
 90
-16777216
102
RTVSPost2010PropOp51
 70
     0
102
RTVSPost2010Prop52
140
1.0
102
RTVSPost2010PropOp52
 70
     0
102
RTVSPost2010Prop53
 90
        2
102
RTVSPost2010PropOp53
 70
     1
102
RTVSPost2010Prop54
  1
strokes_ogs.tif
102
RTVSPost2010PropOp54
 70
     1
102
RTVSPost2010Prop55
280
     0
102
RTVSPost2010PropOp55
 70
     1
102
RTVSPost2010Prop56
140
1.0
102
RTVSPost2010PropOp56
 70
     1
102
RTVSPost2010Prop57
140
1.0
102
RTVSPost2010PropOp57
 70
     1
102
RTVSPropertyOp0
 70
     1
102
RTVSPropertyOp1
 70
     1
102
RTVSPropertyOp2
 70
     1
102
RTVSPropertyOp3
 70
     1
102
RTVSPropertyOp4
 70
     1
102
RTVSPropertyOp5
 70
     1
102
RTVSPropertyOp6
 70
     1
102
RTVSPropertyOp7
 70
     1
102
RTVSPropertyOp8
 70
     1
102
RTVSPropertyOp9
 70
     1
102
RTVSPropertyOp10
 70
     1
102
RTVSPropertyOp11
 70
     1
102
RTVSPropertyOp12
 70
     1
102
RTVSPropertyOp13
 70
     1
102
RTVSPropertyOp14
 70
     1
102
RTVSPropertyOp15
 70
     1
102
RTVSPropertyOp16
 70
     1
102
RTVSPropertyOp17
 70
     1
102
RTVSPropertyOp18
 70
     1
102
RTVSPropertyOp19
 70
     1
102
RTVSPropertyOp20
 70
     1
102
RTVSPropertyOp21
 70
     1
102
RTVSPropertyOp22
 70
     1
102
RTVSPropertyOp23
 70
     1
102
RTVSPropertyOp24
 70
     1
102
RTVSPropertyOp25
 70
     1
102
RTVSPropertyOp26
 70
     1
102
RTVSPropertyOp27
 70
     1
102
RTVSPropertyOp28
 70
     1
102
RTVSPropertyOp29
 70
     1
102
RTVSPropertyOp30
 70
     1
102
RTVSPropertyOp31
 70
     1
102
RTVSPropertyOp32
 70
     1
102
RTVSPropertyOp33
 70
     1
102
RTVSPropertyOp34
 70
     1
102
RTVSPropertyOp35
 70
     1
102
RTVSPropertyOp36
 70
     1
102
RTVSPropertyOp37
 70
     1
102
RTVSPropertyOp38
 70
     1
102
RTVSPropertyOp39
 70
     1
102
RTVSPropertyOp40
 70
     1
102
RTVSPropertyOp41
 70
     1
102
RTVSPropertyOp42
 70
     1
102
RTVSPropertyOp43
 70
     1
102
RTVSPropertyOp44
 70
     1
102
RTVSPropertyOp45
 70
     1
102
RTVSPropertyOp46
 70
     1
102
RTVSPropertyOp47
 70
     1
102
RTVSPropertyOp48
 70
     1
102
RTVSPropertyOp49
 70
     1
102
RTVSPropertyOp50
 70
     1
102
RTVSPropertyOp51
 70
     0
102
RTVSPropertyOp52
 70
     0
102
RTVSPropertyOp53
 70
     1
102
RTVSPropertyOp54
 70
     1
102
RTVSPropertyOp55
 70
     1
102
RTVSPropertyOp56
 70
     1
102
RTVSPropertyOp57
 70
     1
102
RTVSPropertyOp58
 70
     1
102
RTVSPropertyOp59
 70
     1
102
RTVSPropertyOp60
 70
     1
102
RTVSPropertyOp61
 70
     1
102
RTVSPropertyOp62
 70
     1
  0
ENDSEC
  0
EOF
