  0
SECTION
  2
HEADER
  9
$ACADVER
  1
AC1015
  9
$ACADMAINTVER
 70
    20
  9
$DWGCODEPAGE
  3
ANSI_932
  9
$INSBASE
 10
0.0
 20
0.0
 30
0.0
  9
$EXTMIN
 10
9.9999975266385
 20
10.0
 30
0.0
  9
$EXTMAX
 10
468.6058089852363
 20
330.7123256180759
 30
0.0
  9
$LIMMIN
 10
0.0000015376081137
 20
-0.0000001931532552
  9
$LIMMAX
 10
495.0000015376081
 20
341.2499998068465
  9
$ORTHOMODE
 70
     1
  9
$REGENMODE
 70
     1
  9
$FILLMODE
 70
     1
  9
$QTEXTMODE
 70
     0
  9
$MIRRTEXT
 70
     1
  9
$LTSCALE
 40
1.0
  9
$ATTMODE
 70
     1
  9
$TEXTSIZE
 40
2.5
  9
$TRACEWID
 40
1.0
  9
$TEXTSTYLE
  7
STANDARD
  9
$CLAYER
  8
0
  9
$CELTYPE
  6
BYLAYER
  9
$CECOLOR
 62
   256
  9
$CELTSCALE
 40
1.0
  9
$DISPSILH
 70
     0
  9
$DIMSCALE
 40
1.0
  9
$DIMASZ
 40
3.0
  9
$DIMEXO
 40
1.0
  9
$DIMDLI
 40
10.0
  9
$DIMRND
 40
0.0
  9
$DIMDLE
 40
0.0
  9
$DIMEXE
 40
1.0
  9
$DIMTP
 40
0.0
  9
$DIMTM
 40
0.0
  9
$DIMTXT
 40
3.2
  9
$DIMCEN
 40
0.0
  9
$DIMTSZ
 40
0.0
  9
$DIMTOL
 70
     0
  9
$DIMLIM
 70
     0
  9
$DIMTIH
 70
     0
  9
$DIMTOH
 70
     0
  9
$DIMSE1
 70
     0
  9
$DIMSE2
 70
     0
  9
$DIMTAD
 70
     3
  9
$DIMZIN
 70
     8
  9
$DIMBLK
  1

  9
$DIMASO
 70
     1
  9
$DIMSHO
 70
     1
  9
$DIMPOST
  1

  9
$DIMAPOST
  1

  9
$DIMALT
 70
     0
  9
$DIMALTD
 70
     2
  9
$DIMALTF
 40
25.4
  9
$DIMLFAC
 40
1.0
  9
$DIMTOFL
 70
     1
  9
$DIMTVP
 40
0.0
  9
$DIMTIX
 70
     0
  9
$DIMSOXD
 70
     0
  9
$DIMSAH
 70
     1
  9
$DIMBLK1
  1
OPEN
  9
$DIMBLK2
  1
OPEN
  9
$DIMSTYLE
  2
STANDARD
  9
$DIMCLRD
 70
     0
  9
$DIMCLRE
 70
     0
  9
$DIMCLRT
 70
     0
  9
$DIMTFAC
 40
1.0
  9
$DIMGAP
 40
1.0
  9
$DIMJUST
 70
     0
  9
$DIMSD1
 70
     0
  9
$DIMSD2
 70
     0
  9
$DIMTOLJ
 70
     1
  9
$DIMTZIN
 70
     0
  9
$DIMALTZ
 70
     0
  9
$DIMALTTZ
 70
     0
  9
$DIMUPT
 70
     0
  9
$DIMDEC
 70
     4
  9
$DIMTDEC
 70
     4
  9
$DIMALTU
 70
     2
  9
$DIMALTTD
 70
     2
  9
$DIMTXSTY
  7
STANDARD
  9
$DIMAUNIT
 70
     0
  9
$DIMADEC
 70
     0
  9
$DIMALTRND
 40
0.0
  9
$DIMAZIN
 70
     0
  9
$DIMDSEP
 70
    46
  9
$DIMATFIT
 70
     3
  9
$DIMFRAC
 70
     0
  9
$DIMLDRBLK
  1
OPEN
  9
$DIMLUNIT
 70
     2
  9
$DIMLWD
 70
    -2
  9
$DIMLWE
 70
    -2
  9
$DIMTMOVE
 70
     0
  9
$LUNITS
 70
     2
  9
$LUPREC
 70
     4
  9
$SKETCHINC
 40
1.0
  9
$FILLETRAD
 40
0.0
  9
$AUNITS
 70
     0
  9
$AUPREC
 70
     0
  9
$MENU
  1
.
  9
$ELEVATION
 40
0.0
  9
$PELEVATION
 40
0.0
  9
$THICKNESS
 40
0.0
  9
$LIMCHECK
 70
     0
  9
$CHAMFERA
 40
10.0
  9
$CHAMFERB
 40
10.0
  9
$CHAMFERC
 40
20.0
  9
$CHAMFERD
 40
0.0
  9
$SKPOLY
 70
     0
  9
$TDCREATE
 40
2454154.380866608
  9
$TDUCREATE
 40
2454154.005866609
  9
$TDUPDATE
 40
2457192.643719039
  9
$TDUUPDATE
 40
2457192.268719039
  9
$TDINDWG
 40
0.1941215972
  9
$TDUSRTIMER
 40
0.1941214120
  9
$USRTIMER
 70
     1
  9
$ANGBASE
 50
0.0
  9
$ANGDIR
 70
     0
  9
$PDMODE
 70
     0
  9
$PDSIZE
 40
0.0
  9
$PLINEWID
 40
0.0
  9
$SPLFRAME
 70
     0
  9
$SPLINETYPE
 70
     6
  9
$SPLINESEGS
 70
     8
  9
$HANDSEED
  5
18C4
  9
$SURFTAB1
 70
     6
  9
$SURFTAB2
 70
     6
  9
$SURFTYPE
 70
     6
  9
$SURFU
 70
     6
  9
$SURFV
 70
     6
  9
$UCSBASE
  2

  9
$UCSNAME
  2

  9
$UCSORG
 10
0.0
 20
0.0
 30
0.0
  9
$UCSXDIR
 10
1.0
 20
0.0
 30
0.0
  9
$UCSYDIR
 10
0.0
 20
1.0
 30
0.0
  9
$UCSORTHOREF
  2

  9
$UCSORTHOVIEW
 70
     0
  9
$UCSORGTOP
 10
0.0
 20
0.0
 30
0.0
  9
$UCSORGBOTTOM
 10
0.0
 20
0.0
 30
0.0
  9
$UCSORGLEFT
 10
0.0
 20
0.0
 30
0.0
  9
$UCSORGRIGHT
 10
0.0
 20
0.0
 30
0.0
  9
$UCSORGFRONT
 10
0.0
 20
0.0
 30
0.0
  9
$UCSORGBACK
 10
0.0
 20
0.0
 30
0.0
  9
$PUCSBASE
  2

  9
$PUCSNAME
  2

  9
$PUCSORG
 10
0.0
 20
0.0
 30
0.0
  9
$PUCSXDIR
 10
1.0
 20
0.0
 30
0.0
  9
$PUCSYDIR
 10
0.0
 20
1.0
 30
0.0
  9
$PUCSORTHOREF
  2

  9
$PUCSORTHOVIEW
 70
     0
  9
$PUCSORGTOP
 10
0.0
 20
0.0
 30
0.0
  9
$PUCSORGBOTTOM
 10
0.0
 20
0.0
 30
0.0
  9
$PUCSORGLEFT
 10
0.0
 20
0.0
 30
0.0
  9
$PUCSORGRIGHT
 10
0.0
 20
0.0
 30
0.0
  9
$PUCSORGFRONT
 10
0.0
 20
0.0
 30
0.0
  9
$PUCSORGBACK
 10
0.0
 20
0.0
 30
0.0
  9
$USERI1
 70
     0
  9
$USERI2
 70
     0
  9
$USERI3
 70
     0
  9
$USERI4
 70
     0
  9
$USERI5
 70
     0
  9
$USERR1
 40
0.0
  9
$USERR2
 40
0.0
  9
$USERR3
 40
0.0
  9
$USERR4
 40
0.0
  9
$USERR5
 40
0.0
  9
$WORLDVIEW
 70
     1
  9
$SHADEDGE
 70
     3
  9
$SHADEDIF
 70
    70
  9
$TILEMODE
 70
     1
  9
$MAXACTVP
 70
    48
  9
$PINSBASE
 10
0.0
 20
0.0
 30
0.0
  9
$PLIMCHECK
 70
     0
  9
$PEXTMIN
 10
1.000000000000000E+20
 20
1.000000000000000E+20
 30
1.000000000000000E+20
  9
$PEXTMAX
 10
-1.000000000000000E+20
 20
-1.000000000000000E+20
 30
-1.000000000000000E+20
  9
$PLIMMIN
 10
0.0
 20
0.0
  9
$PLIMMAX
 10
420.0
 20
297.0
  9
$UNITMODE
 70
     0
  9
$VISRETAIN
 70
     1
  9
$PLINEGEN
 70
     0
  9
$PSLTSCALE
 70
     1
  9
$TREEDEPTH
 70
  3020
  9
$CMLSTYLE
  2
STANDARD
  9
$CMLJUST
 70
     0
  9
$CMLSCALE
 40
20.0
  9
$PROXYGRAPHICS
 70
     1
  9
$MEASUREMENT
 70
     0
  9
$CELWEIGHT
370
    -1
  9
$ENDCAPS
280
     0
  9
$JOINSTYLE
280
     0
  9
$LWDISPLAY
290
     0
  9
$INSUNITS
 70
     0
  9
$HYPERLINKBASE
  1

  9
$STYLESHEET
  1

  9
$XEDIT
290
     1
  9
$CEPSNTYPE
380
     0
  9
$PSTYLEMODE
290
     1
  9
$FINGERPRINTGUID
  2
{9A56CB91-F386-461F-937B-E5D841289DA3}
  9
$VERSIONGUID
  2
{A453957A-03DC-4FD3-959E-C20DB78EDFB6}
  9
$EXTNAMES
290
     1
  9
$PSVPSCALE
 40
0.0
  9
$OLESTARTUP
290
     0
  0
ENDSEC
  0
SECTION
  2
CLASSES
  0
CLASS
  1
ACDBDICTIONARYWDFLT
  2
AcDbDictionaryWithDefault
  3
ObjectDBX Classes
 90
        0
280
     0
281
     0
  0
CLASS
  1
ACDBPLACEHOLDER
  2
AcDbPlaceHolder
  3
ObjectDBX Classes
 90
        0
280
     0
281
     0
  0
CLASS
  1
LAYOUT
  2
AcDbLayout
  3
ObjectDBX Classes
 90
        0
280
     0
281
     0
  0
CLASS
  1
DICTIONARYVAR
  2
AcDbDictionaryVar
  3
ObjectDBX Classes
 90
        0
280
     0
281
     0
  0
CLASS
  1
MATERIAL
  2
AcDbMaterial
  3
ObjectDBX Classes
 90
     1153
280
     0
281
     0
  0
CLASS
  1
VISUALSTYLE
  2
AcDbVisualStyle
  3
ObjectDBX Classes
 90
     4095
280
     0
281
     0
  0
CLASS
  1
TABLESTYLE
  2
AcDbTableStyle
  3
ObjectDBX Classes
 90
     4095
280
     0
281
     0
  0
CLASS
  1
SCALE
  2
AcDbScale
  3
ObjectDBX Classes
 90
     1153
280
     0
281
     0
  0
CLASS
  1
MLEADERSTYLE
  2
AcDbMLeaderStyle
  3
ACDB_MLEADERSTYLE_CLASS
 90
     4095
280
     0
281
     0
  0
CLASS
  1
ACDBSECTIONVIEWSTYLE
  2
AcDbSectionViewStyle
  3
ObjectDBX Classes
 90
     1025
280
     0
281
     0
  0
CLASS
  1
ACDBDETAILVIEWSTYLE
  2
AcDbDetailViewStyle
  3
ObjectDBX Classes
 90
     1025
280
     0
281
     0
  0
CLASS
  1
CELLSTYLEMAP
  2
AcDbCellStyleMap
  3
ObjectDBX Classes
 90
     1152
280
     0
281
     0
  0
ENDSEC
  0
SECTION
  2
TABLES
  0
TABLE
  2
VPORT
  5
8
330
0
100
AcDbSymbolTable
 70
     1
  0
VPORT
  5
180E
330
8
100
AcDbSymbolTableRecord
100
AcDbViewportTableRecord
  2
*ACTIVE
 70
     0
 10
0.0
 20
0.0
 11
1.0
 21
1.0
 12
372.1507217243319
 22
170.3516298582651
 13
0.0
 23
0.0
 14
10.0
 24
10.0
 15
10.0
 25
10.0
 16
0.0
 26
0.0
 36
1.0
 17
0.0
 27
0.0
 37
0.0
 40
323.2110261590609
 41
1.899603698811096
 42
50.0
 43
0.0
 44
0.0
 50
0.0
 51
0.0
 71
     0
 72
   100
 73
     1
 74
     0
 75
     0
 76
     0
 77
     0
 78
     0
281
     0
 65
     1
110
0.0
120
0.0
130
0.0
111
1.0
121
0.0
131
0.0
112
0.0
122
1.0
132
0.0
 79
     0
146
0.0
1001
ACAD_NAV_VCDISPLAY
1070
     3
  0
ENDTAB
  0
TABLE
  2
LTYPE
  5
5
330
0
100
AcDbSymbolTable
 70
     4
  0
LTYPE
  5
12
330
5
100
AcDbSymbolTableRecord
100
AcDbLinetypeTableRecord
  2
BYBLOCK
 70
     0
  3

 72
    65
 73
     0
 40
0.0
  0
LTYPE
  5
13
330
5
100
AcDbSymbolTableRecord
100
AcDbLinetypeTableRecord
  2
BYLAYER
 70
     0
  3

 72
    65
 73
     0
 40
0.0
  0
LTYPE
  5
14
330
5
100
AcDbSymbolTableRecord
100
AcDbLinetypeTableRecord
  2
CONTINUOUS
 70
     0
  3
Solid line
 72
    65
 73
     0
 40
0.0
  0
LTYPE
  5
4B
330
5
100
AcDbSymbolTableRecord
100
AcDbLinetypeTableRecord
  2
DASHED
 70
     0
  3
Dashed __ __ __ __ __ __ __ __ __ __ __ __ __ _
 72
    65
 73
     2
 40
19.04999999999999
 49
12.7
 74
     0
 49
-6.349999999999998
 74
     0
  0
LTYPE
  5
4C
330
5
100
AcDbSymbolTableRecord
100
AcDbLinetypeTableRecord
  2
CENTER
 70
     0
  3
Center ____ _ ____ _ ____ _ ____ _ ____ _ ____
 72
    65
 73
     4
 40
50.8
 49
31.75
 74
     0
 49
-6.349999999999998
 74
     0
 49
6.349999999999998
 74
     0
 49
-6.349999999999998
 74
     0
  0
LTYPE
  5
4D
330
5
100
AcDbSymbolTableRecord
100
AcDbLinetypeTableRecord
  2
PHANTOM
 70
     0
  3
Phantom ______  __  __  ______  __  __  ______
 72
    65
 73
     6
 40
63.5
 49
31.75
 74
     0
 49
-6.349999999999998
 74
     0
 49
6.349999999999998
 74
     0
 49
-6.349999999999998
 74
     0
 49
6.349999999999998
 74
     0
 49
-6.349999999999998
 74
     0
  0
ENDTAB
  0
TABLE
  2
LAYER
  5
2
330
0
100
AcDbSymbolTable
 70
     8
  0
LAYER
  5
E
102
{ACAD_XDICTIONARY
360
1868
102
}
330
2
100
AcDbSymbolTableRecord
100
AcDbLayerTableRecord
  2
0
 70
     0
 62
     7
  6
CONTINUOUS
370
    -3
390
1817
  0
LAYER
  5
4E
102
{ACAD_XDICTIONARY
360
186A
102
}
330
2
100
AcDbSymbolTableRecord
100
AcDbLayerTableRecord
  2
4
 70
     0
 62
     1
  6
CENTER
370
    -3
390
1817
  0
LAYER
  5
4F
102
{ACAD_XDICTIONARY
360
186C
102
}
330
2
100
AcDbSymbolTableRecord
100
AcDbLayerTableRecord
  2
5
 70
     0
 62
     6
  6
PHANTOM
370
    -3
390
1817
  0
LAYER
  5
50
102
{ACAD_XDICTIONARY
360
186E
102
}
330
2
100
AcDbSymbolTableRecord
100
AcDbLayerTableRecord
  2
1
 70
     0
 62
     7
  6
CONTINUOUS
370
    -3
390
1817
  0
LAYER
  5
51
102
{ACAD_XDICTIONARY
360
1870
102
}
330
2
100
AcDbSymbolTableRecord
100
AcDbLayerTableRecord
  2
2
 70
     0
 62
     4
  6
CONTINUOUS
370
    -3
390
1817
  0
LAYER
  5
52
102
{ACAD_XDICTIONARY
360
1872
102
}
330
2
100
AcDbSymbolTableRecord
100
AcDbLayerTableRecord
  2
3
 70
     0
 62
     2
  6
DASHED
370
    -3
390
1817
  0
LAYER
  5
53
102
{ACAD_XDICTIONARY
360
1874
102
}
330
2
100
AcDbSymbolTableRecord
100
AcDbLayerTableRecord
  2
6
 70
     0
 62
     5
  6
CONTINUOUS
370
    -3
390
1817
  0
LAYER
  5
54
102
{ACAD_XDICTIONARY
360
1876
102
}
330
2
100
AcDbSymbolTableRecord
100
AcDbLayerTableRecord
  2
7
 70
     0
 62
     3
  6
CONTINUOUS
370
    -3
390
1817
  0
ENDTAB
  0
TABLE
  2
STYLE
  5
3
330
0
100
AcDbSymbolTable
 70
     1
  0
STYLE
  5
F
330
3
100
AcDbSymbolTableRecord
100
AcDbTextStyleTableRecord
  2
STANDARD
 70
     0
 40
0.0
 41
1.0
 50
0.0
 71
     0
 42
2.5
  3
simplex.shx
  4

  0
ENDTAB
  0
TABLE
  2
VIEW
  5
6
330
0
100
AcDbSymbolTable
 70
     0
  0
ENDTAB
  0
TABLE
  2
UCS
  5
7
330
0
100
AcDbSymbolTable
 70
     0
  0
ENDTAB
  0
TABLE
  2
APPID
  5
9
330
0
100
AcDbSymbolTable
 70
     7
  0
APPID
  5
10
330
9
100
AcDbSymbolTableRecord
100
AcDbRegAppTableRecord
  2
ACAD
 70
     0
  0
APPID
  5
3E
330
9
100
AcDbSymbolTableRecord
100
AcDbRegAppTableRecord
  2
CONTENTTABDATA
 70
     0
  0
APPID
  5
3F
330
9
100
AcDbSymbolTableRecord
100
AcDbRegAppTableRecord
  2
CONTENTCURRENTTAB
 70
     0
  0
APPID
  5
632
330
9
100
AcDbSymbolTableRecord
100
AcDbRegAppTableRecord
  2
CONTENTBLOCKICON
 70
     0
  0
APPID
  5
633
330
9
100
AcDbSymbolTableRecord
100
AcDbRegAppTableRecord
  2
CONTENTBLOCKDESCRIPTION
 70
     0
  0
APPID
  5
1882
330
9
100
AcDbSymbolTableRecord
100
AcDbRegAppTableRecord
  2
ACAD_NAV_VCDISPLAY
 70
     0
  0
APPID
  5
18BB
330
9
100
AcDbSymbolTableRecord
100
AcDbRegAppTableRecord
  2
ACAD_MLEADERVER
 70
     0
  0
ENDTAB
  0
TABLE
  2
DIMSTYLE
  5
A
330
0
100
AcDbSymbolTable
 70
     1
100
AcDbDimStyleTable
 71
     0
  0
DIMSTYLE
105
1D
330
A
100
AcDbSymbolTableRecord
100
AcDbDimStyleTableRecord
  2
STANDARD
 70
     0
 41
3.0
 42
1.0
 43
10.0
 44
1.0
 73
     0
 74
     0
 77
     3
 78
     8
140
3.2
141
0.0
147
1.0
172
     1
173
     1
340
F
341
2E
343
2E
344
2E
  0
ENDTAB
  0
TABLE
  2
BLOCK_RECORD
  5
1
330
0
100
AcDbSymbolTable
 70
     1
  0
BLOCK_RECORD
  5
18
102
{ACAD_XDICTIONARY
360
1811
102
}
330
1
100
AcDbSymbolTableRecord
100
AcDbBlockTableRecord
  2
*MODEL_SPACE
340
1865
  0
BLOCK_RECORD
  5
15
102
{ACAD_XDICTIONARY
360
180F
102
}
330
1
100
AcDbSymbolTableRecord
100
AcDbBlockTableRecord
  2
*PAPER_SPACE
340
1866
  0
BLOCK_RECORD
  5
2E
330
1
100
AcDbSymbolTableRecord
100
AcDbBlockTableRecord
  2
_OPEN
340
0
  0
ENDTAB
  0
ENDSEC
  0
SECTION
  2
BLOCKS
  0
BLOCK
  5
19
330
18
100
AcDbEntity
  8
0
100
AcDbBlockBegin
  2
*MODEL_SPACE
 70
     0
 10
0.0
 20
0.0
 30
0.0
  3
*MODEL_SPACE
  1

  0
ENDBLK
  5
1A
330
18
100
AcDbEntity
  8
0
100
AcDbBlockEnd
  0
BLOCK
  5
16
330
15
100
AcDbEntity
 67
     1
  8
0
100
AcDbBlockBegin
  2
*PAPER_SPACE
 70
     0
 10
0.0
 20
0.0
 30
0.0
  3
*PAPER_SPACE
  1

  0
ENDBLK
  5
17
330
15
100
AcDbEntity
 67
     1
  8
0
100
AcDbBlockEnd
  0
BLOCK
  5
2F
330
2E
100
AcDbEntity
  8
0
100
AcDbBlockBegin
  2
_OPEN
 70
     0
 10
0.0
 20
0.0
 30
0.0
  3
_OPEN
  1

  0
LINE
  5
30
330
2E
100
AcDbEntity
  8
0
  6
ByBlock
 62
     0
100
AcDbLine
 10
-1.0
 20
0.1666666666666666
 30
0.0
 11
0.0
 21
0.0
 31
0.0
  0
LINE
  5
31
330
2E
100
AcDbEntity
  8
0
  6
ByBlock
 62
     0
100
AcDbLine
 10
0.0
 20
0.0
 30
0.0
 11
-1.0
 21
-0.1666666666666666
 31
0.0
  0
LINE
  5
32
330
2E
100
AcDbEntity
  8
0
  6
ByBlock
 62
     0
100
AcDbLine
 10
0.0
 20
0.0
 30
0.0
 11
-1.0
 21
0.0
 31
0.0
  0
ENDBLK
  5
33
330
2E
100
AcDbEntity
  8
0
100
AcDbBlockEnd
  0
ENDSEC
  0
SECTION
  2
ENTITIES
  0
TEXT
  5
63
330
18
100
AcDbEntity
  8
4
  6
CENTER
 48
0.25
100
AcDbText
 10
23.97950852663849
 20
10.0
 30
0.0
 40
1.399999999999999
  1
4
100
AcDbText
  0
TEXT
  5
64
330
18
100
AcDbEntity
  8
7
  6
Continuous
 48
0.25
100
AcDbText
 10
9.999997526638502
 20
26.0000007607689
 30
0.0
 40
3.0
  1
CODE No.13296
100
AcDbText
  0
TEXT
  5
65
330
18
100
AcDbEntity
  8
7
  6
Continuous
 48
0.25
100
AcDbText
 10
9.999997526638502
 20
18.00000076076889
 30
0.0
 40
3.0
  1
TYPE No.THA-507
100
AcDbText
  0
TEXT
  5
66
330
18
100
AcDbEntity
  8
1
  6
Continuous
 48
0.25
100
AcDbText
 10
9.999997526638502
 20
10.00000076076889
 30
0.0
 40
1.399999999999999
  1
LAYER
100
AcDbText
  0
TEXT
  5
67
330
18
100
AcDbEntity
  8
2
  6
Continuous
 48
0.25
100
AcDbText
 10
19.9795085266385
 20
10.0
 30
0.0
 40
1.399999999999999
  1
2
100
AcDbText
  0
TEXT
  5
68
330
18
100
AcDbEntity
  8
3
  6
DASHED
 48
0.25
100
AcDbText
 10
21.97950852663851
 20
10.0
 30
0.0
 40
1.399999999999999
  1
3
100
AcDbText
  0
TEXT
  5
69
330
18
100
AcDbEntity
  8
1
  6
Continuous
 48
0.25
100
AcDbText
 10
17.9795085266385
 20
10.0
 30
0.0
 40
1.399999999999999
  1
1
100
AcDbText
  0
TEXT
  5
6A
330
18
100
AcDbEntity
  8
5
  6
PHANTOM
 48
0.25
100
AcDbText
 10
25.97950852663851
 20
10.0
 30
0.0
 40
1.399999999999999
  1
5
100
AcDbText
  0
TEXT
  5
6B
330
18
100
AcDbEntity
  8
6
  6
Continuous
 48
0.25
100
AcDbText
 10
27.9795085266385
 20
10.0
 30
0.0
 40
1.399999999999999
  1
6
100
AcDbText
  0
TEXT
  5
6C
330
18
100
AcDbEntity
  8
7
  6
Continuous
 48
0.25
100
AcDbText
 10
29.9795085266385
 20
10.0
 30
0.0
 40
1.399999999999999
  1
7
100
AcDbText
  0
LINE
  5
253
330
18
100
AcDbEntity
  8
4
  6
CENTER
 48
0.1
100
AcDbLine
 10
25.16280289631967
 20
295.2123256182143
 30
0.0
 11
34.16280289631967
 21
295.2123256182143
 31
0.0
  0
CIRCLE
  5
254
330
18
100
AcDbEntity
  8
1
  6
Continuous
100
AcDbCircle
 10
29.66280289631966
 20
295.2123256182143
 30
0.0
 40
2.25
  0
LINE
  5
255
330
18
100
AcDbEntity
  8
1
  6
Continuous
100
AcDbLine
 10
336.8885620161017
 20
148.8012462799772
 30
0.0
 11
336.8885620161017
 21
158.8012462799772
 31
0.0
  0
LINE
  5
256
330
18
100
AcDbEntity
  8
1
  6
Continuous
100
AcDbLine
 10
322.8885620161018
 20
158.8012462799772
 30
0.0
 11
336.8885620161017
 21
158.8012462799772
 31
0.0
  0
LINE
  5
257
330
18
100
AcDbEntity
  8
1
  6
Continuous
100
AcDbLine
 10
322.8885620161018
 20
158.8012462799772
 30
0.0
 11
322.8885620161018
 21
148.8012462799772
 31
0.0
  0
LINE
  5
258
330
18
100
AcDbEntity
  8
1
  6
Continuous
100
AcDbLine
 10
322.8885620161018
 20
148.8012462799772
 30
0.0
 11
336.8885620161017
 21
148.8012462799772
 31
0.0
  0
ARC
  5
259
330
18
100
AcDbEntity
  8
5
  6
PHANTOM
 48
0.3
100
AcDbCircle
 10
132.6947014721242
 20
156.4844306798023
 30
0.0
 40
1.0
100
AcDbArc
 50
269.4270040008065
 51
314.9999999999997
  0
ARC
  5
25A
330
18
100
AcDbEntity
  8
5
  6
PHANTOM
 48
0.3
100
AcDbCircle
 10
132.6446989716867
 20
151.484680711059
 30
0.0
 40
3.999999999999963
100
AcDbArc
 50
89.42700400080608
 51
134.9999999999997
  0
LINE
  5
25B
330
18
100
AcDbEntity
  8
5
  6
PHANTOM
 48
0.3
100
AcDbLine
 10
129.8162718469405
 20
154.3131078358051
 30
0.0
 11
126.9878447221943
 21
151.4846807110588
 31
0.0
  0
ARC
  5
25C
330
18
100
AcDbEntity
  8
5
  6
PHANTOM
 48
0.3
100
AcDbCircle
 10
126.2807379410077
 20
152.1917874922453
 30
0.0
 40
1.0
100
AcDbArc
 50
225.0000000000003
 51
314.9999999999997
  0
LINE
  5
25D
330
18
100
AcDbEntity
  8
5
  6
PHANTOM
 48
0.3
100
AcDbLine
 10
125.2501810532279
 20
151.8081308176521
 30
0.0
 11
125.5736311598211
 21
151.4846807110588
 31
0.0
  0
ARC
  5
25E
330
18
100
AcDbEntity
  8
5
  6
PHANTOM
 48
0.3
100
AcDbCircle
 10
125.9572878344146
 20
152.5152375988385
 30
0.0
 40
1.0
100
AcDbArc
 50
151.6015495990209
 51
225.0000000000003
  0
ARC
  5
25F
330
18
100
AcDbEntity
  8
5
  6
PHANTOM
 48
0.3
100
AcDbCircle
 10
169.0606982027942
 20
129.2108171036822
 30
0.0
 40
50.0
100
AcDbArc
 50
134.9999999999997
 51
151.60154959902
  0
LINE
  5
260
330
18
100
AcDbEntity
  8
1
  6
Continuous
100
AcDbLine
 10
197.1713150469667
 20
127.8719604942581
 30
0.0
 11
197.1713150469667
 21
128.769777197729
 31
0.0
  0
ARC
  5
261
330
18
100
AcDbEntity
  8
1
  6
Continuous
100
AcDbCircle
 10
196.1713150469667
 20
127.8719604942581
 30
0.0
 40
1.0
100
AcDbArc
 50
314.4270040008066
 51
0.0
  0
ARC
  5
262
330
18
100
AcDbEntity
  8
1
  6
Continuous
100
AcDbCircle
 10
194.6713150469667
 20
120.3012462799866
 30
0.0
 40
1.0
100
AcDbArc
 50
270.0
 51
0.0
  0
LINE
  5
263
330
18
100
AcDbEntity
  8
1
  6
Continuous
100
AcDbLine
 10
195.6713150469667
 20
124.3012462799867
 30
0.0
 11
195.6713150469667
 21
120.3012462799866
 31
0.0
  0
ARC
  5
264
330
18
100
AcDbEntity
  8
1
  6
Continuous
100
AcDbCircle
 10
194.2138875194717
 20
120.3012462799866
 30
0.0
 40
1.0
100
AcDbArc
 50
196.6015495990206
 51
270.0
  0
ARC
  5
265
330
18
100
AcDbEntity
  8
1
  6
Continuous
100
AcDbCircle
 10
241.1713150469672
 20
134.3012462799866
 30
0.0
 40
50.0
100
AcDbArc
 50
180.0
 51
196.6015495990206
  0
ARC
  5
266
330
18
100
AcDbEntity
  8
1
  6
Continuous
100
AcDbCircle
 10
199.6713150469667
 20
124.3012462799867
 30
0.0
 40
3.999999999999963
100
AcDbArc
 50
134.4270040008057
 51
180.0
  0
LINE
  5
267
330
18
100
AcDbEntity
  8
1
  6
Continuous
100
AcDbLine
 10
194.2138875194715
 20
119.3012462799866
 30
0.0
 11
194.6713150469667
 21
119.3012462799866
 31
0.0
  0
LINE
  5
268
330
18
100
AcDbEntity
  8
1
  6
Continuous
100
AcDbLine
 10
63.86280289631965
 20
308.2123256182142
 30
0.0
 11
53.15655191945189
 21
308.2123256182142
 31
0.0
  0
LINE
  5
269
330
18
100
AcDbEntity
  8
1
  6
Continuous
100
AcDbLine
 10
63.86280289631965
 20
319.2123256182143
 30
0.0
 11
53.16280289630736
 21
319.2123256182249
 31
0.0
  0
ARC
  5
26A
330
18
100
AcDbEntity
  8
1
  6
Continuous
100
AcDbCircle
 10
63.86280289631965
 20
308.5123256182141
 30
0.0
 40
0.3
100
AcDbArc
 50
270.0
 51
0.0
  0
ARC
  5
26B
330
18
100
AcDbEntity
  8
1
  6
Continuous
100
AcDbCircle
 10
63.86280289631965
 20
318.9123256182142
 30
0.0
 40
0.3
100
AcDbArc
 50
0.0
 51
90.0
  0
LINE
  5
26C
330
18
100
AcDbEntity
  8
1
  6
Continuous
100
AcDbLine
 10
57.76280289631968
 20
317.6123256182143
 30
0.0
 11
64.16280289631956
 21
317.6123256182143
 31
0.0
  0
LINE
  5
26D
330
18
100
AcDbEntity
  8
1
  6
Continuous
100
AcDbLine
 10
57.76280289631968
 20
317.6123256182143
 30
0.0
 11
57.76280289631968
 21
314.8123256182143
 31
0.0
  0
LINE
  5
26E
330
18
100
AcDbEntity
  8
1
  6
Continuous
100
AcDbLine
 10
60.76280289631966
 20
312.6123256182143
 30
0.0
 11
60.76280289631966
 21
309.8123256182142
 31
0.0
  0
LINE
  5
26F
330
18
100
AcDbEntity
  8
1
  6
Continuous
100
AcDbLine
 10
60.76280289631966
 20
309.8123256182142
 30
0.0
 11
64.16280289631956
 21
309.8123256182142
 31
0.0
  0
LINE
  5
270
330
18
100
AcDbEntity
  8
1
  6
Continuous
100
AcDbLine
 10
57.76280289631968
 20
314.8123256182143
 30
0.0
 11
83.12973589631965
 21
314.8123256182143
 31
0.0
  0
LINE
  5
271
330
18
100
AcDbEntity
  8
1
  6
Continuous
100
AcDbLine
 10
60.76280289631966
 20
312.6123256182143
 30
0.0
 11
83.12973589631965
 21
312.6123256182143
 31
0.0
  0
LINE
  5
272
330
18
100
AcDbEntity
  8
1
  6
Continuous
100
AcDbLine
 10
64.16280289631956
 20
310.5123256182141
 30
0.0
 11
64.16280289631956
 21
308.5123256182141
 31
0.0
  0
LINE
  5
273
330
18
100
AcDbEntity
  8
1
  6
Continuous
100
AcDbLine
 10
80.62705339631964
 20
310.5123256182141
 30
0.0
 11
64.16280289631956
 21
310.5123256182141
 31
0.0
  0
ARC
  5
274
330
18
100
AcDbEntity
  8
1
  6
Continuous
100
AcDbCircle
 10
83.66280289631957
 20
313.7123256182143
 30
0.0
 40
0.5
100
AcDbArc
 50
310.0000000000004
 51
49.9999999999996
  0
LINE
  5
275
330
18
100
AcDbEntity
  8
1
  6
Continuous
100
AcDbLine
 10
83.98419689631987
 20
313.3293031182142
 30
0.0
 11
80.62705339631975
 21
310.5123256182141
 31
0.0
  0
LINE
  5
276
330
18
100
AcDbEntity
  8
1
  6
Continuous
100
AcDbLine
 10
83.98419689631962
 20
314.0953476182141
 30
0.0
 11
80.62705339631964
 21
316.9123256182141
 31
0.0
  0
LINE
  5
277
330
18
100
AcDbEntity
  8
1
  6
Continuous
100
AcDbLine
 10
80.62705339631964
 20
316.9123256182142
 30
0.0
 11
64.16280289631956
 21
316.9123256182142
 31
0.0
  0
LINE
  5
278
330
18
100
AcDbEntity
  8
1
  6
Continuous
100
AcDbLine
 10
64.16280289631956
 20
316.9123256182142
 30
0.0
 11
64.16280289631956
 21
318.9123256182142
 31
0.0
  0
LINE
  5
279
330
18
100
AcDbEntity
  8
4
  6
CENTER
 48
0.1
100
AcDbLine
 10
29.66280289631966
 20
299.7123256182143
 30
0.0
 11
29.66280289631966
 21
290.7123256182143
 31
0.0
  0
ARC
  5
27A
330
18
100
AcDbEntity
  8
1
  6
Continuous
100
AcDbCircle
 10
40.15638077847606
 20
297.1915295488603
 30
0.0
 40
0.3
100
AcDbArc
 50
246.4382034337858
 51
49.56180985926607
  0
ARC
  5
27B
330
18
100
AcDbEntity
  8
1
  6
Continuous
100
AcDbCircle
 10
56.77326519209264
 20
335.2953085316786
 30
0.0
 40
41.86944444443866
100
AcDbArc
 50
229.5618223047828
 51
246.438203701779
  0
ARC
  5
27C
330
18
100
AcDbEntity
  8
1
  6
Continuous
100
AcDbCircle
 10
29.81019394243197
 20
303.6565444717873
 30
0.0
 40
0.3
100
AcDbArc
 50
66.43819125625997
 51
229.5618220367888
  0
ARC
  5
27D
330
18
100
AcDbEntity
  8
1
  6
Continuous
100
AcDbCircle
 10
13.19330195424416
 20
265.5527702220861
 30
0.0
 40
41.86944444443866
100
AcDbArc
 50
49.56180985926524
 51
66.43819125626179
  0
ARC
  5
27E
330
18
100
AcDbEntity
  8
1
  6
Continuous
100
AcDbCircle
 10
41.74613854640894
 20
299.7356738528056
 30
0.0
 40
0.3
100
AcDbArc
 50
246.4382034337858
 51
49.56180985926607
  0
ARC
  5
27F
330
18
100
AcDbEntity
  8
1
  6
Continuous
100
AcDbCircle
 10
58.36302296002557
 20
337.8394528356238
 30
0.0
 40
41.86944444443866
100
AcDbArc
 50
229.5618223047828
 51
246.438203701779
  0
ARC
  5
280
330
18
100
AcDbEntity
  8
1
  6
Continuous
100
AcDbCircle
 10
31.39995171036477
 20
306.2006887757324
 30
0.0
 40
0.3
100
AcDbArc
 50
66.43819125625997
 51
229.5618220367888
  0
ARC
  5
281
330
18
100
AcDbEntity
  8
1
  6
Continuous
100
AcDbCircle
 10
14.78305972217687
 20
268.0969145260312
 30
0.0
 40
41.86944444443866
100
AcDbArc
 50
49.56180985926524
 51
66.43819125626179
  0
ARC
  5
282
330
18
100
AcDbEntity
  8
1
  6
Continuous
100
AcDbCircle
 10
59.95278072795838
 20
340.383597139569
 30
0.0
 40
41.86944444443866
100
AcDbArc
 50
229.5618223047828
 51
246.438203701779
  0
ARC
  5
283
330
18
100
AcDbEntity
  8
1
  6
Continuous
100
AcDbCircle
 10
16.37281749010978
 20
270.6410588299766
 30
0.0
 40
41.86944444443866
100
AcDbArc
 50
49.56180985926524
 51
66.43819125626179
  0
ARC
  5
284
330
18
100
AcDbEntity
  8
1
  6
Continuous
100
AcDbCircle
 10
32.98970947829767
 20
308.7448330796777
 30
0.0
 40
0.3
100
AcDbArc
 50
66.43819125625997
 51
229.5618220367888
  0
ARC
  5
285
330
18
100
AcDbEntity
  8
1
  6
Continuous
100
AcDbCircle
 10
43.33589631434175
 20
302.2798181567508
 30
0.0
 40
0.3
100
AcDbArc
 50
246.4382034337858
 51
49.56180985926607
  0
LINE
  5
286
330
18
100
AcDbEntity
  8
4
  6
CENTER
 48
0.3
100
AcDbLine
 10
85.12810891740356
 20
313.7123256181208
 30
0.0
 11
21.09337751869665
 21
313.7123256181208
 31
0.0
  0
LINE
  5
287
330
18
100
AcDbEntity
  8
1
  6
Continuous
100
AcDbLine
 10
53.16280289631968
 20
308.7123256182143
 30
0.0
 11
53.16280289631968
 21
322.7123256182143
 31
0.0
  0
ARC
  5
288
330
18
100
AcDbEntity
  8
1
  6
Continuous
100
AcDbCircle
 10
51.16280289631967
 20
322.7123256182143
 30
0.0
 40
2.0
100
AcDbArc
 50
0.0
 51
90.0
  0
LINE
  5
289
330
18
100
AcDbEntity
  8
1
  6
Continuous
100
AcDbLine
 10
51.16280289631967
 20
324.7123256182143
 30
0.0
 11
43.16280289631968
 21
324.7123256182143
 31
0.0
  0
LINE
  5
28A
330
18
100
AcDbEntity
  8
1
  6
Continuous
100
AcDbLine
 10
29.16280289631966
 20
288.7123256182143
 30
0.0
 11
33.16280289631966
 21
288.7123256182143
 31
0.0
  0
LINE
  5
28B
330
18
100
AcDbEntity
  8
1
  6
Continuous
100
AcDbLine
 10
23.16280289631966
 20
304.7123256182143
 30
0.0
 11
23.16280289631964
 21
294.7123256182143
 31
0.0
  0
ARC
  5
28C
330
18
100
AcDbEntity
  8
1
  6
Continuous
100
AcDbCircle
 10
29.16280289631966
 20
294.7123256182143
 30
0.0
 40
6.0
100
AcDbArc
 50
180.0
 51
270.0
  0
ARC
  5
28D
330
18
100
AcDbEntity
  8
1
  6
Continuous
100
AcDbCircle
 10
33.16280289631966
 20
308.7123256182143
 30
0.0
 40
20.0
100
AcDbArc
 50
270.0
 51
0.0
  0
ARC
  5
28E
330
18
100
AcDbEntity
  8
1
  6
Continuous
100
AcDbCircle
 10
43.16280289631968
 20
304.7123256182143
 30
0.0
 40
20.0
100
AcDbArc
 50
90.0
 51
180.0
  0
CIRCLE
  5
291
330
18
100
AcDbEntity
  8
1
  6
Continuous
100
AcDbCircle
 10
36.09741784822654
 20
152.4012462799788
 30
0.0
 40
0.4573170000000001
  0
ARC
  5
292
330
18
100
AcDbEntity
  8
1
  6
Continuous
100
AcDbCircle
 10
36.09741784822654
 20
157.8012462799787
 30
0.0
 40
3.282525999999998
100
AcDbArc
 50
289.5790909999997
 51
70.42090899999982
  0
LINE
  5
293
330
18
100
AcDbEntity
  8
1
  6
Continuous
100
AcDbLine
 10
37.19741784822654
 20
154.3012462799787
 30
0.0
 11
34.99741784822643
 21
154.3012462799787
 31
0.0
  0
LINE
  5
294
330
18
100
AcDbEntity
  8
1
  6
Continuous
100
AcDbLine
 10
37.19741784822654
 20
161.3012462799787
 30
0.0
 11
34.99741784822655
 21
161.3012462799787
 31
0.0
  0
LINE
  5
295
330
18
100
AcDbEntity
  8
1
  6
Continuous
100
AcDbLine
 10
34.99741784822655
 20
154.3012462799787
 30
0.0
 11
34.99741784822655
 21
161.3012462799787
 31
0.0
  0
LINE
  5
296
330
18
100
AcDbEntity
  8
1
  6
Continuous
100
AcDbLine
 10
37.19741784822654
 20
154.3012462799787
 30
0.0
 11
37.19741784822654
 21
161.3012462799787
 31
0.0
  0
LINE
  5
29C
330
18
100
AcDbEntity
  8
5
  6
PHANTOM
 48
0.3
100
AcDbLine
 10
36.09741784820744
 20
209.4012462799788
 30
0.0
 11
131.7643373871332
 21
209.4012462799785
 31
0.0
  0
LINE
  5
29D
330
18
100
AcDbEntity
  8
5
  6
PHANTOM
 48
0.3
100
AcDbLine
 10
36.09741784820744
 20
228.2012462799788
 30
0.0
 11
131.7643373871331
 21
228.2012462799787
 31
0.0
  0
ARC
  5
29E
330
18
100
AcDbEntity
  8
5
  6
PHANTOM
 48
0.3
100
AcDbCircle
 10
36.09741784820741
 20
218.8012462799787
 30
0.0
 40
9.4
100
AcDbArc
 50
90.0
 51
138.7645320801537
  0
ARC
  5
2A0
330
18
100
AcDbEntity
  8
5
  6
PHANTOM
 48
0.3
100
AcDbCircle
 10
36.09741784820741
 20
218.8012462799787
 30
0.0
 40
9.4
100
AcDbArc
 50
221.1947459530559
 51
270.0
  0
LINE
  5
2A1
330
18
100
AcDbEntity
  8
1
  6
Continuous
100
AcDbLine
 10
52.09741784819009
 20
124.8012462799794
 30
0.0
 11
45.49741784822635
 21
124.8012462799758
 31
0.0
  0
LINE
  5
2A2
330
18
100
AcDbEntity
  8
1
  6
Continuous
100
AcDbLine
 10
26.69741784822639
 20
124.8012462799657
 30
0.0
 11
20.09741784819067
 21
124.8012462799622
 31
0.0
  0
LINE
  5
2A3
330
18
100
AcDbEntity
  8
4
  6
CENTER
 48
0.3
100
AcDbLine
 10
36.09741784822642
 20
116.3012462799787
 30
0.0
 11
36.09741784822642
 21
246.8012462799707
 31
0.0
  0
LINE
  5
2A4
330
18
100
AcDbEntity
  8
4
  6
CENTER
 48
0.3
100
AcDbLine
 10
16.09741784819016
 20
218.8012462799795
 30
0.0
 11
140.5974178482263
 21
218.8012462799772
 31
0.0
  0
LINE
  5
2A5
330
18
100
AcDbEntity
  8
4
  6
CENTER
 48
0.2
100
AcDbLine
 10
23.97818712779398
 20
157.8012462799787
 30
0.0
 11
48.30917792563386
 21
157.8012462799787
 31
0.0
  0
CIRCLE
  5
2AC
330
18
100
AcDbEntity
  8
1
  6
Continuous
100
AcDbCircle
 10
36.09741784822642
 20
157.8012462799787
 30
0.0
 40
7.625
  0
CIRCLE
  5
2B7
330
18
100
AcDbEntity
  8
1
  6
Continuous
100
AcDbCircle
 10
36.09741784822654
 20
157.8012462799787
 30
0.0
 40
7.7
  0
ARC
  5
2B8
330
18
100
AcDbEntity
  8
1
  6
Continuous
100
AcDbCircle
 10
38.59741784822645
 20
181.3012462798734
 30
0.0
 40
2.499999999999943
100
AcDbArc
 50
270.0
 51
90.0
  0
ARC
  5
2B9
330
18
100
AcDbEntity
  8
1
  6
Continuous
100
AcDbCircle
 10
33.59741784822637
 20
181.3012462798733
 30
0.0
 40
2.5
100
AcDbArc
 50
90.0
 51
270.0
  0
ARC
  5
2BA
330
18
100
AcDbEntity
  8
1
  6
Continuous
100
AcDbCircle
 10
38.59741784822645
 20
181.3012462798734
 30
0.0
 40
3.499999999999943
100
AcDbArc
 50
270.0
 51
90.0
  0
ARC
  5
2BB
330
18
100
AcDbEntity
  8
1
  6
Continuous
100
AcDbCircle
 10
33.59741784822637
 20
181.3012462798733
 30
0.0
 40
3.5
100
AcDbArc
 50
90.0
 51
270.0
  0
LINE
  5
2BC
330
18
100
AcDbEntity
  8
1
  6
Continuous
100
AcDbLine
 10
38.6378257960416
 20
184.8012462798734
 30
0.0
 11
33.59741784822651
 21
184.8012462798734
 31
0.0
  0
LINE
  5
2BD
330
18
100
AcDbEntity
  8
1
  6
Continuous
100
AcDbLine
 10
38.6378257960416
 20
177.8012462798735
 30
0.0
 11
33.59741784822651
 21
177.8012462798735
 31
0.0
  0
LINE
  5
2BE
330
18
100
AcDbEntity
  8
4
  6
CENTER
 48
0.2
100
AcDbLine
 10
29.09741784822653
 20
181.3012462798734
 30
0.0
 11
43.13782579604151
 21
181.3012462798734
 31
0.0
  0
LINE
  5
2BF
330
18
100
AcDbEntity
  8
1
  6
Continuous
100
AcDbLine
 10
38.59741784822645
 20
178.8012462798735
 30
0.0
 11
33.59741784822651
 21
178.8012462798735
 31
0.0
  0
LINE
  5
2C0
330
18
100
AcDbEntity
  8
1
  6
Continuous
100
AcDbLine
 10
38.59741784822645
 20
183.8012462798733
 30
0.0
 11
33.59741784822651
 21
183.8012462798733
 31
0.0
  0
ARC
  5
2C1
330
18
100
AcDbEntity
  8
1
  6
Continuous
100
AcDbCircle
 10
29.69741784822639
 20
123.1343267410718
 30
0.0
 40
3.0
100
AcDbArc
 50
180.0
 51
255.1671520791896
  0
ARC
  5
2C2
330
18
100
AcDbEntity
  8
1
  6
Continuous
100
AcDbCircle
 10
42.49741784822638
 20
123.1343267410719
 30
0.0
 40
3.0
100
AcDbArc
 50
284.8328479208102
 51
0.0
  0
ARC
  5
2C3
330
18
100
AcDbEntity
  8
1
  6
Continuous
100
AcDbCircle
 10
36.09741784822637
 20
147.3012462799787
 30
0.0
 40
28.0
100
AcDbArc
 50
255.1671520791896
 51
284.8328479208102
  0
ARC
  5
2C4
330
18
100
AcDbEntity
  8
1
  6
Continuous
100
AcDbCircle
 10
36.09741784822642
 20
218.8012462799787
 30
0.0
 40
9.4
100
AcDbArc
 50
131.1947459530564
 51
180.0
  0
ARC
  5
2C6
330
18
100
AcDbEntity
  8
1
  6
Continuous
100
AcDbCircle
 10
36.09741784822642
 20
218.8012462799787
 30
0.0
 40
9.4
100
AcDbArc
 50
0.0
 51
48.76453208015346
  0
LINE
  5
2C7
330
18
100
AcDbEntity
  8
1
  6
Continuous
100
AcDbLine
 10
45.49741784822635
 20
218.8012462799787
 30
0.0
 11
45.49741784822635
 21
123.1343267410719
 31
0.0
  0
LINE
  5
2C8
330
18
100
AcDbEntity
  8
1
  6
Continuous
100
AcDbLine
 10
26.69741784822639
 20
218.8012462799786
 30
0.0
 11
26.69741784822639
 21
123.1343267410718
 31
0.0
  0
ARC
  5
2C9
330
18
100
AcDbEntity
  8
1
  6
Continuous
100
AcDbCircle
 10
36.09741784818095
 20
107.6583891372329
 30
0.0
 40
24.14285714280063
100
AcDbArc
 50
114.2085519224961
 51
131.507791723096
  0
ARC
  5
2CA
330
18
100
AcDbEntity
  8
1
  6
Continuous
100
AcDbCircle
 10
36.09741784818095
 20
107.6583891372329
 30
0.0
 40
24.14285714280063
100
AcDbArc
 50
48.49220827684742
 51
65.79144807745606
  0
ARC
  5
2CB
330
18
100
AcDbEntity
  8
1
  6
Continuous
100
AcDbCircle
 10
36.09741784818095
 20
260.9441034227484
 30
0.0
 40
24.14285714280063
100
AcDbArc
 50
228.4922082769039
 51
311.5077917231526
  0
ARC
  5
2CC
330
18
100
AcDbEntity
  8
1
  6
Continuous
100
AcDbCircle
 10
43.99741784819013
 20
141.301246279988
 30
0.0
 40
2.0
100
AcDbArc
 50
318.5903778923084
 51
0.0
  0
ARC
  5
2CD
330
18
100
AcDbEntity
  8
1
  6
Continuous
100
AcDbCircle
 10
28.19741784819018
 20
141.3012462799902
 30
0.0
 40
2.0
100
AcDbArc
 50
180.0
 51
221.4096221108302
  0
ARC
  5
2CE
330
18
100
AcDbEntity
  8
1
  6
Continuous
100
AcDbCircle
 10
28.19741784819018
 20
177.8012462799775
 30
0.0
 40
2.0
100
AcDbArc
 50
138.590377889159
 51
180.0
  0
ARC
  5
2CF
330
18
100
AcDbEntity
  8
1
  6
Continuous
100
AcDbCircle
 10
43.99741784819013
 20
177.8012462799861
 30
0.0
 40
2.0
100
AcDbArc
 50
0.0
 51
41.4096221076981
  0
ARC
  5
2D0
330
18
100
AcDbEntity
  8
1
  6
Continuous
100
AcDbCircle
 10
20.09741784819016
 20
125.8012462799622
 30
0.0
 40
1.0
100
AcDbArc
 50
180.0
 51
270.0
  0
ARC
  5
2D1
330
18
100
AcDbEntity
  8
1
  6
Continuous
100
AcDbCircle
 10
52.09741784819016
 20
125.8012462799762
 30
0.0
 40
1.0
100
AcDbArc
 50
270.0
 51
0.0
  0
ARC
  5
2D2
330
18
100
AcDbEntity
  8
1
  6
Continuous
100
AcDbCircle
 10
52.09741784819016
 20
242.801246279976
 30
0.0
 40
1.0
100
AcDbArc
 50
0.0
 51
90.0
  0
ARC
  5
2D3
330
18
100
AcDbEntity
  8
1
  6
Continuous
100
AcDbCircle
 10
20.09741784819016
 20
242.8012462799622
 30
0.0
 40
1.0
100
AcDbArc
 50
90.0
 51
180.0
  0
ARC
  5
2D4
330
18
100
AcDbEntity
  8
1
  6
Continuous
100
AcDbCircle
 10
36.09741784818442
 20
218.8512462800447
 30
0.0
 40
9.900000000005332
100
AcDbArc
 50
341.7126811218263
 51
198.2873188797214
  0
LINE
  5
2D5
330
18
100
AcDbEntity
  8
1
  6
Continuous
100
AcDbLine
 10
45.99741784819014
 20
218.3512462800447
 30
0.0
 11
45.99741784819014
 21
124.8012462799745
 31
0.0
  0
LINE
  5
2D6
330
18
100
AcDbEntity
  8
1
  6
Continuous
100
AcDbLine
 10
26.19741784819018
 20
218.3512462800447
 30
0.0
 11
26.19741784819018
 21
124.8012462799638
 31
0.0
  0
LINE
  5
2D7
330
18
100
AcDbEntity
  8
1
  6
Continuous
100
AcDbLine
 10
52.09741784819009
 20
243.8012462799794
 30
0.0
 11
20.0974178481896
 21
243.8012462799621
 31
0.0
  0
LINE
  5
2D8
330
18
100
AcDbEntity
  8
1
  6
Continuous
100
AcDbLine
 10
53.09741784819015
 20
242.801246279976
 30
0.0
 11
53.09741784819015
 21
125.8012462799762
 31
0.0
  0
LINE
  5
2D9
330
18
100
AcDbEntity
  8
1
  6
Continuous
100
AcDbLine
 10
19.09741784819016
 20
242.8012462799622
 30
0.0
 11
19.09741784819016
 21
125.8012462799622
 31
0.0
  0
LINE
  5
2DA
330
18
100
AcDbEntity
  8
1
  6
Continuous
100
AcDbLine
 10
224.6713150470946
 20
207.3012462799884
 30
0.0
 11
224.6713150470946
 21
227.4012462800769
 31
0.0
  0
LINE
  5
2DB
330
18
100
AcDbEntity
  8
1
  6
Continuous
100
AcDbLine
 10
225.0713150470946
 20
211.801246279976
 30
0.0
 11
225.1713150470161
 21
211.8012462799761
 31
0.0
  0
LINE
  5
2DC
330
18
100
AcDbEntity
  8
1
  6
Continuous
100
AcDbLine
 10
227.1713150470137
 20
207.5512462798625
 30
0.0
 11
225.171315047163
 21
207.5512462798556
 31
0.0
  0
LINE
  5
2DD
330
18
100
AcDbEntity
  8
1
  6
Continuous
100
AcDbLine
 10
227.1713150470178
 20
214.6512462799635
 30
0.0
 11
225.1713150469343
 21
214.6512462799629
 31
0.0
  0
LINE
  5
2DE
330
18
100
AcDbEntity
  8
1
  6
Continuous
100
AcDbLine
 10
227.1713150470183
 20
213.1762462799662
 30
0.0
 11
225.1713150469347
 21
213.1762462799656
 31
0.0
  0
LINE
  5
2DF
330
18
100
AcDbEntity
  8
1
  6
Continuous
100
AcDbLine
 10
227.1713150470138
 20
228.5440320725374
 30
0.0
 11
226.8713150470137
 21
228.5440320725373
 31
0.0
  0
LINE
  5
2E0
330
18
100
AcDbEntity
  8
1
  6
Continuous
100
AcDbLine
 10
227.1713150470136
 20
228.5440320725375
 30
0.0
 11
227.1713150470136
 21
207.5512462798626
 31
0.0
  0
LINE
  5
2E1
330
18
100
AcDbEntity
  8
1
  6
Continuous
100
AcDbLine
 10
227.171315047014
 20
227.1012462799559
 30
0.0
 11
226.8713150470137
 21
227.1012462799558
 31
0.0
  0
LINE
  5
2E2
330
18
100
AcDbEntity
  8
1
  6
Continuous
100
AcDbLine
 10
225.0713150470946
 20
225.8012462799758
 30
0.0
 11
225.1713150470162
 21
225.8012462799758
 31
0.0
  0
LINE
  5
2E4
330
18
100
AcDbEntity
  8
1
  6
Continuous
100
AcDbLine
 10
225.1713150470137
 20
207.5512462798557
 30
0.0
 11
225.1713150470138
 21
226.4201725091646
 31
0.0
  0
LINE
  5
2E7
330
18
100
AcDbEntity
  8
1
  6
Continuous
100
AcDbLine
 10
225.0713150470946
 20
226.4201725091721
 30
0.0
 11
225.0713150470946
 21
209.0512462799873
 31
0.0
  0
LINE
  5
2E8
330
18
100
AcDbEntity
  8
1
  6
Continuous
100
AcDbLine
 10
230.1713150470138
 20
213.8012462799819
 30
0.0
 11
227.1713150470137
 21
213.8012462799833
 31
0.0
  0
LINE
  5
2E9
330
18
100
AcDbEntity
  8
1
  6
Continuous
100
AcDbLine
 10
230.1713150470138
 20
218.1443920305561
 30
0.0
 11
227.1713150470136
 21
218.1443920305578
 31
0.0
  0
LINE
  5
2EA
330
18
100
AcDbEntity
  8
1
  6
Continuous
100
AcDbLine
 10
230.1713150470138
 20
219.4581005294315
 30
0.0
 11
227.1713150470136
 21
219.458100529433
 31
0.0
  0
LINE
  5
2EB
330
18
100
AcDbEntity
  8
1
  6
Continuous
100
AcDbLine
 10
230.1713150470138
 20
223.8012462799836
 30
0.0
 11
227.1713150470137
 21
223.8012462799852
 31
0.0
  0
LINE
  5
2EC
330
18
100
AcDbEntity
  8
1
  6
Continuous
100
AcDbLine
 10
230.1713150470138
 20
223.801246279984
 30
0.0
 11
230.1713150470138
 21
213.8012462799823
 31
0.0
  0
LINE
  5
2EE
330
18
100
AcDbEntity
  8
1
  6
Continuous
100
AcDbLine
 10
224.6713150470948
 20
208.8012462799873
 30
0.0
 11
224.8713150470946
 21
208.8012462799873
 31
0.0
  0
ARC
  5
2EF
330
18
100
AcDbEntity
  8
1
  6
Continuous
100
AcDbCircle
 10
224.8150650470946
 20
209.0512462799874
 30
0.0
 40
0.2562500000000227
100
AcDbArc
 50
282.6803834918255
 51
0.0
  0
ARC
  5
2F0
330
18
100
AcDbEntity
  8
1
  6
Continuous
100
AcDbCircle
 10
226.6713150470946
 20
226.6201725091721
 30
0.0
 40
0.2
100
AcDbArc
 50
270.0
 51
0.0
  0
ARC
  5
2F1
330
18
100
AcDbEntity
  8
1
  6
Continuous
100
AcDbCircle
 10
226.6713150470947
 20
227.6012462800746
 30
0.0
 40
0.2
100
AcDbArc
 50
270.0
 51
0.0
  0
ARC
  5
2F2
330
18
100
AcDbEntity
  8
1
  6
Continuous
100
AcDbCircle
 10
226.6713150470947
 20
231.1012462799889
 30
0.0
 40
0.2
100
AcDbArc
 50
0.0
 51
90.0
  0
LINE
  5
2F3
330
18
100
AcDbEntity
  8
1
  6
Continuous
100
AcDbLine
 10
226.6713150470948
 20
226.4201725091719
 30
0.0
 11
224.6713150470946
 21
226.4201725091721
 31
0.0
  0
LINE
  5
2F4
330
18
100
AcDbEntity
  8
1
  6
Continuous
100
AcDbLine
 10
226.6713150470945
 20
227.4012462800746
 30
0.0
 11
224.6713150470946
 21
227.4012462800774
 31
0.0
  0
ARC
  5
2F5
330
18
100
AcDbEntity
  8
1
  6
Continuous
100
AcDbCircle
 10
223.6713150470947
 20
207.3012462799884
 30
0.0
 40
1.0
100
AcDbArc
 50
270.0
 51
0.0
  0
LINE
  5
2F6
330
18
100
AcDbEntity
  8
1
  6
Continuous
100
AcDbLine
 10
226.8713150470947
 20
231.1012462799889
 30
0.0
 11
226.8713150470947
 21
226.6201725091721
 31
0.0
  0
LINE
  5
2F7
330
18
100
AcDbEntity
  8
1
  6
Continuous
100
AcDbLine
 10
203.1713150470575
 20
137.3012462799801
 30
0.0
 11
222.1713150470232
 21
137.3012462799801
 31
0.0
  0
LINE
  5
2F8
330
18
100
AcDbEntity
  8
1
  6
Continuous
100
AcDbLine
 10
203.1713150470575
 20
243.301246279967
 30
0.0
 11
203.1713150470575
 21
125.3012462799704
 31
0.0
  0
LINE
  5
2F9
330
18
100
AcDbEntity
  8
1
  6
Continuous
100
AcDbLine
 10
203.1713150470575
 20
125.3012462799704
 30
0.0
 11
202.1713150470575
 21
125.3012462799704
 31
0.0
  0
LINE
  5
2FA
330
18
100
AcDbEntity
  8
1
  6
Continuous
100
AcDbLine
 10
203.1713150470575
 20
243.301246279967
 30
0.0
 11
202.1713150470575
 21
243.301246279967
 31
0.0
  0
LINE
  5
2FB
330
18
100
AcDbEntity
  8
5
  6
PHANTOM
 48
0.3
100
AcDbLine
 10
142.5441939083158
 20
164.9197095536208
 30
0.0
 11
143.8169861144818
 21
163.646917347454
 31
0.0
  0
LINE
  5
2FC
330
18
100
AcDbEntity
  8
5
  6
PHANTOM
 48
0.3
100
AcDbLine
 10
165.6154120393887
 20
149.807161500616
 30
0.0
 11
186.7383677324585
 21
170.9301171936598
 31
0.0
  0
LINE
  5
2FD
330
18
100
AcDbEntity
  8
1
  6
Continuous
100
AcDbLine
 10
191.1713150470133
 20
217.8508404693996
 30
0.0
 11
191.1713150469672
 21
134.3012462799866
 31
0.0
  0
ARC
  5
2FE
330
18
100
AcDbEntity
  8
1
  6
Continuous
100
AcDbCircle
 10
211.1713150470132
 20
217.8508404693888
 30
0.0
 40
20.0
100
AcDbArc
 50
159.635865193649
 51
179.9999999999682
  0
ARC
  5
2FF
330
18
100
AcDbEntity
  8
1
  6
Continuous
100
AcDbCircle
 10
198.9713150470138
 20
218.8012462799797
 30
0.0
 40
9.4
100
AcDbArc
 50
113.8444700232148
 51
121.2329290154817
  0
ARC
  5
300
330
18
100
AcDbEntity
  8
1
  6
Continuous
100
AcDbCircle
 10
196.1713150470163
 20
223.4186048322273
 30
0.0
 40
4.0
100
AcDbArc
 50
121.2329290154817
 51
159.6358651936498
  0
LINE
  5
301
330
18
100
AcDbEntity
  8
5
  6
PHANTOM
 48
0.3
100
AcDbLine
 10
186.7383677324606
 20
175.1727578807695
 30
0.0
 11
174.5761310960606
 21
187.3349945171926
 31
0.0
  0
LINE
  5
302
330
18
100
AcDbEntity
  8
5
  6
PHANTOM
 48
0.3
100
AcDbLine
 10
174.5761310960661
 20
190.1634216419325
 30
0.0
 11
192.7997421717464
 21
208.3870327176027
 31
0.0
  0
ARC
  5
303
330
18
100
AcDbEntity
  8
5
  6
PHANTOM
 48
0.3
100
AcDbCircle
 10
164.2011984770167
 20
151.2213750629902
 30
0.0
 40
2.0
100
AcDbArc
 50
242.7739968113354
 51
314.9999999999383
  0
ARC
  5
304
330
18
100
AcDbEntity
  8
5
  6
PHANTOM
 48
0.3
100
AcDbCircle
 10
198.9713150470264
 20
218.8012462799688
 30
0.0
 40
77.99999999997027
100
AcDbArc
 50
224.9999999999533
 51
242.7739968113365
  0
ARC
  5
305
330
18
100
AcDbEntity
  8
5
  6
PHANTOM
 48
0.3
100
AcDbCircle
 10
175.9903446584378
 20
188.7492080795585
 30
0.0
 40
2.0
100
AcDbArc
 50
134.9999999999533
 51
224.9999999999533
  0
ARC
  5
306
330
18
100
AcDbEntity
  8
5
  6
PHANTOM
 48
0.3
100
AcDbCircle
 10
184.6170473888981
 20
173.0514375372105
 30
0.0
 40
3.0
100
AcDbArc
 50
314.9999999999534
 51
44.99999999995337
  0
LINE
  5
307
330
18
100
AcDbEntity
  8
5
  6
PHANTOM
 48
0.3
100
AcDbLine
 10
133.4018082533082
 20
155.7773238986183
 30
0.0
 11
142.5441939083176
 21
164.9197095536192
 31
0.0
  0
LINE
  5
308
330
18
100
AcDbEntity
  8
5
  6
PHANTOM
 48
0.3
100
AcDbLine
 10
192.7838437602175
 20
223.6446407796953
 30
0.0
 11
133.7053591434668
 21
164.5661561630096
 31
0.0
  0
ARC
  5
309
330
18
100
AcDbEntity
  8
1
  6
Continuous
100
AcDbCircle
 10
207.6871040310177
 20
208.731248826389
 30
0.0
 40
1.0
100
AcDbArc
 50
315.0000000000089
 51
0.0
  0
LINE
  5
30A
330
18
100
AcDbEntity
  8
1
  6
Continuous
100
AcDbLine
 10
205.1713150469839
 20
182.8012462799802
 30
0.0
 11
205.1713150469839
 21
204.8012462799811
 31
0.0
  0
ARC
  5
30B
330
18
100
AcDbEntity
  8
1
  6
Continuous
100
AcDbCircle
 10
206.1713150469838
 20
182.8012462799827
 30
0.0
 40
1.0
100
AcDbArc
 50
180.0
 51
270.0
  0
LINE
  5
30C
330
18
100
AcDbEntity
  8
1
  6
Continuous
100
AcDbLine
 10
205.1713150469839
 20
204.8012462799811
 30
0.0
 11
208.3942108122044
 21
208.0241420452026
 31
0.0
  0
ARC
  5
30D
330
18
100
AcDbEntity
  8
1
  6
Continuous
100
AcDbCircle
 10
222.1713150470232
 20
141.30124627998
 30
0.0
 40
4.0
100
AcDbArc
 50
270.0
 51
0.0
  0
LINE
  5
30E
330
18
100
AcDbEntity
  8
1
  6
Continuous
100
AcDbLine
 10
226.1713150470233
 20
141.30124627998
 30
0.0
 11
226.1713150470233
 21
177.8012462799796
 31
0.0
  0
ARC
  5
30F
330
18
100
AcDbEntity
  8
1
  6
Continuous
100
AcDbCircle
 10
222.1713150470233
 20
177.8012462799796
 30
0.0
 40
4.0
100
AcDbArc
 50
0.0
 51
90.0
  0
LINE
  5
310
330
18
100
AcDbEntity
  8
1
  6
Continuous
100
AcDbLine
 10
222.1713150470233
 20
181.8012462799813
 30
0.0
 11
206.1713150470256
 21
181.8012462799813
 31
0.0
  0
ARC
  5
311
330
18
100
AcDbEntity
  8
1
  6
Continuous
100
AcDbCircle
 10
222.8388921100002
 20
220.7231500162506
 30
0.0
 40
32.0
100
AcDbArc
 50
134.5860766758447
 51
149.3440375942768
  0
LINE
  5
312
330
18
100
AcDbEntity
  8
1
  6
Continuous
100
AcDbLine
 10
209.271315047058
 20
181.8012462799827
 30
0.0
 11
206.1713150469838
 21
181.8012462799827
 31
0.0
  0
LINE
  5
313
330
18
100
AcDbEntity
  8
1
  6
Continuous
100
AcDbLine
 10
204.1713150470575
 20
230.3012462799821
 30
0.0
 11
204.1713150470575
 21
219.8012462800064
 31
0.0
  0
ARC
  5
314
330
18
100
AcDbEntity
  8
1
  6
Continuous
100
AcDbCircle
 10
201.0775119752527
 20
125.8012462799915
 30
0.0
 40
1.0
100
AcDbArc
 50
225.4139233241457
 51
270.0
  0
ARC
  5
315
330
18
100
AcDbEntity
  8
1
  6
Continuous
100
AcDbCircle
 10
222.8388921100044
 20
147.8793425437285
 30
0.0
 40
32.0
100
AcDbArc
 50
210.655962405708
 51
225.4139233241457
  0
ARC
  5
316
330
18
100
AcDbEntity
  8
1
  6
Continuous
100
AcDbCircle
 10
196.1713150470573
 20
132.0730041444728
 30
0.0
 40
1.0
100
AcDbArc
 50
180.0
 51
210.6559624057083
  0
LINE
  5
317
330
18
100
AcDbEntity
  8
1
  6
Continuous
100
AcDbLine
 10
195.1713150470573
 20
236.5294884155131
 30
0.0
 11
195.1713150470573
 21
132.0730041444728
 31
0.0
  0
ARC
  5
318
330
18
100
AcDbEntity
  8
1
  6
Continuous
100
AcDbCircle
 10
196.1713150470573
 20
236.5294884155131
 30
0.0
 40
1.0
100
AcDbArc
 50
149.3440375942777
 51
180.0
  0
ARC
  5
319
330
18
100
AcDbEntity
  8
1
  6
Continuous
100
AcDbCircle
 10
201.0775119752525
 20
242.8012462799914
 30
0.0
 40
1.0
100
AcDbArc
 50
90.0
 51
134.5860766758447
  0
LINE
  5
31A
330
18
100
AcDbEntity
  8
1
  6
Continuous
100
AcDbLine
 10
208.6871040310177
 20
217.8012462799914
 30
0.0
 11
208.6871040310177
 21
208.731248826389
 31
0.0
  0
LINE
  5
31B
330
18
100
AcDbEntity
  8
1
  6
Continuous
100
AcDbLine
 10
206.6713150470421
 20
135.3012462799856
 30
0.0
 11
206.6713150470421
 21
128.3012462799856
 31
0.0
  0
ARC
  5
31C
330
18
100
AcDbEntity
  8
1
  6
Continuous
100
AcDbCircle
 10
203.1713150470575
 20
230.3012462799821
 30
0.0
 40
1.0
100
AcDbArc
 50
0.0
 51
90.0
  0
LINE
  5
31D
330
18
100
AcDbEntity
  8
1
  6
Continuous
100
AcDbLine
 10
206.6713150470421
 20
240.3012462799853
 30
0.0
 11
206.6713150470421
 21
233.3012462799853
 31
0.0
  0
LINE
  5
31E
330
18
100
AcDbEntity
  8
1
  6
Continuous
100
AcDbLine
 10
202.1713150470575
 20
243.8012462799847
 30
0.0
 11
202.1713150470575
 21
124.8012462799848
 31
0.0
  0
LINE
  5
31F
330
18
100
AcDbEntity
  8
1
  6
Continuous
100
AcDbLine
 10
206.6713150470421
 20
233.3012462799853
 30
0.0
 11
203.1713150470575
 21
233.3012462799852
 31
0.0
  0
LINE
  5
320
330
18
100
AcDbEntity
  8
1
  6
Continuous
100
AcDbLine
 10
207.1713150470419
 20
233.8012462799852
 30
0.0
 11
206.6713150470419
 21
233.3012462799852
 31
0.0
  0
LINE
  5
321
330
18
100
AcDbEntity
  8
1
  6
Continuous
100
AcDbLine
 10
207.1713150470421
 20
233.8012462799853
 30
0.0
 11
207.1713150470421
 21
239.8012462799854
 31
0.0
  0
LINE
  5
322
330
18
100
AcDbEntity
  8
1
  6
Continuous
100
AcDbLine
 10
206.671315047042
 20
240.3012462799852
 30
0.0
 11
207.171315047042
 21
239.8012462799852
 31
0.0
  0
LINE
  5
323
330
18
100
AcDbEntity
  8
1
  6
Continuous
100
AcDbLine
 10
206.6713150470421
 20
240.3012462799853
 30
0.0
 11
203.1713150470575
 21
240.3012462799852
 31
0.0
  0
LINE
  5
324
330
18
100
AcDbEntity
  8
1
  6
Continuous
100
AcDbLine
 10
207.1713150470421
 20
128.8012462799856
 30
0.0
 11
206.6713150470421
 21
128.3012462799857
 31
0.0
  0
LINE
  5
325
330
18
100
AcDbEntity
  8
1
  6
Continuous
100
AcDbLine
 10
206.6713150470422
 20
135.3012462799855
 30
0.0
 11
207.1713150470421
 21
134.8012462799856
 31
0.0
  0
LINE
  5
326
330
18
100
AcDbEntity
  8
1
  6
Continuous
100
AcDbLine
 10
207.1713150470421
 20
128.8012462799856
 30
0.0
 11
207.1713150470421
 21
134.8012462799855
 31
0.0
  0
LINE
  5
327
330
18
100
AcDbEntity
  8
1
  6
Continuous
100
AcDbLine
 10
206.6713150470421
 20
135.3012462799856
 30
0.0
 11
203.1713150470575
 21
135.3012462799851
 31
0.0
  0
LINE
  5
328
330
18
100
AcDbEntity
  8
1
  6
Continuous
100
AcDbLine
 10
206.6713150470421
 20
128.3012462799856
 30
0.0
 11
203.1713150470575
 21
128.3012462799851
 31
0.0
  0
LINE
  5
329
330
18
100
AcDbEntity
  8
4
  6
CENTER
 48
0.2
100
AcDbLine
 10
210.1713150470421
 20
131.8012462799853
 30
0.0
 11
198.0183678973568
 21
131.8012462799847
 31
0.0
  0
LINE
  5
32A
330
18
100
AcDbEntity
  8
1
  6
Continuous
100
AcDbLine
 10
202.1713150470575
 20
124.8012462799848
 30
0.0
 11
201.0775119752527
 21
124.8012462799848
 31
0.0
  0
LINE
  5
32B
330
18
100
AcDbEntity
  8
4
  6
CENTER
 48
0.2
100
AcDbLine
 10
210.17131504704
 20
236.8012462799848
 30
0.0
 11
198.0183678973569
 21
236.8012462799845
 31
0.0
  0
LINE
  5
32C
330
18
100
AcDbEntity
  8
1
  6
Continuous
100
AcDbLine
 10
202.1713150470575
 20
243.8012462799847
 30
0.0
 11
201.0775119752525
 21
243.8012462799847
 31
0.0
  0
LINE
  5
32D
330
18
100
AcDbEntity
  8
1
  6
Continuous
100
AcDbLine
 10
206.6713150469854
 20
206.3012462799831
 30
0.0
 11
223.6713150470654
 21
206.3012462799867
 31
0.0
  0
LINE
  5
32E
330
18
100
AcDbEntity
  8
4
  6
CENTER
 48
0.3
100
AcDbLine
 10
192.1713150470573
 20
218.8012462799799
 30
0.0
 11
235.1713150470138
 21
218.8012462799881
 31
0.0
  0
LINE
  5
32F
330
18
100
AcDbEntity
  8
1
  6
Continuous
100
AcDbLine
 10
203.1713150470575
 20
231.3012462799822
 30
0.0
 11
226.6713150470652
 21
231.3012462799873
 31
0.0
  0
LINE
  5
330
330
18
100
AcDbEntity
  8
1
  6
Continuous
100
AcDbLine
 10
320.3885620161018
 20
137.3012462799772
 30
0.0
 11
339.3885620161016
 21
137.3012462799772
 31
0.0
  0
LINE
  5
331
330
18
100
AcDbEntity
  8
1
  6
Continuous
100
AcDbLine
 10
341.3885620161016
 20
139.3012462799773
 30
0.0
 11
341.3885620161016
 21
229.3012462799992
 31
0.0
  0
LINE
  5
332
330
18
100
AcDbEntity
  8
1
  6
Continuous
100
AcDbLine
 10
320.3885620161011
 20
231.3012462799921
 30
0.0
 11
339.3885620161011
 21
231.3012462799992
 31
0.0
  0
LINE
  5
333
330
18
100
AcDbEntity
  8
1
  6
Continuous
100
AcDbLine
 10
318.3885620161018
 20
139.3012462799773
 30
0.0
 11
318.3885620161018
 21
229.3012462799921
 31
0.0
  0
ARC
  5
334
330
18
100
AcDbEntity
  8
1
  6
Continuous
100
AcDbCircle
 10
339.3885620161016
 20
139.3012462799773
 30
0.0
 40
2.0
100
AcDbArc
 50
270.0
 51
0.0
  0
ARC
  5
335
330
18
100
AcDbEntity
  8
1
  6
Continuous
100
AcDbCircle
 10
339.3885620161016
 20
229.3012462799992
 30
0.0
 40
2.0
100
AcDbArc
 50
0.0
 51
90.0
  0
ARC
  5
336
330
18
100
AcDbEntity
  8
1
  6
Continuous
100
AcDbCircle
 10
320.3885620161016
 20
229.3012462799921
 30
0.0
 40
2.0
100
AcDbArc
 50
90.0
 51
180.0
  0
ARC
  5
337
330
18
100
AcDbEntity
  8
1
  6
Continuous
100
AcDbCircle
 10
320.3885620161018
 20
139.3012462799773
 30
0.0
 40
2.0
100
AcDbArc
 50
180.0
 51
270.0
  0
ARC
  5
338
330
18
100
AcDbEntity
  8
1
  6
Continuous
100
AcDbCircle
 10
344.3885620160655
 20
127.3012462799754
 30
0.0
 40
2.0
100
AcDbArc
 50
270.0
 51
0.0
  0
ARC
  5
339
330
18
100
AcDbEntity
  8
1
  6
Continuous
100
AcDbCircle
 10
344.3885620160655
 20
241.301246279972
 30
0.0
 40
2.0
100
AcDbArc
 50
0.0
 51
90.0
  0
ARC
  5
33A
330
18
100
AcDbEntity
  8
1
  6
Continuous
100
AcDbCircle
 10
315.3885620160655
 20
241.3012462799563
 30
0.0
 40
2.0
100
AcDbArc
 50
90.0
 51
180.0
  0
ARC
  5
33B
330
18
100
AcDbEntity
  8
1
  6
Continuous
100
AcDbCircle
 10
315.3885620160655
 20
127.3012462799598
 30
0.0
 40
2.0
100
AcDbArc
 50
180.0
 51
270.0
  0
LINE
  5
33C
330
18
100
AcDbEntity
  8
1
  6
Continuous
100
AcDbLine
 10
346.3885620160655
 20
241.301246279972
 30
0.0
 11
346.3885620160655
 21
127.3012462799754
 31
0.0
  0
LINE
  5
33D
330
18
100
AcDbEntity
  8
1
  6
Continuous
100
AcDbLine
 10
344.3885620160644
 20
243.301246279972
 30
0.0
 11
315.3885620160644
 21
243.3012462799561
 31
0.0
  0
LINE
  5
33E
330
18
100
AcDbEntity
  8
1
  6
Continuous
100
AcDbLine
 10
313.3885620160655
 20
241.3012462799563
 30
0.0
 11
313.3885620160655
 21
127.3012462799598
 31
0.0
  0
LINE
  5
33F
330
18
100
AcDbEntity
  8
1
  6
Continuous
100
AcDbLine
 10
344.3885620160666
 20
125.3012462799754
 30
0.0
 11
315.3885620160666
 21
125.3012462799597
 31
0.0
  0
LINE
  5
343
330
18
100
AcDbEntity
  8
4
  6
CENTER
 48
0.2
100
AcDbLine
 10
320.8885620161018
 20
131.8012462799882
 30
0.0
 11
338.8885620161017
 21
131.8012462799882
 31
0.0
  0
LINE
  5
344
330
18
100
AcDbEntity
  8
1
  6
Continuous
100
AcDbLine
 10
339.2885620161018
 20
124.8012462799725
 30
0.0
 11
339.2885620161018
 21
123.1343267410694
 31
0.0
  0
ARC
  5
345
330
18
100
AcDbEntity
  8
1
  6
Continuous
100
AcDbCircle
 10
336.2885620161018
 20
123.1343267410694
 30
0.0
 40
3.0
100
AcDbArc
 50
284.8328479208102
 51
0.0
  0
ARC
  5
346
330
18
100
AcDbEntity
  8
1
  6
Continuous
100
AcDbCircle
 10
329.8885620161017
 20
147.3012462799762
 30
0.0
 40
28.0
100
AcDbArc
 50
255.1671520791896
 51
284.8328479208102
  0
LINE
  5
347
330
18
100
AcDbEntity
  8
1
  6
Continuous
100
AcDbLine
 10
320.4885620161018
 20
124.8012462799624
 30
0.0
 11
320.4885620161018
 21
123.1343267410693
 31
0.0
  0
ARC
  5
348
330
18
100
AcDbEntity
  8
1
  6
Continuous
100
AcDbCircle
 10
323.4885620161017
 20
123.1343267410693
 30
0.0
 40
3.0
100
AcDbArc
 50
180.0
 51
255.1671520791896
  0
LINE
  5
349
330
18
100
AcDbEntity
  8
1
  6
Continuous
100
AcDbLine
 10
334.8885620160824
 20
218.2151027085828
 30
0.0
 11
330.4747055874451
 21
213.8012462799456
 31
0.0
  0
LINE
  5
34A
330
18
100
AcDbEntity
  8
1
  6
Continuous
100
AcDbLine
 10
330.4747055874449
 20
223.8012462800067
 30
0.0
 11
334.8885620161323
 21
219.3873898513194
 31
0.0
  0
LINE
  5
34B
330
18
100
AcDbEntity
  8
1
  6
Continuous
100
AcDbLine
 10
324.8885620161213
 20
218.215102708583
 30
0.0
 11
329.3024184447086
 21
213.8012462799956
 31
0.0
  0
LINE
  5
359
330
18
100
AcDbEntity
  8
1
  6
Continuous
100
AcDbLine
 10
322.7005511646876
 20
214.6512462799814
 30
0.0
 11
320.1457762235225
 21
213.1762462799835
 31
0.0
  0
LINE
  5
35A
330
18
100
AcDbEntity
  8
1
  6
Continuous
100
AcDbLine
 10
334.038562016091
 20
225.989257131393
 30
0.0
 11
334.3360332077284
 21
226.5044923490991
 31
0.0
  0
ARC
  5
35B
330
18
100
AcDbEntity
  8
1
  6
Continuous
100
AcDbCircle
 10
329.8885620161018
 20
218.801246279976
 30
0.0
 40
8.3
100
AcDbArc
 50
60.00000000008562
 51
209.9999999999567
  0
ARC
  5
35C
330
18
100
AcDbEntity
  8
1
  6
Continuous
100
AcDbCircle
 10
329.8885620161018
 20
218.801246279976
 30
0.0
 40
11.25
100
AcDbArc
 50
209.9999999999567
 51
60.00000000008562
  0
LINE
  5
35D
330
18
100
AcDbEntity
  8
1
  6
Continuous
100
AcDbLine
 10
324.2317077665365
 20
218.8012462799775
 30
0.0
 11
329.888562016029
 21
213.1443920304851
 31
0.0
  0
LINE
  5
35E
330
18
100
AcDbEntity
  8
1
  6
Continuous
100
AcDbLine
 10
329.8885620160287
 20
224.45810052947
 30
0.0
 11
324.2317077665365
 21
218.8012462799775
 31
0.0
  0
LINE
  5
35F
330
18
100
AcDbEntity
  8
1
  6
Continuous
100
AcDbLine
 10
335.5454162655212
 20
218.8012462799775
 30
0.0
 11
329.8885620160287
 21
224.45810052947
 31
0.0
  0
LINE
  5
360
330
18
100
AcDbEntity
  8
1
  6
Continuous
100
AcDbLine
 10
329.8885620160289
 20
213.144392030485
 30
0.0
 11
335.5454162655212
 21
218.8012462799775
 31
0.0
  0
LINE
  5
361
330
18
100
AcDbEntity
  8
1
  6
Continuous
100
AcDbLine
 10
329.3024184447089
 20
223.8012462799567
 30
0.0
 11
330.4747055873928
 21
223.8012462799547
 31
0.0
  0
LINE
  5
362
330
18
100
AcDbEntity
  8
1
  6
Continuous
100
AcDbLine
 10
334.8885620160822
 20
218.215102708583
 30
0.0
 11
334.8885620160802
 21
219.3873898512671
 31
0.0
  0
LINE
  5
363
330
18
100
AcDbEntity
  8
1
  6
Continuous
100
AcDbLine
 10
329.3024184447087
 20
223.8012462799567
 30
0.0
 11
324.888562016071
 21
219.3873898513192
 31
0.0
  0
LINE
  5
364
330
18
100
AcDbEntity
  8
1
  6
Continuous
100
AcDbLine
 10
329.3024184447087
 20
213.8012462799959
 30
0.0
 11
330.4747055873931
 21
213.8012462799979
 31
0.0
  0
ARC
  5
365
330
18
100
AcDbEntity
  8
1
  6
Continuous
100
AcDbCircle
 10
334.0762255865941
 20
226.654492349098
 30
0.0
 40
0.3
100
AcDbArc
 50
241.9316843315558
 51
330.0000000000723
  0
ARC
  5
366
330
18
100
AcDbEntity
  8
1
  6
Continuous
100
AcDbCircle
 10
325.7008984456096
 20
226.6544923490979
 30
0.0
 40
0.3
100
AcDbArc
 50
209.9999999999229
 51
298.0683156684467
  0
ARC
  5
367
330
18
100
AcDbEntity
  8
1
  6
Continuous
100
AcDbCircle
 10
329.888562016102
 20
218.8012462799762
 30
0.0
 40
8.600000000101516
100
AcDbArc
 50
61.93168433155805
 51
118.0683156684426
  0
ARC
  5
368
330
18
100
AcDbEntity
  8
1
  6
Continuous
100
AcDbCircle
 10
329.8885620161018
 20
218.801246279976
 30
0.0
 40
9.499999999988006
100
AcDbArc
 50
119.9999999999227
 51
209.9999999999567
  0
ARC
  5
369
330
18
100
AcDbEntity
  8
1
  6
Continuous
100
AcDbCircle
 10
329.888562016102
 20
218.8012462799762
 30
0.0
 40
9.999999999988064
100
AcDbArc
 50
119.9999999999235
 51
209.9999999999567
  0
LINE
  5
36A
330
18
100
AcDbEntity
  8
1
  6
Continuous
100
AcDbLine
 10
325.4410908244738
 20
226.5044923490982
 30
0.0
 11
323.7109866676774
 21
229.5011206510654
 31
0.0
  0
LINE
  5
36B
330
18
100
AcDbEntity
  8
1
  6
Continuous
100
AcDbLine
 10
334.3360332077296
 20
226.5044923490985
 30
0.0
 11
336.0661373645263
 21
229.5011206510656
 31
0.0
  0
LINE
  5
36C
330
18
100
AcDbEntity
  8
1
  6
Continuous
100
AcDbLine
 10
324.8885620161212
 20
218.215102708583
 30
0.0
 11
324.8885620161232
 21
219.3873898512671
 31
0.0
  0
CIRCLE
  5
36D
330
18
100
AcDbEntity
  8
2
  6
Continuous
100
AcDbCircle
 10
329.8885620161018
 20
218.801246279976
 30
0.0
 40
2.5
  0
CIRCLE
  5
36E
330
18
100
AcDbEntity
  8
1
  6
Continuous
100
AcDbCircle
 10
329.8885620161018
 20
218.801246279976
 30
0.0
 40
2.066999999999999
  0
ARC
  5
36F
330
18
100
AcDbEntity
  8
1
  6
Continuous
100
AcDbCircle
 10
329.8885620161018
 20
219.8012462799955
 30
0.0
 40
11.5
100
AcDbArc
 50
0.0
 51
180.0
  0
ARC
  5
370
330
18
100
AcDbEntity
  8
1
  6
Continuous
100
AcDbCircle
 10
329.8885620161018
 20
217.8012462799953
 30
0.0
 40
11.5
100
AcDbArc
 50
180.0
 51
0.0
  0
LINE
  5
372
330
18
100
AcDbEntity
  8
4
  6
CENTER
 48
0.3
100
AcDbLine
 10
329.8885620161018
 20
114.3012462799762
 30
0.0
 11
329.8885620161018
 21
248.0591170541365
 31
0.0
  0
ARC
  5
373
330
18
100
AcDbEntity
  8
1
  6
Continuous
100
AcDbCircle
 10
320.8885620161018
 20
139.8012462799772
 30
0.0
 40
2.5
100
AcDbArc
 50
180.0
 51
270.0
  0
ARC
  5
374
330
18
100
AcDbEntity
  8
1
  6
Continuous
100
AcDbCircle
 10
338.8885620161017
 20
139.8012462799772
 30
0.0
 40
2.5
100
AcDbArc
 50
270.0
 51
0.0
  0
ARC
  5
375
330
18
100
AcDbEntity
  8
1
  6
Continuous
100
AcDbCircle
 10
313.8885620160654
 20
125.8012462799589
 30
0.0
 40
1.0
100
AcDbArc
 50
180.0
 51
270.0
  0
ARC
  5
376
330
18
100
AcDbEntity
  8
1
  6
Continuous
100
AcDbCircle
 10
345.8885620160657
 20
125.8012462799729
 30
0.0
 40
1.0
100
AcDbArc
 50
270.0
 51
0.0
  0
ARC
  5
377
330
18
100
AcDbEntity
  8
1
  6
Continuous
100
AcDbCircle
 10
345.8885620160657
 20
242.8012462799727
 30
0.0
 40
1.0
100
AcDbArc
 50
0.0
 51
90.0
  0
ARC
  5
378
330
18
100
AcDbEntity
  8
1
  6
Continuous
100
AcDbCircle
 10
313.8885620160654
 20
242.8012462799587
 30
0.0
 40
1.0
100
AcDbArc
 50
90.0
 51
180.0
  0
LINE
  5
379
330
18
100
AcDbEntity
  8
1
  6
Continuous
100
AcDbLine
 10
340.3885620161018
 20
206.3012462799798
 30
0.0
 11
329.8885620161018
 21
206.3012462799798
 31
0.0
  0
LINE
  5
37A
330
18
100
AcDbEntity
  8
1
  6
Continuous
100
AcDbLine
 10
329.8885620161018
 20
206.3012462799798
 30
0.0
 11
319.3885620161018
 21
206.3012462799798
 31
0.0
  0
LINE
  5
37D
330
18
100
AcDbEntity
  8
1
  6
Continuous
100
AcDbLine
 10
333.7006092950271
 20
154.8012462799806
 30
0.0
 11
332.7821195459375
 21
154.8012462799806
 31
0.0
  0
LINE
  5
37E
330
18
100
AcDbEntity
  8
1
  6
Continuous
100
AcDbLine
 10
332.5592699534987
 20
153.969560278556
 30
0.0
 11
333.0613352402687
 21
155.8432934374926
 31
0.0
  0
LINE
  5
37F
330
18
100
AcDbEntity
  8
1
  6
Continuous
100
AcDbLine
 10
332.110757474382
 20
154.8012462799806
 30
0.0
 11
332.110757474382
 21
153.7352097762223
 31
0.0
  0
LINE
  5
380
330
18
100
AcDbEntity
  8
1
  6
Continuous
100
AcDbLine
 10
332.3329770202101
 20
155.0234658258087
 30
0.0
 11
332.3329770202101
 21
155.972922714656
 31
0.0
  0
ARC
  5
381
330
18
100
AcDbEntity
  8
1
  6
Continuous
100
AcDbCircle
 10
332.110757474382
 20
155.0234658258087
 30
0.0
 40
0.2222195458280311
100
AcDbArc
 50
180.0
 51
0.0
  0
LINE
  5
382
330
18
100
AcDbEntity
  8
1
  6
Continuous
100
AcDbLine
 10
331.888537928554
 20
156.0528133903218
 30
0.0
 11
331.888537928554
 21
155.0234658258087
 31
0.0
  0
LINE
  5
383
330
18
100
AcDbEntity
  8
1
  6
Continuous
100
AcDbLine
 10
331.4440988368981
 20
156.2621942201362
 30
0.0
 11
331.4440988368981
 21
153.4796383011057
 31
0.0
  0
LINE
  5
384
330
18
100
AcDbEntity
  8
1
  6
Continuous
100
AcDbLine
 10
330.999659745242
 20
154.8012462799806
 30
0.0
 11
330.777440199414
 21
154.8012462799806
 31
0.0
  0
LINE
  5
385
330
18
100
AcDbEntity
  8
1
  6
Continuous
100
AcDbLine
 10
330.999659745242
 20
153.5465101575784
 30
0.0
 11
330.999659745242
 21
154.8012462799806
 31
0.0
  0
ARC
  5
386
330
18
100
AcDbEntity
  8
1
  6
Continuous
100
AcDbCircle
 10
330.777440199414
 20
153.5465101575784
 30
0.0
 40
0.2222195458280301
100
AcDbArc
 50
280.1041827161249
 51
0.0
  0
ARC
  5
387
330
18
100
AcDbEntity
  8
1
  6
Continuous
100
AcDbCircle
 10
329.8885620161018
 20
158.5345346498952
 30
0.0
 40
5.288825190707117
100
AcDbArc
 50
277.7929243354223
 51
280.1041827161249
  0
ARC
  5
388
330
18
100
AcDbEntity
  8
1
  6
Continuous
100
AcDbCircle
 10
330.5996645627516
 20
153.338587364334
 30
0.0
 40
0.044443909165606
100
AcDbArc
 50
180.0
 51
277.7929243354226
  0
LINE
  5
389
330
18
100
AcDbEntity
  8
1
  6
Continuous
100
AcDbLine
 10
330.555220653586
 20
156.2639051956347
 30
0.0
 11
330.555220653586
 21
153.338587364334
 31
0.0
  0
ARC
  5
38A
330
18
100
AcDbEntity
  8
1
  6
Continuous
100
AcDbCircle
 10
330.5996645627516
 20
156.2639051956347
 30
0.0
 40
0.044443909165606
100
AcDbArc
 50
82.20707566457726
 51
180.0
  0
ARC
  5
38B
330
18
100
AcDbEntity
  8
1
  6
Continuous
100
AcDbCircle
 10
329.8885620161018
 20
151.0679579100734
 30
0.0
 40
5.288825190707117
100
AcDbArc
 50
79.89581728387509
 51
82.20707566457766
  0
ARC
  5
38C
330
18
100
AcDbEntity
  8
1
  6
Continuous
100
AcDbCircle
 10
330.777440199414
 20
156.0559824023903
 30
0.0
 40
0.2222195458280301
100
AcDbArc
 50
0.0
 51
79.8958172838747
  0
LINE
  5
38D
330
18
100
AcDbEntity
  8
1
  6
Continuous
100
AcDbLine
 10
330.999659745242
 20
155.3345731899679
 30
0.0
 11
330.999659745242
 21
156.0559824023903
 31
0.0
  0
LINE
  5
38E
330
18
100
AcDbEntity
  8
1
  6
Continuous
100
AcDbLine
 10
330.11078156193
 20
156.3521125606595
 30
0.0
 11
330.11078156193
 21
153.2503799993093
 31
0.0
  0
LINE
  5
38F
330
18
100
AcDbEntity
  8
1
  6
Continuous
100
AcDbLine
 10
329.6663424702738
 20
154.8012462799806
 30
0.0
 11
329.2219033786177
 21
154.8012462799806
 31
0.0
  0
LINE
  5
390
330
18
100
AcDbEntity
  8
1
  6
Continuous
100
AcDbLine
 10
329.6663424702738
 20
156.3521125606595
 30
0.0
 11
329.6663424702738
 21
153.2503799993093
 31
0.0
  0
LINE
  5
391
330
18
100
AcDbEntity
  8
1
  6
Continuous
100
AcDbLine
 10
329.2219033786177
 20
156.3145985647139
 30
0.0
 11
329.2219033786177
 21
153.2878939952548
 31
0.0
  0
LINE
  5
392
330
18
100
AcDbEntity
  8
1
  6
Continuous
100
AcDbLine
 10
328.7774642869617
 20
153.4190426355993
 30
0.0
 11
328.7774642869617
 21
154.2679193699934
 31
0.0
  0
ARC
  5
393
330
18
100
AcDbEntity
  8
1
  6
Continuous
100
AcDbCircle
 10
328.7330203777961
 20
153.4190426355993
 30
0.0
 40
0.044443909165606
100
AcDbArc
 50
257.2710561268775
 51
0.0
  0
ARC
  5
394
330
18
100
AcDbEntity
  8
1
  6
Continuous
100
AcDbCircle
 10
329.8885620161018
 20
158.5345346498952
 30
0.0
 40
5.288825190707117
100
AcDbArc
 50
254.7937121239417
 51
257.2710561268775
  0
ARC
  5
395
330
18
100
AcDbEntity
  8
1
  6
Continuous
100
AcDbCircle
 10
329.8885620161018
 20
158.5345346498952
 30
0.0
 40
5.288825190707117
100
AcDbArc
 50
254.7424767095435
 51
254.7937121239417
  0
ARC
  5
396
330
18
100
AcDbEntity
  8
1
  6
Continuous
100
AcDbCircle
 10
328.5552447411336
 20
153.646512779548
 30
0.0
 40
0.2222195458280301
100
AcDbArc
 50
180.0
 51
254.7424767095435
  0
LINE
  5
397
330
18
100
AcDbEntity
  8
1
  6
Continuous
100
AcDbLine
 10
328.3330251953055
 20
155.9559797804205
 30
0.0
 11
328.3330251953055
 21
153.646512779548
 31
0.0
  0
ARC
  5
398
330
18
100
AcDbEntity
  8
1
  6
Continuous
100
AcDbCircle
 10
328.5552447411336
 20
155.9559797804205
 30
0.0
 40
0.2222195458280301
100
AcDbArc
 50
105.2575232904564
 51
180.0
  0
ARC
  5
399
330
18
100
AcDbEntity
  8
1
  6
Continuous
100
AcDbCircle
 10
329.8885620161018
 20
151.0679579100734
 30
0.0
 40
5.288825190707117
100
AcDbArc
 50
103.2681189705562
 51
105.2575232904564
  0
ARC
  5
39A
330
18
100
AcDbEntity
  8
1
  6
Continuous
100
AcDbCircle
 10
329.8885620161018
 20
151.0679579100734
 30
0.0
 40
5.288825190707117
100
AcDbArc
 50
102.7289438731224
 51
103.2681189705562
  0
ARC
  5
39B
330
18
100
AcDbEntity
  8
1
  6
Continuous
100
AcDbCircle
 10
328.7330203777961
 20
156.1834499243693
 30
0.0
 40
0.044443909165606
100
AcDbArc
 50
0.0
 51
102.7289438731228
  0
LINE
  5
39C
330
18
100
AcDbEntity
  8
1
  6
Continuous
100
AcDbLine
 10
328.7774642869617
 20
155.3345731899679
 30
0.0
 11
328.7774642869617
 21
156.1834499243693
 31
0.0
  0
ARC
  5
39D
330
18
100
AcDbEntity
  8
1
  6
Continuous
100
AcDbCircle
 10
327.6663665578215
 20
153.9812566981424
 30
0.0
 40
0.2222195458280301
100
AcDbArc
 50
180.0
 51
243.9856340003635
  0
ARC
  5
39E
330
18
100
AcDbEntity
  8
1
  6
Continuous
100
AcDbCircle
 10
329.8885620161018
 20
158.5345346498952
 30
0.0
 40
5.288825190707117
100
AcDbArc
 50
243.9856340003635
 51
247.0560464434622
  0
ARC
  5
39F
330
18
100
AcDbEntity
  8
1
  6
Continuous
100
AcDbCircle
 10
327.8441421944839
 20
153.7050540754276
 30
0.0
 40
0.044443909165606
100
AcDbArc
 50
247.0560464434622
 51
0.0
  0
LINE
  5
3A0
330
18
100
AcDbEntity
  8
1
  6
Continuous
100
AcDbLine
 10
327.8885861036495
 20
155.897438484541
 30
0.0
 11
327.8885861036495
 21
153.7050540754276
 31
0.0
  0
ARC
  5
3A1
330
18
100
AcDbEntity
  8
1
  6
Continuous
100
AcDbCircle
 10
327.8441421944839
 20
155.897438484541
 30
0.0
 40
0.044443909165606
100
AcDbArc
 50
0.0
 51
112.9439535565377
  0
ARC
  5
3A2
330
18
100
AcDbEntity
  8
1
  6
Continuous
100
AcDbCircle
 10
329.8885620161018
 20
151.0679579100734
 30
0.0
 40
5.288825190707117
100
AcDbArc
 50
112.9439535565377
 51
116.0143659996364
  0
ARC
  5
3A3
330
18
100
AcDbEntity
  8
1
  6
Continuous
100
AcDbCircle
 10
327.6663665578215
 20
155.6212358618263
 30
0.0
 40
0.2222195458280301
100
AcDbArc
 50
116.0143659996364
 51
180.0
  0
LINE
  5
3A4
330
18
100
AcDbEntity
  8
1
  6
Continuous
100
AcDbLine
 10
327.4441470119934
 20
153.9812566981424
 30
0.0
 11
327.4441470119934
 21
155.6212358618263
 31
0.0
  0
LINE
  5
3A5
330
18
100
AcDbEntity
  8
1
  6
Continuous
100
AcDbLine
 10
326.9997079203373
 20
156.0202140973891
 30
0.0
 11
326.9997079203373
 21
154.1043886126586
 31
0.0
  0
ARC
  5
3A6
330
18
100
AcDbEntity
  8
1
  6
Continuous
100
AcDbCircle
 10
332.5551965660381
 20
154.8012462799806
 30
0.0
 40
1.145412728988864
100
AcDbArc
 50
305.5376777919478
 51
315.6988392796173
  0
ARC
  5
3A7
330
18
100
AcDbEntity
  8
1
  6
Continuous
100
AcDbCircle
 10
329.8885620161018
 20
158.5345346498952
 30
0.0
 40
5.733264282363177
100
AcDbArc
 50
234.4623222080517
 51
305.5376777919478
  0
ARC
  5
3A8
330
18
100
AcDbEntity
  8
1
  6
Continuous
100
AcDbCircle
 10
327.2219274661655
 20
154.8012462799806
 30
0.0
 40
1.145412728988863
100
AcDbArc
 50
180.0
 51
234.4623222080521
  0
ARC
  5
3A9
330
18
100
AcDbEntity
  8
1
  6
Continuous
100
AcDbCircle
 10
332.5551965660381
 20
154.8012462799806
 30
0.0
 40
1.145412728988864
100
AcDbArc
 50
332.2496545546282
 51
54.46232220799902
  0
ARC
  5
3AA
330
18
100
AcDbEntity
  8
1
  6
Continuous
100
AcDbCircle
 10
329.8885620161018
 20
151.0679579100734
 30
0.0
 40
5.733264282363177
100
AcDbArc
 50
54.46232220799902
 51
125.5376777920009
  0
ARC
  5
3AB
330
18
100
AcDbEntity
  8
1
  6
Continuous
100
AcDbCircle
 10
327.2219274661655
 20
154.8012462799806
 30
0.0
 40
1.145412728988863
100
AcDbArc
 50
125.5376777920009
 51
166.5374393917332
  0
LINE
  5
3AC
330
18
100
AcDbEntity
  8
4
  6
CENTER
 48
0.2
100
AcDbLine
 10
320.8885620161018
 20
236.8012462799881
 30
0.0
 11
338.8885620161017
 21
236.8012462799881
 31
0.0
  0
ARC
  5
3B6
330
18
100
AcDbEntity
  8
1
  6
Continuous
100
AcDbCircle
 10
338.8885620161017
 20
179.3012462799833
 30
0.0
 40
2.5
100
AcDbArc
 50
0.0
 51
90.0
  0
ARC
  5
3B7
330
18
100
AcDbEntity
  8
1
  6
Continuous
100
AcDbCircle
 10
320.8885620161018
 20
179.3012462799736
 30
0.0
 40
2.5
100
AcDbArc
 50
90.0
 51
180.0
  0
LINE
  5
3B8
330
18
100
AcDbEntity
  8
1
  6
Continuous
100
AcDbLine
 10
338.8885620160465
 20
181.8012462799833
 30
0.0
 11
320.8885620160465
 21
181.8012462799736
 31
0.0
  0
ARC
  5
3B9
330
18
100
AcDbEntity
  8
1
  6
Continuous
100
AcDbCircle
 10
319.3886103230687
 20
202.8502774507681
 30
0.0
 40
1.0
100
AcDbArc
 50
90.00276708373217
 51
180.0027670837317
  0
ARC
  5
3BA
330
18
100
AcDbEntity
  8
1
  6
Continuous
100
AcDbCircle
 10
340.3885620161018
 20
207.3012462799798
 30
0.0
 40
1.0
100
AcDbArc
 50
270.0
 51
0.0
  0
ARC
  5
3BB
330
18
100
AcDbEntity
  8
1
  6
Continuous
100
AcDbCircle
 10
340.3886102985787
 20
202.8512916399254
 30
0.0
 40
1.0
100
AcDbArc
 50
0.0027670837317726
 51
90.00276708373217
  0
ARC
  5
3BC
330
18
100
AcDbEntity
  8
1
  6
Continuous
100
AcDbCircle
 10
319.3885620161018
 20
207.3012462799798
 30
0.0
 40
1.0
100
AcDbArc
 50
180.0
 51
270.0
  0
LINE
  5
3BD
330
18
100
AcDbEntity
  8
1
  6
Continuous
100
AcDbLine
 10
319.3885620283467
 20
203.8502774496019
 30
0.0
 11
340.3885620038567
 21
203.8512916387592
 31
0.0
  0
ARC
  5
3BE
330
18
100
AcDbEntity
  8
1
  6
Continuous
100
AcDbCircle
 10
338.8885620161017
 20
228.8012462799994
 30
0.0
 40
2.5
100
AcDbArc
 50
0.0
 51
90.0
  0
ARC
  5
3BF
330
18
100
AcDbEntity
  8
1
  6
Continuous
100
AcDbCircle
 10
320.8885620161018
 20
228.8012462799916
 30
0.0
 40
2.5
100
AcDbArc
 50
90.0
 51
180.0
  0
LINE
  5
3C0
330
18
100
AcDbEntity
  8
4
  6
CENTER
 48
0.3
100
AcDbLine
 10
345.986810184019
 20
218.801246279976
 30
0.0
 11
315.2289697836804
 21
218.801246279976
 31
0.0
  0
LINE
  5
3C1
330
18
100
AcDbEntity
  8
1
  6
Continuous
100
AcDbLine
 10
345.8885620160653
 20
243.8012462799727
 30
0.0
 11
313.8885620160657
 21
243.8012462799554
 31
0.0
  0
LINE
  5
3C2
330
18
100
AcDbEntity
  8
1
  6
Continuous
100
AcDbLine
 10
346.8885620160656
 20
242.8012462799727
 30
0.0
 11
346.8885620160656
 21
125.8012462799728
 31
0.0
  0
LINE
  5
3C3
330
18
100
AcDbEntity
  8
1
  6
Continuous
100
AcDbLine
 10
345.8885620160655
 20
124.8012462799761
 30
0.0
 11
313.8885620160662
 21
124.8012462799588
 31
0.0
  0
LINE
  5
3C4
330
18
100
AcDbEntity
  8
1
  6
Continuous
100
AcDbLine
 10
312.8885620160655
 20
242.8012462799587
 30
0.0
 11
312.8885620160655
 21
125.8012462799589
 31
0.0
  0
LINE
  5
3C6
330
18
100
AcDbEntity
  8
4
  6
CENTER
 48
0.2
100
AcDbLine
 10
250.6302976417738
 20
131.8012462800681
 30
0.0
 11
238.0302976417739
 21
131.8012462800681
 31
0.0
  0
LINE
  5
3CD
330
18
100
AcDbEntity
  8
1
  6
Continuous
100
AcDbLine
 10
246.0302976417738
 20
128.0012462800681
 30
0.0
 11
245.0302976417738
 21
128.0012462800681
 31
0.0
  0
LINE
  5
3CE
330
18
100
AcDbEntity
  8
1
  6
Continuous
100
AcDbLine
 10
246.0302976417738
 20
135.6012462800682
 30
0.0
 11
245.0302976417738
 21
135.6012462800682
 31
0.0
  0
LINE
  5
3CF
330
18
100
AcDbEntity
  8
1
  6
Continuous
100
AcDbLine
 10
246.0302976417738
 20
135.6012462800682
 30
0.0
 11
246.0302976417738
 21
128.0012462800681
 31
0.0
  0
ARC
  5
3D0
330
18
100
AcDbEntity
  8
1
  6
Continuous
100
AcDbCircle
 10
247.0364103659966
 20
129.694235526482
 30
0.0
 40
1.3
100
AcDbArc
 50
274.9999999999997
 51
344.1191499917205
  0
ARC
  5
3D1
330
18
100
AcDbEntity
  8
1
  6
Continuous
100
AcDbCircle
 10
247.0364103659826
 20
133.908257033651
 30
0.0
 40
1.3
100
AcDbArc
 50
15.88085000827948
 51
85.00000000000019
  0
LINE
  5
3D2
330
18
100
AcDbEntity
  8
1
  6
Continuous
100
AcDbLine
 10
246.0302976417738
 20
135.3012462800682
 30
0.0
 11
247.1497128315746
 21
135.2033101411819
 31
0.0
  0
LINE
  5
3D3
330
18
100
AcDbEntity
  8
1
  6
Continuous
100
AcDbLine
 10
246.0302976417738
 20
128.3012462800682
 30
0.0
 11
247.1497128316083
 21
128.3991824189574
 31
0.0
  0
ARC
  5
3D4
330
18
100
AcDbEntity
  8
1
  6
Continuous
100
AcDbCircle
 10
239.6302976417738
 20
131.8012462800681
 30
0.0
 40
9.0
100
AcDbArc
 50
344.1191499917205
 51
15.88085000827948
  0
ARC
  5
3D5
330
18
100
AcDbEntity
  8
1
  6
Continuous
100
AcDbCircle
 10
244.5302976417738
 20
126.3012462800674
 30
0.0
 40
0.5
100
AcDbArc
 50
270.0
 51
0.0
  0
ARC
  5
3D6
330
18
100
AcDbEntity
  8
1
  6
Continuous
100
AcDbCircle
 10
244.5302976417738
 20
136.3012462800675
 30
0.0
 40
0.5
100
AcDbArc
 50
0.0
 51
90.0
  0
LINE
  5
3D7
330
18
100
AcDbEntity
  8
1
  6
Continuous
100
AcDbLine
 10
240.0302976417738
 20
136.8012462800672
 30
0.0
 11
244.5302976417737
 21
136.8012462800675
 31
0.0
  0
LINE
  5
3D8
330
18
100
AcDbEntity
  8
1
  6
Continuous
100
AcDbLine
 10
240.0302976417739
 20
125.8012462800672
 30
0.0
 11
244.5302976417739
 21
125.8012462800674
 31
0.0
  0
LINE
  5
3D9
330
18
100
AcDbEntity
  8
1
  6
Continuous
100
AcDbLine
 10
245.0302976417738
 20
136.3012462800675
 30
0.0
 11
245.0302976417738
 21
126.3012462800674
 31
0.0
  0
LINE
  5
3DA
330
18
100
AcDbEntity
  8
1
  6
Continuous
100
AcDbLine
 10
240.0302976417738
 20
136.8012462800672
 30
0.0
 11
240.0302976417738
 21
125.8012462800673
 31
0.0
  0
LINE
  5
3DB
330
18
100
AcDbEntity
  8
1
  6
Continuous
100
AcDbLine
 10
254.374461628611
 20
224.8012462800681
 30
0.0
 11
254.374461628611
 21
212.8012462800682
 31
0.0
  0
LINE
  5
3DD
330
18
100
AcDbEntity
  8
1
  6
Continuous
100
AcDbLine
 10
255.6744616286109
 20
214.2012462800688
 30
0.0
 11
254.374461628611
 21
214.2012462800688
 31
0.0
  0
LINE
  5
3DE
330
18
100
AcDbEntity
  8
1
  6
Continuous
100
AcDbLine
 10
255.6744616286109
 20
223.4012462800689
 30
0.0
 11
254.374461628611
 21
223.4012462800689
 31
0.0
  0
LINE
  5
3DF
330
18
100
AcDbEntity
  8
1
  6
Continuous
100
AcDbLine
 10
255.6744616286109
 20
223.4012462800689
 30
0.0
 11
255.6744616286109
 21
214.2012462800688
 31
0.0
  0
ARC
  5
3E0
330
18
100
AcDbEntity
  8
1
  6
Continuous
100
AcDbCircle
 10
256.9965109083024
 20
216.0230223447445
 30
0.0
 40
1.6
100
AcDbArc
 50
274.9999999999997
 51
344.5060324994778
  0
ARC
  5
3E1
330
18
100
AcDbEntity
  8
1
  6
Continuous
100
AcDbCircle
 10
256.9965109082851
 20
221.5794702153892
 30
0.0
 40
1.6
100
AcDbArc
 50
15.49396750052209
 51
85.00000000000019
  0
LINE
  5
3E2
330
18
100
AcDbEntity
  8
1
  6
Continuous
100
AcDbLine
 10
255.6744616286108
 20
223.301246280069
 30
0.0
 11
257.1359600967062
 21
223.1733817323501
 31
0.0
  0
LINE
  5
3E3
330
18
100
AcDbEntity
  8
1
  6
Continuous
100
AcDbLine
 10
255.6744616286109
 20
214.3012462800689
 30
0.0
 11
257.1359600967474
 21
214.4291108277913
 31
0.0
  0
ARC
  5
3E4
330
18
100
AcDbEntity
  8
1
  6
Continuous
100
AcDbCircle
 10
246.974461628611
 20
218.8012462800688
 30
0.0
 40
12.0
100
AcDbArc
 50
344.5060324994778
 51
15.49396750052209
  0
LINE
  5
3E5
330
18
100
AcDbEntity
  8
4
  6
CENTER
 48
0.2
100
AcDbLine
 10
260.974461628611
 20
218.8012462800688
 30
0.0
 11
251.5744616286109
 21
218.8012462800688
 31
0.0
  0
LINE
  5
3EB
330
18
100
AcDbEntity
  8
1
  6
Continuous
100
AcDbLine
 10
253.5744616286109
 20
224.8012462800681
 30
0.0
 11
253.5744616286109
 21
212.8012462800682
 31
0.0
  0
LINE
  5
3EC
330
18
100
AcDbEntity
  8
1
  6
Continuous
100
AcDbLine
 10
254.374461628611
 20
224.8012462800683
 30
0.0
 11
253.5744616286109
 21
224.8012462800681
 31
0.0
  0
LINE
  5
3ED
330
18
100
AcDbEntity
  8
1
  6
Continuous
100
AcDbLine
 10
254.3744616286109
 20
212.8012462800683
 30
0.0
 11
253.5744616286109
 21
212.801246280068
 31
0.0
  0
LINE
  5
3EF
330
18
100
AcDbEntity
  8
4
  6
CENTER
 48
0.2
100
AcDbLine
 10
250.6302976417734
 20
236.8012462799848
 30
0.0
 11
238.0302976417734
 21
236.8012462799848
 31
0.0
  0
LINE
  5
3F6
330
18
100
AcDbEntity
  8
1
  6
Continuous
100
AcDbLine
 10
246.0302976417735
 20
233.0012462799848
 30
0.0
 11
245.0302976417735
 21
233.0012462799848
 31
0.0
  0
LINE
  5
3F7
330
18
100
AcDbEntity
  8
1
  6
Continuous
100
AcDbLine
 10
246.0302976417735
 20
240.6012462799848
 30
0.0
 11
245.0302976417735
 21
240.6012462799848
 31
0.0
  0
LINE
  5
3F8
330
18
100
AcDbEntity
  8
1
  6
Continuous
100
AcDbLine
 10
246.0302976417735
 20
240.6012462799848
 30
0.0
 11
246.0302976417735
 21
233.0012462799848
 31
0.0
  0
ARC
  5
3F9
330
18
100
AcDbEntity
  8
1
  6
Continuous
100
AcDbCircle
 10
247.0364103659962
 20
234.6942355263987
 30
0.0
 40
1.3
100
AcDbArc
 50
274.9999999999997
 51
344.1191499917205
  0
ARC
  5
3FA
330
18
100
AcDbEntity
  8
1
  6
Continuous
100
AcDbCircle
 10
247.0364103659822
 20
238.9082570335677
 30
0.0
 40
1.3
100
AcDbArc
 50
15.88085000827948
 51
85.00000000000019
  0
LINE
  5
3FB
330
18
100
AcDbEntity
  8
1
  6
Continuous
100
AcDbLine
 10
246.0302976417735
 20
240.3012462799849
 30
0.0
 11
247.1497128315744
 21
240.2033101410986
 31
0.0
  0
LINE
  5
3FC
330
18
100
AcDbEntity
  8
1
  6
Continuous
100
AcDbLine
 10
246.0302976417734
 20
233.3012462799848
 30
0.0
 11
247.1497128316079
 21
233.3991824188742
 31
0.0
  0
ARC
  5
3FD
330
18
100
AcDbEntity
  8
1
  6
Continuous
100
AcDbCircle
 10
239.6302976417735
 20
236.8012462799848
 30
0.0
 40
9.0
100
AcDbArc
 50
344.1191499917205
 51
15.88085000827948
  0
ARC
  5
3FE
330
18
100
AcDbEntity
  8
1
  6
Continuous
100
AcDbCircle
 10
244.5302976417729
 20
242.3012462799859
 30
0.0
 40
0.5
100
AcDbArc
 50
0.0000000000048853
 51
90.00000000000488
  0
ARC
  5
3FF
330
18
100
AcDbEntity
  8
1
  6
Continuous
100
AcDbCircle
 10
244.5302976417739
 20
232.3012462799858
 30
0.0
 40
0.5
100
AcDbArc
 50
270.0000000000053
 51
0.0000000000048853
  0
LINE
  5
400
330
18
100
AcDbEntity
  8
1
  6
Continuous
100
AcDbLine
 10
240.0302976417739
 20
231.8012462799857
 30
0.0
 11
244.5302976417739
 21
231.8012462799859
 31
0.0
  0
LINE
  5
401
330
18
100
AcDbEntity
  8
1
  6
Continuous
100
AcDbLine
 10
240.0302976417729
 20
242.8012462799857
 30
0.0
 11
244.5302976417729
 21
242.8012462799859
 31
0.0
  0
LINE
  5
402
330
18
100
AcDbEntity
  8
1
  6
Continuous
100
AcDbLine
 10
245.0302976417739
 20
232.3012462799858
 30
0.0
 11
245.030297641773
 21
242.3012462799859
 31
0.0
  0
LINE
  5
403
330
18
100
AcDbEntity
  8
1
  6
Continuous
100
AcDbLine
 10
240.0302976417739
 20
231.8012462799857
 30
0.0
 11
240.0302976417729
 21
242.8012462799857
 31
0.0
  0
ARC
  5
468
330
18
100
AcDbEntity
  8
1
  6
Continuous
100
AcDbCircle
 10
333.556219908409
 20
150.3012703675319
 30
0.0
 40
0.5
100
AcDbArc
 50
180.0
 51
0.0
  0
ARC
  5
46E
330
18
100
AcDbEntity
  8
1
  6
Continuous
100
AcDbCircle
 10
331.7540784395398
 20
150.3012703675319
 30
0.0
 40
0.5
100
AcDbArc
 50
270.0
 51
90.0
  0
LINE
  5
473
330
18
100
AcDbEntity
  8
1
  6
Continuous
100
AcDbLine
 10
336.0152885937338
 20
151.8012703675319
 30
0.0
 11
335.2652885937339
 21
149.8012703675319
 31
0.0
  0
LINE
  5
476
330
18
100
AcDbEntity
  8
1
  6
Continuous
100
AcDbLine
 10
331.7540784395398
 20
149.8012703675319
 30
0.0
 11
331.2540784395398
 21
149.8012703675319
 31
0.0
  0
LINE
  5
478
330
18
100
AcDbEntity
  8
1
  6
Continuous
100
AcDbLine
 10
336.0152885937338
 20
151.8012703675319
 30
0.0
 11
335.0152885937339
 21
151.8012703675319
 31
0.0
  0
LINE
  5
47D
330
18
100
AcDbEntity
  8
1
  6
Continuous
100
AcDbLine
 10
332.2540784395398
 20
151.8012703675319
 30
0.0
 11
331.2540784395398
 21
151.8012703675319
 31
0.0
  0
LINE
  5
47E
330
18
100
AcDbEntity
  8
1
  6
Continuous
100
AcDbLine
 10
331.7540784395398
 20
150.8012703675319
 30
0.0
 11
331.2540784395398
 21
150.8012703675319
 31
0.0
  0
LINE
  5
481
330
18
100
AcDbEntity
  8
1
  6
Continuous
100
AcDbLine
 10
331.2540784395398
 20
151.8012703675319
 30
0.0
 11
331.2540784395398
 21
150.8012703675319
 31
0.0
  0
LINE
  5
486
330
18
100
AcDbEntity
  8
1
  6
Continuous
100
AcDbLine
 10
334.056219908409
 20
151.3012703675319
 30
0.0
 11
334.056219908409
 21
150.3012703675319
 31
0.0
  0
LINE
  5
487
330
18
100
AcDbEntity
  8
1
  6
Continuous
100
AcDbLine
 10
333.056219908409
 20
151.3012703675319
 30
0.0
 11
333.056219908409
 21
150.3012703675319
 31
0.0
  0
ARC
  5
488
330
18
100
AcDbEntity
  8
1
  6
Continuous
100
AcDbCircle
 10
333.556219908409
 20
151.3012703675319
 30
0.0
 40
0.5
100
AcDbArc
 50
0.0
 51
180.0
  0
LINE
  5
4A2
330
18
100
AcDbEntity
  8
1
  6
Continuous
100
AcDbLine
 10
328.2289283395799
 20
151.8012703675319
 30
0.0
 11
328.8289283395799
 21
149.8012703675319
 31
0.0
  0
LINE
  5
4A3
330
18
100
AcDbEntity
  8
1
  6
Continuous
100
AcDbLine
 10
324.6885620161392
 20
151.8012703675319
 30
0.0
 11
324.6885620161392
 21
149.8012703675319
 31
0.0
  0
LINE
  5
4A4
330
18
100
AcDbEntity
  8
1
  6
Continuous
100
AcDbLine
 10
325.850353927738
 20
151.8012703675319
 30
0.0
 11
325.850353927738
 21
149.8012703675319
 31
0.0
  0
LINE
  5
4A5
330
18
100
AcDbEntity
  8
1
  6
Continuous
100
AcDbLine
 10
327.000353927738
 20
151.8012703675319
 30
0.0
 11
327.000353927738
 21
149.8012703675319
 31
0.0
  0
LINE
  5
4A6
330
18
100
AcDbEntity
  8
1
  6
Continuous
100
AcDbLine
 10
327.6289283395799
 20
149.8012703675319
 30
0.0
 11
328.2289283395799
 21
151.8012703675319
 31
0.0
  0
LINE
  5
4A8
330
18
100
AcDbEntity
  8
1
  6
Continuous
100
AcDbLine
 10
325.850353927738
 20
150.8012703675319
 30
0.0
 11
327.000353927738
 21
150.8012703675319
 31
0.0
  0
LINE
  5
4A9
330
18
100
AcDbEntity
  8
1
  6
Continuous
100
AcDbLine
 10
325.2885620161392
 20
151.8012703675319
 30
0.0
 11
324.0885620161392
 21
151.8012703675319
 31
0.0
  0
LINE
  5
4AA
330
18
100
AcDbEntity
  8
1
  6
Continuous
100
AcDbLine
 10
330.364925405355
 20
150.8012703675319
 30
0.0
 11
329.4258068608896
 21
150.8012703675319
 31
0.0
  0
LINE
  5
4AB
330
18
100
AcDbEntity
  8
1
  6
Continuous
100
AcDbLine
 10
327.8539283395799
 20
150.5512703675319
 30
0.0
 11
328.6039283395799
 21
150.5512703675319
 31
0.0
  0
LINE
  5
4B3
330
18
100
AcDbEntity
  8
1
  6
Continuous
100
AcDbLine
 10
245.0302976417739
 20
131.8012462800681
 30
0.0
 11
246.0302976417738
 21
132.8012462800682
 31
0.0
  0
LINE
  5
4B4
330
18
100
AcDbEntity
  8
1
  6
Continuous
100
AcDbLine
 10
245.0302976417739
 20
130.8012462800681
 30
0.0
 11
246.0302976417738
 21
131.8012462800681
 31
0.0
  0
LINE
  5
4B5
330
18
100
AcDbEntity
  8
1
  6
Continuous
100
AcDbLine
 10
245.0302976417731
 20
236.8012462799848
 30
0.0
 11
246.0302976417731
 21
237.8012462799849
 31
0.0
  0
LINE
  5
4B6
330
18
100
AcDbEntity
  8
1
  6
Continuous
100
AcDbLine
 10
245.0302976417731
 20
235.8012462799848
 30
0.0
 11
246.0302976417731
 21
236.8012462799848
 31
0.0
  0
LINE
  5
4B7
330
18
100
AcDbEntity
  8
1
  6
Continuous
100
AcDbLine
 10
254.374461628611
 20
218.8012462800688
 30
0.0
 11
255.6744616286109
 21
220.1012462800688
 31
0.0
  0
LINE
  5
4B8
330
18
100
AcDbEntity
  8
1
  6
Continuous
100
AcDbLine
 10
254.374461628611
 20
217.5012462800689
 30
0.0
 11
255.6744616286109
 21
218.8012462800688
 31
0.0
  0
ARC
  5
4B9
330
18
100
AcDbEntity
  8
5
  6
PHANTOM
 48
0.3
100
AcDbCircle
 10
131.7643373871332
 20
212.4012462799786
 30
0.0
 40
3.0
100
AcDbArc
 50
270.0
 51
345.1671520791896
  0
ARC
  5
4BA
330
18
100
AcDbEntity
  8
5
  6
PHANTOM
 48
0.3
100
AcDbCircle
 10
107.5974178482263
 20
218.8012462799786
 30
0.0
 40
28.0
100
AcDbArc
 50
345.1671520791896
 51
14.83284792081033
  0
ARC
  5
4BB
330
18
100
AcDbEntity
  8
5
  6
PHANTOM
 48
0.3
100
AcDbCircle
 10
131.7643373871331
 20
225.2012462799786
 30
0.0
 40
3.0
100
AcDbArc
 50
14.83284792081033
 51
90.0
  0
CIRCLE
  5
4BC
330
18
100
AcDbEntity
  8
1
  6
Continuous
100
AcDbCircle
 10
329.8885620161018
 20
275.4046436161272
 30
0.0
 40
6.0
  0
LINE
  5
4BD
330
18
100
AcDbEntity
  8
4
  6
CENTER
 48
0.3
100
AcDbLine
 10
338.8885620161018
 20
275.4046436161272
 30
0.0
 11
320.8885620161018
 21
275.4046436161272
 31
0.0
  0
LINE
  5
4BE
330
18
100
AcDbEntity
  8
4
  6
CENTER
 48
0.3
100
AcDbLine
 10
329.8885620161018
 20
266.4046436161271
 30
0.0
 11
329.8885620161018
 21
284.4046436161272
 31
0.0
  0
CIRCLE
  5
4BF
330
18
100
AcDbEntity
  8
1
  6
Continuous
100
AcDbCircle
 10
329.8885620161018
 20
275.4046436161272
 30
0.0
 40
4.599999999999998
  0
CIRCLE
  5
4DB
330
18
100
AcDbEntity
  8
1
  6
Continuous
 48
0.25
100
AcDbCircle
 10
329.8885620161018
 20
275.4046436161272
 30
0.0
 40
4.5
  0
LINE
  5
4DC
330
18
100
AcDbEntity
  8
1
  6
Continuous
 48
0.25
100
AcDbLine
 10
330.5171799445767
 20
274.1551859337706
 30
0.0
 11
331.2985329377878
 21
273.4007029982445
 31
0.0
  0
LINE
  5
4DD
330
18
100
AcDbEntity
  8
1
  6
Continuous
 48
0.25
100
AcDbLine
 10
330.5171799445767
 20
276.6541012984839
 30
0.0
 11
331.2985329377878
 21
277.4085842340098
 31
0.0
  0
LINE
  5
4DE
330
18
100
AcDbEntity
  8
1
  6
Continuous
 48
0.25
100
AcDbLine
 10
329.2599440876269
 20
274.1551859337706
 30
0.0
 11
328.4785910944159
 21
273.4007029982445
 31
0.0
  0
LINE
  5
4DF
330
18
100
AcDbEntity
  8
1
  6
Continuous
 48
0.25
100
AcDbLine
 10
328.6391043337452
 20
274.7760256876524
 30
0.0
 11
327.8846213982191
 21
273.9946726944412
 31
0.0
  0
LINE
  5
4E0
330
18
100
AcDbEntity
  8
1
  6
Continuous
 48
0.25
100
AcDbLine
 10
328.6391043337452
 20
276.033261544602
 30
0.0
 11
327.8846213982191
 21
276.8146145378131
 31
0.0
  0
LINE
  5
4E1
330
18
100
AcDbEntity
  8
1
  6
Continuous
 48
0.25
100
AcDbLine
 10
329.2599440876269
 20
276.6541012984837
 30
0.0
 11
328.4785910944157
 21
277.4085842340098
 31
0.0
  0
ARC
  5
4E2
330
18
100
AcDbEntity
  8
1
  6
Continuous
 48
0.25
100
AcDbCircle
 10
329.8885620161018
 20
275.4046436161271
 30
0.0
 40
2.45
100
AcDbArc
 50
215.1289999999999
 51
234.871
  0
ARC
  5
4E3
330
18
100
AcDbEntity
  8
1
  6
Continuous
 48
0.25
100
AcDbCircle
 10
329.8885620161018
 20
275.4046436161271
 30
0.0
 40
2.45
100
AcDbArc
 50
125.1291000000012
 51
144.8708999999986
  0
LINE
  5
4E4
330
18
100
AcDbEntity
  8
1
  6
Continuous
 48
0.25
100
AcDbLine
 10
329.889269122883
 20
274.3842885308751
 30
0.0
 11
330.5171799445767
 21
274.1551859337706
 31
0.0
  0
LINE
  5
4E5
330
18
100
AcDbEntity
  8
1
  6
Continuous
 48
0.25
100
AcDbLine
 10
329.889269122883
 20
274.3842885308751
 30
0.0
 11
329.2599440876269
 21
274.1551859337706
 31
0.0
  0
LINE
  5
4E6
330
18
100
AcDbEntity
  8
1
  6
Continuous
 48
0.25
100
AcDbLine
 10
328.8682069308496
 20
275.4053507229083
 30
0.0
 11
328.6391043337452
 21
274.7760256876524
 31
0.0
  0
LINE
  5
4E7
330
18
100
AcDbEntity
  8
1
  6
Continuous
 48
0.25
100
AcDbLine
 10
328.8682069308496
 20
275.4053507229083
 30
0.0
 11
328.6391043337452
 21
276.033261544602
 31
0.0
  0
LINE
  5
4E8
330
18
100
AcDbEntity
  8
1
  6
Continuous
 48
0.25
100
AcDbLine
 10
329.8885620161018
 20
276.4257058081605
 30
0.0
 11
329.2599440876269
 21
276.6541012984837
 31
0.0
  0
LINE
  5
4E9
330
18
100
AcDbEntity
  8
1
  6
Continuous
 48
0.25
100
AcDbLine
 10
329.8885620161018
 20
276.4257058081605
 30
0.0
 11
330.5171799445767
 21
276.6541012984839
 31
0.0
  0
ARC
  5
4EA
330
18
100
AcDbEntity
  8
1
  6
Continuous
 48
0.25
100
AcDbCircle
 10
329.8885620161018
 20
275.4046436161271
 30
0.0
 40
2.45
100
AcDbArc
 50
305.1289999999998
 51
324.871
  0
ARC
  5
4EB
330
18
100
AcDbEntity
  8
1
  6
Continuous
 48
0.25
100
AcDbCircle
 10
329.8885620161018
 20
275.4046436161271
 30
0.0
 40
2.45
100
AcDbArc
 50
35.12899999999993
 51
54.87089000000024
  0
LINE
  5
4EC
330
18
100
AcDbEntity
  8
1
  6
Continuous
 48
0.25
100
AcDbLine
 10
331.1380196984584
 20
274.7760256876523
 30
0.0
 11
331.8925026339845
 21
273.9946726944411
 31
0.0
  0
LINE
  5
4ED
330
18
100
AcDbEntity
  8
1
  6
Continuous
 48
0.25
100
AcDbLine
 10
330.9096242081352
 20
275.4046436161272
 30
0.0
 11
331.1380196984584
 21
274.7760256876523
 31
0.0
  0
LINE
  5
4EE
330
18
100
AcDbEntity
  8
1
  6
Continuous
 48
0.25
100
AcDbLine
 10
331.1380196984585
 20
276.0332615446021
 30
0.0
 11
331.8925026339844
 21
276.8146145378131
 31
0.0
  0
LINE
  5
4EF
330
18
100
AcDbEntity
  8
1
  6
Continuous
 48
0.25
100
AcDbLine
 10
330.9096242081352
 20
275.4046436161272
 30
0.0
 11
331.1380196984585
 21
276.0332615446021
 31
0.0
  0
ARC
  5
87C
330
18
100
AcDbEntity
  8
1
  6
Continuous
100
AcDbCircle
 10
460.8058089851899
 20
218.8012462799797
 30
0.0
 40
9.4
100
AcDbArc
 50
58.76707098451827
 51
66.15552997678515
  0
LINE
  5
87D
330
18
100
AcDbEntity
  8
4
  6
CENTER
 48
0.3
100
AcDbLine
 10
467.6058089851464
 20
218.8012462799799
 30
0.0
 11
424.6058089851898
 21
218.8012462799881
 31
0.0
  0
ARC
  5
87E
330
18
100
AcDbEntity
  8
1
  6
Continuous
100
AcDbCircle
 10
465.1058089852369
 20
120.3012462799866
 30
0.0
 40
1.0
100
AcDbArc
 50
180.0
 51
270.0
  0
LINE
  5
882
330
18
100
AcDbEntity
  8
1
  6
Continuous
100
AcDbLine
 10
468.6058089851902
 20
217.8508404693996
 30
0.0
 11
468.6058089852363
 21
134.3012462799866
 31
0.0
  0
ARC
  5
884
330
18
100
AcDbEntity
  8
1
  6
Continuous
100
AcDbCircle
 10
418.6058089852363
 20
134.3012462799866
 30
0.0
 40
50.0
100
AcDbArc
 50
343.3984504009794
 51
0.000000000000007
  0
ARC
  5
885
330
18
100
AcDbEntity
  8
1
  6
Continuous
100
AcDbCircle
 10
465.5632365127318
 20
120.3012462799866
 30
0.0
 40
1.0
100
AcDbArc
 50
270.0
 51
343.3984504009794
  0
LINE
  5
886
330
18
100
AcDbEntity
  8
1
  6
Continuous
100
AcDbLine
 10
465.5632365127321
 20
119.3012462799866
 30
0.0
 11
465.1058089852369
 21
119.3012462799866
 31
0.0
  0
ARC
  5
88D
330
18
100
AcDbEntity
  8
1
  6
Continuous
100
AcDbCircle
 10
448.6058089851902
 20
217.8508404693888
 30
0.0
 40
20.0
100
AcDbArc
 50
0.0000000000317617
 51
20.36413480635096
  0
ARC
  5
88E
330
18
100
AcDbEntity
  8
1
  6
Continuous
100
AcDbCircle
 10
463.6058089851872
 20
223.4186048322273
 30
0.0
 40
4.0
100
AcDbArc
 50
20.3641348063502
 51
58.76707098451827
  0
LINE
  5
894
330
18
100
AcDbEntity
  8
1
  6
Continuous
100
AcDbLine
 10
457.6058089851462
 20
243.8012462799847
 30
0.0
 11
457.6058089851462
 21
124.8012462799848
 31
0.0
  0
LINE
  5
895
330
18
100
AcDbEntity
  8
1
  6
Continuous
100
AcDbLine
 10
464.6058089851464
 20
236.5294884155131
 30
0.0
 11
464.6058089851464
 21
132.0730041444728
 31
0.0
  0
LINE
  5
896
330
18
100
AcDbEntity
  8
1
  6
Continuous
100
AcDbLine
 10
456.6058089851461
 20
243.301246279967
 30
0.0
 11
456.6058089851461
 21
125.3012462799704
 31
0.0
  0
LINE
  5
897
330
18
100
AcDbEntity
  8
1
  6
Continuous
100
AcDbLine
 10
433.6058089851802
 20
141.30124627998
 30
0.0
 11
433.6058089851802
 21
177.8012462799796
 31
0.0
  0
LINE
  5
898
330
18
100
AcDbEntity
  8
1
  6
Continuous
100
AcDbLine
 10
419.7468263904298
 20
136.8012462800672
 30
0.0
 11
419.7468263904298
 21
125.8012462800673
 31
0.0
  0
LINE
  5
899
330
18
100
AcDbEntity
  8
1
  6
Continuous
100
AcDbLine
 10
414.7468263904298
 20
136.3012462800675
 30
0.0
 11
414.7468263904298
 21
126.3012462800674
 31
0.0
  0
LINE
  5
89A
330
18
100
AcDbEntity
  8
1
  6
Continuous
100
AcDbLine
 10
413.7468263904298
 20
135.6012462800682
 30
0.0
 11
413.7468263904298
 21
128.0012462800681
 31
0.0
  0
ARC
  5
89B
330
18
100
AcDbEntity
  8
1
  6
Continuous
100
AcDbCircle
 10
412.7407136662069
 20
129.694235526482
 30
0.0
 40
1.3
100
AcDbArc
 50
195.8808500082795
 51
265.0000000000002
  0
ARC
  5
89F
330
18
100
AcDbEntity
  8
1
  6
Continuous
100
AcDbCircle
 10
436.9382319221991
 20
147.8793425437285
 30
0.0
 40
32.0
100
AcDbArc
 50
314.5860766758542
 51
329.3440375942919
  0
LINE
  5
8A0
330
18
100
AcDbEntity
  8
1
  6
Continuous
100
AcDbLine
 10
462.605808985237
 20
127.8719604942581
 30
0.0
 11
462.605808985237
 21
128.769777197729
 31
0.0
  0
LINE
  5
8A1
330
18
100
AcDbEntity
  8
1
  6
Continuous
100
AcDbLine
 10
452.6058089851614
 20
128.8012462799856
 30
0.0
 11
453.1058089851613
 21
128.3012462799857
 31
0.0
  0
LINE
  5
8A2
330
18
100
AcDbEntity
  8
1
  6
Continuous
100
AcDbLine
 10
453.1058089851613
 20
135.3012462799856
 30
0.0
 11
453.1058089851613
 21
128.3012462799856
 31
0.0
  0
LINE
  5
8A3
330
18
100
AcDbEntity
  8
1
  6
Continuous
100
AcDbLine
 10
456.6058089851461
 20
125.3012462799704
 30
0.0
 11
457.6058089851462
 21
125.3012462799704
 31
0.0
  0
ARC
  5
8A4
330
18
100
AcDbEntity
  8
1
  6
Continuous
100
AcDbCircle
 10
460.105808985237
 20
124.3012462799867
 30
0.0
 40
3.999999999999963
100
AcDbArc
 50
0.000000000000007
 51
45.57299599919426
  0
LINE
  5
8A5
330
18
100
AcDbEntity
  8
1
  6
Continuous
100
AcDbLine
 10
457.6058089851462
 20
124.8012462799848
 30
0.0
 11
458.699612056951
 21
124.8012462799848
 31
0.0
  0
ARC
  5
8A6
330
18
100
AcDbEntity
  8
1
  6
Continuous
100
AcDbCircle
 10
458.699612056951
 20
125.8012462799915
 30
0.0
 40
1.0
100
AcDbArc
 50
270.0
 51
314.5860766758542
  0
LINE
  5
8A7
330
18
100
AcDbEntity
  8
1
  6
Continuous
100
AcDbLine
 10
464.105808985237
 20
124.3012462799867
 30
0.0
 11
464.105808985237
 21
120.3012462799866
 31
0.0
  0
ARC
  5
8A8
330
18
100
AcDbEntity
  8
1
  6
Continuous
100
AcDbCircle
 10
463.605808985237
 20
127.8719604942581
 30
0.0
 40
1.0
100
AcDbArc
 50
180.0
 51
225.5729959991934
  0
LINE
  5
8A9
330
18
100
AcDbEntity
  8
1
  6
Continuous
100
AcDbLine
 10
453.1058089851613
 20
128.3012462799856
 30
0.0
 11
456.6058089851461
 21
128.3012462799851
 31
0.0
  0
LINE
  5
8AA
330
18
100
AcDbEntity
  8
1
  6
Continuous
100
AcDbLine
 10
419.7468263904297
 20
125.8012462800672
 30
0.0
 11
415.2468263904297
 21
125.8012462800674
 31
0.0
  0
ARC
  5
8AB
330
18
100
AcDbEntity
  8
1
  6
Continuous
100
AcDbCircle
 10
415.2468263904298
 20
126.3012462800674
 30
0.0
 40
0.5
100
AcDbArc
 50
180.0
 51
270.0
  0
LINE
  5
8AC
330
18
100
AcDbEntity
  8
1
  6
Continuous
100
AcDbLine
 10
413.7468263904298
 20
128.0012462800681
 30
0.0
 11
414.7468263904298
 21
128.0012462800681
 31
0.0
  0
LINE
  5
8AD
330
18
100
AcDbEntity
  8
1
  6
Continuous
100
AcDbLine
 10
413.7468263904298
 20
128.3012462800682
 30
0.0
 11
412.6274112005953
 21
128.3991824189574
 31
0.0
  0
ARC
  5
8AE
330
18
100
AcDbEntity
  8
1
  6
Continuous
100
AcDbCircle
 10
437.6058089851802
 20
141.30124627998
 30
0.0
 40
4.0
100
AcDbArc
 50
180.0
 51
270.0
  0
LINE
  5
8AF
330
18
100
AcDbEntity
  8
1
  6
Continuous
100
AcDbLine
 10
456.6058089851461
 20
137.3012462799801
 30
0.0
 11
437.6058089851802
 21
137.3012462799801
 31
0.0
  0
LINE
  5
8B0
330
18
100
AcDbEntity
  8
4
  6
CENTER
 48
0.2
100
AcDbLine
 10
449.6058089851613
 20
131.8012462799853
 30
0.0
 11
461.7587561348468
 21
131.8012462799847
 31
0.0
  0
ARC
  5
8B1
330
18
100
AcDbEntity
  8
1
  6
Continuous
100
AcDbCircle
 10
463.6058089851464
 20
132.0730041444728
 30
0.0
 40
1.0
100
AcDbArc
 50
329.3440375942917
 51
0.000000000000007
  0
LINE
  5
8B2
330
18
100
AcDbEntity
  8
1
  6
Continuous
100
AcDbLine
 10
453.1058089851613
 20
135.3012462799856
 30
0.0
 11
456.6058089851461
 21
135.3012462799851
 31
0.0
  0
LINE
  5
8B3
330
18
100
AcDbEntity
  8
1
  6
Continuous
100
AcDbLine
 10
452.6058089851614
 20
128.8012462799856
 30
0.0
 11
452.6058089851614
 21
134.8012462799855
 31
0.0
  0
LINE
  5
8B4
330
18
100
AcDbEntity
  8
1
  6
Continuous
100
AcDbLine
 10
453.1058089851613
 20
135.3012462799855
 30
0.0
 11
452.6058089851614
 21
134.8012462799856
 31
0.0
  0
LINE
  5
8B5
330
18
100
AcDbEntity
  8
4
  6
CENTER
 48
0.2
100
AcDbLine
 10
409.1468263904298
 20
131.8012462800681
 30
0.0
 11
421.7468263904296
 21
131.8012462800681
 31
0.0
  0
LINE
  5
8B6
330
18
100
AcDbEntity
  8
1
  6
Continuous
100
AcDbLine
 10
419.7468263904298
 20
136.8012462800672
 30
0.0
 11
415.2468263904298
 21
136.8012462800675
 31
0.0
  0
ARC
  5
8B7
330
18
100
AcDbEntity
  8
1
  6
Continuous
100
AcDbCircle
 10
415.2468263904298
 20
136.3012462800675
 30
0.0
 40
0.5
100
AcDbArc
 50
90.0
 51
180.0
  0
LINE
  5
8B8
330
18
100
AcDbEntity
  8
1
  6
Continuous
100
AcDbLine
 10
414.7468263904297
 20
132.8012462800681
 30
0.0
 11
413.7468263904298
 21
131.801246280068
 31
0.0
  0
LINE
  5
8B9
330
18
100
AcDbEntity
  8
1
  6
Continuous
100
AcDbLine
 10
414.7468263904297
 20
131.801246280068
 30
0.0
 11
413.7468263904298
 21
130.801246280068
 31
0.0
  0
LINE
  5
8BA
330
18
100
AcDbEntity
  8
1
  6
Continuous
100
AcDbLine
 10
413.7468263904298
 20
135.6012462800682
 30
0.0
 11
414.7468263904298
 21
135.6012462800682
 31
0.0
  0
ARC
  5
8BB
330
18
100
AcDbEntity
  8
1
  6
Continuous
100
AcDbCircle
 10
412.740713666221
 20
133.908257033651
 30
0.0
 40
1.3
100
AcDbArc
 50
94.99999999999982
 51
164.1191499917205
  0
LINE
  5
8BC
330
18
100
AcDbEntity
  8
1
  6
Continuous
100
AcDbLine
 10
413.7468263904298
 20
135.3012462800682
 30
0.0
 11
412.627411200629
 21
135.2033101411819
 31
0.0
  0
ARC
  5
8BD
330
18
100
AcDbEntity
  8
1
  6
Continuous
100
AcDbCircle
 10
420.1468263904298
 20
131.8012462800681
 30
0.0
 40
9.0
100
AcDbArc
 50
164.1191499917205
 51
195.8808500082795
  0
ARC
  5
8BE
330
18
100
AcDbEntity
  8
1
  6
Continuous
100
AcDbCircle
 10
403.7806131239013
 20
216.0230223447445
 30
0.0
 40
1.6
100
AcDbArc
 50
195.4939675005221
 51
265.0000000000002
  0
ARC
  5
8BF
330
18
100
AcDbEntity
  8
1
  6
Continuous
100
AcDbCircle
 10
403.7806131239183
 20
221.5794702153892
 30
0.0
 40
1.6
100
AcDbArc
 50
94.99999999999982
 51
164.5060324994779
  0
LINE
  5
8C0
330
18
100
AcDbEntity
  8
4
  6
CENTER
 48
0.2
100
AcDbLine
 10
399.8026624035926
 20
218.8012462800688
 30
0.0
 11
409.2026624035926
 21
218.8012462800688
 31
0.0
  0
LINE
  5
8C1
330
18
100
AcDbEntity
  8
1
  6
Continuous
100
AcDbLine
 10
406.4026624035927
 20
224.8012462800681
 30
0.0
 11
406.4026624035927
 21
212.8012462800682
 31
0.0
  0
LINE
  5
8C2
330
18
100
AcDbEntity
  8
1
  6
Continuous
100
AcDbLine
 10
407.2026624035927
 20
224.8012462800681
 30
0.0
 11
407.2026624035927
 21
212.8012462800682
 31
0.0
  0
LINE
  5
8C3
330
18
100
AcDbEntity
  8
1
  6
Continuous
100
AcDbLine
 10
429.6058089851896
 20
223.801246279984
 30
0.0
 11
429.6058089851896
 21
213.8012462799823
 31
0.0
  0
LINE
  5
8C4
330
18
100
AcDbEntity
  8
1
  6
Continuous
100
AcDbLine
 10
432.6058089851899
 20
228.5440320725375
 30
0.0
 11
432.6058089851899
 21
207.5512462798626
 31
0.0
  0
LINE
  5
8C5
330
18
100
AcDbEntity
  8
1
  6
Continuous
100
AcDbLine
 10
434.8058089851898
 20
224.7012462799808
 30
0.0
 11
434.8058089851898
 21
212.9012462799809
 31
0.0
  0
LINE
  5
8C6
330
18
100
AcDbEntity
  8
1
  6
Continuous
100
AcDbLine
 10
434.8058089851868
 20
225.801246279976
 30
0.0
 11
434.8058089851868
 21
211.801246279976
 31
0.0
  0
LINE
  5
8C7
330
18
100
AcDbEntity
  8
1
  6
Continuous
100
AcDbLine
 10
434.6058089851899
 20
207.5512462798557
 30
0.0
 11
434.6058089851895
 21
228.5440320725366
 31
0.0
  0
LINE
  5
8C8
330
18
100
AcDbEntity
  8
1
  6
Continuous
100
AcDbLine
 10
435.105808985109
 20
207.3012462799884
 30
0.0
 11
435.105808985109
 21
227.4012462800769
 31
0.0
  0
LINE
  5
8C9
330
18
100
AcDbEntity
  8
1
  6
Continuous
100
AcDbLine
 10
451.0900200011858
 20
217.8012462799914
 30
0.0
 11
451.0900200011858
 21
208.731248826389
 31
0.0
  0
ARC
  5
8CA
330
18
100
AcDbEntity
  8
1
  6
Continuous
100
AcDbCircle
 10
437.6058089851802
 20
177.8012462799796
 30
0.0
 40
4.0
100
AcDbArc
 50
90.0
 51
180.0
  0
LINE
  5
8CC
330
18
100
AcDbEntity
  8
1
  6
Continuous
100
AcDbLine
 10
432.6058089851898
 20
207.5512462798625
 30
0.0
 11
434.6058089850406
 21
207.5512462798556
 31
0.0
  0
LINE
  5
8CD
330
18
100
AcDbEntity
  8
1
  6
Continuous
100
AcDbLine
 10
454.6058089852196
 20
182.8012462799802
 30
0.0
 11
454.6058089852196
 21
204.8012462799811
 31
0.0
  0
LINE
  5
8CE
330
18
100
AcDbEntity
  8
1
  6
Continuous
100
AcDbLine
 10
437.6058089851802
 20
181.8012462799813
 30
0.0
 11
453.6058089851779
 21
181.8012462799813
 31
0.0
  0
ARC
  5
8CF
330
18
100
AcDbEntity
  8
1
  6
Continuous
100
AcDbCircle
 10
453.6058089852198
 20
182.8012462799827
 30
0.0
 40
1.0
100
AcDbArc
 50
270.0
 51
0.000000000000007
  0
LINE
  5
8D0
330
18
100
AcDbEntity
  8
1
  6
Continuous
100
AcDbLine
 10
450.5058089851456
 20
181.8012462799827
 30
0.0
 11
453.6058089852198
 21
181.8012462799827
 31
0.0
  0
LINE
  5
8D1
330
18
100
AcDbEntity
  8
1
  6
Continuous
100
AcDbLine
 10
453.1058089852181
 20
206.3012462799831
 30
0.0
 11
436.1058089851383
 21
206.3012462799867
 31
0.0
  0
LINE
  5
8D2
330
18
100
AcDbEntity
  8
1
  6
Continuous
100
AcDbLine
 10
454.6058089852196
 20
204.8012462799811
 30
0.0
 11
451.3829132199993
 21
208.0241420452026
 31
0.0
  0
ARC
  5
8D3
330
18
100
AcDbEntity
  8
1
  6
Continuous
100
AcDbCircle
 10
452.0900200011858
 20
208.731248826389
 30
0.0
 40
1.0
100
AcDbArc
 50
180.0
 51
224.9999999999911
  0
LINE
  5
8D4
330
18
100
AcDbEntity
  8
1
  6
Continuous
100
AcDbLine
 10
434.7058089851088
 20
211.8012462799761
 30
0.0
 11
434.7058089851088
 21
209.0512462799873
 31
0.0
  0
ARC
  5
8D5
330
18
100
AcDbEntity
  8
1
  6
Continuous
100
AcDbCircle
 10
436.105808985109
 20
207.3012462799884
 30
0.0
 40
1.0
100
AcDbArc
 50
180.0
 51
270.0
  0
ARC
  5
8D6
330
18
100
AcDbEntity
  8
1
  6
Continuous
100
AcDbCircle
 10
434.962058985109
 20
209.0512462799874
 30
0.0
 40
0.2562500000000227
100
AcDbArc
 50
180.0
 51
257.3196165081744
  0
LINE
  5
8D7
330
18
100
AcDbEntity
  8
1
  6
Continuous
100
AcDbLine
 10
435.1058089851088
 20
208.8012462799873
 30
0.0
 11
434.905808985109
 21
208.8012462799873
 31
0.0
  0
LINE
  5
8D8
330
18
100
AcDbEntity
  8
1
  6
Continuous
100
AcDbLine
 10
434.8058089851868
 20
211.8012462799758
 30
0.0
 11
434.6058089851875
 21
211.8012462799761
 31
0.0
  0
LINE
  5
8D9
330
18
100
AcDbEntity
  8
1
  6
Continuous
100
AcDbLine
 10
429.6058089851896
 20
213.8012462799819
 30
0.0
 11
432.6058089851898
 21
213.8012462799833
 31
0.0
  0
LINE
  5
8DA
330
18
100
AcDbEntity
  8
1
  6
Continuous
100
AcDbLine
 10
406.4026624035927
 20
212.8012462800683
 30
0.0
 11
407.2026624035927
 21
212.801246280068
 31
0.0
  0
LINE
  5
8DC
330
18
100
AcDbEntity
  8
1
  6
Continuous
100
AcDbLine
 10
456.6058089851461
 20
231.3012462799822
 30
0.0
 11
433.1058089851384
 21
231.3012462799873
 31
0.0
  0
LINE
  5
8DD
330
18
100
AcDbEntity
  8
1
  6
Continuous
100
AcDbLine
 10
434.6058089851898
 20
227.4012462800766
 30
0.0
 11
435.105808985109
 21
227.4012462800774
 31
0.0
  0
LINE
  5
8DE
330
18
100
AcDbEntity
  8
1
  6
Continuous
100
AcDbLine
 10
434.6058089851895
 20
226.4201725091719
 30
0.0
 11
435.105808985109
 21
226.4201725091721
 31
0.0
  0
LINE
  5
8E1
330
18
100
AcDbEntity
  8
1
  6
Continuous
100
AcDbLine
 10
452.6058089851614
 20
233.8012462799853
 30
0.0
 11
452.6058089851614
 21
239.8012462799854
 31
0.0
  0
LINE
  5
8E2
330
18
100
AcDbEntity
  8
1
  6
Continuous
100
AcDbLine
 10
453.1058089851613
 20
240.3012462799853
 30
0.0
 11
453.1058089851613
 21
233.3012462799853
 31
0.0
  0
LINE
  5
8E3
330
18
100
AcDbEntity
  8
1
  6
Continuous
100
AcDbLine
 10
455.605808985146
 20
230.3012462799821
 30
0.0
 11
455.605808985146
 21
219.8012462800064
 31
0.0
  0
ARC
  5
8E4
330
18
100
AcDbEntity
  8
1
  6
Continuous
100
AcDbCircle
 10
456.6058089851461
 20
230.3012462799821
 30
0.0
 40
1.0
100
AcDbArc
 50
90.0
 51
180.0
  0
LINE
  5
8E5
330
18
100
AcDbEntity
  8
1
  6
Continuous
100
AcDbLine
 10
452.6058089851616
 20
233.8012462799852
 30
0.0
 11
453.1058089851616
 21
233.3012462799852
 31
0.0
  0
LINE
  5
8E6
330
18
100
AcDbEntity
  8
1
  6
Continuous
100
AcDbLine
 10
453.1058089851613
 20
233.3012462799853
 30
0.0
 11
456.6058089851461
 21
233.3012462799852
 31
0.0
  0
LINE
  5
8E7
330
18
100
AcDbEntity
  8
1
  6
Continuous
100
AcDbLine
 10
434.7058089851087
 20
226.4201725091721
 30
0.0
 11
434.7058089851087
 21
225.8012462799758
 31
0.0
  0
LINE
  5
8E8
330
18
100
AcDbEntity
  8
1
  6
Continuous
100
AcDbLine
 10
434.7058089851898
 20
226.4201725091647
 30
0.0
 11
434.7058089851898
 21
225.801246279976
 31
0.0
  0
LINE
  5
8E9
330
18
100
AcDbEntity
  8
1
  6
Continuous
100
AcDbLine
 10
434.8058089851868
 20
225.8012462799758
 30
0.0
 11
434.6058089851873
 21
225.8012462799758
 31
0.0
  0
LINE
  5
8EA
330
18
100
AcDbEntity
  8
1
  6
Continuous
100
AcDbLine
 10
456.6058089851461
 20
243.301246279967
 30
0.0
 11
457.6058089851462
 21
243.301246279967
 31
0.0
  0
LINE
  5
8EB
330
18
100
AcDbEntity
  8
4
  6
CENTER
 48
0.2
100
AcDbLine
 10
449.6058089851636
 20
236.8012462799848
 30
0.0
 11
461.7587561348467
 21
236.8012462799845
 31
0.0
  0
ARC
  5
8EC
330
18
100
AcDbEntity
  8
1
  6
Continuous
100
AcDbCircle
 10
436.9382319222032
 20
220.7231500162506
 30
0.0
 40
32.0
100
AcDbArc
 50
30.6559624057232
 51
45.41392332415525
  0
ARC
  5
8ED
330
18
100
AcDbEntity
  8
1
  6
Continuous
100
AcDbCircle
 10
463.6058089851464
 20
236.5294884155131
 30
0.0
 40
1.0
100
AcDbArc
 50
0.000000000000007
 51
30.65596240572231
  0
LINE
  5
8EE
330
18
100
AcDbEntity
  8
1
  6
Continuous
100
AcDbLine
 10
457.6058089851462
 20
243.8012462799847
 30
0.0
 11
458.699612056951
 21
243.8012462799847
 31
0.0
  0
ARC
  5
8EF
330
18
100
AcDbEntity
  8
1
  6
Continuous
100
AcDbCircle
 10
458.699612056951
 20
242.8012462799914
 30
0.0
 40
1.0
100
AcDbArc
 50
45.41392332415525
 51
90.0
  0
LINE
  5
8F0
330
18
100
AcDbEntity
  8
1
  6
Continuous
100
AcDbLine
 10
453.1058089851613
 20
240.3012462799853
 30
0.0
 11
456.6058089851461
 21
240.3012462799852
 31
0.0
  0
LINE
  5
8F1
330
18
100
AcDbEntity
  8
1
  6
Continuous
100
AcDbLine
 10
453.1058089851616
 20
240.3012462799852
 30
0.0
 11
452.6058089851614
 21
239.8012462799852
 31
0.0
  0
LINE
  5
8F2
330
18
100
AcDbEntity
  8
1
  6
Continuous
100
AcDbLine
 10
419.7468263904298
 20
232.3012462800244
 30
0.0
 11
419.7468263904307
 21
243.3012462800244
 31
0.0
  0
LINE
  5
8F3
330
18
100
AcDbEntity
  8
1
  6
Continuous
100
AcDbLine
 10
414.7468263904298
 20
232.8012462800245
 30
0.0
 11
414.7468263904306
 21
242.8012462800246
 31
0.0
  0
LINE
  5
8F4
330
18
100
AcDbEntity
  8
1
  6
Continuous
100
AcDbLine
 10
413.7468263904302
 20
241.1012462800235
 30
0.0
 11
413.7468263904302
 21
233.5012462800235
 31
0.0
  0
ARC
  5
8F5
330
18
100
AcDbEntity
  8
1
  6
Continuous
100
AcDbCircle
 10
420.1468263904302
 20
237.3012462800236
 30
0.0
 40
9.0
100
AcDbArc
 50
164.1191499917205
 51
195.8808500082795
  0
LINE
  5
8F6
330
18
100
AcDbEntity
  8
1
  6
Continuous
100
AcDbLine
 10
419.7468263904298
 20
232.3012462800245
 30
0.0
 11
415.2468263904298
 21
232.3012462800246
 31
0.0
  0
LINE
  5
8F7
330
18
100
AcDbEntity
  8
1
  6
Continuous
100
AcDbLine
 10
429.6058089851896
 20
219.4581005294315
 30
0.0
 11
432.6058089851899
 21
219.458100529433
 31
0.0
  0
LINE
  5
8F8
330
18
100
AcDbEntity
  8
1
  6
Continuous
100
AcDbLine
 10
429.6058089851896
 20
218.1443920305561
 30
0.0
 11
432.6058089851899
 21
218.1443920305578
 31
0.0
  0
LINE
  5
8F9
330
18
100
AcDbEntity
  8
1
  6
Continuous
100
AcDbLine
 10
429.6058089851896
 20
223.8012462799836
 30
0.0
 11
432.6058089851898
 21
223.8012462799852
 31
0.0
  0
LINE
  5
8FA
330
18
100
AcDbEntity
  8
1
  6
Continuous
100
AcDbLine
 10
432.9058089851089
 20
231.1012462799889
 30
0.0
 11
432.9058089851089
 21
228.5440320725372
 31
0.0
  0
ARC
  5
8FB
330
18
100
AcDbEntity
  8
1
  6
Continuous
100
AcDbCircle
 10
433.1058089851088
 20
231.1012462799889
 30
0.0
 40
0.2
100
AcDbArc
 50
90.0
 51
180.0
  0
LINE
  5
8FF
330
18
100
AcDbEntity
  8
1
  6
Continuous
100
AcDbLine
 10
432.6058089851898
 20
228.5440320725374
 30
0.0
 11
434.6058089851895
 21
228.5440320725366
 31
0.0
  0
LINE
  5
900
330
18
100
AcDbEntity
  8
1
  6
Continuous
100
AcDbLine
 10
406.4026624035927
 20
220.1012462800688
 30
0.0
 11
405.1026624035926
 21
218.8012462800688
 31
0.0
  0
LINE
  5
901
330
18
100
AcDbEntity
  8
1
  6
Continuous
100
AcDbLine
 10
406.4026624035927
 20
218.8012462800688
 30
0.0
 11
405.1026624035926
 21
217.5012462800689
 31
0.0
  0
LINE
  5
902
330
18
100
AcDbEntity
  8
1
  6
Continuous
100
AcDbLine
 10
405.1026624035926
 20
223.4012462800689
 30
0.0
 11
406.4026624035927
 21
223.4012462800689
 31
0.0
  0
LINE
  5
903
330
18
100
AcDbEntity
  8
1
  6
Continuous
100
AcDbLine
 10
405.1026624035928
 20
223.301246280069
 30
0.0
 11
403.6411639354975
 21
223.1733817323501
 31
0.0
  0
LINE
  5
904
330
18
100
AcDbEntity
  8
1
  6
Continuous
100
AcDbLine
 10
405.1026624035926
 20
214.2012462800688
 30
0.0
 11
406.4026624035927
 21
214.2012462800688
 31
0.0
  0
LINE
  5
905
330
18
100
AcDbEntity
  8
1
  6
Continuous
100
AcDbLine
 10
405.1026624035926
 20
214.3012462800689
 30
0.0
 11
403.6411639354561
 21
214.4291108277913
 31
0.0
  0
LINE
  5
906
330
18
100
AcDbEntity
  8
1
  6
Continuous
100
AcDbLine
 10
405.1026624035926
 20
223.4012462800689
 30
0.0
 11
405.1026624035926
 21
214.2012462800688
 31
0.0
  0
ARC
  5
907
330
18
100
AcDbEntity
  8
1
  6
Continuous
100
AcDbCircle
 10
415.2468263904298
 20
232.8012462800245
 30
0.0
 40
0.5
100
AcDbArc
 50
179.9999999999951
 51
269.9999999999947
  0
LINE
  5
908
330
18
100
AcDbEntity
  8
1
  6
Continuous
100
AcDbLine
 10
413.7468263904302
 20
233.5012462800235
 30
0.0
 11
414.7468263904301
 21
233.5012462800235
 31
0.0
  0
ARC
  5
909
330
18
100
AcDbEntity
  8
1
  6
Continuous
100
AcDbCircle
 10
412.7407136662073
 20
235.1942355264374
 30
0.0
 40
1.3
100
AcDbArc
 50
195.8808500082795
 51
265.0000000000002
  0
LINE
  5
90A
330
18
100
AcDbEntity
  8
1
  6
Continuous
100
AcDbLine
 10
413.7468263904303
 20
233.8012462800235
 30
0.0
 11
412.6274112005956
 21
233.8991824189128
 31
0.0
  0
LINE
  5
90B
330
18
100
AcDbEntity
  8
1
  6
Continuous
100
AcDbLine
 10
406.4026624035927
 20
224.8012462800683
 30
0.0
 11
407.2026624035927
 21
224.8012462800681
 31
0.0
  0
LINE
  5
90C
330
18
100
AcDbEntity
  8
4
  6
CENTER
 48
0.2
100
AcDbLine
 10
409.1468263904301
 20
237.3012462800236
 30
0.0
 11
421.7468263904303
 21
237.3012462800236
 31
0.0
  0
LINE
  5
90D
330
18
100
AcDbEntity
  8
1
  6
Continuous
100
AcDbLine
 10
419.7468263904307
 20
243.3012462800244
 30
0.0
 11
415.2468263904308
 21
243.3012462800246
 31
0.0
  0
ARC
  5
90E
330
18
100
AcDbEntity
  8
1
  6
Continuous
100
AcDbCircle
 10
415.2468263904308
 20
242.8012462800246
 30
0.0
 40
0.5
100
AcDbArc
 50
89.99999999999515
 51
179.9999999999951
  0
LINE
  5
90F
330
18
100
AcDbEntity
  8
1
  6
Continuous
100
AcDbLine
 10
414.7468263904305
 20
238.3012462800236
 30
0.0
 11
413.7468263904304
 21
237.3012462800236
 31
0.0
  0
LINE
  5
910
330
18
100
AcDbEntity
  8
1
  6
Continuous
100
AcDbLine
 10
414.7468263904305
 20
237.3012462800236
 30
0.0
 11
413.7468263904304
 21
236.3012462800235
 31
0.0
  0
LINE
  5
911
330
18
100
AcDbEntity
  8
1
  6
Continuous
100
AcDbLine
 10
413.7468263904302
 20
241.1012462800235
 30
0.0
 11
414.7468263904301
 21
241.1012462800235
 31
0.0
  0
ARC
  5
912
330
18
100
AcDbEntity
  8
1
  6
Continuous
100
AcDbCircle
 10
412.7407136662212
 20
239.4082570336063
 30
0.0
 40
1.3
100
AcDbArc
 50
94.99999999999982
 51
164.1191499917205
  0
LINE
  5
913
330
18
100
AcDbEntity
  8
1
  6
Continuous
100
AcDbLine
 10
413.7468263904302
 20
240.8012462800237
 30
0.0
 11
412.6274112006291
 21
240.7033101411373
 31
0.0
  0
ARC
  5
914
330
18
100
AcDbEntity
  8
1
  6
Continuous
100
AcDbCircle
 10
413.8026624035926
 20
218.8012462800688
 30
0.0
 40
12.0
100
AcDbArc
 50
164.5060324994779
 51
195.4939675005221
  0
ARC
  5
B5F
330
18
100
AcDbEntity
  8
1
  6
Continuous
100
AcDbCircle
 10
255.1713150470575
 20
313.7123256181217
 30
0.0
 40
60.0
100
AcDbArc
 50
166.9838774348989
 51
193.0161225652456
  0
LINE
  5
B7D
330
18
100
AcDbEntity
  8
1
  6
Continuous
100
AcDbLine
 10
202.1713150470576
 20
296.712325618076
 30
0.0
 11
202.1713150470576
 21
330.7123256180759
 31
0.0
  0
LINE
  5
B7F
330
18
100
AcDbEntity
  8
1
  6
Continuous
100
AcDbLine
 10
224.6713150470011
 20
303.7123256181114
 30
0.0
 11
224.871315047001
 21
303.7123256181114
 31
0.0
  0
LINE
  5
B80
330
18
100
AcDbEntity
  8
1
  6
Continuous
100
AcDbLine
 10
224.6713150470011
 20
323.7123256181115
 30
0.0
 11
224.8713150470015
 21
323.7123256181115
 31
0.0
  0
LINE
  5
B84
330
18
100
AcDbEntity
  8
1
  6
Continuous
100
AcDbLine
 10
225.0713150470011
 20
319.8899009665244
 30
0.0
 11
225.0713150470011
 21
323.4623256181115
 31
0.0
  0
LINE
  5
B85
330
18
100
AcDbEntity
  8
1
  6
Continuous
100
AcDbLine
 10
225.0713150470011
 20
303.9623256181115
 30
0.0
 11
225.0713150470011
 21
307.5347502696757
 31
0.0
  0
LINE
  5
B8A
330
18
100
AcDbEntity
  8
1
  6
Continuous
100
AcDbLine
 10
226.871315047001
 20
307.7347502696757
 30
0.0
 11
226.871315047001
 21
319.6899009665245
 31
0.0
  0
ARC
  5
B8B
330
18
100
AcDbEntity
  8
1
  6
Continuous
100
AcDbCircle
 10
223.6713150470011
 20
324.212325618111
 30
0.0
 40
1.0
100
AcDbArc
 50
0.0
 51
90.0
  0
ARC
  5
B8C
330
18
100
AcDbEntity
  8
1
  6
Continuous
100
AcDbCircle
 10
223.6713150470011
 20
303.212325618111
 30
0.0
 40
1.0
100
AcDbArc
 50
270.0
 51
0.0
  0
LINE
  5
B8D
330
18
100
AcDbEntity
  8
1
  6
Continuous
100
AcDbLine
 10
224.6713150470011
 20
303.212325618111
 30
0.0
 11
224.671315047001
 21
307.5347502696757
 31
0.0
  0
ARC
  5
B8F
330
18
100
AcDbEntity
  8
1
  6
Continuous
100
AcDbCircle
 10
224.8150650470011
 20
303.9623256181115
 30
0.0
 40
0.2562499999999943
100
AcDbArc
 50
282.680383491821
 51
0.0
  0
ARC
  5
B91
330
18
100
AcDbEntity
  8
1
  6
Continuous
100
AcDbCircle
 10
224.8150650470011
 20
323.4623256181115
 30
0.0
 40
0.2562499999999943
100
AcDbArc
 50
0.0
 51
77.31961650817895
  0
ARC
  5
B92
330
18
100
AcDbEntity
  8
1
  6
Continuous
100
AcDbCircle
 10
201.0972917086638
 20
326.2123256180759
 30
0.0
 40
4.5
100
AcDbArc
 50
90.0
 51
166.9838774348989
  0
LINE
  5
B93
330
18
100
AcDbEntity
  8
1
  6
Continuous
100
AcDbLine
 10
202.1713150470576
 20
330.7123256180759
 30
0.0
 11
201.0972917086638
 21
330.7123256180759
 31
0.0
  0
ARC
  5
B94
330
18
100
AcDbEntity
  8
1
  6
Continuous
100
AcDbCircle
 10
201.0972917086953
 20
301.2123256180309
 30
0.0
 40
4.5
100
AcDbArc
 50
193.0161225652456
 51
270.0
  0
LINE
  5
B95
330
18
100
AcDbEntity
  8
1
  6
Continuous
100
AcDbLine
 10
201.0972917086898
 20
296.7123256180309
 30
0.0
 11
202.1713150470814
 21
296.7123256180295
 31
0.0
  0
LINE
  5
B96
330
18
100
AcDbEntity
  8
4
  6
CENTER
 48
0.3
100
AcDbLine
 10
186.1713150469672
 20
313.7123256181208
 30
0.0
 11
232.1713150470218
 21
313.7123256181001
 31
0.0
  0
LINE
  5
B97
330
18
100
AcDbEntity
  8
1
  6
Continuous
100
AcDbLine
 10
203.1713150470575
 20
325.2123256181519
 30
0.0
 11
223.6713150470027
 21
325.2123256181198
 31
0.0
  0
LINE
  5
B98
330
18
100
AcDbEntity
  8
1
  6
Continuous
100
AcDbLine
 10
203.1713150470575
 20
302.2123256179888
 30
0.0
 11
223.6713150470011
 21
302.2123256179888
 31
0.0
  0
ARC
  5
B99
330
18
100
AcDbEntity
  8
1
  6
Continuous
100
AcDbCircle
 10
223.6713150470575
 20
42.26971961798802
 30
0.0
 40
2.5
100
AcDbArc
 50
270.0
 51
0.0
  0
ARC
  5
B9C
330
18
100
AcDbEntity
  8
1
  6
Continuous
100
AcDbCircle
 10
201.0972917086638
 20
63.76971961807504
 30
0.0
 40
4.5
100
AcDbArc
 50
90.0
 51
166.9838774348989
  0
ARC
  5
B9D
330
18
100
AcDbEntity
  8
1
  6
Continuous
100
AcDbCircle
 10
199.6713150470608
 20
42.47042332586254
 30
0.0
 40
1.0
100
AcDbArc
 50
271.5627397038371
 51
0.0
  0
ARC
  5
B9E
330
18
100
AcDbEntity
  8
1
  6
Continuous
100
AcDbCircle
 10
199.6713150470608
 20
60.06901591038182
 30
0.0
 40
1.0
100
AcDbArc
 50
0.0
 51
88.43726029620762
  0
LINE
  5
BA1
330
18
100
AcDbEntity
  8
1
  6
Continuous
100
AcDbLine
 10
195.9937010363523
 20
61.16971961812049
 30
0.0
 11
199.6985866186249
 21
61.06864397190481
 31
0.0
  0
LINE
  5
BA2
330
18
100
AcDbEntity
  8
1
  6
Continuous
100
AcDbLine
 10
195.9937010363523
 20
41.36971961812074
 30
0.0
 11
199.6985866186257
 21
41.47079526433938
 31
0.0
  0
ARC
  5
BA3
330
18
100
AcDbEntity
  8
1
  6
Continuous
100
AcDbCircle
 10
255.1713150470575
 20
51.26971961812063
 30
0.0
 40
60.0
100
AcDbArc
 50
166.9838774348989
 51
170.9865297377909
  0
LINE
  5
BA4
330
18
100
AcDbEntity
  8
1
  6
Continuous
100
AcDbLine
 10
207.1713150470574
 20
54.26971961811671
 30
0.0
 11
206.6713150470575
 21
54.76971961811664
 31
0.0
  0
LINE
  5
BA5
330
18
100
AcDbEntity
  8
1
  6
Continuous
100
AcDbLine
 10
206.6713150470574
 20
54.76971961811642
 30
0.0
 11
203.1713150470575
 21
54.76971961811688
 31
0.0
  0
LINE
  5
BA6
330
18
100
AcDbEntity
  8
1
  6
Continuous
100
AcDbLine
 10
207.1713150470574
 20
54.26971961811671
 30
0.0
 11
207.1713150470574
 21
48.26971961811671
 31
0.0
  0
LINE
  5
BA7
330
18
100
AcDbEntity
  8
1
  6
Continuous
100
AcDbLine
 10
206.6713150470574
 20
47.76971961811664
 30
0.0
 11
206.6713150470574
 21
54.76971961811664
 31
0.0
  0
LINE
  5
BA8
330
18
100
AcDbEntity
  8
1
  6
Continuous
100
AcDbLine
 10
206.6713150470574
 20
47.7697196181167
 30
0.0
 11
207.1713150470574
 21
48.26971961811665
 31
0.0
  0
LINE
  5
BA9
330
18
100
AcDbEntity
  8
1
  6
Continuous
100
AcDbLine
 10
206.6713150470574
 20
47.76971961811642
 30
0.0
 11
203.1713150470575
 21
47.76971961811688
 31
0.0
  0
LINE
  5
BAB
330
18
100
AcDbEntity
  8
1
  6
Continuous
100
AcDbLine
 10
202.1713150470575
 20
34.26971961807504
 30
0.0
 11
202.1713150470575
 21
68.26971961807505
 31
0.0
  0
LINE
  5
BAC
330
18
100
AcDbEntity
  8
4
  6
CENTER
 48
0.2
100
AcDbLine
 10
186.1713150469672
 20
51.26971961812341
 30
0.0
 11
235.1713150470137
 21
51.26971961810216
 31
0.0
  0
LINE
  5
BAD
330
18
100
AcDbEntity
  8
1
  6
Continuous
100
AcDbLine
 10
203.1713150470575
 20
62.76971961815099
 30
0.0
 11
223.6713150470615
 21
62.76971961811881
 31
0.0
  0
LINE
  5
BAE
330
18
100
AcDbEntity
  8
1
  6
Continuous
100
AcDbLine
 10
203.1713150470575
 20
39.76971961798801
 30
0.0
 11
223.6713150470575
 21
39.76971961798801
 31
0.0
  0
ARC
  5
BB7
330
18
100
AcDbEntity
  8
1
  6
Continuous
100
AcDbCircle
 10
223.6713150470575
 20
60.26971961811881
 30
0.0
 40
2.5
100
AcDbArc
 50
0.0
 51
90.0
  0
LINE
  5
BB8
330
18
100
AcDbEntity
  8
1
  6
Continuous
100
AcDbLine
 10
226.1713150470575
 20
42.2697196179879
 30
0.0
 11
226.1713150470575
 21
60.26971961811881
 31
0.0
  0
LINE
  5
BB9
330
18
100
AcDbEntity
  8
1
  6
Continuous
100
AcDbLine
 10
202.1713150470575
 20
68.26971961807505
 30
0.0
 11
201.0972917086638
 21
68.26971961807505
 31
0.0
  0
ARC
  5
BBA
330
18
100
AcDbEntity
  8
1
  6
Continuous
100
AcDbCircle
 10
201.0972917086953
 20
38.7697196180299
 30
0.0
 40
4.5
100
AcDbArc
 50
193.0161225652456
 51
270.0
  0
LINE
  5
BBB
330
18
100
AcDbEntity
  8
1
  6
Continuous
100
AcDbLine
 10
201.0972917086897
 20
34.26971961802991
 30
0.0
 11
202.1713150470814
 21
34.2697196180286
 31
0.0
  0
LINE
  5
C30
330
18
100
AcDbEntity
  8
1
  6
Continuous
100
AcDbLine
 10
203.1713150470575
 20
67.76971961811631
 30
0.0
 11
203.1713150470575
 21
34.76971961811634
 31
0.0
  0
LINE
  5
C31
330
18
100
AcDbEntity
  8
1
  6
Continuous
100
AcDbLine
 10
202.1713150470575
 20
67.76971961811693
 30
0.0
 11
203.1713150470575
 21
67.76971961811631
 31
0.0
  0
LINE
  5
C32
330
18
100
AcDbEntity
  8
1
  6
Continuous
100
AcDbLine
 10
202.1713150470575
 20
34.76971961811696
 30
0.0
 11
203.1713150470575
 21
34.76971961811634
 31
0.0
  0
LINE
  5
C33
330
18
100
AcDbEntity
  8
1
  6
Continuous
100
AcDbLine
 10
240.0302976417892
 20
58.26971961819698
 30
0.0
 11
240.0302976417891
 21
44.26971961819696
 31
0.0
  0
LINE
  5
C34
330
18
100
AcDbEntity
  8
1
  6
Continuous
100
AcDbLine
 10
245.0302976417892
 20
57.76971961819697
 30
0.0
 11
245.0302976417892
 21
44.76971961819696
 31
0.0
  0
LINE
  5
C35
330
18
100
AcDbEntity
  8
1
  6
Continuous
100
AcDbLine
 10
246.0302976417892
 20
55.06971961819701
 30
0.0
 11
246.0302976417892
 21
47.46971961819697
 31
0.0
  0
ARC
  5
C36
330
18
100
AcDbEntity
  8
1
  6
Continuous
100
AcDbCircle
 10
247.036410366012
 20
49.16270886461084
 30
0.0
 40
1.3
100
AcDbArc
 50
274.9999999999997
 51
344.1191499917205
  0
LINE
  5
C39
330
18
100
AcDbEntity
  8
1
  6
Continuous
100
AcDbLine
 10
246.0302976417892
 20
47.46971961819697
 30
0.0
 11
245.0302976417892
 21
47.46971961819697
 31
0.0
  0
LINE
  5
C3A
330
18
100
AcDbEntity
  8
1
  6
Continuous
100
AcDbLine
 10
246.0302976417891
 20
47.76971961819699
 30
0.0
 11
247.1497128316236
 21
47.86765575708627
 31
0.0
  0
LINE
  5
C3B
330
18
100
AcDbEntity
  8
4
  6
CENTER
 48
0.2
100
AcDbLine
 10
250.1302976417891
 20
51.26971961819695
 30
0.0
 11
238.0302976417892
 21
51.26971961819695
 31
0.0
  0
LINE
  5
C3E
330
18
100
AcDbEntity
  8
1
  6
Continuous
100
AcDbLine
 10
245.0302976417892
 20
50.26971961819693
 30
0.0
 11
246.0302976417892
 21
51.269719618197
 31
0.0
  0
LINE
  5
C3F
330
18
100
AcDbEntity
  8
1
  6
Continuous
100
AcDbLine
 10
245.0302976417892
 20
51.269719618197
 30
0.0
 11
246.0302976417892
 21
52.26971961819706
 31
0.0
  0
LINE
  5
C40
330
18
100
AcDbEntity
  8
1
  6
Continuous
100
AcDbLine
 10
246.0302976417892
 20
55.06971961819701
 30
0.0
 11
245.0302976417892
 21
55.06971961819701
 31
0.0
  0
ARC
  5
C41
330
18
100
AcDbEntity
  8
1
  6
Continuous
100
AcDbCircle
 10
247.036410365998
 20
53.37673037177982
 30
0.0
 40
1.3
100
AcDbArc
 50
15.88085000827948
 51
85.00000000000019
  0
LINE
  5
C42
330
18
100
AcDbEntity
  8
1
  6
Continuous
100
AcDbLine
 10
246.0302976417891
 20
54.769719618197
 30
0.0
 11
247.14971283159
 21
54.67178347931072
 31
0.0
  0
ARC
  5
C43
330
18
100
AcDbEntity
  8
1
  6
Continuous
100
AcDbCircle
 10
239.6302976417891
 20
51.269719618197
 30
0.0
 40
9.0
100
AcDbArc
 50
344.1191499917205
 51
15.88085000827948
  0
ARC
  5
CB8
330
18
100
AcDbEntity
  8
1
  6
Continuous
100
AcDbCircle
 10
196.1713150469672
 20
42.86971961802858
 30
0.0
 40
1.0
100
AcDbArc
 50
270.0
 51
0.0
  0
ARC
  5
CB9
330
18
100
AcDbEntity
  8
1
  6
Continuous
100
AcDbCircle
 10
196.1713150469672
 20
59.66971961802832
 30
0.0
 40
1.0
100
AcDbArc
 50
0.0
 51
90.0
  0
LINE
  5
CBA
330
18
100
AcDbEntity
  8
1
  6
Continuous
100
AcDbLine
 10
197.1713150469672
 20
42.37493731045964
 30
0.0
 11
197.1713150469672
 21
60.16450192578179
 31
0.0
  0
LINE
  5
CC2
330
18
100
AcDbEntity
  8
1
  6
Continuous
100
AcDbLine
 10
197.0343069840332
 20
60.66971961802838
 30
0.0
 11
192.7723424532513
 21
60.66971961802829
 31
0.0
  0
LINE
  5
CC3
330
18
100
AcDbEntity
  8
1
  6
Continuous
100
AcDbLine
 10
197.0343069839253
 20
41.86971961802864
 30
0.0
 11
192.7723424532783
 21
41.86971961802856
 31
0.0
  0
ARC
  5
CC4
330
18
100
AcDbEntity
  8
1
  6
Continuous
100
AcDbCircle
 10
192.7723424532513
 20
59.66971961802852
 30
0.0
 40
1.0
100
AcDbArc
 50
90.0
 51
171.8148219823015
  0
ARC
  5
CC5
330
18
100
AcDbEntity
  8
1
  6
Continuous
100
AcDbCircle
 10
192.7723424532784
 20
42.86971961802858
 30
0.0
 40
1.0
100
AcDbArc
 50
188.1851780178834
 51
270.0
  0
ARC
  5
CC6
330
18
100
AcDbEntity
  8
1
  6
Continuous
100
AcDbCircle
 10
251.1713150469672
 20
51.26971961812262
 30
0.0
 40
60.0
100
AcDbArc
 50
171.8148219823015
 51
188.1851780178834
  0
ARC
  5
D26
330
18
100
AcDbEntity
  8
1
  6
Continuous
100
AcDbCircle
 10
196.1713150469672
 20
42.37493731045964
 30
0.0
 40
1.0
100
AcDbArc
 50
271.5627397038378
 51
0.0
  0
ARC
  5
D27
330
18
100
AcDbEntity
  8
1
  6
Continuous
100
AcDbCircle
 10
196.1713150469672
 20
60.16450192578179
 30
0.0
 40
1.0
100
AcDbArc
 50
0.0
 51
88.43726029620787
  0
ARC
  5
D28
330
18
100
AcDbEntity
  8
1
  6
Continuous
100
AcDbCircle
 10
255.1713150470575
 20
51.26971961812063
 30
0.0
 40
60.0
100
AcDbArc
 50
189.0134702623873
 51
193.0161225652456
  0
LINE
  5
D29
330
18
100
AcDbEntity
  8
1
  6
Continuous
100
AcDbLine
 10
195.6713150469667
 20
59.66971961802832
 30
0.0
 11
195.6713150469667
 21
42.86971961802858
 31
0.0
  0
ARC
  5
D2A
330
18
100
AcDbEntity
  8
1
  6
Continuous
100
AcDbCircle
 10
194.6713150469667
 20
59.66971961802832
 30
0.0
 40
1.0
100
AcDbArc
 50
0.0
 51
90.0
  0
ARC
  5
D2B
330
18
100
AcDbEntity
  8
1
  6
Continuous
100
AcDbCircle
 10
194.6713150469667
 20
42.86971961802858
 30
0.0
 40
1.0
100
AcDbArc
 50
270.0000000000004
 51
0.0
  0
LINE
  5
D2D
330
18
100
AcDbEntity
  8
1
  6
Continuous
100
AcDbLine
 10
224.6713150470011
 20
319.8899009665245
 30
0.0
 11
224.6713150470011
 21
324.212325618111
 31
0.0
  0
LINE
  5
D2E
330
18
100
AcDbEntity
  8
1
  6
Continuous
100
AcDbLine
 10
206.6713150470574
 20
310.2123256181194
 30
0.0
 11
206.6713150470574
 21
317.2123256181194
 31
0.0
  0
LINE
  5
D2F
330
18
100
AcDbEntity
  8
1
  6
Continuous
100
AcDbLine
 10
207.1713150470575
 20
316.7123256181194
 30
0.0
 11
207.1713150470575
 21
310.7123256181194
 31
0.0
  0
LINE
  5
D30
330
18
100
AcDbEntity
  8
1
  6
Continuous
100
AcDbLine
 10
206.6713150470574
 20
310.2123256181191
 30
0.0
 11
203.1713150470575
 21
310.2123256181196
 31
0.0
  0
LINE
  5
D31
330
18
100
AcDbEntity
  8
1
  6
Continuous
100
AcDbLine
 10
206.6713150470575
 20
310.2123256181194
 30
0.0
 11
207.1713150470574
 21
310.7123256181194
 31
0.0
  0
LINE
  5
D32
330
18
100
AcDbEntity
  8
1
  6
Continuous
100
AcDbLine
 10
206.6713150470574
 20
317.2123256181191
 30
0.0
 11
203.1713150470575
 21
317.2123256181196
 31
0.0
  0
LINE
  5
D33
330
18
100
AcDbEntity
  8
1
  6
Continuous
100
AcDbLine
 10
207.1713150470574
 20
316.7123256181194
 30
0.0
 11
206.6713150470575
 21
317.2123256181194
 31
0.0
  0
LINE
  5
D34
330
18
100
AcDbEntity
  8
1
  6
Continuous
100
AcDbLine
 10
203.1713150470575
 20
330.212325618119
 30
0.0
 11
203.1713150470575
 21
297.212325618119
 31
0.0
  0
LINE
  5
D35
330
18
100
AcDbEntity
  8
1
  6
Continuous
100
AcDbLine
 10
202.1713150470575
 20
330.2123256181196
 30
0.0
 11
203.1713150470575
 21
330.212325618119
 31
0.0
  0
LINE
  5
D36
330
18
100
AcDbEntity
  8
1
  6
Continuous
100
AcDbLine
 10
202.1713150470575
 20
297.2123256181196
 30
0.0
 11
203.1713150470575
 21
297.212325618119
 31
0.0
  0
LINE
  5
D38
330
18
100
AcDbEntity
  8
1
  6
Continuous
100
AcDbLine
 10
225.0713150470011
 20
320.7123256181043
 30
0.0
 11
225.1713150470138
 21
320.7123256181042
 31
0.0
  0
LINE
  5
D3A
330
18
100
AcDbEntity
  8
1
  6
Continuous
100
AcDbLine
 10
225.1713150470137
 20
303.9695398255209
 30
0.0
 11
225.1713150470137
 21
307.5347502696757
 31
0.0
  0
LINE
  5
D3B
330
18
100
AcDbEntity
  8
1
  6
Continuous
100
AcDbLine
 10
227.1713150470136
 20
324.9623256181
 30
0.0
 11
227.1713150470136
 21
303.9695398255209
 31
0.0
  0
LINE
  5
D3C
330
18
100
AcDbEntity
  8
1
  6
Continuous
100
AcDbLine
 10
225.0713150470011
 20
306.7123256181043
 30
0.0
 11
225.1713150470137
 21
306.7123256181043
 31
0.0
  0
LINE
  5
D78
330
18
100
AcDbEntity
  8
1
  6
Continuous
100
AcDbLine
 10
227.1713150470136
 20
319.3373256180855
 30
0.0
 11
226.8713150470011
 21
319.3373256180856
 31
0.0
  0
LINE
  5
D7A
330
18
100
AcDbEntity
  8
1
  6
Continuous
100
AcDbLine
 10
227.1713150470136
 20
324.9623256181
 30
0.0
 11
225.1713150470138
 21
324.9623256181001
 31
0.0
  0
LINE
  5
D7B
330
18
100
AcDbEntity
  8
1
  6
Continuous
100
AcDbLine
 10
227.1713150470136
 20
303.9695398255209
 30
0.0
 11
225.1713150470137
 21
303.9695398255209
 31
0.0
  0
LINE
  5
D7C
330
18
100
AcDbEntity
  8
1
  6
Continuous
100
AcDbLine
 10
227.1713150470136
 20
305.4123256181001
 30
0.0
 11
225.1713150470137
 21
305.4123256181001
 31
0.0
  0
LINE
  5
D7D
330
18
100
AcDbEntity
  8
1
  6
Continuous
100
AcDbLine
 10
225.1713150470138
 20
319.8899009665245
 30
0.0
 11
225.1713150470138
 21
324.9623256181001
 31
0.0
  0
LINE
  5
D7E
330
18
100
AcDbEntity
  8
1
  6
Continuous
100
AcDbLine
 10
226.6713150470011
 20
319.8899009665245
 30
0.0
 11
224.671315047001
 21
319.8899009665244
 31
0.0
  0
LINE
  5
D7F
330
18
100
AcDbEntity
  8
1
  6
Continuous
100
AcDbLine
 10
226.671315047001
 20
307.5347502696757
 30
0.0
 11
224.671315047001
 21
307.5347502696757
 31
0.0
  0
ARC
  5
D80
330
18
100
AcDbEntity
  8
1
  6
Continuous
100
AcDbCircle
 10
226.6713150470011
 20
319.6899009665245
 30
0.0
 40
0.2
100
AcDbArc
 50
0.0
 51
90.0
  0
ARC
  5
D81
330
18
100
AcDbEntity
  8
1
  6
Continuous
100
AcDbCircle
 10
226.671315047001
 20
307.7347502696757
 30
0.0
 40
0.2
100
AcDbArc
 50
270.0
 51
0.0
  0
LINE
  5
D83
330
18
100
AcDbEntity
  8
1
  6
Continuous
100
AcDbLine
 10
230.1713150470138
 20
318.7123256181005
 30
0.0
 11
230.1713150470138
 21
308.7123256180988
 31
0.0
  0
LINE
  5
D84
330
18
100
AcDbEntity
  8
1
  6
Continuous
100
AcDbLine
 10
230.1713150470138
 20
308.7123256180983
 30
0.0
 11
227.1713150470137
 21
308.7123256180998
 31
0.0
  0
LINE
  5
D85
330
18
100
AcDbEntity
  8
1
  6
Continuous
100
AcDbLine
 10
230.1713150470138
 20
313.0554713686726
 30
0.0
 11
227.1713150470136
 21
313.0554713686742
 31
0.0
  0
LINE
  5
D86
330
18
100
AcDbEntity
  8
1
  6
Continuous
100
AcDbLine
 10
230.1713150470138
 20
314.369179867548
 30
0.0
 11
227.1713150470136
 21
314.3691798675495
 31
0.0
  0
LINE
  5
D87
330
18
100
AcDbEntity
  8
1
  6
Continuous
100
AcDbLine
 10
230.1713150470138
 20
318.7123256181001
 30
0.0
 11
227.1713150470137
 21
318.7123256181016
 31
0.0
  0
ARC
  5
D8A
330
18
100
AcDbEntity
  8
1
  6
Continuous
100
AcDbCircle
 10
223.6713150470576
 20
322.7123256181215
 30
0.0
 40
2.5
100
AcDbArc
 50
53.13010235541131
 51
90.0
  0
ARC
  5
D8C
330
18
100
AcDbEntity
  8
1
  6
Continuous
100
AcDbCircle
 10
223.6713150470575
 20
304.7123256179907
 30
0.0
 40
2.5
100
AcDbArc
 50
270.0
 51
342.7156355260339
  0
ARC
  5
D8D
330
18
100
AcDbEntity
  8
1
  6
Continuous
100
AcDbCircle
 10
251.1713150469672
 20
313.7123256181271
 30
0.0
 40
60.0
100
AcDbArc
 50
171.8148219823015
 51
188.1851780178834
  0
ARC
  5
D8E
330
18
100
AcDbEntity
  8
1
  6
Continuous
100
AcDbCircle
 10
192.7723424532513
 20
322.112325618033
 30
0.0
 40
1.0
100
AcDbArc
 50
90.0
 51
171.8148219823015
  0
LINE
  5
D8F
330
18
100
AcDbEntity
  8
1
  6
Continuous
100
AcDbLine
 10
195.9122229176495
 20
323.1123256180328
 30
0.0
 11
192.7723424532513
 21
323.1123256180328
 31
0.0
  0
LINE
  5
D90
330
18
100
AcDbEntity
  8
1
  6
Continuous
100
AcDbLine
 10
195.9122229176776
 20
304.312325618033
 30
0.0
 11
192.7723424532785
 21
304.312325618033
 31
0.0
  0
ARC
  5
D91
330
18
100
AcDbEntity
  8
1
  6
Continuous
100
AcDbCircle
 10
192.7723424532785
 20
305.3123256180331
 30
0.0
 40
1.0
100
AcDbArc
 50
188.1851780178834
 51
270.0
  0
ARC
  5
D92
330
18
100
AcDbEntity
  8
1
  6
Continuous
100
AcDbCircle
 10
246.974461628611
 20
313.7123256181827
 30
0.0
 40
12.0
100
AcDbArc
 50
344.5060324994778
 51
15.49396750052209
  0
LINE
  5
D93
330
18
100
AcDbEntity
  8
1
  6
Continuous
100
AcDbLine
 10
255.6744616286109
 20
318.3123256181827
 30
0.0
 11
255.6744616286109
 21
309.1123256181826
 31
0.0
  0
LINE
  5
D94
330
18
100
AcDbEntity
  8
1
  6
Continuous
100
AcDbLine
 10
254.374461628611
 20
319.712325618182
 30
0.0
 11
254.374461628611
 21
307.712325618182
 31
0.0
  0
LINE
  5
D95
330
18
100
AcDbEntity
  8
1
  6
Continuous
100
AcDbLine
 10
253.5744616286109
 20
319.712325618182
 30
0.0
 11
253.5744616286109
 21
307.712325618182
 31
0.0
  0
LINE
  5
D96
330
18
100
AcDbEntity
  8
1
  6
Continuous
100
AcDbLine
 10
255.6744616286109
 20
309.1123256181826
 30
0.0
 11
254.374461628611
 21
309.1123256181826
 31
0.0
  0
LINE
  5
D97
330
18
100
AcDbEntity
  8
1
  6
Continuous
100
AcDbLine
 10
255.6744616286109
 20
309.2123256181827
 30
0.0
 11
257.1359600967474
 21
309.3401901659051
 31
0.0
  0
LINE
  5
D98
330
18
100
AcDbEntity
  8
1
  6
Continuous
100
AcDbLine
 10
254.3744616286109
 20
307.7123256181821
 30
0.0
 11
253.5744616286109
 21
307.7123256181819
 31
0.0
  0
ARC
  5
D99
330
18
100
AcDbEntity
  8
1
  6
Continuous
100
AcDbCircle
 10
256.9965109083024
 20
310.9341016828583
 30
0.0
 40
1.6
100
AcDbArc
 50
274.9999999999997
 51
344.5060324994778
  0
LINE
  5
D9A
330
18
100
AcDbEntity
  8
4
  6
CENTER
 48
0.2
100
AcDbLine
 10
260.974461628611
 20
313.7123256181827
 30
0.0
 11
251.5744616286109
 21
313.7123256181827
 31
0.0
  0
LINE
  5
D9B
330
18
100
AcDbEntity
  8
1
  6
Continuous
100
AcDbLine
 10
254.374461628611
 20
319.7123256181821
 30
0.0
 11
253.5744616286109
 21
319.7123256181819
 31
0.0
  0
LINE
  5
D9C
330
18
100
AcDbEntity
  8
1
  6
Continuous
100
AcDbLine
 10
254.374461628611
 20
312.4123256181827
 30
0.0
 11
255.6744616286109
 21
313.7123256181827
 31
0.0
  0
LINE
  5
D9D
330
18
100
AcDbEntity
  8
1
  6
Continuous
100
AcDbLine
 10
254.374461628611
 20
313.7123256181827
 30
0.0
 11
255.6744616286109
 21
315.0123256181826
 31
0.0
  0
LINE
  5
D9E
330
18
100
AcDbEntity
  8
1
  6
Continuous
100
AcDbLine
 10
255.6744616286109
 20
318.3123256181827
 30
0.0
 11
254.374461628611
 21
318.3123256181827
 31
0.0
  0
LINE
  5
D9F
330
18
100
AcDbEntity
  8
1
  6
Continuous
100
AcDbLine
 10
255.6744616286108
 20
318.2123256181828
 30
0.0
 11
257.1359600967062
 21
318.084461070464
 31
0.0
  0
ARC
  5
DA0
330
18
100
AcDbEntity
  8
1
  6
Continuous
100
AcDbCircle
 10
256.9965109082851
 20
316.4905495535031
 30
0.0
 40
1.6
100
AcDbArc
 50
15.49396750052209
 51
85.00000000000019
  0
LINE
  5
DA1
330
18
100
AcDbEntity
  8
4
  6
CENTER
 48
0.2
100
AcDbLine
 10
250.1302976417888
 20
313.7123256181827
 30
0.0
 11
238.0302976417887
 21
313.7123256181827
 31
0.0
  0
LINE
  5
DA2
330
18
100
AcDbEntity
  8
1
  6
Continuous
100
AcDbLine
 10
240.030297641789
 20
306.7123256181826
 30
0.0
 11
240.0302976417883
 21
320.7123256181827
 31
0.0
  0
LINE
  5
DA3
330
18
100
AcDbEntity
  8
1
  6
Continuous
100
AcDbLine
 10
245.0302976417889
 20
307.2123256181827
 30
0.0
 11
245.0302976417884
 21
320.2123256181827
 31
0.0
  0
LINE
  5
DA4
330
18
100
AcDbEntity
  8
1
  6
Continuous
100
AcDbLine
 10
246.0302976417888
 20
317.5123256181827
 30
0.0
 11
246.0302976417888
 21
309.9123256181826
 31
0.0
  0
ARC
  5
DA6
330
18
100
AcDbEntity
  8
1
  6
Continuous
100
AcDbCircle
 10
247.0364103659976
 20
315.8193363717655
 30
0.0
 40
1.3
100
AcDbArc
 50
15.88085000827948
 51
85.00000000000019
  0
LINE
  5
DA7
330
18
100
AcDbEntity
  8
1
  6
Continuous
100
AcDbLine
 10
246.0302976417888
 20
317.2123256181828
 30
0.0
 11
247.1497128315897
 21
317.1143894792965
 31
0.0
  0
LINE
  5
DA8
330
18
100
AcDbEntity
  8
1
  6
Continuous
100
AcDbLine
 10
245.0302976417884
 20
312.7123256181826
 30
0.0
 11
246.0302976417884
 21
313.7123256181827
 31
0.0
  0
LINE
  5
DA9
330
18
100
AcDbEntity
  8
1
  6
Continuous
100
AcDbLine
 10
245.0302976417884
 20
313.7123256181827
 30
0.0
 11
246.0302976417884
 21
314.7123256181826
 31
0.0
  0
LINE
  5
DAB
330
18
100
AcDbEntity
  8
1
  6
Continuous
100
AcDbLine
 10
246.0302976417888
 20
309.9123256181826
 30
0.0
 11
245.0302976417888
 21
309.9123256181826
 31
0.0
  0
ARC
  5
DAC
330
18
100
AcDbEntity
  8
1
  6
Continuous
100
AcDbCircle
 10
247.0364103660116
 20
311.6053148645966
 30
0.0
 40
1.3
100
AcDbArc
 50
274.9999999999997
 51
344.1191499917205
  0
LINE
  5
DAD
330
18
100
AcDbEntity
  8
1
  6
Continuous
100
AcDbLine
 10
246.0302976417886
 20
310.2123256181827
 30
0.0
 11
247.1497128316232
 21
310.310261757072
 31
0.0
  0
ARC
  5
DAE
330
18
100
AcDbEntity
  8
1
  6
Continuous
100
AcDbCircle
 10
239.6302976417888
 20
313.7123256181827
 30
0.0
 40
9.0
100
AcDbArc
 50
344.1191499917205
 51
15.88085000827948
  0
LINE
  5
DB1
330
18
100
AcDbEntity
  8
1
  6
Continuous
100
AcDbLine
 10
246.0302976417888
 20
317.5123256181827
 30
0.0
 11
245.0302976417888
 21
317.5123256181827
 31
0.0
  0
LINE
  5
DD5
330
18
100
AcDbEntity
  8
1
  6
Continuous
100
AcDbLine
 10
230.1713150470137
 20
46.2697196181272
 30
0.0
 11
230.1713150470137
 21
56.2697196181289
 31
0.0
  0
LINE
  5
DD7
330
18
100
AcDbEntity
  8
1
  6
Continuous
100
AcDbLine
 10
227.1713150470135
 20
40.0197196181277
 30
0.0
 11
227.1713150470135
 21
61.0125054107068
 31
0.0
  0
LINE
  5
DDD
330
18
100
AcDbEntity
  8
1
  6
Continuous
100
AcDbLine
 10
230.1713150470137
 20
50.61286536867967
 30
0.0
 11
227.1713150470135
 21
50.61286536867821
 31
0.0
  0
LINE
  5
DDE
330
18
100
AcDbEntity
  8
1
  6
Continuous
100
AcDbLine
 10
230.1713150470137
 20
51.9265738675551
 30
0.0
 11
227.1713150470135
 21
51.92657386755346
 31
0.0
  0
LINE
  5
DDF
330
18
100
AcDbEntity
  8
1
  6
Continuous
100
AcDbLine
 10
230.1713150470137
 20
56.26971961812936
 30
0.0
 11
227.1713150470136
 21
56.26971961812788
 31
0.0
  0
LINE
  5
DE3
330
18
100
AcDbEntity
  8
1
  6
Continuous
100
AcDbLine
 10
227.1713150470135
 20
61.0125054107068
 30
0.0
 11
226.0584198345207
 21
61.0125054107068
 31
0.0
  0
LINE
  5
DF1
330
18
100
AcDbEntity
  8
1
  6
Continuous
100
AcDbLine
 10
230.1713150470137
 20
46.26971961812759
 30
0.0
 11
227.1713150470136
 21
46.26971961812606
 31
0.0
  0
LINE
  5
DF6
330
18
100
AcDbEntity
  8
1
  6
Continuous
100
AcDbLine
 10
227.1713150470135
 20
40.0197196181277
 30
0.0
 11
225.1713150470137
 21
40.01971961812759
 31
0.0
  0
ARC
  5
DFC
330
18
100
AcDbEntity
  8
1
  6
Continuous
100
AcDbCircle
 10
246.9744616286114
 20
51.26971961819695
 30
0.0
 40
12.0
100
AcDbArc
 50
344.5060324994778
 51
15.49396750052211
  0
LINE
  5
DFD
330
18
100
AcDbEntity
  8
1
  6
Continuous
100
AcDbLine
 10
255.6744616286115
 20
55.86971961819696
 30
0.0
 11
255.6744616286115
 21
46.66971961819693
 31
0.0
  0
LINE
  5
DFE
330
18
100
AcDbEntity
  8
1
  6
Continuous
100
AcDbLine
 10
254.3744616286115
 20
57.26971961819625
 30
0.0
 11
254.3744616286115
 21
45.26971961819625
 31
0.0
  0
LINE
  5
DFF
330
18
100
AcDbEntity
  8
1
  6
Continuous
100
AcDbLine
 10
253.5744616286115
 20
57.26971961819625
 30
0.0
 11
253.5744616286115
 21
45.26971961819625
 31
0.0
  0
ARC
  5
E02
330
18
100
AcDbEntity
  8
1
  6
Continuous
100
AcDbCircle
 10
256.9965109083029
 20
48.49149568287256
 30
0.0
 40
1.6
100
AcDbArc
 50
274.9999999999997
 51
344.5060324994778
  0
LINE
  5
E03
330
18
100
AcDbEntity
  8
4
  6
CENTER
 48
0.2
100
AcDbLine
 10
260.9744616286115
 20
51.26971961819695
 30
0.0
 11
251.5744616286115
 21
51.26971961819695
 31
0.0
  0
LINE
  5
E04
330
18
100
AcDbEntity
  8
1
  6
Continuous
100
AcDbLine
 10
255.6744616286115
 20
46.66971961819693
 30
0.0
 11
254.3744616286115
 21
46.66971961819693
 31
0.0
  0
LINE
  5
E05
330
18
100
AcDbEntity
  8
1
  6
Continuous
100
AcDbLine
 10
255.6744616286115
 20
46.76971961819694
 30
0.0
 11
257.135960096748
 21
46.89758416591937
 31
0.0
  0
LINE
  5
E06
330
18
100
AcDbEntity
  8
1
  6
Continuous
100
AcDbLine
 10
254.3744616286114
 20
45.26971961819636
 30
0.0
 11
253.5744616286115
 21
45.26971961819614
 31
0.0
  0
LINE
  5
E07
330
18
100
AcDbEntity
  8
1
  6
Continuous
100
AcDbLine
 10
254.3744616286115
 20
49.96971961819699
 30
0.0
 11
255.6744616286115
 21
51.26971961819695
 31
0.0
  0
LINE
  5
E08
330
18
100
AcDbEntity
  8
1
  6
Continuous
100
AcDbLine
 10
254.3744616286115
 20
51.26971961819695
 30
0.0
 11
255.6744616286115
 21
52.5697196181969
 31
0.0
  0
ARC
  5
E0A
330
18
100
AcDbEntity
  8
1
  6
Continuous
100
AcDbCircle
 10
256.9965109082857
 20
54.04794355351734
 30
0.0
 40
1.6
100
AcDbArc
 50
15.49396750052211
 51
85.00000000000024
  0
LINE
  5
E0B
330
18
100
AcDbEntity
  8
1
  6
Continuous
100
AcDbLine
 10
254.3744616286115
 20
57.26971961819636
 30
0.0
 11
253.5744616286113
 21
57.26971961819614
 31
0.0
  0
LINE
  5
E0C
330
18
100
AcDbEntity
  8
1
  6
Continuous
100
AcDbLine
 10
255.6744616286115
 20
55.86971961819696
 30
0.0
 11
254.3744616286115
 21
55.86971961819696
 31
0.0
  0
LINE
  5
E0D
330
18
100
AcDbEntity
  8
1
  6
Continuous
100
AcDbLine
 10
255.6744616286114
 20
55.76971961819706
 30
0.0
 11
257.1359600967066
 21
55.64185507047827
 31
0.0
  0
LINE
  5
E3E
330
18
100
AcDbEntity
  8
1
  6
Continuous
100
AcDbLine
 10
227.1713150470135
 20
40.01971961819694
 30
0.0
 11
225.1713150470137
 21
40.01971961819696
 31
0.0
  0
LINE
  5
E43
330
18
100
AcDbEntity
  8
1
  6
Continuous
100
AcDbLine
 10
225.1713150470137
 20
40.26971961795519
 30
0.0
 11
225.1713150470137
 21
40.01971961819696
 31
0.0
  0
ARC
  5
1668
330
18
100
AcDbEntity
  8
1
  6
Continuous
100
AcDbCircle
 10
328.6385620161018
 20
236.8012462799881
 30
0.0
 40
5.750000000000013
100
AcDbArc
 50
112.6198649480395
 51
240.4081542060509
  0
ARC
  5
1669
330
18
100
AcDbEntity
  8
1
  6
Continuous
100
AcDbCircle
 10
331.1385620161018
 20
236.8012462799881
 30
0.0
 40
5.750000000000002
100
AcDbArc
 50
299.591845793949
 51
67.38013505196059
  0
ARC
  5
166B
330
18
100
AcDbEntity
  8
1
  6
Continuous
100
AcDbCircle
 10
329.8885620161018
 20
233.8012462799881
 30
0.0
 40
9.0
100
AcDbArc
 50
67.38013505196059
 51
112.6198649480395
  0
LINE
  5
166C
330
18
100
AcDbEntity
  8
1
  6
Continuous
100
AcDbLine
 10
325.7991078432016
 20
231.8012462799881
 30
0.0
 11
333.9780161890019
 21
231.8012462799881
 31
0.0
  0
LINE
  5
177D
330
18
100
AcDbEntity
  8
1
  6
Continuous
100
AcDbLine
 10
244.5302976417885
 20
320.7123256181827
 30
0.0
 11
240.0302976417883
 21
320.7123256181827
 31
0.0
  0
LINE
  5
177E
330
18
100
AcDbEntity
  8
1
  6
Continuous
100
AcDbLine
 10
244.5302976417889
 20
306.7123256181826
 30
0.0
 11
240.030297641789
 21
306.7123256181826
 31
0.0
  0
ARC
  5
177F
330
18
100
AcDbEntity
  8
1
  6
Continuous
100
AcDbCircle
 10
244.5302976417885
 20
320.2123256181827
 30
0.0
 40
0.5
100
AcDbArc
 50
0.0000000000023918
 51
90.0
  0
ARC
  5
1780
330
18
100
AcDbEntity
  8
1
  6
Continuous
100
AcDbCircle
 10
244.5302976417889
 20
307.2123256181827
 30
0.0
 40
0.5
100
AcDbArc
 50
270.0
 51
0.0000000000023027
  0
LINE
  5
1781
330
18
100
AcDbEntity
  8
1
  6
Continuous
100
AcDbLine
 10
244.530297641789
 20
58.26971961819698
 30
0.0
 11
240.0302976417892
 21
58.26971961819698
 31
0.0
  0
ARC
  5
1782
330
18
100
AcDbEntity
  8
1
  6
Continuous
100
AcDbCircle
 10
244.530297641789
 20
57.76971961819697
 30
0.0
 40
0.5
100
AcDbArc
 50
0.0
 51
90.0
  0
ARC
  5
1783
330
18
100
AcDbEntity
  8
1
  6
Continuous
100
AcDbCircle
 10
244.5302976417894
 20
44.76971961819696
 30
0.0
 40
0.5
100
AcDbArc
 50
270.0
 51
0.0
  0
LINE
  5
1784
330
18
100
AcDbEntity
  8
1
  6
Continuous
100
AcDbLine
 10
244.5302976417894
 20
44.26971961819696
 30
0.0
 11
240.0302976417891
 21
44.26971961819696
 31
0.0
  0
CIRCLE
  5
179E
330
18
100
AcDbEntity
  8
1
  6
Continuous
100
AcDbCircle
 10
329.8885620161018
 20
236.8012462799881
 30
0.0
 40
3.5
  0
LINE
  5
179F
330
18
100
AcDbEntity
  8
1
  6
Continuous
100
AcDbLine
 10
330.4129423545234
 20
235.6606830419343
 30
0.0
 11
331.0465100304665
 21
235.0497427829891
 31
0.0
  0
LINE
  5
17A0
330
18
100
AcDbEntity
  8
1
  6
Continuous
100
AcDbLine
 10
330.4136494613046
 20
237.9425166248233
 30
0.0
 11
331.0458029236853
 21
238.5534568837684
 31
0.0
  0
ARC
  5
17A1
330
18
100
AcDbEntity
  8
1
  6
Continuous
100
AcDbCircle
 10
329.8875620161017
 20
236.8012462799881
 30
0.0
 40
2.1
100
AcDbArc
 50
213.463000000001
 51
236.5369999999998
  0
ARC
  5
17A2
330
18
100
AcDbEntity
  8
1
  6
Continuous
100
AcDbCircle
 10
329.8875620161017
 20
236.8012462799881
 30
0.0
 40
2.1
100
AcDbArc
 50
123.4630000000001
 51
146.5369999999989
  0
LINE
  5
17A3
330
18
100
AcDbEntity
  8
1
  6
Continuous
100
AcDbLine
 10
328.7469987780478
 20
236.2758659415666
 30
0.0
 11
328.1360585191026
 21
235.6437124791856
 31
0.0
  0
LINE
  5
17A4
330
18
100
AcDbEntity
  8
1
  6
Continuous
100
AcDbLine
 10
328.7469987780478
 20
237.3266266184098
 30
0.0
 11
328.1360585191027
 21
237.9587800807905
 31
0.0
  0
LINE
  5
17A5
330
18
100
AcDbEntity
  8
1
  6
Continuous
100
AcDbLine
 10
329.8882691228829
 20
235.8516018728546
 30
0.0
 11
330.4129423545234
 21
235.6606830419343
 31
0.0
  0
LINE
  5
17A6
330
18
100
AcDbEntity
  8
1
  6
Continuous
100
AcDbLine
 10
328.9379176089682
 20
236.8019533867694
 30
0.0
 11
328.7469987780478
 21
236.2758659415666
 31
0.0
  0
LINE
  5
17A7
330
18
100
AcDbEntity
  8
1
  6
Continuous
100
AcDbLine
 10
329.3621816776802
 20
235.6606830419343
 30
0.0
 11
328.7300282152993
 21
235.0497427829891
 31
0.0
  0
LINE
  5
17A8
330
18
100
AcDbEntity
  8
1
  6
Continuous
100
AcDbLine
 10
329.8882691228829
 20
235.8516018728546
 30
0.0
 11
329.3621816776802
 21
235.6606830419343
 31
0.0
  0
LINE
  5
17A9
330
18
100
AcDbEntity
  8
1
  6
Continuous
100
AcDbLine
 10
329.8875620161017
 20
237.7515977939029
 30
0.0
 11
329.3628887844613
 21
237.9425166248232
 31
0.0
  0
LINE
  5
17AA
330
18
100
AcDbEntity
  8
1
  6
Continuous
100
AcDbLine
 10
329.3628887844613
 20
237.9425166248232
 30
0.0
 11
328.7300282152993
 21
238.5527497769873
 31
0.0
  0
LINE
  5
17AB
330
18
100
AcDbEntity
  8
1
  6
Continuous
100
AcDbLine
 10
328.9379176089682
 20
236.8019533867694
 30
0.0
 11
328.7469987780478
 21
237.3266266184098
 31
0.0
  0
LINE
  5
17AC
330
18
100
AcDbEntity
  8
1
  6
Continuous
100
AcDbLine
 10
329.8875620161017
 20
237.7515977939029
 30
0.0
 11
330.4136494613046
 21
237.9425166248233
 31
0.0
  0
ARC
  5
17AD
330
18
100
AcDbEntity
  8
1
  6
Continuous
100
AcDbCircle
 10
329.8875620161017
 20
236.8012462799881
 30
0.0
 40
2.1
100
AcDbArc
 50
303.4630000000001
 51
326.5369999999989
  0
ARC
  5
17AE
330
18
100
AcDbEntity
  8
1
  6
Continuous
100
AcDbCircle
 10
329.8875620161017
 20
236.8012462799881
 30
0.0
 40
2.1
100
AcDbArc
 50
33.46300000000106
 51
56.53699999999985
  0
LINE
  5
17AF
330
18
100
AcDbEntity
  8
1
  6
Continuous
100
AcDbLine
 10
331.0288323609368
 20
236.2765730483477
 30
0.0
 11
331.639772619882
 21
235.6430053724046
 31
0.0
  0
LINE
  5
17B0
330
18
100
AcDbEntity
  8
1
  6
Continuous
100
AcDbLine
 10
330.8379135300163
 20
236.8012462799881
 30
0.0
 11
331.0288323609368
 21
236.2765730483477
 31
0.0
  0
LINE
  5
17B1
330
18
100
AcDbEntity
  8
1
  6
Continuous
100
AcDbLine
 10
331.0288323609368
 20
237.327333725191
 30
0.0
 11
331.6397726198819
 21
237.9594871875717
 31
0.0
  0
LINE
  5
17B2
330
18
100
AcDbEntity
  8
1
  6
Continuous
100
AcDbLine
 10
330.8379135300163
 20
236.8012462799881
 30
0.0
 11
331.0288323609368
 21
237.327333725191
 31
0.0
  0
CIRCLE
  5
17B3
330
18
100
AcDbEntity
  8
1
  6
Continuous
100
AcDbCircle
 10
329.8885620161018
 20
236.8012462799881
 30
0.0
 40
3.799999999999998
  0
CIRCLE
  5
17C8
330
18
100
AcDbEntity
  8
1
  6
Continuous
100
AcDbCircle
 10
329.8885620161018
 20
131.8012462799882
 30
0.0
 40
3.799999999999998
  0
CIRCLE
  5
17C9
330
18
100
AcDbEntity
  8
1
  6
Continuous
100
AcDbCircle
 10
329.8885620161018
 20
131.8012462799882
 30
0.0
 40
3.5
  0
ARC
  5
17CA
330
18
100
AcDbEntity
  8
1
  6
Continuous
100
AcDbCircle
 10
331.1385620161018
 20
131.8012462799882
 30
0.0
 40
5.750000000000013
100
AcDbArc
 50
292.6198649480395
 51
60.40815420605095
  0
ARC
  5
17CB
330
18
100
AcDbEntity
  8
1
  6
Continuous
100
AcDbCircle
 10
328.6385620161018
 20
131.8012462799882
 30
0.0
 40
5.750000000000002
100
AcDbArc
 50
119.5918457939489
 51
247.3801350519605
  0
ARC
  5
17CC
330
18
100
AcDbEntity
  8
1
  6
Continuous
100
AcDbCircle
 10
329.8885620161018
 20
134.8012462799882
 30
0.0
 40
9.0
100
AcDbArc
 50
247.3801350519605
 51
292.6198649480395
  0
LINE
  5
17CD
330
18
100
AcDbEntity
  8
1
  6
Continuous
100
AcDbLine
 10
333.978016189002
 20
136.8012462799882
 30
0.0
 11
325.7991078432017
 21
136.8012462799882
 31
0.0
  0
LINE
  5
17CE
330
18
100
AcDbEntity
  8
1
  6
Continuous
100
AcDbLine
 10
330.4142352477423
 20
130.6599759351531
 30
0.0
 11
331.0470958169042
 21
130.0497427829891
 31
0.0
  0
LINE
  5
17CF
330
18
100
AcDbEntity
  8
1
  6
Continuous
100
AcDbLine
 10
330.4149423545234
 20
132.941809518042
 30
0.0
 11
331.0470958169043
 21
133.5527497769873
 31
0.0
  0
LINE
  5
17D0
330
18
100
AcDbEntity
  8
1
  6
Continuous
100
AcDbLine
 10
330.8392064232354
 20
131.8005391732069
 30
0.0
 11
331.0301252541557
 21
131.2758659415665
 31
0.0
  0
LINE
  5
17D1
330
18
100
AcDbEntity
  8
1
  6
Continuous
100
AcDbLine
 10
330.8392064232354
 20
131.8005391732069
 30
0.0
 11
331.0301252541557
 21
132.3266266184097
 31
0.0
  0
LINE
  5
17D2
330
18
100
AcDbEntity
  8
1
  6
Continuous
100
AcDbLine
 10
331.0301252541557
 20
131.2758659415665
 30
0.0
 11
331.641065513101
 21
130.6437124791858
 31
0.0
  0
LINE
  5
17D3
330
18
100
AcDbEntity
  8
1
  6
Continuous
100
AcDbLine
 10
331.0301252541557
 20
132.3266266184097
 30
0.0
 11
331.641065513101
 21
132.9587800807906
 31
0.0
  0
ARC
  5
17D4
330
18
100
AcDbEntity
  8
1
  6
Continuous
100
AcDbCircle
 10
329.8895620161019
 20
131.8012462799882
 30
0.0
 40
2.1
100
AcDbArc
 50
303.4630000000001
 51
326.5369999999989
  0
ARC
  5
17D5
330
18
100
AcDbEntity
  8
1
  6
Continuous
100
AcDbCircle
 10
329.8895620161019
 20
131.8012462799882
 30
0.0
 40
2.1
100
AcDbArc
 50
33.46300000000108
 51
56.5369999999998
  0
LINE
  5
17D6
330
18
100
AcDbEntity
  8
1
  6
Continuous
100
AcDbLine
 10
328.9392105021872
 20
131.8012462799882
 30
0.0
 11
328.7482916712668
 21
131.2751588347853
 31
0.0
  0
LINE
  5
17D7
330
18
100
AcDbEntity
  8
1
  6
Continuous
100
AcDbLine
 10
328.7482916712668
 20
131.2751588347853
 30
0.0
 11
328.1373514123217
 21
130.6430053724046
 31
0.0
  0
LINE
  5
17D8
330
18
100
AcDbEntity
  8
1
  6
Continuous
100
AcDbLine
 10
328.9392105021872
 20
131.8012462799882
 30
0.0
 11
328.7482916712668
 21
132.3259195116286
 31
0.0
  0
LINE
  5
17D9
330
18
100
AcDbEntity
  8
1
  6
Continuous
100
AcDbLine
 10
328.7482916712668
 20
132.3259195116286
 30
0.0
 11
328.1373514123216
 21
132.9594871875717
 31
0.0
  0
ARC
  5
17DA
330
18
100
AcDbEntity
  8
1
  6
Continuous
100
AcDbCircle
 10
329.8895620161019
 20
131.8012462799882
 30
0.0
 40
2.1
100
AcDbArc
 50
213.463000000001
 51
236.5369999999998
  0
ARC
  5
17DB
330
18
100
AcDbEntity
  8
1
  6
Continuous
100
AcDbCircle
 10
329.8895620161019
 20
131.8012462799882
 30
0.0
 40
2.1
100
AcDbArc
 50
123.4630000000001
 51
146.5369999999988
  0
LINE
  5
17DC
330
18
100
AcDbEntity
  8
1
  6
Continuous
100
AcDbLine
 10
329.8895620161019
 20
130.8508947660734
 30
0.0
 11
329.363474570899
 21
130.659975935153
 31
0.0
  0
LINE
  5
17DD
330
18
100
AcDbEntity
  8
1
  6
Continuous
100
AcDbLine
 10
329.8895620161019
 20
130.8508947660734
 30
0.0
 11
330.4142352477423
 21
130.6599759351531
 31
0.0
  0
LINE
  5
17DE
330
18
100
AcDbEntity
  8
1
  6
Continuous
100
AcDbLine
 10
329.8888549093207
 20
132.7508906871217
 30
0.0
 11
330.4149423545234
 21
132.941809518042
 31
0.0
  0
LINE
  5
17DF
330
18
100
AcDbEntity
  8
1
  6
Continuous
100
AcDbLine
 10
329.8888549093207
 20
132.7508906871217
 30
0.0
 11
329.3641816776802
 21
132.9418095180421
 31
0.0
  0
LINE
  5
17E0
330
18
100
AcDbEntity
  8
1
  6
Continuous
100
AcDbLine
 10
329.363474570899
 20
130.659975935153
 30
0.0
 11
328.7313211085184
 21
130.0490356762079
 31
0.0
  0
LINE
  5
17E1
330
18
100
AcDbEntity
  8
1
  6
Continuous
100
AcDbLine
 10
329.3641816776802
 20
132.9418095180421
 30
0.0
 11
328.7306140017371
 21
133.5527497769873
 31
0.0
  0
ARC
  5
1806
330
18
100
AcDbEntity
  8
1
  6
Continuous
100
AcDbCircle
 10
36.09704596370076
 20
217.7547637758387
 30
0.0
 40
10.21051532818238
100
AcDbArc
 50
52.63665458699467
 51
127.3226234462157
  0
ARC
  5
1807
330
18
100
AcDbEntity
  8
5
  6
PHANTOM
 48
0.3
100
AcDbCircle
 10
37.14390035236677
 20
218.8008743954535
 30
0.0
 40
10.21051532818238
100
AcDbArc
 50
142.6366545869947
 51
217.3226234462158
  0
ENDSEC
  0
SECTION
  2
OBJECTS
  0
DICTIONARY
  5
C
330
0
100
AcDbDictionary
281
     1
  3
ACAD_CIP_PREVIOUS_PRODUCT_INFO
350
1867
  3
ACAD_COLOR
350
184A
  3
ACAD_DETAILVIEWSTYLE
350
1863
  3
ACAD_GROUP
350
D
  3
ACAD_LAYOUT
350
94
  3
ACAD_MATERIAL
350
1818
  3
ACAD_MLEADERSTYLE
350
185F
  3
ACAD_MLINESTYLE
350
1B
  3
ACAD_PLOTSETTINGS
350
95
  3
ACAD_PLOTSTYLENAME
350
1816
  3
ACAD_SCALELIST
350
184D
  3
ACAD_SECTIONVIEWSTYLE
350
1861
  3
ACAD_TABLESTYLE
350
184B
  3
ACAD_VISUALSTYLE
350
1831
  3
ACDB_RECOMPOSE_DATA
350
1885
  3
AcDbVariableDictionary
350
1878
  3
CONTENTDICTIONARY
350
3D
  3
DWGPROPS
350
1886
  0
DICTIONARY
  5
1868
330
E
100
AcDbDictionary
280
     1
281
     1
  3
ADSK_XREC_LAYER_RECONCILED
360
1869
  0
DICTIONARY
  5
186A
330
4E
100
AcDbDictionary
280
     1
281
     1
  3
ADSK_XREC_LAYER_RECONCILED
360
186B
  0
DICTIONARY
  5
186C
330
4F
100
AcDbDictionary
280
     1
281
     1
  3
ADSK_XREC_LAYER_RECONCILED
360
186D
  0
DICTIONARY
  5
186E
330
50
100
AcDbDictionary
280
     1
281
     1
  3
ADSK_XREC_LAYER_RECONCILED
360
186F
  0
DICTIONARY
  5
1870
330
51
100
AcDbDictionary
280
     1
281
     1
  3
ADSK_XREC_LAYER_RECONCILED
360
1871
  0
DICTIONARY
  5
1872
330
52
100
AcDbDictionary
280
     1
281
     1
  3
ADSK_XREC_LAYER_RECONCILED
360
1873
  0
DICTIONARY
  5
1874
330
53
100
AcDbDictionary
280
     1
281
     1
  3
ADSK_XREC_LAYER_RECONCILED
360
1875
  0
DICTIONARY
  5
1876
330
54
100
AcDbDictionary
280
     1
281
     1
  3
ADSK_XREC_LAYER_RECONCILED
360
1877
  0
DICTIONARY
  5
1811
330
18
100
AcDbDictionary
281
     1
  3
ACAD_LAYOUTSELFREF
350
1812
  0
DICTIONARY
  5
180F
330
15
100
AcDbDictionary
281
     1
  3
ACAD_LAYOUTSELFREF
350
1810
  0
XRECORD
  5
1867
102
{ACAD_REACTORS
330
C
102
}
330
C
100
AcDbXrecord
280
     1
300
ACDLT
300
2014
300
ACDLT_F_S
  0
DICTIONARY
  5
184A
102
{ACAD_REACTORS
330
C
102
}
330
C
100
AcDbDictionary
281
     1
  0
DICTIONARY
  5
1863
102
{ACAD_REACTORS
330
C
102
}
330
C
100
AcDbDictionary
281
     1
  3
Imperial24
350
1864
  0
DICTIONARY
  5
D
102
{ACAD_REACTORS
330
C
102
}
330
C
100
AcDbDictionary
281
     1
  0
DICTIONARY
  5
94
102
{ACAD_REACTORS
330
C
102
}
330
C
100
AcDbDictionary
281
     1
  3
Model
350
1865
  3
レイアウト1
350
1866
  0
DICTIONARY
  5
1818
102
{ACAD_REACTORS
330
C
102
}
330
C
100
AcDbDictionary
281
     1
  3
ByBlock
350
1821
  3
ByLayer
350
1819
  3
Global
350
1829
  0
DICTIONARY
  5
185F
102
{ACAD_REACTORS
330
C
102
}
330
C
100
AcDbDictionary
281
     1
  3
Standard
350
1860
  0
DICTIONARY
  5
1B
102
{ACAD_REACTORS
330
C
102
}
330
C
100
AcDbDictionary
281
     1
  3
STANDARD
350
1C
  0
DICTIONARY
  5
95
102
{ACAD_REACTORS
330
C
102
}
330
C
100
AcDbDictionary
281
     1
  0
ACDBDICTIONARYWDFLT
  5
1816
102
{ACAD_REACTORS
330
C
102
}
330
C
100
AcDbDictionary
281
     1
  3
Normal
350
1817
100
AcDbDictionaryWithDefault
340
1817
  0
DICTIONARY
  5
184D
102
{ACAD_REACTORS
330
C
102
}
330
C
100
AcDbDictionary
281
     1
  3
A0
350
184E
  3
A1
350
184F
  3
A2
350
1850
  3
A3
350
1851
  3
A4
350
1852
  3
A5
350
1853
  3
A6
350
1854
  3
A7
350
1855
  3
A8
350
1856
  3
A9
350
1857
  3
B0
350
1858
  3
B1
350
1859
  3
B2
350
185A
  3
B3
350
185B
  3
B4
350
185C
  3
B5
350
185D
  3
B6
350
185E
  0
DICTIONARY
  5
1861
102
{ACAD_REACTORS
330
C
102
}
330
C
100
AcDbDictionary
281
     1
  3
Imperial24
350
1862
  0
DICTIONARY
  5
184B
102
{ACAD_REACTORS
330
C
102
}
330
C
100
AcDbDictionary
281
     1
  3
Standard
350
184C
  0
DICTIONARY
  5
1831
102
{ACAD_REACTORS
330
C
102
}
330
C
100
AcDbDictionary
281
     1
  3
2dWireframe
350
1837
  3
Basic
350
1836
  3
Brighten
350
183D
  3
ColorChange
350
1841
  3
Conceptual
350
183A
  3
Dim
350
183C
  3
EdgeColorOff
350
1849
  3
Facepattern
350
1840
  3
Flat
350
1832
  3
FlatWithEdges
350
1833
  3
Gouraud
350
1834
  3
GouraudWithEdges
350
1835
  3
Hidden
350
1839
  3
JitterOff
350
1847
  3
Linepattern
350
183F
  3
OverhangOff
350
1848
  3
Realistic
350
183B
  3
Shaded
350
1846
  3
Shaded with edges
350
1845
  3
Shades of Gray
350
1842
  3
Sketchy
350
1843
  3
Thicken
350
183E
  3
Wireframe
350
1838
  3
X-Ray
350
1844
  0
XRECORD
  5
1885
102
{ACAD_REACTORS
330
C
102
}
330
C
100
AcDbXrecord
280
     1
 90
        1
330
184C
  0
DICTIONARY
  5
1878
102
{ACAD_REACTORS
330
C
102
}
330
C
100
AcDbDictionary
281
     1
  3
CANNOSCALE
350
187D
  3
CMLEADERSTYLE
350
187A
  3
CTABLESTYLE
350
1879
  3
CVIEWDETAILSTYLE
350
187B
  3
CVIEWSECTIONSTYLE
350
187C
  3
DIMASSOC
350
1880
  3
INDEXCTL
350
187F
  3
SORTENTS
350
187E
  3
XCLIPFRAME
350
1881
  0
DICTIONARY
  5
3D
102
{ACAD_REACTORS
330
C
102
}
330
C
100
AcDbDictionary
281
     1
  0
XRECORD
  5
1886
102
{ACAD_REACTORS
330
C
102
}
330
C
100
AcDbXrecord
280
     1
  1
DWGPROPS COOKIE
  2

  3

  4

  6

  7

  8
Yoshitsune
  9

300
=
301
=
302
=
303
=
304
=
305
=
306
=
307
=
308
=
309
=
 40
0.1941210069444444
 41
2454154.380866608
 42
2457192.643719039
  1

 90
        0
  0
XRECORD
  5
1869
102
{ACAD_REACTORS
330
1868
102
}
330
1868
100
AcDbXrecord
280
     1
290
     1
  0
XRECORD
  5
186B
102
{ACAD_REACTORS
330
186A
102
}
330
186A
100
AcDbXrecord
280
     1
290
     1
  0
XRECORD
  5
186D
102
{ACAD_REACTORS
330
186C
102
}
330
186C
100
AcDbXrecord
280
     1
290
     1
  0
XRECORD
  5
186F
102
{ACAD_REACTORS
330
186E
102
}
330
186E
100
AcDbXrecord
280
     1
290
     1
  0
XRECORD
  5
1871
102
{ACAD_REACTORS
330
1870
102
}
330
1870
100
AcDbXrecord
280
     1
290
     1
  0
XRECORD
  5
1873
102
{ACAD_REACTORS
330
1872
102
}
330
1872
100
AcDbXrecord
280
     1
290
     1
  0
XRECORD
  5
1875
102
{ACAD_REACTORS
330
1874
102
}
330
1874
100
AcDbXrecord
280
     1
290
     1
  0
XRECORD
  5
1877
102
{ACAD_REACTORS
330
1876
102
}
330
1876
100
AcDbXrecord
280
     1
290
     1
  0
XRECORD
  5
1812
102
{ACAD_REACTORS
330
1811
102
}
330
1811
100
AcDbXrecord
280
     1
340
18
  0
XRECORD
  5
1810
102
{ACAD_REACTORS
330
180F
102
}
330
180F
100
AcDbXrecord
280
     1
340
15
  0
ACDBDETAILVIEWSTYLE
  5
1864
102
{ACAD_XDICTIONARY
360
18BE
102
}
102
{ACAD_REACTORS
330
1863
102
}
330
1863
100
AcDbModelDocViewStyle
 70
     0
  3
Imperial24
290
     0
100
AcDbDetailViewStyle
 70
     0
 71
     0
 90
        3
 71
     1
340
F
 40
0.24
340
0
 40
0.24
300

 40
0.36
280
     3
 71
     2
340
14
 90
       25
 71
     3
340
F
 40
0.24
 90
        1
 40
0.75
 90
        1
300
%<\AcVar ViewType \f "%tc1">% %<\AcVar ViewDetailId>%\PSCALE %<\AcVar ViewScale \f "%sn">%
 71
     4
340
14
 90
       25
340
14
 90
       25
280
     0
  0
LAYOUT
  5
1865
102
{ACAD_XDICTIONARY
360
18C0
102
}
102
{ACAD_REACTORS
330
94
102
}
330
94
100
AcDbPlotSettings
  1

  2
Canon LBP9100C
  4

  6

 40
0.0
 41
0.0
 42
0.0
 43
0.0
 44
0.0
 45
0.0
 46
0.0
 47
0.0
 48
0.0
 49
0.0
140
0.0
141
0.0
142
1.0
143
1.0
 70
  1712
 72
     0
 73
     0
 74
     0
  7

 75
     0
147
1.0
148
0.0
149
0.0
100
AcDbLayout
  1
Model
 70
     1
 71
     0
 10
0.0
 20
0.0
 11
12.0
 21
9.0
 12
0.0
 22
0.0
 32
0.0
 14
0.0
 24
0.0
 34
0.0
 15
0.0
 25
0.0
 35
0.0
146
0.0
 13
0.0
 23
0.0
 33
0.0
 16
1.0
 26
0.0
 36
0.0
 17
0.0
 27
1.0
 37
0.0
 76
     0
330
18
331
180E
  0
LAYOUT
  5
1866
102
{ACAD_XDICTIONARY
360
18C2
102
}
102
{ACAD_REACTORS
330
94
102
}
330
94
100
AcDbPlotSettings
  1

  2
Canon LBP9100C
  4

  6

 40
0.0
 41
0.0
 42
0.0
 43
0.0
 44
0.0
 45
0.0
 46
0.0
 47
0.0
 48
0.0
 49
0.0
140
0.0
141
0.0
142
1.0
143
1.0
 70
   688
 72
     0
 73
     0
 74
     5
  7

 75
    16
147
1.0
148
0.0
149
0.0
100
AcDbLayout
  1
レイアウト1
 70
     1
 71
     1
 10
0.0
 20
0.0
 11
420.0
 21
297.0
 12
0.0
 22
0.0
 32
0.0
 14
1.000000000000000E+20
 24
1.000000000000000E+20
 34
1.000000000000000E+20
 15
-1.000000000000000E+20
 25
-1.000000000000000E+20
 35
-1.000000000000000E+20
146
0.0
 13
0.0
 23
0.0
 33
0.0
 16
1.0
 26
0.0
 36
0.0
 17
0.0
 27
1.0
 37
0.0
 76
     0
330
15
  0
MATERIAL
  5
1821
102
{ACAD_XDICTIONARY
360
1822
102
}
102
{ACAD_REACTORS
330
1818
102
}
330
1818
100
AcDbMaterial
  1
ByBlock
 72
     0
 43
0.0208333333333333
 43
0.0
 43
0.0
 43
0.0
 43
0.0
 43
0.0208333333333333
 43
0.0
 43
0.0
 43
0.0
 43
0.0
 43
1.0
 43
0.0
 43
0.0
 43
0.0
 43
0.0
 43
1.0
 77
     0
 47
0.0208333333333333
 47
0.0
 47
0.0
 47
0.0
 47
0.0
 47
0.0208333333333333
 47
0.0
 47
0.0
 47
0.0
 47
0.0
 47
1.0
 47
0.0
 47
0.0
 47
0.0
 47
0.0
 47
1.0
171
     0
 49
0.0208333333333333
 49
0.0
 49
0.0
 49
0.0
 49
0.0
 49
0.0208333333333333
 49
0.0
 49
0.0
 49
0.0
 49
0.0
 49
1.0
 49
0.0
 49
0.0
 49
0.0
 49
0.0
 49
1.0
175
     0
142
0.0208333333333333
142
0.0
142
0.0
142
0.0
142
0.0
142
0.0208333333333333
142
0.0
142
0.0
142
0.0
142
0.0
142
1.0
142
0.0
142
0.0
142
0.0
142
0.0
142
1.0
179
     0
144
0.0208333333333333
144
0.0
144
0.0
144
0.0
144
0.0
144
0.0208333333333333
144
0.0
144
0.0
144
0.0
144
0.0
144
1.0
144
0.0
144
0.0
144
0.0
144
0.0
144
1.0
147
0.0208333333333333
147
0.0
147
0.0
147
0.0
147
0.0
147
0.0208333333333333
147
0.0
147
0.0
147
0.0
147
0.0
147
1.0
147
0.0
147
0.0
147
0.0
147
0.0
147
1.0
  0
MATERIAL
  5
1819
102
{ACAD_XDICTIONARY
360
181A
102
}
102
{ACAD_REACTORS
330
1818
102
}
330
1818
100
AcDbMaterial
  1
ByLayer
 72
     0
 43
0.0208333333333333
 43
0.0
 43
0.0
 43
0.0
 43
0.0
 43
0.0208333333333333
 43
0.0
 43
0.0
 43
0.0
 43
0.0
 43
1.0
 43
0.0
 43
0.0
 43
0.0
 43
0.0
 43
1.0
 77
     0
 47
0.0208333333333333
 47
0.0
 47
0.0
 47
0.0
 47
0.0
 47
0.0208333333333333
 47
0.0
 47
0.0
 47
0.0
 47
0.0
 47
1.0
 47
0.0
 47
0.0
 47
0.0
 47
0.0
 47
1.0
171
     0
 49
0.0208333333333333
 49
0.0
 49
0.0
 49
0.0
 49
0.0
 49
0.0208333333333333
 49
0.0
 49
0.0
 49
0.0
 49
0.0
 49
1.0
 49
0.0
 49
0.0
 49
0.0
 49
0.0
 49
1.0
175
     0
142
0.0208333333333333
142
0.0
142
0.0
142
0.0
142
0.0
142
0.0208333333333333
142
0.0
142
0.0
142
0.0
142
0.0
142
1.0
142
0.0
142
0.0
142
0.0
142
0.0
142
1.0
179
     0
144
0.0208333333333333
144
0.0
144
0.0
144
0.0
144
0.0
144
0.0208333333333333
144
0.0
144
0.0
144
0.0
144
0.0
144
1.0
144
0.0
144
0.0
144
0.0
144
0.0
144
1.0
147
0.0208333333333333
147
0.0
147
0.0
147
0.0
147
0.0
147
0.0208333333333333
147
0.0
147
0.0
147
0.0
147
0.0
147
1.0
147
0.0
147
0.0
147
0.0
147
0.0
147
1.0
  0
MATERIAL
  5
1829
102
{ACAD_XDICTIONARY
360
182A
102
}
102
{ACAD_REACTORS
330
1818
102
}
330
1818
100
AcDbMaterial
  1
Global
 72
     0
 43
0.0208333333333333
 43
0.0
 43
0.0
 43
0.0
 43
0.0
 43
0.0208333333333333
 43
0.0
 43
0.0
 43
0.0
 43
0.0
 43
1.0
 43
0.0
 43
0.0
 43
0.0
 43
0.0
 43
1.0
 77
     0
 47
0.0208333333333333
 47
0.0
 47
0.0
 47
0.0
 47
0.0
 47
0.0208333333333333
 47
0.0
 47
0.0
 47
0.0
 47
0.0
 47
1.0
 47
0.0
 47
0.0
 47
0.0
 47
0.0
 47
1.0
171
     0
 49
0.0208333333333333
 49
0.0
 49
0.0
 49
0.0
 49
0.0
 49
0.0208333333333333
 49
0.0
 49
0.0
 49
0.0
 49
0.0
 49
1.0
 49
0.0
 49
0.0
 49
0.0
 49
0.0
 49
1.0
175
     0
142
0.0208333333333333
142
0.0
142
0.0
142
0.0
142
0.0
142
0.0208333333333333
142
0.0
142
0.0
142
0.0
142
0.0
142
1.0
142
0.0
142
0.0
142
0.0
142
0.0
142
1.0
179
     0
144
0.0208333333333333
144
0.0
144
0.0
144
0.0
144
0.0
144
0.0208333333333333
144
0.0
144
0.0
144
0.0
144
0.0
144
1.0
144
0.0
144
0.0
144
0.0
144
0.0
144
1.0
147
0.0208333333333333
147
0.0
147
0.0
147
0.0
147
0.0
147
0.0208333333333333
147
0.0
147
0.0
147
0.0
147
0.0
147
1.0
147
0.0
147
0.0
147
0.0
147
0.0
147
1.0
  0
MLEADERSTYLE
  5
1860
102
{ACAD_REACTORS
330
185F
102
}
330
185F
100
AcDbMLeaderStyle
170
     2
171
     1
172
     0
 90
        2
 40
0.0
 41
0.0
173
     1
 91
-1056964608
340
12
 92
       -2
290
     1
 42
0.09
291
     1
 43
0.36
  3
Standard
 44
0.18
300

342
F
174
     1
178
     6
175
     1
176
     0
 93
-1056964608
 45
0.18
292
     0
297
     0
 46
0.18
 94
-1056964608
 47
1.0
 49
1.0
140
1.0
293
     1
141
0.0
294
     1
177
     0
142
1.0
295
     0
296
     0
143
0.125
1001
ACAD_MLEADERVER
1070
     2
  0
MLINESTYLE
  5
1C
102
{ACAD_REACTORS
330
1B
102
}
330
1B
100
AcDbMlineStyle
  2
STANDARD
 70
     0
  3

 62
   256
 51
90.0
 52
90.0
 71
     2
 49
0.5
 62
   256
  6
BYLAYER
 49
-0.5
 62
   256
  6
BYLAYER
  0
ACDBPLACEHOLDER
  5
1817
102
{ACAD_REACTORS
330
1816
102
}
330
1816
  0
SCALE
  5
184E
102
{ACAD_REACTORS
330
184D
102
}
330
184D
100
AcDbScale
 70
     0
300
1:1
140
1.0
141
1.0
290
     1
  0
SCALE
  5
184F
102
{ACAD_REACTORS
330
184D
102
}
330
184D
100
AcDbScale
 70
     0
300
1/128" = 1'-0"
140
0.0078125
141
12.0
290
     0
  0
SCALE
  5
1850
102
{ACAD_REACTORS
330
184D
102
}
330
184D
100
AcDbScale
 70
     0
300
1/64" = 1'-0"
140
0.015625
141
12.0
290
     0
  0
SCALE
  5
1851
102
{ACAD_REACTORS
330
184D
102
}
330
184D
100
AcDbScale
 70
     0
300
1/32" = 1'-0"
140
0.03125
141
12.0
290
     0
  0
SCALE
  5
1852
102
{ACAD_REACTORS
330
184D
102
}
330
184D
100
AcDbScale
 70
     0
300
1/16" = 1'-0"
140
0.0625
141
12.0
290
     0
  0
SCALE
  5
1853
102
{ACAD_REACTORS
330
184D
102
}
330
184D
100
AcDbScale
 70
     0
300
3/32" = 1'-0"
140
0.09375
141
12.0
290
     0
  0
SCALE
  5
1854
102
{ACAD_REACTORS
330
184D
102
}
330
184D
100
AcDbScale
 70
     0
300
1/8" = 1'-0"
140
0.125
141
12.0
290
     0
  0
SCALE
  5
1855
102
{ACAD_REACTORS
330
184D
102
}
330
184D
100
AcDbScale
 70
     0
300
3/16" = 1'-0"
140
0.1875
141
12.0
290
     0
  0
SCALE
  5
1856
102
{ACAD_REACTORS
330
184D
102
}
330
184D
100
AcDbScale
 70
     0
300
1/4" = 1'-0"
140
0.25
141
12.0
290
     0
  0
SCALE
  5
1857
102
{ACAD_REACTORS
330
184D
102
}
330
184D
100
AcDbScale
 70
     0
300
3/8" = 1'-0"
140
0.375
141
12.0
290
     0
  0
SCALE
  5
1858
102
{ACAD_REACTORS
330
184D
102
}
330
184D
100
AcDbScale
 70
     0
300
1/2" = 1'-0"
140
0.5
141
12.0
290
     0
  0
SCALE
  5
1859
102
{ACAD_REACTORS
330
184D
102
}
330
184D
100
AcDbScale
 70
     0
300
3/4" = 1'-0"
140
0.75
141
12.0
290
     0
  0
SCALE
  5
185A
102
{ACAD_REACTORS
330
184D
102
}
330
184D
100
AcDbScale
 70
     0
300
1" = 1'-0"
140
1.0
141
12.0
290
     0
  0
SCALE
  5
185B
102
{ACAD_REACTORS
330
184D
102
}
330
184D
100
AcDbScale
 70
     0
300
1-1/2" = 1'-0"
140
1.5
141
12.0
290
     0
  0
SCALE
  5
185C
102
{ACAD_REACTORS
330
184D
102
}
330
184D
100
AcDbScale
 70
     0
300
3" = 1'-0"
140
3.0
141
12.0
290
     0
  0
SCALE
  5
185D
102
{ACAD_REACTORS
330
184D
102
}
330
184D
100
AcDbScale
 70
     0
300
6" = 1'-0"
140
6.0
141
12.0
290
     0
  0
SCALE
  5
185E
102
{ACAD_REACTORS
330
184D
102
}
330
184D
100
AcDbScale
 70
     0
300
1'-0" = 1'-0"
140
12.0
141
12.0
290
     0
  0
ACDBSECTIONVIEWSTYLE
  5
1862
102
{ACAD_XDICTIONARY
360
18BC
102
}
102
{ACAD_REACTORS
330
1861
102
}
330
1861
100
AcDbModelDocViewStyle
 70
     0
  3
Imperial24
290
     0
100
AcDbSectionViewStyle
 70
     0
 71
     0
 90
       78
 71
     1
340
F
 40
0.24
340
0
340
0
 40
0.24
300
I, O, Q, S, X, Z
 40
0.48
 90
        3
 40
0.18
 90
        1
 71
     2
340
14
 90
       25
340
14
 90
       50
 40
0.24
 40
0.0
 40
0.24
 71
     3
340
F
 40
0.24
 90
        1
 40
0.75
 90
        1
300
%<\AcVar ViewType \f "%tc1">% %<\AcVar ViewSectionStartId>%-%<\AcVar ViewSectionEndId>%\PSCALE %<\AcVar ViewScale \f "%sn">%
 71
     4
300
ANSI31
 40
1.0
 90
        0
290
     0
290
     0
 90
        6
 40
0.0
 40
1.570796326794896
 40
0.2617993877991494
 40
1.308996938995747
 40
-0.2617993877991494
 40
1.832595714594046
  0
TABLESTYLE
  5
184C
102
{ACAD_XDICTIONARY
360
1883
102
}
102
{ACAD_REACTORS
330
184B
102
}
330
184B
100
AcDbTableStyle
  3
Standard
 70
     0
 71
     0
 40
0.06
 41
0.06
280
     0
281
     0
  7
STANDARD
140
0.18
170
     2
 62
     0
 63
     7
283
     0
274
    -2
284
     1
 64
     0
275
    -2
285
     1
 65
     0
276
    -2
286
     1
 66
     0
277
    -2
287
     1
 67
     0
278
    -2
288
     1
 68
     0
279
    -2
289
     1
 69
     0
  7
STANDARD
140
0.25
170
     5
 62
     0
 63
     7
283
     0
274
    -2
284
     1
 64
     0
275
    -2
285
     1
 65
     0
276
    -2
286
     1
 66
     0
277
    -2
287
     1
 67
     0
278
    -2
288
     1
 68
     0
279
    -2
289
     1
 69
     0
  7
STANDARD
140
0.18
170
     5
 62
     0
 63
     7
283
     0
274
    -2
284
     1
 64
     0
275
    -2
285
     1
 65
     0
276
    -2
286
     1
 66
     0
277
    -2
287
     1
 67
     0
278
    -2
288
     1
 68
     0
279
    -2
289
     1
 69
     0
  0
VISUALSTYLE
  5
1837
102
{ACAD_XDICTIONARY
360
1894
102
}
102
{ACAD_REACTORS
330
1831
102
}
330
1831
100
AcDbVisualStyle
  2
2dWireframe
 70
     4
 71
     0
 72
     2
 73
     0
 90
        0
 40
-0.6
 41
-30.0
 62
     5
 63
     7
 74
     1
 91
        4
 64
     7
 65
   257
 75
     1
175
     1
 42
1.0
 92
        0
 66
   257
 43
1.0
 76
     1
 77
     6
 78
     2
 67
     7
 79
     5
170
     0
171
     0
290
     0
174
     0
 93
        1
 44
0.0
173
     0
291
     0
 45
0.0
1001
ACAD
1000
AcDbSavedByObjectVersion
1070
     0
  0
VISUALSTYLE
  5
1836
102
{ACAD_XDICTIONARY
360
1892
102
}
102
{ACAD_REACTORS
330
1831
102
}
330
1831
100
AcDbVisualStyle
  2
Basic
 70
     7
 71
     1
 72
     0
 73
     1
 90
        0
 40
-0.6
 41
-30.0
 62
     5
 63
     7
 74
     0
 91
        4
 64
     7
 65
   257
 75
     1
175
     1
 42
1.0
 92
        8
 66
     7
 43
1.0
 76
     1
 77
     6
 78
     2
 67
     7
 79
     5
170
     0
171
     0
290
     0
174
     0
 93
        1
 44
0.0
173
     0
291
     1
 45
0.0
1001
ACAD
1000
AcDbSavedByObjectVersion
1070
     0
  0
VISUALSTYLE
  5
183D
102
{ACAD_XDICTIONARY
360
18A0
102
}
102
{ACAD_REACTORS
330
1831
102
}
330
1831
100
AcDbVisualStyle
  2
Brighten
 70
    12
 71
     2
 72
     2
 73
     0
 90
        0
 40
-0.6
 41
-30.0
 62
     5
 63
     7
 74
     1
 91
        4
 64
     7
 65
   257
 75
     1
175
     1
 42
1.0
 92
        8
 66
     7
 43
1.0
 76
     1
 77
     6
 78
     2
 67
     7
 79
     5
170
     0
171
     0
290
     0
174
     0
 93
        1
 44
50.0
173
     0
291
     1
 45
0.0
1001
ACAD
1000
AcDbSavedByObjectVersion
1070
     0
  0
VISUALSTYLE
  5
1841
102
{ACAD_XDICTIONARY
360
18A8
102
}
102
{ACAD_REACTORS
330
1831
102
}
330
1831
100
AcDbVisualStyle
  2
ColorChange
 70
    16
 71
     2
 72
     2
 73
     3
 90
        0
 40
-0.6
 41
-30.0
 62
     5
 63
     8
 74
     1
 91
        4
 64
     7
 65
   257
 75
     1
175
     1
 42
1.0
 92
        8
 66
     8
 43
1.0
 76
     1
 77
     6
 78
     2
 67
     7
 79
     5
170
     0
171
     0
290
     0
174
     0
 93
        1
 44
0.0
173
     0
291
     1
 45
0.0
1001
ACAD
1000
AcDbSavedByObjectVersion
1070
     0
  0
VISUALSTYLE
  5
183A
102
{ACAD_XDICTIONARY
360
189A
102
}
102
{ACAD_REACTORS
330
1831
102
}
330
1831
100
AcDbVisualStyle
  2
Conceptual
 70
     9
 71
     3
 72
     2
 73
     0
 90
        0
 40
-0.6
 41
-30.0
 62
     5
 63
     7
 74
     2
 91
        2
 64
     7
 65
   257
 75
     1
175
     1
 42
179.0
 92
        8
 66
     7
 43
1.0
 76
     1
 77
     6
 78
     2
 67
     7
 79
     3
170
     0
171
     0
290
     0
174
     0
 93
        1
 44
0.0
173
     0
291
     0
 45
0.0
1001
ACAD
1000
AcDbSavedByObjectVersion
1070
     0
  0
VISUALSTYLE
  5
183C
102
{ACAD_XDICTIONARY
360
189E
102
}
102
{ACAD_REACTORS
330
1831
102
}
330
1831
100
AcDbVisualStyle
  2
Dim
 70
    11
 71
     2
 72
     2
 73
     0
 90
        0
 40
-0.6
 41
-30.0
 62
     5
 63
     7
 74
     1
 91
        4
 64
     7
 65
   257
 75
     1
175
     1
 42
1.0
 92
        8
 66
     7
 43
1.0
 76
     1
 77
     6
 78
     2
 67
     7
 79
     5
170
     0
171
     0
290
     0
174
     0
 93
        1
 44
-50.0
173
     0
291
     1
 45
0.0
1001
ACAD
1000
AcDbSavedByObjectVersion
1070
     0
  0
VISUALSTYLE
  5
1849
102
{ACAD_XDICTIONARY
360
18B8
102
}
102
{ACAD_REACTORS
330
1831
102
}
330
1831
100
AcDbVisualStyle
  2
EdgeColorOff
 70
    22
 71
     2
 72
     2
 73
     0
 90
        0
 40
-0.6
 41
-30.0
 62
     5
 63
     7
 74
     1
 91
        4
 64
     7
 65
   257
 75
     1
175
     1
 42
1.0
 92
        8
 66
     7
 43
1.0
 76
     1
 77
     6
 78
     2
 67
     7
 79
     5
170
     0
171
     0
290
     0
174
     0
 93
        1
 44
0.0
173
     0
291
     1
 45
0.0
1001
ACAD
1000
AcDbSavedByObjectVersion
1070
     0
  0
VISUALSTYLE
  5
1840
102
{ACAD_XDICTIONARY
360
18A6
102
}
102
{ACAD_REACTORS
330
1831
102
}
330
1831
100
AcDbVisualStyle
  2
Facepattern
 70
    15
 71
     2
 72
     2
 73
     0
 90
        0
 40
-0.6
 41
-30.0
 62
     5
 63
     7
 74
     1
 91
        4
 64
     7
 65
   257
 75
     1
175
     1
 42
1.0
 92
        8
 66
     7
 43
1.0
 76
     1
 77
     6
 78
     2
 67
     7
 79
     5
170
     0
171
     0
290
     0
174
     0
 93
        1
 44
0.0
173
     0
291
     1
 45
0.0
1001
ACAD
1000
AcDbSavedByObjectVersion
1070
     0
  0
VISUALSTYLE
  5
1832
102
{ACAD_XDICTIONARY
360
188A
102
}
102
{ACAD_REACTORS
330
1831
102
}
330
1831
100
AcDbVisualStyle
  2
Flat
 70
     0
 71
     2
 72
     1
 73
     1
 90
        2
 40
-0.6
 41
30.0
 62
     5
 63
     7
 74
     0
 91
        0
 64
     7
 65
   257
 75
     1
175
     1
 42
1.0
 92
        8
 66
     7
 43
1.0
 76
     1
 77
     6
 78
     2
 67
     7
 79
     5
170
     0
171
     0
290
     0
174
     0
 93
       13
 44
0.0
173
     0
291
     1
 45
0.0
1001
ACAD
1000
AcDbSavedByObjectVersion
1070
     0
  0
VISUALSTYLE
  5
1833
102
{ACAD_XDICTIONARY
360
188C
102
}
102
{ACAD_REACTORS
330
1831
102
}
330
1831
100
AcDbVisualStyle
  2
FlatWithEdges
 70
     1
 71
     2
 72
     1
 73
     1
 90
        2
 40
-0.6
 41
30.0
 62
     5
 63
     7
 74
     1
 91
        0
 64
     7
 65
   257
 75
     1
175
     1
 42
1.0
 92
        0
 66
   257
 43
1.0
 76
     1
 77
     6
 78
     2
 67
     7
 79
     5
170
     0
171
     0
290
     0
174
     0
 93
       13
 44
0.0
173
     0
291
     1
 45
0.0
1001
ACAD
1000
AcDbSavedByObjectVersion
1070
     0
  0
VISUALSTYLE
  5
1834
102
{ACAD_XDICTIONARY
360
188E
102
}
102
{ACAD_REACTORS
330
1831
102
}
330
1831
100
AcDbVisualStyle
  2
Gouraud
 70
     2
 71
     2
 72
     2
 73
     1
 90
        2
 40
-0.6
 41
30.0
 62
     5
 63
     7
 74
     0
 91
        0
 64
     7
 65
   257
 75
     1
175
     1
 42
1.0
 92
        0
 66
     7
 43
1.0
 76
     1
 77
     6
 78
     2
 67
     7
 79
     5
170
     0
171
     0
290
     0
174
     0
 93
       13
 44
0.0
173
     0
291
     1
 45
0.0
1001
ACAD
1000
AcDbSavedByObjectVersion
1070
     0
  0
VISUALSTYLE
  5
1835
102
{ACAD_XDICTIONARY
360
1890
102
}
102
{ACAD_REACTORS
330
1831
102
}
330
1831
100
AcDbVisualStyle
  2
GouraudWithEdges
 70
     3
 71
     2
 72
     2
 73
     1
 90
        2
 40
-0.6
 41
30.0
 62
     5
 63
     7
 74
     1
 91
        0
 64
     7
 65
   257
 75
     1
175
     1
 42
1.0
 92
        0
 66
   257
 43
1.0
 76
     1
 77
     6
 78
     2
 67
     7
 79
     5
170
     0
171
     0
290
     0
174
     0
 93
       13
 44
0.0
173
     0
291
     1
 45
0.0
1001
ACAD
1000
AcDbSavedByObjectVersion
1070
     0
  0
VISUALSTYLE
  5
1839
102
{ACAD_XDICTIONARY
360
1898
102
}
102
{ACAD_REACTORS
330
1831
102
}
330
1831
100
AcDbVisualStyle
  2
Hidden
 70
     6
 71
     1
 72
     2
 73
     2
 90
        0
 40
-0.6
 41
-30.0
 62
     5
 63
     7
 74
     2
 91
        2
 64
     7
 65
   257
 75
     2
175
     1
 42
40.0
 92
        0
 66
   257
 43
1.0
 76
     1
 77
     6
 78
     2
 67
     7
 79
     3
170
     0
171
     0
290
     0
174
     0
 93
        1
 44
0.0
173
     0
291
     0
 45
0.0
1001
ACAD
1000
AcDbSavedByObjectVersion
1070
     0
  0
VISUALSTYLE
  5
1847
102
{ACAD_XDICTIONARY
360
18B4
102
}
102
{ACAD_REACTORS
330
1831
102
}
330
1831
100
AcDbVisualStyle
  2
JitterOff
 70
    20
 71
     2
 72
     2
 73
     0
 90
        0
 40
-0.6
 41
-30.0
 62
     5
 63
     7
 74
     1
 91
        4
 64
     7
 65
   257
 75
     1
175
     1
 42
1.0
 92
       10
 66
     7
 43
1.0
 76
     1
 77
     6
 78
     2
 67
     7
 79
     5
170
     0
171
     0
290
     0
174
     0
 93
        1
 44
0.0
173
     0
291
     1
 45
0.0
1001
ACAD
1000
AcDbSavedByObjectVersion
1070
     0
  0
VISUALSTYLE
  5
183F
102
{ACAD_XDICTIONARY
360
18A4
102
}
102
{ACAD_REACTORS
330
1831
102
}
330
1831
100
AcDbVisualStyle
  2
Linepattern
 70
    14
 71
     2
 72
     2
 73
     0
 90
        0
 40
-0.6
 41
-30.0
 62
     5
 63
     7
 74
     1
 91
        4
 64
     7
 65
   257
 75
     7
175
     7
 42
1.0
 92
        8
 66
     7
 43
1.0
 76
     1
 77
     6
 78
     2
 67
     7
 79
     5
170
     0
171
     0
290
     0
174
     0
 93
        1
 44
0.0
173
     0
291
     1
 45
0.0
1001
ACAD
1000
AcDbSavedByObjectVersion
1070
     0
  0
VISUALSTYLE
  5
1848
102
{ACAD_XDICTIONARY
360
18B6
102
}
102
{ACAD_REACTORS
330
1831
102
}
330
1831
100
AcDbVisualStyle
  2
OverhangOff
 70
    21
 71
     2
 72
     2
 73
     0
 90
        0
 40
-0.6
 41
-30.0
 62
     5
 63
     7
 74
     1
 91
        4
 64
     7
 65
   257
 75
     1
175
     1
 42
1.0
 92
        9
 66
     7
 43
1.0
 76
     1
 77
     6
 78
     2
 67
     7
 79
     5
170
     0
171
     0
290
     0
174
     0
 93
        1
 44
0.0
173
     0
291
     1
 45
0.0
1001
ACAD
1000
AcDbSavedByObjectVersion
1070
     0
  0
VISUALSTYLE
  5
183B
102
{ACAD_XDICTIONARY
360
189C
102
}
102
{ACAD_REACTORS
330
1831
102
}
330
1831
100
AcDbVisualStyle
  2
Realistic
 70
     8
 71
     2
 72
     3
 73
     0
 90
        2
 40
-0.6
 41
30.0
 62
     5
 63
     7
 74
     0
 91
        0
 64
     7
 65
   257
 75
     1
175
     1
 42
1.0
 92
        8
 66
   257
 43
1.0
 76
     1
 77
     6
 78
     2
 67
     7
 79
     3
170
     0
171
     0
290
     0
174
     0
 93
       13
 44
0.0
173
     0
291
     0
 45
0.0
1001
ACAD
1000
AcDbSavedByObjectVersion
1070
     0
  0
VISUALSTYLE
  5
1846
102
{ACAD_XDICTIONARY
360
18B2
102
}
102
{ACAD_REACTORS
330
1831
102
}
330
1831
100
AcDbVisualStyle
  2
Shaded
 70
    27
 71
     2
 72
     2
 73
     1
 90
        2
 40
-0.6
 41
30.0
 62
     5
 63
     7
 74
     0
 91
        4
 64
     7
 65
   257
 75
     1
175
     1
 42
1.0
 92
        8
 66
   257
 43
1.0
 76
     1
 77
     6
 78
     2
 67
     8
 79
     3
170
     0
171
     0
290
     0
174
     0
 93
        5
 44
0.0
173
     0
291
     0
 45
0.0
1001
ACAD
1000
AcDbSavedByObjectVersion
1070
     0
  0
VISUALSTYLE
  5
1845
102
{ACAD_XDICTIONARY
360
18B0
102
}
102
{ACAD_REACTORS
330
1831
102
}
330
1831
100
AcDbVisualStyle
  2
Shaded with edges
 70
    26
 71
     2
 72
     2
 73
     1
 90
        2
 40
-0.6
 41
30.0
 62
     5
 63
     7
 74
     1
 91
       10
 64
     7
 65
   257
 75
     2
175
     1
 42
1.0
 92
        8
 66
   257
 43
1.0
 76
     1
 77
     6
 78
     2
 67
     7
 79
     3
170
     0
171
     0
290
     0
174
     0
 93
        5
 44
0.0
173
     0
291
     0
 45
0.0
1001
ACAD
1000
AcDbSavedByObjectVersion
1070
     0
  0
VISUALSTYLE
  5
1842
102
{ACAD_XDICTIONARY
360
18AA
102
}
102
{ACAD_REACTORS
330
1831
102
}
330
1831
100
AcDbVisualStyle
  2
Shades of Gray
 70
    23
 71
     2
 72
     2
 73
     3
 90
        0
 40
-0.6
 41
-30.0
 62
     5
 63
     7
 74
     2
 91
        2
 64
     7
 65
     7
 75
     1
175
     1
 42
40.0
 92
        8
 66
     7
 43
1.0
 76
     1
 77
     6
 78
     2
 67
     7
 79
     3
170
     0
171
     0
290
     0
174
     0
 93
        1
 44
0.0
173
     0
291
     0
 45
0.0
1001
ACAD
1000
AcDbSavedByObjectVersion
1070
     0
  0
VISUALSTYLE
  5
1843
102
{ACAD_XDICTIONARY
360
18AC
102
}
102
{ACAD_REACTORS
330
1831
102
}
330
1831
100
AcDbVisualStyle
  2
Sketchy
 70
    24
 71
     1
 72
     2
 73
     2
 90
        0
 40
-0.6
 41
-30.0
 62
     5
 63
     7
 74
     2
 91
        2
 64
     7
 65
     7
 75
     1
175
     1
 42
40.0
 92
       11
 66
     7
 43
1.0
 76
     1
 77
     6
 78
     2
 67
     7
 79
     6
170
     0
171
     0
290
     0
174
     0
 93
        1
 44
0.0
173
     0
291
     0
 45
0.0
1001
ACAD
1000
AcDbSavedByObjectVersion
1070
     0
  0
VISUALSTYLE
  5
183E
102
{ACAD_XDICTIONARY
360
18A2
102
}
102
{ACAD_REACTORS
330
1831
102
}
330
1831
100
AcDbVisualStyle
  2
Thicken
 70
    13
 71
     2
 72
     2
 73
     0
 90
        0
 40
-0.6
 41
-30.0
 62
     5
 63
     7
 74
     1
 91
        4
 64
     7
 65
   257
 75
     1
175
     1
 42
1.0
 92
       12
 66
     7
 43
1.0
 76
     1
 77
     6
 78
     2
 67
     7
 79
     5
170
     0
171
     0
290
     0
174
     0
 93
        1
 44
0.0
173
     0
291
     1
 45
0.0
1001
ACAD
1000
AcDbSavedByObjectVersion
1070
     0
  0
VISUALSTYLE
  5
1838
102
{ACAD_XDICTIONARY
360
1896
102
}
102
{ACAD_REACTORS
330
1831
102
}
330
1831
100
AcDbVisualStyle
  2
Wireframe
 70
     5
 71
     0
 72
     2
 73
     0
 90
        0
 40
-0.6
 41
-30.0
 62
     5
 63
     7
 74
     1
 91
        4
 64
     7
 65
   257
 75
     1
175
     1
 42
1.0
 92
        0
 66
   257
 43
1.0
 76
     1
 77
     6
 78
     2
 67
     7
 79
     3
170
     0
171
     0
290
     0
174
     0
 93
        1
 44
0.0
173
     0
291
     0
 45
0.0
1001
ACAD
1000
AcDbSavedByObjectVersion
1070
     0
  0
VISUALSTYLE
  5
1844
102
{ACAD_XDICTIONARY
360
18AE
102
}
102
{ACAD_REACTORS
330
1831
102
}
330
1831
100
AcDbVisualStyle
  2
X-Ray
 70
    25
 71
     2
 72
     2
 73
     1
 90
        1
 40
0.5
 41
-30.0
 62
     5
 63
     7
 74
     1
 91
        0
 64
     7
 65
   257
 75
     1
175
     1
 42
1.0
 92
        8
 66
     7
 43
1.0
 76
     1
 77
     6
 78
     2
 67
     7
 79
     3
170
     0
171
     0
290
     0
174
     0
 93
       13
 44
0.0
173
     0
291
     0
 45
0.0
1001
ACAD
1000
AcDbSavedByObjectVersion
1070
     0
  0
DICTIONARYVAR
  5
187D
102
{ACAD_REACTORS
330
1878
102
}
330
1878
100
DictionaryVariables
280
     0
  1
1:1
  0
DICTIONARYVAR
  5
187A
102
{ACAD_REACTORS
330
1878
102
}
330
1878
100
DictionaryVariables
280
     0
  1
STANDARD
  0
DICTIONARYVAR
  5
1879
102
{ACAD_REACTORS
330
1878
102
}
330
1878
100
DictionaryVariables
280
     0
  1
STANDARD
  0
DICTIONARYVAR
  5
187B
102
{ACAD_REACTORS
330
1878
102
}
330
1878
100
DictionaryVariables
280
     0
  1
Imperial24
  0
DICTIONARYVAR
  5
187C
102
{ACAD_REACTORS
330
1878
102
}
330
1878
100
DictionaryVariables
280
     0
  1
Imperial24
  0
DICTIONARYVAR
  5
1880
102
{ACAD_REACTORS
330
1878
102
}
330
1878
100
DictionaryVariables
280
     0
  1
1
  0
DICTIONARYVAR
  5
187F
102
{ACAD_REACTORS
330
1878
102
}
330
1878
100
DictionaryVariables
280
     0
  1
0
  0
DICTIONARYVAR
  5
187E
102
{ACAD_REACTORS
330
1878
102
}
330
1878
100
DictionaryVariables
280
     0
  1
127
  0
DICTIONARYVAR
  5
1881
102
{ACAD_REACTORS
330
1878
102
}
330
1878
100
DictionaryVariables
280
     0
  1
2
  0
DICTIONARY
  5
18BE
330
1864
100
AcDbDictionary
280
     1
281
     1
  3
ACAD_XREC_ROUNDTRIP
360
18BF
  0
DICTIONARY
  5
18C0
330
1865
100
AcDbDictionary
280
     1
281
     1
  3
ACAD_XREC_ROUNDTRIP
360
18C1
  0
DICTIONARY
  5
18C2
330
1866
100
AcDbDictionary
280
     1
281
     1
  3
ACAD_XREC_ROUNDTRIP
360
18C3
  0
DICTIONARY
  5
1822
330
1821
100
AcDbDictionary
280
     1
281
     1
  3
ACAD_XREC_ROUNDTRIP
360
1888
  3
BUMPTILE
360
1824
  3
DIFFUSETILE
360
1823
  3
OPACITYTILE
360
1827
  3
REFLECTIONTILE
360
1826
  3
REFRACTIONTILE
360
1828
  3
SPECULARTILE
360
1825
  0
DICTIONARY
  5
181A
330
1819
100
AcDbDictionary
280
     1
281
     1
  3
ACAD_XREC_ROUNDTRIP
360
1887
  3
BUMPTILE
360
181C
  3
DIFFUSETILE
360
181B
  3
OPACITYTILE
360
181F
  3
REFLECTIONTILE
360
181E
  3
REFRACTIONTILE
360
1820
  3
SPECULARTILE
360
181D
  0
DICTIONARY
  5
182A
330
1829
100
AcDbDictionary
280
     1
281
     1
  3
ACAD_XREC_ROUNDTRIP
360
1889
  3
BUMPTILE
360
182C
  3
DIFFUSETILE
360
182B
  3
OPACITYTILE
360
182F
  3
REFLECTIONTILE
360
182E
  3
REFRACTIONTILE
360
1830
  3
SPECULARTILE
360
182D
  0
DICTIONARY
  5
18BC
330
1862
100
AcDbDictionary
280
     1
281
     1
  3
ACAD_XREC_ROUNDTRIP
360
18BD
  0
DICTIONARY
  5
1883
330
184C
100
AcDbDictionary
280
     1
281
     1
  3
ACAD_ROUNDTRIP_2008_TABLESTYLE_CELLSTYLEMAP
360
1884
  3
ACAD_XREC_ROUNDTRIP
360
18BA
  0
DICTIONARY
  5
1894
330
1837
100
AcDbDictionary
280
     1
281
     1
  3
ACAD_XREC_ROUNDTRIP
360
1895
  0
DICTIONARY
  5
1892
330
1836
100
AcDbDictionary
280
     1
281
     1
  3
ACAD_XREC_ROUNDTRIP
360
1893
  0
DICTIONARY
  5
18A0
330
183D
100
AcDbDictionary
280
     1
281
     1
  3
ACAD_XREC_ROUNDTRIP
360
18A1
  0
DICTIONARY
  5
18A8
330
1841
100
AcDbDictionary
280
     1
281
     1
  3
ACAD_XREC_ROUNDTRIP
360
18A9
  0
DICTIONARY
  5
189A
330
183A
100
AcDbDictionary
280
     1
281
     1
  3
ACAD_XREC_ROUNDTRIP
360
189B
  0
DICTIONARY
  5
189E
330
183C
100
AcDbDictionary
280
     1
281
     1
  3
ACAD_XREC_ROUNDTRIP
360
189F
  0
DICTIONARY
  5
18B8
330
1849
100
AcDbDictionary
280
     1
281
     1
  3
ACAD_XREC_ROUNDTRIP
360
18B9
  0
DICTIONARY
  5
18A6
330
1840
100
AcDbDictionary
280
     1
281
     1
  3
ACAD_XREC_ROUNDTRIP
360
18A7
  0
DICTIONARY
  5
188A
330
1832
100
AcDbDictionary
280
     1
281
     1
  3
ACAD_XREC_ROUNDTRIP
360
188B
  0
DICTIONARY
  5
188C
330
1833
100
AcDbDictionary
280
     1
281
     1
  3
ACAD_XREC_ROUNDTRIP
360
188D
  0
DICTIONARY
  5
188E
330
1834
100
AcDbDictionary
280
     1
281
     1
  3
ACAD_XREC_ROUNDTRIP
360
188F
  0
DICTIONARY
  5
1890
330
1835
100
AcDbDictionary
280
     1
281
     1
  3
ACAD_XREC_ROUNDTRIP
360
1891
  0
DICTIONARY
  5
1898
330
1839
100
AcDbDictionary
280
     1
281
     1
  3
ACAD_XREC_ROUNDTRIP
360
1899
  0
DICTIONARY
  5
18B4
330
1847
100
AcDbDictionary
280
     1
281
     1
  3
ACAD_XREC_ROUNDTRIP
360
18B5
  0
DICTIONARY
  5
18A4
330
183F
100
AcDbDictionary
280
     1
281
     1
  3
ACAD_XREC_ROUNDTRIP
360
18A5
  0
DICTIONARY
  5
18B6
330
1848
100
AcDbDictionary
280
     1
281
     1
  3
ACAD_XREC_ROUNDTRIP
360
18B7
  0
DICTIONARY
  5
189C
330
183B
100
AcDbDictionary
280
     1
281
     1
  3
ACAD_XREC_ROUNDTRIP
360
189D
  0
DICTIONARY
  5
18B2
330
1846
100
AcDbDictionary
280
     1
281
     1
  3
ACAD_XREC_ROUNDTRIP
360
18B3
  0
DICTIONARY
  5
18B0
330
1845
100
AcDbDictionary
280
     1
281
     1
  3
ACAD_XREC_ROUNDTRIP
360
18B1
  0
DICTIONARY
  5
18AA
330
1842
100
AcDbDictionary
280
     1
281
     1
  3
ACAD_XREC_ROUNDTRIP
360
18AB
  0
DICTIONARY
  5
18AC
330
1843
100
AcDbDictionary
280
     1
281
     1
  3
ACAD_XREC_ROUNDTRIP
360
18AD
  0
DICTIONARY
  5
18A2
330
183E
100
AcDbDictionary
280
     1
281
     1
  3
ACAD_XREC_ROUNDTRIP
360
18A3
  0
DICTIONARY
  5
1896
330
1838
100
AcDbDictionary
280
     1
281
     1
  3
ACAD_XREC_ROUNDTRIP
360
1897
  0
DICTIONARY
  5
18AE
330
1844
100
AcDbDictionary
280
     1
281
     1
  3
ACAD_XREC_ROUNDTRIP
360
18AF
  0
XRECORD
  5
18BF
102
{ACAD_REACTORS
330
18BE
102
}
330
18BE
100
AcDbXrecord
280
     1
102
DISPLAYNAME
  1
Imperial24
102
FLAGS
 90
        0
  0
XRECORD
  5
18C1
102
{ACAD_REACTORS
330
18C0
102
}
330
18C0
100
AcDbXrecord
280
     1
102
SHADEPLOT
 70
     0
102
SHADEPLOTRESLEVEL
 70
     2
102
SHADEPLOTCUSTOMDPI
 70
   300
  0
XRECORD
  5
18C3
102
{ACAD_REACTORS
330
18C2
102
}
330
18C2
100
AcDbXrecord
280
     1
102
SHADEPLOT
 70
     0
102
SHADEPLOTRESLEVEL
 70
     2
102
SHADEPLOTCUSTOMDPI
 70
   300
  0
XRECORD
  5
1888
102
{ACAD_REACTORS
330
1822
102
}
330
1822
100
AcDbXrecord
280
     1
102
MATERIAL
148
0.0
149
0.0
149
0.0
 93
        0
 94
      127
282
     0
 72
     0
 77
     0
171
     0
175
     0
179
     0
273
     0
  0
XRECORD
  5
1824
102
{ACAD_REACTORS
330
1822
102
}
330
1822
100
AcDbXrecord
280
     1
270
     1
271
     1
  0
XRECORD
  5
1823
102
{ACAD_REACTORS
330
1822
102
}
330
1822
100
AcDbXrecord
280
     1
270
     1
271
     1
  0
XRECORD
  5
1827
102
{ACAD_REACTORS
330
1822
102
}
330
1822
100
AcDbXrecord
280
     1
270
     1
271
     1
  0
XRECORD
  5
1826
102
{ACAD_REACTORS
330
1822
102
}
330
1822
100
AcDbXrecord
280
     1
270
     1
271
     1
  0
XRECORD
  5
1828
102
{ACAD_REACTORS
330
1822
102
}
330
1822
100
AcDbXrecord
280
     1
270
     1
271
     1
  0
XRECORD
  5
1825
102
{ACAD_REACTORS
330
1822
102
}
330
1822
100
AcDbXrecord
280
     1
270
     1
271
     1
  0
XRECORD
  5
1887
102
{ACAD_REACTORS
330
181A
102
}
330
181A
100
AcDbXrecord
280
     1
102
MATERIAL
148
0.0
149
0.0
149
0.0
 93
        0
 94
      127
282
     0
 72
     0
 77
     0
171
     0
175
     0
179
     0
273
     0
  0
XRECORD
  5
181C
102
{ACAD_REACTORS
330
181A
102
}
330
181A
100
AcDbXrecord
280
     1
270
     1
271
     1
  0
XRECORD
  5
181B
102
{ACAD_REACTORS
330
181A
102
}
330
181A
100
AcDbXrecord
280
     1
270
     1
271
     1
  0
XRECORD
  5
181F
102
{ACAD_REACTORS
330
181A
102
}
330
181A
100
AcDbXrecord
280
     1
270
     1
271
     1
  0
XRECORD
  5
181E
102
{ACAD_REACTORS
330
181A
102
}
330
181A
100
AcDbXrecord
280
     1
270
     1
271
     1
  0
XRECORD
  5
1820
102
{ACAD_REACTORS
330
181A
102
}
330
181A
100
AcDbXrecord
280
     1
270
     1
271
     1
  0
XRECORD
  5
181D
102
{ACAD_REACTORS
330
181A
102
}
330
181A
100
AcDbXrecord
280
     1
270
     1
271
     1
  0
XRECORD
  5
1889
102
{ACAD_REACTORS
330
182A
102
}
330
182A
100
AcDbXrecord
280
     1
102
MATERIAL
148
0.0
149
0.0
149
0.0
 93
        0
 94
      127
282
     0
 72
     0
 77
     0
171
     0
175
     0
179
     0
273
     0
  0
XRECORD
  5
182C
102
{ACAD_REACTORS
330
182A
102
}
330
182A
100
AcDbXrecord
280
     1
270
     1
271
     1
  0
XRECORD
  5
182B
102
{ACAD_REACTORS
330
182A
102
}
330
182A
100
AcDbXrecord
280
     1
270
     1
271
     1
  0
XRECORD
  5
182F
102
{ACAD_REACTORS
330
182A
102
}
330
182A
100
AcDbXrecord
280
     1
270
     1
271
     1
  0
XRECORD
  5
182E
102
{ACAD_REACTORS
330
182A
102
}
330
182A
100
AcDbXrecord
280
     1
270
     1
271
     1
  0
XRECORD
  5
1830
102
{ACAD_REACTORS
330
182A
102
}
330
182A
100
AcDbXrecord
280
     1
270
     1
271
     1
  0
XRECORD
  5
182D
102
{ACAD_REACTORS
330
182A
102
}
330
182A
100
AcDbXrecord
280
     1
270
     1
271
     1
  0
XRECORD
  5
18BD
102
{ACAD_REACTORS
330
18BC
102
}
330
18BC
100
AcDbXrecord
280
     1
102
DISPLAYNAME
  1
Imperial24
102
FLAGS
 90
        0
  0
CELLSTYLEMAP
  5
1884
102
{ACAD_REACTORS
330
1883
102
}
330
1883
100
AcDbCellStyleMap
 90
        3
300
CELLSTYLE
  1
TABLEFORMAT_BEGIN
 90
        5
170
     1
 91
        0
 92
    32768
 62
   257
 93
        1
300
CONTENTFORMAT
  1
CONTENTFORMAT_BEGIN
 90
        0
 91
        0
 92
      512
 93
        0
300

 40
0.0
140
1.0
 94
        5
 62
     0
340
F
144
0.25
309
CONTENTFORMAT_END
171
     0
 94
        0
309
TABLEFORMAT_END
  1
CELLSTYLE_BEGIN
 90
        1
 91
        1
300
_TITLE
309
CELLSTYLE_END
300
CELLSTYLE
  1
TABLEFORMAT_BEGIN
 90
        5
170
     1
 91
        0
 92
        0
 62
   257
 93
        1
300
CONTENTFORMAT
  1
CONTENTFORMAT_BEGIN
 90
        0
 91
        0
 92
      512
 93
        0
300

 40
0.0
140
1.0
 94
        5
 62
     0
340
F
144
0.18
309
CONTENTFORMAT_END
171
     0
 94
        0
309
TABLEFORMAT_END
  1
CELLSTYLE_BEGIN
 90
        2
 91
        1
300
_HEADER
309
CELLSTYLE_END
300
CELLSTYLE
  1
TABLEFORMAT_BEGIN
 90
        5
170
     1
 91
        0
 92
        0
 62
   257
 93
        1
300
CONTENTFORMAT
  1
CONTENTFORMAT_BEGIN
 90
        0
 91
        0
 92
      512
 93
        0
300

 40
0.0
140
1.0
 94
        2
 62
     0
340
F
144
0.18
309
CONTENTFORMAT_END
171
     0
 94
        0
309
TABLEFORMAT_END
  1
CELLSTYLE_BEGIN
 90
        3
 91
        2
300
_DATA
309
CELLSTYLE_END
  0
XRECORD
  5
18BA
102
{ACAD_REACTORS
330
1883
102
}
330
1883
100
AcDbXrecord
280
     1
102
ACAD_ROUNDTRIP_PRE2007_TABLESTYLE
 90
      512
 91
        0
  1

 92
      512
 93
        0
  2

 94
      512
 95
        0
  3

  0
XRECORD
  5
1895
102
{ACAD_REACTORS
330
1894
102
}
330
1894
100
AcDbXrecord
280
     1
102
RTVSPost2010Prop28
280
     1
102
RTVSPost2010PropOp28
 70
     1
102
RTVSPost2010Prop29
280
     1
102
RTVSPost2010PropOp29
 70
     1
102
RTVSPost2010Prop30
280
     0
102
RTVSPost2010PropOp30
 70
     1
102
RTVSPost2010Prop31
280
     0
102
RTVSPost2010PropOp31
 70
     1
102
RTVSPost2010Prop32
280
     0
102
RTVSPost2010PropOp32
 70
     1
102
RTVSPost2010Prop33
280
     0
102
RTVSPost2010PropOp33
 70
     1
102
RTVSPost2010Prop34
280
     0
102
RTVSPost2010PropOp34
 70
     1
102
RTVSPost2010Prop35
280
     0
102
RTVSPost2010PropOp35
 70
     1
102
RTVSPost2010Prop36
280
     0
102
RTVSPost2010PropOp36
 70
     1
102
RTVSPost2010Prop37
 90
       50
102
RTVSPost2010PropOp37
 70
     1
102
RTVSPost2010Prop38
140
0.0
102
RTVSPost2010PropOp38
 70
     1
102
RTVSPost2010Prop39
140
1.0
102
RTVSPost2010PropOp39
 70
     1
102
RTVSPost2010Prop40
 90
        0
102
RTVSPost2010PropOp40
 70
     1
102
RTVSPost2010Prop41ColorIndex
 90
       18
102
RTVSPost2010Prop41ColorRGB
 90
        0
102
RTVSPost2010PropOp41
 70
     1
102
RTVSPost2010Prop42
 90
       50
102
RTVSPost2010PropOp42
 70
     1
102
RTVSPost2010Prop43
 90
        3
102
RTVSPost2010PropOp43
 70
     1
102
RTVSPost2010Prop44ColorIndex
 90
        5
102
RTVSPost2010Prop44ColorRGB
 90
      255
102
RTVSPost2010PropOp44
 70
     1
102
RTVSPost2010Prop45
280
     0
102
RTVSPost2010PropOp45
 70
     1
102
RTVSPost2010Prop46
 90
       50
102
RTVSPost2010PropOp46
 70
     1
102
RTVSPost2010Prop47
 90
       50
102
RTVSPost2010PropOp47
 70
     1
102
RTVSPost2010Prop48
 90
       50
102
RTVSPost2010PropOp48
 70
     1
102
RTVSPost2010Prop49
280
     0
102
RTVSPost2010PropOp49
 70
     1
102
RTVSPost2010Prop50
 90
       50
102
RTVSPost2010PropOp50
 70
     1
102
RTVSPost2010Prop51ColorIndex
 90
      256
102
RTVSPost2010Prop51ColorRGB
 90
-16777216
102
RTVSPost2010PropOp51
 70
     0
102
RTVSPost2010Prop52
140
1.0
102
RTVSPost2010PropOp52
 70
     0
102
RTVSPost2010Prop53
 90
        2
102
RTVSPost2010PropOp53
 70
     1
102
RTVSPost2010Prop54
  1
strokes_ogs.tif
102
RTVSPost2010PropOp54
 70
     1
102
RTVSPost2010Prop55
280
     0
102
RTVSPost2010PropOp55
 70
     1
102
RTVSPost2010Prop56
140
1.0
102
RTVSPost2010PropOp56
 70
     1
102
RTVSPost2010Prop57
140
1.0
102
RTVSPost2010PropOp57
 70
     1
102
RTVSPropertyOp0
 70
     1
102
RTVSPropertyOp1
 70
     1
102
RTVSPropertyOp2
 70
     1
102
RTVSPropertyOp3
 70
     1
102
RTVSPropertyOp4
 70
     1
102
RTVSPropertyOp5
 70
     1
102
RTVSPropertyOp6
 70
     1
102
RTVSPropertyOp7
 70
     1
102
RTVSPropertyOp8
 70
     1
102
RTVSPropertyOp9
 70
     1
102
RTVSPropertyOp10
 70
     1
102
RTVSPropertyOp11
 70
     1
102
RTVSPropertyOp12
 70
     1
102
RTVSPropertyOp13
 70
     1
102
RTVSPropertyOp14
 70
     1
102
RTVSPropertyOp15
 70
     1
102
RTVSPropertyOp16
 70
     1
102
RTVSPropertyOp17
 70
     1
102
RTVSPropertyOp18
 70
     1
102
RTVSPropertyOp19
 70
     1
102
RTVSPropertyOp20
 70
     1
102
RTVSPropertyOp21
 70
     1
102
RTVSPropertyOp22
 70
     1
102
RTVSPropertyOp23
 70
     1
102
RTVSPropertyOp24
 70
     1
102
RTVSPropertyOp25
 70
     1
102
RTVSPropertyOp26
 70
     1
102
RTVSPropertyOp27
 70
     1
102
RTVSPropertyOp28
 70
     1
102
RTVSPropertyOp29
 70
     1
102
RTVSPropertyOp30
 70
     1
102
RTVSPropertyOp31
 70
     1
102
RTVSPropertyOp32
 70
     1
102
RTVSPropertyOp33
 70
     1
102
RTVSPropertyOp34
 70
     1
102
RTVSPropertyOp35
 70
     1
102
RTVSPropertyOp36
 70
     1
102
RTVSPropertyOp37
 70
     1
102
RTVSPropertyOp38
 70
     1
102
RTVSPropertyOp39
 70
     1
102
RTVSPropertyOp40
 70
     1
102
RTVSPropertyOp41
 70
     1
102
RTVSPropertyOp42
 70
     1
102
RTVSPropertyOp43
 70
     1
102
RTVSPropertyOp44
 70
     1
102
RTVSPropertyOp45
 70
     1
102
RTVSPropertyOp46
 70
     1
102
RTVSPropertyOp47
 70
     1
102
RTVSPropertyOp48
 70
     1
102
RTVSPropertyOp49
 70
     1
102
RTVSPropertyOp50
 70
     1
102
RTVSPropertyOp51
 70
     0
102
RTVSPropertyOp52
 70
     0
102
RTVSPropertyOp53
 70
     1
102
RTVSPropertyOp54
 70
     1
102
RTVSPropertyOp55
 70
     1
102
RTVSPropertyOp56
 70
     1
102
RTVSPropertyOp57
 70
     1
102
RTVSPropertyOp58
 70
     1
102
RTVSPropertyOp59
 70
     1
102
RTVSPropertyOp60
 70
     1
102
RTVSPropertyOp61
 70
     1
102
RTVSPropertyOp62
 70
     1
  0
XRECORD
  5
1893
102
{ACAD_REACTORS
330
1892
102
}
330
1892
100
AcDbXrecord
280
     1
102
RTVSPost2010Prop28
280
     0
102
RTVSPost2010PropOp28
 70
     1
102
RTVSPost2010Prop29
280
     1
102
RTVSPost2010PropOp29
 70
     1
102
RTVSPost2010Prop30
280
     1
102
RTVSPost2010PropOp30
 70
     1
102
RTVSPost2010Prop31
280
     0
102
RTVSPost2010PropOp31
 70
     1
102
RTVSPost2010Prop32
280
     0
102
RTVSPost2010PropOp32
 70
     1
102
RTVSPost2010Prop33
280
     0
102
RTVSPost2010PropOp33
 70
     1
102
RTVSPost2010Prop34
280
     0
102
RTVSPost2010PropOp34
 70
     1
102
RTVSPost2010Prop35
280
     0
102
RTVSPost2010PropOp35
 70
     1
102
RTVSPost2010Prop36
280
     0
102
RTVSPost2010PropOp36
 70
     1
102
RTVSPost2010Prop37
 90
       50
102
RTVSPost2010PropOp37
 70
     1
102
RTVSPost2010Prop38
140
0.0
102
RTVSPost2010PropOp38
 70
     1
102
RTVSPost2010Prop39
140
1.0
102
RTVSPost2010PropOp39
 70
     1
102
RTVSPost2010Prop40
 90
        0
102
RTVSPost2010PropOp40
 70
     1
102
RTVSPost2010Prop41ColorIndex
 90
       18
102
RTVSPost2010Prop41ColorRGB
 90
        0
102
RTVSPost2010PropOp41
 70
     1
102
RTVSPost2010Prop42
 90
       50
102
RTVSPost2010PropOp42
 70
     1
102
RTVSPost2010Prop43
 90
        3
102
RTVSPost2010PropOp43
 70
     1
102
RTVSPost2010Prop44ColorIndex
 90
        5
102
RTVSPost2010Prop44ColorRGB
 90
      255
102
RTVSPost2010PropOp44
 70
     1
102
RTVSPost2010Prop45
280
     0
102
RTVSPost2010PropOp45
 70
     1
102
RTVSPost2010Prop46
 90
       50
102
RTVSPost2010PropOp46
 70
     1
102
RTVSPost2010Prop47
 90
       50
102
RTVSPost2010PropOp47
 70
     1
102
RTVSPost2010Prop48
 90
       50
102
RTVSPost2010PropOp48
 70
     1
102
RTVSPost2010Prop49
280
     0
102
RTVSPost2010PropOp49
 70
     1
102
RTVSPost2010Prop50
 90
       50
102
RTVSPost2010PropOp50
 70
     1
102
RTVSPost2010Prop51ColorIndex
 90
      256
102
RTVSPost2010Prop51ColorRGB
 90
-16777216
102
RTVSPost2010PropOp51
 70
     0
102
RTVSPost2010Prop52
140
1.0
102
RTVSPost2010PropOp52
 70
     0
102
RTVSPost2010Prop53
 90
        2
102
RTVSPost2010PropOp53
 70
     1
102
RTVSPost2010Prop54
  1
strokes_ogs.tif
102
RTVSPost2010PropOp54
 70
     1
102
RTVSPost2010Prop55
280
     0
102
RTVSPost2010PropOp55
 70
     1
102
RTVSPost2010Prop56
140
1.0
102
RTVSPost2010PropOp56
 70
     1
102
RTVSPost2010Prop57
140
1.0
102
RTVSPost2010PropOp57
 70
     1
102
RTVSPropertyOp0
 70
     1
102
RTVSPropertyOp1
 70
     1
102
RTVSPropertyOp2
 70
     1
102
RTVSPropertyOp3
 70
     1
102
RTVSPropertyOp4
 70
     1
102
RTVSPropertyOp5
 70
     1
102
RTVSPropertyOp6
 70
     1
102
RTVSPropertyOp7
 70
     1
102
RTVSPropertyOp8
 70
     1
102
RTVSPropertyOp9
 70
     1
102
RTVSPropertyOp10
 70
     1
102
RTVSPropertyOp11
 70
     1
102
RTVSPropertyOp12
 70
     1
102
RTVSPropertyOp13
 70
     1
102
RTVSPropertyOp14
 70
     1
102
RTVSPropertyOp15
 70
     1
102
RTVSPropertyOp16
 70
     1
102
RTVSPropertyOp17
 70
     1
102
RTVSPropertyOp18
 70
     1
102
RTVSPropertyOp19
 70
     1
102
RTVSPropertyOp20
 70
     1
102
RTVSPropertyOp21
 70
     1
102
RTVSPropertyOp22
 70
     1
102
RTVSPropertyOp23
 70
     1
102
RTVSPropertyOp24
 70
     1
102
RTVSPropertyOp25
 70
     1
102
RTVSPropertyOp26
 70
     1
102
RTVSPropertyOp27
 70
     1
102
RTVSPropertyOp28
 70
     1
102
RTVSPropertyOp29
 70
     1
102
RTVSPropertyOp30
 70
     1
102
RTVSPropertyOp31
 70
     1
102
RTVSPropertyOp32
 70
     1
102
RTVSPropertyOp33
 70
     1
102
RTVSPropertyOp34
 70
     1
102
RTVSPropertyOp35
 70
     1
102
RTVSPropertyOp36
 70
     1
102
RTVSPropertyOp37
 70
     1
102
RTVSPropertyOp38
 70
     1
102
RTVSPropertyOp39
 70
     1
102
RTVSPropertyOp40
 70
     1
102
RTVSPropertyOp41
 70
     1
102
RTVSPropertyOp42
 70
     1
102
RTVSPropertyOp43
 70
     1
102
RTVSPropertyOp44
 70
     1
102
RTVSPropertyOp45
 70
     1
102
RTVSPropertyOp46
 70
     1
102
RTVSPropertyOp47
 70
     1
102
RTVSPropertyOp48
 70
     1
102
RTVSPropertyOp49
 70
     1
102
RTVSPropertyOp50
 70
     1
102
RTVSPropertyOp51
 70
     0
102
RTVSPropertyOp52
 70
     0
102
RTVSPropertyOp53
 70
     1
102
RTVSPropertyOp54
 70
     1
102
RTVSPropertyOp55
 70
     1
102
RTVSPropertyOp56
 70
     1
102
RTVSPropertyOp57
 70
     1
102
RTVSPropertyOp58
 70
     1
102
RTVSPropertyOp59
 70
     1
102
RTVSPropertyOp60
 70
     1
102
RTVSPropertyOp61
 70
     1
102
RTVSPropertyOp62
 70
     1
  0
XRECORD
  5
18A1
102
{ACAD_REACTORS
330
18A0
102
}
330
18A0
100
AcDbXrecord
280
     1
102
RTVSPost2010Prop28
280
     0
102
RTVSPost2010PropOp28
 70
     1
102
RTVSPost2010Prop29
280
     1
102
RTVSPost2010PropOp29
 70
     1
102
RTVSPost2010Prop30
280
     1
102
RTVSPost2010PropOp30
 70
     1
102
RTVSPost2010Prop31
280
     0
102
RTVSPost2010PropOp31
 70
     1
102
RTVSPost2010Prop32
280
     0
102
RTVSPost2010PropOp32
 70
     1
102
RTVSPost2010Prop33
280
     0
102
RTVSPost2010PropOp33
 70
     1
102
RTVSPost2010Prop34
280
     0
102
RTVSPost2010PropOp34
 70
     1
102
RTVSPost2010Prop35
280
     0
102
RTVSPost2010PropOp35
 70
     1
102
RTVSPost2010Prop36
280
     0
102
RTVSPost2010PropOp36
 70
     1
102
RTVSPost2010Prop37
 90
       50
102
RTVSPost2010PropOp37
 70
     1
102
RTVSPost2010Prop38
140
0.0
102
RTVSPost2010PropOp38
 70
     1
102
RTVSPost2010Prop39
140
1.0
102
RTVSPost2010PropOp39
 70
     1
102
RTVSPost2010Prop40
 90
        0
102
RTVSPost2010PropOp40
 70
     1
102
RTVSPost2010Prop41ColorIndex
 90
       18
102
RTVSPost2010Prop41ColorRGB
 90
        0
102
RTVSPost2010PropOp41
 70
     1
102
RTVSPost2010Prop42
 90
       50
102
RTVSPost2010PropOp42
 70
     1
102
RTVSPost2010Prop43
 90
        3
102
RTVSPost2010PropOp43
 70
     1
102
RTVSPost2010Prop44ColorIndex
 90
        5
102
RTVSPost2010Prop44ColorRGB
 90
      255
102
RTVSPost2010PropOp44
 70
     1
102
RTVSPost2010Prop45
280
     0
102
RTVSPost2010PropOp45
 70
     1
102
RTVSPost2010Prop46
 90
       50
102
RTVSPost2010PropOp46
 70
     1
102
RTVSPost2010Prop47
 90
       50
102
RTVSPost2010PropOp47
 70
     1
102
RTVSPost2010Prop48
 90
       50
102
RTVSPost2010PropOp48
 70
     1
102
RTVSPost2010Prop49
280
     0
102
RTVSPost2010PropOp49
 70
     1
102
RTVSPost2010Prop50
 90
       50
102
RTVSPost2010PropOp50
 70
     1
102
RTVSPost2010Prop51ColorIndex
 90
      256
102
RTVSPost2010Prop51ColorRGB
 90
-16777216
102
RTVSPost2010PropOp51
 70
     0
102
RTVSPost2010Prop52
140
1.0
102
RTVSPost2010PropOp52
 70
     0
102
RTVSPost2010Prop53
 90
        2
102
RTVSPost2010PropOp53
 70
     1
102
RTVSPost2010Prop54
  1
strokes_ogs.tif
102
RTVSPost2010PropOp54
 70
     1
102
RTVSPost2010Prop55
280
     0
102
RTVSPost2010PropOp55
 70
     1
102
RTVSPost2010Prop56
140
1.0
102
RTVSPost2010PropOp56
 70
     1
102
RTVSPost2010Prop57
140
1.0
102
RTVSPost2010PropOp57
 70
     1
102
RTVSPropertyOp0
 70
     1
102
RTVSPropertyOp1
 70
     1
102
RTVSPropertyOp2
 70
     1
102
RTVSPropertyOp3
 70
     1
102
RTVSPropertyOp4
 70
     1
102
RTVSPropertyOp5
 70
     1
102
RTVSPropertyOp6
 70
     1
102
RTVSPropertyOp7
 70
     1
102
RTVSPropertyOp8
 70
     1
102
RTVSPropertyOp9
 70
     1
102
RTVSPropertyOp10
 70
     1
102
RTVSPropertyOp11
 70
     1
102
RTVSPropertyOp12
 70
     1
102
RTVSPropertyOp13
 70
     1
102
RTVSPropertyOp14
 70
     1
102
RTVSPropertyOp15
 70
     1
102
RTVSPropertyOp16
 70
     1
102
RTVSPropertyOp17
 70
     1
102
RTVSPropertyOp18
 70
     1
102
RTVSPropertyOp19
 70
     1
102
RTVSPropertyOp20
 70
     1
102
RTVSPropertyOp21
 70
     1
102
RTVSPropertyOp22
 70
     1
102
RTVSPropertyOp23
 70
     1
102
RTVSPropertyOp24
 70
     1
102
RTVSPropertyOp25
 70
     1
102
RTVSPropertyOp26
 70
     1
102
RTVSPropertyOp27
 70
     1
102
RTVSPropertyOp28
 70
     1
102
RTVSPropertyOp29
 70
     1
102
RTVSPropertyOp30
 70
     1
102
RTVSPropertyOp31
 70
     1
102
RTVSPropertyOp32
 70
     1
102
RTVSPropertyOp33
 70
     1
102
RTVSPropertyOp34
 70
     1
102
RTVSPropertyOp35
 70
     1
102
RTVSPropertyOp36
 70
     1
102
RTVSPropertyOp37
 70
     1
102
RTVSPropertyOp38
 70
     1
102
RTVSPropertyOp39
 70
     1
102
RTVSPropertyOp40
 70
     1
102
RTVSPropertyOp41
 70
     1
102
RTVSPropertyOp42
 70
     1
102
RTVSPropertyOp43
 70
     1
102
RTVSPropertyOp44
 70
     1
102
RTVSPropertyOp45
 70
     1
102
RTVSPropertyOp46
 70
     1
102
RTVSPropertyOp47
 70
     1
102
RTVSPropertyOp48
 70
     1
102
RTVSPropertyOp49
 70
     1
102
RTVSPropertyOp50
 70
     1
102
RTVSPropertyOp51
 70
     0
102
RTVSPropertyOp52
 70
     0
102
RTVSPropertyOp53
 70
     1
102
RTVSPropertyOp54
 70
     1
102
RTVSPropertyOp55
 70
     1
102
RTVSPropertyOp56
 70
     1
102
RTVSPropertyOp57
 70
     1
102
RTVSPropertyOp58
 70
     1
102
RTVSPropertyOp59
 70
     1
102
RTVSPropertyOp60
 70
     1
102
RTVSPropertyOp61
 70
     1
102
RTVSPropertyOp62
 70
     1
  0
XRECORD
  5
18A9
102
{ACAD_REACTORS
330
18A8
102
}
330
18A8
100
AcDbXrecord
280
     1
102
RTVSPost2010Prop28
280
     0
102
RTVSPost2010PropOp28
 70
     1
102
RTVSPost2010Prop29
280
     1
102
RTVSPost2010PropOp29
 70
     1
102
RTVSPost2010Prop30
280
     1
102
RTVSPost2010PropOp30
 70
     1
102
RTVSPost2010Prop31
280
     0
102
RTVSPost2010PropOp31
 70
     1
102
RTVSPost2010Prop32
280
     0
102
RTVSPost2010PropOp32
 70
     1
102
RTVSPost2010Prop33
280
     0
102
RTVSPost2010PropOp33
 70
     1
102
RTVSPost2010Prop34
280
     0
102
RTVSPost2010PropOp34
 70
     1
102
RTVSPost2010Prop35
280
     0
102
RTVSPost2010PropOp35
 70
     1
102
RTVSPost2010Prop36
280
     0
102
RTVSPost2010PropOp36
 70
     1
102
RTVSPost2010Prop37
 90
       50
102
RTVSPost2010PropOp37
 70
     1
102
RTVSPost2010Prop38
140
0.0
102
RTVSPost2010PropOp38
 70
     1
102
RTVSPost2010Prop39
140
1.0
102
RTVSPost2010PropOp39
 70
     1
102
RTVSPost2010Prop40
 90
        0
102
RTVSPost2010PropOp40
 70
     1
102
RTVSPost2010Prop41ColorIndex
 90
       18
102
RTVSPost2010Prop41ColorRGB
 90
        0
102
RTVSPost2010PropOp41
 70
     1
102
RTVSPost2010Prop42
 90
       50
102
RTVSPost2010PropOp42
 70
     1
102
RTVSPost2010Prop43
 90
        3
102
RTVSPost2010PropOp43
 70
     1
102
RTVSPost2010Prop44ColorIndex
 90
        5
102
RTVSPost2010Prop44ColorRGB
 90
      255
102
RTVSPost2010PropOp44
 70
     1
102
RTVSPost2010Prop45
280
     0
102
RTVSPost2010PropOp45
 70
     1
102
RTVSPost2010Prop46
 90
       50
102
RTVSPost2010PropOp46
 70
     1
102
RTVSPost2010Prop47
 90
       50
102
RTVSPost2010PropOp47
 70
     1
102
RTVSPost2010Prop48
 90
       50
102
RTVSPost2010PropOp48
 70
     1
102
RTVSPost2010Prop49
280
     0
102
RTVSPost2010PropOp49
 70
     1
102
RTVSPost2010Prop50
 90
       50
102
RTVSPost2010PropOp50
 70
     1
102
RTVSPost2010Prop51ColorIndex
 90
      256
102
RTVSPost2010Prop51ColorRGB
 90
-16777216
102
RTVSPost2010PropOp51
 70
     0
102
RTVSPost2010Prop52
140
1.0
102
RTVSPost2010PropOp52
 70
     0
102
RTVSPost2010Prop53
 90
        2
102
RTVSPost2010PropOp53
 70
     1
102
RTVSPost2010Prop54
  1
strokes_ogs.tif
102
RTVSPost2010PropOp54
 70
     1
102
RTVSPost2010Prop55
280
     0
102
RTVSPost2010PropOp55
 70
     1
102
RTVSPost2010Prop56
140
1.0
102
RTVSPost2010PropOp56
 70
     1
102
RTVSPost2010Prop57
140
1.0
102
RTVSPost2010PropOp57
 70
     1
102
RTVSPropertyOp0
 70
     1
102
RTVSPropertyOp1
 70
     1
102
RTVSPropertyOp2
 70
     1
102
RTVSPropertyOp3
 70
     1
102
RTVSPropertyOp4
 70
     1
102
RTVSPropertyOp5
 70
     1
102
RTVSPropertyOp6
 70
     1
102
RTVSPropertyOp7
 70
     1
102
RTVSPropertyOp8
 70
     1
102
RTVSPropertyOp9
 70
     1
102
RTVSPropertyOp10
 70
     1
102
RTVSPropertyOp11
 70
     1
102
RTVSPropertyOp12
 70
     1
102
RTVSPropertyOp13
 70
     1
102
RTVSPropertyOp14
 70
     1
102
RTVSPropertyOp15
 70
     1
102
RTVSPropertyOp16
 70
     1
102
RTVSPropertyOp17
 70
     1
102
RTVSPropertyOp18
 70
     1
102
RTVSPropertyOp19
 70
     1
102
RTVSPropertyOp20
 70
     1
102
RTVSPropertyOp21
 70
     1
102
RTVSPropertyOp22
 70
     1
102
RTVSPropertyOp23
 70
     1
102
RTVSPropertyOp24
 70
     1
102
RTVSPropertyOp25
 70
     1
102
RTVSPropertyOp26
 70
     1
102
RTVSPropertyOp27
 70
     1
102
RTVSPropertyOp28
 70
     1
102
RTVSPropertyOp29
 70
     1
102
RTVSPropertyOp30
 70
     1
102
RTVSPropertyOp31
 70
     1
102
RTVSPropertyOp32
 70
     1
102
RTVSPropertyOp33
 70
     1
102
RTVSPropertyOp34
 70
     1
102
RTVSPropertyOp35
 70
     1
102
RTVSPropertyOp36
 70
     1
102
RTVSPropertyOp37
 70
     1
102
RTVSPropertyOp38
 70
     1
102
RTVSPropertyOp39
 70
     1
102
RTVSPropertyOp40
 70
     1
102
RTVSPropertyOp41
 70
     1
102
RTVSPropertyOp42
 70
     1
102
RTVSPropertyOp43
 70
     1
102
RTVSPropertyOp44
 70
     1
102
RTVSPropertyOp45
 70
     1
102
RTVSPropertyOp46
 70
     1
102
RTVSPropertyOp47
 70
     1
102
RTVSPropertyOp48
 70
     1
102
RTVSPropertyOp49
 70
     1
102
RTVSPropertyOp50
 70
     1
102
RTVSPropertyOp51
 70
     0
102
RTVSPropertyOp52
 70
     0
102
RTVSPropertyOp53
 70
     1
102
RTVSPropertyOp54
 70
     1
102
RTVSPropertyOp55
 70
     1
102
RTVSPropertyOp56
 70
     1
102
RTVSPropertyOp57
 70
     1
102
RTVSPropertyOp58
 70
     1
102
RTVSPropertyOp59
 70
     1
102
RTVSPropertyOp60
 70
     1
102
RTVSPropertyOp61
 70
     1
102
RTVSPropertyOp62
 70
     1
  0
XRECORD
  5
189B
102
{ACAD_REACTORS
330
189A
102
}
330
189A
100
AcDbXrecord
280
     1
102
RTVSPost2010Prop28
280
     0
102
RTVSPost2010PropOp28
 70
     1
102
RTVSPost2010Prop29
280
     1
102
RTVSPost2010PropOp29
 70
     1
102
RTVSPost2010Prop30
280
     1
102
RTVSPost2010PropOp30
 70
     1
102
RTVSPost2010Prop31
280
     0
102
RTVSPost2010PropOp31
 70
     1
102
RTVSPost2010Prop32
280
     0
102
RTVSPost2010PropOp32
 70
     1
102
RTVSPost2010Prop33
280
     0
102
RTVSPost2010PropOp33
 70
     1
102
RTVSPost2010Prop34
280
     0
102
RTVSPost2010PropOp34
 70
     1
102
RTVSPost2010Prop35
280
     0
102
RTVSPost2010PropOp35
 70
     1
102
RTVSPost2010Prop36
280
     0
102
RTVSPost2010PropOp36
 70
     1
102
RTVSPost2010Prop37
 90
       50
102
RTVSPost2010PropOp37
 70
     1
102
RTVSPost2010Prop38
140
0.0
102
RTVSPost2010PropOp38
 70
     1
102
RTVSPost2010Prop39
140
1.0
102
RTVSPost2010PropOp39
 70
     1
102
RTVSPost2010Prop40
 90
        0
102
RTVSPost2010PropOp40
 70
     1
102
RTVSPost2010Prop41ColorIndex
 90
       18
102
RTVSPost2010Prop41ColorRGB
 90
        0
102
RTVSPost2010PropOp41
 70
     1
102
RTVSPost2010Prop42
 90
       50
102
RTVSPost2010PropOp42
 70
     1
102
RTVSPost2010Prop43
 90
        3
102
RTVSPost2010PropOp43
 70
     1
102
RTVSPost2010Prop44ColorIndex
 90
        5
102
RTVSPost2010Prop44ColorRGB
 90
      255
102
RTVSPost2010PropOp44
 70
     1
102
RTVSPost2010Prop45
280
     0
102
RTVSPost2010PropOp45
 70
     1
102
RTVSPost2010Prop46
 90
       50
102
RTVSPost2010PropOp46
 70
     1
102
RTVSPost2010Prop47
 90
       50
102
RTVSPost2010PropOp47
 70
     1
102
RTVSPost2010Prop48
 90
       50
102
RTVSPost2010PropOp48
 70
     1
102
RTVSPost2010Prop49
280
     0
102
RTVSPost2010PropOp49
 70
     1
102
RTVSPost2010Prop50
 90
       50
102
RTVSPost2010PropOp50
 70
     1
102
RTVSPost2010Prop51ColorIndex
 90
      256
102
RTVSPost2010Prop51ColorRGB
 90
-16777216
102
RTVSPost2010PropOp51
 70
     0
102
RTVSPost2010Prop52
140
1.0
102
RTVSPost2010PropOp52
 70
     0
102
RTVSPost2010Prop53
 90
        2
102
RTVSPost2010PropOp53
 70
     1
102
RTVSPost2010Prop54
  1
strokes_ogs.tif
102
RTVSPost2010PropOp54
 70
     1
102
RTVSPost2010Prop55
280
     0
102
RTVSPost2010PropOp55
 70
     1
102
RTVSPost2010Prop56
140
1.0
102
RTVSPost2010PropOp56
 70
     1
102
RTVSPost2010Prop57
140
1.0
102
RTVSPost2010PropOp57
 70
     1
102
RTVSPropertyOp0
 70
     1
102
RTVSPropertyOp1
 70
     1
102
RTVSPropertyOp2
 70
     1
102
RTVSPropertyOp3
 70
     1
102
RTVSPropertyOp4
 70
     1
102
RTVSPropertyOp5
 70
     1
102
RTVSPropertyOp6
 70
     1
102
RTVSPropertyOp7
 70
     1
102
RTVSPropertyOp8
 70
     1
102
RTVSPropertyOp9
 70
     1
102
RTVSPropertyOp10
 70
     1
102
RTVSPropertyOp11
 70
     1
102
RTVSPropertyOp12
 70
     1
102
RTVSPropertyOp13
 70
     1
102
RTVSPropertyOp14
 70
     1
102
RTVSPropertyOp15
 70
     1
102
RTVSPropertyOp16
 70
     1
102
RTVSPropertyOp17
 70
     1
102
RTVSPropertyOp18
 70
     1
102
RTVSPropertyOp19
 70
     1
102
RTVSPropertyOp20
 70
     1
102
RTVSPropertyOp21
 70
     1
102
RTVSPropertyOp22
 70
     1
102
RTVSPropertyOp23
 70
     1
102
RTVSPropertyOp24
 70
     1
102
RTVSPropertyOp25
 70
     1
102
RTVSPropertyOp26
 70
     1
102
RTVSPropertyOp27
 70
     1
102
RTVSPropertyOp28
 70
     1
102
RTVSPropertyOp29
 70
     1
102
RTVSPropertyOp30
 70
     1
102
RTVSPropertyOp31
 70
     1
102
RTVSPropertyOp32
 70
     1
102
RTVSPropertyOp33
 70
     1
102
RTVSPropertyOp34
 70
     1
102
RTVSPropertyOp35
 70
     1
102
RTVSPropertyOp36
 70
     1
102
RTVSPropertyOp37
 70
     1
102
RTVSPropertyOp38
 70
     1
102
RTVSPropertyOp39
 70
     1
102
RTVSPropertyOp40
 70
     1
102
RTVSPropertyOp41
 70
     1
102
RTVSPropertyOp42
 70
     1
102
RTVSPropertyOp43
 70
     1
102
RTVSPropertyOp44
 70
     1
102
RTVSPropertyOp45
 70
     1
102
RTVSPropertyOp46
 70
     1
102
RTVSPropertyOp47
 70
     1
102
RTVSPropertyOp48
 70
     1
102
RTVSPropertyOp49
 70
     1
102
RTVSPropertyOp50
 70
     1
102
RTVSPropertyOp51
 70
     0
102
RTVSPropertyOp52
 70
     0
102
RTVSPropertyOp53
 70
     1
102
RTVSPropertyOp54
 70
     1
102
RTVSPropertyOp55
 70
     1
102
RTVSPropertyOp56
 70
     1
102
RTVSPropertyOp57
 70
     1
102
RTVSPropertyOp58
 70
     1
102
RTVSPropertyOp59
 70
     1
102
RTVSPropertyOp60
 70
     1
102
RTVSPropertyOp61
 70
     1
102
RTVSPropertyOp62
 70
     1
  0
XRECORD
  5
189F
102
{ACAD_REACTORS
330
189E
102
}
330
189E
100
AcDbXrecord
280
     1
102
RTVSPost2010Prop28
280
     0
102
RTVSPost2010PropOp28
 70
     1
102
RTVSPost2010Prop29
280
     1
102
RTVSPost2010PropOp29
 70
     1
102
RTVSPost2010Prop30
280
     1
102
RTVSPost2010PropOp30
 70
     1
102
RTVSPost2010Prop31
280
     0
102
RTVSPost2010PropOp31
 70
     1
102
RTVSPost2010Prop32
280
     0
102
RTVSPost2010PropOp32
 70
     1
102
RTVSPost2010Prop33
280
     0
102
RTVSPost2010PropOp33
 70
     1
102
RTVSPost2010Prop34
280
     0
102
RTVSPost2010PropOp34
 70
     1
102
RTVSPost2010Prop35
280
     0
102
RTVSPost2010PropOp35
 70
     1
102
RTVSPost2010Prop36
280
     0
102
RTVSPost2010PropOp36
 70
     1
102
RTVSPost2010Prop37
 90
       50
102
RTVSPost2010PropOp37
 70
     1
102
RTVSPost2010Prop38
140
0.0
102
RTVSPost2010PropOp38
 70
     1
102
RTVSPost2010Prop39
140
1.0
102
RTVSPost2010PropOp39
 70
     1
102
RTVSPost2010Prop40
 90
        0
102
RTVSPost2010PropOp40
 70
     1
102
RTVSPost2010Prop41ColorIndex
 90
       18
102
RTVSPost2010Prop41ColorRGB
 90
        0
102
RTVSPost2010PropOp41
 70
     1
102
RTVSPost2010Prop42
 90
       50
102
RTVSPost2010PropOp42
 70
     1
102
RTVSPost2010Prop43
 90
        3
102
RTVSPost2010PropOp43
 70
     1
102
RTVSPost2010Prop44ColorIndex
 90
        5
102
RTVSPost2010Prop44ColorRGB
 90
      255
102
RTVSPost2010PropOp44
 70
     1
102
RTVSPost2010Prop45
280
     0
102
RTVSPost2010PropOp45
 70
     1
102
RTVSPost2010Prop46
 90
       50
102
RTVSPost2010PropOp46
 70
     1
102
RTVSPost2010Prop47
 90
       50
102
RTVSPost2010PropOp47
 70
     1
102
RTVSPost2010Prop48
 90
       50
102
RTVSPost2010PropOp48
 70
     1
102
RTVSPost2010Prop49
280
     0
102
RTVSPost2010PropOp49
 70
     1
102
RTVSPost2010Prop50
 90
       50
102
RTVSPost2010PropOp50
 70
     1
102
RTVSPost2010Prop51ColorIndex
 90
      256
102
RTVSPost2010Prop51ColorRGB
 90
-16777216
102
RTVSPost2010PropOp51
 70
     0
102
RTVSPost2010Prop52
140
1.0
102
RTVSPost2010PropOp52
 70
     0
102
RTVSPost2010Prop53
 90
        2
102
RTVSPost2010PropOp53
 70
     1
102
RTVSPost2010Prop54
  1
strokes_ogs.tif
102
RTVSPost2010PropOp54
 70
     1
102
RTVSPost2010Prop55
280
     0
102
RTVSPost2010PropOp55
 70
     1
102
RTVSPost2010Prop56
140
1.0
102
RTVSPost2010PropOp56
 70
     1
102
RTVSPost2010Prop57
140
1.0
102
RTVSPost2010PropOp57
 70
     1
102
RTVSPropertyOp0
 70
     1
102
RTVSPropertyOp1
 70
     1
102
RTVSPropertyOp2
 70
     1
102
RTVSPropertyOp3
 70
     1
102
RTVSPropertyOp4
 70
     1
102
RTVSPropertyOp5
 70
     1
102
RTVSPropertyOp6
 70
     1
102
RTVSPropertyOp7
 70
     1
102
RTVSPropertyOp8
 70
     1
102
RTVSPropertyOp9
 70
     1
102
RTVSPropertyOp10
 70
     1
102
RTVSPropertyOp11
 70
     1
102
RTVSPropertyOp12
 70
     1
102
RTVSPropertyOp13
 70
     1
102
RTVSPropertyOp14
 70
     1
102
RTVSPropertyOp15
 70
     1
102
RTVSPropertyOp16
 70
     1
102
RTVSPropertyOp17
 70
     1
102
RTVSPropertyOp18
 70
     1
102
RTVSPropertyOp19
 70
     1
102
RTVSPropertyOp20
 70
     1
102
RTVSPropertyOp21
 70
     1
102
RTVSPropertyOp22
 70
     1
102
RTVSPropertyOp23
 70
     1
102
RTVSPropertyOp24
 70
     1
102
RTVSPropertyOp25
 70
     1
102
RTVSPropertyOp26
 70
     1
102
RTVSPropertyOp27
 70
     1
102
RTVSPropertyOp28
 70
     1
102
RTVSPropertyOp29
 70
     1
102
RTVSPropertyOp30
 70
     1
102
RTVSPropertyOp31
 70
     1
102
RTVSPropertyOp32
 70
     1
102
RTVSPropertyOp33
 70
     1
102
RTVSPropertyOp34
 70
     1
102
RTVSPropertyOp35
 70
     1
102
RTVSPropertyOp36
 70
     1
102
RTVSPropertyOp37
 70
     1
102
RTVSPropertyOp38
 70
     1
102
RTVSPropertyOp39
 70
     1
102
RTVSPropertyOp40
 70
     1
102
RTVSPropertyOp41
 70
     1
102
RTVSPropertyOp42
 70
     1
102
RTVSPropertyOp43
 70
     1
102
RTVSPropertyOp44
 70
     1
102
RTVSPropertyOp45
 70
     1
102
RTVSPropertyOp46
 70
     1
102
RTVSPropertyOp47
 70
     1
102
RTVSPropertyOp48
 70
     1
102
RTVSPropertyOp49
 70
     1
102
RTVSPropertyOp50
 70
     1
102
RTVSPropertyOp51
 70
     0
102
RTVSPropertyOp52
 70
     0
102
RTVSPropertyOp53
 70
     1
102
RTVSPropertyOp54
 70
     1
102
RTVSPropertyOp55
 70
     1
102
RTVSPropertyOp56
 70
     1
102
RTVSPropertyOp57
 70
     1
102
RTVSPropertyOp58
 70
     1
102
RTVSPropertyOp59
 70
     1
102
RTVSPropertyOp60
 70
     1
102
RTVSPropertyOp61
 70
     1
102
RTVSPropertyOp62
 70
     1
  0
XRECORD
  5
18B9
102
{ACAD_REACTORS
330
18B8
102
}
330
18B8
100
AcDbXrecord
280
     1
102
RTVSPost2010Prop28
280
     0
102
RTVSPost2010PropOp28
 70
     1
102
RTVSPost2010Prop29
280
     1
102
RTVSPost2010PropOp29
 70
     1
102
RTVSPost2010Prop30
280
     1
102
RTVSPost2010PropOp30
 70
     1
102
RTVSPost2010Prop31
280
     0
102
RTVSPost2010PropOp31
 70
     1
102
RTVSPost2010Prop32
280
     0
102
RTVSPost2010PropOp32
 70
     1
102
RTVSPost2010Prop33
280
     0
102
RTVSPost2010PropOp33
 70
     1
102
RTVSPost2010Prop34
280
     0
102
RTVSPost2010PropOp34
 70
     1
102
RTVSPost2010Prop35
280
     0
102
RTVSPost2010PropOp35
 70
     1
102
RTVSPost2010Prop36
280
     0
102
RTVSPost2010PropOp36
 70
     1
102
RTVSPost2010Prop37
 90
       50
102
RTVSPost2010PropOp37
 70
     0
102
RTVSPost2010Prop38
140
0.0
102
RTVSPost2010PropOp38
 70
     0
102
RTVSPost2010Prop39
140
1.0
102
RTVSPost2010PropOp39
 70
     0
102
RTVSPost2010Prop40
 90
        0
102
RTVSPost2010PropOp40
 70
     0
102
RTVSPost2010Prop41ColorIndex
 90
       18
102
RTVSPost2010Prop41ColorRGB
 90
        0
102
RTVSPost2010PropOp41
 70
     0
102
RTVSPost2010Prop42
 90
       50
102
RTVSPost2010PropOp42
 70
     0
102
RTVSPost2010Prop43
 90
        3
102
RTVSPost2010PropOp43
 70
     0
102
RTVSPost2010Prop44ColorIndex
 90
        5
102
RTVSPost2010Prop44ColorRGB
 90
      255
102
RTVSPost2010PropOp44
 70
     0
102
RTVSPost2010Prop45
280
     0
102
RTVSPost2010PropOp45
 70
     1
102
RTVSPost2010Prop46
 90
       50
102
RTVSPost2010PropOp46
 70
     0
102
RTVSPost2010Prop47
 90
       50
102
RTVSPost2010PropOp47
 70
     0
102
RTVSPost2010Prop48
 90
       50
102
RTVSPost2010PropOp48
 70
     0
102
RTVSPost2010Prop49
280
     0
102
RTVSPost2010PropOp49
 70
     1
102
RTVSPost2010Prop50
 90
       50
102
RTVSPost2010PropOp50
 70
     0
102
RTVSPost2010Prop51ColorIndex
 90
      256
102
RTVSPost2010Prop51ColorRGB
 90
-16777216
102
RTVSPost2010PropOp51
 70
     0
102
RTVSPost2010Prop52
140
1.0
102
RTVSPost2010PropOp52
 70
     0
102
RTVSPost2010Prop53
 90
        2
102
RTVSPost2010PropOp53
 70
     0
102
RTVSPost2010Prop54
  1
strokes_ogs.tif
102
RTVSPost2010PropOp54
 70
     0
102
RTVSPost2010Prop55
280
     0
102
RTVSPost2010PropOp55
 70
     1
102
RTVSPost2010Prop56
140
1.0
102
RTVSPost2010PropOp56
 70
     0
102
RTVSPost2010Prop57
140
1.0
102
RTVSPost2010PropOp57
 70
     0
102
RTVSPropertyOp0
 70
     0
102
RTVSPropertyOp1
 70
     0
102
RTVSPropertyOp2
 70
     0
102
RTVSPropertyOp3
 70
     0
102
RTVSPropertyOp4
 70
     0
102
RTVSPropertyOp5
 70
     0
102
RTVSPropertyOp6
 70
     0
102
RTVSPropertyOp7
 70
     0
102
RTVSPropertyOp8
 70
     0
102
RTVSPropertyOp9
 70
     0
102
RTVSPropertyOp10
 70
     0
102
RTVSPropertyOp11
 70
     0
102
RTVSPropertyOp12
 70
     0
102
RTVSPropertyOp13
 70
     0
102
RTVSPropertyOp14
 70
     2
102
RTVSPropertyOp15
 70
     0
102
RTVSPropertyOp16
 70
     0
102
RTVSPropertyOp17
 70
     0
102
RTVSPropertyOp18
 70
     0
102
RTVSPropertyOp19
 70
     0
102
RTVSPropertyOp20
 70
     0
102
RTVSPropertyOp21
 70
     0
102
RTVSPropertyOp22
 70
     0
102
RTVSPropertyOp23
 70
     0
102
RTVSPropertyOp24
 70
     0
102
RTVSPropertyOp25
 70
     0
102
RTVSPropertyOp26
 70
     0
102
RTVSPropertyOp27
 70
     0
102
RTVSPropertyOp28
 70
     1
102
RTVSPropertyOp29
 70
     1
102
RTVSPropertyOp30
 70
     1
102
RTVSPropertyOp31
 70
     1
102
RTVSPropertyOp32
 70
     1
102
RTVSPropertyOp33
 70
     1
102
RTVSPropertyOp34
 70
     1
102
RTVSPropertyOp35
 70
     1
102
RTVSPropertyOp36
 70
     1
102
RTVSPropertyOp37
 70
     0
102
RTVSPropertyOp38
 70
     0
102
RTVSPropertyOp39
 70
     0
102
RTVSPropertyOp40
 70
     0
102
RTVSPropertyOp41
 70
     0
102
RTVSPropertyOp42
 70
     0
102
RTVSPropertyOp43
 70
     0
102
RTVSPropertyOp44
 70
     0
102
RTVSPropertyOp45
 70
     1
102
RTVSPropertyOp46
 70
     0
102
RTVSPropertyOp47
 70
     0
102
RTVSPropertyOp48
 70
     0
102
RTVSPropertyOp49
 70
     1
102
RTVSPropertyOp50
 70
     0
102
RTVSPropertyOp51
 70
     0
102
RTVSPropertyOp52
 70
     0
102
RTVSPropertyOp53
 70
     0
102
RTVSPropertyOp54
 70
     0
102
RTVSPropertyOp55
 70
     1
102
RTVSPropertyOp56
 70
     0
102
RTVSPropertyOp57
 70
     0
102
RTVSPropertyOp58
 70
     0
102
RTVSPropertyOp59
 70
     0
102
RTVSPropertyOp60
 70
     0
102
RTVSPropertyOp61
 70
     0
102
RTVSPropertyOp62
 70
     0
  0
XRECORD
  5
18A7
102
{ACAD_REACTORS
330
18A6
102
}
330
18A6
100
AcDbXrecord
280
     1
102
RTVSPost2010Prop28
280
     0
102
RTVSPost2010PropOp28
 70
     1
102
RTVSPost2010Prop29
280
     1
102
RTVSPost2010PropOp29
 70
     1
102
RTVSPost2010Prop30
280
     1
102
RTVSPost2010PropOp30
 70
     1
102
RTVSPost2010Prop31
280
     0
102
RTVSPost2010PropOp31
 70
     1
102
RTVSPost2010Prop32
280
     0
102
RTVSPost2010PropOp32
 70
     1
102
RTVSPost2010Prop33
280
     0
102
RTVSPost2010PropOp33
 70
     1
102
RTVSPost2010Prop34
280
     0
102
RTVSPost2010PropOp34
 70
     1
102
RTVSPost2010Prop35
280
     0
102
RTVSPost2010PropOp35
 70
     1
102
RTVSPost2010Prop36
280
     0
102
RTVSPost2010PropOp36
 70
     1
102
RTVSPost2010Prop37
 90
       50
102
RTVSPost2010PropOp37
 70
     1
102
RTVSPost2010Prop38
140
0.0
102
RTVSPost2010PropOp38
 70
     1
102
RTVSPost2010Prop39
140
1.0
102
RTVSPost2010PropOp39
 70
     1
102
RTVSPost2010Prop40
 90
        0
102
RTVSPost2010PropOp40
 70
     1
102
RTVSPost2010Prop41ColorIndex
 90
       18
102
RTVSPost2010Prop41ColorRGB
 90
        0
102
RTVSPost2010PropOp41
 70
     1
102
RTVSPost2010Prop42
 90
       50
102
RTVSPost2010PropOp42
 70
     1
102
RTVSPost2010Prop43
 90
        3
102
RTVSPost2010PropOp43
 70
     1
102
RTVSPost2010Prop44ColorIndex
 90
        5
102
RTVSPost2010Prop44ColorRGB
 90
      255
102
RTVSPost2010PropOp44
 70
     1
102
RTVSPost2010Prop45
280
     0
102
RTVSPost2010PropOp45
 70
     1
102
RTVSPost2010Prop46
 90
       50
102
RTVSPost2010PropOp46
 70
     1
102
RTVSPost2010Prop47
 90
       50
102
RTVSPost2010PropOp47
 70
     1
102
RTVSPost2010Prop48
 90
       50
102
RTVSPost2010PropOp48
 70
     1
102
RTVSPost2010Prop49
280
     0
102
RTVSPost2010PropOp49
 70
     1
102
RTVSPost2010Prop50
 90
       50
102
RTVSPost2010PropOp50
 70
     1
102
RTVSPost2010Prop51ColorIndex
 90
      256
102
RTVSPost2010Prop51ColorRGB
 90
-16777216
102
RTVSPost2010PropOp51
 70
     0
102
RTVSPost2010Prop52
140
1.0
102
RTVSPost2010PropOp52
 70
     0
102
RTVSPost2010Prop53
 90
        2
102
RTVSPost2010PropOp53
 70
     1
102
RTVSPost2010Prop54
  1
strokes_ogs.tif
102
RTVSPost2010PropOp54
 70
     1
102
RTVSPost2010Prop55
280
     0
102
RTVSPost2010PropOp55
 70
     1
102
RTVSPost2010Prop56
140
1.0
102
RTVSPost2010PropOp56
 70
     1
102
RTVSPost2010Prop57
140
1.0
102
RTVSPost2010PropOp57
 70
     1
102
RTVSPropertyOp0
 70
     1
102
RTVSPropertyOp1
 70
     1
102
RTVSPropertyOp2
 70
     1
102
RTVSPropertyOp3
 70
     1
102
RTVSPropertyOp4
 70
     1
102
RTVSPropertyOp5
 70
     1
102
RTVSPropertyOp6
 70
     1
102
RTVSPropertyOp7
 70
     1
102
RTVSPropertyOp8
 70
     1
102
RTVSPropertyOp9
 70
     1
102
RTVSPropertyOp10
 70
     1
102
RTVSPropertyOp11
 70
     1
102
RTVSPropertyOp12
 70
     1
102
RTVSPropertyOp13
 70
     1
102
RTVSPropertyOp14
 70
     1
102
RTVSPropertyOp15
 70
     1
102
RTVSPropertyOp16
 70
     1
102
RTVSPropertyOp17
 70
     1
102
RTVSPropertyOp18
 70
     1
102
RTVSPropertyOp19
 70
     1
102
RTVSPropertyOp20
 70
     1
102
RTVSPropertyOp21
 70
     1
102
RTVSPropertyOp22
 70
     1
102
RTVSPropertyOp23
 70
     1
102
RTVSPropertyOp24
 70
     1
102
RTVSPropertyOp25
 70
     1
102
RTVSPropertyOp26
 70
     1
102
RTVSPropertyOp27
 70
     1
102
RTVSPropertyOp28
 70
     1
102
RTVSPropertyOp29
 70
     1
102
RTVSPropertyOp30
 70
     1
102
RTVSPropertyOp31
 70
     1
102
RTVSPropertyOp32
 70
     1
102
RTVSPropertyOp33
 70
     1
102
RTVSPropertyOp34
 70
     1
102
RTVSPropertyOp35
 70
     1
102
RTVSPropertyOp36
 70
     1
102
RTVSPropertyOp37
 70
     1
102
RTVSPropertyOp38
 70
     1
102
RTVSPropertyOp39
 70
     1
102
RTVSPropertyOp40
 70
     1
102
RTVSPropertyOp41
 70
     1
102
RTVSPropertyOp42
 70
     1
102
RTVSPropertyOp43
 70
     1
102
RTVSPropertyOp44
 70
     1
102
RTVSPropertyOp45
 70
     1
102
RTVSPropertyOp46
 70
     1
102
RTVSPropertyOp47
 70
     1
102
RTVSPropertyOp48
 70
     1
102
RTVSPropertyOp49
 70
     1
102
RTVSPropertyOp50
 70
     1
102
RTVSPropertyOp51
 70
     0
102
RTVSPropertyOp52
 70
     0
102
RTVSPropertyOp53
 70
     1
102
RTVSPropertyOp54
 70
     1
102
RTVSPropertyOp55
 70
     1
102
RTVSPropertyOp56
 70
     1
102
RTVSPropertyOp57
 70
     1
102
RTVSPropertyOp58
 70
     1
102
RTVSPropertyOp59
 70
     1
102
RTVSPropertyOp60
 70
     1
102
RTVSPropertyOp61
 70
     1
102
RTVSPropertyOp62
 70
     1
  0
XRECORD
  5
188B
102
{ACAD_REACTORS
330
188A
102
}
330
188A
100
AcDbXrecord
280
     1
102
RTVSPost2010Prop28
280
     0
102
RTVSPost2010PropOp28
 70
     1
102
RTVSPost2010Prop29
280
     1
102
RTVSPost2010PropOp29
 70
     1
102
RTVSPost2010Prop30
280
     1
102
RTVSPost2010PropOp30
 70
     1
102
RTVSPost2010Prop31
280
     0
102
RTVSPost2010PropOp31
 70
     1
102
RTVSPost2010Prop32
280
     0
102
RTVSPost2010PropOp32
 70
     1
102
RTVSPost2010Prop33
280
     0
102
RTVSPost2010PropOp33
 70
     1
102
RTVSPost2010Prop34
280
     0
102
RTVSPost2010PropOp34
 70
     1
102
RTVSPost2010Prop35
280
     0
102
RTVSPost2010PropOp35
 70
     1
102
RTVSPost2010Prop36
280
     0
102
RTVSPost2010PropOp36
 70
     1
102
RTVSPost2010Prop37
 90
       50
102
RTVSPost2010PropOp37
 70
     1
102
RTVSPost2010Prop38
140
0.0
102
RTVSPost2010PropOp38
 70
     1
102
RTVSPost2010Prop39
140
1.0
102
RTVSPost2010PropOp39
 70
     1
102
RTVSPost2010Prop40
 90
        0
102
RTVSPost2010PropOp40
 70
     1
102
RTVSPost2010Prop41ColorIndex
 90
       18
102
RTVSPost2010Prop41ColorRGB
 90
        0
102
RTVSPost2010PropOp41
 70
     1
102
RTVSPost2010Prop42
 90
       50
102
RTVSPost2010PropOp42
 70
     1
102
RTVSPost2010Prop43
 90
        3
102
RTVSPost2010PropOp43
 70
     1
102
RTVSPost2010Prop44ColorIndex
 90
        5
102
RTVSPost2010Prop44ColorRGB
 90
      255
102
RTVSPost2010PropOp44
 70
     1
102
RTVSPost2010Prop45
280
     0
102
RTVSPost2010PropOp45
 70
     1
102
RTVSPost2010Prop46
 90
       50
102
RTVSPost2010PropOp46
 70
     1
102
RTVSPost2010Prop47
 90
       50
102
RTVSPost2010PropOp47
 70
     1
102
RTVSPost2010Prop48
 90
       50
102
RTVSPost2010PropOp48
 70
     1
102
RTVSPost2010Prop49
280
     0
102
RTVSPost2010PropOp49
 70
     1
102
RTVSPost2010Prop50
 90
       50
102
RTVSPost2010PropOp50
 70
     1
102
RTVSPost2010Prop51ColorIndex
 90
      256
102
RTVSPost2010Prop51ColorRGB
 90
-16777216
102
RTVSPost2010PropOp51
 70
     0
102
RTVSPost2010Prop52
140
1.0
102
RTVSPost2010PropOp52
 70
     0
102
RTVSPost2010Prop53
 90
        2
102
RTVSPost2010PropOp53
 70
     1
102
RTVSPost2010Prop54
  1
strokes_ogs.tif
102
RTVSPost2010PropOp54
 70
     1
102
RTVSPost2010Prop55
280
     0
102
RTVSPost2010PropOp55
 70
     1
102
RTVSPost2010Prop56
140
1.0
102
RTVSPost2010PropOp56
 70
     1
102
RTVSPost2010Prop57
140
1.0
102
RTVSPost2010PropOp57
 70
     1
102
RTVSPropertyOp0
 70
     1
102
RTVSPropertyOp1
 70
     1
102
RTVSPropertyOp2
 70
     1
102
RTVSPropertyOp3
 70
     1
102
RTVSPropertyOp4
 70
     1
102
RTVSPropertyOp5
 70
     1
102
RTVSPropertyOp6
 70
     1
102
RTVSPropertyOp7
 70
     1
102
RTVSPropertyOp8
 70
     1
102
RTVSPropertyOp9
 70
     1
102
RTVSPropertyOp10
 70
     1
102
RTVSPropertyOp11
 70
     1
102
RTVSPropertyOp12
 70
     1
102
RTVSPropertyOp13
 70
     1
102
RTVSPropertyOp14
 70
     1
102
RTVSPropertyOp15
 70
     1
102
RTVSPropertyOp16
 70
     1
102
RTVSPropertyOp17
 70
     1
102
RTVSPropertyOp18
 70
     1
102
RTVSPropertyOp19
 70
     1
102
RTVSPropertyOp20
 70
     1
102
RTVSPropertyOp21
 70
     1
102
RTVSPropertyOp22
 70
     1
102
RTVSPropertyOp23
 70
     1
102
RTVSPropertyOp24
 70
     1
102
RTVSPropertyOp25
 70
     1
102
RTVSPropertyOp26
 70
     1
102
RTVSPropertyOp27
 70
     1
102
RTVSPropertyOp28
 70
     1
102
RTVSPropertyOp29
 70
     1
102
RTVSPropertyOp30
 70
     1
102
RTVSPropertyOp31
 70
     1
102
RTVSPropertyOp32
 70
     1
102
RTVSPropertyOp33
 70
     1
102
RTVSPropertyOp34
 70
     1
102
RTVSPropertyOp35
 70
     1
102
RTVSPropertyOp36
 70
     1
102
RTVSPropertyOp37
 70
     1
102
RTVSPropertyOp38
 70
     1
102
RTVSPropertyOp39
 70
     1
102
RTVSPropertyOp40
 70
     1
102
RTVSPropertyOp41
 70
     1
102
RTVSPropertyOp42
 70
     1
102
RTVSPropertyOp43
 70
     1
102
RTVSPropertyOp44
 70
     1
102
RTVSPropertyOp45
 70
     1
102
RTVSPropertyOp46
 70
     1
102
RTVSPropertyOp47
 70
     1
102
RTVSPropertyOp48
 70
     1
102
RTVSPropertyOp49
 70
     1
102
RTVSPropertyOp50
 70
     1
102
RTVSPropertyOp51
 70
     0
102
RTVSPropertyOp52
 70
     0
102
RTVSPropertyOp53
 70
     1
102
RTVSPropertyOp54
 70
     1
102
RTVSPropertyOp55
 70
     1
102
RTVSPropertyOp56
 70
     1
102
RTVSPropertyOp57
 70
     1
102
RTVSPropertyOp58
 70
     1
102
RTVSPropertyOp59
 70
     1
102
RTVSPropertyOp60
 70
     1
102
RTVSPropertyOp61
 70
     1
102
RTVSPropertyOp62
 70
     1
  0
XRECORD
  5
188D
102
{ACAD_REACTORS
330
188C
102
}
330
188C
100
AcDbXrecord
280
     1
102
RTVSPost2010Prop28
280
     0
102
RTVSPost2010PropOp28
 70
     1
102
RTVSPost2010Prop29
280
     1
102
RTVSPost2010PropOp29
 70
     1
102
RTVSPost2010Prop30
280
     1
102
RTVSPost2010PropOp30
 70
     1
102
RTVSPost2010Prop31
280
     0
102
RTVSPost2010PropOp31
 70
     1
102
RTVSPost2010Prop32
280
     0
102
RTVSPost2010PropOp32
 70
     1
102
RTVSPost2010Prop33
280
     0
102
RTVSPost2010PropOp33
 70
     1
102
RTVSPost2010Prop34
280
     0
102
RTVSPost2010PropOp34
 70
     1
102
RTVSPost2010Prop35
280
     0
102
RTVSPost2010PropOp35
 70
     1
102
RTVSPost2010Prop36
280
     0
102
RTVSPost2010PropOp36
 70
     1
102
RTVSPost2010Prop37
 90
       50
102
RTVSPost2010PropOp37
 70
     1
102
RTVSPost2010Prop38
140
0.0
102
RTVSPost2010PropOp38
 70
     1
102
RTVSPost2010Prop39
140
1.0
102
RTVSPost2010PropOp39
 70
     1
102
RTVSPost2010Prop40
 90
        0
102
RTVSPost2010PropOp40
 70
     1
102
RTVSPost2010Prop41ColorIndex
 90
       18
102
RTVSPost2010Prop41ColorRGB
 90
        0
102
RTVSPost2010PropOp41
 70
     1
102
RTVSPost2010Prop42
 90
       50
102
RTVSPost2010PropOp42
 70
     1
102
RTVSPost2010Prop43
 90
        3
102
RTVSPost2010PropOp43
 70
     1
102
RTVSPost2010Prop44ColorIndex
 90
        5
102
RTVSPost2010Prop44ColorRGB
 90
      255
102
RTVSPost2010PropOp44
 70
     1
102
RTVSPost2010Prop45
280
     0
102
RTVSPost2010PropOp45
 70
     1
102
RTVSPost2010Prop46
 90
       50
102
RTVSPost2010PropOp46
 70
     1
102
RTVSPost2010Prop47
 90
       50
102
RTVSPost2010PropOp47
 70
     1
102
RTVSPost2010Prop48
 90
       50
102
RTVSPost2010PropOp48
 70
     1
102
RTVSPost2010Prop49
280
     0
102
RTVSPost2010PropOp49
 70
     1
102
RTVSPost2010Prop50
 90
       50
102
RTVSPost2010PropOp50
 70
     1
102
RTVSPost2010Prop51ColorIndex
 90
      256
102
RTVSPost2010Prop51ColorRGB
 90
-16777216
102
RTVSPost2010PropOp51
 70
     0
102
RTVSPost2010Prop52
140
1.0
102
RTVSPost2010PropOp52
 70
     0
102
RTVSPost2010Prop53
 90
        2
102
RTVSPost2010PropOp53
 70
     1
102
RTVSPost2010Prop54
  1
strokes_ogs.tif
102
RTVSPost2010PropOp54
 70
     1
102
RTVSPost2010Prop55
280
     0
102
RTVSPost2010PropOp55
 70
     1
102
RTVSPost2010Prop56
140
1.0
102
RTVSPost2010PropOp56
 70
     1
102
RTVSPost2010Prop57
140
1.0
102
RTVSPost2010PropOp57
 70
     1
102
RTVSPropertyOp0
 70
     1
102
RTVSPropertyOp1
 70
     1
102
RTVSPropertyOp2
 70
     1
102
RTVSPropertyOp3
 70
     1
102
RTVSPropertyOp4
 70
     1
102
RTVSPropertyOp5
 70
     1
102
RTVSPropertyOp6
 70
     1
102
RTVSPropertyOp7
 70
     1
102
RTVSPropertyOp8
 70
     1
102
RTVSPropertyOp9
 70
     1
102
RTVSPropertyOp10
 70
     1
102
RTVSPropertyOp11
 70
     1
102
RTVSPropertyOp12
 70
     1
102
RTVSPropertyOp13
 70
     1
102
RTVSPropertyOp14
 70
     1
102
RTVSPropertyOp15
 70
     1
102
RTVSPropertyOp16
 70
     1
102
RTVSPropertyOp17
 70
     1
102
RTVSPropertyOp18
 70
     1
102
RTVSPropertyOp19
 70
     1
102
RTVSPropertyOp20
 70
     1
102
RTVSPropertyOp21
 70
     1
102
RTVSPropertyOp22
 70
     1
102
RTVSPropertyOp23
 70
     1
102
RTVSPropertyOp24
 70
     1
102
RTVSPropertyOp25
 70
     1
102
RTVSPropertyOp26
 70
     1
102
RTVSPropertyOp27
 70
     1
102
RTVSPropertyOp28
 70
     1
102
RTVSPropertyOp29
 70
     1
102
RTVSPropertyOp30
 70
     1
102
RTVSPropertyOp31
 70
     1
102
RTVSPropertyOp32
 70
     1
102
RTVSPropertyOp33
 70
     1
102
RTVSPropertyOp34
 70
     1
102
RTVSPropertyOp35
 70
     1
102
RTVSPropertyOp36
 70
     1
102
RTVSPropertyOp37
 70
     1
102
RTVSPropertyOp38
 70
     1
102
RTVSPropertyOp39
 70
     1
102
RTVSPropertyOp40
 70
     1
102
RTVSPropertyOp41
 70
     1
102
RTVSPropertyOp42
 70
     1
102
RTVSPropertyOp43
 70
     1
102
RTVSPropertyOp44
 70
     1
102
RTVSPropertyOp45
 70
     1
102
RTVSPropertyOp46
 70
     1
102
RTVSPropertyOp47
 70
     1
102
RTVSPropertyOp48
 70
     1
102
RTVSPropertyOp49
 70
     1
102
RTVSPropertyOp50
 70
     1
102
RTVSPropertyOp51
 70
     0
102
RTVSPropertyOp52
 70
     0
102
RTVSPropertyOp53
 70
     1
102
RTVSPropertyOp54
 70
     1
102
RTVSPropertyOp55
 70
     1
102
RTVSPropertyOp56
 70
     1
102
RTVSPropertyOp57
 70
     1
102
RTVSPropertyOp58
 70
     1
102
RTVSPropertyOp59
 70
     1
102
RTVSPropertyOp60
 70
     1
102
RTVSPropertyOp61
 70
     1
102
RTVSPropertyOp62
 70
     1
  0
XRECORD
  5
188F
102
{ACAD_REACTORS
330
188E
102
}
330
188E
100
AcDbXrecord
280
     1
102
RTVSPost2010Prop28
280
     0
102
RTVSPost2010PropOp28
 70
     1
102
RTVSPost2010Prop29
280
     1
102
RTVSPost2010PropOp29
 70
     1
102
RTVSPost2010Prop30
280
     1
102
RTVSPost2010PropOp30
 70
     1
102
RTVSPost2010Prop31
280
     0
102
RTVSPost2010PropOp31
 70
     1
102
RTVSPost2010Prop32
280
     0
102
RTVSPost2010PropOp32
 70
     1
102
RTVSPost2010Prop33
280
     0
102
RTVSPost2010PropOp33
 70
     1
102
RTVSPost2010Prop34
280
     0
102
RTVSPost2010PropOp34
 70
     1
102
RTVSPost2010Prop35
280
     0
102
RTVSPost2010PropOp35
 70
     1
102
RTVSPost2010Prop36
280
     0
102
RTVSPost2010PropOp36
 70
     1
102
RTVSPost2010Prop37
 90
       50
102
RTVSPost2010PropOp37
 70
     1
102
RTVSPost2010Prop38
140
0.0
102
RTVSPost2010PropOp38
 70
     1
102
RTVSPost2010Prop39
140
1.0
102
RTVSPost2010PropOp39
 70
     1
102
RTVSPost2010Prop40
 90
        0
102
RTVSPost2010PropOp40
 70
     1
102
RTVSPost2010Prop41ColorIndex
 90
       18
102
RTVSPost2010Prop41ColorRGB
 90
        0
102
RTVSPost2010PropOp41
 70
     1
102
RTVSPost2010Prop42
 90
       50
102
RTVSPost2010PropOp42
 70
     1
102
RTVSPost2010Prop43
 90
        3
102
RTVSPost2010PropOp43
 70
     1
102
RTVSPost2010Prop44ColorIndex
 90
        5
102
RTVSPost2010Prop44ColorRGB
 90
      255
102
RTVSPost2010PropOp44
 70
     1
102
RTVSPost2010Prop45
280
     0
102
RTVSPost2010PropOp45
 70
     1
102
RTVSPost2010Prop46
 90
       50
102
RTVSPost2010PropOp46
 70
     1
102
RTVSPost2010Prop47
 90
       50
102
RTVSPost2010PropOp47
 70
     1
102
RTVSPost2010Prop48
 90
       50
102
RTVSPost2010PropOp48
 70
     1
102
RTVSPost2010Prop49
280
     0
102
RTVSPost2010PropOp49
 70
     1
102
RTVSPost2010Prop50
 90
       50
102
RTVSPost2010PropOp50
 70
     1
102
RTVSPost2010Prop51ColorIndex
 90
      256
102
RTVSPost2010Prop51ColorRGB
 90
-16777216
102
RTVSPost2010PropOp51
 70
     0
102
RTVSPost2010Prop52
140
1.0
102
RTVSPost2010PropOp52
 70
     0
102
RTVSPost2010Prop53
 90
        2
102
RTVSPost2010PropOp53
 70
     1
102
RTVSPost2010Prop54
  1
strokes_ogs.tif
102
RTVSPost2010PropOp54
 70
     1
102
RTVSPost2010Prop55
280
     0
102
RTVSPost2010PropOp55
 70
     1
102
RTVSPost2010Prop56
140
1.0
102
RTVSPost2010PropOp56
 70
     1
102
RTVSPost2010Prop57
140
1.0
102
RTVSPost2010PropOp57
 70
     1
102
RTVSPropertyOp0
 70
     1
102
RTVSPropertyOp1
 70
     1
102
RTVSPropertyOp2
 70
     1
102
RTVSPropertyOp3
 70
     1
102
RTVSPropertyOp4
 70
     1
102
RTVSPropertyOp5
 70
     1
102
RTVSPropertyOp6
 70
     1
102
RTVSPropertyOp7
 70
     1
102
RTVSPropertyOp8
 70
     1
102
RTVSPropertyOp9
 70
     1
102
RTVSPropertyOp10
 70
     1
102
RTVSPropertyOp11
 70
     1
102
RTVSPropertyOp12
 70
     1
102
RTVSPropertyOp13
 70
     1
102
RTVSPropertyOp14
 70
     1
102
RTVSPropertyOp15
 70
     1
102
RTVSPropertyOp16
 70
     1
102
RTVSPropertyOp17
 70
     1
102
RTVSPropertyOp18
 70
     1
102
RTVSPropertyOp19
 70
     1
102
RTVSPropertyOp20
 70
     1
102
RTVSPropertyOp21
 70
     1
102
RTVSPropertyOp22
 70
     1
102
RTVSPropertyOp23
 70
     1
102
RTVSPropertyOp24
 70
     1
102
RTVSPropertyOp25
 70
     1
102
RTVSPropertyOp26
 70
     1
102
RTVSPropertyOp27
 70
     1
102
RTVSPropertyOp28
 70
     1
102
RTVSPropertyOp29
 70
     1
102
RTVSPropertyOp30
 70
     1
102
RTVSPropertyOp31
 70
     1
102
RTVSPropertyOp32
 70
     1
102
RTVSPropertyOp33
 70
     1
102
RTVSPropertyOp34
 70
     1
102
RTVSPropertyOp35
 70
     1
102
RTVSPropertyOp36
 70
     1
102
RTVSPropertyOp37
 70
     1
102
RTVSPropertyOp38
 70
     1
102
RTVSPropertyOp39
 70
     1
102
RTVSPropertyOp40
 70
     1
102
RTVSPropertyOp41
 70
     1
102
RTVSPropertyOp42
 70
     1
102
RTVSPropertyOp43
 70
     1
102
RTVSPropertyOp44
 70
     1
102
RTVSPropertyOp45
 70
     1
102
RTVSPropertyOp46
 70
     1
102
RTVSPropertyOp47
 70
     1
102
RTVSPropertyOp48
 70
     1
102
RTVSPropertyOp49
 70
     1
102
RTVSPropertyOp50
 70
     1
102
RTVSPropertyOp51
 70
     0
102
RTVSPropertyOp52
 70
     0
102
RTVSPropertyOp53
 70
     1
102
RTVSPropertyOp54
 70
     1
102
RTVSPropertyOp55
 70
     1
102
RTVSPropertyOp56
 70
     1
102
RTVSPropertyOp57
 70
     1
102
RTVSPropertyOp58
 70
     1
102
RTVSPropertyOp59
 70
     1
102
RTVSPropertyOp60
 70
     1
102
RTVSPropertyOp61
 70
     1
102
RTVSPropertyOp62
 70
     1
  0
XRECORD
  5
1891
102
{ACAD_REACTORS
330
1890
102
}
330
1890
100
AcDbXrecord
280
     1
102
RTVSPost2010Prop28
280
     0
102
RTVSPost2010PropOp28
 70
     1
102
RTVSPost2010Prop29
280
     1
102
RTVSPost2010PropOp29
 70
     1
102
RTVSPost2010Prop30
280
     1
102
RTVSPost2010PropOp30
 70
     1
102
RTVSPost2010Prop31
280
     0
102
RTVSPost2010PropOp31
 70
     1
102
RTVSPost2010Prop32
280
     0
102
RTVSPost2010PropOp32
 70
     1
102
RTVSPost2010Prop33
280
     0
102
RTVSPost2010PropOp33
 70
     1
102
RTVSPost2010Prop34
280
     0
102
RTVSPost2010PropOp34
 70
     1
102
RTVSPost2010Prop35
280
     0
102
RTVSPost2010PropOp35
 70
     1
102
RTVSPost2010Prop36
280
     0
102
RTVSPost2010PropOp36
 70
     1
102
RTVSPost2010Prop37
 90
       50
102
RTVSPost2010PropOp37
 70
     1
102
RTVSPost2010Prop38
140
0.0
102
RTVSPost2010PropOp38
 70
     1
102
RTVSPost2010Prop39
140
1.0
102
RTVSPost2010PropOp39
 70
     1
102
RTVSPost2010Prop40
 90
        0
102
RTVSPost2010PropOp40
 70
     1
102
RTVSPost2010Prop41ColorIndex
 90
       18
102
RTVSPost2010Prop41ColorRGB
 90
        0
102
RTVSPost2010PropOp41
 70
     1
102
RTVSPost2010Prop42
 90
       50
102
RTVSPost2010PropOp42
 70
     1
102
RTVSPost2010Prop43
 90
        3
102
RTVSPost2010PropOp43
 70
     1
102
RTVSPost2010Prop44ColorIndex
 90
        5
102
RTVSPost2010Prop44ColorRGB
 90
      255
102
RTVSPost2010PropOp44
 70
     1
102
RTVSPost2010Prop45
280
     0
102
RTVSPost2010PropOp45
 70
     1
102
RTVSPost2010Prop46
 90
       50
102
RTVSPost2010PropOp46
 70
     1
102
RTVSPost2010Prop47
 90
       50
102
RTVSPost2010PropOp47
 70
     1
102
RTVSPost2010Prop48
 90
       50
102
RTVSPost2010PropOp48
 70
     1
102
RTVSPost2010Prop49
280
     0
102
RTVSPost2010PropOp49
 70
     1
102
RTVSPost2010Prop50
 90
       50
102
RTVSPost2010PropOp50
 70
     1
102
RTVSPost2010Prop51ColorIndex
 90
      256
102
RTVSPost2010Prop51ColorRGB
 90
-16777216
102
RTVSPost2010PropOp51
 70
     0
102
RTVSPost2010Prop52
140
1.0
102
RTVSPost2010PropOp52
 70
     0
102
RTVSPost2010Prop53
 90
        2
102
RTVSPost2010PropOp53
 70
     1
102
RTVSPost2010Prop54
  1
strokes_ogs.tif
102
RTVSPost2010PropOp54
 70
     1
102
RTVSPost2010Prop55
280
     0
102
RTVSPost2010PropOp55
 70
     1
102
RTVSPost2010Prop56
140
1.0
102
RTVSPost2010PropOp56
 70
     1
102
RTVSPost2010Prop57
140
1.0
102
RTVSPost2010PropOp57
 70
     1
102
RTVSPropertyOp0
 70
     1
102
RTVSPropertyOp1
 70
     1
102
RTVSPropertyOp2
 70
     1
102
RTVSPropertyOp3
 70
     1
102
RTVSPropertyOp4
 70
     1
102
RTVSPropertyOp5
 70
     1
102
RTVSPropertyOp6
 70
     1
102
RTVSPropertyOp7
 70
     1
102
RTVSPropertyOp8
 70
     1
102
RTVSPropertyOp9
 70
     1
102
RTVSPropertyOp10
 70
     1
102
RTVSPropertyOp11
 70
     1
102
RTVSPropertyOp12
 70
     1
102
RTVSPropertyOp13
 70
     1
102
RTVSPropertyOp14
 70
     1
102
RTVSPropertyOp15
 70
     1
102
RTVSPropertyOp16
 70
     1
102
RTVSPropertyOp17
 70
     1
102
RTVSPropertyOp18
 70
     1
102
RTVSPropertyOp19
 70
     1
102
RTVSPropertyOp20
 70
     1
102
RTVSPropertyOp21
 70
     1
102
RTVSPropertyOp22
 70
     1
102
RTVSPropertyOp23
 70
     1
102
RTVSPropertyOp24
 70
     1
102
RTVSPropertyOp25
 70
     1
102
RTVSPropertyOp26
 70
     1
102
RTVSPropertyOp27
 70
     1
102
RTVSPropertyOp28
 70
     1
102
RTVSPropertyOp29
 70
     1
102
RTVSPropertyOp30
 70
     1
102
RTVSPropertyOp31
 70
     1
102
RTVSPropertyOp32
 70
     1
102
RTVSPropertyOp33
 70
     1
102
RTVSPropertyOp34
 70
     1
102
RTVSPropertyOp35
 70
     1
102
RTVSPropertyOp36
 70
     1
102
RTVSPropertyOp37
 70
     1
102
RTVSPropertyOp38
 70
     1
102
RTVSPropertyOp39
 70
     1
102
RTVSPropertyOp40
 70
     1
102
RTVSPropertyOp41
 70
     1
102
RTVSPropertyOp42
 70
     1
102
RTVSPropertyOp43
 70
     1
102
RTVSPropertyOp44
 70
     1
102
RTVSPropertyOp45
 70
     1
102
RTVSPropertyOp46
 70
     1
102
RTVSPropertyOp47
 70
     1
102
RTVSPropertyOp48
 70
     1
102
RTVSPropertyOp49
 70
     1
102
RTVSPropertyOp50
 70
     1
102
RTVSPropertyOp51
 70
     0
102
RTVSPropertyOp52
 70
     0
102
RTVSPropertyOp53
 70
     1
102
RTVSPropertyOp54
 70
     1
102
RTVSPropertyOp55
 70
     1
102
RTVSPropertyOp56
 70
     1
102
RTVSPropertyOp57
 70
     1
102
RTVSPropertyOp58
 70
     1
102
RTVSPropertyOp59
 70
     1
102
RTVSPropertyOp60
 70
     1
102
RTVSPropertyOp61
 70
     1
102
RTVSPropertyOp62
 70
     1
  0
XRECORD
  5
1899
102
{ACAD_REACTORS
330
1898
102
}
330
1898
100
AcDbXrecord
280
     1
102
RTVSPost2010Prop28
280
     0
102
RTVSPost2010PropOp28
 70
     1
102
RTVSPost2010Prop29
280
     1
102
RTVSPost2010PropOp29
 70
     1
102
RTVSPost2010Prop30
280
     1
102
RTVSPost2010PropOp30
 70
     1
102
RTVSPost2010Prop31
280
     0
102
RTVSPost2010PropOp31
 70
     1
102
RTVSPost2010Prop32
280
     0
102
RTVSPost2010PropOp32
 70
     1
102
RTVSPost2010Prop33
280
     0
102
RTVSPost2010PropOp33
 70
     1
102
RTVSPost2010Prop34
280
     0
102
RTVSPost2010PropOp34
 70
     1
102
RTVSPost2010Prop35
280
     0
102
RTVSPost2010PropOp35
 70
     1
102
RTVSPost2010Prop36
280
     0
102
RTVSPost2010PropOp36
 70
     1
102
RTVSPost2010Prop37
 90
       50
102
RTVSPost2010PropOp37
 70
     1
102
RTVSPost2010Prop38
140
0.0
102
RTVSPost2010PropOp38
 70
     1
102
RTVSPost2010Prop39
140
1.0
102
RTVSPost2010PropOp39
 70
     1
102
RTVSPost2010Prop40
 90
        0
102
RTVSPost2010PropOp40
 70
     1
102
RTVSPost2010Prop41ColorIndex
 90
       18
102
RTVSPost2010Prop41ColorRGB
 90
        0
102
RTVSPost2010PropOp41
 70
     1
102
RTVSPost2010Prop42
 90
       50
102
RTVSPost2010PropOp42
 70
     1
102
RTVSPost2010Prop43
 90
        3
102
RTVSPost2010PropOp43
 70
     1
102
RTVSPost2010Prop44ColorIndex
 90
        5
102
RTVSPost2010Prop44ColorRGB
 90
      255
102
RTVSPost2010PropOp44
 70
     1
102
RTVSPost2010Prop45
280
     0
102
RTVSPost2010PropOp45
 70
     1
102
RTVSPost2010Prop46
 90
       50
102
RTVSPost2010PropOp46
 70
     1
102
RTVSPost2010Prop47
 90
       50
102
RTVSPost2010PropOp47
 70
     1
102
RTVSPost2010Prop48
 90
       50
102
RTVSPost2010PropOp48
 70
     1
102
RTVSPost2010Prop49
280
     0
102
RTVSPost2010PropOp49
 70
     1
102
RTVSPost2010Prop50
 90
       50
102
RTVSPost2010PropOp50
 70
     1
102
RTVSPost2010Prop51ColorIndex
 90
      256
102
RTVSPost2010Prop51ColorRGB
 90
-16777216
102
RTVSPost2010PropOp51
 70
     0
102
RTVSPost2010Prop52
140
1.0
102
RTVSPost2010PropOp52
 70
     0
102
RTVSPost2010Prop53
 90
        2
102
RTVSPost2010PropOp53
 70
     1
102
RTVSPost2010Prop54
  1
strokes_ogs.tif
102
RTVSPost2010PropOp54
 70
     1
102
RTVSPost2010Prop55
280
     0
102
RTVSPost2010PropOp55
 70
     1
102
RTVSPost2010Prop56
140
1.0
102
RTVSPost2010PropOp56
 70
     1
102
RTVSPost2010Prop57
140
1.0
102
RTVSPost2010PropOp57
 70
     1
102
RTVSPropertyOp0
 70
     1
102
RTVSPropertyOp1
 70
     1
102
RTVSPropertyOp2
 70
     1
102
RTVSPropertyOp3
 70
     1
102
RTVSPropertyOp4
 70
     1
102
RTVSPropertyOp5
 70
     1
102
RTVSPropertyOp6
 70
     1
102
RTVSPropertyOp7
 70
     1
102
RTVSPropertyOp8
 70
     1
102
RTVSPropertyOp9
 70
     1
102
RTVSPropertyOp10
 70
     1
102
RTVSPropertyOp11
 70
     1
102
RTVSPropertyOp12
 70
     1
102
RTVSPropertyOp13
 70
     1
102
RTVSPropertyOp14
 70
     1
102
RTVSPropertyOp15
 70
     1
102
RTVSPropertyOp16
 70
     1
102
RTVSPropertyOp17
 70
     1
102
RTVSPropertyOp18
 70
     1
102
RTVSPropertyOp19
 70
     1
102
RTVSPropertyOp20
 70
     1
102
RTVSPropertyOp21
 70
     1
102
RTVSPropertyOp22
 70
     1
102
RTVSPropertyOp23
 70
     1
102
RTVSPropertyOp24
 70
     1
102
RTVSPropertyOp25
 70
     1
102
RTVSPropertyOp26
 70
     1
102
RTVSPropertyOp27
 70
     1
102
RTVSPropertyOp28
 70
     1
102
RTVSPropertyOp29
 70
     1
102
RTVSPropertyOp30
 70
     1
102
RTVSPropertyOp31
 70
     1
102
RTVSPropertyOp32
 70
     1
102
RTVSPropertyOp33
 70
     1
102
RTVSPropertyOp34
 70
     1
102
RTVSPropertyOp35
 70
     1
102
RTVSPropertyOp36
 70
     1
102
RTVSPropertyOp37
 70
     1
102
RTVSPropertyOp38
 70
     1
102
RTVSPropertyOp39
 70
     1
102
RTVSPropertyOp40
 70
     1
102
RTVSPropertyOp41
 70
     1
102
RTVSPropertyOp42
 70
     1
102
RTVSPropertyOp43
 70
     1
102
RTVSPropertyOp44
 70
     1
102
RTVSPropertyOp45
 70
     1
102
RTVSPropertyOp46
 70
     1
102
RTVSPropertyOp47
 70
     1
102
RTVSPropertyOp48
 70
     1
102
RTVSPropertyOp49
 70
     1
102
RTVSPropertyOp50
 70
     1
102
RTVSPropertyOp51
 70
     0
102
RTVSPropertyOp52
 70
     0
102
RTVSPropertyOp53
 70
     1
102
RTVSPropertyOp54
 70
     1
102
RTVSPropertyOp55
 70
     1
102
RTVSPropertyOp56
 70
     1
102
RTVSPropertyOp57
 70
     1
102
RTVSPropertyOp58
 70
     1
102
RTVSPropertyOp59
 70
     1
102
RTVSPropertyOp60
 70
     1
102
RTVSPropertyOp61
 70
     1
102
RTVSPropertyOp62
 70
     1
  0
XRECORD
  5
18B5
102
{ACAD_REACTORS
330
18B4
102
}
330
18B4
100
AcDbXrecord
280
     1
102
RTVSPost2010Prop28
280
     0
102
RTVSPost2010PropOp28
 70
     1
102
RTVSPost2010Prop29
280
     1
102
RTVSPost2010PropOp29
 70
     1
102
RTVSPost2010Prop30
280
     1
102
RTVSPost2010PropOp30
 70
     1
102
RTVSPost2010Prop31
280
     0
102
RTVSPost2010PropOp31
 70
     1
102
RTVSPost2010Prop32
280
     0
102
RTVSPost2010PropOp32
 70
     1
102
RTVSPost2010Prop33
280
     0
102
RTVSPost2010PropOp33
 70
     1
102
RTVSPost2010Prop34
280
     0
102
RTVSPost2010PropOp34
 70
     1
102
RTVSPost2010Prop35
280
     0
102
RTVSPost2010PropOp35
 70
     1
102
RTVSPost2010Prop36
280
     0
102
RTVSPost2010PropOp36
 70
     1
102
RTVSPost2010Prop37
 90
       50
102
RTVSPost2010PropOp37
 70
     0
102
RTVSPost2010Prop38
140
0.0
102
RTVSPost2010PropOp38
 70
     0
102
RTVSPost2010Prop39
140
1.0
102
RTVSPost2010PropOp39
 70
     0
102
RTVSPost2010Prop40
 90
        0
102
RTVSPost2010PropOp40
 70
     0
102
RTVSPost2010Prop41ColorIndex
 90
       18
102
RTVSPost2010Prop41ColorRGB
 90
        0
102
RTVSPost2010PropOp41
 70
     0
102
RTVSPost2010Prop42
 90
       50
102
RTVSPost2010PropOp42
 70
     0
102
RTVSPost2010Prop43
 90
        3
102
RTVSPost2010PropOp43
 70
     0
102
RTVSPost2010Prop44ColorIndex
 90
        5
102
RTVSPost2010Prop44ColorRGB
 90
      255
102
RTVSPost2010PropOp44
 70
     0
102
RTVSPost2010Prop45
280
     0
102
RTVSPost2010PropOp45
 70
     1
102
RTVSPost2010Prop46
 90
       50
102
RTVSPost2010PropOp46
 70
     0
102
RTVSPost2010Prop47
 90
       50
102
RTVSPost2010PropOp47
 70
     0
102
RTVSPost2010Prop48
 90
       50
102
RTVSPost2010PropOp48
 70
     0
102
RTVSPost2010Prop49
280
     0
102
RTVSPost2010PropOp49
 70
     1
102
RTVSPost2010Prop50
 90
       50
102
RTVSPost2010PropOp50
 70
     0
102
RTVSPost2010Prop51ColorIndex
 90
      256
102
RTVSPost2010Prop51ColorRGB
 90
-16777216
102
RTVSPost2010PropOp51
 70
     0
102
RTVSPost2010Prop52
140
1.0
102
RTVSPost2010PropOp52
 70
     0
102
RTVSPost2010Prop53
 90
        2
102
RTVSPost2010PropOp53
 70
     0
102
RTVSPost2010Prop54
  1
strokes_ogs.tif
102
RTVSPost2010PropOp54
 70
     0
102
RTVSPost2010Prop55
280
     0
102
RTVSPost2010PropOp55
 70
     1
102
RTVSPost2010Prop56
140
1.0
102
RTVSPost2010PropOp56
 70
     0
102
RTVSPost2010Prop57
140
1.0
102
RTVSPost2010PropOp57
 70
     0
102
RTVSPropertyOp0
 70
     0
102
RTVSPropertyOp1
 70
     0
102
RTVSPropertyOp2
 70
     0
102
RTVSPropertyOp3
 70
     0
102
RTVSPropertyOp4
 70
     0
102
RTVSPropertyOp5
 70
     0
102
RTVSPropertyOp6
 70
     0
102
RTVSPropertyOp7
 70
     0
102
RTVSPropertyOp8
 70
     0
102
RTVSPropertyOp9
 70
     0
102
RTVSPropertyOp10
 70
     0
102
RTVSPropertyOp11
 70
     0
102
RTVSPropertyOp12
 70
     0
102
RTVSPropertyOp13
 70
     0
102
RTVSPropertyOp14
 70
     2
102
RTVSPropertyOp15
 70
     0
102
RTVSPropertyOp16
 70
     0
102
RTVSPropertyOp17
 70
     0
102
RTVSPropertyOp18
 70
     0
102
RTVSPropertyOp19
 70
     0
102
RTVSPropertyOp20
 70
     0
102
RTVSPropertyOp21
 70
     0
102
RTVSPropertyOp22
 70
     0
102
RTVSPropertyOp23
 70
     0
102
RTVSPropertyOp24
 70
     0
102
RTVSPropertyOp25
 70
     0
102
RTVSPropertyOp26
 70
     0
102
RTVSPropertyOp27
 70
     0
102
RTVSPropertyOp28
 70
     1
102
RTVSPropertyOp29
 70
     1
102
RTVSPropertyOp30
 70
     1
102
RTVSPropertyOp31
 70
     1
102
RTVSPropertyOp32
 70
     1
102
RTVSPropertyOp33
 70
     1
102
RTVSPropertyOp34
 70
     1
102
RTVSPropertyOp35
 70
     1
102
RTVSPropertyOp36
 70
     1
102
RTVSPropertyOp37
 70
     0
102
RTVSPropertyOp38
 70
     0
102
RTVSPropertyOp39
 70
     0
102
RTVSPropertyOp40
 70
     0
102
RTVSPropertyOp41
 70
     0
102
RTVSPropertyOp42
 70
     0
102
RTVSPropertyOp43
 70
     0
102
RTVSPropertyOp44
 70
     0
102
RTVSPropertyOp45
 70
     1
102
RTVSPropertyOp46
 70
     0
102
RTVSPropertyOp47
 70
     0
102
RTVSPropertyOp48
 70
     0
102
RTVSPropertyOp49
 70
     1
102
RTVSPropertyOp50
 70
     0
102
RTVSPropertyOp51
 70
     0
102
RTVSPropertyOp52
 70
     0
102
RTVSPropertyOp53
 70
     0
102
RTVSPropertyOp54
 70
     0
102
RTVSPropertyOp55
 70
     1
102
RTVSPropertyOp56
 70
     0
102
RTVSPropertyOp57
 70
     0
102
RTVSPropertyOp58
 70
     0
102
RTVSPropertyOp59
 70
     0
102
RTVSPropertyOp60
 70
     0
102
RTVSPropertyOp61
 70
     0
102
RTVSPropertyOp62
 70
     0
  0
XRECORD
  5
18A5
102
{ACAD_REACTORS
330
18A4
102
}
330
18A4
100
AcDbXrecord
280
     1
102
RTVSPost2010Prop28
280
     0
102
RTVSPost2010PropOp28
 70
     1
102
RTVSPost2010Prop29
280
     1
102
RTVSPost2010PropOp29
 70
     1
102
RTVSPost2010Prop30
280
     1
102
RTVSPost2010PropOp30
 70
     1
102
RTVSPost2010Prop31
280
     0
102
RTVSPost2010PropOp31
 70
     1
102
RTVSPost2010Prop32
280
     0
102
RTVSPost2010PropOp32
 70
     1
102
RTVSPost2010Prop33
280
     0
102
RTVSPost2010PropOp33
 70
     1
102
RTVSPost2010Prop34
280
     0
102
RTVSPost2010PropOp34
 70
     1
102
RTVSPost2010Prop35
280
     0
102
RTVSPost2010PropOp35
 70
     1
102
RTVSPost2010Prop36
280
     0
102
RTVSPost2010PropOp36
 70
     1
102
RTVSPost2010Prop37
 90
       50
102
RTVSPost2010PropOp37
 70
     1
102
RTVSPost2010Prop38
140
0.0
102
RTVSPost2010PropOp38
 70
     1
102
RTVSPost2010Prop39
140
1.0
102
RTVSPost2010PropOp39
 70
     1
102
RTVSPost2010Prop40
 90
        0
102
RTVSPost2010PropOp40
 70
     1
102
RTVSPost2010Prop41ColorIndex
 90
       18
102
RTVSPost2010Prop41ColorRGB
 90
        0
102
RTVSPost2010PropOp41
 70
     1
102
RTVSPost2010Prop42
 90
       50
102
RTVSPost2010PropOp42
 70
     1
102
RTVSPost2010Prop43
 90
        3
102
RTVSPost2010PropOp43
 70
     1
102
RTVSPost2010Prop44ColorIndex
 90
        5
102
RTVSPost2010Prop44ColorRGB
 90
      255
102
RTVSPost2010PropOp44
 70
     1
102
RTVSPost2010Prop45
280
     0
102
RTVSPost2010PropOp45
 70
     1
102
RTVSPost2010Prop46
 90
       50
102
RTVSPost2010PropOp46
 70
     1
102
RTVSPost2010Prop47
 90
       50
102
RTVSPost2010PropOp47
 70
     1
102
RTVSPost2010Prop48
 90
       50
102
RTVSPost2010PropOp48
 70
     1
102
RTVSPost2010Prop49
280
     0
102
RTVSPost2010PropOp49
 70
     1
102
RTVSPost2010Prop50
 90
       50
102
RTVSPost2010PropOp50
 70
     1
102
RTVSPost2010Prop51ColorIndex
 90
      256
102
RTVSPost2010Prop51ColorRGB
 90
-16777216
102
RTVSPost2010PropOp51
 70
     0
102
RTVSPost2010Prop52
140
1.0
102
RTVSPost2010PropOp52
 70
     0
102
RTVSPost2010Prop53
 90
        2
102
RTVSPost2010PropOp53
 70
     1
102
RTVSPost2010Prop54
  1
strokes_ogs.tif
102
RTVSPost2010PropOp54
 70
     1
102
RTVSPost2010Prop55
280
     0
102
RTVSPost2010PropOp55
 70
     1
102
RTVSPost2010Prop56
140
1.0
102
RTVSPost2010PropOp56
 70
     1
102
RTVSPost2010Prop57
140
1.0
102
RTVSPost2010PropOp57
 70
     1
102
RTVSPropertyOp0
 70
     1
102
RTVSPropertyOp1
 70
     1
102
RTVSPropertyOp2
 70
     1
102
RTVSPropertyOp3
 70
     1
102
RTVSPropertyOp4
 70
     1
102
RTVSPropertyOp5
 70
     1
102
RTVSPropertyOp6
 70
     1
102
RTVSPropertyOp7
 70
     1
102
RTVSPropertyOp8
 70
     1
102
RTVSPropertyOp9
 70
     1
102
RTVSPropertyOp10
 70
     1
102
RTVSPropertyOp11
 70
     1
102
RTVSPropertyOp12
 70
     1
102
RTVSPropertyOp13
 70
     1
102
RTVSPropertyOp14
 70
     1
102
RTVSPropertyOp15
 70
     1
102
RTVSPropertyOp16
 70
     1
102
RTVSPropertyOp17
 70
     1
102
RTVSPropertyOp18
 70
     1
102
RTVSPropertyOp19
 70
     1
102
RTVSPropertyOp20
 70
     1
102
RTVSPropertyOp21
 70
     1
102
RTVSPropertyOp22
 70
     1
102
RTVSPropertyOp23
 70
     1
102
RTVSPropertyOp24
 70
     1
102
RTVSPropertyOp25
 70
     1
102
RTVSPropertyOp26
 70
     1
102
RTVSPropertyOp27
 70
     1
102
RTVSPropertyOp28
 70
     1
102
RTVSPropertyOp29
 70
     1
102
RTVSPropertyOp30
 70
     1
102
RTVSPropertyOp31
 70
     1
102
RTVSPropertyOp32
 70
     1
102
RTVSPropertyOp33
 70
     1
102
RTVSPropertyOp34
 70
     1
102
RTVSPropertyOp35
 70
     1
102
RTVSPropertyOp36
 70
     1
102
RTVSPropertyOp37
 70
     1
102
RTVSPropertyOp38
 70
     1
102
RTVSPropertyOp39
 70
     1
102
RTVSPropertyOp40
 70
     1
102
RTVSPropertyOp41
 70
     1
102
RTVSPropertyOp42
 70
     1
102
RTVSPropertyOp43
 70
     1
102
RTVSPropertyOp44
 70
     1
102
RTVSPropertyOp45
 70
     1
102
RTVSPropertyOp46
 70
     1
102
RTVSPropertyOp47
 70
     1
102
RTVSPropertyOp48
 70
     1
102
RTVSPropertyOp49
 70
     1
102
RTVSPropertyOp50
 70
     1
102
RTVSPropertyOp51
 70
     0
102
RTVSPropertyOp52
 70
     0
102
RTVSPropertyOp53
 70
     1
102
RTVSPropertyOp54
 70
     1
102
RTVSPropertyOp55
 70
     1
102
RTVSPropertyOp56
 70
     1
102
RTVSPropertyOp57
 70
     1
102
RTVSPropertyOp58
 70
     1
102
RTVSPropertyOp59
 70
     1
102
RTVSPropertyOp60
 70
     1
102
RTVSPropertyOp61
 70
     1
102
RTVSPropertyOp62
 70
     1
  0
XRECORD
  5
18B7
102
{ACAD_REACTORS
330
18B6
102
}
330
18B6
100
AcDbXrecord
280
     1
102
RTVSPost2010Prop28
280
     0
102
RTVSPost2010PropOp28
 70
     1
102
RTVSPost2010Prop29
280
     1
102
RTVSPost2010PropOp29
 70
     1
102
RTVSPost2010Prop30
280
     1
102
RTVSPost2010PropOp30
 70
     1
102
RTVSPost2010Prop31
280
     0
102
RTVSPost2010PropOp31
 70
     1
102
RTVSPost2010Prop32
280
     0
102
RTVSPost2010PropOp32
 70
     1
102
RTVSPost2010Prop33
280
     0
102
RTVSPost2010PropOp33
 70
     1
102
RTVSPost2010Prop34
280
     0
102
RTVSPost2010PropOp34
 70
     1
102
RTVSPost2010Prop35
280
     0
102
RTVSPost2010PropOp35
 70
     1
102
RTVSPost2010Prop36
280
     0
102
RTVSPost2010PropOp36
 70
     1
102
RTVSPost2010Prop37
 90
       50
102
RTVSPost2010PropOp37
 70
     0
102
RTVSPost2010Prop38
140
0.0
102
RTVSPost2010PropOp38
 70
     0
102
RTVSPost2010Prop39
140
1.0
102
RTVSPost2010PropOp39
 70
     0
102
RTVSPost2010Prop40
 90
        0
102
RTVSPost2010PropOp40
 70
     0
102
RTVSPost2010Prop41ColorIndex
 90
       18
102
RTVSPost2010Prop41ColorRGB
 90
        0
102
RTVSPost2010PropOp41
 70
     0
102
RTVSPost2010Prop42
 90
       50
102
RTVSPost2010PropOp42
 70
     0
102
RTVSPost2010Prop43
 90
        3
102
RTVSPost2010PropOp43
 70
     0
102
RTVSPost2010Prop44ColorIndex
 90
        5
102
RTVSPost2010Prop44ColorRGB
 90
      255
102
RTVSPost2010PropOp44
 70
     0
102
RTVSPost2010Prop45
280
     0
102
RTVSPost2010PropOp45
 70
     1
102
RTVSPost2010Prop46
 90
       50
102
RTVSPost2010PropOp46
 70
     0
102
RTVSPost2010Prop47
 90
       50
102
RTVSPost2010PropOp47
 70
     0
102
RTVSPost2010Prop48
 90
       50
102
RTVSPost2010PropOp48
 70
     0
102
RTVSPost2010Prop49
280
     0
102
RTVSPost2010PropOp49
 70
     1
102
RTVSPost2010Prop50
 90
       50
102
RTVSPost2010PropOp50
 70
     0
102
RTVSPost2010Prop51ColorIndex
 90
      256
102
RTVSPost2010Prop51ColorRGB
 90
-16777216
102
RTVSPost2010PropOp51
 70
     0
102
RTVSPost2010Prop52
140
1.0
102
RTVSPost2010PropOp52
 70
     0
102
RTVSPost2010Prop53
 90
        2
102
RTVSPost2010PropOp53
 70
     0
102
RTVSPost2010Prop54
  1
strokes_ogs.tif
102
RTVSPost2010PropOp54
 70
     0
102
RTVSPost2010Prop55
280
     0
102
RTVSPost2010PropOp55
 70
     1
102
RTVSPost2010Prop56
140
1.0
102
RTVSPost2010PropOp56
 70
     0
102
RTVSPost2010Prop57
140
1.0
102
RTVSPost2010PropOp57
 70
     0
102
RTVSPropertyOp0
 70
     0
102
RTVSPropertyOp1
 70
     0
102
RTVSPropertyOp2
 70
     0
102
RTVSPropertyOp3
 70
     0
102
RTVSPropertyOp4
 70
     0
102
RTVSPropertyOp5
 70
     0
102
RTVSPropertyOp6
 70
     0
102
RTVSPropertyOp7
 70
     0
102
RTVSPropertyOp8
 70
     0
102
RTVSPropertyOp9
 70
     0
102
RTVSPropertyOp10
 70
     0
102
RTVSPropertyOp11
 70
     0
102
RTVSPropertyOp12
 70
     0
102
RTVSPropertyOp13
 70
     0
102
RTVSPropertyOp14
 70
     2
102
RTVSPropertyOp15
 70
     0
102
RTVSPropertyOp16
 70
     0
102
RTVSPropertyOp17
 70
     0
102
RTVSPropertyOp18
 70
     0
102
RTVSPropertyOp19
 70
     0
102
RTVSPropertyOp20
 70
     0
102
RTVSPropertyOp21
 70
     0
102
RTVSPropertyOp22
 70
     0
102
RTVSPropertyOp23
 70
     0
102
RTVSPropertyOp24
 70
     0
102
RTVSPropertyOp25
 70
     0
102
RTVSPropertyOp26
 70
     0
102
RTVSPropertyOp27
 70
     0
102
RTVSPropertyOp28
 70
     1
102
RTVSPropertyOp29
 70
     1
102
RTVSPropertyOp30
 70
     1
102
RTVSPropertyOp31
 70
     1
102
RTVSPropertyOp32
 70
     1
102
RTVSPropertyOp33
 70
     1
102
RTVSPropertyOp34
 70
     1
102
RTVSPropertyOp35
 70
     1
102
RTVSPropertyOp36
 70
     1
102
RTVSPropertyOp37
 70
     0
102
RTVSPropertyOp38
 70
     0
102
RTVSPropertyOp39
 70
     0
102
RTVSPropertyOp40
 70
     0
102
RTVSPropertyOp41
 70
     0
102
RTVSPropertyOp42
 70
     0
102
RTVSPropertyOp43
 70
     0
102
RTVSPropertyOp44
 70
     0
102
RTVSPropertyOp45
 70
     1
102
RTVSPropertyOp46
 70
     0
102
RTVSPropertyOp47
 70
     0
102
RTVSPropertyOp48
 70
     0
102
RTVSPropertyOp49
 70
     1
102
RTVSPropertyOp50
 70
     0
102
RTVSPropertyOp51
 70
     0
102
RTVSPropertyOp52
 70
     0
102
RTVSPropertyOp53
 70
     0
102
RTVSPropertyOp54
 70
     0
102
RTVSPropertyOp55
 70
     1
102
RTVSPropertyOp56
 70
     0
102
RTVSPropertyOp57
 70
     0
102
RTVSPropertyOp58
 70
     0
102
RTVSPropertyOp59
 70
     0
102
RTVSPropertyOp60
 70
     0
102
RTVSPropertyOp61
 70
     0
102
RTVSPropertyOp62
 70
     0
  0
XRECORD
  5
189D
102
{ACAD_REACTORS
330
189C
102
}
330
189C
100
AcDbXrecord
280
     1
102
RTVSPost2010Prop28
280
     0
102
RTVSPost2010PropOp28
 70
     1
102
RTVSPost2010Prop29
280
     1
102
RTVSPost2010PropOp29
 70
     1
102
RTVSPost2010Prop30
280
     1
102
RTVSPost2010PropOp30
 70
     1
102
RTVSPost2010Prop31
280
     0
102
RTVSPost2010PropOp31
 70
     1
102
RTVSPost2010Prop32
280
     0
102
RTVSPost2010PropOp32
 70
     1
102
RTVSPost2010Prop33
280
     0
102
RTVSPost2010PropOp33
 70
     1
102
RTVSPost2010Prop34
280
     0
102
RTVSPost2010PropOp34
 70
     1
102
RTVSPost2010Prop35
280
     0
102
RTVSPost2010PropOp35
 70
     1
102
RTVSPost2010Prop36
280
     0
102
RTVSPost2010PropOp36
 70
     1
102
RTVSPost2010Prop37
 90
       50
102
RTVSPost2010PropOp37
 70
     1
102
RTVSPost2010Prop38
140
0.0
102
RTVSPost2010PropOp38
 70
     1
102
RTVSPost2010Prop39
140
1.0
102
RTVSPost2010PropOp39
 70
     1
102
RTVSPost2010Prop40
 90
        0
102
RTVSPost2010PropOp40
 70
     1
102
RTVSPost2010Prop41ColorIndex
 90
       18
102
RTVSPost2010Prop41ColorRGB
 90
        0
102
RTVSPost2010PropOp41
 70
     1
102
RTVSPost2010Prop42
 90
       50
102
RTVSPost2010PropOp42
 70
     1
102
RTVSPost2010Prop43
 90
        3
102
RTVSPost2010PropOp43
 70
     1
102
RTVSPost2010Prop44ColorIndex
 90
        5
102
RTVSPost2010Prop44ColorRGB
 90
      255
102
RTVSPost2010PropOp44
 70
     1
102
RTVSPost2010Prop45
280
     0
102
RTVSPost2010PropOp45
 70
     1
102
RTVSPost2010Prop46
 90
       50
102
RTVSPost2010PropOp46
 70
     1
102
RTVSPost2010Prop47
 90
       50
102
RTVSPost2010PropOp47
 70
     1
102
RTVSPost2010Prop48
 90
       50
102
RTVSPost2010PropOp48
 70
     1
102
RTVSPost2010Prop49
280
     0
102
RTVSPost2010PropOp49
 70
     1
102
RTVSPost2010Prop50
 90
       50
102
RTVSPost2010PropOp50
 70
     1
102
RTVSPost2010Prop51ColorIndex
 90
      256
102
RTVSPost2010Prop51ColorRGB
 90
-16777216
102
RTVSPost2010PropOp51
 70
     0
102
RTVSPost2010Prop52
140
1.0
102
RTVSPost2010PropOp52
 70
     0
102
RTVSPost2010Prop53
 90
        2
102
RTVSPost2010PropOp53
 70
     1
102
RTVSPost2010Prop54
  1
strokes_ogs.tif
102
RTVSPost2010PropOp54
 70
     1
102
RTVSPost2010Prop55
280
     0
102
RTVSPost2010PropOp55
 70
     1
102
RTVSPost2010Prop56
140
1.0
102
RTVSPost2010PropOp56
 70
     1
102
RTVSPost2010Prop57
140
1.0
102
RTVSPost2010PropOp57
 70
     1
102
RTVSPropertyOp0
 70
     1
102
RTVSPropertyOp1
 70
     1
102
RTVSPropertyOp2
 70
     1
102
RTVSPropertyOp3
 70
     1
102
RTVSPropertyOp4
 70
     1
102
RTVSPropertyOp5
 70
     1
102
RTVSPropertyOp6
 70
     1
102
RTVSPropertyOp7
 70
     1
102
RTVSPropertyOp8
 70
     1
102
RTVSPropertyOp9
 70
     1
102
RTVSPropertyOp10
 70
     1
102
RTVSPropertyOp11
 70
     1
102
RTVSPropertyOp12
 70
     1
102
RTVSPropertyOp13
 70
     1
102
RTVSPropertyOp14
 70
     1
102
RTVSPropertyOp15
 70
     1
102
RTVSPropertyOp16
 70
     1
102
RTVSPropertyOp17
 70
     1
102
RTVSPropertyOp18
 70
     1
102
RTVSPropertyOp19
 70
     1
102
RTVSPropertyOp20
 70
     1
102
RTVSPropertyOp21
 70
     1
102
RTVSPropertyOp22
 70
     1
102
RTVSPropertyOp23
 70
     1
102
RTVSPropertyOp24
 70
     1
102
RTVSPropertyOp25
 70
     1
102
RTVSPropertyOp26
 70
     1
102
RTVSPropertyOp27
 70
     1
102
RTVSPropertyOp28
 70
     1
102
RTVSPropertyOp29
 70
     1
102
RTVSPropertyOp30
 70
     1
102
RTVSPropertyOp31
 70
     1
102
RTVSPropertyOp32
 70
     1
102
RTVSPropertyOp33
 70
     1
102
RTVSPropertyOp34
 70
     1
102
RTVSPropertyOp35
 70
     1
102
RTVSPropertyOp36
 70
     1
102
RTVSPropertyOp37
 70
     1
102
RTVSPropertyOp38
 70
     1
102
RTVSPropertyOp39
 70
     1
102
RTVSPropertyOp40
 70
     1
102
RTVSPropertyOp41
 70
     1
102
RTVSPropertyOp42
 70
     1
102
RTVSPropertyOp43
 70
     1
102
RTVSPropertyOp44
 70
     1
102
RTVSPropertyOp45
 70
     1
102
RTVSPropertyOp46
 70
     1
102
RTVSPropertyOp47
 70
     1
102
RTVSPropertyOp48
 70
     1
102
RTVSPropertyOp49
 70
     1
102
RTVSPropertyOp50
 70
     1
102
RTVSPropertyOp51
 70
     0
102
RTVSPropertyOp52
 70
     0
102
RTVSPropertyOp53
 70
     1
102
RTVSPropertyOp54
 70
     1
102
RTVSPropertyOp55
 70
     1
102
RTVSPropertyOp56
 70
     1
102
RTVSPropertyOp57
 70
     1
102
RTVSPropertyOp58
 70
     1
102
RTVSPropertyOp59
 70
     1
102
RTVSPropertyOp60
 70
     1
102
RTVSPropertyOp61
 70
     1
102
RTVSPropertyOp62
 70
     1
  0
XRECORD
  5
18B3
102
{ACAD_REACTORS
330
18B2
102
}
330
18B2
100
AcDbXrecord
280
     1
102
RTVSPost2010Prop28
280
     0
102
RTVSPost2010PropOp28
 70
     1
102
RTVSPost2010Prop29
280
     1
102
RTVSPost2010PropOp29
 70
     1
102
RTVSPost2010Prop30
280
     1
102
RTVSPost2010PropOp30
 70
     1
102
RTVSPost2010Prop31
280
     0
102
RTVSPost2010PropOp31
 70
     1
102
RTVSPost2010Prop32
280
     0
102
RTVSPost2010PropOp32
 70
     1
102
RTVSPost2010Prop33
280
     0
102
RTVSPost2010PropOp33
 70
     1
102
RTVSPost2010Prop34
280
     0
102
RTVSPost2010PropOp34
 70
     1
102
RTVSPost2010Prop35
280
     0
102
RTVSPost2010PropOp35
 70
     1
102
RTVSPost2010Prop36
280
     0
102
RTVSPost2010PropOp36
 70
     1
102
RTVSPost2010Prop37
 90
       50
102
RTVSPost2010PropOp37
 70
     1
102
RTVSPost2010Prop38
140
0.0
102
RTVSPost2010PropOp38
 70
     1
102
RTVSPost2010Prop39
140
1.0
102
RTVSPost2010PropOp39
 70
     1
102
RTVSPost2010Prop40
 90
        0
102
RTVSPost2010PropOp40
 70
     1
102
RTVSPost2010Prop41ColorIndex
 90
       18
102
RTVSPost2010Prop41ColorRGB
 90
        0
102
RTVSPost2010PropOp41
 70
     1
102
RTVSPost2010Prop42
 90
       50
102
RTVSPost2010PropOp42
 70
     1
102
RTVSPost2010Prop43
 90
        3
102
RTVSPost2010PropOp43
 70
     1
102
RTVSPost2010Prop44ColorIndex
 90
        5
102
RTVSPost2010Prop44ColorRGB
 90
      255
102
RTVSPost2010PropOp44
 70
     1
102
RTVSPost2010Prop45
280
     0
102
RTVSPost2010PropOp45
 70
     1
102
RTVSPost2010Prop46
 90
       50
102
RTVSPost2010PropOp46
 70
     1
102
RTVSPost2010Prop47
 90
       50
102
RTVSPost2010PropOp47
 70
     1
102
RTVSPost2010Prop48
 90
       50
102
RTVSPost2010PropOp48
 70
     1
102
RTVSPost2010Prop49
280
     0
102
RTVSPost2010PropOp49
 70
     1
102
RTVSPost2010Prop50
 90
       50
102
RTVSPost2010PropOp50
 70
     1
102
RTVSPost2010Prop51ColorIndex
 90
      256
102
RTVSPost2010Prop51ColorRGB
 90
-16777216
102
RTVSPost2010PropOp51
 70
     0
102
RTVSPost2010Prop52
140
1.0
102
RTVSPost2010PropOp52
 70
     0
102
RTVSPost2010Prop53
 90
        2
102
RTVSPost2010PropOp53
 70
     1
102
RTVSPost2010Prop54
  1
strokes_ogs.tif
102
RTVSPost2010PropOp54
 70
     1
102
RTVSPost2010Prop55
280
     0
102
RTVSPost2010PropOp55
 70
     1
102
RTVSPost2010Prop56
140
1.0
102
RTVSPost2010PropOp56
 70
     1
102
RTVSPost2010Prop57
140
1.0
102
RTVSPost2010PropOp57
 70
     1
102
RTVSPropertyOp0
 70
     1
102
RTVSPropertyOp1
 70
     1
102
RTVSPropertyOp2
 70
     1
102
RTVSPropertyOp3
 70
     1
102
RTVSPropertyOp4
 70
     1
102
RTVSPropertyOp5
 70
     1
102
RTVSPropertyOp6
 70
     1
102
RTVSPropertyOp7
 70
     1
102
RTVSPropertyOp8
 70
     1
102
RTVSPropertyOp9
 70
     1
102
RTVSPropertyOp10
 70
     1
102
RTVSPropertyOp11
 70
     1
102
RTVSPropertyOp12
 70
     1
102
RTVSPropertyOp13
 70
     1
102
RTVSPropertyOp14
 70
     1
102
RTVSPropertyOp15
 70
     1
102
RTVSPropertyOp16
 70
     1
102
RTVSPropertyOp17
 70
     1
102
RTVSPropertyOp18
 70
     1
102
RTVSPropertyOp19
 70
     1
102
RTVSPropertyOp20
 70
     1
102
RTVSPropertyOp21
 70
     1
102
RTVSPropertyOp22
 70
     1
102
RTVSPropertyOp23
 70
     1
102
RTVSPropertyOp24
 70
     1
102
RTVSPropertyOp25
 70
     1
102
RTVSPropertyOp26
 70
     1
102
RTVSPropertyOp27
 70
     1
102
RTVSPropertyOp28
 70
     1
102
RTVSPropertyOp29
 70
     1
102
RTVSPropertyOp30
 70
     1
102
RTVSPropertyOp31
 70
     1
102
RTVSPropertyOp32
 70
     1
102
RTVSPropertyOp33
 70
     1
102
RTVSPropertyOp34
 70
     1
102
RTVSPropertyOp35
 70
     1
102
RTVSPropertyOp36
 70
     1
102
RTVSPropertyOp37
 70
     1
102
RTVSPropertyOp38
 70
     1
102
RTVSPropertyOp39
 70
     1
102
RTVSPropertyOp40
 70
     1
102
RTVSPropertyOp41
 70
     1
102
RTVSPropertyOp42
 70
     1
102
RTVSPropertyOp43
 70
     1
102
RTVSPropertyOp44
 70
     1
102
RTVSPropertyOp45
 70
     1
102
RTVSPropertyOp46
 70
     1
102
RTVSPropertyOp47
 70
     1
102
RTVSPropertyOp48
 70
     1
102
RTVSPropertyOp49
 70
     1
102
RTVSPropertyOp50
 70
     1
102
RTVSPropertyOp51
 70
     0
102
RTVSPropertyOp52
 70
     0
102
RTVSPropertyOp53
 70
     1
102
RTVSPropertyOp54
 70
     1
102
RTVSPropertyOp55
 70
     1
102
RTVSPropertyOp56
 70
     1
102
RTVSPropertyOp57
 70
     1
102
RTVSPropertyOp58
 70
     1
102
RTVSPropertyOp59
 70
     1
102
RTVSPropertyOp60
 70
     1
102
RTVSPropertyOp61
 70
     1
102
RTVSPropertyOp62
 70
     1
  0
XRECORD
  5
18B1
102
{ACAD_REACTORS
330
18B0
102
}
330
18B0
100
AcDbXrecord
280
     1
102
RTVSPost2010Prop28
280
     0
102
RTVSPost2010PropOp28
 70
     1
102
RTVSPost2010Prop29
280
     1
102
RTVSPost2010PropOp29
 70
     1
102
RTVSPost2010Prop30
280
     1
102
RTVSPost2010PropOp30
 70
     1
102
RTVSPost2010Prop31
280
     0
102
RTVSPost2010PropOp31
 70
     1
102
RTVSPost2010Prop32
280
     0
102
RTVSPost2010PropOp32
 70
     1
102
RTVSPost2010Prop33
280
     0
102
RTVSPost2010PropOp33
 70
     1
102
RTVSPost2010Prop34
280
     0
102
RTVSPost2010PropOp34
 70
     1
102
RTVSPost2010Prop35
280
     0
102
RTVSPost2010PropOp35
 70
     1
102
RTVSPost2010Prop36
280
     0
102
RTVSPost2010PropOp36
 70
     1
102
RTVSPost2010Prop37
 90
       50
102
RTVSPost2010PropOp37
 70
     1
102
RTVSPost2010Prop38
140
0.0
102
RTVSPost2010PropOp38
 70
     1
102
RTVSPost2010Prop39
140
1.0
102
RTVSPost2010PropOp39
 70
     1
102
RTVSPost2010Prop40
 90
        0
102
RTVSPost2010PropOp40
 70
     1
102
RTVSPost2010Prop41ColorIndex
 90
       18
102
RTVSPost2010Prop41ColorRGB
 90
        0
102
RTVSPost2010PropOp41
 70
     1
102
RTVSPost2010Prop42
 90
       50
102
RTVSPost2010PropOp42
 70
     1
102
RTVSPost2010Prop43
 90
        3
102
RTVSPost2010PropOp43
 70
     1
102
RTVSPost2010Prop44ColorIndex
 90
        5
102
RTVSPost2010Prop44ColorRGB
 90
      255
102
RTVSPost2010PropOp44
 70
     1
102
RTVSPost2010Prop45
280
     0
102
RTVSPost2010PropOp45
 70
     1
102
RTVSPost2010Prop46
 90
       50
102
RTVSPost2010PropOp46
 70
     1
102
RTVSPost2010Prop47
 90
       50
102
RTVSPost2010PropOp47
 70
     1
102
RTVSPost2010Prop48
 90
       50
102
RTVSPost2010PropOp48
 70
     1
102
RTVSPost2010Prop49
280
     0
102
RTVSPost2010PropOp49
 70
     1
102
RTVSPost2010Prop50
 90
       50
102
RTVSPost2010PropOp50
 70
     1
102
RTVSPost2010Prop51ColorIndex
 90
      256
102
RTVSPost2010Prop51ColorRGB
 90
-16777216
102
RTVSPost2010PropOp51
 70
     0
102
RTVSPost2010Prop52
140
1.0
102
RTVSPost2010PropOp52
 70
     0
102
RTVSPost2010Prop53
 90
        2
102
RTVSPost2010PropOp53
 70
     1
102
RTVSPost2010Prop54
  1
strokes_ogs.tif
102
RTVSPost2010PropOp54
 70
     1
102
RTVSPost2010Prop55
280
     0
102
RTVSPost2010PropOp55
 70
     1
102
RTVSPost2010Prop56
140
1.0
102
RTVSPost2010PropOp56
 70
     1
102
RTVSPost2010Prop57
140
1.0
102
RTVSPost2010PropOp57
 70
     1
102
RTVSPropertyOp0
 70
     1
102
RTVSPropertyOp1
 70
     1
102
RTVSPropertyOp2
 70
     1
102
RTVSPropertyOp3
 70
     1
102
RTVSPropertyOp4
 70
     1
102
RTVSPropertyOp5
 70
     1
102
RTVSPropertyOp6
 70
     1
102
RTVSPropertyOp7
 70
     1
102
RTVSPropertyOp8
 70
     1
102
RTVSPropertyOp9
 70
     1
102
RTVSPropertyOp10
 70
     1
102
RTVSPropertyOp11
 70
     1
102
RTVSPropertyOp12
 70
     1
102
RTVSPropertyOp13
 70
     1
102
RTVSPropertyOp14
 70
     1
102
RTVSPropertyOp15
 70
     1
102
RTVSPropertyOp16
 70
     1
102
RTVSPropertyOp17
 70
     1
102
RTVSPropertyOp18
 70
     1
102
RTVSPropertyOp19
 70
     1
102
RTVSPropertyOp20
 70
     1
102
RTVSPropertyOp21
 70
     1
102
RTVSPropertyOp22
 70
     1
102
RTVSPropertyOp23
 70
     1
102
RTVSPropertyOp24
 70
     1
102
RTVSPropertyOp25
 70
     1
102
RTVSPropertyOp26
 70
     1
102
RTVSPropertyOp27
 70
     1
102
RTVSPropertyOp28
 70
     1
102
RTVSPropertyOp29
 70
     1
102
RTVSPropertyOp30
 70
     1
102
RTVSPropertyOp31
 70
     1
102
RTVSPropertyOp32
 70
     1
102
RTVSPropertyOp33
 70
     1
102
RTVSPropertyOp34
 70
     1
102
RTVSPropertyOp35
 70
     1
102
RTVSPropertyOp36
 70
     1
102
RTVSPropertyOp37
 70
     1
102
RTVSPropertyOp38
 70
     1
102
RTVSPropertyOp39
 70
     1
102
RTVSPropertyOp40
 70
     1
102
RTVSPropertyOp41
 70
     1
102
RTVSPropertyOp42
 70
     1
102
RTVSPropertyOp43
 70
     1
102
RTVSPropertyOp44
 70
     1
102
RTVSPropertyOp45
 70
     1
102
RTVSPropertyOp46
 70
     1
102
RTVSPropertyOp47
 70
     1
102
RTVSPropertyOp48
 70
     1
102
RTVSPropertyOp49
 70
     1
102
RTVSPropertyOp50
 70
     1
102
RTVSPropertyOp51
 70
     0
102
RTVSPropertyOp52
 70
     0
102
RTVSPropertyOp53
 70
     1
102
RTVSPropertyOp54
 70
     1
102
RTVSPropertyOp55
 70
     1
102
RTVSPropertyOp56
 70
     1
102
RTVSPropertyOp57
 70
     1
102
RTVSPropertyOp58
 70
     1
102
RTVSPropertyOp59
 70
     1
102
RTVSPropertyOp60
 70
     1
102
RTVSPropertyOp61
 70
     1
102
RTVSPropertyOp62
 70
     1
  0
XRECORD
  5
18AB
102
{ACAD_REACTORS
330
18AA
102
}
330
18AA
100
AcDbXrecord
280
     1
102
RTVSPost2010Prop28
280
     0
102
RTVSPost2010PropOp28
 70
     1
102
RTVSPost2010Prop29
280
     1
102
RTVSPost2010PropOp29
 70
     1
102
RTVSPost2010Prop30
280
     1
102
RTVSPost2010PropOp30
 70
     1
102
RTVSPost2010Prop31
280
     0
102
RTVSPost2010PropOp31
 70
     1
102
RTVSPost2010Prop32
280
     0
102
RTVSPost2010PropOp32
 70
     1
102
RTVSPost2010Prop33
280
     0
102
RTVSPost2010PropOp33
 70
     1
102
RTVSPost2010Prop34
280
     0
102
RTVSPost2010PropOp34
 70
     1
102
RTVSPost2010Prop35
280
     0
102
RTVSPost2010PropOp35
 70
     1
102
RTVSPost2010Prop36
280
     0
102
RTVSPost2010PropOp36
 70
     1
102
RTVSPost2010Prop37
 90
       50
102
RTVSPost2010PropOp37
 70
     1
102
RTVSPost2010Prop38
140
0.0
102
RTVSPost2010PropOp38
 70
     1
102
RTVSPost2010Prop39
140
1.0
102
RTVSPost2010PropOp39
 70
     1
102
RTVSPost2010Prop40
 90
        0
102
RTVSPost2010PropOp40
 70
     1
102
RTVSPost2010Prop41ColorIndex
 90
       18
102
RTVSPost2010Prop41ColorRGB
 90
        0
102
RTVSPost2010PropOp41
 70
     1
102
RTVSPost2010Prop42
 90
       50
102
RTVSPost2010PropOp42
 70
     1
102
RTVSPost2010Prop43
 90
        3
102
RTVSPost2010PropOp43
 70
     1
102
RTVSPost2010Prop44ColorIndex
 90
        5
102
RTVSPost2010Prop44ColorRGB
 90
      255
102
RTVSPost2010PropOp44
 70
     1
102
RTVSPost2010Prop45
280
     0
102
RTVSPost2010PropOp45
 70
     1
102
RTVSPost2010Prop46
 90
       50
102
RTVSPost2010PropOp46
 70
     1
102
RTVSPost2010Prop47
 90
       50
102
RTVSPost2010PropOp47
 70
     1
102
RTVSPost2010Prop48
 90
       50
102
RTVSPost2010PropOp48
 70
     1
102
RTVSPost2010Prop49
280
     0
102
RTVSPost2010PropOp49
 70
     1
102
RTVSPost2010Prop50
 90
       50
102
RTVSPost2010PropOp50
 70
     1
102
RTVSPost2010Prop51ColorIndex
 90
      256
102
RTVSPost2010Prop51ColorRGB
 90
-16777216
102
RTVSPost2010PropOp51
 70
     0
102
RTVSPost2010Prop52
140
1.0
102
RTVSPost2010PropOp52
 70
     0
102
RTVSPost2010Prop53
 90
        2
102
RTVSPost2010PropOp53
 70
     1
102
RTVSPost2010Prop54
  1
strokes_ogs.tif
102
RTVSPost2010PropOp54
 70
     1
102
RTVSPost2010Prop55
280
     0
102
RTVSPost2010PropOp55
 70
     1
102
RTVSPost2010Prop56
140
1.0
102
RTVSPost2010PropOp56
 70
     1
102
RTVSPost2010Prop57
140
1.0
102
RTVSPost2010PropOp57
 70
     1
102
RTVSPropertyOp0
 70
     1
102
RTVSPropertyOp1
 70
     1
102
RTVSPropertyOp2
 70
     1
102
RTVSPropertyOp3
 70
     1
102
RTVSPropertyOp4
 70
     1
102
RTVSPropertyOp5
 70
     1
102
RTVSPropertyOp6
 70
     1
102
RTVSPropertyOp7
 70
     1
102
RTVSPropertyOp8
 70
     1
102
RTVSPropertyOp9
 70
     1
102
RTVSPropertyOp10
 70
     1
102
RTVSPropertyOp11
 70
     1
102
RTVSPropertyOp12
 70
     1
102
RTVSPropertyOp13
 70
     1
102
RTVSPropertyOp14
 70
     1
102
RTVSPropertyOp15
 70
     1
102
RTVSPropertyOp16
 70
     1
102
RTVSPropertyOp17
 70
     1
102
RTVSPropertyOp18
 70
     1
102
RTVSPropertyOp19
 70
     1
102
RTVSPropertyOp20
 70
     1
102
RTVSPropertyOp21
 70
     1
102
RTVSPropertyOp22
 70
     1
102
RTVSPropertyOp23
 70
     1
102
RTVSPropertyOp24
 70
     1
102
RTVSPropertyOp25
 70
     1
102
RTVSPropertyOp26
 70
     1
102
RTVSPropertyOp27
 70
     1
102
RTVSPropertyOp28
 70
     1
102
RTVSPropertyOp29
 70
     1
102
RTVSPropertyOp30
 70
     1
102
RTVSPropertyOp31
 70
     1
102
RTVSPropertyOp32
 70
     1
102
RTVSPropertyOp33
 70
     1
102
RTVSPropertyOp34
 70
     1
102
RTVSPropertyOp35
 70
     1
102
RTVSPropertyOp36
 70
     1
102
RTVSPropertyOp37
 70
     1
102
RTVSPropertyOp38
 70
     1
102
RTVSPropertyOp39
 70
     1
102
RTVSPropertyOp40
 70
     1
102
RTVSPropertyOp41
 70
     1
102
RTVSPropertyOp42
 70
     1
102
RTVSPropertyOp43
 70
     1
102
RTVSPropertyOp44
 70
     1
102
RTVSPropertyOp45
 70
     1
102
RTVSPropertyOp46
 70
     1
102
RTVSPropertyOp47
 70
     1
102
RTVSPropertyOp48
 70
     1
102
RTVSPropertyOp49
 70
     1
102
RTVSPropertyOp50
 70
     1
102
RTVSPropertyOp51
 70
     0
102
RTVSPropertyOp52
 70
     0
102
RTVSPropertyOp53
 70
     1
102
RTVSPropertyOp54
 70
     1
102
RTVSPropertyOp55
 70
     1
102
RTVSPropertyOp56
 70
     1
102
RTVSPropertyOp57
 70
     1
102
RTVSPropertyOp58
 70
     1
102
RTVSPropertyOp59
 70
     1
102
RTVSPropertyOp60
 70
     1
102
RTVSPropertyOp61
 70
     1
102
RTVSPropertyOp62
 70
     1
  0
XRECORD
  5
18AD
102
{ACAD_REACTORS
330
18AC
102
}
330
18AC
100
AcDbXrecord
280
     1
102
RTVSPost2010Prop28
280
     0
102
RTVSPost2010PropOp28
 70
     1
102
RTVSPost2010Prop29
280
     1
102
RTVSPost2010PropOp29
 70
     1
102
RTVSPost2010Prop30
280
     1
102
RTVSPost2010PropOp30
 70
     1
102
RTVSPost2010Prop31
280
     0
102
RTVSPost2010PropOp31
 70
     1
102
RTVSPost2010Prop32
280
     0
102
RTVSPost2010PropOp32
 70
     1
102
RTVSPost2010Prop33
280
     0
102
RTVSPost2010PropOp33
 70
     1
102
RTVSPost2010Prop34
280
     0
102
RTVSPost2010PropOp34
 70
     1
102
RTVSPost2010Prop35
280
     0
102
RTVSPost2010PropOp35
 70
     1
102
RTVSPost2010Prop36
280
     0
102
RTVSPost2010PropOp36
 70
     1
102
RTVSPost2010Prop37
 90
       50
102
RTVSPost2010PropOp37
 70
     1
102
RTVSPost2010Prop38
140
0.0
102
RTVSPost2010PropOp38
 70
     1
102
RTVSPost2010Prop39
140
1.0
102
RTVSPost2010PropOp39
 70
     1
102
RTVSPost2010Prop40
 90
        0
102
RTVSPost2010PropOp40
 70
     1
102
RTVSPost2010Prop41ColorIndex
 90
       18
102
RTVSPost2010Prop41ColorRGB
 90
        0
102
RTVSPost2010PropOp41
 70
     1
102
RTVSPost2010Prop42
 90
       50
102
RTVSPost2010PropOp42
 70
     1
102
RTVSPost2010Prop43
 90
        3
102
RTVSPost2010PropOp43
 70
     1
102
RTVSPost2010Prop44ColorIndex
 90
        5
102
RTVSPost2010Prop44ColorRGB
 90
      255
102
RTVSPost2010PropOp44
 70
     1
102
RTVSPost2010Prop45
280
     0
102
RTVSPost2010PropOp45
 70
     1
102
RTVSPost2010Prop46
 90
       50
102
RTVSPost2010PropOp46
 70
     1
102
RTVSPost2010Prop47
 90
       50
102
RTVSPost2010PropOp47
 70
     1
102
RTVSPost2010Prop48
 90
       50
102
RTVSPost2010PropOp48
 70
     1
102
RTVSPost2010Prop49
280
     0
102
RTVSPost2010PropOp49
 70
     1
102
RTVSPost2010Prop50
 90
       50
102
RTVSPost2010PropOp50
 70
     1
102
RTVSPost2010Prop51ColorIndex
 90
      256
102
RTVSPost2010Prop51ColorRGB
 90
-16777216
102
RTVSPost2010PropOp51
 70
     0
102
RTVSPost2010Prop52
140
1.0
102
RTVSPost2010PropOp52
 70
     0
102
RTVSPost2010Prop53
 90
        2
102
RTVSPost2010PropOp53
 70
     1
102
RTVSPost2010Prop54
  1
strokes_ogs.tif
102
RTVSPost2010PropOp54
 70
     1
102
RTVSPost2010Prop55
280
     0
102
RTVSPost2010PropOp55
 70
     1
102
RTVSPost2010Prop56
140
1.0
102
RTVSPost2010PropOp56
 70
     1
102
RTVSPost2010Prop57
140
1.0
102
RTVSPost2010PropOp57
 70
     1
102
RTVSPropertyOp0
 70
     1
102
RTVSPropertyOp1
 70
     1
102
RTVSPropertyOp2
 70
     1
102
RTVSPropertyOp3
 70
     1
102
RTVSPropertyOp4
 70
     1
102
RTVSPropertyOp5
 70
     1
102
RTVSPropertyOp6
 70
     1
102
RTVSPropertyOp7
 70
     1
102
RTVSPropertyOp8
 70
     1
102
RTVSPropertyOp9
 70
     1
102
RTVSPropertyOp10
 70
     1
102
RTVSPropertyOp11
 70
     1
102
RTVSPropertyOp12
 70
     1
102
RTVSPropertyOp13
 70
     1
102
RTVSPropertyOp14
 70
     1
102
RTVSPropertyOp15
 70
     1
102
RTVSPropertyOp16
 70
     1
102
RTVSPropertyOp17
 70
     1
102
RTVSPropertyOp18
 70
     1
102
RTVSPropertyOp19
 70
     1
102
RTVSPropertyOp20
 70
     1
102
RTVSPropertyOp21
 70
     1
102
RTVSPropertyOp22
 70
     1
102
RTVSPropertyOp23
 70
     1
102
RTVSPropertyOp24
 70
     1
102
RTVSPropertyOp25
 70
     1
102
RTVSPropertyOp26
 70
     1
102
RTVSPropertyOp27
 70
     1
102
RTVSPropertyOp28
 70
     1
102
RTVSPropertyOp29
 70
     1
102
RTVSPropertyOp30
 70
     1
102
RTVSPropertyOp31
 70
     1
102
RTVSPropertyOp32
 70
     1
102
RTVSPropertyOp33
 70
     1
102
RTVSPropertyOp34
 70
     1
102
RTVSPropertyOp35
 70
     1
102
RTVSPropertyOp36
 70
     1
102
RTVSPropertyOp37
 70
     1
102
RTVSPropertyOp38
 70
     1
102
RTVSPropertyOp39
 70
     1
102
RTVSPropertyOp40
 70
     1
102
RTVSPropertyOp41
 70
     1
102
RTVSPropertyOp42
 70
     1
102
RTVSPropertyOp43
 70
     1
102
RTVSPropertyOp44
 70
     1
102
RTVSPropertyOp45
 70
     1
102
RTVSPropertyOp46
 70
     1
102
RTVSPropertyOp47
 70
     1
102
RTVSPropertyOp48
 70
     1
102
RTVSPropertyOp49
 70
     1
102
RTVSPropertyOp50
 70
     1
102
RTVSPropertyOp51
 70
     0
102
RTVSPropertyOp52
 70
     0
102
RTVSPropertyOp53
 70
     1
102
RTVSPropertyOp54
 70
     1
102
RTVSPropertyOp55
 70
     1
102
RTVSPropertyOp56
 70
     1
102
RTVSPropertyOp57
 70
     1
102
RTVSPropertyOp58
 70
     1
102
RTVSPropertyOp59
 70
     1
102
RTVSPropertyOp60
 70
     1
102
RTVSPropertyOp61
 70
     1
102
RTVSPropertyOp62
 70
     1
  0
XRECORD
  5
18A3
102
{ACAD_REACTORS
330
18A2
102
}
330
18A2
100
AcDbXrecord
280
     1
102
RTVSPost2010Prop28
280
     0
102
RTVSPost2010PropOp28
 70
     1
102
RTVSPost2010Prop29
280
     1
102
RTVSPost2010PropOp29
 70
     1
102
RTVSPost2010Prop30
280
     1
102
RTVSPost2010PropOp30
 70
     1
102
RTVSPost2010Prop31
280
     0
102
RTVSPost2010PropOp31
 70
     1
102
RTVSPost2010Prop32
280
     0
102
RTVSPost2010PropOp32
 70
     1
102
RTVSPost2010Prop33
280
     0
102
RTVSPost2010PropOp33
 70
     1
102
RTVSPost2010Prop34
280
     0
102
RTVSPost2010PropOp34
 70
     1
102
RTVSPost2010Prop35
280
     0
102
RTVSPost2010PropOp35
 70
     1
102
RTVSPost2010Prop36
280
     0
102
RTVSPost2010PropOp36
 70
     1
102
RTVSPost2010Prop37
 90
       50
102
RTVSPost2010PropOp37
 70
     1
102
RTVSPost2010Prop38
140
0.0
102
RTVSPost2010PropOp38
 70
     1
102
RTVSPost2010Prop39
140
1.0
102
RTVSPost2010PropOp39
 70
     1
102
RTVSPost2010Prop40
 90
        0
102
RTVSPost2010PropOp40
 70
     1
102
RTVSPost2010Prop41ColorIndex
 90
       18
102
RTVSPost2010Prop41ColorRGB
 90
        0
102
RTVSPost2010PropOp41
 70
     1
102
RTVSPost2010Prop42
 90
       50
102
RTVSPost2010PropOp42
 70
     1
102
RTVSPost2010Prop43
 90
        3
102
RTVSPost2010PropOp43
 70
     1
102
RTVSPost2010Prop44ColorIndex
 90
        5
102
RTVSPost2010Prop44ColorRGB
 90
      255
102
RTVSPost2010PropOp44
 70
     1
102
RTVSPost2010Prop45
280
     0
102
RTVSPost2010PropOp45
 70
     1
102
RTVSPost2010Prop46
 90
       50
102
RTVSPost2010PropOp46
 70
     1
102
RTVSPost2010Prop47
 90
       50
102
RTVSPost2010PropOp47
 70
     1
102
RTVSPost2010Prop48
 90
       50
102
RTVSPost2010PropOp48
 70
     1
102
RTVSPost2010Prop49
280
     0
102
RTVSPost2010PropOp49
 70
     1
102
RTVSPost2010Prop50
 90
       50
102
RTVSPost2010PropOp50
 70
     1
102
RTVSPost2010Prop51ColorIndex
 90
      256
102
RTVSPost2010Prop51ColorRGB
 90
-16777216
102
RTVSPost2010PropOp51
 70
     0
102
RTVSPost2010Prop52
140
1.0
102
RTVSPost2010PropOp52
 70
     0
102
RTVSPost2010Prop53
 90
        2
102
RTVSPost2010PropOp53
 70
     1
102
RTVSPost2010Prop54
  1
strokes_ogs.tif
102
RTVSPost2010PropOp54
 70
     1
102
RTVSPost2010Prop55
280
     0
102
RTVSPost2010PropOp55
 70
     1
102
RTVSPost2010Prop56
140
1.0
102
RTVSPost2010PropOp56
 70
     1
102
RTVSPost2010Prop57
140
1.0
102
RTVSPost2010PropOp57
 70
     1
102
RTVSPropertyOp0
 70
     1
102
RTVSPropertyOp1
 70
     1
102
RTVSPropertyOp2
 70
     1
102
RTVSPropertyOp3
 70
     1
102
RTVSPropertyOp4
 70
     1
102
RTVSPropertyOp5
 70
     1
102
RTVSPropertyOp6
 70
     1
102
RTVSPropertyOp7
 70
     1
102
RTVSPropertyOp8
 70
     1
102
RTVSPropertyOp9
 70
     1
102
RTVSPropertyOp10
 70
     1
102
RTVSPropertyOp11
 70
     1
102
RTVSPropertyOp12
 70
     1
102
RTVSPropertyOp13
 70
     1
102
RTVSPropertyOp14
 70
     1
102
RTVSPropertyOp15
 70
     1
102
RTVSPropertyOp16
 70
     1
102
RTVSPropertyOp17
 70
     1
102
RTVSPropertyOp18
 70
     1
102
RTVSPropertyOp19
 70
     1
102
RTVSPropertyOp20
 70
     1
102
RTVSPropertyOp21
 70
     1
102
RTVSPropertyOp22
 70
     1
102
RTVSPropertyOp23
 70
     1
102
RTVSPropertyOp24
 70
     1
102
RTVSPropertyOp25
 70
     1
102
RTVSPropertyOp26
 70
     1
102
RTVSPropertyOp27
 70
     1
102
RTVSPropertyOp28
 70
     1
102
RTVSPropertyOp29
 70
     1
102
RTVSPropertyOp30
 70
     1
102
RTVSPropertyOp31
 70
     1
102
RTVSPropertyOp32
 70
     1
102
RTVSPropertyOp33
 70
     1
102
RTVSPropertyOp34
 70
     1
102
RTVSPropertyOp35
 70
     1
102
RTVSPropertyOp36
 70
     1
102
RTVSPropertyOp37
 70
     1
102
RTVSPropertyOp38
 70
     1
102
RTVSPropertyOp39
 70
     1
102
RTVSPropertyOp40
 70
     1
102
RTVSPropertyOp41
 70
     1
102
RTVSPropertyOp42
 70
     1
102
RTVSPropertyOp43
 70
     1
102
RTVSPropertyOp44
 70
     1
102
RTVSPropertyOp45
 70
     1
102
RTVSPropertyOp46
 70
     1
102
RTVSPropertyOp47
 70
     1
102
RTVSPropertyOp48
 70
     1
102
RTVSPropertyOp49
 70
     1
102
RTVSPropertyOp50
 70
     1
102
RTVSPropertyOp51
 70
     0
102
RTVSPropertyOp52
 70
     0
102
RTVSPropertyOp53
 70
     1
102
RTVSPropertyOp54
 70
     1
102
RTVSPropertyOp55
 70
     1
102
RTVSPropertyOp56
 70
     1
102
RTVSPropertyOp57
 70
     1
102
RTVSPropertyOp58
 70
     1
102
RTVSPropertyOp59
 70
     1
102
RTVSPropertyOp60
 70
     1
102
RTVSPropertyOp61
 70
     1
102
RTVSPropertyOp62
 70
     1
  0
XRECORD
  5
1897
102
{ACAD_REACTORS
330
1896
102
}
330
1896
100
AcDbXrecord
280
     1
102
RTVSPost2010Prop28
280
     0
102
RTVSPost2010PropOp28
 70
     1
102
RTVSPost2010Prop29
280
     1
102
RTVSPost2010PropOp29
 70
     1
102
RTVSPost2010Prop30
280
     1
102
RTVSPost2010PropOp30
 70
     1
102
RTVSPost2010Prop31
280
     0
102
RTVSPost2010PropOp31
 70
     1
102
RTVSPost2010Prop32
280
     0
102
RTVSPost2010PropOp32
 70
     1
102
RTVSPost2010Prop33
280
     0
102
RTVSPost2010PropOp33
 70
     1
102
RTVSPost2010Prop34
280
     0
102
RTVSPost2010PropOp34
 70
     1
102
RTVSPost2010Prop35
280
     0
102
RTVSPost2010PropOp35
 70
     1
102
RTVSPost2010Prop36
280
     0
102
RTVSPost2010PropOp36
 70
     1
102
RTVSPost2010Prop37
 90
       50
102
RTVSPost2010PropOp37
 70
     1
102
RTVSPost2010Prop38
140
0.0
102
RTVSPost2010PropOp38
 70
     1
102
RTVSPost2010Prop39
140
1.0
102
RTVSPost2010PropOp39
 70
     1
102
RTVSPost2010Prop40
 90
        0
102
RTVSPost2010PropOp40
 70
     1
102
RTVSPost2010Prop41ColorIndex
 90
       18
102
RTVSPost2010Prop41ColorRGB
 90
        0
102
RTVSPost2010PropOp41
 70
     1
102
RTVSPost2010Prop42
 90
       50
102
RTVSPost2010PropOp42
 70
     1
102
RTVSPost2010Prop43
 90
        3
102
RTVSPost2010PropOp43
 70
     1
102
RTVSPost2010Prop44ColorIndex
 90
        5
102
RTVSPost2010Prop44ColorRGB
 90
      255
102
RTVSPost2010PropOp44
 70
     1
102
RTVSPost2010Prop45
280
     0
102
RTVSPost2010PropOp45
 70
     1
102
RTVSPost2010Prop46
 90
       50
102
RTVSPost2010PropOp46
 70
     1
102
RTVSPost2010Prop47
 90
       50
102
RTVSPost2010PropOp47
 70
     1
102
RTVSPost2010Prop48
 90
       50
102
RTVSPost2010PropOp48
 70
     1
102
RTVSPost2010Prop49
280
     0
102
RTVSPost2010PropOp49
 70
     1
102
RTVSPost2010Prop50
 90
       50
102
RTVSPost2010PropOp50
 70
     1
102
RTVSPost2010Prop51ColorIndex
 90
      256
102
RTVSPost2010Prop51ColorRGB
 90
-16777216
102
RTVSPost2010PropOp51
 70
     0
102
RTVSPost2010Prop52
140
1.0
102
RTVSPost2010PropOp52
 70
     0
102
RTVSPost2010Prop53
 90
        2
102
RTVSPost2010PropOp53
 70
     1
102
RTVSPost2010Prop54
  1
strokes_ogs.tif
102
RTVSPost2010PropOp54
 70
     1
102
RTVSPost2010Prop55
280
     0
102
RTVSPost2010PropOp55
 70
     1
102
RTVSPost2010Prop56
140
1.0
102
RTVSPost2010PropOp56
 70
     1
102
RTVSPost2010Prop57
140
1.0
102
RTVSPost2010PropOp57
 70
     1
102
RTVSPropertyOp0
 70
     1
102
RTVSPropertyOp1
 70
     1
102
RTVSPropertyOp2
 70
     1
102
RTVSPropertyOp3
 70
     1
102
RTVSPropertyOp4
 70
     1
102
RTVSPropertyOp5
 70
     1
102
RTVSPropertyOp6
 70
     1
102
RTVSPropertyOp7
 70
     1
102
RTVSPropertyOp8
 70
     1
102
RTVSPropertyOp9
 70
     1
102
RTVSPropertyOp10
 70
     1
102
RTVSPropertyOp11
 70
     1
102
RTVSPropertyOp12
 70
     1
102
RTVSPropertyOp13
 70
     1
102
RTVSPropertyOp14
 70
     1
102
RTVSPropertyOp15
 70
     1
102
RTVSPropertyOp16
 70
     1
102
RTVSPropertyOp17
 70
     1
102
RTVSPropertyOp18
 70
     1
102
RTVSPropertyOp19
 70
     1
102
RTVSPropertyOp20
 70
     1
102
RTVSPropertyOp21
 70
     1
102
RTVSPropertyOp22
 70
     1
102
RTVSPropertyOp23
 70
     1
102
RTVSPropertyOp24
 70
     1
102
RTVSPropertyOp25
 70
     1
102
RTVSPropertyOp26
 70
     1
102
RTVSPropertyOp27
 70
     1
102
RTVSPropertyOp28
 70
     1
102
RTVSPropertyOp29
 70
     1
102
RTVSPropertyOp30
 70
     1
102
RTVSPropertyOp31
 70
     1
102
RTVSPropertyOp32
 70
     1
102
RTVSPropertyOp33
 70
     1
102
RTVSPropertyOp34
 70
     1
102
RTVSPropertyOp35
 70
     1
102
RTVSPropertyOp36
 70
     1
102
RTVSPropertyOp37
 70
     1
102
RTVSPropertyOp38
 70
     1
102
RTVSPropertyOp39
 70
     1
102
RTVSPropertyOp40
 70
     1
102
RTVSPropertyOp41
 70
     1
102
RTVSPropertyOp42
 70
     1
102
RTVSPropertyOp43
 70
     1
102
RTVSPropertyOp44
 70
     1
102
RTVSPropertyOp45
 70
     1
102
RTVSPropertyOp46
 70
     1
102
RTVSPropertyOp47
 70
     1
102
RTVSPropertyOp48
 70
     1
102
RTVSPropertyOp49
 70
     1
102
RTVSPropertyOp50
 70
     1
102
RTVSPropertyOp51
 70
     0
102
RTVSPropertyOp52
 70
     0
102
RTVSPropertyOp53
 70
     1
102
RTVSPropertyOp54
 70
     1
102
RTVSPropertyOp55
 70
     1
102
RTVSPropertyOp56
 70
     1
102
RTVSPropertyOp57
 70
     1
102
RTVSPropertyOp58
 70
     1
102
RTVSPropertyOp59
 70
     1
102
RTVSPropertyOp60
 70
     1
102
RTVSPropertyOp61
 70
     1
102
RTVSPropertyOp62
 70
     1
  0
XRECORD
  5
18AF
102
{ACAD_REACTORS
330
18AE
102
}
330
18AE
100
AcDbXrecord
280
     1
102
RTVSPost2010Prop28
280
     0
102
RTVSPost2010PropOp28
 70
     1
102
RTVSPost2010Prop29
280
     1
102
RTVSPost2010PropOp29
 70
     1
102
RTVSPost2010Prop30
280
     1
102
RTVSPost2010PropOp30
 70
     1
102
RTVSPost2010Prop31
280
     0
102
RTVSPost2010PropOp31
 70
     1
102
RTVSPost2010Prop32
280
     0
102
RTVSPost2010PropOp32
 70
     1
102
RTVSPost2010Prop33
280
     0
102
RTVSPost2010PropOp33
 70
     1
102
RTVSPost2010Prop34
280
     0
102
RTVSPost2010PropOp34
 70
     1
102
RTVSPost2010Prop35
280
     0
102
RTVSPost2010PropOp35
 70
     1
102
RTVSPost2010Prop36
280
     0
102
RTVSPost2010PropOp36
 70
     1
102
RTVSPost2010Prop37
 90
       50
102
RTVSPost2010PropOp37
 70
     1
102
RTVSPost2010Prop38
140
0.0
102
RTVSPost2010PropOp38
 70
     1
102
RTVSPost2010Prop39
140
1.0
102
RTVSPost2010PropOp39
 70
     1
102
RTVSPost2010Prop40
 90
        0
102
RTVSPost2010PropOp40
 70
     1
102
RTVSPost2010Prop41ColorIndex
 90
       18
102
RTVSPost2010Prop41ColorRGB
 90
        0
102
RTVSPost2010PropOp41
 70
     1
102
RTVSPost2010Prop42
 90
       50
102
RTVSPost2010PropOp42
 70
     1
102
RTVSPost2010Prop43
 90
        3
102
RTVSPost2010PropOp43
 70
     1
102
RTVSPost2010Prop44ColorIndex
 90
        5
102
RTVSPost2010Prop44ColorRGB
 90
      255
102
RTVSPost2010PropOp44
 70
     1
102
RTVSPost2010Prop45
280
     0
102
RTVSPost2010PropOp45
 70
     1
102
RTVSPost2010Prop46
 90
       50
102
RTVSPost2010PropOp46
 70
     1
102
RTVSPost2010Prop47
 90
       50
102
RTVSPost2010PropOp47
 70
     1
102
RTVSPost2010Prop48
 90
       50
102
RTVSPost2010PropOp48
 70
     1
102
RTVSPost2010Prop49
280
     0
102
RTVSPost2010PropOp49
 70
     1
102
RTVSPost2010Prop50
 90
       50
102
RTVSPost2010PropOp50
 70
     1
102
RTVSPost2010Prop51ColorIndex
 90
      256
102
RTVSPost2010Prop51ColorRGB
 90
-16777216
102
RTVSPost2010PropOp51
 70
     0
102
RTVSPost2010Prop52
140
1.0
102
RTVSPost2010PropOp52
 70
     0
102
RTVSPost2010Prop53
 90
        2
102
RTVSPost2010PropOp53
 70
     1
102
RTVSPost2010Prop54
  1
strokes_ogs.tif
102
RTVSPost2010PropOp54
 70
     1
102
RTVSPost2010Prop55
280
     0
102
RTVSPost2010PropOp55
 70
     1
102
RTVSPost2010Prop56
140
1.0
102
RTVSPost2010PropOp56
 70
     1
102
RTVSPost2010Prop57
140
1.0
102
RTVSPost2010PropOp57
 70
     1
102
RTVSPropertyOp0
 70
     1
102
RTVSPropertyOp1
 70
     1
102
RTVSPropertyOp2
 70
     1
102
RTVSPropertyOp3
 70
     1
102
RTVSPropertyOp4
 70
     1
102
RTVSPropertyOp5
 70
     1
102
RTVSPropertyOp6
 70
     1
102
RTVSPropertyOp7
 70
     1
102
RTVSPropertyOp8
 70
     1
102
RTVSPropertyOp9
 70
     1
102
RTVSPropertyOp10
 70
     1
102
RTVSPropertyOp11
 70
     1
102
RTVSPropertyOp12
 70
     1
102
RTVSPropertyOp13
 70
     1
102
RTVSPropertyOp14
 70
     1
102
RTVSPropertyOp15
 70
     1
102
RTVSPropertyOp16
 70
     1
102
RTVSPropertyOp17
 70
     1
102
RTVSPropertyOp18
 70
     1
102
RTVSPropertyOp19
 70
     1
102
RTVSPropertyOp20
 70
     1
102
RTVSPropertyOp21
 70
     1
102
RTVSPropertyOp22
 70
     1
102
RTVSPropertyOp23
 70
     1
102
RTVSPropertyOp24
 70
     1
102
RTVSPropertyOp25
 70
     1
102
RTVSPropertyOp26
 70
     1
102
RTVSPropertyOp27
 70
     1
102
RTVSPropertyOp28
 70
     1
102
RTVSPropertyOp29
 70
     1
102
RTVSPropertyOp30
 70
     1
102
RTVSPropertyOp31
 70
     1
102
RTVSPropertyOp32
 70
     1
102
RTVSPropertyOp33
 70
     1
102
RTVSPropertyOp34
 70
     1
102
RTVSPropertyOp35
 70
     1
102
RTVSPropertyOp36
 70
     1
102
RTVSPropertyOp37
 70
     1
102
RTVSPropertyOp38
 70
     1
102
RTVSPropertyOp39
 70
     1
102
RTVSPropertyOp40
 70
     1
102
RTVSPropertyOp41
 70
     1
102
RTVSPropertyOp42
 70
     1
102
RTVSPropertyOp43
 70
     1
102
RTVSPropertyOp44
 70
     1
102
RTVSPropertyOp45
 70
     1
102
RTVSPropertyOp46
 70
     1
102
RTVSPropertyOp47
 70
     1
102
RTVSPropertyOp48
 70
     1
102
RTVSPropertyOp49
 70
     1
102
RTVSPropertyOp50
 70
     1
102
RTVSPropertyOp51
 70
     0
102
RTVSPropertyOp52
 70
     0
102
RTVSPropertyOp53
 70
     1
102
RTVSPropertyOp54
 70
     1
102
RTVSPropertyOp55
 70
     1
102
RTVSPropertyOp56
 70
     1
102
RTVSPropertyOp57
 70
     1
102
RTVSPropertyOp58
 70
     1
102
RTVSPropertyOp59
 70
     1
102
RTVSPropertyOp60
 70
     1
102
RTVSPropertyOp61
 70
     1
102
RTVSPropertyOp62
 70
     1
  0
ENDSEC
  0
EOF
