  0
SECTION
  2
HEADER
  9
$ACADVER
  1
AC1015
  9
$ACADMAINTVER
 70
    20
  9
$DWGCODEPAGE
  3
ANSI_932
  9
$INSBASE
 10
0.0
 20
0.0
 30
0.0
  9
$EXTMIN
 10
10.000002
 20
10.000001
 30
0.0
  9
$EXTMAX
 10
727.9153939999998
 20
579.3567009999998
 30
0.0
  9
$LIMMIN
 10
0.0
 20
0.0
  9
$LIMMAX
 10
871.2000000000001
 20
600.6
  9
$ORTHOMODE
 70
     1
  9
$REGENMODE
 70
     1
  9
$FILLMODE
 70
     1
  9
$QTEXTMODE
 70
     0
  9
$MIRRTEXT
 70
     1
  9
$LTSCALE
 40
20.0
  9
$ATTMODE
 70
     1
  9
$TEXTSIZE
 40
5.0
  9
$TRACEWID
 40
1.0
  9
$TEXTSTYLE
  7
STANDARD
  9
$CLAYER
  8
0
  9
$CELTYPE
  6
BYLAYER
  9
$CECOLOR
 62
   256
  9
$CELTSCALE
 40
1.0
  9
$DISPSILH
 70
     0
  9
$DIMSCALE
 40
1.0
  9
$DIMASZ
 40
2.5
  9
$DIMEXO
 40
1.0
  9
$DIMDLI
 40
10.0
  9
$DIMRND
 40
0.0
  9
$DIMDLE
 40
0.0
  9
$DIMEXE
 40
1.0
  9
$DIMTP
 40
0.0
  9
$DIMTM
 40
0.0
  9
$DIMTXT
 40
3.2
  9
$DIMCEN
 40
0.0
  9
$DIMTSZ
 40
0.0
  9
$DIMTOL
 70
     0
  9
$DIMLIM
 70
     0
  9
$DIMTIH
 70
     0
  9
$DIMTOH
 70
     0
  9
$DIMSE1
 70
     0
  9
$DIMSE2
 70
     0
  9
$DIMTAD
 70
     3
  9
$DIMZIN
 70
     8
  9
$DIMBLK
  1

  9
$DIMASO
 70
     1
  9
$DIMSHO
 70
     1
  9
$DIMPOST
  1

  9
$DIMAPOST
  1

  9
$DIMALT
 70
     0
  9
$DIMALTD
 70
     2
  9
$DIMALTF
 40
25.4
  9
$DIMLFAC
 40
1.0
  9
$DIMTOFL
 70
     1
  9
$DIMTVP
 40
0.0
  9
$DIMTIX
 70
     0
  9
$DIMSOXD
 70
     0
  9
$DIMSAH
 70
     1
  9
$DIMBLK1
  1
OPEN
  9
$DIMBLK2
  1
OPEN
  9
$DIMSTYLE
  2
STANDARD
  9
$DIMCLRD
 70
     0
  9
$DIMCLRE
 70
     0
  9
$DIMCLRT
 70
     0
  9
$DIMTFAC
 40
1.0
  9
$DIMGAP
 40
1.0
  9
$DIMJUST
 70
     0
  9
$DIMSD1
 70
     0
  9
$DIMSD2
 70
     0
  9
$DIMTOLJ
 70
     1
  9
$DIMTZIN
 70
     0
  9
$DIMALTZ
 70
     0
  9
$DIMALTTZ
 70
     0
  9
$DIMUPT
 70
     0
  9
$DIMDEC
 70
     4
  9
$DIMTDEC
 70
     4
  9
$DIMALTU
 70
     2
  9
$DIMALTTD
 70
     2
  9
$DIMTXSTY
  7
STANDARD
  9
$DIMAUNIT
 70
     0
  9
$DIMADEC
 70
     0
  9
$DIMALTRND
 40
0.0
  9
$DIMAZIN
 70
     0
  9
$DIMDSEP
 70
    46
  9
$DIMATFIT
 70
     3
  9
$DIMFRAC
 70
     0
  9
$DIMLDRBLK
  1
OPEN
  9
$DIMLUNIT
 70
     2
  9
$DIMLWD
 70
    -2
  9
$DIMLWE
 70
    -2
  9
$DIMTMOVE
 70
     0
  9
$LUNITS
 70
     2
  9
$LUPREC
 70
     4
  9
$SKETCHINC
 40
1.0
  9
$FILLETRAD
 40
1.5
  9
$AUNITS
 70
     0
  9
$AUPREC
 70
     2
  9
$MENU
  1
.
  9
$ELEVATION
 40
0.0
  9
$PELEVATION
 40
0.0
  9
$THICKNESS
 40
0.0
  9
$LIMCHECK
 70
     0
  9
$CHAMFERA
 40
10.0
  9
$CHAMFERB
 40
10.0
  9
$CHAMFERC
 40
0.0
  9
$CHAMFERD
 40
0.0
  9
$SKPOLY
 70
     0
  9
$TDCREATE
 40
2451347.389538657
  9
$TDUCREATE
 40
2451347.014538657
  9
$TDUPDATE
 40
2457192.643746331
  9
$TDUUPDATE
 40
2457192.268746331
  9
$TDINDWG
 40
0.0600844792
  9
$TDUSRTIMER
 40
0.0600839699
  9
$USRTIMER
 70
     1
  9
$ANGBASE
 50
0.0
  9
$ANGDIR
 70
     0
  9
$PDMODE
 70
     0
  9
$PDSIZE
 40
0.0
  9
$PLINEWID
 40
0.0
  9
$SPLFRAME
 70
     0
  9
$SPLINETYPE
 70
     6
  9
$SPLINESEGS
 70
     8
  9
$HANDSEED
  5
D473
  9
$SURFTAB1
 70
     6
  9
$SURFTAB2
 70
     6
  9
$SURFTYPE
 70
     6
  9
$SURFU
 70
     6
  9
$SURFV
 70
     6
  9
$UCSBASE
  2

  9
$UCSNAME
  2

  9
$UCSORG
 10
0.0
 20
0.0
 30
0.0
  9
$UCSXDIR
 10
1.0
 20
0.0
 30
0.0
  9
$UCSYDIR
 10
0.0
 20
1.0
 30
0.0
  9
$UCSORTHOREF
  2

  9
$UCSORTHOVIEW
 70
     0
  9
$UCSORGTOP
 10
0.0
 20
0.0
 30
0.0
  9
$UCSORGBOTTOM
 10
0.0
 20
0.0
 30
0.0
  9
$UCSORGLEFT
 10
0.0
 20
0.0
 30
0.0
  9
$UCSORGRIGHT
 10
0.0
 20
0.0
 30
0.0
  9
$UCSORGFRONT
 10
0.0
 20
0.0
 30
0.0
  9
$UCSORGBACK
 10
0.0
 20
0.0
 30
0.0
  9
$PUCSBASE
  2

  9
$PUCSNAME
  2

  9
$PUCSORG
 10
0.0
 20
0.0
 30
0.0
  9
$PUCSXDIR
 10
1.0
 20
0.0
 30
0.0
  9
$PUCSYDIR
 10
0.0
 20
1.0
 30
0.0
  9
$PUCSORTHOREF
  2

  9
$PUCSORTHOVIEW
 70
     0
  9
$PUCSORGTOP
 10
0.0
 20
0.0
 30
0.0
  9
$PUCSORGBOTTOM
 10
0.0
 20
0.0
 30
0.0
  9
$PUCSORGLEFT
 10
0.0
 20
0.0
 30
0.0
  9
$PUCSORGRIGHT
 10
0.0
 20
0.0
 30
0.0
  9
$PUCSORGFRONT
 10
0.0
 20
0.0
 30
0.0
  9
$PUCSORGBACK
 10
0.0
 20
0.0
 30
0.0
  9
$USERI1
 70
     0
  9
$USERI2
 70
     0
  9
$USERI3
 70
     0
  9
$USERI4
 70
     0
  9
$USERI5
 70
     0
  9
$USERR1
 40
0.0
  9
$USERR2
 40
0.0
  9
$USERR3
 40
0.0
  9
$USERR4
 40
0.0
  9
$USERR5
 40
0.0
  9
$WORLDVIEW
 70
     1
  9
$SHADEDGE
 70
     3
  9
$SHADEDIF
 70
    70
  9
$TILEMODE
 70
     1
  9
$MAXACTVP
 70
    16
  9
$PINSBASE
 10
0.0
 20
0.0
 30
0.0
  9
$PLIMCHECK
 70
     0
  9
$PEXTMIN
 10
1.000000000000000E+20
 20
1.000000000000000E+20
 30
1.000000000000000E+20
  9
$PEXTMAX
 10
-1.000000000000000E+20
 20
-1.000000000000000E+20
 30
-1.000000000000000E+20
  9
$PLIMMIN
 10
0.0
 20
0.0
  9
$PLIMMAX
 10
420.0
 20
297.0
  9
$UNITMODE
 70
     0
  9
$VISRETAIN
 70
     0
  9
$PLINEGEN
 70
     0
  9
$PSLTSCALE
 70
     0
  9
$TREEDEPTH
 70
  3020
  9
$CMLSTYLE
  2
STANDARD
  9
$CMLJUST
 70
     0
  9
$CMLSCALE
 40
1.0
  9
$PROXYGRAPHICS
 70
     1
  9
$MEASUREMENT
 70
     0
  9
$CELWEIGHT
370
    -1
  9
$ENDCAPS
280
     0
  9
$JOINSTYLE
280
     0
  9
$LWDISPLAY
290
     0
  9
$INSUNITS
 70
     0
  9
$HYPERLINKBASE
  1

  9
$STYLESHEET
  1

  9
$XEDIT
290
     1
  9
$CEPSNTYPE
380
     0
  9
$PSTYLEMODE
290
     1
  9
$FINGERPRINTGUID
  2
{E0B31B22-742A-4F82-A0F8-6D5198DA15E2}
  9
$VERSIONGUID
  2
{65489471-8C8C-4B96-854C-B33ECE210B42}
  9
$EXTNAMES
290
     1
  9
$PSVPSCALE
 40
0.0
  9
$OLESTARTUP
290
     0
  0
ENDSEC
  0
SECTION
  2
CLASSES
  0
CLASS
  1
ACDBDICTIONARYWDFLT
  2
AcDbDictionaryWithDefault
  3
ObjectDBX Classes
 90
        0
280
     0
281
     0
  0
CLASS
  1
ACDBPLACEHOLDER
  2
AcDbPlaceHolder
  3
ObjectDBX Classes
 90
        0
280
     0
281
     0
  0
CLASS
  1
LAYOUT
  2
AcDbLayout
  3
ObjectDBX Classes
 90
        0
280
     0
281
     0
  0
CLASS
  1
DICTIONARYVAR
  2
AcDbDictionaryVar
  3
ObjectDBX Classes
 90
        0
280
     0
281
     0
  0
CLASS
  1
MATERIAL
  2
AcDbMaterial
  3
ObjectDBX Classes
 90
     1153
280
     0
281
     0
  0
CLASS
  1
VISUALSTYLE
  2
AcDbVisualStyle
  3
ObjectDBX Classes
 90
     4095
280
     0
281
     0
  0
CLASS
  1
TABLESTYLE
  2
AcDbTableStyle
  3
ObjectDBX Classes
 90
     4095
280
     0
281
     0
  0
CLASS
  1
SCALE
  2
AcDbScale
  3
ObjectDBX Classes
 90
     1153
280
     0
281
     0
  0
CLASS
  1
MLEADERSTYLE
  2
AcDbMLeaderStyle
  3
ACDB_MLEADERSTYLE_CLASS
 90
     4095
280
     0
281
     0
  0
CLASS
  1
ACDBSECTIONVIEWSTYLE
  2
AcDbSectionViewStyle
  3
ObjectDBX Classes
 90
     1025
280
     0
281
     0
  0
CLASS
  1
ACDBDETAILVIEWSTYLE
  2
AcDbDetailViewStyle
  3
ObjectDBX Classes
 90
     1025
280
     0
281
     0
  0
CLASS
  1
CELLSTYLEMAP
  2
AcDbCellStyleMap
  3
ObjectDBX Classes
 90
     1152
280
     0
281
     0
  0
ENDSEC
  0
SECTION
  2
TABLES
  0
TABLE
  2
VPORT
  5
C59F
330
0
100
AcDbSymbolTable
 70
     1
  0
VPORT
  5
D3BE
330
C59F
100
AcDbSymbolTableRecord
100
AcDbViewportTableRecord
  2
*ACTIVE
 70
     0
 10
0.0
 20
0.0
 11
1.0
 21
1.0
 12
603.2773796548467
 22
294.6638777345929
 13
0.0
 23
0.0
 14
10.0
 24
10.0
 15
10.0
 25
10.0
 16
0.0
 26
0.0
 36
1.0
 17
0.0
 27
0.0
 37
0.0
 40
573.814384777145
 41
1.899603698811096
 42
50.0
 43
0.0
 44
0.0
 50
0.0
 51
0.0
 71
     0
 72
   100
 73
     1
 74
     0
 75
     0
 76
     0
 77
     0
 78
     0
281
     0
 65
     1
110
0.0
120
0.0
130
0.0
111
1.0
121
0.0
131
0.0
112
0.0
122
1.0
132
0.0
 79
     0
146
0.0
1001
ACAD_NAV_VCDISPLAY
1070
     3
  0
ENDTAB
  0
TABLE
  2
LTYPE
  5
C59C
330
0
100
AcDbSymbolTable
 70
     4
  0
LTYPE
  5
C5AA
330
C59C
100
AcDbSymbolTableRecord
100
AcDbLinetypeTableRecord
  2
BYBLOCK
 70
     0
  3

 72
    65
 73
     0
 40
0.0
  0
LTYPE
  5
C5AB
330
C59C
100
AcDbSymbolTableRecord
100
AcDbLinetypeTableRecord
  2
BYLAYER
 70
     0
  3

 72
    65
 73
     0
 40
0.0
  0
LTYPE
  5
C5AC
330
C59C
100
AcDbSymbolTableRecord
100
AcDbLinetypeTableRecord
  2
CONTINUOUS
 70
     0
  3
Solid line
 72
    65
 73
     0
 40
0.0
  0
LTYPE
  5
C5BA
330
C59C
100
AcDbSymbolTableRecord
100
AcDbLinetypeTableRecord
  2
DASHED
 70
     0
  3
__ __ __ __ __ __ __ __ __ __ __ __ __ __ __ __
 72
    65
 73
     2
 40
0.75
 49
0.5
 74
     0
 49
-0.25
 74
     0
  0
LTYPE
  5
C5BB
330
C59C
100
AcDbSymbolTableRecord
100
AcDbLinetypeTableRecord
  2
CENTER
 70
     0
  3
____ _ ____ _ ____ _ ____ _ ____ _ ____ _ ____ 
 72
    65
 73
     4
 40
2.0
 49
1.25
 74
     0
 49
-0.25
 74
     0
 49
0.25
 74
     0
 49
-0.25
 74
     0
  0
LTYPE
  5
C5BC
330
C59C
100
AcDbSymbolTableRecord
100
AcDbLinetypeTableRecord
  2
PHANTOM
 70
     0
  3
______  __  __  ______  __  __  ______  __  __ 
 72
    65
 73
     6
 40
2.5
 49
1.25
 74
     0
 49
-0.25
 74
     0
 49
0.25
 74
     0
 49
-0.25
 74
     0
 49
0.25
 74
     0
 49
-0.25
 74
     0
  0
ENDTAB
  0
TABLE
  2
LAYER
  5
C599
330
0
100
AcDbSymbolTable
 70
     8
  0
LAYER
  5
C5A7
102
{ACAD_XDICTIONARY
360
D417
102
}
330
C599
100
AcDbSymbolTableRecord
100
AcDbLayerTableRecord
  2
0
 70
     0
 62
     7
  6
CONTINUOUS
370
    -3
390
D3C5
  0
LAYER
  5
C5BD
102
{ACAD_XDICTIONARY
360
D419
102
}
330
C599
100
AcDbSymbolTableRecord
100
AcDbLayerTableRecord
  2
4
 70
     0
 62
     1
  6
CENTER
370
    -3
390
D3C5
  0
LAYER
  5
C5BE
102
{ACAD_XDICTIONARY
360
D41B
102
}
330
C599
100
AcDbSymbolTableRecord
100
AcDbLayerTableRecord
  2
5
 70
     0
 62
     6
  6
PHANTOM
370
    -3
390
D3C5
  0
LAYER
  5
C5BF
102
{ACAD_XDICTIONARY
360
D41D
102
}
330
C599
100
AcDbSymbolTableRecord
100
AcDbLayerTableRecord
  2
1
 70
     0
 62
     7
  6
CONTINUOUS
370
    -3
390
D3C5
  0
LAYER
  5
C5C0
102
{ACAD_XDICTIONARY
360
D41F
102
}
330
C599
100
AcDbSymbolTableRecord
100
AcDbLayerTableRecord
  2
2
 70
     0
 62
     4
  6
CONTINUOUS
370
    -3
390
D3C5
  0
LAYER
  5
C5C1
102
{ACAD_XDICTIONARY
360
D421
102
}
330
C599
100
AcDbSymbolTableRecord
100
AcDbLayerTableRecord
  2
3
 70
     0
 62
     2
  6
DASHED
370
    -3
390
D3C5
  0
LAYER
  5
C5C2
102
{ACAD_XDICTIONARY
360
D423
102
}
330
C599
100
AcDbSymbolTableRecord
100
AcDbLayerTableRecord
  2
6
 70
     0
 62
     5
  6
CONTINUOUS
370
    -3
390
D3C5
  0
LAYER
  5
C5C3
102
{ACAD_XDICTIONARY
360
D425
102
}
330
C599
100
AcDbSymbolTableRecord
100
AcDbLayerTableRecord
  2
7
 70
     0
 62
     3
  6
CONTINUOUS
370
    -3
390
D3C5
  0
ENDTAB
  0
TABLE
  2
STYLE
  5
C59A
330
0
100
AcDbSymbolTable
 70
     1
  0
STYLE
  5
C5A8
330
C59A
100
AcDbSymbolTableRecord
100
AcDbTextStyleTableRecord
  2
STANDARD
 70
     0
 40
0.0
 41
1.0
 50
0.0
 71
     0
 42
5.0
  3
txt
  4

  0
ENDTAB
  0
TABLE
  2
VIEW
  5
C59D
330
0
100
AcDbSymbolTable
 70
     0
  0
ENDTAB
  0
TABLE
  2
UCS
  5
C59E
330
0
100
AcDbSymbolTable
 70
     0
  0
ENDTAB
  0
TABLE
  2
APPID
  5
C5A0
330
0
100
AcDbSymbolTable
 70
     7
  0
APPID
  5
C5A9
330
C5A0
100
AcDbSymbolTableRecord
100
AcDbRegAppTableRecord
  2
ACAD
 70
     0
  0
APPID
  5
CFEE
330
C5A0
100
AcDbSymbolTableRecord
100
AcDbRegAppTableRecord
  2
CONTENTTABDATA
 70
     0
  0
APPID
  5
CFEF
330
C5A0
100
AcDbSymbolTableRecord
100
AcDbRegAppTableRecord
  2
CONTENTCURRENTTAB
 70
     0
  0
APPID
  5
CFF0
330
C5A0
100
AcDbSymbolTableRecord
100
AcDbRegAppTableRecord
  2
CONTENTBLOCKICON
 70
     0
  0
APPID
  5
CFF1
330
C5A0
100
AcDbSymbolTableRecord
100
AcDbRegAppTableRecord
  2
CONTENTBLOCKDESCRIPTION
 70
     0
  0
APPID
  5
D431
330
C5A0
100
AcDbSymbolTableRecord
100
AcDbRegAppTableRecord
  2
ACAD_NAV_VCDISPLAY
 70
     0
  0
APPID
  5
D46A
330
C5A0
100
AcDbSymbolTableRecord
100
AcDbRegAppTableRecord
  2
ACAD_MLEADERVER
 70
     0
  0
ENDTAB
  0
TABLE
  2
DIMSTYLE
  5
C5A1
330
0
100
AcDbSymbolTable
 70
     1
100
AcDbDimStyleTable
 71
     0
  0
DIMSTYLE
105
C5C5
330
C5A1
100
AcDbSymbolTableRecord
100
AcDbDimStyleTableRecord
  2
STANDARD
 70
     0
 41
2.5
 42
1.0
 43
10.0
 44
1.0
 73
     0
 74
     0
 77
     3
 78
     8
140
3.2
141
0.0
147
1.0
172
     1
173
     1
284
     8
285
     8
286
     8
340
C5A8
  0
ENDTAB
  0
TABLE
  2
BLOCK_RECORD
  5
C598
330
0
100
AcDbSymbolTable
 70
     1
  0
BLOCK_RECORD
  5
C5B5
102
{ACAD_XDICTIONARY
360
CA7F
102
}
330
C598
100
AcDbSymbolTableRecord
100
AcDbBlockTableRecord
  2
*MODEL_SPACE
340
D413
  0
BLOCK_RECORD
  5
C5B1
102
{ACAD_XDICTIONARY
360
CA7D
102
}
330
C598
100
AcDbSymbolTableRecord
100
AcDbBlockTableRecord
  2
*PAPER_SPACE
340
D414
  0
BLOCK_RECORD
  5
C5FF
330
C598
100
AcDbSymbolTableRecord
100
AcDbBlockTableRecord
  2
_OPEN
340
0
  0
ENDTAB
  0
ENDSEC
  0
SECTION
  2
BLOCKS
  0
BLOCK
  5
C5B6
330
C5B5
100
AcDbEntity
  8
0
100
AcDbBlockBegin
  2
*MODEL_SPACE
 70
     0
 10
0.0
 20
0.0
 30
0.0
  3
*MODEL_SPACE
  1

  0
ENDBLK
  5
C5B7
330
C5B5
100
AcDbEntity
  8
0
100
AcDbBlockEnd
  0
BLOCK
  5
C5B2
330
C5B1
100
AcDbEntity
 67
     1
  8
0
100
AcDbBlockBegin
  2
*PAPER_SPACE
 70
     0
 10
0.0
 20
0.0
 30
0.0
  3
*PAPER_SPACE
  1

  0
ENDBLK
  5
C5B3
330
C5B1
100
AcDbEntity
 67
     1
  8
0
100
AcDbBlockEnd
  0
BLOCK
  5
C600
330
C5FF
100
AcDbEntity
  8
0
100
AcDbBlockBegin
  2
_OPEN
 70
     0
 10
0.0
 20
0.0
 30
0.0
  3
_OPEN
  1

  0
LINE
  5
C601
330
C5FF
100
AcDbEntity
  8
0
  6
ByBlock
 62
     0
100
AcDbLine
 10
-1.0
 20
0.166667
 30
0.0
 11
0.0
 21
0.0
 31
0.0
  0
LINE
  5
C602
330
C5FF
100
AcDbEntity
  8
0
  6
ByBlock
 62
     0
100
AcDbLine
 10
0.0
 20
0.0
 30
0.0
 11
-1.0
 21
-0.166667
 31
0.0
  0
LINE
  5
C603
330
C5FF
100
AcDbEntity
  8
0
  6
ByBlock
 62
     0
100
AcDbLine
 10
0.0
 20
0.0
 30
0.0
 11
-1.0
 21
0.0
 31
0.0
  0
ENDBLK
  5
C604
330
C5FF
100
AcDbEntity
  8
0
100
AcDbBlockEnd
  0
ENDSEC
  0
SECTION
  2
ENTITIES
  0
ARC
  5
C605
330
C5B5
100
AcDbEntity
  8
1
  6
Continuous
100
AcDbCircle
 10
594.970093
 20
379.400351
 30
0.0
 40
1.6
100
AcDbArc
 50
195.494
 51
265.0
  0
ARC
  5
C606
330
C5B5
100
AcDbEntity
  8
1
  6
Continuous
100
AcDbCircle
 10
594.970093
 20
384.9563509999999
 30
0.0
 40
1.6
100
AcDbArc
 50
95.00010000000001
 51
164.5059999999998
  0
LINE
  5
C607
330
C5B5
100
AcDbEntity
  8
4
  6
CENTER
 48
0.2
100
AcDbLine
 10
604.298993
 20
382.1783509999999
 30
0.0
 11
590.612793
 21
382.1783509999999
 31
0.0
  0
ARC
  5
C608
330
C5B5
100
AcDbEntity
  8
1
  6
Continuous
100
AcDbCircle
 10
594.970093
 20
251.4003509999997
 30
0.0
 40
1.6
100
AcDbArc
 50
195.494
 51
265.0
  0
ARC
  5
C609
330
C5B5
100
AcDbEntity
  8
1
  6
Continuous
100
AcDbCircle
 10
594.970093
 20
256.956351
 30
0.0
 40
1.6
100
AcDbArc
 50
95.00010000000001
 51
164.5059999999998
  0
LINE
  5
C60A
330
C5B5
100
AcDbEntity
  8
4
  6
CENTER
 48
0.2
100
AcDbLine
 10
604.298993
 20
254.1783509999999
 30
0.0
 11
590.612793
 21
254.1783509999999
 31
0.0
  0
TEXT
  5
C60B
330
C5B5
100
AcDbEntity
  8
7
  6
Continuous
100
AcDbText
 10
10.000002
 20
18.000001
 30
0.0
 40
3.0
  1
TYPE No.THA-540-1
100
AcDbText
  0
TEXT
  5
C60C
330
C5B5
100
AcDbEntity
  8
7
  6
Continuous
100
AcDbText
 10
10.000002
 20
26.000001
 30
0.0
 40
3.0
  1
CODE No.13247
100
AcDbText
  0
TEXT
  5
C60D
330
C5B5
100
AcDbEntity
  8
1
  6
Continuous
100
AcDbText
 10
10.000002
 20
10.000001
 30
0.0
 40
1.399999999999999
  1
LAYER
100
AcDbText
  0
TEXT
  5
C60E
330
C5B5
100
AcDbEntity
  8
7
  6
Continuous
100
AcDbText
 10
29.979513
 20
10.048738
 30
0.0
 40
1.399999999999999
  1
7
100
AcDbText
  0
TEXT
  5
C60F
330
C5B5
100
AcDbEntity
  8
6
  6
Continuous
100
AcDbText
 10
27.979513
 20
10.048738
 30
0.0
 40
1.399999999999999
  1
6
100
AcDbText
  0
TEXT
  5
C610
330
C5B5
100
AcDbEntity
  8
4
  6
CENTER
100
AcDbText
 10
23.979513
 20
10.048738
 30
0.0
 40
1.399999999999999
  1
4
100
AcDbText
  0
TEXT
  5
C611
330
C5B5
100
AcDbEntity
  8
5
  6
PHANTOM
100
AcDbText
 10
25.979513
 20
10.048738
 30
0.0
 40
1.399999999999999
  1
5
100
AcDbText
  0
TEXT
  5
C612
330
C5B5
100
AcDbEntity
  8
3
  6
DASHED
100
AcDbText
 10
21.979513
 20
10.048738
 30
0.0
 40
1.399999999999999
  1
3
100
AcDbText
  0
TEXT
  5
C613
330
C5B5
100
AcDbEntity
  8
1
  6
Continuous
100
AcDbText
 10
17.979513
 20
10.048738
 30
0.0
 40
1.399999999999999
  1
1
100
AcDbText
  0
TEXT
  5
C614
330
C5B5
100
AcDbEntity
  8
2
  6
Continuous
100
AcDbText
 10
19.979513
 20
10.048738
 30
0.0
 40
1.399999999999999
  1
2
100
AcDbText
  0
LINE
  5
C615
330
C5B5
100
AcDbEntity
  8
1
  6
Continuous
100
AcDbLine
 10
229.357698
 20
119.500001
 30
0.0
 11
229.357698
 21
93.500001
 31
0.0
  0
LINE
  5
C616
330
C5B5
100
AcDbEntity
  8
1
  6
Continuous
100
AcDbLine
 10
227.757698
 20
119.500001
 30
0.0
 11
227.757698
 21
93.500001
 31
0.0
  0
LINE
  5
C617
330
C5B5
100
AcDbEntity
  8
1
  6
Continuous
100
AcDbLine
 10
227.5576979999999
 20
119.500001
 30
0.0
 11
227.5576979999999
 21
93.500001
 31
0.0
  0
LINE
  5
C618
330
C5B5
100
AcDbEntity
  8
1
  6
Continuous
100
AcDbLine
 10
212.5576979999999
 20
116.5000009999997
 30
0.0
 11
212.5576979999999
 21
96.50000099999971
 31
0.0
  0
LINE
  5
C619
330
C5B5
100
AcDbEntity
  8
1
  6
Continuous
100
AcDbLine
 10
238.657698
 20
101.600001
 30
0.0
 11
238.657698
 21
92.40000100000001
 31
0.0
  0
ARC
  5
C61A
330
C5B5
100
AcDbEntity
  8
1
  6
Continuous
100
AcDbCircle
 10
229.9576979999999
 20
97.000001
 30
0.0
 40
12.0
100
AcDbArc
 50
344.506032
 51
15.493968
  0
LINE
  5
C61B
330
C5B5
100
AcDbEntity
  8
1
  6
Continuous
100
AcDbLine
 10
236.3576979999999
 20
102.0000009999999
 30
0.0
 11
236.3576979999999
 21
92.000001
 31
0.0
  0
LINE
  5
C61C
330
C5B5
100
AcDbEntity
  8
1
  6
Continuous
100
AcDbLine
 10
237.357698
 20
102.0000009999999
 30
0.0
 11
237.357698
 21
92.000001
 31
0.0
  0
LINE
  5
C61D
330
C5B5
100
AcDbEntity
  8
1
  6
Continuous
100
AcDbLine
 10
215.8576979999998
 20
122.500001
 30
0.0
 11
215.8576979999998
 21
90.500001
 31
0.0
  0
LINE
  5
C61E
330
C5B5
100
AcDbEntity
  8
1
  6
Continuous
100
AcDbLine
 10
214.357698
 20
122.500001
 30
0.0
 11
214.357698
 21
90.500001
 31
0.0
  0
LINE
  5
C61F
330
C5B5
100
AcDbEntity
  8
1
  6
Continuous
100
AcDbLine
 10
212.857698
 20
120.500001
 30
0.0
 11
212.857698
 21
92.50000099999999
 31
0.0
  0
ARC
  5
C620
330
C5B5
100
AcDbEntity
  8
1
  6
Continuous
100
AcDbCircle
 10
261.3577485295309
 20
106.5000009999993
 30
0.0
 40
51.00005052953109
100
AcDbArc
 50
168.6922821865
 51
191.3077178134994
  0
LINE
  5
C621
330
C5B5
100
AcDbEntity
  8
1
  6
Continuous
100
AcDbLine
 10
232.857698
 20
156.0000009999999
 30
0.0
 11
232.857698
 21
41.00000099999999
 31
0.0
  0
LINE
  5
C622
330
C5B5
100
AcDbEntity
  8
1
  6
Continuous
100
AcDbLine
 10
236.0576979999999
 20
156.0000009999999
 30
0.0
 11
236.0576979999999
 21
41.00000099999999
 31
0.0
  0
LINE
  5
C623
330
C5B5
100
AcDbEntity
  8
1
  6
Continuous
100
AcDbLine
 10
214.357698
 20
90.500001
 30
0.0
 11
215.8576979999998
 21
90.500001
 31
0.0
  0
LINE
  5
C624
330
C5B5
100
AcDbEntity
  8
1
  6
Continuous
100
AcDbLine
 10
212.857698
 20
92.50000099999999
 30
0.0
 11
214.357698
 21
90.500001
 31
0.0
  0
LINE
  5
C625
330
C5B5
100
AcDbEntity
  8
1
  6
Continuous
100
AcDbLine
 10
211.347698
 20
96.50000099999971
 30
0.0
 11
212.857698
 21
96.50000099999971
 31
0.0
  0
LINE
  5
C626
330
C5B5
100
AcDbEntity
  8
1
  6
Continuous
100
AcDbLine
 10
232.857698
 20
41.00000099999999
 30
0.0
 11
236.0576979999999
 21
41.00000099999999
 31
0.0
  0
LINE
  5
C627
330
C5B5
100
AcDbEntity
  8
4
  6
CENTER
 48
0.2
100
AcDbLine
 10
230.772423
 20
97.000001
 30
0.0
 11
244.0643069999999
 21
97.000001
 31
0.0
  0
LINE
  5
C628
330
C5B5
100
AcDbEntity
  8
4
  6
CENTER
 48
0.2
100
AcDbLine
 10
230.4169379999999
 20
88.50000099999999
 30
0.0
 11
238.8128399999999
 21
88.50000099999999
 31
0.0
  0
LINE
  5
C629
330
C5B5
100
AcDbEntity
  8
1
  6
Continuous
100
AcDbLine
 10
215.8576979999998
 20
93.500001
 30
0.0
 11
232.857698
 21
93.500001
 31
0.0
  0
ARC
  5
C62A
330
C5B5
100
AcDbEntity
  8
1
  6
Continuous
100
AcDbCircle
 10
239.979747
 20
94.221777
 30
0.0
 40
1.6
100
AcDbArc
 50
275.0
 51
344.506032
  0
LINE
  5
C62B
330
C5B5
100
AcDbEntity
  8
1
  6
Continuous
100
AcDbLine
 10
238.657698
 20
92.50000099999999
 30
0.0
 11
240.1191959999999
 21
92.627865
 31
0.0
  0
LINE
  5
C62C
330
C5B5
100
AcDbEntity
  8
1
  6
Continuous
100
AcDbLine
 10
236.3576979999999
 20
92.000001
 30
0.0
 11
237.357698
 21
92.000001
 31
0.0
  0
LINE
  5
C62D
330
C5B5
100
AcDbEntity
  8
1
  6
Continuous
100
AcDbLine
 10
236.0576979999999
 20
93.75000099999999
 30
0.0
 11
236.3576979999999
 21
93.75000099999999
 31
0.0
  0
LINE
  5
C62E
330
C5B5
100
AcDbEntity
  8
1
  6
Continuous
100
AcDbLine
 10
237.357698
 20
92.40000100000001
 30
0.0
 11
238.657698
 21
92.40000100000001
 31
0.0
  0
LINE
  5
C62F
330
C5B5
100
AcDbEntity
  8
1
  6
Continuous
100
AcDbLine
 10
237.357698
 20
97.000001
 30
0.0
 11
238.657698
 21
98.30000099999999
 31
0.0
  0
LINE
  5
C630
330
C5B5
100
AcDbEntity
  8
1
  6
Continuous
100
AcDbLine
 10
238.657698
 20
97.000001
 30
0.0
 11
237.357698
 21
95.70000099999999
 31
0.0
  0
LINE
  5
C631
330
C5B5
100
AcDbEntity
  8
4
  6
CENTER
 48
0.2
100
AcDbLine
 10
207.667634
 20
106.5000009999996
 30
0.0
 11
248.334066
 21
106.5000009999996
 31
0.0
  0
LINE
  5
C632
330
C5B5
100
AcDbEntity
  8
1
  6
Continuous
100
AcDbLine
 10
214.357698
 20
122.500001
 30
0.0
 11
215.8576979999998
 21
122.500001
 31
0.0
  0
LINE
  5
C633
330
C5B5
100
AcDbEntity
  8
1
  6
Continuous
100
AcDbLine
 10
212.857698
 20
120.500001
 30
0.0
 11
214.357698
 21
122.500001
 31
0.0
  0
LINE
  5
C634
330
C5B5
100
AcDbEntity
  8
1
  6
Continuous
100
AcDbLine
 10
211.347698
 20
116.5000009999997
 30
0.0
 11
212.857698
 21
116.5000009999997
 31
0.0
  0
LINE
  5
C635
330
C5B5
100
AcDbEntity
  8
4
  6
CENTER
 48
0.2
100
AcDbLine
 10
230.8497009999999
 20
116.000001
 30
0.0
 11
244.3734179999999
 21
116.000001
 31
0.0
  0
LINE
  5
C636
330
C5B5
100
AcDbEntity
  8
1
  6
Continuous
100
AcDbLine
 10
220.357698
 20
102.500001
 30
0.0
 11
220.857698
 21
103.0000009999999
 31
0.0
  0
LINE
  5
C637
330
C5B5
100
AcDbEntity
  8
1
  6
Continuous
100
AcDbLine
 10
215.8576979999998
 20
102.500001
 30
0.0
 11
220.357698
 21
102.500001
 31
0.0
  0
LINE
  5
C638
330
C5B5
100
AcDbEntity
  8
1
  6
Continuous
100
AcDbLine
 10
220.357698
 20
110.5000009999999
 30
0.0
 11
220.857698
 21
110.000001
 31
0.0
  0
LINE
  5
C639
330
C5B5
100
AcDbEntity
  8
1
  6
Continuous
100
AcDbLine
 10
215.8576979999998
 20
110.5000009999999
 30
0.0
 11
220.357698
 21
110.5000009999999
 31
0.0
  0
LINE
  5
C63A
330
C5B5
100
AcDbEntity
  8
4
  6
CENTER
 48
0.2
100
AcDbLine
 10
221.357698
 20
122.765451
 30
0.0
 11
221.357698
 21
90.23455099999999
 31
0.0
  0
LINE
  5
C63B
330
C5B5
100
AcDbEntity
  8
1
  6
Continuous
100
AcDbLine
 10
215.8576979999998
 20
119.500001
 30
0.0
 11
232.857698
 21
119.500001
 31
0.0
  0
LINE
  5
C63C
330
C5B5
100
AcDbEntity
  8
1
  6
Continuous
100
AcDbLine
 10
220.357698
 20
110.5000009999999
 30
0.0
 11
220.357698
 21
102.500001
 31
0.0
  0
LINE
  5
C63D
330
C5B5
100
AcDbEntity
  8
1
  6
Continuous
100
AcDbLine
 10
220.857698
 20
103.0000009999999
 30
0.0
 11
220.857698
 21
110.000001
 31
0.0
  0
ARC
  5
C63E
330
C5B5
100
AcDbEntity
  8
1
  6
Continuous
100
AcDbCircle
 10
239.979747
 20
99.77822500000002
 30
0.0
 40
1.6
100
AcDbArc
 50
15.493968
 51
85.0
  0
LINE
  5
C63F
330
C5B5
100
AcDbEntity
  8
1
  6
Continuous
100
AcDbLine
 10
238.657698
 20
101.500001
 30
0.0
 11
240.1191959999999
 21
101.3721359999999
 31
0.0
  0
ARC
  5
C640
330
C5B5
100
AcDbEntity
  8
1
  6
Continuous
100
AcDbCircle
 10
239.0215779999997
 20
103.730918
 30
0.0
 40
1.230917
100
AcDbArc
 50
270.0
 51
340.436671
  0
LINE
  5
C641
330
C5B5
100
AcDbEntity
  8
1
  6
Continuous
100
AcDbLine
 10
236.3576979999999
 20
102.0000009999999
 30
0.0
 11
237.357698
 21
102.0000009999999
 31
0.0
  0
LINE
  5
C642
330
C5B5
100
AcDbEntity
  8
1
  6
Continuous
100
AcDbLine
 10
236.0576979999999
 20
100.2500009999996
 30
0.0
 11
236.3576979999999
 21
100.2500009999996
 31
0.0
  0
LINE
  5
C643
330
C5B5
100
AcDbEntity
  8
1
  6
Continuous
100
AcDbLine
 10
236.0576979999999
 20
102.500001
 30
0.0
 11
239.0215779999997
 21
102.500001
 31
0.0
  0
LINE
  5
C644
330
C5B5
100
AcDbEntity
  8
1
  6
Continuous
100
AcDbLine
 10
237.357698
 20
101.600001
 30
0.0
 11
238.657698
 21
101.600001
 31
0.0
  0
ARC
  5
C645
330
C5B5
100
AcDbEntity
  8
1
  6
Continuous
100
AcDbCircle
 10
229.9576979999999
 20
116.000001
 30
0.0
 40
12.0
100
AcDbArc
 50
344.506032
 51
15.493968
  0
LINE
  5
C646
330
C5B5
100
AcDbEntity
  8
1
  6
Continuous
100
AcDbLine
 10
238.657698
 20
120.600001
 30
0.0
 11
238.657698
 21
111.400001
 31
0.0
  0
LINE
  5
C647
330
C5B5
100
AcDbEntity
  8
1
  6
Continuous
100
AcDbLine
 10
238.657698
 20
120.500001
 30
0.0
 11
240.1191959999999
 21
120.372136
 31
0.0
  0
ARC
  5
C648
330
C5B5
100
AcDbEntity
  8
1
  6
Continuous
100
AcDbCircle
 10
239.979747
 20
118.778225
 30
0.0
 40
1.6
100
AcDbArc
 50
15.493968
 51
85.0
  0
LINE
  5
C649
330
C5B5
100
AcDbEntity
  8
1
  6
Continuous
100
AcDbLine
 10
238.657698
 20
111.5000009999999
 30
0.0
 11
240.1191959999999
 21
111.6278649999999
 31
0.0
  0
ARC
  5
C64A
330
C5B5
100
AcDbEntity
  8
1
  6
Continuous
100
AcDbCircle
 10
239.979747
 20
113.221777
 30
0.0
 40
1.6
100
AcDbArc
 50
275.0
 51
344.506032
  0
ARC
  5
C64B
330
C5B5
100
AcDbEntity
  8
1
  6
Continuous
100
AcDbCircle
 10
239.0215779999997
 20
109.269084
 30
0.0
 40
1.230917
100
AcDbArc
 50
19.48812099999996
 51
90.0
  0
LINE
  5
C64C
330
C5B5
100
AcDbEntity
  8
1
  6
Continuous
100
AcDbLine
 10
236.3576979999999
 20
121.0000009999999
 30
0.0
 11
236.3576979999999
 21
111.000001
 31
0.0
  0
LINE
  5
C64D
330
C5B5
100
AcDbEntity
  8
1
  6
Continuous
100
AcDbLine
 10
237.357698
 20
121.0000009999999
 30
0.0
 11
237.357698
 21
111.000001
 31
0.0
  0
LINE
  5
C64E
330
C5B5
100
AcDbEntity
  8
1
  6
Continuous
100
AcDbLine
 10
236.0576979999999
 20
119.250001
 30
0.0
 11
236.3576979999999
 21
119.250001
 31
0.0
  0
LINE
  5
C64F
330
C5B5
100
AcDbEntity
  8
1
  6
Continuous
100
AcDbLine
 10
236.3576979999999
 20
121.0000009999999
 30
0.0
 11
237.357698
 21
121.0000009999999
 31
0.0
  0
LINE
  5
C650
330
C5B5
100
AcDbEntity
  8
1
  6
Continuous
100
AcDbLine
 10
236.0576979999999
 20
112.750001
 30
0.0
 11
236.3576979999999
 21
112.750001
 31
0.0
  0
LINE
  5
C651
330
C5B5
100
AcDbEntity
  8
1
  6
Continuous
100
AcDbLine
 10
236.3576979999999
 20
111.000001
 30
0.0
 11
237.357698
 21
111.000001
 31
0.0
  0
LINE
  5
C652
330
C5B5
100
AcDbEntity
  8
1
  6
Continuous
100
AcDbLine
 10
236.0576979999999
 20
110.5000009999999
 30
0.0
 11
239.0215779999997
 21
110.5000009999999
 31
0.0
  0
LINE
  5
C653
330
C5B5
100
AcDbEntity
  8
1
  6
Continuous
100
AcDbLine
 10
237.357698
 20
120.600001
 30
0.0
 11
238.657698
 21
120.600001
 31
0.0
  0
LINE
  5
C654
330
C5B5
100
AcDbEntity
  8
1
  6
Continuous
100
AcDbLine
 10
237.357698
 20
111.400001
 30
0.0
 11
238.657698
 21
111.400001
 31
0.0
  0
LINE
  5
C655
330
C5B5
100
AcDbEntity
  8
1
  6
Continuous
100
AcDbLine
 10
237.357698
 20
116.000001
 30
0.0
 11
238.657698
 21
117.3000009999999
 31
0.0
  0
LINE
  5
C656
330
C5B5
100
AcDbEntity
  8
1
  6
Continuous
100
AcDbLine
 10
238.657698
 20
116.000001
 30
0.0
 11
237.357698
 21
114.7000009999999
 31
0.0
  0
ARC
  5
C657
330
C5B5
100
AcDbEntity
  8
1
  6
Continuous
100
AcDbCircle
 10
232.989045
 20
106.5000009999996
 30
0.0
 40
7.868632999999997
100
AcDbArc
 50
336.139797
 51
23.848465
  0
LINE
  5
C658
330
C5B5
100
AcDbEntity
  8
4
  6
CENTER
 48
0.2
100
AcDbLine
 10
230.4169379999999
 20
150.0000009999999
 30
0.0
 11
239.3407729999999
 21
150.0000009999999
 31
0.0
  0
LINE
  5
C659
330
C5B5
100
AcDbEntity
  8
1
  6
Continuous
100
AcDbLine
 10
232.857698
 20
156.0000009999999
 30
0.0
 11
236.0576979999999
 21
156.0000009999999
 31
0.0
  0
LINE
  5
C65A
330
C5B5
100
AcDbEntity
  8
1
  6
Continuous
100
AcDbLine
 10
50.900002
 20
364.278351
 30
0.0
 11
50.900002
 21
287.1783509999999
 31
0.0
  0
LINE
  5
C65B
330
C5B5
100
AcDbEntity
  8
1
  6
Continuous
100
AcDbLine
 10
31.100002
 20
364.278351
 30
0.0
 11
31.100002
 21
287.1783509999999
 31
0.0
  0
LINE
  5
C65C
330
C5B5
100
AcDbEntity
  8
4
  6
CENTER
100
AcDbLine
 10
41.000002
 20
392.1783509999999
 30
0.0
 11
41.000002
 21
244.178351
 31
0.0
  0
LINE
  5
C65D
330
C5B5
100
AcDbEntity
  8
1
  6
Continuous
100
AcDbLine
 10
25.000002
 20
384.1783509999999
 30
0.0
 11
25.000002
 21
252.1783509999999
 31
0.0
  0
LINE
  5
C65E
330
C5B5
100
AcDbEntity
  8
1
  6
Continuous
100
AcDbLine
 10
57.000002
 20
384.1783509999999
 30
0.0
 11
57.000002
 21
252.1783509999999
 31
0.0
  0
LINE
  5
C65F
330
C5B5
100
AcDbEntity
  8
1
  6
Continuous
100
AcDbLine
 10
31.000002
 20
363.6783509999998
 30
0.0
 11
31.000002
 21
273.1783509999999
 31
0.0
  0
LINE
  5
C660
330
C5B5
100
AcDbEntity
  8
1
  6
Continuous
100
AcDbLine
 10
51.000002
 20
363.6783509999998
 30
0.0
 11
51.000002
 21
273.1783509999999
 31
0.0
  0
LINE
  5
C661
330
C5B5
100
AcDbEntity
  8
1
  6
Continuous
100
AcDbLine
 10
55.000002
 20
384.1783509999999
 30
0.0
 11
55.000002
 21
252.1783509999999
 31
0.0
  0
LINE
  5
C662
330
C5B5
100
AcDbEntity
  8
1
  6
Continuous
100
AcDbLine
 10
27.00000199999999
 20
384.1783509999999
 30
0.0
 11
27.00000199999999
 21
252.1783509999999
 31
0.0
  0
ARC
  5
C663
330
C5B5
100
AcDbEntity
  8
1
  6
Continuous
100
AcDbCircle
 10
52.000002
 20
252.1783509999999
 30
0.0
 40
5.0
100
AcDbArc
 50
270.0
 51
0.0
  0
ARC
  5
C664
330
C5B5
100
AcDbEntity
  8
1
  6
Continuous
100
AcDbCircle
 10
30.00000200000001
 20
252.1783509999999
 30
0.0
 40
5.0
100
AcDbArc
 50
180.0
 51
270.0
  0
LINE
  5
C665
330
C5B5
100
AcDbEntity
  8
1
  6
Continuous
100
AcDbLine
 10
30.00000200000001
 20
247.1783509999999
 30
0.0
 11
52.000002
 21
247.1783509999999
 31
0.0
  0
LINE
  5
C666
330
C5B5
100
AcDbEntity
  8
4
  6
CENTER
 48
0.2
100
AcDbLine
 10
48.950915
 20
254.1783509999999
 30
0.0
 11
33.20963299999998
 21
254.1783509999999
 31
0.0
  0
LINE
  5
C667
330
C5B5
100
AcDbEntity
  8
1
  6
Continuous
100
AcDbLine
 10
31.60000200000001
 20
283.1783509999999
 30
0.0
 11
50.40000199999999
 21
283.1783509999999
 31
0.0
  0
LINE
  5
C66A
330
C5B5
100
AcDbEntity
  8
1
  6
Continuous
100
AcDbLine
 10
31.704842
 20
269.1783509999999
 30
0.0
 11
50.2951620308978
 21
269.1783509999999
 31
0.0
  0
LINE
  5
C66D
330
C5B5
100
AcDbEntity
  8
1
  6
Continuous
100
AcDbLine
 10
31.000002
 20
260.6783509999999
 30
0.0
 11
51.000002
 21
260.6783509999999
 31
0.0
  0
ARC
  5
C66F
330
C5B5
100
AcDbEntity
  8
1
  6
Continuous
100
AcDbCircle
 10
41.000002
 20
270.5783509999998
 30
0.0
 40
9.4
100
AcDbArc
 50
180.0
 51
0.0
  0
ARC
  5
C670
330
C5B5
100
AcDbEntity
  8
1
  6
Continuous
100
AcDbCircle
 10
41.000002
 20
270.5783509999998
 30
0.0
 40
9.9
100
AcDbArc
 50
180.0
 51
0.0
  0
LINE
  5
C671
330
C5B5
100
AcDbEntity
  8
1
  6
Continuous
100
AcDbLine
 10
31.000002
 20
285.6783509999999
 30
0.0
 11
51.000002
 21
285.6783509999999
 31
0.0
  0
LINE
  5
C672
330
C5B5
100
AcDbEntity
  8
1
  6
Continuous
100
AcDbLine
 10
50.400002
 20
285.1783509999999
 30
0.0
 11
31.60000200000001
 21
285.1783509999999
 31
0.0
  0
LINE
  5
C675
330
C5B5
100
AcDbEntity
  8
1
  6
Continuous
100
AcDbLine
 10
32.236441
 20
267.1783509999999
 30
0.0
 11
49.76356299999999
 21
267.1783509999999
 31
0.0
  0
LINE
  5
C677
330
C5B5
100
AcDbEntity
  8
1
  6
Continuous
100
AcDbLine
 10
33.305848
 20
265.1783509999999
 30
0.0
 11
48.69415599999999
 21
265.1783509999999
 31
0.0
  0
LINE
  5
C679
330
C5B5
100
AcDbEntity
  8
1
  6
Continuous
100
AcDbLine
 10
35.203451
 20
263.1783509999999
 30
0.0
 11
46.796553
 21
263.1783509999999
 31
0.0
  0
LINE
  5
C67A
330
C5B5
100
AcDbEntity
  8
1
  6
Continuous
100
AcDbLine
 10
30.00000200000001
 20
249.1783509999999
 30
0.0
 11
52.000002
 21
249.1783509999999
 31
0.0
  0
LINE
  5
C67B
330
C5B5
100
AcDbEntity
  8
1
  6
Continuous
100
AcDbLine
 10
41.000002
 20
249.1783509999999
 30
0.0
 11
31.000002
 21
260.6783509999999
 31
0.0
  0
ARC
  5
C67C
330
C5B5
100
AcDbEntity
  8
1
  6
Continuous
100
AcDbCircle
 10
41.000002
 20
273.1783509999999
 30
0.0
 40
10.0
100
AcDbArc
 50
180.0
 51
188.109614
  0
LINE
  5
C67D
330
C5B5
100
AcDbEntity
  8
1
  6
Continuous
100
AcDbLine
 10
31.60000200000001
 20
285.1783509999999
 30
0.0
 11
31.60000200000001
 21
270.5783509999998
 31
0.0
  0
LINE
  5
C67E
330
C5B5
100
AcDbEntity
  8
1
  6
Continuous
100
AcDbLine
 10
31.100002
 20
285.1783509999999
 30
0.0
 11
31.100002
 21
270.5783509999998
 31
0.0
  0
LINE
  5
C680
330
C5B5
100
AcDbEntity
  8
1
  6
Continuous
100
AcDbLine
 10
31.60000200000001
 20
271.1783509999999
 30
0.0
 11
50.400002
 21
271.1783509999999
 31
0.0
  0
ARC
  5
C681
330
C5B5
100
AcDbEntity
  8
1
  6
Continuous
100
AcDbCircle
 10
30.00000200000001
 20
252.1783509999999
 30
0.0
 40
3.0
100
AcDbArc
 50
180.0
 51
270.0
  0
ARC
  5
C682
330
C5B5
100
AcDbEntity
  8
1
  6
Continuous
100
AcDbCircle
 10
31.60000200000001
 20
285.1783509999999
 30
0.0
 40
0.5
100
AcDbArc
 50
90.0
 51
180.0
  0
LINE
  5
C685
330
C5B5
100
AcDbEntity
  8
1
  6
Continuous
100
AcDbLine
 10
31.60000200000001
 20
277.1783509999999
 30
0.0
 11
50.400002
 21
277.1783509999999
 31
0.0
  0
LINE
  5
C687
330
C5B5
100
AcDbEntity
  8
1
  6
Continuous
100
AcDbLine
 10
31.60000200000001
 20
279.1783509999999
 30
0.0
 11
50.400002
 21
279.1783509999999
 31
0.0
  0
LINE
  5
C68A
330
C5B5
100
AcDbEntity
  8
1
  6
Continuous
100
AcDbLine
 10
31.60000200000001
 20
281.1783509999999
 30
0.0
 11
50.400002
 21
281.1783509999999
 31
0.0
  0
ARC
  5
C68C
330
C5B5
100
AcDbEntity
  8
1
  6
Continuous
100
AcDbCircle
 10
32.600002
 20
287.1783509999999
 30
0.0
 40
1.5
100
AcDbArc
 50
180.0
 51
270.0
  0
LINE
  5
C68D
330
C5B5
100
AcDbEntity
  8
1
  6
Continuous
100
AcDbLine
 10
31.60000200000001
 20
275.1783509999999
 30
0.0
 11
50.400002
 21
275.1783509999999
 31
0.0
  0
LINE
  5
C68F
330
C5B5
100
AcDbEntity
  8
1
  6
Continuous
100
AcDbLine
 10
31.60000200000001
 20
273.1783509999999
 30
0.0
 11
50.40000199999999
 21
273.1783509999999
 31
0.0
  0
ARC
  5
C690
330
C5B5
100
AcDbEntity
  8
1
  6
Continuous
100
AcDbCircle
 10
41.000002
 20
273.1783509999999
 30
0.0
 40
10.0
100
AcDbArc
 50
351.8903859999999
 51
0.0
  0
LINE
  5
C691
330
C5B5
100
AcDbEntity
  8
1
  6
Continuous
100
AcDbLine
 10
50.400002
 20
285.1783509999999
 30
0.0
 11
50.400002
 21
270.5783509999998
 31
0.0
  0
LINE
  5
C692
330
C5B5
100
AcDbEntity
  8
1
  6
Continuous
100
AcDbLine
 10
50.900002
 20
285.1783509999999
 30
0.0
 11
50.900002
 21
270.5783509999998
 31
0.0
  0
ARC
  5
C693
330
C5B5
100
AcDbEntity
  8
1
  6
Continuous
100
AcDbCircle
 10
52.000002
 20
252.1783509999999
 30
0.0
 40
3.0
100
AcDbArc
 50
270.0
 51
0.0
  0
ARC
  5
C694
330
C5B5
100
AcDbEntity
  8
1
  6
Continuous
100
AcDbCircle
 10
39.500002
 20
257.8134289999999
 30
0.0
 40
0.8649219999999997
100
AcDbArc
 50
38.65980799999999
 51
141.340192
  0
ARC
  5
C695
330
C5B5
100
AcDbEntity
  8
1
  6
Continuous
100
AcDbCircle
 10
39.500002
 20
257.0432729999997
 30
0.0
 40
0.8649219999999997
100
AcDbArc
 50
218.6598079999999
 51
321.3401919999999
  0
ARC
  5
C696
330
C5B5
100
AcDbEntity
  8
1
  6
Continuous
100
AcDbCircle
 10
39.018654
 20
257.4283509999996
 30
0.0
 40
1.481347999999996
100
AcDbArc
 50
321.3401919999999
 51
38.65980799999999
  0
ARC
  5
C697
330
C5B5
100
AcDbEntity
  8
1
  6
Continuous
100
AcDbCircle
 10
39.981349
 20
257.4283509999996
 30
0.0
 40
1.481347999999996
100
AcDbArc
 50
141.340192
 51
218.6598079999999
  0
LINE
  5
C698
330
C5B5
100
AcDbEntity
  8
1
  6
Continuous
100
AcDbLine
 10
42.875002
 20
256.1783509999999
 30
0.0
 11
43.500002
 21
258.6783509999999
 31
0.0
  0
LINE
  5
C699
330
C5B5
100
AcDbEntity
  8
1
  6
Continuous
100
AcDbLine
 10
42.250002
 20
258.6783509999999
 30
0.0
 11
42.875002
 21
256.1783509999999
 31
0.0
  0
LINE
  5
C69A
330
C5B5
100
AcDbEntity
  8
1
  6
Continuous
100
AcDbLine
 10
41.625002
 20
256.1783509999999
 30
0.0
 11
42.250002
 21
258.6783509999999
 31
0.0
  0
LINE
  5
C69B
330
C5B5
100
AcDbEntity
  8
1
  6
Continuous
100
AcDbLine
 10
41.000002
 20
258.6783509999999
 30
0.0
 11
41.625002
 21
256.1783509999999
 31
0.0
  0
LINE
  5
C69C
330
C5B5
100
AcDbEntity
  8
1
  6
Continuous
100
AcDbLine
 10
44.000002
 20
258.6783509999999
 30
0.0
 11
46.000002
 21
256.1783509999999
 31
0.0
  0
LINE
  5
C69D
330
C5B5
100
AcDbEntity
  8
1
  6
Continuous
100
AcDbLine
 10
44.000002
 20
258.6783509999999
 30
0.0
 11
44.000002
 21
256.1783509999999
 31
0.0
  0
LINE
  5
C69E
330
C5B5
100
AcDbEntity
  8
1
  6
Continuous
100
AcDbLine
 10
46.000002
 20
258.6783509999999
 30
0.0
 11
46.000002
 21
256.1783509999999
 31
0.0
  0
LINE
  5
C69F
330
C5B5
100
AcDbEntity
  8
1
  6
Continuous
100
AcDbLine
 10
36.000002
 20
258.6783509999999
 30
0.0
 11
36.750002
 21
258.6783509999999
 31
0.0
  0
LINE
  5
C6A0
330
C5B5
100
AcDbEntity
  8
1
  6
Continuous
100
AcDbLine
 10
36.750002
 20
256.1783509999999
 30
0.0
 11
36.000002
 21
256.1783509999999
 31
0.0
  0
ARC
  5
C6A1
330
C5B5
100
AcDbEntity
  8
1
  6
Continuous
100
AcDbCircle
 10
36.750002
 20
257.4283509999996
 30
0.0
 40
1.25
100
AcDbArc
 50
270.0
 51
90.0
  0
LINE
  5
C6A2
330
C5B5
100
AcDbEntity
  8
1
  6
Continuous
100
AcDbLine
 10
36.000002
 20
256.1783509999999
 30
0.0
 11
36.000002
 21
258.6783509999999
 31
0.0
  0
LINE
  5
C6AA
330
C5B5
100
AcDbEntity
  8
1
  6
Continuous
100
AcDbLine
 10
41.000002
 20
249.1783509999999
 30
0.0
 11
51.000002
 21
260.6783509999999
 31
0.0
  0
ARC
  5
C6AB
330
C5B5
100
AcDbEntity
  8
1
  6
Continuous
100
AcDbCircle
 10
50.400002
 20
285.1783509999999
 30
0.0
 40
0.5
100
AcDbArc
 50
0.0
 51
90.0
  0
ARC
  5
C6B7
330
C5B5
100
AcDbEntity
  8
1
  6
Continuous
100
AcDbCircle
 10
49.400002
 20
287.1783509999999
 30
0.0
 40
1.5
100
AcDbArc
 50
270.0
 51
0.0
  0
LINE
  5
C6CC
330
C5B5
100
AcDbEntity
  8
1
  6
Continuous
100
AcDbLine
 10
31.000002
 20
317.006778
 30
0.0
 11
31.100002
 21
317.006778
 31
0.0
  0
LINE
  5
C6CD
330
C5B5
100
AcDbEntity
  8
1
  6
Continuous
100
AcDbLine
 10
31.000002
 20
314.0067779999998
 30
0.0
 11
31.100002
 21
314.0067779999998
 31
0.0
  0
LINE
  5
C6CE
330
C5B5
100
AcDbEntity
  8
1
  6
Continuous
100
AcDbLine
 10
50.900002
 20
317.006778
 30
0.0
 11
51.000002
 21
317.006778
 31
0.0
  0
LINE
  5
C6CF
330
C5B5
100
AcDbEntity
  8
1
  6
Continuous
100
AcDbLine
 10
50.900002
 20
314.0067779999998
 30
0.0
 11
51.000002
 21
314.0067779999998
 31
0.0
  0
LINE
  5
C6D0
330
C5B5
100
AcDbEntity
  8
4
  6
CENTER
 48
0.2
100
AcDbLine
 10
45.46039099999998
 20
382.1783509999999
 30
0.0
 11
35.779314
 21
382.1783509999999
 31
0.0
  0
LINE
  5
C6D1
330
C5B5
100
AcDbEntity
  8
4
  6
CENTER
 48
0.2
100
AcDbLine
 10
61.044856
 20
360.1783509999998
 30
0.0
 11
21.861032
 21
360.1783509999998
 31
0.0
  0
LINE
  5
C6D2
330
C5B5
100
AcDbEntity
  8
1
  6
Continuous
100
AcDbLine
 10
30.00000200000001
 20
387.1783509999998
 30
0.0
 11
52.000002
 21
387.1783509999998
 31
0.0
  0
LINE
  5
C6D3
330
C5B5
100
AcDbEntity
  8
1
  6
Continuous
100
AcDbLine
 10
30.00000200000001
 20
389.1783509999998
 30
0.0
 11
52.000002
 21
389.1783509999998
 31
0.0
  0
ARC
  5
C6D4
330
C5B5
100
AcDbEntity
  8
1
  6
Continuous
100
AcDbCircle
 10
41.000002
 20
362.278351
 30
0.0
 40
9.9
100
AcDbArc
 50
0.0
 51
180.0
  0
ARC
  5
C6D5
330
C5B5
100
AcDbEntity
  8
1
  6
Continuous
100
AcDbCircle
 10
41.000002
 20
363.6783509999998
 30
0.0
 40
10.0
100
AcDbArc
 50
0.0
 51
180.0
  0
LINE
  5
C6D6
330
C5B5
100
AcDbEntity
  8
1
  6
Continuous
100
AcDbLine
 10
31.000002
 20
362.6783509999999
 30
0.0
 11
31.100002
 21
362.6783509999999
 31
0.0
  0
ARC
  5
C6D7
330
C5B5
100
AcDbEntity
  8
1
  6
Continuous
100
AcDbCircle
 10
41.000002
 20
364.278351
 30
0.0
 40
9.9
100
AcDbArc
 50
172.1138339999999
 51
180.0
  0
LINE
  5
C6D8
330
C5B5
100
AcDbEntity
  8
1
  6
Continuous
100
AcDbLine
 10
31.000002
 20
363.6783509999998
 30
0.0
 11
31.100002
 21
363.6783509999998
 31
0.0
  0
LINE
  5
C6D9
330
C5B5
100
AcDbEntity
  8
1
  6
Continuous
100
AcDbLine
 10
31.000002
 20
357.6783509999998
 30
0.0
 11
31.100002
 21
357.6783509999998
 31
0.0
  0
LINE
  5
C6DA
330
C5B5
100
AcDbEntity
  8
1
  6
Continuous
100
AcDbLine
 10
31.000002
 20
353.1783509999999
 30
0.0
 11
31.100002
 21
353.1783509999999
 31
0.0
  0
ARC
  5
C6DB
330
C5B5
100
AcDbEntity
  8
1
  6
Continuous
100
AcDbCircle
 10
30.00000200000001
 20
384.1783509999999
 30
0.0
 40
3.0
100
AcDbArc
 50
90.0
 51
180.0
  0
ARC
  5
C6DC
330
C5B5
100
AcDbEntity
  8
1
  6
Continuous
100
AcDbCircle
 10
30.00000200000001
 20
384.1783509999999
 30
0.0
 40
5.0
100
AcDbArc
 50
90.0
 51
180.0
  0
LINE
  5
C6DD
330
C5B5
100
AcDbEntity
  8
1
  6
Continuous
100
AcDbLine
 10
50.900002
 20
362.6783509999999
 30
0.0
 11
51.000002
 21
362.6783509999999
 31
0.0
  0
ARC
  5
C6DE
330
C5B5
100
AcDbEntity
  8
1
  6
Continuous
100
AcDbCircle
 10
41.000002
 20
364.278351
 30
0.0
 40
9.9
100
AcDbArc
 50
0.0
 51
7.886166000000002
  0
LINE
  5
C6DF
330
C5B5
100
AcDbEntity
  8
1
  6
Continuous
100
AcDbLine
 10
50.900002
 20
363.6783509999998
 30
0.0
 11
51.000002
 21
363.6783509999998
 31
0.0
  0
LINE
  5
C6E0
330
C5B5
100
AcDbEntity
  8
1
  6
Continuous
100
AcDbLine
 10
50.900002
 20
357.6783509999998
 30
0.0
 11
51.000002
 21
357.6783509999998
 31
0.0
  0
LINE
  5
C6E1
330
C5B5
100
AcDbEntity
  8
1
  6
Continuous
100
AcDbLine
 10
50.900002
 20
353.1783509999999
 30
0.0
 11
51.000002
 21
353.1783509999999
 31
0.0
  0
ARC
  5
C6E2
330
C5B5
100
AcDbEntity
  8
1
  6
Continuous
100
AcDbCircle
 10
52.000002
 20
384.1783509999999
 30
0.0
 40
3.0
100
AcDbArc
 50
0.0
 51
90.0
  0
ARC
  5
C6E3
330
C5B5
100
AcDbEntity
  8
1
  6
Continuous
100
AcDbCircle
 10
52.000002
 20
384.1783509999999
 30
0.0
 40
5.0
100
AcDbArc
 50
0.0
 51
90.0
  0
LINE
  5
C6E4
330
C5B5
100
AcDbEntity
  8
1
  6
Continuous
100
AcDbLine
 10
229.357698
 20
313.1783509999999
 30
0.0
 11
229.357698
 21
263.1783509999999
 31
0.0
  0
LINE
  5
C6E5
330
C5B5
100
AcDbEntity
  8
1
  6
Continuous
100
AcDbLine
 10
214.357698
 20
247.1783509999999
 30
0.0
 11
214.357698
 21
389.1783509999998
 31
0.0
  0
LINE
  5
C6E6
330
C5B5
100
AcDbEntity
  8
1
  6
Continuous
100
AcDbLine
 10
215.8576979999998
 20
247.1783509999999
 30
0.0
 11
215.8576979999998
 21
389.1783509999998
 31
0.0
  0
LINE
  5
C6E7
330
C5B5
100
AcDbEntity
  8
1
  6
Continuous
100
AcDbLine
 10
212.857698
 20
249.1783509999999
 30
0.0
 11
212.857698
 21
387.1783509999998
 31
0.0
  0
LINE
  5
C6E8
330
C5B5
100
AcDbEntity
  8
1
  6
Continuous
100
AcDbLine
 10
214.357698
 20
247.1783509999999
 30
0.0
 11
215.8576979999998
 21
247.1783509999999
 31
0.0
  0
LINE
  5
C6E9
330
C5B5
100
AcDbEntity
  8
4
  6
CENTER
 48
0.2
100
AcDbLine
 10
211.6068859999999
 20
254.1783509999999
 30
0.0
 11
222.2403659999999
 21
254.1783509999999
 31
0.0
  0
LINE
  5
C6EA
330
C5B5
100
AcDbEntity
  8
1
  6
Continuous
100
AcDbLine
 10
214.357698
 20
247.1783509999999
 30
0.0
 11
212.857698
 21
249.1783509999999
 31
0.0
  0
LINE
  5
C6EB
330
C5B5
100
AcDbEntity
  8
1
  6
Continuous
100
AcDbLine
 10
212.857698
 20
285.6783509999999
 30
0.0
 11
210.357698
 21
260.6783509999999
 31
0.0
  0
LINE
  5
C6EC
330
C5B5
100
AcDbEntity
  8
1
  6
Continuous
100
AcDbLine
 10
212.5576979999999
 20
276.5783509999999
 30
0.0
 11
212.5576979999999
 21
261.1783509999999
 31
0.0
  0
LINE
  5
C6ED
330
C5B5
100
AcDbEntity
  8
1
  6
Continuous
100
AcDbLine
 10
212.5576979999999
 20
266.6783509999999
 30
0.0
 11
212.857698
 21
266.6783509999999
 31
0.0
  0
LINE
  5
C6EE
330
C5B5
100
AcDbEntity
  8
1
  6
Continuous
100
AcDbLine
 10
210.357698
 20
260.6783509999999
 30
0.0
 11
212.5576979999999
 21
260.6783509999999
 31
0.0
  0
ARC
  5
C6EF
330
C5B5
100
AcDbEntity
  8
1
  6
Continuous
100
AcDbCircle
 10
212.057698
 20
261.1783509999999
 30
0.0
 40
0.5
100
AcDbArc
 50
270.0
 51
0.0
  0
ARC
  5
C6F0
330
C5B5
100
AcDbEntity
  8
1
  6
Continuous
100
AcDbCircle
 10
212.5576979999999
 20
260.8783509999995
 30
0.0
 40
0.2
100
AcDbArc
 50
270.0
 51
0.0
  0
LINE
  5
C6F1
330
C5B5
100
AcDbEntity
  8
1
  6
Continuous
100
AcDbLine
 10
212.757698
 20
266.6783509999999
 30
0.0
 11
212.757698
 21
260.8783509999995
 31
0.0
  0
LINE
  5
C6F2
330
C5B5
100
AcDbEntity
  8
1
  6
Continuous
100
AcDbLine
 10
227.5576979999999
 20
285.6783509999999
 30
0.0
 11
227.5576979999999
 21
260.228861
 31
0.0
  0
LINE
  5
C6F3
330
C5B5
100
AcDbEntity
  8
1
  6
Continuous
100
AcDbLine
 10
227.8576979999999
 20
285.6783509999999
 30
0.0
 11
227.8576979999999
 21
263.1783509999999
 31
0.0
  0
LINE
  5
C6F4
330
C5B5
100
AcDbEntity
  8
1
  6
Continuous
100
AcDbLine
 10
227.757698
 20
285.6783509999999
 30
0.0
 11
227.757698
 21
260.1783509999999
 31
0.0
  0
LINE
  5
C6FC
330
C5B5
100
AcDbEntity
  8
1
  6
Continuous
100
AcDbLine
 10
227.8576979999999
 20
263.1783509999999
 30
0.0
 11
229.357698
 21
263.1783509999999
 31
0.0
  0
LINE
  5
C6FD
330
C5B5
100
AcDbEntity
  8
1
  6
Continuous
100
AcDbLine
 10
220.357698
 20
258.1783509999999
 30
0.0
 11
220.857698
 21
257.6783509999996
 31
0.0
  0
LINE
  5
C6FE
330
C5B5
100
AcDbEntity
  8
1
  6
Continuous
100
AcDbLine
 10
215.8576979999998
 20
258.1783509999999
 30
0.0
 11
220.357698
 21
258.1783509999999
 31
0.0
  0
LINE
  5
C6FF
330
C5B5
100
AcDbEntity
  8
1
  6
Continuous
100
AcDbLine
 10
215.8576979999998
 20
260.1783509999999
 30
0.0
 11
227.757698
 21
260.1783509999999
 31
0.0
  0
LINE
  5
C700
330
C5B5
100
AcDbEntity
  8
1
  6
Continuous
100
AcDbLine
 10
220.357698
 20
250.1783509999999
 30
0.0
 11
220.857698
 21
250.6783509999999
 31
0.0
  0
LINE
  5
C701
330
C5B5
100
AcDbEntity
  8
1
  6
Continuous
100
AcDbLine
 10
215.8576979999998
 20
250.1783509999999
 30
0.0
 11
220.357698
 21
250.1783509999999
 31
0.0
  0
LINE
  5
C702
330
C5B5
100
AcDbEntity
  8
1
  6
Continuous
100
AcDbLine
 10
220.357698
 20
250.1783509999999
 30
0.0
 11
220.357698
 21
258.1783509999999
 31
0.0
  0
LINE
  5
C703
330
C5B5
100
AcDbEntity
  8
1
  6
Continuous
100
AcDbLine
 10
220.857698
 20
257.6783509999996
 30
0.0
 11
220.857698
 21
250.6783509999999
 31
0.0
  0
LINE
  5
C704
330
C5B5
100
AcDbEntity
  8
4
  6
CENTER
 48
0.1
100
AcDbLine
 10
232.7768069999999
 20
283.1783509999999
 30
0.0
 11
225.1267089999998
 21
283.1783509999999
 31
0.0
  0
LINE
  5
C705
330
C5B5
100
AcDbEntity
  8
1
  6
Continuous
100
AcDbLine
 10
227.5576979999999
 20
285.6783509999999
 30
0.0
 11
229.357698
 21
285.6783509999999
 31
0.0
  0
LINE
  5
C706
330
C5B5
100
AcDbEntity
  8
1
  6
Continuous
100
AcDbLine
 10
227.757698
 20
279.078351
 30
0.0
 11
227.8576979999999
 21
279.078351
 31
0.0
  0
LINE
  5
C707
330
C5B5
100
AcDbEntity
  8
1
  6
Continuous
100
AcDbLine
 10
214.357698
 20
389.1783509999998
 30
0.0
 11
215.8576979999998
 21
389.1783509999998
 31
0.0
  0
LINE
  5
C708
330
C5B5
100
AcDbEntity
  8
4
  6
CENTER
 48
0.2
100
AcDbLine
 10
210.6286499999999
 20
382.1783509999999
 30
0.0
 11
222.357698
 21
382.1783509999999
 31
0.0
  0
LINE
  5
C709
330
C5B5
100
AcDbEntity
  8
5
  6
PHANTOM
 48
0.5
100
AcDbLine
 10
203.1300869999999
 20
349.2783269999998
 30
0.0
 11
168.4267399999999
 21
325.0425719999999
 31
0.0
  0
LINE
  5
C70A
330
C5B5
100
AcDbEntity
  8
5
  6
PHANTOM
 48
0.5
100
AcDbLine
 10
212.857698
 20
360.9506779999999
 30
0.0
 11
157.12906
 21
322.031503
 31
0.0
  0
LINE
  5
C70B
330
C5B5
100
AcDbEntity
  8
5
  6
PHANTOM
 48
0.5
100
AcDbLine
 10
212.857698
 20
364.609841
 30
0.0
 11
156.6411552331034
 21
325.3499281627922
 31
0.0
  0
LINE
  5
C70C
330
C5B5
100
AcDbEntity
  8
5
  6
PHANTOM
 48
0.1
100
AcDbLine
 10
164.8653689999999
 20
317.0666739999998
 30
0.0
 11
158.3588489999999
 21
322.89035
 31
0.0
  0
LINE
  5
C70D
330
C5B5
100
AcDbEntity
  8
5
  6
PHANTOM
 48
0.1
100
AcDbLine
 10
166.0402689999999
 20
326.2333529999999
 30
0.0
 11
169.916124
 21
317.945535
 31
0.0
  0
ARC
  5
C70E
330
C5B5
100
AcDbEntity
  8
5
  6
PHANTOM
 48
0.1
100
AcDbCircle
 10
169.010284
 20
317.5219139999998
 30
0.0
 40
1.0
100
AcDbArc
 50
304.9292699999998
 51
25.063463
  0
LINE
  5
C70F
330
C5B5
100
AcDbEntity
  8
5
  6
PHANTOM
 48
0.1
100
AcDbLine
 10
169.582849
 20
316.7020539999998
 30
0.0
 11
164.5334139999999
 21
313.175683
 31
0.0
  0
ARC
  5
C710
330
C5B5
100
AcDbEntity
  8
5
  6
PHANTOM
 48
0.1
100
AcDbCircle
 10
163.96085
 20
313.995543
 30
0.0
 40
1.0
100
AcDbArc
 50
214.92927
 51
304.9292699999998
  0
ARC
  5
C711
330
C5B5
100
AcDbEntity
  8
5
  6
PHANTOM
 48
0.1
100
AcDbCircle
 10
162.6920729999999
 20
314.9390499999999
 30
0.0
 40
0.5
100
AcDbArc
 50
124.9292699999999
 51
214.92927
  0
LINE
  5
C712
330
C5B5
100
AcDbEntity
  8
5
  6
PHANTOM
 48
0.1
100
AcDbLine
 10
164.8653689999999
 20
317.0666739999998
 30
0.0
 11
162.4057899999999
 21
315.348979
 31
0.0
  0
LINE
  5
C713
330
C5B5
100
AcDbEntity
  8
5
  6
PHANTOM
 48
0.1
100
AcDbLine
 10
162.2821429999999
 20
314.6527669999998
 30
0.0
 11
163.1409899999999
 21
313.422978
 31
0.0
  0
LINE
  5
C714
330
C5B5
100
AcDbEntity
  8
5
  6
PHANTOM
 48
0.1
100
AcDbLine
 10
156.2702131614766
 20
323.2612917687802
 30
0.0
 11
157.12906
 21
322.031503
 31
0.0
  0
ARC
  5
C715
330
C5B5
100
AcDbEntity
  8
5
  6
PHANTOM
 48
0.1
100
AcDbCircle
 10
157.500002
 20
324.120139
 30
0.0
 40
1.5
100
AcDbArc
 50
124.9292699999999
 51
214.92927
  0
ARC
  5
C716
330
C5B5
100
AcDbEntity
  8
5
  6
PHANTOM
 48
0.1
100
AcDbCircle
 10
167.8519469999999
 20
327.080597
 30
0.0
 40
2.0
100
AcDbArc
 50
124.9292699999999
 51
205.0634629999998
  0
ARC
  5
C717
330
C5B5
100
AcDbEntity
  8
5
  6
PHANTOM
 48
0.1
100
AcDbCircle
 10
169.5718689999999
 20
323.4028529999998
 30
0.0
 40
2.0
100
AcDbArc
 50
124.9292699999999
 51
205.0634629999998
  0
LINE
  5
C718
330
C5B5
100
AcDbEntity
  8
5
  6
PHANTOM
 48
0.1
100
AcDbLine
 10
205.9076889999999
 20
353.012064
 30
0.0
 11
207.254226
 21
352.938358
 31
0.0
  0
LINE
  5
C719
330
C5B5
100
AcDbEntity
  8
5
  6
PHANTOM
 48
0.1
100
AcDbLine
 10
204.459548
 20
355.0856669999997
 30
0.0
 11
205.9076889999999
 21
353.012064
 31
0.0
  0
LINE
  5
C71A
330
C5B5
100
AcDbEntity
  8
5
  6
PHANTOM
 48
0.1
100
AcDbLine
 10
205.9076889999999
 20
353.012064
 30
0.0
 11
207.960348
 21
357.5305189999999
 31
0.0
  0
ARC
  5
C71B
330
C5B5
100
AcDbEntity
  8
5
  6
PHANTOM
 48
0.1
100
AcDbCircle
 10
203.4402159999999
 20
348.8850509999999
 30
0.0
 40
0.5
100
AcDbArc
 50
131.5879469999996
 51
311.5879469999998
  0
LINE
  5
C71C
330
C5B5
100
AcDbEntity
  8
5
  6
PHANTOM
 48
0.1
100
AcDbLine
 10
208.6732519999999
 20
352.860685
 30
0.0
 11
212.857698
 21
352.63164
 31
0.0
  0
LINE
  5
C71D
330
C5B5
100
AcDbEntity
  8
5
  6
PHANTOM
 48
0.1
100
AcDbLine
 10
203.7721009999999
 20
348.5110829999999
 30
0.0
 11
212.857698
 21
356.5742359999999
 31
0.0
  0
LINE
  5
C71E
330
C5B5
100
AcDbEntity
  8
5
  6
PHANTOM
 48
0.1
100
AcDbLine
 10
203.108332
 20
349.25902
 30
0.0
 11
212.857698
 21
357.911246
 31
0.0
  0
LINE
  5
C71F
330
C5B5
100
AcDbEntity
  8
1
  6
Continuous
100
AcDbLine
 10
212.857698
 20
387.1783509999998
 30
0.0
 11
214.357698
 21
389.1783509999998
 31
0.0
  0
LINE
  5
C720
330
C5B5
100
AcDbEntity
  8
1
  6
Continuous
100
AcDbLine
 10
236.0576979999999
 20
390.1783509999999
 30
0.0
 11
236.0576979999999
 21
345.1783509999998
 31
0.0
  0
LINE
  5
C721
330
C5B5
100
AcDbEntity
  8
1
  6
Continuous
100
AcDbLine
 10
232.857698
 20
390.1783509999999
 30
0.0
 11
232.857698
 21
345.1783509999998
 31
0.0
  0
LINE
  5
C722
330
C5B5
100
AcDbEntity
  8
1
  6
Continuous
100
AcDbLine
 10
232.3576979999999
 20
355.1783509999999
 30
0.0
 11
232.3576979999999
 21
316.1783509999999
 31
0.0
  0
LINE
  5
C723
330
C5B5
100
AcDbEntity
  8
1
  6
Continuous
100
AcDbLine
 10
229.357698
 20
313.1783509999999
 30
0.0
 11
232.3576979999999
 21
316.1783509999999
 31
0.0
  0
LINE
  5
C724
330
C5B5
100
AcDbEntity
  8
1
  6
Continuous
100
AcDbLine
 10
232.857698
 20
345.1783509999998
 30
0.0
 11
236.0576979999999
 21
345.1783509999998
 31
0.0
  0
LINE
  5
C725
330
C5B5
100
AcDbEntity
  8
1
  6
Continuous
100
AcDbLine
 10
240.8576979999998
 20
366.817879
 30
0.0
 11
237.185478
 21
373.1783509999999
 31
0.0
  0
LINE
  5
C726
330
C5B5
100
AcDbEntity
  8
1
  6
Continuous
100
AcDbLine
 10
232.857698
 20
365.1783509999999
 30
0.0
 11
236.0576979999999
 21
365.1783509999999
 31
0.0
  0
LINE
  5
C727
330
C5B5
100
AcDbEntity
  8
4
  6
CENTER
 48
0.1
100
AcDbLine
 10
237.965762
 20
355.1783509999999
 30
0.0
 11
231.2775729999999
 21
355.1783509999999
 31
0.0
  0
LINE
  5
C728
330
C5B5
100
AcDbEntity
  8
1
  6
Continuous
100
AcDbLine
 10
232.3576979999999
 20
353.1783509999999
 30
0.0
 11
232.857698
 21
353.1783509999999
 31
0.0
  0
LINE
  5
C729
330
C5B5
100
AcDbEntity
  8
1
  6
Continuous
100
AcDbLine
 10
238.657698
 20
360.1783509999998
 30
0.0
 11
237.357698
 21
358.8783509999998
 31
0.0
  0
LINE
  5
C72A
330
C5B5
100
AcDbEntity
  8
1
  6
Continuous
100
AcDbLine
 10
237.357698
 20
360.1783509999998
 30
0.0
 11
238.657698
 21
361.4783509999999
 31
0.0
  0
ARC
  5
C72B
330
C5B5
100
AcDbEntity
  8
1
  6
Continuous
100
AcDbCircle
 10
229.9576979999999
 20
360.1783509999998
 30
0.0
 40
12.0
100
AcDbArc
 50
344.506032
 51
15.493968
  0
LINE
  5
C72C
330
C5B5
100
AcDbEntity
  8
1
  6
Continuous
100
AcDbLine
 10
238.3401779999999
 20
371.1783509999999
 30
0.0
 11
236.0576979999999
 21
371.1783509999999
 31
0.0
  0
LINE
  5
C72D
330
C5B5
100
AcDbEntity
  8
1
  6
Continuous
100
AcDbLine
 10
238.657698
 20
364.6783509999999
 30
0.0
 11
240.1191959999999
 21
364.5504869999999
 31
0.0
  0
LINE
  5
C72E
330
C5B5
100
AcDbEntity
  8
1
  6
Continuous
100
AcDbLine
 10
237.357698
 20
364.778351
 30
0.0
 11
238.657698
 21
364.778351
 31
0.0
  0
LINE
  5
C72F
330
C5B5
100
AcDbEntity
  8
1
  6
Continuous
100
AcDbLine
 10
236.0576979999999
 20
364.046598
 30
0.0
 11
236.3576979999999
 21
364.2198029999998
 31
0.0
  0
LINE
  5
C730
330
C5B5
100
AcDbEntity
  8
1
  6
Continuous
100
AcDbLine
 10
236.0576979999999
 20
363.4283509999999
 30
0.0
 11
236.3576979999999
 21
363.4283509999999
 31
0.0
  0
LINE
  5
C731
330
C5B5
100
AcDbEntity
  8
1
  6
Continuous
100
AcDbLine
 10
236.3576979999999
 20
365.1783509999999
 30
0.0
 11
237.357698
 21
365.1783509999999
 31
0.0
  0
LINE
  5
C732
330
C5B5
100
AcDbEntity
  8
1
  6
Continuous
100
AcDbLine
 10
238.657698
 20
355.6783509999998
 30
0.0
 11
240.1191959999999
 21
355.8062159999997
 31
0.0
  0
LINE
  5
C733
330
C5B5
100
AcDbEntity
  8
1
  6
Continuous
100
AcDbLine
 10
236.0576979999999
 20
356.9283509999999
 30
0.0
 11
236.3576979999999
 21
356.9283509999999
 31
0.0
  0
LINE
  5
C734
330
C5B5
100
AcDbEntity
  8
1
  6
Continuous
100
AcDbLine
 10
237.357698
 20
355.5783509999998
 30
0.0
 11
238.657698
 21
355.5783509999998
 31
0.0
  0
LINE
  5
C735
330
C5B5
100
AcDbEntity
  8
1
  6
Continuous
100
AcDbLine
 10
236.3576979999999
 20
355.1783509999999
 30
0.0
 11
237.357698
 21
355.1783509999999
 31
0.0
  0
LINE
  5
C736
330
C5B5
100
AcDbEntity
  8
1
  6
Continuous
100
AcDbLine
 10
236.3576979999999
 20
355.1783509999999
 30
0.0
 11
236.3576979999999
 21
365.1783509999999
 31
0.0
  0
LINE
  5
C737
330
C5B5
100
AcDbEntity
  8
1
  6
Continuous
100
AcDbLine
 10
237.357698
 20
355.1783509999999
 30
0.0
 11
237.357698
 21
365.1783509999999
 31
0.0
  0
LINE
  5
C738
330
C5B5
100
AcDbEntity
  8
1
  6
Continuous
100
AcDbLine
 10
238.657698
 20
355.5783509999998
 30
0.0
 11
238.657698
 21
364.778351
 31
0.0
  0
ARC
  5
C739
330
C5B5
100
AcDbEntity
  8
1
  6
Continuous
100
AcDbCircle
 10
239.979747
 20
357.400127
 30
0.0
 40
1.6
100
AcDbArc
 50
275.0
 51
344.506032
  0
ARC
  5
C73A
330
C5B5
100
AcDbEntity
  8
1
  6
Continuous
100
AcDbCircle
 10
239.979747
 20
362.9565749999999
 30
0.0
 40
1.6
100
AcDbArc
 50
15.493968
 51
85.0
  0
LINE
  5
C73B
330
C5B5
100
AcDbEntity
  8
1
  6
Continuous
100
AcDbLine
 10
237.357698
 20
364.7971529999999
 30
0.0
 11
240.8576979999998
 21
366.817879
 31
0.0
  0
LINE
  5
C73C
330
C5B5
100
AcDbEntity
  8
4
  6
CENTER
 48
0.2
100
AcDbLine
 10
238.6727629999997
 20
382.1783509999999
 30
0.0
 11
230.413199
 21
382.1783509999999
 31
0.0
  0
LINE
  5
C73D
330
C5B5
100
AcDbEntity
  8
1
  6
Continuous
100
AcDbLine
 10
232.857698
 20
390.1783509999999
 30
0.0
 11
236.0576979999999
 21
390.1783509999999
 31
0.0
  0
LINE
  5
C73E
330
C5B5
100
AcDbEntity
  8
1
  6
Continuous
100
AcDbLine
 10
220.357698
 20
386.1783509999998
 30
0.0
 11
220.857698
 21
385.6783509999999
 31
0.0
  0
LINE
  5
C73F
330
C5B5
100
AcDbEntity
  8
1
  6
Continuous
100
AcDbLine
 10
215.8576979999998
 20
386.1783509999998
 30
0.0
 11
220.357698
 21
386.1783509999998
 31
0.0
  0
LINE
  5
C740
330
C5B5
100
AcDbEntity
  8
1
  6
Continuous
100
AcDbLine
 10
220.357698
 20
378.1783509999999
 30
0.0
 11
220.857698
 21
378.6783509999998
 31
0.0
  0
LINE
  5
C741
330
C5B5
100
AcDbEntity
  8
1
  6
Continuous
100
AcDbLine
 10
215.8576979999998
 20
378.1783509999999
 30
0.0
 11
220.357698
 21
378.1783509999999
 31
0.0
  0
LINE
  5
C742
330
C5B5
100
AcDbEntity
  8
1
  6
Continuous
100
AcDbLine
 10
215.8576979999998
 20
376.1783509999998
 30
0.0
 11
232.857698
 21
376.1783509999998
 31
0.0
  0
LINE
  5
C743
330
C5B5
100
AcDbEntity
  8
1
  6
Continuous
100
AcDbLine
 10
220.357698
 20
378.1783509999999
 30
0.0
 11
220.357698
 21
386.1783509999998
 31
0.0
  0
LINE
  5
C744
330
C5B5
100
AcDbEntity
  8
1
  6
Continuous
100
AcDbLine
 10
220.857698
 20
385.6783509999999
 30
0.0
 11
220.857698
 21
378.6783509999998
 31
0.0
  0
LINE
  5
C745
330
C5B5
100
AcDbEntity
  8
1
  6
Continuous
100
AcDbLine
 10
237.185478
 20
373.1783509999999
 30
0.0
 11
236.0576979999999
 21
373.1783509999999
 31
0.0
  0
LINE
  5
C746
330
C5B5
100
AcDbEntity
  8
4
  6
CENTER
 48
0.2
100
AcDbLine
 10
284.175468
 20
106.5000009999996
 30
0.0
 11
298.6173679999997
 21
106.5000009999996
 31
0.0
  0
ARC
  5
C747
330
C5B5
100
AcDbEntity
  8
1
  6
Continuous
100
AcDbCircle
 10
287.223268
 20
113.2000009999996
 30
0.0
 40
13.0
100
AcDbArc
 50
269.5412
 51
294.5430999999998
  0
ARC
  5
C748
330
C5B5
100
AcDbEntity
  8
1
  6
Continuous
100
AcDbCircle
 10
293.945268
 20
103.7220009999999
 30
0.0
 40
1.6
100
AcDbArc
 50
275.0000999999999
 51
344.5059999999998
  0
LINE
  5
C749
330
C5B5
100
AcDbEntity
  8
1
  6
Continuous
100
AcDbLine
 10
294.084768
 20
102.1280009999999
 30
0.0
 11
292.623268
 21
102.0000009999999
 31
0.0
  0
ARC
  5
C74A
330
C5B5
100
AcDbEntity
  8
1
  6
Continuous
100
AcDbCircle
 10
287.223268
 20
99.80100100000001
 30
0.0
 40
13.0
100
AcDbArc
 50
65.457
 51
90.441
  0
ARC
  5
C74B
330
C5B5
100
AcDbEntity
  8
1
  6
Continuous
100
AcDbCircle
 10
293.945268
 20
109.278001
 30
0.0
 40
1.6
100
AcDbArc
 50
15.494
 51
85.0
  0
LINE
  5
C74C
330
C5B5
100
AcDbEntity
  8
1
  6
Continuous
100
AcDbLine
 10
294.084768
 20
110.872001
 30
0.0
 11
292.623268
 21
111.000001
 31
0.0
  0
ARC
  5
C74D
330
C5B5
100
AcDbEntity
  8
1
  6
Continuous
100
AcDbCircle
 10
283.923268
 20
106.5000009999996
 30
0.0
 40
12.0
100
AcDbArc
 50
344.5059999999998
 51
15.494
  0
LINE
  5
C74E
330
C5B5
100
AcDbEntity
  8
1
  6
Continuous
100
AcDbLine
 10
287.1232679999998
 20
100.2000009999999
 30
0.0
 11
287.1232679999998
 21
112.800001
 31
0.0
  0
LINE
  5
C74F
330
C5B5
100
AcDbEntity
  8
1
  6
Continuous
100
AcDbLine
 10
292.623268
 20
101.374001
 30
0.0
 11
292.623268
 21
111.6260009999999
 31
0.0
  0
LINE
  5
C750
330
C5B5
100
AcDbEntity
  8
5
  6
PHANTOM
 48
0.5
100
AcDbLine
 10
386.6023589999999
 20
374.320487
 30
0.0
 11
460.848571
 21
300.074275
 31
0.0
  0
ARC
  5
C751
330
C5B5
100
AcDbEntity
  8
5
  6
PHANTOM
 48
0.2
100
AcDbCircle
 10
432.5643
 20
384.9270879999999
 30
0.0
 40
5.0
100
AcDbArc
 50
45.0
 51
135.0
  0
ARC
  5
C752
330
C5B5
100
AcDbEntity
  8
1
  6
Continuous
100
AcDbCircle
 10
431.457698
 20
364.178379
 30
0.0
 40
4.0
100
AcDbArc
 50
174.4754889999999
 51
5.170396
  0
ARC
  5
C753
330
C5B5
100
AcDbEntity
  8
1
  6
Continuous
100
AcDbCircle
 10
431.457698
 20
370.817879
 30
0.0
 40
4.0
100
AcDbArc
 50
174.4754889999999
 51
5.170396
  0
LINE
  5
C754
330
C5B5
100
AcDbEntity
  8
1
  6
Continuous
100
AcDbLine
 10
431.457698
 20
255.1988479999999
 30
0.0
 11
430.829221
 21
255.4276669999999
 31
0.0
  0
LINE
  5
C755
330
C5B5
100
AcDbEntity
  8
1
  6
Continuous
100
AcDbLine
 10
431.457698
 20
253.1578549999999
 30
0.0
 11
430.829292
 21
252.9291059999999
 31
0.0
  0
CIRCLE
  5
C756
330
C5B5
100
AcDbEntity
  8
1
  6
Continuous
100
AcDbCircle
 10
431.457698
 20
254.1783509999999
 30
0.0
 40
4.5
  0
ARC
  5
C757
330
C5B5
100
AcDbEntity
  8
1
  6
Continuous
100
AcDbCircle
 10
431.457698
 20
252.307357
 30
0.0
 40
7.171008999999997
100
AcDbArc
 50
49.92703099999999
 51
130.072969
  0
ARC
  5
C758
330
C5B5
100
AcDbEntity
  8
1
  6
Continuous
100
AcDbCircle
 10
431.457698
 20
256.049345
 30
0.0
 40
7.171008999999997
100
AcDbArc
 50
229.927031
 51
310.072969
  0
LINE
  5
C759
330
C5B5
100
AcDbEntity
  8
4
  6
CENTER
 48
0.2
100
AcDbLine
 10
425.9801849999998
 20
382.1783509999999
 30
0.0
 11
437.0940809999996
 21
382.1783509999999
 31
0.0
  0
LINE
  5
C75A
330
C5B5
100
AcDbEntity
  8
1
  6
Continuous
100
AcDbLine
 10
428.9576979999998
 20
373.1783509999999
 30
0.0
 11
431.9427269999998
 21
373.1783509999999
 31
0.0
  0
LINE
  5
C75B
330
C5B5
100
AcDbEntity
  8
1
  6
Continuous
100
AcDbLine
 10
411.9576979999997
 20
390.1783509999999
 30
0.0
 11
451.957698
 21
390.1783509999999
 31
0.0
  0
LINE
  5
C75C
330
C5B5
100
AcDbEntity
  8
1
  6
Continuous
100
AcDbLine
 10
386.957698
 20
345.1783509999998
 30
0.0
 11
491.957698
 21
345.1783509999998
 31
0.0
  0
LINE
  5
C75D
330
C5B5
100
AcDbEntity
  8
4
  6
CENTER
 48
0.2
100
AcDbLine
 10
415.4576979999998
 20
360.1783509999998
 30
0.0
 11
447.4576980000001
 21
360.1783509999998
 31
0.0
  0
ARC
  5
C75E
330
C5B5
100
AcDbEntity
  8
1
  6
Continuous
100
AcDbCircle
 10
431.457698
 20
362.1783509999998
 30
0.0
 40
6.0
100
AcDbArc
 50
221.980039
 51
318.0199609999998
  0
ARC
  5
C75F
330
C5B5
100
AcDbEntity
  8
1
  6
Continuous
100
AcDbCircle
 10
431.457698
 20
368.1783509999998
 30
0.0
 40
5.0
100
AcDbArc
 50
36.869898
 51
143.130102
  0
LINE
  5
C760
330
C5B5
100
AcDbEntity
  8
1
  6
Continuous
100
AcDbLine
 10
428.8249679999998
 20
300.2828349999998
 30
0.0
 11
430.9001679999998
 21
300.2828349999998
 31
0.0
  0
LINE
  5
C761
330
C5B5
100
AcDbEntity
  8
1
  6
Continuous
100
AcDbLine
 10
420.9576979999998
 20
263.1783509999999
 30
0.0
 11
441.957698
 21
263.1783509999999
 31
0.0
  0
LINE
  5
C762
330
C5B5
100
AcDbEntity
  8
1
  6
Continuous
100
AcDbLine
 10
418.457698
 20
285.6783509999999
 30
0.0
 11
444.4576979999998
 21
285.6783509999999
 31
0.0
  0
LINE
  5
C763
330
C5B5
100
AcDbEntity
  8
1
  6
Continuous
100
AcDbLine
 10
418.457698
 20
313.1783509999999
 30
0.0
 11
444.4576979999998
 21
313.1783509999999
 31
0.0
  0
LINE
  5
C764
330
C5B5
100
AcDbEntity
  8
1
  6
Continuous
100
AcDbLine
 10
418.457698
 20
316.1783509999999
 30
0.0
 11
444.4576979999998
 21
316.1783509999999
 31
0.0
  0
LINE
  5
C765
330
C5B5
100
AcDbEntity
  8
1
  6
Continuous
100
AcDbLine
 10
420.9576979999998
 20
260.1783509999999
 30
0.0
 11
441.957698
 21
260.1783509999999
 31
0.0
  0
LINE
  5
C767
330
C5B5
100
AcDbEntity
  8
1
  6
Continuous
100
AcDbLine
 10
442.457698
 20
247.1783509999999
 30
0.0
 11
420.4576979999997
 21
247.1783509999999
 31
0.0
  0
LINE
  5
C768
330
C5B5
100
AcDbEntity
  8
4
  6
CENTER
 48
0.2
100
AcDbLine
 10
440.8112489999998
 20
254.1783509999999
 30
0.0
 11
423.0137769999998
 21
254.1783509999999
 31
0.0
  0
LINE
  5
C769
330
C5B5
100
AcDbEntity
  8
1
  6
Continuous
100
AcDbLine
 10
415.4576979999998
 20
345.1783509999998
 30
0.0
 11
415.4576979999998
 21
252.1783509999999
 31
0.0
  0
LINE
  5
C76A
330
C5B5
100
AcDbEntity
  8
1
  6
Continuous
100
AcDbLine
 10
418.457698
 20
345.1783509999998
 30
0.0
 11
418.457698
 21
262.6783509999999
 31
0.0
  0
LINE
  5
C76B
330
C5B5
100
AcDbEntity
  8
4
  6
CENTER
 48
0.2
100
AcDbLine
 10
284.616403
 20
254.1783509999999
 30
0.0
 11
298.3026029999998
 21
254.1783509999999
 31
0.0
  0
LINE
  5
C76C
330
C5B5
100
AcDbEntity
  8
1
  6
Continuous
100
AcDbLine
 10
294.0848029999999
 20
258.5503509999999
 30
0.0
 11
292.6233029999999
 21
258.6783509999999
 31
0.0
  0
ARC
  5
C76D
330
C5B5
100
AcDbEntity
  8
1
  6
Continuous
100
AcDbCircle
 10
287.2233029999998
 20
246.4793509999998
 30
0.0
 40
13.0
100
AcDbArc
 50
65.4569
 51
90.44110000000001
  0
ARC
  5
C76E
330
C5B5
100
AcDbEntity
  8
1
  6
Continuous
100
AcDbCircle
 10
293.9453029999999
 20
256.956351
 30
0.0
 40
1.6
100
AcDbArc
 50
15.494
 51
84.99990000000002
  0
LINE
  5
C76F
330
C5B5
100
AcDbEntity
  8
1
  6
Continuous
100
AcDbLine
 10
294.0848029999999
 20
249.8063509999997
 30
0.0
 11
292.6233029999999
 21
249.6783509999999
 31
0.0
  0
ARC
  5
C770
330
C5B5
100
AcDbEntity
  8
1
  6
Continuous
100
AcDbCircle
 10
287.2233029999998
 20
261.8783509999999
 30
0.0
 40
13.0
100
AcDbArc
 50
269.559
 51
294.5429999999999
  0
ARC
  5
C771
330
C5B5
100
AcDbEntity
  8
1
  6
Continuous
100
AcDbCircle
 10
293.9453029999999
 20
251.4003509999997
 30
0.0
 40
1.6
100
AcDbArc
 50
275.0
 51
344.5059999999998
  0
LINE
  5
C772
330
C5B5
100
AcDbEntity
  8
1
  6
Continuous
100
AcDbLine
 10
287.1233029999999
 20
259.4783509999999
 30
0.0
 11
287.1233029999999
 21
248.8783509999999
 31
0.0
  0
LINE
  5
C773
330
C5B5
100
AcDbEntity
  8
1
  6
Continuous
100
AcDbLine
 10
292.6233029999999
 20
258.6783509999999
 30
0.0
 11
292.6233029999999
 21
249.6783509999999
 31
0.0
  0
ARC
  5
C774
330
C5B5
100
AcDbEntity
  8
1
  6
Continuous
100
AcDbCircle
 10
283.9233029999998
 20
254.1783509999999
 30
0.0
 40
12.0
100
AcDbArc
 50
344.5059999999998
 51
15.494
  0
ARC
  5
C775
330
C5B5
100
AcDbEntity
  8
1
  6
Continuous
100
AcDbCircle
 10
420.4576979999997
 20
252.1783509999999
 30
0.0
 40
5.0
100
AcDbArc
 50
180.0
 51
270.0
  0
LINE
  5
C776
330
C5B5
100
AcDbEntity
  8
1
  6
Continuous
100
AcDbLine
 10
430.829221
 20
255.4276669999999
 30
0.0
 11
430.0479389999998
 21
256.18208
 31
0.0
  0
LINE
  5
C777
330
C5B5
100
AcDbEntity
  8
1
  6
Continuous
100
AcDbLine
 10
430.4372009999998
 20
254.1783509999999
 30
0.0
 11
430.208452
 21
254.806898
 31
0.0
  0
LINE
  5
C778
330
C5B5
100
AcDbEntity
  8
1
  6
Continuous
100
AcDbLine
 10
430.2085230000001
 20
254.8068279999998
 30
0.0
 11
429.4539689999998
 21
255.58811
 31
0.0
  0
LINE
  5
C779
330
C5B5
100
AcDbEntity
  8
1
  6
Continuous
100
AcDbLine
 10
430.2085230000001
 20
253.5498749999999
 30
0.0
 11
429.4539689999998
 21
252.7685919999999
 31
0.0
  0
LINE
  5
C77A
330
C5B5
100
AcDbEntity
  8
1
  6
Continuous
100
AcDbLine
 10
430.4372009999998
 20
254.1783509999999
 30
0.0
 11
430.2085230000001
 21
253.5498749999999
 31
0.0
  0
LINE
  5
C77B
330
C5B5
100
AcDbEntity
  8
1
  6
Continuous
100
AcDbLine
 10
430.829292
 20
252.9291059999999
 30
0.0
 11
430.0479389999998
 21
252.174623
 31
0.0
  0
ARC
  5
C77C
330
C5B5
100
AcDbEntity
  8
1
  6
Continuous
100
AcDbCircle
 10
431.457698
 20
254.1783509999999
 30
0.0
 40
2.45
100
AcDbArc
 50
125.1291
 51
144.8709
  0
ARC
  5
C77D
330
C5B5
100
AcDbEntity
  8
1
  6
Continuous
100
AcDbCircle
 10
431.457698
 20
254.1783509999999
 30
0.0
 40
2.45
100
AcDbArc
 50
215.1289999999999
 51
234.871
  0
ARC
  5
C77E
330
C5B5
100
AcDbEntity
  8
1
  6
Continuous
100
AcDbCircle
 10
429.9131649999998
 20
254.1783509999999
 30
0.0
 40
3.581465999999998
100
AcDbArc
 50
128.830049
 51
231.1699509999999
  0
ARC
  5
C77F
330
C5B5
100
AcDbEntity
  8
1
  6
Continuous
100
AcDbCircle
 10
431.457698
 20
256.097302
 30
0.0
 40
6.044787999999997
100
AcDbArc
 50
231.1699509999999
 51
239.415653
  0
ARC
  5
C780
330
C5B5
100
AcDbEntity
  8
1
  6
Continuous
100
AcDbCircle
 10
429.8836829999998
 20
254.1783509999999
 30
0.0
 40
4.725984999999996
100
AcDbArc
 50
130.072969
 51
229.927031
  0
ARC
  5
C781
330
C5B5
100
AcDbEntity
  8
1
  6
Continuous
100
AcDbCircle
 10
431.457698
 20
252.2594
 30
0.0
 40
6.044787999999997
100
AcDbArc
 50
120.584347
 51
128.830049
  0
LINE
  5
C782
330
C5B5
100
AcDbEntity
  8
1
  6
Continuous
100
AcDbLine
 10
420.4576979999997
 20
260.228861
 30
0.0
 11
420.4576979999997
 21
263.2288609999998
 31
0.0
  0
LINE
  5
C783
330
C5B5
100
AcDbEntity
  8
1
  6
Continuous
100
AcDbLine
 10
421.457698
 20
260.1783509999999
 30
0.0
 11
421.457698
 21
263.1783509999999
 31
0.0
  0
ARC
  5
C784
330
C5B5
100
AcDbEntity
  8
1
  6
Continuous
100
AcDbCircle
 10
420.9576979999998
 20
262.6783509999999
 30
0.0
 40
2.5
100
AcDbArc
 50
180.0
 51
270.0
  0
ARC
  5
C785
330
C5B5
100
AcDbEntity
  8
1
  6
Continuous
100
AcDbCircle
 10
420.9576979999998
 20
265.6783509999999
 30
0.0
 40
2.5
100
AcDbArc
 50
180.0
 51
270.0
  0
LINE
  5
C786
330
C5B5
100
AcDbEntity
  8
1
  6
Continuous
100
AcDbLine
 10
429.457688
 20
295.104843
 30
0.0
 11
430.4601679999996
 21
295.104843
 31
0.0
  0
LINE
  5
C787
330
C5B5
100
AcDbEntity
  8
1
  6
Continuous
100
AcDbLine
 10
425.9020879999998
 20
294.473163
 30
0.0
 11
427.587688
 21
294.473163
 31
0.0
  0
LINE
  5
C788
330
C5B5
100
AcDbEntity
  8
1
  6
Continuous
100
AcDbLine
 10
426.7588879999998
 20
296.7020269999998
 30
0.0
 11
425.518408
 21
293.5076429999998
 31
0.0
  0
LINE
  5
C789
330
C5B5
100
AcDbEntity
  8
1
  6
Continuous
100
AcDbLine
 10
426.7588879999998
 20
296.707651
 30
0.0
 11
427.942648
 21
293.5076429999998
 31
0.0
  0
LINE
  5
C78A
330
C5B5
100
AcDbEntity
  8
1
  6
Continuous
100
AcDbLine
 10
422.55652
 20
295.104843
 30
0.0
 11
424.561288
 21
295.104843
 31
0.0
  0
LINE
  5
C78B
330
C5B5
100
AcDbEntity
  8
1
  6
Continuous
100
AcDbLine
 10
422.55652
 20
296.7287709999999
 30
0.0
 11
422.55652
 21
293.5287629999999
 31
0.0
  0
LINE
  5
C78C
330
C5B5
100
AcDbEntity
  8
1
  6
Continuous
100
AcDbLine
 10
424.561288
 20
296.7287709999999
 30
0.0
 11
424.561288
 21
293.5287629999999
 31
0.0
  0
LINE
  5
C78D
330
C5B5
100
AcDbEntity
  8
1
  6
Continuous
100
AcDbLine
 10
420.358896
 20
296.7048429999998
 30
0.0
 11
420.358896
 21
293.504843
 31
0.0
  0
LINE
  5
C78E
330
C5B5
100
AcDbEntity
  8
1
  6
Continuous
100
AcDbLine
 10
419.1044879999997
 20
296.7048429999998
 30
0.0
 11
421.6244479999998
 21
296.7048429999998
 31
0.0
  0
ARC
  5
C78F
330
C5B5
100
AcDbEntity
  8
1
  6
Continuous
100
AcDbCircle
 10
425.457698
 20
283.1783509999999
 30
0.0
 40
1.199999999999999
100
AcDbArc
 50
298.3282509999999
 51
331.6717489999998
  0
ARC
  5
C790
330
C5B5
100
AcDbEntity
  8
1
  6
Continuous
100
AcDbCircle
 10
425.457698
 20
283.1783509999999
 30
0.0
 40
1.199999999999999
100
AcDbArc
 50
28.32825099999999
 51
61.671749
  0
LINE
  5
C791
330
C5B5
100
AcDbEntity
  8
1
  6
Continuous
100
AcDbLine
 10
425.457698
 20
282.525963
 30
0.0
 11
425.7086069999998
 21
282.429648
 31
0.0
  0
LINE
  5
C792
330
C5B5
100
AcDbEntity
  8
1
  6
Continuous
100
AcDbLine
 10
425.7086069999998
 20
282.429648
 30
0.0
 11
426.027125
 21
282.1220589999999
 31
0.0
  0
LINE
  5
C793
330
C5B5
100
AcDbEntity
  8
1
  6
Continuous
100
AcDbLine
 10
426.2064009999998
 20
282.9274419999998
 30
0.0
 11
426.5139899999998
 21
282.6089239999999
 31
0.0
  0
LINE
  5
C794
330
C5B5
100
AcDbEntity
  8
1
  6
Continuous
100
AcDbLine
 10
426.1100859999998
 20
283.1783509999999
 30
0.0
 11
426.2064009999998
 21
282.9274419999998
 31
0.0
  0
LINE
  5
C795
330
C5B5
100
AcDbEntity
  8
1
  6
Continuous
100
AcDbLine
 10
426.1100859999998
 20
283.1783509999999
 30
0.0
 11
426.2064009999998
 21
283.4292599999999
 31
0.0
  0
LINE
  5
C796
330
C5B5
100
AcDbEntity
  8
1
  6
Continuous
100
AcDbLine
 10
426.2064009999998
 20
283.4292599999999
 30
0.0
 11
426.5139899999998
 21
283.747778
 31
0.0
  0
LINE
  5
C797
330
C5B5
100
AcDbEntity
  8
1
  6
Continuous
100
AcDbLine
 10
425.7086069999998
 20
283.927054
 30
0.0
 11
426.027125
 21
284.234643
 31
0.0
  0
LINE
  5
C798
330
C5B5
100
AcDbEntity
  8
1
  6
Continuous
100
AcDbLine
 10
425.457698
 20
283.830739
 30
0.0
 11
425.7086069999998
 21
283.927054
 31
0.0
  0
ARC
  5
C799
330
C5B5
100
AcDbEntity
  8
1
  6
Continuous
100
AcDbCircle
 10
425.457698
 20
283.1783509999999
 30
0.0
 40
1.199999999999999
100
AcDbArc
 50
208.328251
 51
241.6717489999999
  0
ARC
  5
C79A
330
C5B5
100
AcDbEntity
  8
1
  6
Continuous
100
AcDbCircle
 10
425.457698
 20
283.1783509999999
 30
0.0
 40
1.199999999999999
100
AcDbArc
 50
118.3282509999999
 51
151.671749
  0
LINE
  5
C79B
330
C5B5
100
AcDbEntity
  8
1
  6
Continuous
100
AcDbLine
 10
425.2067889999996
 20
282.429648
 30
0.0
 11
424.888271
 21
282.1220589999999
 31
0.0
  0
LINE
  5
C79C
330
C5B5
100
AcDbEntity
  8
1
  6
Continuous
100
AcDbLine
 10
425.2067889999996
 20
283.927054
 30
0.0
 11
424.888271
 21
284.234643
 31
0.0
  0
LINE
  5
C79D
330
C5B5
100
AcDbEntity
  8
1
  6
Continuous
100
AcDbLine
 10
424.708995
 20
282.9274419999998
 30
0.0
 11
424.4014059999998
 21
282.6089239999999
 31
0.0
  0
LINE
  5
C79E
330
C5B5
100
AcDbEntity
  8
1
  6
Continuous
100
AcDbLine
 10
424.708995
 20
283.4292599999999
 30
0.0
 11
424.4014059999998
 21
283.747778
 31
0.0
  0
LINE
  5
C79F
330
C5B5
100
AcDbEntity
  8
1
  6
Continuous
100
AcDbLine
 10
424.8053099999998
 20
283.1783509999999
 30
0.0
 11
424.708995
 21
282.9274419999998
 31
0.0
  0
LINE
  5
C7A0
330
C5B5
100
AcDbEntity
  8
1
  6
Continuous
100
AcDbLine
 10
424.8053099999998
 20
283.1783509999999
 30
0.0
 11
424.708995
 21
283.4292599999999
 31
0.0
  0
ARC
  5
C7A1
330
C5B5
100
AcDbEntity
  8
1
  6
Continuous
100
AcDbCircle
 10
420.9576979999998
 20
283.1783509999999
 30
0.0
 40
2.5
100
AcDbArc
 50
90.0
 51
180.0
  0
CIRCLE
  5
C7A2
330
C5B5
100
AcDbEntity
  8
1
  6
Continuous
100
AcDbCircle
 10
425.457698
 20
283.1783509999999
 30
0.0
 40
2.299999999999998
  0
LINE
  5
C7A3
330
C5B5
100
AcDbEntity
  8
4
  6
CENTER
 48
0.2
100
AcDbLine
 10
429.457698
 20
283.1783509999999
 30
0.0
 11
421.457698
 21
283.1783509999999
 31
0.0
  0
CIRCLE
  5
C7A4
330
C5B5
100
AcDbEntity
  8
1
  6
Continuous
100
AcDbCircle
 10
425.457698
 20
283.1783509999999
 30
0.0
 40
2.5
  0
LINE
  5
C7A5
330
C5B5
100
AcDbEntity
  8
1
  6
Continuous
100
AcDbLine
 10
425.457698
 20
282.525963
 30
0.0
 11
425.2067889999996
 21
282.429648
 31
0.0
  0
LINE
  5
C7A6
330
C5B5
100
AcDbEntity
  8
1
  6
Continuous
100
AcDbLine
 10
425.457698
 20
283.830739
 30
0.0
 11
425.2067889999996
 21
283.927054
 31
0.0
  0
LINE
  5
C7A7
330
C5B5
100
AcDbEntity
  8
4
  6
CENTER
 48
0.2
100
AcDbLine
 10
425.457698
 20
287.1783509999999
 30
0.0
 11
425.457698
 21
279.1783509999999
 31
0.0
  0
LINE
  5
C7A8
330
C5B5
100
AcDbEntity
  8
4
  6
CENTER
 48
0.2
100
AcDbLine
 10
284.616403
 20
382.1783509999999
 30
0.0
 11
298.3026029999998
 21
382.1783509999999
 31
0.0
  0
LINE
  5
C7A9
330
C5B5
100
AcDbEntity
  8
1
  6
Continuous
100
AcDbLine
 10
287.1233029999999
 20
387.4783509999998
 30
0.0
 11
287.1233029999999
 21
376.8783509999996
 31
0.0
  0
LINE
  5
C7AA
330
C5B5
100
AcDbEntity
  8
1
  6
Continuous
100
AcDbLine
 10
292.6233029999999
 20
386.6783509999999
 30
0.0
 11
292.6233029999999
 21
377.6783509999999
 31
0.0
  0
LINE
  5
C7AB
330
C5B5
100
AcDbEntity
  8
1
  6
Continuous
100
AcDbLine
 10
294.0848029999999
 20
386.5503509999999
 30
0.0
 11
292.6233029999999
 21
386.6783509999999
 31
0.0
  0
LINE
  5
C7AC
330
C5B5
100
AcDbEntity
  8
1
  6
Continuous
100
AcDbLine
 10
294.0848029999999
 20
377.8063509999999
 30
0.0
 11
292.6233029999999
 21
377.6783509999999
 31
0.0
  0
ARC
  5
C7AD
330
C5B5
100
AcDbEntity
  8
1
  6
Continuous
100
AcDbCircle
 10
287.2233029999998
 20
374.4793509999998
 30
0.0
 40
13.0
100
AcDbArc
 50
65.4569
 51
90.44110000000001
  0
ARC
  5
C7AE
330
C5B5
100
AcDbEntity
  8
1
  6
Continuous
100
AcDbCircle
 10
287.2233029999998
 20
389.8783509999999
 30
0.0
 40
13.0
100
AcDbArc
 50
269.559
 51
294.5429999999999
  0
ARC
  5
C7AF
330
C5B5
100
AcDbEntity
  8
1
  6
Continuous
100
AcDbCircle
 10
293.9453029999999
 20
384.9563509999999
 30
0.0
 40
1.6
100
AcDbArc
 50
15.494
 51
84.99990000000002
  0
ARC
  5
C7B0
330
C5B5
100
AcDbEntity
  8
1
  6
Continuous
100
AcDbCircle
 10
283.9233029999998
 20
382.1783509999999
 30
0.0
 40
12.0
100
AcDbArc
 50
344.5059999999998
 51
15.494
  0
ARC
  5
C7B1
330
C5B5
100
AcDbEntity
  8
1
  6
Continuous
100
AcDbCircle
 10
293.9453029999999
 20
379.400351
 30
0.0
 40
1.6
100
AcDbArc
 50
275.0
 51
344.5059999999998
  0
ARC
  5
C7B2
330
C5B5
100
AcDbEntity
  8
1
  6
Continuous
100
AcDbCircle
 10
386.957698
 20
350.1783509999999
 30
0.0
 40
5.0
100
AcDbArc
 50
180.0
 51
270.0
  0
ARC
  5
C7B3
330
C5B5
100
AcDbEntity
  8
1
  6
Continuous
100
AcDbCircle
 10
426.6885679999998
 20
299.6369149999998
 30
0.0
 40
0.8210319999999999
100
AcDbArc
 50
289.1929999999998
 51
354.341
  0
ARC
  5
C7B4
330
C5B5
100
AcDbEntity
  8
1
  6
Continuous
100
AcDbCircle
 10
426.6885679999998
 20
301.0347229999998
 30
0.0
 40
0.8210319999999999
100
AcDbArc
 50
5.659239999999998
 51
70.80719999999998
  0
LINE
  5
C7B5
330
C5B5
100
AcDbEntity
  8
1
  6
Continuous
100
AcDbLine
 10
428.8249679999998
 20
301.9639869999998
 30
0.0
 11
428.8249679999998
 21
298.601683
 31
0.0
  0
ARC
  5
C7B6
330
C5B5
100
AcDbEntity
  8
1
  6
Continuous
100
AcDbCircle
 10
426.555688
 20
300.6530349999998
 30
0.0
 40
1.225184
100
AcDbArc
 50
70.80719999999998
 51
138.9319999999997
  0
ARC
  5
C7B7
330
C5B5
100
AcDbEntity
  8
1
  6
Continuous
100
AcDbCircle
 10
426.555688
 20
300.018603
 30
0.0
 40
1.225184
100
AcDbArc
 50
221.0679999999999
 51
289.1929999999998
  0
ARC
  5
C7B8
330
C5B5
100
AcDbEntity
  8
1
  6
Continuous
100
AcDbCircle
 10
423.1978879999998
 20
300.636075
 30
0.0
 40
1.225184
100
AcDbArc
 50
41.0679
 51
138.9319999999997
  0
ARC
  5
C7B9
330
C5B5
100
AcDbEntity
  8
1
  6
Continuous
100
AcDbCircle
 10
423.1978879999998
 20
300.001643
 30
0.0
 40
1.225184
100
AcDbArc
 50
221.0679999999999
 51
318.932
  0
ARC
  5
C7BA
330
C5B5
100
AcDbEntity
  8
1
  6
Continuous
100
AcDbCircle
 10
423.5619279999998
 20
300.3188589999998
 30
0.0
 40
1.708047999999998
100
AcDbArc
 50
138.9319999999997
 51
221.0679999999999
  0
ARC
  5
C7BB
330
C5B5
100
AcDbEntity
  8
1
  6
Continuous
100
AcDbCircle
 10
422.83384
 20
300.3188589999998
 30
0.0
 40
1.708047999999998
100
AcDbArc
 50
318.932
 51
41.0679
  0
LINE
  5
C7BC
330
C5B5
100
AcDbEntity
  8
1
  6
Continuous
100
AcDbLine
 10
418.71472
 20
301.8248429999998
 30
0.0
 11
421.323392
 21
301.8248429999998
 31
0.0
  0
LINE
  5
C7BD
330
C5B5
100
AcDbEntity
  8
1
  6
Continuous
100
AcDbLine
 10
420.013312
 20
301.8248429999998
 30
0.0
 11
420.013312
 21
298.6248429999998
 31
0.0
  0
ARC
  5
C7BE
330
C5B5
100
AcDbEntity
  8
1
  6
Continuous
100
AcDbCircle
 10
426.9197679999998
 20
300.335819
 30
0.0
 40
1.708047999999998
100
AcDbArc
 50
138.9319999999997
 51
221.0679999999999
  0
ARC
  5
C7BF
330
C5B5
100
AcDbEntity
  8
5
  6
PHANTOM
 48
0.2
100
AcDbCircle
 10
397.2089609999999
 20
384.9270879999999
 30
0.0
 40
5.0
100
AcDbArc
 50
45.0
 51
135.0
  0
CIRCLE
  5
C7C0
330
C5B5
100
AcDbEntity
  8
5
  6
PHANTOM
 48
0.2
100
AcDbCircle
 10
394.380533
 20
380.6844479999999
 30
0.0
 40
1.75
  0
LINE
  5
C7C1
330
C5B5
100
AcDbEntity
  8
4
  6
CENTER
 48
0.1
100
AcDbLine
 10
396.6786299999998
 20
378.3863509999998
 30
0.0
 11
392.0824359999999
 21
382.982545
 31
0.0
  0
LINE
  5
C7C2
330
C5B5
100
AcDbEntity
  8
4
  6
CENTER
 48
0.1
100
AcDbLine
 10
396.6786299999998
 20
382.982545
 30
0.0
 11
392.0824359999999
 21
378.3863509999998
 31
0.0
  0
LINE
  5
C7C3
330
C5B5
100
AcDbEntity
  8
1
  6
Continuous
100
AcDbLine
 10
386.957698
 20
365.1783509999999
 30
0.0
 11
401.957698
 21
365.1783509999999
 31
0.0
  0
LINE
  5
C7C4
330
C5B5
100
AcDbEntity
  8
4
  6
CENTER
 48
0.1
100
AcDbLine
 10
387.9576979999998
 20
358.4283509999999
 30
0.0
 11
387.9576979999998
 21
351.9283509999998
 31
0.0
  0
LINE
  5
C7C5
330
C5B5
100
AcDbEntity
  8
1
  6
Continuous
100
AcDbLine
 10
381.9576979999998
 20
350.1783509999999
 30
0.0
 11
381.9576979999998
 21
360.1783509999998
 31
0.0
  0
LINE
  5
C7C6
330
C5B5
100
AcDbEntity
  8
4
  6
CENTER
 48
0.1
100
AcDbLine
 10
391.207698
 20
355.1783509999999
 30
0.0
 11
384.707698
 21
355.1783509999999
 31
0.0
  0
CIRCLE
  5
C7C7
330
C5B5
100
AcDbEntity
  8
1
  6
Continuous
100
AcDbCircle
 10
387.9576979999998
 20
355.1783509999999
 30
0.0
 40
1.75
  0
ARC
  5
C7C8
330
C5B5
100
AcDbEntity
  8
1
  6
Continuous
100
AcDbCircle
 10
386.957698
 20
360.1783509999998
 30
0.0
 40
5.0
100
AcDbArc
 50
90.0
 51
180.0
  0
ARC
  5
C7C9
330
C5B5
100
AcDbEntity
  8
5
  6
PHANTOM
 48
0.2
100
AcDbCircle
 10
390.137893
 20
377.856021
 30
0.0
 40
5.0
100
AcDbArc
 50
135.0
 51
225.0
  0
LINE
  5
C7CA
330
C5B5
100
AcDbEntity
  8
5
  6
PHANTOM
 48
0.2
100
AcDbLine
 10
386.6023589999999
 20
381.3915539999999
 30
0.0
 11
393.673427
 21
388.462622
 31
0.0
  0
ARC
  5
C7CB
330
C5B5
100
AcDbEntity
  8
1
  6
Continuous
100
AcDbCircle
 10
431.457698
 20
364.278351
 30
0.0
 40
9.9
100
AcDbArc
 50
124.0044629999996
 51
161.525869
  0
ARC
  5
C7CC
330
C5B5
100
AcDbEntity
  8
1
  6
Continuous
100
AcDbCircle
 10
428.9576979999998
 20
366.1783509999998
 30
0.0
 40
7.0
100
AcDbArc
 50
90.0
 51
180.0
  0
LINE
  5
C7CD
330
C5B5
100
AcDbEntity
  8
1
  6
Continuous
100
AcDbLine
 10
406.9576979999998
 20
370.1783509999998
 30
0.0
 11
406.9576979999998
 21
385.1783509999998
 31
0.0
  0
ARC
  5
C7CE
330
C5B5
100
AcDbEntity
  8
1
  6
Continuous
100
AcDbCircle
 10
401.957698
 20
370.1783509999998
 30
0.0
 40
5.0
100
AcDbArc
 50
270.0
 51
0.0
  0
LINE
  5
C7CF
330
C5B5
100
AcDbEntity
  8
1
  6
Continuous
100
AcDbLine
 10
426.457698
 20
363.6783509999998
 30
0.0
 11
426.457698
 21
362.357801
 31
0.0
  0
LINE
  5
C7D0
330
C5B5
100
AcDbEntity
  8
1
  6
Continuous
100
AcDbLine
 10
426.457698
 20
362.6783509999999
 30
0.0
 11
427.4576979999998
 21
362.6783509999999
 31
0.0
  0
LINE
  5
C7D1
330
C5B5
100
AcDbEntity
  8
1
  6
Continuous
100
AcDbLine
 10
425.5284119999998
 20
363.6783509999998
 30
0.0
 11
426.457698
 21
363.6783509999998
 31
0.0
  0
ARC
  5
C7D2
330
C5B5
100
AcDbEntity
  8
1
  6
Continuous
100
AcDbCircle
 10
421.957698
 20
360.1783509999998
 30
0.0
 40
2.45
100
AcDbArc
 50
28.32825099999999
 51
61.671749
  0
LINE
  5
C7D3
330
C5B5
100
AcDbEntity
  8
1
  6
Continuous
100
AcDbLine
 10
422.469971
 20
361.706954
 30
0.0
 11
423.120278
 21
362.3349479999998
 31
0.0
  0
LINE
  5
C7D4
330
C5B5
100
AcDbEntity
  8
1
  6
Continuous
100
AcDbLine
 10
421.957698
 20
361.510311
 30
0.0
 11
422.469971
 21
361.706954
 31
0.0
  0
LINE
  5
C7D5
330
C5B5
100
AcDbEntity
  8
1
  6
Continuous
100
AcDbLine
 10
421.957698
 20
365.1783509999999
 30
0.0
 11
421.957698
 21
366.1783509999998
 31
0.0
  0
ARC
  5
C7D6
330
C5B5
100
AcDbEntity
  8
1
  6
Continuous
100
AcDbCircle
 10
421.957698
 20
360.1783509999998
 30
0.0
 40
2.45
100
AcDbArc
 50
118.3282509999999
 51
151.671749
  0
LINE
  5
C7D7
330
C5B5
100
AcDbEntity
  8
1
  6
Continuous
100
AcDbLine
 10
421.445425
 20
361.706954
 30
0.0
 11
420.7951179999998
 21
362.3349479999998
 31
0.0
  0
LINE
  5
C7D8
330
C5B5
100
AcDbEntity
  8
1
  6
Continuous
100
AcDbLine
 10
421.957698
 20
361.510311
 30
0.0
 11
421.445425
 21
361.706954
 31
0.0
  0
ARC
  5
C7D9
330
C5B5
100
AcDbEntity
  8
1
  6
Continuous
100
AcDbCircle
 10
425.8823639999998
 20
357.1618139999998
 30
0.0
 40
1.5
100
AcDbArc
 50
41.98003899999998
 51
59.23122700000001
  0
ARC
  5
C7DA
330
C5B5
100
AcDbEntity
  8
1
  6
Continuous
100
AcDbCircle
 10
421.957698
 20
360.1783509999998
 30
0.0
 40
2.45
100
AcDbArc
 50
298.3282509999999
 51
331.6717489999998
  0
LINE
  5
C7DB
330
C5B5
100
AcDbEntity
  8
1
  6
Continuous
100
AcDbLine
 10
423.2896569999998
 20
360.1783509999998
 30
0.0
 11
423.4863
 21
359.6660779999999
 31
0.0
  0
LINE
  5
C7DC
330
C5B5
100
AcDbEntity
  8
1
  6
Continuous
100
AcDbLine
 10
423.2896569999998
 20
360.1783509999998
 30
0.0
 11
423.4863
 21
360.690624
 31
0.0
  0
LINE
  5
C7DD
330
C5B5
100
AcDbEntity
  8
1
  6
Continuous
100
AcDbLine
 10
421.957698
 20
358.8463919999999
 30
0.0
 11
422.469971
 21
358.6497489999999
 31
0.0
  0
LINE
  5
C7DE
330
C5B5
100
AcDbEntity
  8
1
  6
Continuous
100
AcDbLine
 10
422.469971
 20
358.6497489999999
 30
0.0
 11
423.120278
 21
358.0217549999999
 31
0.0
  0
LINE
  5
C7DF
330
C5B5
100
AcDbEntity
  8
1
  6
Continuous
100
AcDbLine
 10
423.4863
 20
359.6660779999999
 30
0.0
 11
424.114295
 21
359.0157709999999
 31
0.0
  0
ARC
  5
C7E0
330
C5B5
100
AcDbEntity
  8
1
  6
Continuous
100
AcDbCircle
 10
421.957698
 20
360.1783509999998
 30
0.0
 40
2.45
100
AcDbArc
 50
208.328251
 51
241.6717489999999
  0
LINE
  5
C7E1
330
C5B5
100
AcDbEntity
  8
1
  6
Continuous
100
AcDbLine
 10
421.445425
 20
358.6497489999999
 30
0.0
 11
420.7951179999998
 21
358.0217549999999
 31
0.0
  0
LINE
  5
C7E2
330
C5B5
100
AcDbEntity
  8
1
  6
Continuous
100
AcDbLine
 10
420.4290959999998
 20
359.6660779999999
 30
0.0
 11
419.801101
 21
359.0157709999999
 31
0.0
  0
LINE
  5
C7E3
330
C5B5
100
AcDbEntity
  8
1
  6
Continuous
100
AcDbLine
 10
420.6257389999995
 20
360.1783509999998
 30
0.0
 11
420.4290959999998
 21
359.6660779999999
 31
0.0
  0
LINE
  5
C7E4
330
C5B5
100
AcDbEntity
  8
1
  6
Continuous
100
AcDbLine
 10
420.6257389999995
 20
360.1783509999998
 30
0.0
 11
420.4290959999998
 21
360.690624
 31
0.0
  0
LINE
  5
C7E5
330
C5B5
100
AcDbEntity
  8
1
  6
Continuous
100
AcDbLine
 10
421.957698
 20
358.8463919999999
 30
0.0
 11
421.445425
 21
358.6497489999999
 31
0.0
  0
CIRCLE
  5
C7E6
330
C5B5
100
AcDbEntity
  8
1
  6
Continuous
100
AcDbCircle
 10
421.957698
 20
360.1783509999998
 30
0.0
 40
4.5
  0
CIRCLE
  5
C7E7
330
C5B5
100
AcDbEntity
  8
1
  6
Continuous
100
AcDbCircle
 10
421.957698
 20
360.1783509999998
 30
0.0
 40
5.0
  0
CIRCLE
  5
C7E8
330
C5B5
100
AcDbEntity
  8
1
  6
Continuous
100
AcDbCircle
 10
421.957698
 20
360.1783509999998
 30
0.0
 40
4.599999999999996
  0
LINE
  5
C7E9
330
C5B5
100
AcDbEntity
  8
1
  6
Continuous
100
AcDbLine
 10
420.4290959999998
 20
360.690624
 30
0.0
 11
419.801101
 21
361.340931
 31
0.0
  0
LINE
  5
C7EA
330
C5B5
100
AcDbEntity
  8
4
  6
CENTER
 48
0.2
100
AcDbLine
 10
421.957698
 20
365.1783509999999
 30
0.0
 11
421.957698
 21
353.6783509999998
 31
0.0
  0
LINE
  5
C7EB
330
C5B5
100
AcDbEntity
  8
1
  6
Continuous
100
AcDbLine
 10
427.4576979999998
 20
371.1783509999999
 30
0.0
 11
427.4576979999998
 21
357.7062149999999
 31
0.0
  0
LINE
  5
C7EC
330
C5B5
100
AcDbEntity
  8
1
  6
Continuous
100
AcDbLine
 10
423.4863
 20
360.690624
 30
0.0
 11
424.114295
 21
361.340931
 31
0.0
  0
ARC
  5
C7ED
330
C5B5
100
AcDbEntity
  8
5
  6
PHANTOM
 48
0.2
100
AcDbCircle
 10
414.8866299999999
 20
381.3915539999999
 30
0.0
 40
5.0
100
AcDbArc
 50
225.0
 51
315.0
  0
LINE
  5
C7EE
330
C5B5
100
AcDbEntity
  8
5
  6
PHANTOM
 48
0.2
100
AcDbLine
 10
400.744494
 20
388.462622
 30
0.0
 11
411.351096
 21
377.856021
 31
0.0
  0
ARC
  5
C7EF
330
C5B5
100
AcDbEntity
  8
1
  6
Continuous
100
AcDbCircle
 10
411.9576979999997
 20
385.1783509999998
 30
0.0
 40
5.0
100
AcDbArc
 50
90.0
 51
180.0
  0
LINE
  5
C7F0
330
C5B5
100
AcDbEntity
  8
5
  6
PHANTOM
 48
0.2
100
AcDbLine
 10
418.422164
 20
377.856021
 30
0.0
 11
429.028766
 21
388.462622
 31
0.0
  0
LINE
  5
C7F1
330
C5B5
100
AcDbEntity
  8
4
  6
CENTER
100
AcDbLine
 10
431.457698
 20
244.973452
 30
0.0
 11
431.457698
 21
393.1783509999998
 31
0.0
  0
LINE
  5
C7F2
330
C5B5
100
AcDbEntity
  8
1
  6
Continuous
100
AcDbLine
 10
447.4576980000001
 20
345.1783509999998
 30
0.0
 11
447.4576980000001
 21
252.1783509999999
 31
0.0
  0
LINE
  5
C7F3
330
C5B5
100
AcDbEntity
  8
1
  6
Continuous
100
AcDbLine
 10
444.4576979999998
 20
345.1783509999998
 30
0.0
 11
444.4576979999998
 21
262.6783509999999
 31
0.0
  0
ARC
  5
C7F4
330
C5B5
100
AcDbEntity
  8
1
  6
Continuous
100
AcDbCircle
 10
442.457698
 20
252.1783509999999
 30
0.0
 40
5.0
100
AcDbArc
 50
270.0
 51
0.0
  0
LINE
  5
C7F5
330
C5B5
100
AcDbEntity
  8
1
  6
Continuous
100
AcDbLine
 10
432.478194
 20
254.1783509999999
 30
0.0
 11
432.707014
 21
254.8068279999998
 31
0.0
  0
LINE
  5
C7F6
330
C5B5
100
AcDbEntity
  8
1
  6
Continuous
100
AcDbLine
 10
432.707014
 20
254.8068279999998
 30
0.0
 11
433.4614969999998
 21
255.5881809999999
 31
0.0
  0
LINE
  5
C7F7
330
C5B5
100
AcDbEntity
  8
1
  6
Continuous
100
AcDbLine
 10
432.0862449999999
 20
255.4275969999999
 30
0.0
 11
432.8675269999997
 21
256.1821499999999
 31
0.0
  0
LINE
  5
C7F8
330
C5B5
100
AcDbEntity
  8
1
  6
Continuous
100
AcDbLine
 10
431.457698
 20
255.1988479999999
 30
0.0
 11
432.0862449999999
 21
255.4275969999999
 31
0.0
  0
LINE
  5
C7F9
330
C5B5
100
AcDbEntity
  8
1
  6
Continuous
100
AcDbLine
 10
432.0862449999999
 20
252.9291059999999
 30
0.0
 11
432.8675269999997
 21
252.174552
 31
0.0
  0
LINE
  5
C7FA
330
C5B5
100
AcDbEntity
  8
1
  6
Continuous
100
AcDbLine
 10
431.457698
 20
253.1578549999999
 30
0.0
 11
432.0862449999999
 21
252.9291059999999
 31
0.0
  0
LINE
  5
C7FB
330
C5B5
100
AcDbEntity
  8
1
  6
Continuous
100
AcDbLine
 10
432.478194
 20
254.1783509999999
 30
0.0
 11
432.707014
 21
253.5498749999999
 31
0.0
  0
LINE
  5
C7FC
330
C5B5
100
AcDbEntity
  8
1
  6
Continuous
100
AcDbLine
 10
432.707014
 20
253.5498749999999
 30
0.0
 11
433.4614969999998
 21
252.7685219999999
 31
0.0
  0
ARC
  5
C7FD
330
C5B5
100
AcDbEntity
  8
1
  6
Continuous
100
AcDbCircle
 10
431.457698
 20
254.1783509999999
 30
0.0
 40
2.45
100
AcDbArc
 50
35.129
 51
54.87089
  0
ARC
  5
C7FE
330
C5B5
100
AcDbEntity
  8
1
  6
Continuous
100
AcDbCircle
 10
431.457698
 20
254.1783509999999
 30
0.0
 40
2.45
100
AcDbArc
 50
305.129
 51
324.8709999999998
  0
ARC
  5
C7FF
330
C5B5
100
AcDbEntity
  8
1
  6
Continuous
100
AcDbCircle
 10
431.457698
 20
252.2594
 30
0.0
 40
6.044787999999997
100
AcDbArc
 50
51.169951
 51
59.415653
  0
ARC
  5
C800
330
C5B5
100
AcDbEntity
  8
1
  6
Continuous
100
AcDbCircle
 10
433.002232
 20
254.1783509999999
 30
0.0
 40
3.581465999999998
100
AcDbArc
 50
308.8300489999999
 51
51.169951
  0
ARC
  5
C801
330
C5B5
100
AcDbEntity
  8
1
  6
Continuous
100
AcDbCircle
 10
431.457698
 20
256.097302
 30
0.0
 40
6.044787999999997
100
AcDbArc
 50
300.5843469999998
 51
308.8300489999999
  0
ARC
  5
C802
330
C5B5
100
AcDbEntity
  8
1
  6
Continuous
100
AcDbCircle
 10
433.031714
 20
254.1783509999999
 30
0.0
 40
4.725984999999996
100
AcDbArc
 50
310.072969
 51
49.92703099999999
  0
LINE
  5
C803
330
C5B5
100
AcDbEntity
  8
1
  6
Continuous
100
AcDbLine
 10
442.457698
 20
260.228861
 30
0.0
 11
442.457698
 21
263.2288609999998
 31
0.0
  0
LINE
  5
C804
330
C5B5
100
AcDbEntity
  8
1
  6
Continuous
100
AcDbLine
 10
441.4576979999998
 20
260.1783509999999
 30
0.0
 11
441.4576979999998
 21
263.1783509999999
 31
0.0
  0
ARC
  5
C805
330
C5B5
100
AcDbEntity
  8
1
  6
Continuous
100
AcDbCircle
 10
441.957698
 20
262.6783509999999
 30
0.0
 40
2.5
100
AcDbArc
 50
270.0
 51
0.0
  0
ARC
  5
C806
330
C5B5
100
AcDbEntity
  8
1
  6
Continuous
100
AcDbCircle
 10
441.957698
 20
265.6783509999999
 30
0.0
 40
2.5
100
AcDbArc
 50
270.0
 51
0.0
  0
LINE
  5
C807
330
C5B5
100
AcDbEntity
  8
1
  6
Continuous
100
AcDbLine
 10
442.2182009999998
 20
296.707003
 30
0.0
 11
441.8650809999999
 21
296.365003
 31
0.0
  0
LINE
  5
C808
330
C5B5
100
AcDbEntity
  8
1
  6
Continuous
100
AcDbLine
 10
442.2182009999998
 20
296.7070109999998
 30
0.0
 11
442.2182009999998
 21
293.5070029999998
 31
0.0
  0
ARC
  5
C809
330
C5B5
100
AcDbEntity
  8
1
  6
Continuous
100
AcDbCircle
 10
438.4354909999998
 20
295.725483
 30
0.0
 40
1.002143999999999
100
AcDbArc
 50
0.0
 51
44.0725
  0
ARC
  5
C80A
330
C5B5
100
AcDbEntity
  8
1
  6
Continuous
100
AcDbCircle
 10
438.4354909999998
 20
294.4842029999998
 30
0.0
 40
1.002143999999999
100
AcDbArc
 50
315.927
 51
0.0
  0
ARC
  5
C80B
330
C5B5
100
AcDbEntity
  8
1
  6
Continuous
100
AcDbCircle
 10
438.5438109999998
 20
295.725483
 30
0.0
 40
1.002143999999999
100
AcDbArc
 50
135.928
 51
180.0
  0
ARC
  5
C80C
330
C5B5
100
AcDbEntity
  8
1
  6
Continuous
100
AcDbCircle
 10
438.4896509999999
 20
295.7778989999998
 30
0.0
 40
0.9267839999999999
100
AcDbArc
 50
44.0725
 51
135.928
  0
ARC
  5
C80D
330
C5B5
100
AcDbEntity
  8
1
  6
Continuous
100
AcDbCircle
 10
438.5438109999998
 20
294.4842029999998
 30
0.0
 40
1.002143999999999
100
AcDbArc
 50
180.0
 51
224.072
  0
ARC
  5
C80E
330
C5B5
100
AcDbEntity
  8
1
  6
Continuous
100
AcDbCircle
 10
438.4896509999999
 20
294.4317869999998
 30
0.0
 40
0.9267839999999999
100
AcDbArc
 50
224.072
 51
315.927
  0
LINE
  5
C80F
330
C5B5
100
AcDbEntity
  8
1
  6
Continuous
100
AcDbLine
 10
437.5416509999998
 20
295.725483
 30
0.0
 11
437.5416509999998
 21
294.4842029999998
 31
0.0
  0
LINE
  5
C810
330
C5B5
100
AcDbEntity
  8
1
  6
Continuous
100
AcDbLine
 10
439.4376509999998
 20
295.725483
 30
0.0
 11
439.4376509999998
 21
294.4842029999998
 31
0.0
  0
LINE
  5
C811
330
C5B5
100
AcDbEntity
  8
1
  6
Continuous
100
AcDbLine
 10
434.157364
 20
294.238375
 30
0.0
 11
436.2389639999998
 21
294.238375
 31
0.0
  0
LINE
  5
C812
330
C5B5
100
AcDbEntity
  8
1
  6
Continuous
100
AcDbLine
 10
435.915124
 20
296.7048429999998
 30
0.0
 11
435.915124
 21
293.504843
 31
0.0
  0
ARC
  5
C813
330
C5B5
100
AcDbEntity
  8
1
  6
Continuous
100
AcDbCircle
 10
432.3819789999998
 20
294.495083
 30
0.0
 40
1.144263999999999
100
AcDbArc
 50
319.944
 51
40.0559
  0
LINE
  5
C814
330
C5B5
100
AcDbEntity
  8
1
  6
Continuous
100
AcDbLine
 10
435.915124
 20
296.7048429999998
 30
0.0
 11
434.157364
 21
294.238375
 31
0.0
  0
LINE
  5
C815
330
C5B5
100
AcDbEntity
  8
1
  6
Continuous
100
AcDbLine
 10
440.374394
 20
295.104843
 30
0.0
 11
441.376874
 21
295.104843
 31
0.0
  0
ARC
  5
C816
330
C5B5
100
AcDbEntity
  8
1
  6
Continuous
100
AcDbCircle
 10
441.957698
 20
283.1783509999999
 30
0.0
 40
2.5
100
AcDbArc
 50
0.0
 51
90.0
  0
ARC
  5
C817
330
C5B5
100
AcDbEntity
  8
1
  6
Continuous
100
AcDbCircle
 10
437.4576979999998
 20
283.1783509999999
 30
0.0
 40
1.199999999999999
100
AcDbArc
 50
298.3282509999999
 51
331.6717489999998
  0
ARC
  5
C818
330
C5B5
100
AcDbEntity
  8
1
  6
Continuous
100
AcDbCircle
 10
437.4576979999998
 20
283.1783509999999
 30
0.0
 40
1.199999999999999
100
AcDbArc
 50
28.32825099999999
 51
61.671749
  0
LINE
  5
C819
330
C5B5
100
AcDbEntity
  8
1
  6
Continuous
100
AcDbLine
 10
437.4576979999998
 20
282.525963
 30
0.0
 11
437.2067889999995
 21
282.429648
 31
0.0
  0
LINE
  5
C81A
330
C5B5
100
AcDbEntity
  8
1
  6
Continuous
100
AcDbLine
 10
437.4576979999998
 20
282.525963
 30
0.0
 11
437.7086069999998
 21
282.429648
 31
0.0
  0
LINE
  5
C81B
330
C5B5
100
AcDbEntity
  8
1
  6
Continuous
100
AcDbLine
 10
437.7086069999998
 20
282.429648
 30
0.0
 11
438.0271249999998
 21
282.1220589999999
 31
0.0
  0
LINE
  5
C81C
330
C5B5
100
AcDbEntity
  8
1
  6
Continuous
100
AcDbLine
 10
438.2064009999998
 20
282.9274419999998
 30
0.0
 11
438.5139899999998
 21
282.6089239999999
 31
0.0
  0
LINE
  5
C81D
330
C5B5
100
AcDbEntity
  8
1
  6
Continuous
100
AcDbLine
 10
438.110086
 20
283.1783509999999
 30
0.0
 11
438.2064009999998
 21
282.9274419999998
 31
0.0
  0
LINE
  5
C81E
330
C5B5
100
AcDbEntity
  8
1
  6
Continuous
100
AcDbLine
 10
438.110086
 20
283.1783509999999
 30
0.0
 11
438.2064009999998
 21
283.4292599999999
 31
0.0
  0
LINE
  5
C81F
330
C5B5
100
AcDbEntity
  8
1
  6
Continuous
100
AcDbLine
 10
438.2064009999998
 20
283.4292599999999
 30
0.0
 11
438.5139899999998
 21
283.747778
 31
0.0
  0
LINE
  5
C820
330
C5B5
100
AcDbEntity
  8
1
  6
Continuous
100
AcDbLine
 10
437.7086069999998
 20
283.927054
 30
0.0
 11
438.0271249999998
 21
284.234643
 31
0.0
  0
LINE
  5
C821
330
C5B5
100
AcDbEntity
  8
1
  6
Continuous
100
AcDbLine
 10
437.4576979999998
 20
283.830739
 30
0.0
 11
437.7086069999998
 21
283.927054
 31
0.0
  0
LINE
  5
C822
330
C5B5
100
AcDbEntity
  8
1
  6
Continuous
100
AcDbLine
 10
437.4576979999998
 20
283.830739
 30
0.0
 11
437.2067889999995
 21
283.927054
 31
0.0
  0
ARC
  5
C823
330
C5B5
100
AcDbEntity
  8
1
  6
Continuous
100
AcDbCircle
 10
437.4576979999998
 20
283.1783509999999
 30
0.0
 40
1.199999999999999
100
AcDbArc
 50
208.328251
 51
241.6717489999999
  0
ARC
  5
C824
330
C5B5
100
AcDbEntity
  8
1
  6
Continuous
100
AcDbCircle
 10
437.4576979999998
 20
283.1783509999999
 30
0.0
 40
1.199999999999999
100
AcDbArc
 50
118.3282509999999
 51
151.671749
  0
LINE
  5
C825
330
C5B5
100
AcDbEntity
  8
1
  6
Continuous
100
AcDbLine
 10
436.708995
 20
282.9274419999998
 30
0.0
 11
436.4014059999998
 21
282.6089239999999
 31
0.0
  0
LINE
  5
C826
330
C5B5
100
AcDbEntity
  8
1
  6
Continuous
100
AcDbLine
 10
436.708995
 20
283.4292599999999
 30
0.0
 11
436.4014059999998
 21
283.747778
 31
0.0
  0
LINE
  5
C827
330
C5B5
100
AcDbEntity
  8
1
  6
Continuous
100
AcDbLine
 10
436.80531
 20
283.1783509999999
 30
0.0
 11
436.708995
 21
282.9274419999998
 31
0.0
  0
LINE
  5
C828
330
C5B5
100
AcDbEntity
  8
1
  6
Continuous
100
AcDbLine
 10
436.80531
 20
283.1783509999999
 30
0.0
 11
436.708995
 21
283.4292599999999
 31
0.0
  0
LINE
  5
C829
330
C5B5
100
AcDbEntity
  8
1
  6
Continuous
100
AcDbLine
 10
437.2067889999995
 20
282.429648
 30
0.0
 11
436.888271
 21
282.1220589999999
 31
0.0
  0
LINE
  5
C82A
330
C5B5
100
AcDbEntity
  8
1
  6
Continuous
100
AcDbLine
 10
437.2067889999995
 20
283.927054
 30
0.0
 11
436.888271
 21
284.234643
 31
0.0
  0
CIRCLE
  5
C82B
330
C5B5
100
AcDbEntity
  8
1
  6
Continuous
100
AcDbCircle
 10
437.4576979999998
 20
283.1783509999999
 30
0.0
 40
2.299999999999998
  0
CIRCLE
  5
C82C
330
C5B5
100
AcDbEntity
  8
1
  6
Continuous
100
AcDbCircle
 10
437.4576979999998
 20
283.1783509999999
 30
0.0
 40
2.5
  0
LINE
  5
C82D
330
C5B5
100
AcDbEntity
  8
4
  6
CENTER
 48
0.2
100
AcDbLine
 10
441.4576979999998
 20
283.1783509999999
 30
0.0
 11
433.457698
 21
283.1783509999999
 31
0.0
  0
LINE
  5
C82E
330
C5B5
100
AcDbEntity
  8
4
  6
CENTER
 48
0.2
100
AcDbLine
 10
437.4576979999998
 20
287.1783509999999
 30
0.0
 11
437.4576979999998
 21
279.1783509999999
 31
0.0
  0
ARC
  5
C82F
330
C5B5
100
AcDbEntity
  8
1
  6
Continuous
100
AcDbCircle
 10
432.6801389999998
 20
294.2854829999999
 30
0.0
 40
1.215543999999997
100
AcDbArc
 50
90.0
 51
121.845
  0
ARC
  5
C830
330
C5B5
100
AcDbEntity
  8
1
  6
Continuous
100
AcDbCircle
 10
432.980939
 20
294.495083
 30
0.0
 40
1.144263999999999
100
AcDbArc
 50
189.307
 51
220.0559999999999
  0
LINE
  5
C831
330
C5B5
100
AcDbEntity
  8
1
  6
Continuous
100
AcDbLine
 10
431.8546989999998
 20
296.7048429999998
 30
0.0
 11
431.8546989999998
 21
294.9890029999999
 31
0.0
  0
ARC
  5
C832
330
C5B5
100
AcDbEntity
  8
1
  6
Continuous
100
AcDbCircle
 10
432.243179
 20
294.9890029999999
 30
0.0
 40
0.387335
100
AcDbArc
 50
121.845
 51
180.0
  0
LINE
  5
C833
330
C5B5
100
AcDbEntity
  8
1
  6
Continuous
100
AcDbLine
 10
431.842139
 20
296.7048429999998
 30
0.0
 11
433.5078189999999
 21
296.7048429999998
 31
0.0
  0
ARC
  5
C834
330
C5B5
100
AcDbEntity
  8
1
  6
Continuous
100
AcDbCircle
 10
432.6814989999999
 20
294.7469229999999
 30
0.0
 40
0.7530210000000001
100
AcDbArc
 50
40.0559
 51
90.10099999999999
  0
ARC
  5
C835
330
C5B5
100
AcDbEntity
  8
1
  6
Continuous
100
AcDbCircle
 10
432.6814989999999
 20
294.2433229999998
 30
0.0
 40
0.7530210000000001
100
AcDbArc
 50
220.0559999999999
 51
319.944
  0
ARC
  5
C836
330
C5B5
100
AcDbEntity
  8
1
  6
Continuous
100
AcDbCircle
 10
604.9920929999997
 20
254.1783509999999
 30
0.0
 40
12.0
100
AcDbArc
 50
164.5059999999998
 51
195.494
  0
LINE
  5
C837
330
C5B5
100
AcDbEntity
  8
5
  6
PHANTOM
 48
0.2
100
AcDbLine
 10
453.777503
 20
342.500682
 30
0.0
 11
464.3841049999998
 21
353.1072829999998
 31
0.0
  0
ARC
  5
C838
330
C5B5
100
AcDbEntity
  8
1
  6
Continuous
100
AcDbCircle
 10
491.957698
 20
350.1783509999999
 30
0.0
 40
5.0
100
AcDbArc
 50
270.0
 51
0.0
  0
LINE
  5
C839
330
C5B5
100
AcDbEntity
  8
5
  6
PHANTOM
 48
0.2
100
AcDbLine
 10
453.777503
 20
335.429614
 30
0.0
 11
471.4551730000001
 21
317.7519439999998
 31
0.0
  0
ARC
  5
C83A
330
C5B5
100
AcDbEntity
  8
5
  6
PHANTOM
 48
0.2
100
AcDbCircle
 10
464.3841049999998
 20
303.6098089999998
 30
0.0
 40
5.0
100
AcDbArc
 50
225.0
 51
315.0
  0
LINE
  5
C83B
330
C5B5
100
AcDbEntity
  8
1
  6
Continuous
100
AcDbLine
 10
441.9204879999998
 20
301.8885869999998
 30
0.0
 11
443.1321679999999
 21
298.613195
 31
0.0
  0
LINE
  5
C83C
330
C5B5
100
AcDbEntity
  8
1
  6
Continuous
100
AcDbLine
 10
441.033608
 20
299.575491
 30
0.0
 11
442.7784879999999
 21
299.575491
 31
0.0
  0
LINE
  5
C83D
330
C5B5
100
AcDbEntity
  8
1
  6
Continuous
100
AcDbLine
 10
438.935048
 20
300.108859
 30
0.0
 11
440.0208079999998
 21
301.989419
 31
0.0
  0
LINE
  5
C83E
330
C5B5
100
AcDbEntity
  8
1
  6
Continuous
100
AcDbLine
 10
438.935048
 20
300.114635
 30
0.0
 11
437.857128
 21
301.9874029999998
 31
0.0
  0
LINE
  5
C83F
330
C5B5
100
AcDbEntity
  8
1
  6
Continuous
100
AcDbLine
 10
438.935048
 20
300.1088669999998
 30
0.0
 11
438.935048
 21
298.601683
 31
0.0
  0
ARC
  5
C840
330
C5B5
100
AcDbEntity
  8
1
  6
Continuous
100
AcDbCircle
 10
434.641608
 20
299.8878189999998
 30
0.0
 40
1.151999999999999
100
AcDbArc
 50
269.5819999999998
 51
11.6541
  0
ARC
  5
C841
330
C5B5
100
AcDbEntity
  8
1
  6
Continuous
100
AcDbCircle
 10
434.633208
 20
299.9605149999998
 30
0.0
 40
1.225184
100
AcDbArc
 50
221.0679999999999
 51
276.591
  0
ARC
  5
C842
330
C5B5
100
AcDbEntity
  8
1
  6
Continuous
100
AcDbCircle
 10
434.9972079999998
 20
300.2777389999998
 30
0.0
 40
1.708047999999998
100
AcDbArc
 50
138.9319999999997
 51
221.0679999999999
  0
ARC
  5
C843
330
C5B5
100
AcDbEntity
  8
1
  6
Continuous
100
AcDbCircle
 10
434.633208
 20
300.5949549999999
 30
0.0
 40
1.225184
100
AcDbArc
 50
70.80719999999998
 51
138.9319999999997
  0
ARC
  5
C844
330
C5B5
100
AcDbEntity
  8
1
  6
Continuous
100
AcDbCircle
 10
434.7660879999998
 20
300.976643
 30
0.0
 40
0.8210319999999999
100
AcDbArc
 50
5.659239999999998
 51
70.80719999999998
  0
LINE
  5
C845
330
C5B5
100
AcDbEntity
  8
1
  6
Continuous
100
AcDbLine
 10
436.697368
 20
301.9639869999998
 30
0.0
 11
436.697368
 21
298.601683
 31
0.0
  0
LINE
  5
C846
330
C5B5
100
AcDbEntity
  8
1
  6
Continuous
100
AcDbLine
 10
435.769848
 20
299.6436109999999
 30
0.0
 11
435.769848
 21
298.6248429999998
 31
0.0
  0
LINE
  5
C847
330
C5B5
100
AcDbEntity
  8
1
  6
Continuous
100
AcDbLine
 10
434.645208
 20
300.120531
 30
0.0
 11
435.769848
 21
300.120531
 31
0.0
  0
LINE
  5
C848
330
C5B5
100
AcDbEntity
  8
1
  6
Continuous
100
AcDbLine
 10
441.9204879999998
 20
301.882835
 30
0.0
 11
440.650968
 21
298.6132029999998
 31
0.0
  0
LINE
  5
C849
330
C5B5
100
AcDbEntity
  8
1
  6
Continuous
100
AcDbLine
 10
432.0249679999998
 20
301.9639869999998
 30
0.0
 11
432.0249679999998
 21
298.601683
 31
0.0
  0
LINE
  5
C84A
330
C5B5
100
AcDbEntity
  8
1
  6
Continuous
100
AcDbLine
 10
430.9001679999998
 20
301.9639869999998
 30
0.0
 11
430.9001679999998
 21
298.601683
 31
0.0
  0
ARC
  5
C84B
330
C5B5
100
AcDbEntity
  8
5
  6
PHANTOM
 48
0.2
100
AcDbCircle
 10
457.313037
 20
338.9651479999999
 30
0.0
 40
5.0
100
AcDbArc
 50
135.0
 51
225.0
  0
LINE
  5
C84C
330
C5B5
100
AcDbEntity
  8
5
  6
PHANTOM
 48
0.2
100
AcDbLine
 10
471.4551730000001
 20
303.6098089999998
 30
0.0
 11
471.4551730000001
 21
317.7519439999998
 31
0.0
  0
LINE
  5
C84D
330
C5B5
100
AcDbEntity
  8
5
  6
PHANTOM
 48
0.2
100
AcDbLine
 10
467.9196389999995
 20
300.074275
 30
0.0
 11
471.4551730000001
 21
303.6098089999998
 31
0.0
  0
ARC
  5
C84E
330
C5B5
100
AcDbEntity
  8
1
  6
Continuous
100
AcDbCircle
 10
467.3174889999998
 20
355.101814
 30
0.0
 40
1.225184
100
AcDbArc
 50
41.0679
 51
138.9319999999997
  0
ARC
  5
C84F
330
C5B5
100
AcDbEntity
  8
1
  6
Continuous
100
AcDbCircle
 10
467.3174889999998
 20
354.4673819999999
 30
0.0
 40
1.225184
100
AcDbArc
 50
221.0679999999999
 51
318.932
  0
LINE
  5
C850
330
C5B5
100
AcDbEntity
  8
1
  6
Continuous
100
AcDbLine
 10
461.9576979999997
 20
365.1783509999999
 30
0.0
 11
486.9576979999997
 21
365.1783509999999
 31
0.0
  0
LINE
  5
C851
330
C5B5
100
AcDbEntity
  8
5
  6
PHANTOM
 48
0.5
100
AcDbLine
 10
436.099833
 20
388.462622
 30
0.0
 11
464.3841049999998
 21
360.1783509999998
 31
0.0
  0
LINE
  5
C852
330
C5B5
100
AcDbEntity
  8
1
  6
Continuous
100
AcDbLine
 10
441.4576979999998
 20
371.3027609999999
 30
0.0
 11
441.4576979999998
 21
365.1532879999999
 31
0.0
  0
ARC
  5
C853
330
C5B5
100
AcDbEntity
  8
1
  6
Continuous
100
AcDbCircle
 10
421.957698
 20
360.1783509999998
 30
0.0
 40
22.45
100
AcDbArc
 50
10.052847
 51
45.0
  0
LINE
  5
C854
330
C5B5
100
AcDbEntity
  8
1
  6
Continuous
100
AcDbLine
 10
456.9576979999998
 20
370.1783509999998
 30
0.0
 11
456.9576979999998
 21
385.1783509999998
 31
0.0
  0
ARC
  5
C855
330
C5B5
100
AcDbEntity
  8
1
  6
Continuous
100
AcDbCircle
 10
431.457698
 20
364.278351
 30
0.0
 40
9.9
100
AcDbArc
 50
5.140420999999999
 51
86.935339
  0
ARC
  5
C856
330
C5B5
100
AcDbEntity
  8
1
  6
Continuous
100
AcDbCircle
 10
431.457698
 20
365.6783509999999
 30
0.0
 40
10.0
100
AcDbArc
 50
0.0
 51
83.54081800000001
  0
ARC
  5
C857
330
C5B5
100
AcDbEntity
  8
1
  6
Continuous
100
AcDbCircle
 10
440.9576979999997
 20
360.1783509999998
 30
0.0
 40
2.45
100
AcDbArc
 50
28.32825099999999
 51
61.671749
  0
LINE
  5
C858
330
C5B5
100
AcDbEntity
  8
1
  6
Continuous
100
AcDbLine
 10
441.4699709999998
 20
361.706954
 30
0.0
 11
442.1202779999998
 21
362.3349479999998
 31
0.0
  0
LINE
  5
C859
330
C5B5
100
AcDbEntity
  8
1
  6
Continuous
100
AcDbLine
 10
440.9576979999997
 20
361.510311
 30
0.0
 11
441.4699709999998
 21
361.706954
 31
0.0
  0
ARC
  5
C85A
330
C5B5
100
AcDbEntity
  8
1
  6
Continuous
100
AcDbCircle
 10
431.457698
 20
363.6783509999998
 30
0.0
 40
10.0
100
AcDbArc
 50
8.539044
 51
11.29340899999998
  0
ARC
  5
C85B
330
C5B5
100
AcDbEntity
  8
1
  6
Continuous
100
AcDbCircle
 10
440.9576979999997
 20
360.1783509999998
 30
0.0
 40
2.45
100
AcDbArc
 50
118.3282509999999
 51
151.671749
  0
LINE
  5
C85C
330
C5B5
100
AcDbEntity
  8
1
  6
Continuous
100
AcDbLine
 10
440.4454249999998
 20
361.706954
 30
0.0
 11
439.7951179999998
 21
362.3349479999998
 31
0.0
  0
LINE
  5
C85D
330
C5B5
100
AcDbEntity
  8
1
  6
Continuous
100
AcDbLine
 10
436.4576979999998
 20
363.6783509999998
 30
0.0
 11
436.4576979999998
 21
362.357801
 31
0.0
  0
LINE
  5
C85E
330
C5B5
100
AcDbEntity
  8
1
  6
Continuous
100
AcDbLine
 10
435.457698
 20
362.6783509999999
 30
0.0
 11
436.4576979999998
 21
362.6783509999999
 31
0.0
  0
LINE
  5
C85F
330
C5B5
100
AcDbEntity
  8
1
  6
Continuous
100
AcDbLine
 10
436.4576979999998
 20
363.6783509999998
 30
0.0
 11
437.386984
 21
363.6783509999998
 31
0.0
  0
LINE
  5
C860
330
C5B5
100
AcDbEntity
  8
1
  6
Continuous
100
AcDbLine
 10
440.9576979999997
 20
361.510311
 30
0.0
 11
440.4454249999998
 21
361.706954
 31
0.0
  0
ARC
  5
C861
330
C5B5
100
AcDbEntity
  8
1
  6
Continuous
100
AcDbCircle
 10
440.9576979999997
 20
360.1783509999998
 30
0.0
 40
2.45
100
AcDbArc
 50
298.3282509999999
 51
331.6717489999998
  0
LINE
  5
C862
330
C5B5
100
AcDbEntity
  8
1
  6
Continuous
100
AcDbLine
 10
440.9576979999997
 20
358.8463919999999
 30
0.0
 11
441.4699709999998
 21
358.6497489999999
 31
0.0
  0
LINE
  5
C863
330
C5B5
100
AcDbEntity
  8
1
  6
Continuous
100
AcDbLine
 10
441.4699709999998
 20
358.6497489999999
 30
0.0
 11
442.1202779999998
 21
358.0217549999999
 31
0.0
  0
LINE
  5
C864
330
C5B5
100
AcDbEntity
  8
1
  6
Continuous
100
AcDbLine
 10
442.4863
 20
359.6660779999999
 30
0.0
 11
443.114295
 21
359.0157709999999
 31
0.0
  0
LINE
  5
C865
330
C5B5
100
AcDbEntity
  8
1
  6
Continuous
100
AcDbLine
 10
442.2896569999998
 20
360.1783509999998
 30
0.0
 11
442.4863
 21
359.6660779999999
 31
0.0
  0
LINE
  5
C866
330
C5B5
100
AcDbEntity
  8
1
  6
Continuous
100
AcDbLine
 10
442.2896569999998
 20
360.1783509999998
 30
0.0
 11
442.4863
 21
360.690624
 31
0.0
  0
ARC
  5
C867
330
C5B5
100
AcDbEntity
  8
1
  6
Continuous
100
AcDbCircle
 10
440.9576979999997
 20
360.1783509999998
 30
0.0
 40
2.45
100
AcDbArc
 50
208.328251
 51
241.6717489999999
  0
LINE
  5
C868
330
C5B5
100
AcDbEntity
  8
1
  6
Continuous
100
AcDbLine
 10
439.429096
 20
359.6660779999999
 30
0.0
 11
438.8011009999996
 21
359.0157709999999
 31
0.0
  0
LINE
  5
C869
330
C5B5
100
AcDbEntity
  8
1
  6
Continuous
100
AcDbLine
 10
440.4454249999998
 20
358.6497489999999
 30
0.0
 11
439.7951179999998
 21
358.0217549999999
 31
0.0
  0
LINE
  5
C86A
330
C5B5
100
AcDbEntity
  8
1
  6
Continuous
100
AcDbLine
 10
439.6257389999997
 20
360.1783509999998
 30
0.0
 11
439.429096
 21
359.6660779999999
 31
0.0
  0
LINE
  5
C86B
330
C5B5
100
AcDbEntity
  8
1
  6
Continuous
100
AcDbLine
 10
439.6257389999997
 20
360.1783509999998
 30
0.0
 11
439.429096
 21
360.690624
 31
0.0
  0
ARC
  5
C86C
330
C5B5
100
AcDbEntity
  8
1
  6
Continuous
100
AcDbCircle
 10
437.0330319999998
 20
357.1618139999998
 30
0.0
 40
1.5
100
AcDbArc
 50
120.7687729999999
 51
138.019961
  0
LINE
  5
C86D
330
C5B5
100
AcDbEntity
  8
1
  6
Continuous
100
AcDbLine
 10
440.9576979999997
 20
358.8463919999999
 30
0.0
 11
440.4454249999998
 21
358.6497489999999
 31
0.0
  0
LINE
  5
C86E
330
C5B5
100
AcDbEntity
  8
1
  6
Continuous
100
AcDbLine
 10
435.457698
 20
371.1783509999999
 30
0.0
 11
435.457698
 21
357.7062149999999
 31
0.0
  0
LINE
  5
C86F
330
C5B5
100
AcDbEntity
  8
1
  6
Continuous
100
AcDbLine
 10
439.429096
 20
360.690624
 30
0.0
 11
438.8011009999996
 21
361.340931
 31
0.0
  0
CIRCLE
  5
C870
330
C5B5
100
AcDbEntity
  8
1
  6
Continuous
100
AcDbCircle
 10
440.9576979999997
 20
360.1783509999998
 30
0.0
 40
4.5
  0
CIRCLE
  5
C871
330
C5B5
100
AcDbEntity
  8
1
  6
Continuous
100
AcDbCircle
 10
440.9576979999997
 20
360.1783509999998
 30
0.0
 40
4.599999999999996
  0
CIRCLE
  5
C872
330
C5B5
100
AcDbEntity
  8
1
  6
Continuous
100
AcDbCircle
 10
440.9576979999997
 20
360.1783509999998
 30
0.0
 40
5.0
  0
LINE
  5
C873
330
C5B5
100
AcDbEntity
  8
1
  6
Continuous
100
AcDbLine
 10
442.4863
 20
360.690624
 30
0.0
 11
443.114295
 21
361.340931
 31
0.0
  0
LINE
  5
C874
330
C5B5
100
AcDbEntity
  8
4
  6
CENTER
 48
0.2
100
AcDbLine
 10
440.9576979999997
 20
366.6783509999998
 30
0.0
 11
440.9576979999997
 21
353.6783509999998
 31
0.0
  0
ARC
  5
C875
330
C5B5
100
AcDbEntity
  8
5
  6
PHANTOM
 48
0.2
100
AcDbCircle
 10
460.848571
 20
356.642817
 30
0.0
 40
5.0
100
AcDbArc
 50
315.0
 51
45.0
  0
CIRCLE
  5
C876
330
C5B5
100
AcDbEntity
  8
5
  6
PHANTOM
 48
0.2
100
AcDbCircle
 10
456.9594839999998
 20
356.289264
 30
0.0
 40
1.75
  0
LINE
  5
C877
330
C5B5
100
AcDbEntity
  8
4
  6
CENTER
 48
0.1
100
AcDbLine
 10
459.2575809999996
 20
353.991167
 30
0.0
 11
454.6613859999998
 21
358.587361
 31
0.0
  0
LINE
  5
C878
330
C5B5
100
AcDbEntity
  8
4
  6
CENTER
 48
0.1
100
AcDbLine
 10
459.2575809999996
 20
358.587361
 30
0.0
 11
454.6613859999998
 21
353.991167
 31
0.0
  0
LINE
  5
C879
330
C5B5
100
AcDbEntity
  8
1
  6
Continuous
100
AcDbLine
 10
464.1329129999999
 20
356.2905819999999
 30
0.0
 11
464.1329129999999
 21
353.090582
 31
0.0
  0
ARC
  5
C87A
330
C5B5
100
AcDbEntity
  8
1
  6
Continuous
100
AcDbCircle
 10
467.681529
 20
354.784598
 30
0.0
 40
1.708047999999998
100
AcDbArc
 50
138.9319999999997
 51
221.0679999999999
  0
ARC
  5
C87B
330
C5B5
100
AcDbEntity
  8
1
  6
Continuous
100
AcDbCircle
 10
461.9576979999997
 20
370.1783509999998
 30
0.0
 40
5.0
100
AcDbArc
 50
180.0
 51
270.0
  0
ARC
  5
C87C
330
C5B5
100
AcDbEntity
  8
1
  6
Continuous
100
AcDbCircle
 10
456.9704929999998
 20
350.086615
 30
0.0
 40
6.610656999999998
100
AcDbArc
 50
79.896
 51
82.20699999999999
  0
ARC
  5
C87D
330
C5B5
100
AcDbEntity
  8
1
  6
Continuous
100
AcDbCircle
 10
457.8603039999999
 20
356.581449
 30
0.0
 40
0.055565
100
AcDbArc
 50
82.20699999999999
 51
180.0
  0
ARC
  5
C87E
330
C5B5
100
AcDbEntity
  8
1
  6
Continuous
100
AcDbCircle
 10
458.0824749999998
 20
356.3209339999998
 30
0.0
 40
0.277826
100
AcDbArc
 50
0.0
 51
79.896
  0
LINE
  5
C87F
330
C5B5
100
AcDbEntity
  8
1
  6
Continuous
100
AcDbLine
 10
461.7353259999998
 20
354.7533319999997
 30
0.0
 11
460.5872549999999
 21
354.7533319999997
 31
0.0
  0
ARC
  5
C880
330
C5B5
100
AcDbEntity
  8
1
  6
Continuous
100
AcDbCircle
 10
460.3041849999995
 20
354.7533319999997
 30
0.0
 40
1.431648999999999
100
AcDbArc
 50
305.5379999999999
 51
315.699
  0
ARC
  5
C881
330
C5B5
100
AcDbEntity
  8
1
  6
Continuous
100
AcDbCircle
 10
456.9704929999998
 20
359.418922
 30
0.0
 40
6.610656999999998
100
AcDbArc
 50
277.793
 51
280.104
  0
ARC
  5
C882
330
C5B5
100
AcDbEntity
  8
1
  6
Continuous
100
AcDbCircle
 10
457.8603039999999
 20
352.9240869999999
 30
0.0
 40
0.055565
100
AcDbArc
 50
180.0
 51
277.793
  0
LINE
  5
C883
330
C5B5
100
AcDbEntity
  8
1
  6
Continuous
100
AcDbLine
 10
458.3599069999998
 20
354.7533319999997
 30
0.0
 11
458.0824749999998
 21
354.7533319999997
 31
0.0
  0
LINE
  5
C884
330
C5B5
100
AcDbEntity
  8
1
  6
Continuous
100
AcDbLine
 10
459.7481929999998
 20
354.7533319999997
 30
0.0
 11
459.7481929999998
 21
353.4203069999999
 31
0.0
  0
ARC
  5
C885
330
C5B5
100
AcDbEntity
  8
1
  6
Continuous
100
AcDbCircle
 10
459.7481929999998
 20
355.0307639999999
 30
0.0
 40
0.277826
100
AcDbArc
 50
180.0
 51
0.0
  0
ARC
  5
C886
330
C5B5
100
AcDbEntity
  8
1
  6
Continuous
100
AcDbCircle
 10
458.0824749999998
 20
353.1846019999999
 30
0.0
 40
0.277826
100
AcDbArc
 50
280.104
 51
0.0
  0
LINE
  5
C887
330
C5B5
100
AcDbEntity
  8
1
  6
Continuous
100
AcDbLine
 10
458.3599069999998
 20
353.1846019999999
 30
0.0
 11
458.3599069999998
 21
354.7533319999997
 31
0.0
  0
LINE
  5
C888
330
C5B5
100
AcDbEntity
  8
1
  6
Continuous
100
AcDbLine
 10
456.693061
 20
356.6908429999998
 30
0.0
 11
456.693061
 21
352.8146929999999
 31
0.0
  0
LINE
  5
C889
330
C5B5
100
AcDbEntity
  8
1
  6
Continuous
100
AcDbLine
 10
457.2490519999998
 20
356.6908429999998
 30
0.0
 11
457.2490519999998
 21
352.8146929999999
 31
0.0
  0
LINE
  5
C88A
330
C5B5
100
AcDbEntity
  8
1
  6
Continuous
100
AcDbLine
 10
457.803916
 20
356.581449
 30
0.0
 11
457.803916
 21
352.9240869999999
 31
0.0
  0
LINE
  5
C88B
330
C5B5
100
AcDbEntity
  8
1
  6
Continuous
100
AcDbLine
 10
458.3599069999998
 20
355.419845
 30
0.0
 11
458.3599069999998
 21
356.3209339999998
 31
0.0
  0
LINE
  5
C88C
330
C5B5
100
AcDbEntity
  8
1
  6
Continuous
100
AcDbLine
 10
459.470762
 20
356.3175509999999
 30
0.0
 11
459.470762
 21
355.0307639999999
 31
0.0
  0
LINE
  5
C88D
330
C5B5
100
AcDbEntity
  8
1
  6
Continuous
100
AcDbLine
 10
460.0267529999999
 20
355.0307639999999
 30
0.0
 11
460.0267529999999
 21
356.2171789999999
 31
0.0
  0
LINE
  5
C88E
330
C5B5
100
AcDbEntity
  8
1
  6
Continuous
100
AcDbLine
 10
460.3086959999997
 20
353.713527
 30
0.0
 11
460.9368639999996
 21
356.05478
 31
0.0
  0
ARC
  5
C88F
330
C5B5
100
AcDbEntity
  8
1
  6
Continuous
100
AcDbCircle
 10
460.3041849999995
 20
354.7533319999997
 30
0.0
 40
1.431648999999999
100
AcDbArc
 50
332.25
 51
54.46200000000001
  0
LINE
  5
C890
330
C5B5
100
AcDbEntity
  8
1
  6
Continuous
100
AcDbLine
 10
458.9147699999998
 20
356.5791939999999
 30
0.0
 11
458.9147699999998
 21
353.1011470000001
 31
0.0
  0
ARC
  5
C891
330
C5B5
100
AcDbEntity
  8
1
  6
Continuous
100
AcDbCircle
 10
455.304775
 20
356.195752
 30
0.0
 40
0.277826
100
AcDbArc
 50
105.2575
 51
180.0
  0
ARC
  5
C892
330
C5B5
100
AcDbEntity
  8
1
  6
Continuous
100
AcDbCircle
 10
454.1939199999998
 20
355.777349
 30
0.0
 40
0.277826
100
AcDbArc
 50
116.0144
 51
180.0
  0
ARC
  5
C893
330
C5B5
100
AcDbEntity
  8
1
  6
Continuous
100
AcDbCircle
 10
456.9704929999998
 20
350.086615
 30
0.0
 40
6.610656999999998
100
AcDbArc
 50
112.9439999999999
 51
116.0144
  0
ARC
  5
C894
330
C5B5
100
AcDbEntity
  8
1
  6
Continuous
100
AcDbCircle
 10
454.416091
 20
356.123574
 30
0.0
 40
0.055565
100
AcDbArc
 50
0.0
 51
112.9439999999999
  0
ARC
  5
C895
330
C5B5
100
AcDbEntity
  8
1
  6
Continuous
100
AcDbCircle
 10
455.5269459999998
 20
356.4799499999999
 30
0.0
 40
0.055565
100
AcDbArc
 50
0.0
 51
102.7288999999999
  0
ARC
  5
C896
330
C5B5
100
AcDbEntity
  8
1
  6
Continuous
100
AcDbCircle
 10
456.9704929999998
 20
350.086615
 30
0.0
 40
6.610656999999998
100
AcDbArc
 50
102.7288999999999
 51
103.2680999999999
  0
ARC
  5
C897
330
C5B5
100
AcDbEntity
  8
1
  6
Continuous
100
AcDbCircle
 10
456.9704929999998
 20
350.086615
 30
0.0
 40
6.610656999999998
100
AcDbArc
 50
103.2680999999999
 51
105.2575
  0
ARC
  5
C898
330
C5B5
100
AcDbEntity
  8
1
  6
Continuous
100
AcDbCircle
 10
455.304775
 20
353.3097849999998
 30
0.0
 40
0.277826
100
AcDbArc
 50
180.0
 51
254.742
  0
ARC
  5
C899
330
C5B5
100
AcDbEntity
  8
1
  6
Continuous
100
AcDbCircle
 10
454.1939199999998
 20
353.728188
 30
0.0
 40
0.277826
100
AcDbArc
 50
180.0
 51
243.9859999999999
  0
ARC
  5
C89A
330
C5B5
100
AcDbEntity
  8
1
  6
Continuous
100
AcDbCircle
 10
454.416091
 20
353.3830899999998
 30
0.0
 40
0.055565
100
AcDbArc
 50
247.0559999999999
 51
0.0
  0
ARC
  5
C89B
330
C5B5
100
AcDbEntity
  8
1
  6
Continuous
100
AcDbCircle
 10
456.9704929999998
 20
359.418922
 30
0.0
 40
6.610656999999998
100
AcDbArc
 50
243.9859999999999
 51
247.0559999999999
  0
ARC
  5
C89C
330
C5B5
100
AcDbEntity
  8
1
  6
Continuous
100
AcDbCircle
 10
456.9704929999998
 20
359.418922
 30
0.0
 40
6.610656999999998
100
AcDbArc
 50
254.742
 51
254.794
  0
ARC
  5
C89D
330
C5B5
100
AcDbEntity
  8
1
  6
Continuous
100
AcDbCircle
 10
456.9704929999998
 20
359.418922
 30
0.0
 40
6.610656999999998
100
AcDbArc
 50
254.794
 51
257.2709999999996
  0
ARC
  5
C89E
330
C5B5
100
AcDbEntity
  8
1
  6
Continuous
100
AcDbCircle
 10
455.5269459999998
 20
353.0255869999999
 30
0.0
 40
0.055565
100
AcDbArc
 50
257.2709999999996
 51
0.0
  0
LINE
  5
C89F
330
C5B5
100
AcDbEntity
  8
1
  6
Continuous
100
AcDbLine
 10
455.5822059999998
 20
353.0255869999999
 30
0.0
 11
455.5822059999998
 21
354.0868189999998
 31
0.0
  0
ARC
  5
C8A0
330
C5B5
100
AcDbEntity
  8
1
  6
Continuous
100
AcDbCircle
 10
453.637929
 20
354.7533319999997
 30
0.0
 40
1.431648999999999
100
AcDbArc
 50
180.0
 51
234.4619999999999
  0
LINE
  5
C8A1
330
C5B5
100
AcDbEntity
  8
1
  6
Continuous
100
AcDbLine
 10
453.3604969999998
 20
356.2769509999998
 30
0.0
 11
453.3604969999998
 21
353.8815649999999
 31
0.0
  0
LINE
  5
C8A2
330
C5B5
100
AcDbEntity
  8
1
  6
Continuous
100
AcDbLine
 10
453.915361
 20
353.728188
 30
0.0
 11
453.915361
 21
355.777349
 31
0.0
  0
LINE
  5
C8A3
330
C5B5
100
AcDbEntity
  8
1
  6
Continuous
100
AcDbLine
 10
454.471352
 20
356.123574
 30
0.0
 11
454.471352
 21
353.3830899999998
 31
0.0
  0
LINE
  5
C8A4
330
C5B5
100
AcDbEntity
  8
1
  6
Continuous
100
AcDbLine
 10
455.026215
 20
356.195752
 30
0.0
 11
455.026215
 21
353.3097849999998
 31
0.0
  0
ARC
  5
C8A5
330
C5B5
100
AcDbEntity
  8
1
  6
Continuous
100
AcDbCircle
 10
453.637929
 20
354.7533319999997
 30
0.0
 40
1.431648999999999
100
AcDbArc
 50
125.5376999999999
 51
166.5373999999999
  0
LINE
  5
C8A6
330
C5B5
100
AcDbEntity
  8
1
  6
Continuous
100
AcDbLine
 10
455.5822059999998
 20
355.419845
 30
0.0
 11
455.5822059999998
 21
356.4799499999999
 31
0.0
  0
LINE
  5
C8A7
330
C5B5
100
AcDbEntity
  8
1
  6
Continuous
100
AcDbLine
 10
456.138198
 20
356.6446049999996
 30
0.0
 11
456.138198
 21
352.860932
 31
0.0
  0
ARC
  5
C8A8
330
C5B5
100
AcDbEntity
  8
1
  6
Continuous
100
AcDbCircle
 10
456.9704929999998
 20
359.418922
 30
0.0
 40
7.166163
100
AcDbArc
 50
234.4619999999999
 51
305.5379999999999
  0
ARC
  5
C8A9
330
C5B5
100
AcDbEntity
  8
1
  6
Continuous
100
AcDbCircle
 10
456.9704929999998
 20
350.086615
 30
0.0
 40
7.166163
100
AcDbArc
 50
54.46200000000001
 51
125.5376999999999
  0
LINE
  5
C8AA
330
C5B5
100
AcDbEntity
  8
1
  6
Continuous
100
AcDbLine
 10
456.693061
 20
354.7533319999997
 30
0.0
 11
456.138198
 21
354.7533319999997
 31
0.0
  0
LINE
  5
C8AB
330
C5B5
100
AcDbEntity
  8
1
  6
Continuous
100
AcDbLine
 10
462.8785049999996
 20
356.2905819999999
 30
0.0
 11
465.3984649999999
 21
356.2905819999999
 31
0.0
  0
LINE
  5
C8AC
330
C5B5
100
AcDbEntity
  8
4
  6
CENTER
 48
0.1
100
AcDbLine
 10
452.707698
 20
382.1783509999999
 30
0.0
 11
446.2076979999998
 21
382.1783509999999
 31
0.0
  0
CIRCLE
  5
C8AD
330
C5B5
100
AcDbEntity
  8
1
  6
Continuous
100
AcDbCircle
 10
449.4576979999997
 20
382.1783509999999
 30
0.0
 40
1.75
  0
LINE
  5
C8AE
330
C5B5
100
AcDbEntity
  8
1
  6
Continuous
100
AcDbLine
 10
435.8165969999998
 20
374.6783509999998
 30
0.0
 11
439.0969069999998
 21
374.6783509999998
 31
0.0
  0
LINE
  5
C8AF
330
C5B5
100
AcDbEntity
  8
1
  6
Continuous
100
AcDbLine
 10
431.9427269999998
 20
373.61338
 30
0.0
 11
431.9427269999998
 21
373.1783509999999
 31
0.0
  0
ARC
  5
C8B0
330
C5B5
100
AcDbEntity
  8
1
  6
Continuous
100
AcDbCircle
 10
435.3927269999998
 20
373.61338
 30
0.0
 40
3.45
100
AcDbArc
 50
45.0
 51
180.0
  0
LINE
  5
C8B1
330
C5B5
100
AcDbEntity
  8
1
  6
Continuous
100
AcDbLine
 10
433.0854719999998
 20
376.1783509999998
 30
0.0
 11
437.699981
 21
376.1783509999998
 31
0.0
  0
ARC
  5
C8B2
330
C5B5
100
AcDbEntity
  8
1
  6
Continuous
100
AcDbCircle
 10
451.957698
 20
385.1783509999998
 30
0.0
 40
5.0
100
AcDbArc
 50
0.0
 51
90.0
  0
LINE
  5
C8B3
330
C5B5
100
AcDbEntity
  8
4
  6
CENTER
 48
0.1
100
AcDbLine
 10
449.4576979999997
 20
385.4283509999999
 30
0.0
 11
449.4576979999997
 21
378.9283509999998
 31
0.0
  0
ARC
  5
C8B4
330
C5B5
100
AcDbEntity
  8
1
  6
Continuous
100
AcDbCircle
 10
485.323401
 20
355.3636379999999
 30
0.0
 40
0.9267839999999999
100
AcDbArc
 50
44.0725
 51
135.928
  0
ARC
  5
C8B5
330
C5B5
100
AcDbEntity
  8
1
  6
Continuous
100
AcDbCircle
 10
485.323401
 20
354.0175259999998
 30
0.0
 40
0.9267839999999999
100
AcDbArc
 50
224.072
 51
315.927
  0
ARC
  5
C8B6
330
C5B5
100
AcDbEntity
  8
1
  6
Continuous
100
AcDbCircle
 10
480.2258349999998
 20
355.3636379999999
 30
0.0
 40
0.9267839999999999
100
AcDbArc
 50
44.0725
 51
135.928
  0
ARC
  5
C8B7
330
C5B5
100
AcDbEntity
  8
1
  6
Continuous
100
AcDbCircle
 10
485.377561
 20
354.0699419999999
 30
0.0
 40
1.002143999999999
100
AcDbArc
 50
180.0
 51
224.072
  0
LINE
  5
C8B8
330
C5B5
100
AcDbEntity
  8
1
  6
Continuous
100
AcDbLine
 10
484.3754009999996
 20
355.311222
 30
0.0
 11
484.3754009999996
 21
354.0699419999999
 31
0.0
  0
LINE
  5
C8B9
330
C5B5
100
AcDbEntity
  8
1
  6
Continuous
100
AcDbLine
 10
481.1738349999997
 20
355.311222
 30
0.0
 11
481.1738349999997
 21
354.0699419999999
 31
0.0
  0
ARC
  5
C8BA
330
C5B5
100
AcDbEntity
  8
1
  6
Continuous
100
AcDbCircle
 10
480.1716749999997
 20
354.0699419999999
 30
0.0
 40
1.002143999999999
100
AcDbArc
 50
315.927
 51
0.0
  0
ARC
  5
C8BB
330
C5B5
100
AcDbEntity
  8
1
  6
Continuous
100
AcDbCircle
 10
480.2258349999998
 20
354.0175259999998
 30
0.0
 40
0.9267839999999999
100
AcDbArc
 50
224.072
 51
315.927
  0
LINE
  5
C8BC
330
C5B5
100
AcDbEntity
  8
1
  6
Continuous
100
AcDbLine
 10
482.556336
 20
354.690582
 30
0.0
 11
483.5588159999998
 21
354.690582
 31
0.0
  0
ARC
  5
C8BD
330
C5B5
100
AcDbEntity
  8
1
  6
Continuous
100
AcDbCircle
 10
480.1716749999997
 20
355.311222
 30
0.0
 40
1.002143999999999
100
AcDbArc
 50
0.0
 51
44.0725
  0
ARC
  5
C8BE
330
C5B5
100
AcDbEntity
  8
1
  6
Continuous
100
AcDbCircle
 10
485.377561
 20
355.311222
 30
0.0
 40
1.002143999999999
100
AcDbArc
 50
135.928
 51
180.0
  0
ARC
  5
C8BF
330
C5B5
100
AcDbEntity
  8
1
  6
Continuous
100
AcDbCircle
 10
477.5032719999998
 20
355.3636379999999
 30
0.0
 40
0.9267839999999999
100
AcDbArc
 50
44.0725
 51
135.928
  0
ARC
  5
C8C0
330
C5B5
100
AcDbEntity
  8
1
  6
Continuous
100
AcDbCircle
 10
474.7218269999998
 20
355.289982
 30
0.0
 40
1.000599999999999
100
AcDbArc
 50
47.1304
 51
132.8699999999996
  0
ARC
  5
C8C1
330
C5B5
100
AcDbEntity
  8
1
  6
Continuous
100
AcDbCircle
 10
477.5032719999998
 20
354.0175259999998
 30
0.0
 40
0.9267839999999999
100
AcDbArc
 50
224.072
 51
315.927
  0
ARC
  5
C8C2
330
C5B5
100
AcDbEntity
  8
1
  6
Continuous
100
AcDbCircle
 10
477.449112
 20
354.0699419999999
 30
0.0
 40
1.002143999999999
100
AcDbArc
 50
315.927
 51
0.0
  0
ARC
  5
C8C3
330
C5B5
100
AcDbEntity
  8
1
  6
Continuous
100
AcDbCircle
 10
477.557432
 20
354.0699419999999
 30
0.0
 40
1.002143999999999
100
AcDbArc
 50
180.0
 51
224.072
  0
LINE
  5
C8C4
330
C5B5
100
AcDbEntity
  8
1
  6
Continuous
100
AcDbLine
 10
478.4512719999995
 20
355.311222
 30
0.0
 11
478.4512719999995
 21
354.0699419999999
 31
0.0
  0
LINE
  5
C8C5
330
C5B5
100
AcDbEntity
  8
1
  6
Continuous
100
AcDbLine
 10
476.555272
 20
355.311222
 30
0.0
 11
476.555272
 21
354.0699419999999
 31
0.0
  0
LINE
  5
C8C6
330
C5B5
100
AcDbEntity
  8
1
  6
Continuous
100
AcDbLine
 10
479.2778349999998
 20
355.311222
 30
0.0
 11
479.2778349999998
 21
354.0699419999999
 31
0.0
  0
ARC
  5
C8C7
330
C5B5
100
AcDbEntity
  8
1
  6
Continuous
100
AcDbCircle
 10
474.6098749999998
 20
353.970582
 30
0.0
 40
0.8360479999999999
100
AcDbArc
 50
193.0139999999999
 51
227.13
  0
ARC
  5
C8C8
330
C5B5
100
AcDbEntity
  8
1
  6
Continuous
100
AcDbCircle
 10
474.7218269999998
 20
353.849979
 30
0.0
 40
1.000599999999999
100
AcDbArc
 50
47.1304
 51
57.1503
  0
ARC
  5
C8C9
330
C5B5
100
AcDbEntity
  8
1
  6
Continuous
100
AcDbCircle
 10
474.7218269999998
 20
354.091182
 30
0.0
 40
1.000599999999999
100
AcDbArc
 50
227.13
 51
312.87
  0
ARC
  5
C8CA
330
C5B5
100
AcDbEntity
  8
1
  6
Continuous
100
AcDbCircle
 10
474.7218269999998
 20
355.531182
 30
0.0
 40
1.000599999999999
100
AcDbArc
 50
302.85
 51
312.87
  0
LINE
  5
C8CB
330
C5B5
100
AcDbEntity
  8
1
  6
Continuous
100
AcDbLine
 10
474.7962589999998
 20
354.690582
 30
0.0
 11
475.2645949999998
 21
354.690582
 31
0.0
  0
ARC
  5
C8CC
330
C5B5
100
AcDbEntity
  8
1
  6
Continuous
100
AcDbCircle
 10
474.8337789999998
 20
353.970582
 30
0.0
 40
0.8360479999999999
100
AcDbArc
 50
312.87
 51
47.1304
  0
ARC
  5
C8CD
330
C5B5
100
AcDbEntity
  8
1
  6
Continuous
100
AcDbCircle
 10
474.6098749999998
 20
355.4105819999999
 30
0.0
 40
0.8360479999999999
100
AcDbArc
 50
132.8699999999996
 51
198.208
  0
ARC
  5
C8CE
330
C5B5
100
AcDbEntity
  8
1
  6
Continuous
100
AcDbCircle
 10
474.8337789999998
 20
355.4105819999999
 30
0.0
 40
0.8360479999999999
100
AcDbArc
 50
312.87
 51
47.1304
  0
ARC
  5
C8CF
330
C5B5
100
AcDbEntity
  8
1
  6
Continuous
100
AcDbCircle
 10
477.449112
 20
355.311222
 30
0.0
 40
1.002143999999999
100
AcDbArc
 50
0.0
 51
44.0725
  0
ARC
  5
C8D0
330
C5B5
100
AcDbEntity
  8
1
  6
Continuous
100
AcDbCircle
 10
477.557432
 20
355.311222
 30
0.0
 40
1.002143999999999
100
AcDbArc
 50
135.928
 51
180.0
  0
LINE
  5
C8D1
330
C5B5
100
AcDbEntity
  8
1
  6
Continuous
100
AcDbLine
 10
469.928273
 20
354.690582
 30
0.0
 11
470.930753
 21
354.690582
 31
0.0
  0
ARC
  5
C8D2
330
C5B5
100
AcDbEntity
  8
1
  6
Continuous
100
AcDbCircle
 10
466.9534409999998
 20
354.784598
 30
0.0
 40
1.708047999999998
100
AcDbArc
 50
318.932
 51
41.0679
  0
ARC
  5
C8D3
330
C5B5
100
AcDbEntity
  8
1
  6
Continuous
100
AcDbCircle
 10
480.2799949999998
 20
355.311222
 30
0.0
 40
1.002143999999999
100
AcDbArc
 50
135.928
 51
180.0
  0
ARC
  5
C8D4
330
C5B5
100
AcDbEntity
  8
1
  6
Continuous
100
AcDbCircle
 10
480.2799949999998
 20
354.0699419999999
 30
0.0
 40
1.002143999999999
100
AcDbArc
 50
180.0
 51
224.072
  0
LINE
  5
C8D5
330
C5B5
100
AcDbEntity
  8
1
  6
Continuous
100
AcDbLine
 10
496.957698
 20
350.1783509999999
 30
0.0
 11
496.957698
 21
355.1783509999999
 31
0.0
  0
ARC
  5
C8D6
330
C5B5
100
AcDbEntity
  8
1
  6
Continuous
100
AcDbCircle
 10
485.269241
 20
354.0699419999999
 30
0.0
 40
1.002143999999999
100
AcDbArc
 50
315.927
 51
0.0
  0
LINE
  5
C8D7
330
C5B5
100
AcDbEntity
  8
1
  6
Continuous
100
AcDbLine
 10
486.2714009999998
 20
355.311222
 30
0.0
 11
486.2714009999998
 21
354.0699419999999
 31
0.0
  0
ARC
  5
C8D8
330
C5B5
100
AcDbEntity
  8
1
  6
Continuous
100
AcDbCircle
 10
485.269241
 20
355.311222
 30
0.0
 40
1.002143999999999
100
AcDbArc
 50
0.0
 51
44.0725
  0
LINE
  5
C8D9
330
C5B5
100
AcDbEntity
  8
1
  6
Continuous
100
AcDbLine
 10
496.957698
 20
355.1783509999999
 30
0.0
 11
486.9576979999997
 21
365.1783509999999
 31
0.0
  0
ARC
  5
C8DA
330
C5B5
100
AcDbEntity
  8
1
  6
Continuous
100
AcDbCircle
 10
604.9920929999997
 20
382.1783509999999
 30
0.0
 40
12.0
100
AcDbArc
 50
164.5059999999998
 51
195.494
  0
LINE
  5
C93C
330
C5B5
100
AcDbEntity
  8
1
  6
Continuous
100
AcDbLine
 10
236.0576979999999
 20
464.3567009999999
 30
0.0
 11
236.0576979999999
 21
579.3567009999998
 31
0.0
  0
LINE
  5
C93D
330
C5B5
100
AcDbEntity
  8
1
  6
Continuous
100
AcDbLine
 10
232.857698
 20
464.3567009999999
 30
0.0
 11
232.857698
 21
579.3567009999998
 31
0.0
  0
LINE
  5
C93E
330
C5B5
100
AcDbEntity
  8
1
  6
Continuous
100
AcDbLine
 10
232.857698
 20
464.3567009999999
 30
0.0
 11
236.0576979999999
 21
464.3567009999999
 31
0.0
  0
LINE
  5
C93F
330
C5B5
100
AcDbEntity
  8
1
  6
Continuous
100
AcDbLine
 10
232.857698
 20
489.3567009999999
 30
0.0
 11
236.0576979999999
 21
489.3567009999999
 31
0.0
  0
LINE
  5
C940
330
C5B5
100
AcDbEntity
  8
4
  6
CENTER
 48
0.2
100
AcDbLine
 10
230.4169379999999
 20
470.3567009999998
 30
0.0
 11
239.3407729999999
 21
470.3567009999998
 31
0.0
  0
LINE
  5
C941
330
C5B5
100
AcDbEntity
  8
1
  6
Continuous
100
AcDbLine
 10
214.357698
 20
497.8567009999999
 30
0.0
 11
215.8576979999998
 21
497.8567009999999
 31
0.0
  0
LINE
  5
C942
330
C5B5
100
AcDbEntity
  8
4
  6
CENTER
 48
0.2
100
AcDbLine
 10
207.667634
 20
513.8567009999998
 30
0.0
 11
248.334066
 21
513.8567009999998
 31
0.0
  0
LINE
  5
C943
330
C5B5
100
AcDbEntity
  8
1
  6
Continuous
100
AcDbLine
 10
214.357698
 20
529.8567009999998
 30
0.0
 11
215.8576979999998
 21
529.8567009999998
 31
0.0
  0
ARC
  5
C944
330
C5B5
100
AcDbEntity
  8
1
  6
Continuous
100
AcDbCircle
 10
261.3577485295301
 20
513.8567009999997
 30
0.0
 40
51.00005052953036
100
AcDbArc
 50
168.6922821865
 51
191.3077178134996
  0
ARC
  5
C945
330
C5B5
100
AcDbEntity
  8
1
  6
Continuous
100
AcDbCircle
 10
260.992268
 20
513.8567009999998
 30
0.0
 40
49.81574099999999
100
AcDbArc
 50
171.6129679999999
 51
188.3870319999999
  0
LINE
  5
C946
330
C5B5
100
AcDbEntity
  8
1
  6
Continuous
100
AcDbLine
 10
212.857698
 20
499.856701
 30
0.0
 11
212.857698
 21
527.8567009999997
 31
0.0
  0
LINE
  5
C947
330
C5B5
100
AcDbEntity
  8
1
  6
Continuous
100
AcDbLine
 10
214.357698
 20
497.8567009999999
 30
0.0
 11
214.357698
 21
529.8567009999998
 31
0.0
  0
ARC
  5
C948
330
C5B5
100
AcDbEntity
  8
1
  6
Continuous
100
AcDbCircle
 10
212.3276979999999
 20
506.681796
 30
0.0
 40
0.625095
100
AcDbArc
 50
188.3870319999999
 51
327.9808089999999
  0
LINE
  5
C949
330
C5B5
100
AcDbEntity
  8
1
  6
Continuous
100
AcDbLine
 10
211.249337
 20
504.3567009999996
 30
0.0
 11
212.857698
 21
504.3567009999996
 31
0.0
  0
LINE
  5
C94A
330
C5B5
100
AcDbEntity
  8
1
  6
Continuous
100
AcDbLine
 10
211.347698
 20
503.8567009999998
 30
0.0
 11
212.857698
 21
503.8567009999998
 31
0.0
  0
LINE
  5
C94B
330
C5B5
100
AcDbEntity
  8
1
  6
Continuous
100
AcDbLine
 10
212.857698
 20
499.856701
 30
0.0
 11
214.357698
 21
497.8567009999999
 31
0.0
  0
ARC
  5
C94C
330
C5B5
100
AcDbEntity
  8
1
  6
Continuous
100
AcDbCircle
 10
212.3276979999999
 20
521.031606
 30
0.0
 40
0.625095
100
AcDbArc
 50
32.019191
 51
171.6129679999999
  0
LINE
  5
C94D
330
C5B5
100
AcDbEntity
  8
1
  6
Continuous
100
AcDbLine
 10
211.249337
 20
523.3567009999998
 30
0.0
 11
212.857698
 21
523.3567009999998
 31
0.0
  0
LINE
  5
C94E
330
C5B5
100
AcDbEntity
  8
1
  6
Continuous
100
AcDbLine
 10
211.347698
 20
523.8567009999997
 30
0.0
 11
212.857698
 21
523.8567009999997
 31
0.0
  0
LINE
  5
C94F
330
C5B5
100
AcDbEntity
  8
1
  6
Continuous
100
AcDbLine
 10
212.857698
 20
527.8567009999997
 30
0.0
 11
214.357698
 21
529.8567009999998
 31
0.0
  0
LINE
  5
C950
330
C5B5
100
AcDbEntity
  8
1
  6
Continuous
100
AcDbLine
 10
237.357698
 20
518.3567009999998
 30
0.0
 11
237.357698
 21
528.3567009999996
 31
0.0
  0
LINE
  5
C951
330
C5B5
100
AcDbEntity
  8
1
  6
Continuous
100
AcDbLine
 10
238.657698
 20
518.756701
 30
0.0
 11
238.657698
 21
527.956701
 31
0.0
  0
ARC
  5
C952
330
C5B5
100
AcDbEntity
  8
1
  6
Continuous
100
AcDbCircle
 10
239.979747
 20
520.5784769999998
 30
0.0
 40
1.6
100
AcDbArc
 50
275.0
 51
344.506032
  0
LINE
  5
C953
330
C5B5
100
AcDbEntity
  8
1
  6
Continuous
100
AcDbLine
 10
236.3576979999999
 20
518.3567009999998
 30
0.0
 11
236.3576979999999
 21
528.3567009999996
 31
0.0
  0
LINE
  5
C954
330
C5B5
100
AcDbEntity
  8
1
  6
Continuous
100
AcDbLine
 10
215.8576979999998
 20
497.8567009999999
 30
0.0
 11
215.8576979999998
 21
529.8567009999998
 31
0.0
  0
LINE
  5
C955
330
C5B5
100
AcDbEntity
  8
4
  6
CENTER
 48
0.2
100
AcDbLine
 10
230.8497009999999
 20
504.356701
 30
0.0
 11
244.3734179999999
 21
504.356701
 31
0.0
  0
LINE
  5
C956
330
C5B5
100
AcDbEntity
  8
4
  6
CENTER
 48
0.2
100
AcDbLine
 10
221.357698
 20
497.5912509999998
 30
0.0
 11
221.357698
 21
530.122151
 31
0.0
  0
LINE
  5
C957
330
C5B5
100
AcDbEntity
  8
1
  6
Continuous
100
AcDbLine
 10
215.8576979999998
 20
500.856701
 30
0.0
 11
232.857698
 21
500.856701
 31
0.0
  0
LINE
  5
C958
330
C5B5
100
AcDbEntity
  8
1
  6
Continuous
100
AcDbLine
 10
215.8576979999998
 20
517.8567009999998
 30
0.0
 11
220.357698
 21
517.8567009999998
 31
0.0
  0
LINE
  5
C959
330
C5B5
100
AcDbEntity
  8
1
  6
Continuous
100
AcDbLine
 10
220.357698
 20
517.8567009999998
 30
0.0
 11
220.857698
 21
517.3567009999998
 31
0.0
  0
LINE
  5
C95A
330
C5B5
100
AcDbEntity
  8
1
  6
Continuous
100
AcDbLine
 10
215.8576979999998
 20
509.856701
 30
0.0
 11
220.357698
 21
509.856701
 31
0.0
  0
LINE
  5
C95B
330
C5B5
100
AcDbEntity
  8
1
  6
Continuous
100
AcDbLine
 10
220.357698
 20
509.856701
 30
0.0
 11
220.857698
 21
510.3567009999999
 31
0.0
  0
LINE
  5
C95C
330
C5B5
100
AcDbEntity
  8
1
  6
Continuous
100
AcDbLine
 10
220.857698
 20
517.3567009999998
 30
0.0
 11
220.857698
 21
510.3567009999999
 31
0.0
  0
LINE
  5
C95D
330
C5B5
100
AcDbEntity
  8
1
  6
Continuous
100
AcDbLine
 10
220.357698
 20
509.856701
 30
0.0
 11
220.357698
 21
517.8567009999998
 31
0.0
  0
ARC
  5
C95E
330
C5B5
100
AcDbEntity
  8
1
  6
Continuous
100
AcDbCircle
 10
239.0215779999997
 20
516.6257839999998
 30
0.0
 40
1.230917
100
AcDbArc
 50
19.56332899999998
 51
160.3402669999999
  0
ARC
  5
C95F
330
C5B5
100
AcDbEntity
  8
1
  6
Continuous
100
AcDbCircle
 10
232.989045
 20
513.8567009999998
 30
0.0
 40
7.868632999999997
100
AcDbArc
 50
336.151535
 51
23.86020299999999
  0
ARC
  5
C960
330
C5B5
100
AcDbEntity
  8
1
  6
Continuous
100
AcDbCircle
 10
245.05411
 20
513.8567009999998
 30
0.0
 40
7.868632999999997
100
AcDbArc
 50
156.12475
 51
203.87525
  0
ARC
  5
C961
330
C5B5
100
AcDbEntity
  8
1
  6
Continuous
100
AcDbCircle
 10
239.0215779999997
 20
511.0876179999998
 30
0.0
 40
1.230917
100
AcDbArc
 50
199.6597329999999
 51
340.511879
  0
LINE
  5
C962
330
C5B5
100
AcDbEntity
  8
1
  6
Continuous
100
AcDbLine
 10
238.657698
 20
504.356701
 30
0.0
 11
237.357698
 21
503.0567009999998
 31
0.0
  0
LINE
  5
C963
330
C5B5
100
AcDbEntity
  8
1
  6
Continuous
100
AcDbLine
 10
237.357698
 20
504.356701
 30
0.0
 11
238.657698
 21
505.656701
 31
0.0
  0
LINE
  5
C964
330
C5B5
100
AcDbEntity
  8
1
  6
Continuous
100
AcDbLine
 10
238.657698
 20
518.8567009999998
 30
0.0
 11
240.1191959999999
 21
518.9845659999998
 31
0.0
  0
LINE
  5
C965
330
C5B5
100
AcDbEntity
  8
1
  6
Continuous
100
AcDbLine
 10
237.357698
 20
518.756701
 30
0.0
 11
238.657698
 21
518.756701
 31
0.0
  0
LINE
  5
C966
330
C5B5
100
AcDbEntity
  8
1
  6
Continuous
100
AcDbLine
 10
236.3576979999999
 20
518.3567009999998
 30
0.0
 11
237.357698
 21
518.3567009999998
 31
0.0
  0
ARC
  5
C967
330
C5B5
100
AcDbEntity
  8
1
  6
Continuous
100
AcDbCircle
 10
239.979747
 20
507.1349249999998
 30
0.0
 40
1.6
100
AcDbArc
 50
15.493968
 51
85.0
  0
LINE
  5
C968
330
C5B5
100
AcDbEntity
  8
1
  6
Continuous
100
AcDbLine
 10
236.3576979999999
 20
509.356701
 30
0.0
 11
237.357698
 21
509.356701
 31
0.0
  0
LINE
  5
C969
330
C5B5
100
AcDbEntity
  8
1
  6
Continuous
100
AcDbLine
 10
236.0576979999999
 20
507.606701
 30
0.0
 11
236.3576979999999
 21
507.606701
 31
0.0
  0
LINE
  5
C96A
330
C5B5
100
AcDbEntity
  8
1
  6
Continuous
100
AcDbLine
 10
237.357698
 20
508.9567009999997
 30
0.0
 11
238.657698
 21
508.9567009999997
 31
0.0
  0
LINE
  5
C96B
330
C5B5
100
AcDbEntity
  8
1
  6
Continuous
100
AcDbLine
 10
238.657698
 20
508.856701
 30
0.0
 11
240.1191959999999
 21
508.728837
 31
0.0
  0
ARC
  5
C96C
330
C5B5
100
AcDbEntity
  8
1
  6
Continuous
100
AcDbCircle
 10
239.979747
 20
501.5784769999998
 30
0.0
 40
1.6
100
AcDbArc
 50
275.0
 51
344.506032
  0
LINE
  5
C96D
330
C5B5
100
AcDbEntity
  8
1
  6
Continuous
100
AcDbLine
 10
236.3576979999999
 20
499.3567009999998
 30
0.0
 11
237.357698
 21
499.3567009999998
 31
0.0
  0
LINE
  5
C96E
330
C5B5
100
AcDbEntity
  8
1
  6
Continuous
100
AcDbLine
 10
237.357698
 20
499.756701
 30
0.0
 11
238.657698
 21
499.756701
 31
0.0
  0
LINE
  5
C96F
330
C5B5
100
AcDbEntity
  8
1
  6
Continuous
100
AcDbLine
 10
236.0576979999999
 20
501.1067009999998
 30
0.0
 11
236.3576979999999
 21
501.1067009999998
 31
0.0
  0
LINE
  5
C970
330
C5B5
100
AcDbEntity
  8
1
  6
Continuous
100
AcDbLine
 10
238.657698
 20
499.856701
 30
0.0
 11
240.1191959999999
 21
499.984566
 31
0.0
  0
LINE
  5
C971
330
C5B5
100
AcDbEntity
  8
1
  6
Continuous
100
AcDbLine
 10
238.657698
 20
499.756701
 30
0.0
 11
238.657698
 21
508.9567009999997
 31
0.0
  0
LINE
  5
C972
330
C5B5
100
AcDbEntity
  8
1
  6
Continuous
100
AcDbLine
 10
237.357698
 20
499.3567009999998
 30
0.0
 11
237.357698
 21
509.356701
 31
0.0
  0
LINE
  5
C973
330
C5B5
100
AcDbEntity
  8
1
  6
Continuous
100
AcDbLine
 10
236.3576979999999
 20
499.3567009999998
 30
0.0
 11
236.3576979999999
 21
509.356701
 31
0.0
  0
ARC
  5
C974
330
C5B5
100
AcDbEntity
  8
1
  6
Continuous
100
AcDbCircle
 10
229.9576979999999
 20
504.356701
 30
0.0
 40
12.0
100
AcDbArc
 50
344.506032
 51
15.493968
  0
LINE
  5
C975
330
C5B5
100
AcDbEntity
  8
1
  6
Continuous
100
AcDbLine
 10
236.0576979999999
 20
509.856701
 30
0.0
 11
239.0215779999997
 21
509.856701
 31
0.0
  0
LINE
  5
C976
330
C5B5
100
AcDbEntity
  8
1
  6
Continuous
100
AcDbLine
 10
236.0576979999999
 20
517.8567009999998
 30
0.0
 11
239.0215779999997
 21
517.8567009999998
 31
0.0
  0
LINE
  5
C977
330
C5B5
100
AcDbEntity
  8
1
  6
Continuous
100
AcDbLine
 10
232.857698
 20
539.3567009999998
 30
0.0
 11
236.0576979999999
 21
539.3567009999998
 31
0.0
  0
LINE
  5
C978
330
C5B5
100
AcDbEntity
  8
4
  6
CENTER
 48
0.2
100
AcDbLine
 10
230.4169379999999
 20
531.8567009999997
 30
0.0
 11
238.8128399999999
 21
531.8567009999997
 31
0.0
  0
LINE
  5
C979
330
C5B5
100
AcDbEntity
  8
4
  6
CENTER
 48
0.2
100
AcDbLine
 10
230.772423
 20
523.3567009999998
 30
0.0
 11
244.0643069999999
 21
523.3567009999998
 31
0.0
  0
LINE
  5
C97A
330
C5B5
100
AcDbEntity
  8
1
  6
Continuous
100
AcDbLine
 10
215.8576979999998
 20
526.8567009999998
 30
0.0
 11
232.857698
 21
526.8567009999998
 31
0.0
  0
LINE
  5
C97B
330
C5B5
100
AcDbEntity
  8
1
  6
Continuous
100
AcDbLine
 10
238.657698
 20
523.3567009999998
 30
0.0
 11
237.357698
 21
522.0567009999999
 31
0.0
  0
LINE
  5
C97C
330
C5B5
100
AcDbEntity
  8
1
  6
Continuous
100
AcDbLine
 10
237.357698
 20
523.3567009999998
 30
0.0
 11
238.657698
 21
524.6567009999997
 31
0.0
  0
ARC
  5
C97D
330
C5B5
100
AcDbEntity
  8
1
  6
Continuous
100
AcDbCircle
 10
229.9576979999999
 20
523.3567009999998
 30
0.0
 40
12.0
100
AcDbArc
 50
344.506032
 51
15.493968
  0
LINE
  5
C97E
330
C5B5
100
AcDbEntity
  8
1
  6
Continuous
100
AcDbLine
 10
238.657698
 20
527.8567009999997
 30
0.0
 11
240.1191959999999
 21
527.7288369999999
 31
0.0
  0
LINE
  5
C97F
330
C5B5
100
AcDbEntity
  8
1
  6
Continuous
100
AcDbLine
 10
237.357698
 20
527.956701
 30
0.0
 11
238.657698
 21
527.956701
 31
0.0
  0
ARC
  5
C980
330
C5B5
100
AcDbEntity
  8
1
  6
Continuous
100
AcDbCircle
 10
239.979747
 20
526.1349249999998
 30
0.0
 40
1.6
100
AcDbArc
 50
15.493968
 51
85.0
  0
LINE
  5
C981
330
C5B5
100
AcDbEntity
  8
1
  6
Continuous
100
AcDbLine
 10
236.0576979999999
 20
520.1067009999998
 30
0.0
 11
236.3576979999999
 21
520.1067009999998
 31
0.0
  0
LINE
  5
C982
330
C5B5
100
AcDbEntity
  8
1
  6
Continuous
100
AcDbLine
 10
236.0576979999999
 20
526.6067009999998
 30
0.0
 11
236.3576979999999
 21
526.6067009999998
 31
0.0
  0
LINE
  5
C983
330
C5B5
100
AcDbEntity
  8
1
  6
Continuous
100
AcDbLine
 10
236.3576979999999
 20
528.3567009999996
 30
0.0
 11
237.357698
 21
528.3567009999996
 31
0.0
  0
LINE
  5
C984
330
C5B5
100
AcDbEntity
  8
1
  6
Continuous
100
AcDbLine
 10
232.857698
 20
569.3567009999997
 30
0.0
 11
236.0576979999999
 21
569.3567009999997
 31
0.0
  0
LINE
  5
C985
330
C5B5
100
AcDbEntity
  8
1
  6
Continuous
100
AcDbLine
 10
232.857698
 20
579.3567009999998
 30
0.0
 11
236.0576979999999
 21
579.3567009999998
 31
0.0
  0
LINE
  5
C986
330
C5B5
100
AcDbEntity
  8
1
  6
Continuous
100
AcDbLine
 10
287.1232679999998
 20
520.1567009999997
 30
0.0
 11
287.1232679999998
 21
507.5567009999998
 31
0.0
  0
ARC
  5
C987
330
C5B5
100
AcDbEntity
  8
1
  6
Continuous
100
AcDbCircle
 10
287.223268
 20
507.1567009999998
 30
0.0
 40
13.0
100
AcDbArc
 50
65.4569
 51
90.45879999999998
  0
LINE
  5
C988
330
C5B5
100
AcDbEntity
  8
4
  6
CENTER
 48
0.2
100
AcDbLine
 10
284.175468
 20
513.8567009999998
 30
0.0
 11
298.6173679999997
 21
513.8567009999998
 31
0.0
  0
LINE
  5
C989
330
C5B5
100
AcDbEntity
  8
1
  6
Continuous
100
AcDbLine
 10
292.623268
 20
518.982701
 30
0.0
 11
292.623268
 21
508.7307009999998
 31
0.0
  0
LINE
  5
C98A
330
C5B5
100
AcDbEntity
  8
1
  6
Continuous
100
AcDbLine
 10
294.084768
 20
518.228701
 30
0.0
 11
292.623268
 21
518.3567009999998
 31
0.0
  0
LINE
  5
C98B
330
C5B5
100
AcDbEntity
  8
1
  6
Continuous
100
AcDbLine
 10
294.084768
 20
509.4847009999998
 30
0.0
 11
292.623268
 21
509.356701
 31
0.0
  0
ARC
  5
C98C
330
C5B5
100
AcDbEntity
  8
1
  6
Continuous
100
AcDbCircle
 10
293.945268
 20
516.6347009999998
 30
0.0
 40
1.6
100
AcDbArc
 50
15.494
 51
84.99990000000002
  0
ARC
  5
C98D
330
C5B5
100
AcDbEntity
  8
1
  6
Continuous
100
AcDbCircle
 10
283.923268
 20
513.8567009999998
 30
0.0
 40
12.0
100
AcDbArc
 50
344.5059999999998
 51
15.494
  0
ARC
  5
C98E
330
C5B5
100
AcDbEntity
  8
1
  6
Continuous
100
AcDbCircle
 10
293.945268
 20
511.078701
 30
0.0
 40
1.6
100
AcDbArc
 50
275.0
 51
344.5059999999998
  0
ARC
  5
C98F
330
C5B5
100
AcDbEntity
  8
1
  6
Continuous
100
AcDbCircle
 10
287.223268
 20
520.5557009999997
 30
0.0
 40
13.0
100
AcDbArc
 50
269.559
 51
294.5429999999999
  0
ARC
  5
C990
330
C5B5
100
AcDbEntity
  8
5
  6
PHANTOM
 48
0.1
100
AcDbCircle
 10
716.0634489999996
 20
327.080597
 30
0.0
 40
2.0
100
AcDbArc
 50
334.936537
 51
55.07073000000001
  0
LINE
  5
C991
330
C5B5
100
AcDbEntity
  8
5
  6
PHANTOM
 48
0.1
100
AcDbLine
 10
714.3325469999997
 20
316.7020539999998
 30
0.0
 11
719.3819819999996
 21
313.175683
 31
0.0
  0
LINE
  5
C992
330
C5B5
100
AcDbEntity
  8
5
  6
PHANTOM
 48
0.5
100
AcDbLine
 10
671.0576979999999
 20
364.609841
 30
0.0
 11
727.2742409999997
 21
325.3499279999998
 31
0.0
  0
LINE
  5
C993
330
C5B5
100
AcDbEntity
  8
5
  6
PHANTOM
 48
0.5
100
AcDbLine
 10
671.0576979999999
 20
360.9506779999999
 30
0.0
 11
726.7863359999997
 21
322.031503
 31
0.0
  0
LINE
  5
C994
330
C5B5
100
AcDbEntity
  8
1
  6
Continuous
100
AcDbLine
 10
671.0576979999999
 20
249.1783509999999
 30
0.0
 11
671.0576979999999
 21
387.1783509999998
 31
0.0
  0
LINE
  5
C995
330
C5B5
100
AcDbEntity
  8
1
  6
Continuous
100
AcDbLine
 10
668.0576979999997
 20
247.1783509999999
 30
0.0
 11
668.0576979999997
 21
389.1783509999998
 31
0.0
  0
LINE
  5
C996
330
C5B5
100
AcDbEntity
  8
1
  6
Continuous
100
AcDbLine
 10
669.5576980000002
 20
247.1783509999999
 30
0.0
 11
669.5576980000002
 21
389.1783509999998
 31
0.0
  0
LINE
  5
C997
330
C5B5
100
AcDbEntity
  8
1
  6
Continuous
100
AcDbLine
 10
654.5576979999997
 20
313.1783509999999
 30
0.0
 11
654.5576979999997
 21
263.1783509999999
 31
0.0
  0
LINE
  5
C998
330
C5B5
100
AcDbEntity
  8
1
  6
Continuous
100
AcDbLine
 10
596.292093
 20
258.6783509999999
 30
0.0
 11
596.292093
 21
249.6783509999999
 31
0.0
  0
LINE
  5
C999
330
C5B5
100
AcDbEntity
  8
1
  6
Continuous
100
AcDbLine
 10
601.792093
 20
259.4783509999999
 30
0.0
 11
601.792093
 21
248.8783509999999
 31
0.0
  0
ARC
  5
C99A
330
C5B5
100
AcDbEntity
  8
1
  6
Continuous
100
AcDbCircle
 10
601.692093
 20
261.8783509999999
 30
0.0
 40
13.0
100
AcDbArc
 50
245.4569999999999
 51
270.4409999999999
  0
LINE
  5
C99B
330
C5B5
100
AcDbEntity
  8
1
  6
Continuous
100
AcDbLine
 10
594.830593
 20
249.8063509999997
 30
0.0
 11
596.292093
 21
249.6783509999999
 31
0.0
  0
ARC
  5
C99C
330
C5B5
100
AcDbEntity
  8
1
  6
Continuous
100
AcDbCircle
 10
601.692093
 20
246.4793509999998
 30
0.0
 40
13.0
100
AcDbArc
 50
89.55889999999998
 51
114.5431
  0
LINE
  5
C99D
330
C5B5
100
AcDbEntity
  8
1
  6
Continuous
100
AcDbLine
 10
594.830593
 20
258.5503509999999
 30
0.0
 11
596.292093
 21
258.6783509999999
 31
0.0
  0
LINE
  5
C99E
330
C5B5
100
AcDbEntity
  8
1
  6
Continuous
100
AcDbLine
 10
669.5576980000002
 20
247.1783509999999
 30
0.0
 11
671.0576979999999
 21
249.1783509999999
 31
0.0
  0
LINE
  5
C99F
330
C5B5
100
AcDbEntity
  8
1
  6
Continuous
100
AcDbLine
 10
669.5576980000002
 20
247.1783509999999
 30
0.0
 11
668.0576979999997
 21
247.1783509999999
 31
0.0
  0
LINE
  5
C9A0
330
C5B5
100
AcDbEntity
  8
1
  6
Continuous
100
AcDbLine
 10
656.1576979999999
 20
285.6783509999999
 30
0.0
 11
656.1576979999999
 21
260.1783509999999
 31
0.0
  0
LINE
  5
C9A1
330
C5B5
100
AcDbEntity
  8
1
  6
Continuous
100
AcDbLine
 10
656.0576979999997
 20
285.6783509999999
 30
0.0
 11
656.0576979999997
 21
263.1783509999999
 31
0.0
  0
LINE
  5
C9A2
330
C5B5
100
AcDbEntity
  8
1
  6
Continuous
100
AcDbLine
 10
656.357698
 20
285.6783509999999
 30
0.0
 11
656.357698
 21
260.228861
 31
0.0
  0
LINE
  5
C9A3
330
C5B5
100
AcDbEntity
  8
1
  6
Continuous
100
AcDbLine
 10
671.357698
 20
276.5783509999999
 30
0.0
 11
671.357698
 21
261.1783509999999
 31
0.0
  0
LINE
  5
C9A4
330
C5B5
100
AcDbEntity
  8
1
  6
Continuous
100
AcDbLine
 10
671.0576979999999
 20
285.6783509999999
 30
0.0
 11
673.5576980000002
 21
260.6783509999999
 31
0.0
  0
LINE
  5
C9A5
330
C5B5
100
AcDbEntity
  8
1
  6
Continuous
100
AcDbLine
 10
668.0576979999997
 20
250.1783509999999
 30
0.0
 11
663.5576979999997
 21
250.1783509999999
 31
0.0
  0
LINE
  5
C9A6
330
C5B5
100
AcDbEntity
  8
1
  6
Continuous
100
AcDbLine
 10
668.0576979999997
 20
260.1783509999999
 30
0.0
 11
656.1576979999999
 21
260.1783509999999
 31
0.0
  0
LINE
  5
C9A7
330
C5B5
100
AcDbEntity
  8
1
  6
Continuous
100
AcDbLine
 10
668.0576979999997
 20
258.1783509999999
 30
0.0
 11
663.5576979999997
 21
258.1783509999999
 31
0.0
  0
LINE
  5
C9A8
330
C5B5
100
AcDbEntity
  8
4
  6
CENTER
 48
0.2
100
AcDbLine
 10
672.3085099999997
 20
254.1783509999999
 30
0.0
 11
661.6750289999997
 21
254.1783509999999
 31
0.0
  0
LINE
  5
C9A9
330
C5B5
100
AcDbEntity
  8
1
  6
Continuous
100
AcDbLine
 10
663.0576979999997
 20
257.6783509999996
 30
0.0
 11
663.0576979999997
 21
250.6783509999999
 31
0.0
  0
LINE
  5
C9AA
330
C5B5
100
AcDbEntity
  8
1
  6
Continuous
100
AcDbLine
 10
663.5576979999997
 20
250.1783509999999
 30
0.0
 11
663.5576979999997
 21
258.1783509999999
 31
0.0
  0
LINE
  5
C9AB
330
C5B5
100
AcDbEntity
  8
1
  6
Continuous
100
AcDbLine
 10
663.5576979999997
 20
250.1783509999999
 30
0.0
 11
663.0576979999997
 21
250.6783509999999
 31
0.0
  0
LINE
  5
C9AC
330
C5B5
100
AcDbEntity
  8
1
  6
Continuous
100
AcDbLine
 10
663.5576979999997
 20
258.1783509999999
 30
0.0
 11
663.0576979999997
 21
257.6783509999996
 31
0.0
  0
LINE
  5
C9AD
330
C5B5
100
AcDbEntity
  8
1
  6
Continuous
100
AcDbLine
 10
656.0576979999997
 20
263.1783509999999
 30
0.0
 11
654.5576979999997
 21
263.1783509999999
 31
0.0
  0
LINE
  5
C9B5
330
C5B5
100
AcDbEntity
  8
1
  6
Continuous
100
AcDbLine
 10
671.1576980000001
 20
266.6783509999999
 30
0.0
 11
671.1576980000001
 21
260.8783509999995
 31
0.0
  0
ARC
  5
C9B6
330
C5B5
100
AcDbEntity
  8
1
  6
Continuous
100
AcDbCircle
 10
671.357698
 20
260.8783509999995
 30
0.0
 40
0.2
100
AcDbArc
 50
180.0
 51
270.0
  0
ARC
  5
C9B7
330
C5B5
100
AcDbEntity
  8
1
  6
Continuous
100
AcDbCircle
 10
671.857698
 20
261.1783509999999
 30
0.0
 40
0.5
100
AcDbArc
 50
180.0
 51
270.0
  0
LINE
  5
C9B8
330
C5B5
100
AcDbEntity
  8
1
  6
Continuous
100
AcDbLine
 10
673.5576980000002
 20
260.6783509999999
 30
0.0
 11
671.357698
 21
260.6783509999999
 31
0.0
  0
LINE
  5
C9B9
330
C5B5
100
AcDbEntity
  8
1
  6
Continuous
100
AcDbLine
 10
671.357698
 20
266.6783509999999
 30
0.0
 11
671.0576979999999
 21
266.6783509999999
 31
0.0
  0
LINE
  5
C9BA
330
C5B5
100
AcDbEntity
  8
1
  6
Continuous
100
AcDbLine
 10
656.1576979999999
 20
279.078351
 30
0.0
 11
656.0576979999997
 21
279.078351
 31
0.0
  0
LINE
  5
C9BB
330
C5B5
100
AcDbEntity
  8
1
  6
Continuous
100
AcDbLine
 10
656.357698
 20
285.6783509999999
 30
0.0
 11
654.5576979999997
 21
285.6783509999999
 31
0.0
  0
LINE
  5
C9BC
330
C5B5
100
AcDbEntity
  8
4
  6
CENTER
 48
0.1
100
AcDbLine
 10
651.1385889999996
 20
283.1783509999999
 30
0.0
 11
658.788686
 21
283.1783509999999
 31
0.0
  0
LINE
  5
C9BD
330
C5B5
100
AcDbEntity
  8
4
  6
CENTER
 48
0.2
100
AcDbLine
 10
645.2426329999997
 20
382.1783509999999
 30
0.0
 11
653.502197
 21
382.1783509999999
 31
0.0
  0
LINE
  5
C9BE
330
C5B5
100
AcDbEntity
  8
1
  6
Continuous
100
AcDbLine
 10
646.5576979999997
 20
364.7971529999999
 30
0.0
 11
643.0576979999997
 21
366.817879
 31
0.0
  0
LINE
  5
C9BF
330
C5B5
100
AcDbEntity
  8
1
  6
Continuous
100
AcDbLine
 10
646.5576979999997
 20
355.5783509999998
 30
0.0
 11
645.2576979999999
 21
355.5783509999998
 31
0.0
  0
LINE
  5
C9C0
330
C5B5
100
AcDbEntity
  8
1
  6
Continuous
100
AcDbLine
 10
646.5576979999997
 20
364.778351
 30
0.0
 11
645.2576979999999
 21
364.778351
 31
0.0
  0
LINE
  5
C9C1
330
C5B5
100
AcDbEntity
  8
1
  6
Continuous
100
AcDbLine
 10
645.5752179999997
 20
371.1783509999999
 30
0.0
 11
647.857698
 21
371.1783509999999
 31
0.0
  0
LINE
  5
C9C2
330
C5B5
100
AcDbEntity
  8
1
  6
Continuous
100
AcDbLine
 10
646.5576979999997
 20
360.1783509999998
 30
0.0
 11
645.2576979999999
 21
358.8783509999998
 31
0.0
  0
LINE
  5
C9C3
330
C5B5
100
AcDbEntity
  8
1
  6
Continuous
100
AcDbLine
 10
645.2576979999999
 20
360.1783509999998
 30
0.0
 11
646.5576979999997
 21
361.4783509999999
 31
0.0
  0
LINE
  5
C9C4
330
C5B5
100
AcDbEntity
  8
4
  6
CENTER
 48
0.1
100
AcDbLine
 10
645.9496339999997
 20
355.1783509999999
 30
0.0
 11
652.637822
 21
355.1783509999999
 31
0.0
  0
LINE
  5
C9C5
330
C5B5
100
AcDbEntity
  8
1
  6
Continuous
100
AcDbLine
 10
643.0576979999997
 20
366.817879
 30
0.0
 11
646.729918
 21
373.1783509999999
 31
0.0
  0
ARC
  5
C9C6
330
C5B5
100
AcDbEntity
  8
1
  6
Continuous
100
AcDbCircle
 10
601.692093
 20
389.8783509999999
 30
0.0
 40
13.0
100
AcDbArc
 50
245.4569999999999
 51
270.4409999999999
  0
ARC
  5
C9C7
330
C5B5
100
AcDbEntity
  8
1
  6
Continuous
100
AcDbCircle
 10
601.692093
 20
374.4793509999998
 30
0.0
 40
13.0
100
AcDbArc
 50
89.55889999999998
 51
114.5431
  0
LINE
  5
C9C8
330
C5B5
100
AcDbEntity
  8
1
  6
Continuous
100
AcDbLine
 10
594.830593
 20
377.8063509999999
 30
0.0
 11
596.292093
 21
377.6783509999999
 31
0.0
  0
LINE
  5
C9C9
330
C5B5
100
AcDbEntity
  8
1
  6
Continuous
100
AcDbLine
 10
594.830593
 20
386.5503509999999
 30
0.0
 11
596.292093
 21
386.6783509999999
 31
0.0
  0
LINE
  5
C9CA
330
C5B5
100
AcDbEntity
  8
1
  6
Continuous
100
AcDbLine
 10
596.292093
 20
386.6783509999999
 30
0.0
 11
596.292093
 21
377.6783509999999
 31
0.0
  0
LINE
  5
C9CB
330
C5B5
100
AcDbEntity
  8
1
  6
Continuous
100
AcDbLine
 10
601.792093
 20
387.4783509999998
 30
0.0
 11
601.792093
 21
376.8783509999996
 31
0.0
  0
ARC
  5
C9CC
330
C5B5
100
AcDbEntity
  8
1
  6
Continuous
100
AcDbCircle
 10
643.935649
 20
362.9565749999999
 30
0.0
 40
1.6
100
AcDbArc
 50
95.0
 51
164.5060319999998
  0
ARC
  5
C9CD
330
C5B5
100
AcDbEntity
  8
1
  6
Continuous
100
AcDbCircle
 10
643.935649
 20
357.400127
 30
0.0
 40
1.6
100
AcDbArc
 50
195.4939679999999
 51
265.0
  0
LINE
  5
C9CE
330
C5B5
100
AcDbEntity
  8
1
  6
Continuous
100
AcDbLine
 10
645.2576979999999
 20
355.5783509999998
 30
0.0
 11
645.2576979999999
 21
364.778351
 31
0.0
  0
LINE
  5
C9CF
330
C5B5
100
AcDbEntity
  8
1
  6
Continuous
100
AcDbLine
 10
645.2576979999999
 20
355.6783509999998
 30
0.0
 11
643.7961999999997
 21
355.8062159999997
 31
0.0
  0
LINE
  5
C9D0
330
C5B5
100
AcDbEntity
  8
1
  6
Continuous
100
AcDbLine
 10
645.2576979999999
 20
364.6783509999999
 30
0.0
 11
643.7961999999997
 21
364.5504869999999
 31
0.0
  0
ARC
  5
C9D1
330
C5B5
100
AcDbEntity
  8
1
  6
Continuous
100
AcDbCircle
 10
653.9576980000001
 20
360.1783509999998
 30
0.0
 40
12.0
100
AcDbArc
 50
164.5060319999998
 51
195.4939679999999
  0
LINE
  5
C9D2
330
C5B5
100
AcDbEntity
  8
1
  6
Continuous
100
AcDbLine
 10
651.5576979999997
 20
355.1783509999999
 30
0.0
 11
651.5576979999997
 21
316.1783509999999
 31
0.0
  0
LINE
  5
C9D3
330
C5B5
100
AcDbEntity
  8
1
  6
Continuous
100
AcDbLine
 10
651.0576979999997
 20
390.1783509999999
 30
0.0
 11
651.0576979999997
 21
345.1783509999998
 31
0.0
  0
LINE
  5
C9D4
330
C5B5
100
AcDbEntity
  8
1
  6
Continuous
100
AcDbLine
 10
647.857698
 20
390.1783509999999
 30
0.0
 11
647.857698
 21
345.1783509999998
 31
0.0
  0
LINE
  5
C9D5
330
C5B5
100
AcDbEntity
  8
5
  6
PHANTOM
 48
0.5
100
AcDbLine
 10
680.785309
 20
349.2783269999998
 30
0.0
 11
715.488656
 21
325.0425719999999
 31
0.0
  0
LINE
  5
C9D6
330
C5B5
100
AcDbEntity
  8
1
  6
Continuous
100
AcDbLine
 10
654.5576979999997
 20
313.1783509999999
 30
0.0
 11
651.5576979999997
 21
316.1783509999999
 31
0.0
  0
LINE
  5
C9D7
330
C5B5
100
AcDbEntity
  8
1
  6
Continuous
100
AcDbLine
 10
651.0576979999997
 20
345.1783509999998
 30
0.0
 11
647.857698
 21
345.1783509999998
 31
0.0
  0
LINE
  5
C9D8
330
C5B5
100
AcDbEntity
  8
5
  6
PHANTOM
 48
0.1
100
AcDbLine
 10
717.8751269999996
 20
326.2333529999999
 30
0.0
 11
713.999272
 21
317.945535
 31
0.0
  0
ARC
  5
C9D9
330
C5B5
100
AcDbEntity
  8
5
  6
PHANTOM
 48
0.1
100
AcDbCircle
 10
714.905112
 20
317.5219139999998
 30
0.0
 40
1.0
100
AcDbArc
 50
154.936537
 51
235.0707299999999
  0
ARC
  5
C9DA
330
C5B5
100
AcDbEntity
  8
5
  6
PHANTOM
 48
0.1
100
AcDbCircle
 10
714.343527
 20
323.4028529999998
 30
0.0
 40
2.0
100
AcDbArc
 50
334.936537
 51
55.07073000000001
  0
LINE
  5
C9DB
330
C5B5
100
AcDbEntity
  8
1
  6
Continuous
100
AcDbLine
 10
651.0576979999997
 20
355.1783509999999
 30
0.0
 11
647.857698
 21
355.1783509999999
 31
0.0
  0
LINE
  5
C9DC
330
C5B5
100
AcDbEntity
  8
1
  6
Continuous
100
AcDbLine
 10
646.5576979999997
 20
355.1783509999999
 30
0.0
 11
646.5576979999997
 21
365.1783509999999
 31
0.0
  0
LINE
  5
C9DD
330
C5B5
100
AcDbEntity
  8
1
  6
Continuous
100
AcDbLine
 10
647.5576979999997
 20
355.1783509999999
 30
0.0
 11
647.5576979999997
 21
365.1783509999999
 31
0.0
  0
LINE
  5
C9DE
330
C5B5
100
AcDbEntity
  8
1
  6
Continuous
100
AcDbLine
 10
647.5576979999997
 20
355.1783509999999
 30
0.0
 11
646.5576979999997
 21
355.1783509999999
 31
0.0
  0
LINE
  5
C9DF
330
C5B5
100
AcDbEntity
  8
1
  6
Continuous
100
AcDbLine
 10
647.857698
 20
356.9283509999999
 30
0.0
 11
647.5576979999997
 21
356.9283509999999
 31
0.0
  0
LINE
  5
C9E0
330
C5B5
100
AcDbEntity
  8
1
  6
Continuous
100
AcDbLine
 10
647.5576979999997
 20
365.1783509999999
 30
0.0
 11
646.5576979999997
 21
365.1783509999999
 31
0.0
  0
LINE
  5
C9E1
330
C5B5
100
AcDbEntity
  8
1
  6
Continuous
100
AcDbLine
 10
647.857698
 20
363.4283509999999
 30
0.0
 11
647.5576979999997
 21
363.4283509999999
 31
0.0
  0
LINE
  5
C9E2
330
C5B5
100
AcDbEntity
  8
1
  6
Continuous
100
AcDbLine
 10
647.857698
 20
364.046598
 30
0.0
 11
647.5576979999997
 21
364.2198029999998
 31
0.0
  0
LINE
  5
C9E3
330
C5B5
100
AcDbEntity
  8
1
  6
Continuous
100
AcDbLine
 10
651.5576979999997
 20
353.1783509999999
 30
0.0
 11
651.0576979999997
 21
353.1783509999999
 31
0.0
  0
LINE
  5
C9E4
330
C5B5
100
AcDbEntity
  8
1
  6
Continuous
100
AcDbLine
 10
651.0576979999997
 20
365.1783509999999
 30
0.0
 11
647.857698
 21
365.1783509999999
 31
0.0
  0
LINE
  5
C9E5
330
C5B5
100
AcDbEntity
  8
5
  6
PHANTOM
 48
0.1
100
AcDbLine
 10
680.8070639999997
 20
349.25902
 30
0.0
 11
671.0576979999999
 21
357.911246
 31
0.0
  0
LINE
  5
C9E6
330
C5B5
100
AcDbEntity
  8
5
  6
PHANTOM
 48
0.1
100
AcDbLine
 10
680.1432949999997
 20
348.5110829999999
 30
0.0
 11
671.0576979999999
 21
356.5742359999999
 31
0.0
  0
LINE
  5
C9E7
330
C5B5
100
AcDbEntity
  8
5
  6
PHANTOM
 48
0.1
100
AcDbLine
 10
675.2421440000001
 20
352.860685
 30
0.0
 11
671.0576979999999
 21
352.63164
 31
0.0
  0
ARC
  5
C9E8
330
C5B5
100
AcDbEntity
  8
5
  6
PHANTOM
 48
0.1
100
AcDbCircle
 10
680.47518
 20
348.8850509999999
 30
0.0
 40
0.5
100
AcDbArc
 50
228.412053
 51
48.412053
  0
LINE
  5
C9E9
330
C5B5
100
AcDbEntity
  8
5
  6
PHANTOM
 48
0.1
100
AcDbLine
 10
678.0077069999999
 20
353.012064
 30
0.0
 11
675.955048
 21
357.5305189999999
 31
0.0
  0
LINE
  5
C9EA
330
C5B5
100
AcDbEntity
  8
5
  6
PHANTOM
 48
0.1
100
AcDbLine
 10
679.4558479999997
 20
355.0856669999997
 30
0.0
 11
678.0077069999999
 21
353.012064
 31
0.0
  0
LINE
  5
C9EB
330
C5B5
100
AcDbEntity
  8
5
  6
PHANTOM
 48
0.1
100
AcDbLine
 10
678.0077069999999
 20
353.012064
 30
0.0
 11
676.6611699999997
 21
352.938358
 31
0.0
  0
LINE
  5
C9EC
330
C5B5
100
AcDbEntity
  8
1
  6
Continuous
100
AcDbLine
 10
668.0576979999997
 20
376.1783509999998
 30
0.0
 11
651.0576979999997
 21
376.1783509999998
 31
0.0
  0
LINE
  5
C9ED
330
C5B5
100
AcDbEntity
  8
1
  6
Continuous
100
AcDbLine
 10
668.0576979999997
 20
378.1783509999999
 30
0.0
 11
663.5576979999997
 21
378.1783509999999
 31
0.0
  0
LINE
  5
C9EE
330
C5B5
100
AcDbEntity
  8
1
  6
Continuous
100
AcDbLine
 10
668.0576979999997
 20
386.1783509999998
 30
0.0
 11
663.5576979999997
 21
386.1783509999998
 31
0.0
  0
LINE
  5
C9EF
330
C5B5
100
AcDbEntity
  8
4
  6
CENTER
 48
0.2
100
AcDbLine
 10
673.286746
 20
382.1783509999999
 30
0.0
 11
661.5576980000001
 21
382.1783509999999
 31
0.0
  0
LINE
  5
C9F0
330
C5B5
100
AcDbEntity
  8
1
  6
Continuous
100
AcDbLine
 10
646.729918
 20
373.1783509999999
 30
0.0
 11
647.857698
 21
373.1783509999999
 31
0.0
  0
LINE
  5
C9F1
330
C5B5
100
AcDbEntity
  8
1
  6
Continuous
100
AcDbLine
 10
663.0576979999997
 20
385.6783509999999
 30
0.0
 11
663.0576979999997
 21
378.6783509999998
 31
0.0
  0
LINE
  5
C9F2
330
C5B5
100
AcDbEntity
  8
1
  6
Continuous
100
AcDbLine
 10
663.5576979999997
 20
378.1783509999999
 30
0.0
 11
663.5576979999997
 21
386.1783509999998
 31
0.0
  0
LINE
  5
C9F3
330
C5B5
100
AcDbEntity
  8
1
  6
Continuous
100
AcDbLine
 10
663.5576979999997
 20
378.1783509999999
 30
0.0
 11
663.0576979999997
 21
378.6783509999998
 31
0.0
  0
LINE
  5
C9F4
330
C5B5
100
AcDbEntity
  8
1
  6
Continuous
100
AcDbLine
 10
663.5576979999997
 20
386.1783509999998
 30
0.0
 11
663.0576979999997
 21
385.6783509999999
 31
0.0
  0
LINE
  5
C9F5
330
C5B5
100
AcDbEntity
  8
1
  6
Continuous
100
AcDbLine
 10
651.0576979999997
 20
390.1783509999999
 30
0.0
 11
647.857698
 21
390.1783509999999
 31
0.0
  0
LINE
  5
C9F6
330
C5B5
100
AcDbEntity
  8
1
  6
Continuous
100
AcDbLine
 10
671.0576979999999
 20
387.1783509999998
 30
0.0
 11
669.5576980000002
 21
389.1783509999998
 31
0.0
  0
LINE
  5
C9F7
330
C5B5
100
AcDbEntity
  8
1
  6
Continuous
100
AcDbLine
 10
669.5576980000002
 20
389.1783509999998
 30
0.0
 11
668.0576979999997
 21
389.1783509999998
 31
0.0
  0
LINE
  5
C9F8
330
C5B5
100
AcDbEntity
  8
5
  6
PHANTOM
 48
0.1
100
AcDbLine
 10
719.050027
 20
317.0666739999998
 30
0.0
 11
725.556547
 21
322.89035
 31
0.0
  0
LINE
  5
C9F9
330
C5B5
100
AcDbEntity
  8
5
  6
PHANTOM
 48
0.1
100
AcDbLine
 10
721.6332529999997
 20
314.6527669999998
 30
0.0
 11
720.774406
 21
313.422978
 31
0.0
  0
LINE
  5
C9FA
330
C5B5
100
AcDbEntity
  8
5
  6
PHANTOM
 48
0.1
100
AcDbLine
 10
719.050027
 20
317.0666739999998
 30
0.0
 11
721.5096059999997
 21
315.348979
 31
0.0
  0
ARC
  5
C9FB
330
C5B5
100
AcDbEntity
  8
5
  6
PHANTOM
 48
0.1
100
AcDbCircle
 10
721.223323
 20
314.9390499999999
 30
0.0
 40
0.5
100
AcDbArc
 50
325.0707299999999
 51
55.07073000000001
  0
ARC
  5
C9FC
330
C5B5
100
AcDbEntity
  8
5
  6
PHANTOM
 48
0.1
100
AcDbCircle
 10
719.9545460000003
 20
313.995543
 30
0.0
 40
1.0
100
AcDbArc
 50
235.0707299999999
 51
325.0707299999999
  0
ARC
  5
C9FD
330
C5B5
100
AcDbEntity
  8
5
  6
PHANTOM
 48
0.1
100
AcDbCircle
 10
726.4153939999999
 20
324.120139
 30
0.0
 40
1.5
100
AcDbArc
 50
325.0707299999999
 51
55.07073000000001
  0
LINE
  5
C9FE
330
C5B5
100
AcDbEntity
  8
5
  6
PHANTOM
 48
0.1
100
AcDbLine
 10
727.6451829999999
 20
323.2612919999999
 30
0.0
 11
726.7863359999997
 21
322.031503
 31
0.0
  0
LINE
  5
C9FF
330
C5B5
100
AcDbEntity
  8
4
  6
CENTER
 48
0.2
100
AcDbLine
 10
221.357698
 20
367.1783509999999
 30
0.0
 11
221.357698
 21
353.1783509999999
 31
0.0
  0
LINE
  5
CA00
330
C5B5
100
AcDbEntity
  8
4
  6
CENTER
 48
0.2
100
AcDbLine
 10
214.3576980000001
 20
360.1783509999998
 30
0.0
 11
243.4576980000001
 21
360.1783509999998
 31
0.0
  0
CIRCLE
  5
CA01
330
C5B5
100
AcDbEntity
  8
1
  6
Continuous
100
AcDbCircle
 10
221.357698
 20
360.1783509999998
 30
0.0
 40
5.500000000000056
  0
LINE
  5
CA02
330
C5B5
100
AcDbEntity
  8
1
  6
Continuous
100
AcDbLine
 10
221.357698
 20
365.6783509999999
 30
0.0
 11
215.8576980000006
 21
365.6783509999978
 31
0.0
  0
LINE
  5
CA03
330
C5B5
100
AcDbEntity
  8
1
  6
Continuous
100
AcDbLine
 10
221.357698
 20
354.6783509999999
 30
0.0
 11
215.8576980000006
 21
354.6783510000123
 31
0.0
  0
LINE
  5
CA04
330
C5B5
100
AcDbEntity
  8
1
  6
Continuous
100
AcDbLine
 10
217.115057312882
 20
356.678350999998
 30
0.0
 11
215.857698000003
 21
356.6783509999976
 31
0.0
  0
LINE
  5
CA05
330
C5B5
100
AcDbEntity
  8
1
  6
Continuous
100
AcDbLine
 10
217.1150573128791
 20
363.678350999998
 30
0.0
 11
215.8576980000002
 21
363.6783509999976
 31
0.0
  0
LINE
  5
CA06
330
C5B5
100
AcDbEntity
  8
4
  6
CENTER
 48
0.2
100
AcDbLine
 10
669.5576979999997
 20
360.1783509999998
 30
0.0
 11
640.4576980000001
 21
360.1783509999998
 31
0.0
  0
LINE
  5
CA07
330
C5B5
100
AcDbEntity
  8
4
  6
CENTER
 48
0.2
100
AcDbLine
 10
662.5576979999997
 20
367.1783509999999
 30
0.0
 11
662.5576979999997
 21
353.1783509999999
 31
0.0
  0
CIRCLE
  5
CA08
330
C5B5
100
AcDbEntity
  8
1
  6
Continuous
100
AcDbCircle
 10
662.5576979999997
 20
360.1783509999998
 30
0.0
 40
2.5
  0
ARC
  5
CA43
330
C5B5
100
AcDbEntity
  8
1
  6
Continuous
100
AcDbCircle
 10
431.457697
 20
310.8445049999999
 30
0.0
 40
7.166163
100
AcDbArc
 50
234.4619999999986
 51
305.5380000000013
  0
ARC
  5
CA44
330
C5B5
100
AcDbEntity
  8
1
  6
Continuous
100
AcDbCircle
 10
431.457697
 20
301.5121969999999
 30
0.0
 40
7.166163
100
AcDbArc
 50
54.46199999999862
 51
125.5376999999991
  0
LINE
  5
CA45
330
C5B5
100
AcDbEntity
  8
1
  6
Continuous
100
AcDbLine
 10
427.8477009999998
 20
307.7025339999999
 30
0.0
 11
427.8477009999998
 21
305.3071479999998
 31
0.0
  0
LINE
  5
CA46
330
C5B5
100
AcDbEntity
  8
1
  6
Continuous
100
AcDbLine
 10
428.402565
 20
305.153771
 30
0.0
 11
428.402565
 21
307.2029309999996
 31
0.0
  0
LINE
  5
CA47
330
C5B5
100
AcDbEntity
  8
1
  6
Continuous
100
AcDbLine
 10
428.9585559999999
 20
307.549157
 30
0.0
 11
428.9585559999999
 21
304.808673
 31
0.0
  0
LINE
  5
CA48
330
C5B5
100
AcDbEntity
  8
1
  6
Continuous
100
AcDbLine
 10
429.513419
 20
307.6213339999998
 30
0.0
 11
429.513419
 21
304.7353679999998
 31
0.0
  0
ARC
  5
CA49
330
C5B5
100
AcDbEntity
  8
1
  6
Continuous
100
AcDbCircle
 10
428.1251329999998
 20
306.1789149999999
 30
0.0
 40
1.431648999999999
100
AcDbArc
 50
180.0
 51
234.4619999999986
  0
ARC
  5
CA4A
330
C5B5
100
AcDbEntity
  8
1
  6
Continuous
100
AcDbCircle
 10
431.457697
 20
310.8445049999999
 30
0.0
 40
6.610656999999998
100
AcDbArc
 50
243.9859999999999
 51
247.055999999999
  0
ARC
  5
CA4B
330
C5B5
100
AcDbEntity
  8
1
  6
Continuous
100
AcDbCircle
 10
428.6811239999998
 20
305.153771
 30
0.0
 40
0.277826
100
AcDbArc
 50
180.0
 51
243.9859999999999
  0
ARC
  5
CA4C
330
C5B5
100
AcDbEntity
  8
1
  6
Continuous
100
AcDbCircle
 10
429.791979
 20
304.7353679999998
 30
0.0
 40
0.277826
100
AcDbArc
 50
180.0
 51
254.7419999999994
  0
ARC
  5
CA4D
330
C5B5
100
AcDbEntity
  8
1
  6
Continuous
100
AcDbCircle
 10
431.457697
 20
310.8445049999999
 30
0.0
 40
6.610656999999998
100
AcDbArc
 50
254.7419999999994
 51
254.7939999999994
  0
ARC
  5
CA4E
330
C5B5
100
AcDbEntity
  8
1
  6
Continuous
100
AcDbCircle
 10
431.457697
 20
310.8445049999999
 30
0.0
 40
6.610656999999998
100
AcDbArc
 50
254.7939999999994
 51
257.271000000001
  0
ARC
  5
CA4F
330
C5B5
100
AcDbEntity
  8
1
  6
Continuous
100
AcDbCircle
 10
430.0141499999998
 20
304.4511689999998
 30
0.0
 40
0.055565
100
AcDbArc
 50
257.271000000001
 51
0.0
  0
ARC
  5
CA50
330
C5B5
100
AcDbEntity
  8
1
  6
Continuous
100
AcDbCircle
 10
428.9032949999998
 20
304.808673
 30
0.0
 40
0.055565
100
AcDbArc
 50
247.055999999999
 51
0.0
  0
LINE
  5
CA51
330
C5B5
100
AcDbEntity
  8
1
  6
Continuous
100
AcDbLine
 10
430.0694110000002
 20
304.4511689999998
 30
0.0
 11
430.0694110000002
 21
305.5124019999999
 31
0.0
  0
ARC
  5
CA52
330
C5B5
100
AcDbEntity
  8
1
  6
Continuous
100
AcDbCircle
 10
428.1251329999998
 20
306.1789149999999
 30
0.0
 40
1.431648999999999
100
AcDbArc
 50
125.5376999999991
 51
166.5373999999991
  0
ARC
  5
CA53
330
C5B5
100
AcDbEntity
  8
1
  6
Continuous
100
AcDbCircle
 10
431.457697
 20
301.5121969999999
 30
0.0
 40
6.610656999999998
100
AcDbArc
 50
112.9440000000007
 51
116.0143999999998
  0
ARC
  5
CA54
330
C5B5
100
AcDbEntity
  8
1
  6
Continuous
100
AcDbCircle
 10
428.6811239999998
 20
307.2029309999996
 30
0.0
 40
0.277826
100
AcDbArc
 50
116.0143999999998
 51
180.0
  0
LINE
  5
CA55
330
C5B5
100
AcDbEntity
  8
1
  6
Continuous
100
AcDbLine
 10
430.0694110000002
 20
306.8454279999999
 30
0.0
 11
430.0694110000002
 21
307.9055329999998
 31
0.0
  0
ARC
  5
CA56
330
C5B5
100
AcDbEntity
  8
1
  6
Continuous
100
AcDbCircle
 10
428.9032949999998
 20
307.549157
 30
0.0
 40
0.055565
100
AcDbArc
 50
0.0
 51
112.9440000000007
  0
ARC
  5
CA57
330
C5B5
100
AcDbEntity
  8
1
  6
Continuous
100
AcDbCircle
 10
430.0141499999998
 20
307.9055329999998
 30
0.0
 40
0.055565
100
AcDbArc
 50
0.0
 51
102.7288999999994
  0
ARC
  5
CA58
330
C5B5
100
AcDbEntity
  8
1
  6
Continuous
100
AcDbCircle
 10
431.457697
 20
301.5121969999999
 30
0.0
 40
6.610656999999998
100
AcDbArc
 50
102.7288999999994
 51
103.2681000000005
  0
ARC
  5
CA59
330
C5B5
100
AcDbEntity
  8
1
  6
Continuous
100
AcDbCircle
 10
431.457697
 20
301.5121969999999
 30
0.0
 40
6.610656999999998
100
AcDbArc
 50
103.2681000000005
 51
105.2574999999984
  0
ARC
  5
CA5A
330
C5B5
100
AcDbEntity
  8
1
  6
Continuous
100
AcDbCircle
 10
429.791979
 20
307.6213339999998
 30
0.0
 40
0.277826
100
AcDbArc
 50
105.2574999999984
 51
180.0
  0
LINE
  5
CA5B
330
C5B5
100
AcDbEntity
  8
1
  6
Continuous
100
AcDbLine
 10
430.6254019999998
 20
308.070187
 30
0.0
 11
430.6254019999998
 21
304.2865149999997
 31
0.0
  0
LINE
  5
CA5C
330
C5B5
100
AcDbEntity
  8
1
  6
Continuous
100
AcDbLine
 10
431.1802649999998
 20
308.1164259999998
 30
0.0
 11
431.1802649999998
 21
304.2402759999998
 31
0.0
  0
LINE
  5
CA5D
330
C5B5
100
AcDbEntity
  8
1
  6
Continuous
100
AcDbLine
 10
431.1802649999998
 20
306.1789149999999
 30
0.0
 11
430.6254019999998
 21
306.1789149999999
 31
0.0
  0
LINE
  5
CA5E
330
C5B5
100
AcDbEntity
  8
1
  6
Continuous
100
AcDbLine
 10
433.9579659999998
 20
307.7431339999999
 30
0.0
 11
433.9579659999998
 21
306.4563469999999
 31
0.0
  0
LINE
  5
CA5F
330
C5B5
100
AcDbEntity
  8
1
  6
Continuous
100
AcDbLine
 10
434.5139569999998
 20
306.4563469999999
 30
0.0
 11
434.5139569999998
 21
307.6427619999999
 31
0.0
  0
LINE
  5
CA60
330
C5B5
100
AcDbEntity
  8
1
  6
Continuous
100
AcDbLine
 10
434.7959
 20
305.1391099999999
 30
0.0
 11
435.424069
 21
307.480363
 31
0.0
  0
ARC
  5
CA61
330
C5B5
100
AcDbEntity
  8
1
  6
Continuous
100
AcDbCircle
 10
434.791389
 20
306.1789149999999
 30
0.0
 40
1.431648999999999
100
AcDbArc
 50
332.2499999999996
 51
54.46199999999862
  0
LINE
  5
CA62
330
C5B5
100
AcDbEntity
  8
1
  6
Continuous
100
AcDbLine
 10
431.7362569999998
 20
308.1164259999998
 30
0.0
 11
431.7362569999998
 21
304.2402759999998
 31
0.0
  0
LINE
  5
CA63
330
C5B5
100
AcDbEntity
  8
1
  6
Continuous
100
AcDbLine
 10
432.29112
 20
308.0070319999999
 30
0.0
 11
432.29112
 21
304.3496699999999
 31
0.0
  0
LINE
  5
CA64
330
C5B5
100
AcDbEntity
  8
1
  6
Continuous
100
AcDbLine
 10
433.401975
 20
308.0047769999998
 30
0.0
 11
433.401975
 21
304.5267299999999
 31
0.0
  0
LINE
  5
CA65
330
C5B5
100
AcDbEntity
  8
1
  6
Continuous
100
AcDbLine
 10
436.2225309999998
 20
306.1789149999999
 30
0.0
 11
435.0744589999997
 21
306.1789149999999
 31
0.0
  0
LINE
  5
CA66
330
C5B5
100
AcDbEntity
  8
1
  6
Continuous
100
AcDbLine
 10
432.847111
 20
306.1789149999999
 30
0.0
 11
432.5696799999998
 21
306.1789149999999
 31
0.0
  0
ARC
  5
CA67
330
C5B5
100
AcDbEntity
  8
1
  6
Continuous
100
AcDbCircle
 10
434.235398
 20
306.4563469999999
 30
0.0
 40
0.277826
100
AcDbArc
 50
180.0
 51
0.0
  0
ARC
  5
CA68
330
C5B5
100
AcDbEntity
  8
1
  6
Continuous
100
AcDbCircle
 10
431.457697
 20
310.8445049999999
 30
0.0
 40
6.610656999999998
100
AcDbArc
 50
277.7930000000005
 51
280.1040000000003
  0
ARC
  5
CA69
330
C5B5
100
AcDbEntity
  8
1
  6
Continuous
100
AcDbCircle
 10
432.347509
 20
304.3496699999999
 30
0.0
 40
0.055565
100
AcDbArc
 50
180.0
 51
277.7930000000005
  0
ARC
  5
CA6A
330
C5B5
100
AcDbEntity
  8
1
  6
Continuous
100
AcDbCircle
 10
432.5696799999998
 20
304.6101849999999
 30
0.0
 40
0.277826
100
AcDbArc
 50
280.1040000000003
 51
0.0
  0
LINE
  5
CA6B
330
C5B5
100
AcDbEntity
  8
1
  6
Continuous
100
AcDbLine
 10
434.235398
 20
306.1789149999999
 30
0.0
 11
434.235398
 21
304.8458889999999
 31
0.0
  0
LINE
  5
CA6C
330
C5B5
100
AcDbEntity
  8
1
  6
Continuous
100
AcDbLine
 10
432.847111
 20
304.6101849999999
 30
0.0
 11
432.847111
 21
306.1789149999999
 31
0.0
  0
ARC
  5
CA6D
330
C5B5
100
AcDbEntity
  8
1
  6
Continuous
100
AcDbCircle
 10
434.791389
 20
306.1789149999999
 30
0.0
 40
1.431648999999999
100
AcDbArc
 50
305.5380000000013
 51
315.6989999999993
  0
ARC
  5
CA6E
330
C5B5
100
AcDbEntity
  8
1
  6
Continuous
100
AcDbCircle
 10
431.457697
 20
301.5121969999999
 30
0.0
 40
6.610656999999998
100
AcDbArc
 50
79.89599999999967
 51
82.20699999999945
  0
ARC
  5
CA6F
330
C5B5
100
AcDbEntity
  8
1
  6
Continuous
100
AcDbCircle
 10
432.347509
 20
308.0070319999999
 30
0.0
 40
0.055565
100
AcDbArc
 50
82.20699999999945
 51
180.0
  0
LINE
  5
CA70
330
C5B5
100
AcDbEntity
  8
1
  6
Continuous
100
AcDbLine
 10
432.847111
 20
306.8454279999999
 30
0.0
 11
432.847111
 21
307.7465169999999
 31
0.0
  0
ARC
  5
CA71
330
C5B5
100
AcDbEntity
  8
1
  6
Continuous
100
AcDbCircle
 10
432.5696799999998
 20
307.7465169999999
 30
0.0
 40
0.277826
100
AcDbArc
 50
0.0
 51
79.89599999999967
  0
ARC
  5
D3A5
330
C5B5
100
AcDbEntity
  8
1
  6
Continuous
100
AcDbCircle
 10
227.5740330907674
 20
259.5477085808482
 30
0.0
 40
0.6813482613954597
100
AcDbArc
 50
74.83364234806976
 51
91.37377827898912
  0
ARC
  5
D3A7
330
C5B5
100
AcDbEntity
  8
1
  6
Continuous
100
AcDbCircle
 10
227.7424396748468
 20
260.1932496385899
 30
0.0
 40
0.0155833992138382
100
AcDbArc
 50
11.72345316467821
 51
50.79862456112926
  0
ARC
  5
D3AC
330
C5B5
100
AcDbEntity
  8
1
  6
Continuous
100
AcDbCircle
 10
656.3413629092324
 20
259.5477085808482
 30
0.0
 40
0.6813482613954597
100
AcDbArc
 50
88.62622172101088
 51
105.1663576519302
  0
ARC
  5
D3AD
330
C5B5
100
AcDbEntity
  8
1
  6
Continuous
100
AcDbCircle
 10
656.1729563251531
 20
260.1932496385899
 30
0.0
 40
0.0155833992138382
100
AcDbArc
 50
129.2013754388707
 51
168.2765468353218
  0
ENDSEC
  0
SECTION
  2
OBJECTS
  0
DICTIONARY
  5
C5A3
330
0
100
AcDbDictionary
281
     1
  3
ACAD_CIP_PREVIOUS_PRODUCT_INFO
350
D416
  3
ACAD_COLOR
350
D3F8
  3
ACAD_DETAILVIEWSTYLE
350
D411
  3
ACAD_GROUP
350
C5A4
  3
ACAD_LAYOUT
350
C5B0
  3
ACAD_MATERIAL
350
D3C6
  3
ACAD_MLEADERSTYLE
350
D40D
  3
ACAD_MLINESTYLE
350
C5AD
  3
ACAD_PLOTSETTINGS
350
C5AF
  3
ACAD_PLOTSTYLENAME
350
D3C4
  3
ACAD_SCALELIST
350
D3FB
  3
ACAD_SECTIONVIEWSTYLE
350
D40F
  3
ACAD_TABLESTYLE
350
D3F9
  3
ACAD_VISUALSTYLE
350
D3DF
  3
ACDB_RECOMPOSE_DATA
350
D434
  3
AcDbVariableDictionary
350
D427
  3
DWGPROPS
350
D435
  0
DICTIONARY
  5
D417
330
C5A7
100
AcDbDictionary
280
     1
281
     1
  3
ADSK_XREC_LAYER_RECONCILED
360
D418
  0
DICTIONARY
  5
D419
330
C5BD
100
AcDbDictionary
280
     1
281
     1
  3
ADSK_XREC_LAYER_RECONCILED
360
D41A
  0
DICTIONARY
  5
D41B
330
C5BE
100
AcDbDictionary
280
     1
281
     1
  3
ADSK_XREC_LAYER_RECONCILED
360
D41C
  0
DICTIONARY
  5
D41D
330
C5BF
100
AcDbDictionary
280
     1
281
     1
  3
ADSK_XREC_LAYER_RECONCILED
360
D41E
  0
DICTIONARY
  5
D41F
330
C5C0
100
AcDbDictionary
280
     1
281
     1
  3
ADSK_XREC_LAYER_RECONCILED
360
D420
  0
DICTIONARY
  5
D421
330
C5C1
100
AcDbDictionary
280
     1
281
     1
  3
ADSK_XREC_LAYER_RECONCILED
360
D422
  0
DICTIONARY
  5
D423
330
C5C2
100
AcDbDictionary
280
     1
281
     1
  3
ADSK_XREC_LAYER_RECONCILED
360
D424
  0
DICTIONARY
  5
D425
330
C5C3
100
AcDbDictionary
280
     1
281
     1
  3
ADSK_XREC_LAYER_RECONCILED
360
D426
  0
DICTIONARY
  5
CA7F
330
C5B5
100
AcDbDictionary
281
     1
  3
ACAD_LAYOUTSELFREF
350
D3C0
  0
DICTIONARY
  5
CA7D
330
C5B1
100
AcDbDictionary
281
     1
  3
ACAD_LAYOUTSELFREF
350
D3BF
  0
XRECORD
  5
D416
102
{ACAD_REACTORS
330
C5A3
102
}
330
C5A3
100
AcDbXrecord
280
     1
300
ACDLT
300
2014
300
ACDLT_F_S
  0
DICTIONARY
  5
D3F8
102
{ACAD_REACTORS
330
C5A3
102
}
330
C5A3
100
AcDbDictionary
281
     1
  0
DICTIONARY
  5
D411
102
{ACAD_REACTORS
330
C5A3
102
}
330
C5A3
100
AcDbDictionary
281
     1
  3
Imperial24
350
D412
  0
DICTIONARY
  5
C5A4
102
{ACAD_REACTORS
330
C5A3
102
}
330
C5A3
100
AcDbDictionary
281
     1
  0
DICTIONARY
  5
C5B0
102
{ACAD_REACTORS
330
C5A3
102
}
330
C5A3
100
AcDbDictionary
281
     1
  3
Model
350
D413
  3
レイアウト1
350
D414
  0
DICTIONARY
  5
D3C6
102
{ACAD_REACTORS
330
C5A3
102
}
330
C5A3
100
AcDbDictionary
281
     1
  3
ByBlock
350
D3CF
  3
ByLayer
350
D3C7
  3
Global
350
D3D7
  0
DICTIONARY
  5
D40D
102
{ACAD_REACTORS
330
C5A3
102
}
330
C5A3
100
AcDbDictionary
281
     1
  3
Standard
350
D40E
  0
DICTIONARY
  5
C5AD
102
{ACAD_REACTORS
330
C5A3
102
}
330
C5A3
100
AcDbDictionary
281
     1
  3
STANDARD
350
C5AE
  0
DICTIONARY
  5
C5AF
102
{ACAD_REACTORS
330
C5A3
102
}
330
C5A3
100
AcDbDictionary
281
     1
  0
ACDBDICTIONARYWDFLT
  5
D3C4
102
{ACAD_REACTORS
330
C5A3
102
}
330
C5A3
100
AcDbDictionary
281
     1
  3
Normal
350
D3C5
100
AcDbDictionaryWithDefault
340
D3C5
  0
DICTIONARY
  5
D3FB
102
{ACAD_REACTORS
330
C5A3
102
}
330
C5A3
100
AcDbDictionary
281
     1
  3
A0
350
D3FC
  3
A1
350
D3FD
  3
A2
350
D3FE
  3
A3
350
D3FF
  3
A4
350
D400
  3
A5
350
D401
  3
A6
350
D402
  3
A7
350
D403
  3
A8
350
D404
  3
A9
350
D405
  3
B0
350
D406
  3
B1
350
D407
  3
B2
350
D408
  3
B3
350
D409
  3
B4
350
D40A
  3
B5
350
D40B
  3
B6
350
D40C
  0
DICTIONARY
  5
D40F
102
{ACAD_REACTORS
330
C5A3
102
}
330
C5A3
100
AcDbDictionary
281
     1
  3
Imperial24
350
D410
  0
DICTIONARY
  5
D3F9
102
{ACAD_REACTORS
330
C5A3
102
}
330
C5A3
100
AcDbDictionary
281
     1
  3
Standard
350
D3FA
  0
DICTIONARY
  5
D3DF
102
{ACAD_REACTORS
330
C5A3
102
}
330
C5A3
100
AcDbDictionary
281
     1
  3
2dWireframe
350
D3E5
  3
Basic
350
D3E4
  3
Brighten
350
D3EB
  3
ColorChange
350
D3EF
  3
Conceptual
350
D3E8
  3
Dim
350
D3EA
  3
EdgeColorOff
350
D3F7
  3
Facepattern
350
D3EE
  3
Flat
350
D3E0
  3
FlatWithEdges
350
D3E1
  3
Gouraud
350
D3E2
  3
GouraudWithEdges
350
D3E3
  3
Hidden
350
D3E7
  3
JitterOff
350
D3F5
  3
Linepattern
350
D3ED
  3
OverhangOff
350
D3F6
  3
Realistic
350
D3E9
  3
Shaded
350
D3F4
  3
Shaded with edges
350
D3F3
  3
Shades of Gray
350
D3F0
  3
Sketchy
350
D3F1
  3
Thicken
350
D3EC
  3
Wireframe
350
D3E6
  3
X-Ray
350
D3F2
  0
XRECORD
  5
D434
102
{ACAD_REACTORS
330
C5A3
102
}
330
C5A3
100
AcDbXrecord
280
     1
 90
        1
330
D3FA
  0
DICTIONARY
  5
D427
102
{ACAD_REACTORS
330
C5A3
102
}
330
C5A3
100
AcDbDictionary
281
     1
  3
CANNOSCALE
350
D42C
  3
CMLEADERSTYLE
350
D429
  3
CTABLESTYLE
350
D428
  3
CVIEWDETAILSTYLE
350
D42A
  3
CVIEWSECTIONSTYLE
350
D42B
  3
DIMASSOC
350
D42F
  3
INDEXCTL
350
D42E
  3
SORTENTS
350
D42D
  3
XCLIPFRAME
350
D430
  0
XRECORD
  5
D435
102
{ACAD_REACTORS
330
C5A3
102
}
330
C5A3
100
AcDbXrecord
280
     1
  1
DWGPROPS COOKIE
  2

  3

  4

  6

  7

  8
Yoshitsune
  9

300
=
301
=
302
=
303
=
304
=
305
=
306
=
307
=
308
=
309
=
 40
0.0600837847222222
 41
2451347.389538657
 42
2457192.643746331
  1

 90
        0
  0
XRECORD
  5
D418
102
{ACAD_REACTORS
330
D417
102
}
330
D417
100
AcDbXrecord
280
     1
290
     1
  0
XRECORD
  5
D41A
102
{ACAD_REACTORS
330
D419
102
}
330
D419
100
AcDbXrecord
280
     1
290
     1
  0
XRECORD
  5
D41C
102
{ACAD_REACTORS
330
D41B
102
}
330
D41B
100
AcDbXrecord
280
     1
290
     1
  0
XRECORD
  5
D41E
102
{ACAD_REACTORS
330
D41D
102
}
330
D41D
100
AcDbXrecord
280
     1
290
     1
  0
XRECORD
  5
D420
102
{ACAD_REACTORS
330
D41F
102
}
330
D41F
100
AcDbXrecord
280
     1
290
     1
  0
XRECORD
  5
D422
102
{ACAD_REACTORS
330
D421
102
}
330
D421
100
AcDbXrecord
280
     1
290
     1
  0
XRECORD
  5
D424
102
{ACAD_REACTORS
330
D423
102
}
330
D423
100
AcDbXrecord
280
     1
290
     1
  0
XRECORD
  5
D426
102
{ACAD_REACTORS
330
D425
102
}
330
D425
100
AcDbXrecord
280
     1
290
     1
  0
XRECORD
  5
D3C0
102
{ACAD_REACTORS
330
CA7F
102
}
330
CA7F
100
AcDbXrecord
280
     1
340
C5B5
  0
XRECORD
  5
D3BF
102
{ACAD_REACTORS
330
CA7D
102
}
330
CA7D
100
AcDbXrecord
280
     1
340
C5B1
  0
ACDBDETAILVIEWSTYLE
  5
D412
102
{ACAD_XDICTIONARY
360
D46D
102
}
102
{ACAD_REACTORS
330
D411
102
}
330
D411
100
AcDbModelDocViewStyle
 70
     0
  3
Imperial24
290
     0
100
AcDbDetailViewStyle
 70
     0
 71
     0
 90
        3
 71
     1
340
C5A8
 40
0.24
340
0
 40
0.24
300

 40
0.36
280
     3
 71
     2
340
C5AC
 90
       25
 71
     3
340
C5A8
 40
0.24
 90
        1
 40
0.75
 90
        1
300
%<\AcVar ViewType \f "%tc1">% %<\AcVar ViewDetailId>%\PSCALE %<\AcVar ViewScale \f "%sn">%
 71
     4
340
C5AC
 90
       25
340
C5AC
 90
       25
280
     0
  0
LAYOUT
  5
D413
102
{ACAD_XDICTIONARY
360
D46F
102
}
102
{ACAD_REACTORS
330
C5B0
102
}
330
C5B0
100
AcDbPlotSettings
  1

  2
Canon LBP9100C
  4

  6

 40
0.0
 41
0.0
 42
0.0
 43
0.0
 44
0.0
 45
0.0
 46
0.0
 47
0.0
 48
0.0
 49
0.0
140
0.0
141
0.0
142
1.0
143
1.0
 70
  1712
 72
     0
 73
     0
 74
     0
  7

 75
     0
147
1.0
148
0.0
149
0.0
100
AcDbLayout
  1
Model
 70
     1
 71
     0
 10
0.0
 20
0.0
 11
12.0
 21
9.0
 12
0.0
 22
0.0
 32
0.0
 14
0.0
 24
0.0
 34
0.0
 15
0.0
 25
0.0
 35
0.0
146
0.0
 13
0.0
 23
0.0
 33
0.0
 16
1.0
 26
0.0
 36
0.0
 17
0.0
 27
1.0
 37
0.0
 76
     0
330
C5B5
331
D3BE
  0
LAYOUT
  5
D414
102
{ACAD_XDICTIONARY
360
D471
102
}
102
{ACAD_REACTORS
330
C5B0
102
}
330
C5B0
100
AcDbPlotSettings
  1

  2
Canon LBP9100C
  4

  6

 40
0.0
 41
0.0
 42
0.0
 43
0.0
 44
0.0
 45
0.0
 46
0.0
 47
0.0
 48
0.0
 49
0.0
140
0.0
141
0.0
142
1.0
143
1.0
 70
   688
 72
     0
 73
     0
 74
     5
  7

 75
    16
147
1.0
148
0.0
149
0.0
100
AcDbLayout
  1
レイアウト1
 70
     0
 71
     1
 10
0.0
 20
0.0
 11
420.0
 21
297.0
 12
0.0
 22
0.0
 32
0.0
 14
1.000000000000000E+20
 24
1.000000000000000E+20
 34
1.000000000000000E+20
 15
-1.000000000000000E+20
 25
-1.000000000000000E+20
 35
-1.000000000000000E+20
146
0.0
 13
0.0
 23
0.0
 33
0.0
 16
1.0
 26
0.0
 36
0.0
 17
0.0
 27
1.0
 37
0.0
 76
     0
330
C5B1
  0
MATERIAL
  5
D3CF
102
{ACAD_XDICTIONARY
360
D3D0
102
}
102
{ACAD_REACTORS
330
D3C6
102
}
330
D3C6
100
AcDbMaterial
  1
ByBlock
 72
     0
 43
0.0208333333333333
 43
0.0
 43
0.0
 43
0.0
 43
0.0
 43
0.0208333333333333
 43
0.0
 43
0.0
 43
0.0
 43
0.0
 43
1.0
 43
0.0
 43
0.0
 43
0.0
 43
0.0
 43
1.0
 77
     0
 47
0.0208333333333333
 47
0.0
 47
0.0
 47
0.0
 47
0.0
 47
0.0208333333333333
 47
0.0
 47
0.0
 47
0.0
 47
0.0
 47
1.0
 47
0.0
 47
0.0
 47
0.0
 47
0.0
 47
1.0
171
     0
 49
0.0208333333333333
 49
0.0
 49
0.0
 49
0.0
 49
0.0
 49
0.0208333333333333
 49
0.0
 49
0.0
 49
0.0
 49
0.0
 49
1.0
 49
0.0
 49
0.0
 49
0.0
 49
0.0
 49
1.0
175
     0
142
0.0208333333333333
142
0.0
142
0.0
142
0.0
142
0.0
142
0.0208333333333333
142
0.0
142
0.0
142
0.0
142
0.0
142
1.0
142
0.0
142
0.0
142
0.0
142
0.0
142
1.0
179
     0
144
0.0208333333333333
144
0.0
144
0.0
144
0.0
144
0.0
144
0.0208333333333333
144
0.0
144
0.0
144
0.0
144
0.0
144
1.0
144
0.0
144
0.0
144
0.0
144
0.0
144
1.0
147
0.0208333333333333
147
0.0
147
0.0
147
0.0
147
0.0
147
0.0208333333333333
147
0.0
147
0.0
147
0.0
147
0.0
147
1.0
147
0.0
147
0.0
147
0.0
147
0.0
147
1.0
  0
MATERIAL
  5
D3C7
102
{ACAD_XDICTIONARY
360
D3C8
102
}
102
{ACAD_REACTORS
330
D3C6
102
}
330
D3C6
100
AcDbMaterial
  1
ByLayer
 72
     0
 43
0.0208333333333333
 43
0.0
 43
0.0
 43
0.0
 43
0.0
 43
0.0208333333333333
 43
0.0
 43
0.0
 43
0.0
 43
0.0
 43
1.0
 43
0.0
 43
0.0
 43
0.0
 43
0.0
 43
1.0
 77
     0
 47
0.0208333333333333
 47
0.0
 47
0.0
 47
0.0
 47
0.0
 47
0.0208333333333333
 47
0.0
 47
0.0
 47
0.0
 47
0.0
 47
1.0
 47
0.0
 47
0.0
 47
0.0
 47
0.0
 47
1.0
171
     0
 49
0.0208333333333333
 49
0.0
 49
0.0
 49
0.0
 49
0.0
 49
0.0208333333333333
 49
0.0
 49
0.0
 49
0.0
 49
0.0
 49
1.0
 49
0.0
 49
0.0
 49
0.0
 49
0.0
 49
1.0
175
     0
142
0.0208333333333333
142
0.0
142
0.0
142
0.0
142
0.0
142
0.0208333333333333
142
0.0
142
0.0
142
0.0
142
0.0
142
1.0
142
0.0
142
0.0
142
0.0
142
0.0
142
1.0
179
     0
144
0.0208333333333333
144
0.0
144
0.0
144
0.0
144
0.0
144
0.0208333333333333
144
0.0
144
0.0
144
0.0
144
0.0
144
1.0
144
0.0
144
0.0
144
0.0
144
0.0
144
1.0
147
0.0208333333333333
147
0.0
147
0.0
147
0.0
147
0.0
147
0.0208333333333333
147
0.0
147
0.0
147
0.0
147
0.0
147
1.0
147
0.0
147
0.0
147
0.0
147
0.0
147
1.0
  0
MATERIAL
  5
D3D7
102
{ACAD_XDICTIONARY
360
D3D8
102
}
102
{ACAD_REACTORS
330
D3C6
102
}
330
D3C6
100
AcDbMaterial
  1
Global
 72
     0
 43
0.0208333333333333
 43
0.0
 43
0.0
 43
0.0
 43
0.0
 43
0.0208333333333333
 43
0.0
 43
0.0
 43
0.0
 43
0.0
 43
1.0
 43
0.0
 43
0.0
 43
0.0
 43
0.0
 43
1.0
 77
     0
 47
0.0208333333333333
 47
0.0
 47
0.0
 47
0.0
 47
0.0
 47
0.0208333333333333
 47
0.0
 47
0.0
 47
0.0
 47
0.0
 47
1.0
 47
0.0
 47
0.0
 47
0.0
 47
0.0
 47
1.0
171
     0
 49
0.0208333333333333
 49
0.0
 49
0.0
 49
0.0
 49
0.0
 49
0.0208333333333333
 49
0.0
 49
0.0
 49
0.0
 49
0.0
 49
1.0
 49
0.0
 49
0.0
 49
0.0
 49
0.0
 49
1.0
175
     0
142
0.0208333333333333
142
0.0
142
0.0
142
0.0
142
0.0
142
0.0208333333333333
142
0.0
142
0.0
142
0.0
142
0.0
142
1.0
142
0.0
142
0.0
142
0.0
142
0.0
142
1.0
179
     0
144
0.0208333333333333
144
0.0
144
0.0
144
0.0
144
0.0
144
0.0208333333333333
144
0.0
144
0.0
144
0.0
144
0.0
144
1.0
144
0.0
144
0.0
144
0.0
144
0.0
144
1.0
147
0.0208333333333333
147
0.0
147
0.0
147
0.0
147
0.0
147
0.0208333333333333
147
0.0
147
0.0
147
0.0
147
0.0
147
1.0
147
0.0
147
0.0
147
0.0
147
0.0
147
1.0
  0
MLEADERSTYLE
  5
D40E
102
{ACAD_REACTORS
330
D40D
102
}
330
D40D
100
AcDbMLeaderStyle
170
     2
171
     1
172
     0
 90
        2
 40
0.0
 41
0.0
173
     1
 91
-1056964608
340
C5AA
 92
       -2
290
     1
 42
0.09
291
     1
 43
0.36
  3
Standard
 44
0.18
300

342
C5A8
174
     1
178
     6
175
     1
176
     0
 93
-1056964608
 45
0.18
292
     0
297
     0
 46
0.18
 94
-1056964608
 47
1.0
 49
1.0
140
1.0
293
     1
141
0.0
294
     1
177
     0
142
1.0
295
     0
296
     0
143
0.125
1001
ACAD_MLEADERVER
1070
     2
  0
MLINESTYLE
  5
C5AE
102
{ACAD_REACTORS
330
C5AD
102
}
330
C5AD
100
AcDbMlineStyle
  2
STANDARD
 70
     0
  3

 62
   256
 51
90.0
 52
90.0
 71
     2
 49
0.5
 62
   256
  6
BYLAYER
 49
-0.5
 62
   256
  6
BYLAYER
  0
ACDBPLACEHOLDER
  5
D3C5
102
{ACAD_REACTORS
330
D3C4
102
}
330
D3C4
  0
SCALE
  5
D3FC
102
{ACAD_REACTORS
330
D3FB
102
}
330
D3FB
100
AcDbScale
 70
     0
300
1:1
140
1.0
141
1.0
290
     1
  0
SCALE
  5
D3FD
102
{ACAD_REACTORS
330
D3FB
102
}
330
D3FB
100
AcDbScale
 70
     0
300
1/128" = 1'-0"
140
0.0078125
141
12.0
290
     0
  0
SCALE
  5
D3FE
102
{ACAD_REACTORS
330
D3FB
102
}
330
D3FB
100
AcDbScale
 70
     0
300
1/64" = 1'-0"
140
0.015625
141
12.0
290
     0
  0
SCALE
  5
D3FF
102
{ACAD_REACTORS
330
D3FB
102
}
330
D3FB
100
AcDbScale
 70
     0
300
1/32" = 1'-0"
140
0.03125
141
12.0
290
     0
  0
SCALE
  5
D400
102
{ACAD_REACTORS
330
D3FB
102
}
330
D3FB
100
AcDbScale
 70
     0
300
1/16" = 1'-0"
140
0.0625
141
12.0
290
     0
  0
SCALE
  5
D401
102
{ACAD_REACTORS
330
D3FB
102
}
330
D3FB
100
AcDbScale
 70
     0
300
3/32" = 1'-0"
140
0.09375
141
12.0
290
     0
  0
SCALE
  5
D402
102
{ACAD_REACTORS
330
D3FB
102
}
330
D3FB
100
AcDbScale
 70
     0
300
1/8" = 1'-0"
140
0.125
141
12.0
290
     0
  0
SCALE
  5
D403
102
{ACAD_REACTORS
330
D3FB
102
}
330
D3FB
100
AcDbScale
 70
     0
300
3/16" = 1'-0"
140
0.1875
141
12.0
290
     0
  0
SCALE
  5
D404
102
{ACAD_REACTORS
330
D3FB
102
}
330
D3FB
100
AcDbScale
 70
     0
300
1/4" = 1'-0"
140
0.25
141
12.0
290
     0
  0
SCALE
  5
D405
102
{ACAD_REACTORS
330
D3FB
102
}
330
D3FB
100
AcDbScale
 70
     0
300
3/8" = 1'-0"
140
0.375
141
12.0
290
     0
  0
SCALE
  5
D406
102
{ACAD_REACTORS
330
D3FB
102
}
330
D3FB
100
AcDbScale
 70
     0
300
1/2" = 1'-0"
140
0.5
141
12.0
290
     0
  0
SCALE
  5
D407
102
{ACAD_REACTORS
330
D3FB
102
}
330
D3FB
100
AcDbScale
 70
     0
300
3/4" = 1'-0"
140
0.75
141
12.0
290
     0
  0
SCALE
  5
D408
102
{ACAD_REACTORS
330
D3FB
102
}
330
D3FB
100
AcDbScale
 70
     0
300
1" = 1'-0"
140
1.0
141
12.0
290
     0
  0
SCALE
  5
D409
102
{ACAD_REACTORS
330
D3FB
102
}
330
D3FB
100
AcDbScale
 70
     0
300
1-1/2" = 1'-0"
140
1.5
141
12.0
290
     0
  0
SCALE
  5
D40A
102
{ACAD_REACTORS
330
D3FB
102
}
330
D3FB
100
AcDbScale
 70
     0
300
3" = 1'-0"
140
3.0
141
12.0
290
     0
  0
SCALE
  5
D40B
102
{ACAD_REACTORS
330
D3FB
102
}
330
D3FB
100
AcDbScale
 70
     0
300
6" = 1'-0"
140
6.0
141
12.0
290
     0
  0
SCALE
  5
D40C
102
{ACAD_REACTORS
330
D3FB
102
}
330
D3FB
100
AcDbScale
 70
     0
300
1'-0" = 1'-0"
140
12.0
141
12.0
290
     0
  0
ACDBSECTIONVIEWSTYLE
  5
D410
102
{ACAD_XDICTIONARY
360
D46B
102
}
102
{ACAD_REACTORS
330
D40F
102
}
330
D40F
100
AcDbModelDocViewStyle
 70
     0
  3
Imperial24
290
     0
100
AcDbSectionViewStyle
 70
     0
 71
     0
 90
       78
 71
     1
340
C5A8
 40
0.24
340
0
340
0
 40
0.24
300
I, O, Q, S, X, Z
 40
0.48
 90
        3
 40
0.18
 90
        1
 71
     2
340
C5AC
 90
       25
340
C5AC
 90
       50
 40
0.24
 40
0.0
 40
0.24
 71
     3
340
C5A8
 40
0.24
 90
        1
 40
0.75
 90
        1
300
%<\AcVar ViewType \f "%tc1">% %<\AcVar ViewSectionStartId>%-%<\AcVar ViewSectionEndId>%\PSCALE %<\AcVar ViewScale \f "%sn">%
 71
     4
300
ANSI31
 40
1.0
 90
        0
290
     0
290
     0
 90
        6
 40
0.0
 40
1.570796326794896
 40
0.2617993877991494
 40
1.308996938995747
 40
-0.2617993877991494
 40
1.832595714594046
  0
TABLESTYLE
  5
D3FA
102
{ACAD_XDICTIONARY
360
D432
102
}
102
{ACAD_REACTORS
330
D3F9
102
}
330
D3F9
100
AcDbTableStyle
  3
Standard
 70
     0
 71
     0
 40
0.06
 41
0.06
280
     0
281
     0
  7
STANDARD
140
0.18
170
     2
 62
     0
 63
     7
283
     0
274
    -2
284
     1
 64
     0
275
    -2
285
     1
 65
     0
276
    -2
286
     1
 66
     0
277
    -2
287
     1
 67
     0
278
    -2
288
     1
 68
     0
279
    -2
289
     1
 69
     0
  7
STANDARD
140
0.25
170
     5
 62
     0
 63
     7
283
     0
274
    -2
284
     1
 64
     0
275
    -2
285
     1
 65
     0
276
    -2
286
     1
 66
     0
277
    -2
287
     1
 67
     0
278
    -2
288
     1
 68
     0
279
    -2
289
     1
 69
     0
  7
STANDARD
140
0.18
170
     5
 62
     0
 63
     7
283
     0
274
    -2
284
     1
 64
     0
275
    -2
285
     1
 65
     0
276
    -2
286
     1
 66
     0
277
    -2
287
     1
 67
     0
278
    -2
288
     1
 68
     0
279
    -2
289
     1
 69
     0
  0
VISUALSTYLE
  5
D3E5
102
{ACAD_XDICTIONARY
360
D443
102
}
102
{ACAD_REACTORS
330
D3DF
102
}
330
D3DF
100
AcDbVisualStyle
  2
2dWireframe
 70
     4
 71
     0
 72
     2
 73
     0
 90
        0
 40
-0.6
 41
-30.0
 62
     5
 63
     7
 74
     1
 91
        4
 64
     7
 65
   257
 75
     1
175
     1
 42
1.0
 92
        0
 66
   257
 43
1.0
 76
     1
 77
     6
 78
     2
 67
     7
 79
     5
170
     0
171
     0
290
     0
174
     0
 93
        1
 44
0.0
173
     0
291
     0
 45
0.0
1001
ACAD
1000
AcDbSavedByObjectVersion
1070
     0
  0
VISUALSTYLE
  5
D3E4
102
{ACAD_XDICTIONARY
360
D441
102
}
102
{ACAD_REACTORS
330
D3DF
102
}
330
D3DF
100
AcDbVisualStyle
  2
Basic
 70
     7
 71
     1
 72
     0
 73
     1
 90
        0
 40
-0.6
 41
-30.0
 62
     5
 63
     7
 74
     0
 91
        4
 64
     7
 65
   257
 75
     1
175
     1
 42
1.0
 92
        8
 66
     7
 43
1.0
 76
     1
 77
     6
 78
     2
 67
     7
 79
     5
170
     0
171
     0
290
     0
174
     0
 93
        1
 44
0.0
173
     0
291
     1
 45
0.0
1001
ACAD
1000
AcDbSavedByObjectVersion
1070
     0
  0
VISUALSTYLE
  5
D3EB
102
{ACAD_XDICTIONARY
360
D44F
102
}
102
{ACAD_REACTORS
330
D3DF
102
}
330
D3DF
100
AcDbVisualStyle
  2
Brighten
 70
    12
 71
     2
 72
     2
 73
     0
 90
        0
 40
-0.6
 41
-30.0
 62
     5
 63
     7
 74
     1
 91
        4
 64
     7
 65
   257
 75
     1
175
     1
 42
1.0
 92
        8
 66
     7
 43
1.0
 76
     1
 77
     6
 78
     2
 67
     7
 79
     5
170
     0
171
     0
290
     0
174
     0
 93
        1
 44
50.0
173
     0
291
     1
 45
0.0
1001
ACAD
1000
AcDbSavedByObjectVersion
1070
     0
  0
VISUALSTYLE
  5
D3EF
102
{ACAD_XDICTIONARY
360
D457
102
}
102
{ACAD_REACTORS
330
D3DF
102
}
330
D3DF
100
AcDbVisualStyle
  2
ColorChange
 70
    16
 71
     2
 72
     2
 73
     3
 90
        0
 40
-0.6
 41
-30.0
 62
     5
 63
     8
 74
     1
 91
        4
 64
     7
 65
   257
 75
     1
175
     1
 42
1.0
 92
        8
 66
     8
 43
1.0
 76
     1
 77
     6
 78
     2
 67
     7
 79
     5
170
     0
171
     0
290
     0
174
     0
 93
        1
 44
0.0
173
     0
291
     1
 45
0.0
1001
ACAD
1000
AcDbSavedByObjectVersion
1070
     0
  0
VISUALSTYLE
  5
D3E8
102
{ACAD_XDICTIONARY
360
D449
102
}
102
{ACAD_REACTORS
330
D3DF
102
}
330
D3DF
100
AcDbVisualStyle
  2
Conceptual
 70
     9
 71
     3
 72
     2
 73
     0
 90
        0
 40
-0.6
 41
-30.0
 62
     5
 63
     7
 74
     2
 91
        2
 64
     7
 65
   257
 75
     1
175
     1
 42
179.0
 92
        8
 66
     7
 43
1.0
 76
     1
 77
     6
 78
     2
 67
     7
 79
     3
170
     0
171
     0
290
     0
174
     0
 93
        1
 44
0.0
173
     0
291
     0
 45
0.0
1001
ACAD
1000
AcDbSavedByObjectVersion
1070
     0
  0
VISUALSTYLE
  5
D3EA
102
{ACAD_XDICTIONARY
360
D44D
102
}
102
{ACAD_REACTORS
330
D3DF
102
}
330
D3DF
100
AcDbVisualStyle
  2
Dim
 70
    11
 71
     2
 72
     2
 73
     0
 90
        0
 40
-0.6
 41
-30.0
 62
     5
 63
     7
 74
     1
 91
        4
 64
     7
 65
   257
 75
     1
175
     1
 42
1.0
 92
        8
 66
     7
 43
1.0
 76
     1
 77
     6
 78
     2
 67
     7
 79
     5
170
     0
171
     0
290
     0
174
     0
 93
        1
 44
-50.0
173
     0
291
     1
 45
0.0
1001
ACAD
1000
AcDbSavedByObjectVersion
1070
     0
  0
VISUALSTYLE
  5
D3F7
102
{ACAD_XDICTIONARY
360
D467
102
}
102
{ACAD_REACTORS
330
D3DF
102
}
330
D3DF
100
AcDbVisualStyle
  2
EdgeColorOff
 70
    22
 71
     2
 72
     2
 73
     0
 90
        0
 40
-0.6
 41
-30.0
 62
     5
 63
     7
 74
     1
 91
        4
 64
     7
 65
   257
 75
     1
175
     1
 42
1.0
 92
        8
 66
     7
 43
1.0
 76
     1
 77
     6
 78
     2
 67
     7
 79
     5
170
     0
171
     0
290
     0
174
     0
 93
        1
 44
0.0
173
     0
291
     1
 45
0.0
1001
ACAD
1000
AcDbSavedByObjectVersion
1070
     0
  0
VISUALSTYLE
  5
D3EE
102
{ACAD_XDICTIONARY
360
D455
102
}
102
{ACAD_REACTORS
330
D3DF
102
}
330
D3DF
100
AcDbVisualStyle
  2
Facepattern
 70
    15
 71
     2
 72
     2
 73
     0
 90
        0
 40
-0.6
 41
-30.0
 62
     5
 63
     7
 74
     1
 91
        4
 64
     7
 65
   257
 75
     1
175
     1
 42
1.0
 92
        8
 66
     7
 43
1.0
 76
     1
 77
     6
 78
     2
 67
     7
 79
     5
170
     0
171
     0
290
     0
174
     0
 93
        1
 44
0.0
173
     0
291
     1
 45
0.0
1001
ACAD
1000
AcDbSavedByObjectVersion
1070
     0
  0
VISUALSTYLE
  5
D3E0
102
{ACAD_XDICTIONARY
360
D439
102
}
102
{ACAD_REACTORS
330
D3DF
102
}
330
D3DF
100
AcDbVisualStyle
  2
Flat
 70
     0
 71
     2
 72
     1
 73
     1
 90
        2
 40
-0.6
 41
30.0
 62
     5
 63
     7
 74
     0
 91
        0
 64
     7
 65
   257
 75
     1
175
     1
 42
1.0
 92
        8
 66
     7
 43
1.0
 76
     1
 77
     6
 78
     2
 67
     7
 79
     5
170
     0
171
     0
290
     0
174
     0
 93
       13
 44
0.0
173
     0
291
     1
 45
0.0
1001
ACAD
1000
AcDbSavedByObjectVersion
1070
     0
  0
VISUALSTYLE
  5
D3E1
102
{ACAD_XDICTIONARY
360
D43B
102
}
102
{ACAD_REACTORS
330
D3DF
102
}
330
D3DF
100
AcDbVisualStyle
  2
FlatWithEdges
 70
     1
 71
     2
 72
     1
 73
     1
 90
        2
 40
-0.6
 41
30.0
 62
     5
 63
     7
 74
     1
 91
        0
 64
     7
 65
   257
 75
     1
175
     1
 42
1.0
 92
        0
 66
   257
 43
1.0
 76
     1
 77
     6
 78
     2
 67
     7
 79
     5
170
     0
171
     0
290
     0
174
     0
 93
       13
 44
0.0
173
     0
291
     1
 45
0.0
1001
ACAD
1000
AcDbSavedByObjectVersion
1070
     0
  0
VISUALSTYLE
  5
D3E2
102
{ACAD_XDICTIONARY
360
D43D
102
}
102
{ACAD_REACTORS
330
D3DF
102
}
330
D3DF
100
AcDbVisualStyle
  2
Gouraud
 70
     2
 71
     2
 72
     2
 73
     1
 90
        2
 40
-0.6
 41
30.0
 62
     5
 63
     7
 74
     0
 91
        0
 64
     7
 65
   257
 75
     1
175
     1
 42
1.0
 92
        0
 66
     7
 43
1.0
 76
     1
 77
     6
 78
     2
 67
     7
 79
     5
170
     0
171
     0
290
     0
174
     0
 93
       13
 44
0.0
173
     0
291
     1
 45
0.0
1001
ACAD
1000
AcDbSavedByObjectVersion
1070
     0
  0
VISUALSTYLE
  5
D3E3
102
{ACAD_XDICTIONARY
360
D43F
102
}
102
{ACAD_REACTORS
330
D3DF
102
}
330
D3DF
100
AcDbVisualStyle
  2
GouraudWithEdges
 70
     3
 71
     2
 72
     2
 73
     1
 90
        2
 40
-0.6
 41
30.0
 62
     5
 63
     7
 74
     1
 91
        0
 64
     7
 65
   257
 75
     1
175
     1
 42
1.0
 92
        0
 66
   257
 43
1.0
 76
     1
 77
     6
 78
     2
 67
     7
 79
     5
170
     0
171
     0
290
     0
174
     0
 93
       13
 44
0.0
173
     0
291
     1
 45
0.0
1001
ACAD
1000
AcDbSavedByObjectVersion
1070
     0
  0
VISUALSTYLE
  5
D3E7
102
{ACAD_XDICTIONARY
360
D447
102
}
102
{ACAD_REACTORS
330
D3DF
102
}
330
D3DF
100
AcDbVisualStyle
  2
Hidden
 70
     6
 71
     1
 72
     2
 73
     2
 90
        0
 40
-0.6
 41
-30.0
 62
     5
 63
     7
 74
     2
 91
        2
 64
     7
 65
   257
 75
     2
175
     1
 42
40.0
 92
        0
 66
   257
 43
1.0
 76
     1
 77
     6
 78
     2
 67
     7
 79
     3
170
     0
171
     0
290
     0
174
     0
 93
        1
 44
0.0
173
     0
291
     0
 45
0.0
1001
ACAD
1000
AcDbSavedByObjectVersion
1070
     0
  0
VISUALSTYLE
  5
D3F5
102
{ACAD_XDICTIONARY
360
D463
102
}
102
{ACAD_REACTORS
330
D3DF
102
}
330
D3DF
100
AcDbVisualStyle
  2
JitterOff
 70
    20
 71
     2
 72
     2
 73
     0
 90
        0
 40
-0.6
 41
-30.0
 62
     5
 63
     7
 74
     1
 91
        4
 64
     7
 65
   257
 75
     1
175
     1
 42
1.0
 92
       10
 66
     7
 43
1.0
 76
     1
 77
     6
 78
     2
 67
     7
 79
     5
170
     0
171
     0
290
     0
174
     0
 93
        1
 44
0.0
173
     0
291
     1
 45
0.0
1001
ACAD
1000
AcDbSavedByObjectVersion
1070
     0
  0
VISUALSTYLE
  5
D3ED
102
{ACAD_XDICTIONARY
360
D453
102
}
102
{ACAD_REACTORS
330
D3DF
102
}
330
D3DF
100
AcDbVisualStyle
  2
Linepattern
 70
    14
 71
     2
 72
     2
 73
     0
 90
        0
 40
-0.6
 41
-30.0
 62
     5
 63
     7
 74
     1
 91
        4
 64
     7
 65
   257
 75
     7
175
     7
 42
1.0
 92
        8
 66
     7
 43
1.0
 76
     1
 77
     6
 78
     2
 67
     7
 79
     5
170
     0
171
     0
290
     0
174
     0
 93
        1
 44
0.0
173
     0
291
     1
 45
0.0
1001
ACAD
1000
AcDbSavedByObjectVersion
1070
     0
  0
VISUALSTYLE
  5
D3F6
102
{ACAD_XDICTIONARY
360
D465
102
}
102
{ACAD_REACTORS
330
D3DF
102
}
330
D3DF
100
AcDbVisualStyle
  2
OverhangOff
 70
    21
 71
     2
 72
     2
 73
     0
 90
        0
 40
-0.6
 41
-30.0
 62
     5
 63
     7
 74
     1
 91
        4
 64
     7
 65
   257
 75
     1
175
     1
 42
1.0
 92
        9
 66
     7
 43
1.0
 76
     1
 77
     6
 78
     2
 67
     7
 79
     5
170
     0
171
     0
290
     0
174
     0
 93
        1
 44
0.0
173
     0
291
     1
 45
0.0
1001
ACAD
1000
AcDbSavedByObjectVersion
1070
     0
  0
VISUALSTYLE
  5
D3E9
102
{ACAD_XDICTIONARY
360
D44B
102
}
102
{ACAD_REACTORS
330
D3DF
102
}
330
D3DF
100
AcDbVisualStyle
  2
Realistic
 70
     8
 71
     2
 72
     3
 73
     0
 90
        2
 40
-0.6
 41
30.0
 62
     5
 63
     7
 74
     0
 91
        0
 64
     7
 65
   257
 75
     1
175
     1
 42
1.0
 92
        8
 66
   257
 43
1.0
 76
     1
 77
     6
 78
     2
 67
     7
 79
     3
170
     0
171
     0
290
     0
174
     0
 93
       13
 44
0.0
173
     0
291
     0
 45
0.0
1001
ACAD
1000
AcDbSavedByObjectVersion
1070
     0
  0
VISUALSTYLE
  5
D3F4
102
{ACAD_XDICTIONARY
360
D461
102
}
102
{ACAD_REACTORS
330
D3DF
102
}
330
D3DF
100
AcDbVisualStyle
  2
Shaded
 70
    27
 71
     2
 72
     2
 73
     1
 90
        2
 40
-0.6
 41
30.0
 62
     5
 63
     7
 74
     0
 91
        4
 64
     7
 65
   257
 75
     1
175
     1
 42
1.0
 92
        8
 66
   257
 43
1.0
 76
     1
 77
     6
 78
     2
 67
     8
 79
     3
170
     0
171
     0
290
     0
174
     0
 93
        5
 44
0.0
173
     0
291
     0
 45
0.0
1001
ACAD
1000
AcDbSavedByObjectVersion
1070
     0
  0
VISUALSTYLE
  5
D3F3
102
{ACAD_XDICTIONARY
360
D45F
102
}
102
{ACAD_REACTORS
330
D3DF
102
}
330
D3DF
100
AcDbVisualStyle
  2
Shaded with edges
 70
    26
 71
     2
 72
     2
 73
     1
 90
        2
 40
-0.6
 41
30.0
 62
     5
 63
     7
 74
     1
 91
       10
 64
     7
 65
   257
 75
     2
175
     1
 42
1.0
 92
        8
 66
   257
 43
1.0
 76
     1
 77
     6
 78
     2
 67
     7
 79
     3
170
     0
171
     0
290
     0
174
     0
 93
        5
 44
0.0
173
     0
291
     0
 45
0.0
1001
ACAD
1000
AcDbSavedByObjectVersion
1070
     0
  0
VISUALSTYLE
  5
D3F0
102
{ACAD_XDICTIONARY
360
D459
102
}
102
{ACAD_REACTORS
330
D3DF
102
}
330
D3DF
100
AcDbVisualStyle
  2
Shades of Gray
 70
    23
 71
     2
 72
     2
 73
     3
 90
        0
 40
-0.6
 41
-30.0
 62
     5
 63
     7
 74
     2
 91
        2
 64
     7
 65
     7
 75
     1
175
     1
 42
40.0
 92
        8
 66
     7
 43
1.0
 76
     1
 77
     6
 78
     2
 67
     7
 79
     3
170
     0
171
     0
290
     0
174
     0
 93
        1
 44
0.0
173
     0
291
     0
 45
0.0
1001
ACAD
1000
AcDbSavedByObjectVersion
1070
     0
  0
VISUALSTYLE
  5
D3F1
102
{ACAD_XDICTIONARY
360
D45B
102
}
102
{ACAD_REACTORS
330
D3DF
102
}
330
D3DF
100
AcDbVisualStyle
  2
Sketchy
 70
    24
 71
     1
 72
     2
 73
     2
 90
        0
 40
-0.6
 41
-30.0
 62
     5
 63
     7
 74
     2
 91
        2
 64
     7
 65
     7
 75
     1
175
     1
 42
40.0
 92
       11
 66
     7
 43
1.0
 76
     1
 77
     6
 78
     2
 67
     7
 79
     6
170
     0
171
     0
290
     0
174
     0
 93
        1
 44
0.0
173
     0
291
     0
 45
0.0
1001
ACAD
1000
AcDbSavedByObjectVersion
1070
     0
  0
VISUALSTYLE
  5
D3EC
102
{ACAD_XDICTIONARY
360
D451
102
}
102
{ACAD_REACTORS
330
D3DF
102
}
330
D3DF
100
AcDbVisualStyle
  2
Thicken
 70
    13
 71
     2
 72
     2
 73
     0
 90
        0
 40
-0.6
 41
-30.0
 62
     5
 63
     7
 74
     1
 91
        4
 64
     7
 65
   257
 75
     1
175
     1
 42
1.0
 92
       12
 66
     7
 43
1.0
 76
     1
 77
     6
 78
     2
 67
     7
 79
     5
170
     0
171
     0
290
     0
174
     0
 93
        1
 44
0.0
173
     0
291
     1
 45
0.0
1001
ACAD
1000
AcDbSavedByObjectVersion
1070
     0
  0
VISUALSTYLE
  5
D3E6
102
{ACAD_XDICTIONARY
360
D445
102
}
102
{ACAD_REACTORS
330
D3DF
102
}
330
D3DF
100
AcDbVisualStyle
  2
Wireframe
 70
     5
 71
     0
 72
     2
 73
     0
 90
        0
 40
-0.6
 41
-30.0
 62
     5
 63
     7
 74
     1
 91
        4
 64
     7
 65
   257
 75
     1
175
     1
 42
1.0
 92
        0
 66
   257
 43
1.0
 76
     1
 77
     6
 78
     2
 67
     7
 79
     3
170
     0
171
     0
290
     0
174
     0
 93
        1
 44
0.0
173
     0
291
     0
 45
0.0
1001
ACAD
1000
AcDbSavedByObjectVersion
1070
     0
  0
VISUALSTYLE
  5
D3F2
102
{ACAD_XDICTIONARY
360
D45D
102
}
102
{ACAD_REACTORS
330
D3DF
102
}
330
D3DF
100
AcDbVisualStyle
  2
X-Ray
 70
    25
 71
     2
 72
     2
 73
     1
 90
        1
 40
0.5
 41
-30.0
 62
     5
 63
     7
 74
     1
 91
        0
 64
     7
 65
   257
 75
     1
175
     1
 42
1.0
 92
        8
 66
     7
 43
1.0
 76
     1
 77
     6
 78
     2
 67
     7
 79
     3
170
     0
171
     0
290
     0
174
     0
 93
       13
 44
0.0
173
     0
291
     0
 45
0.0
1001
ACAD
1000
AcDbSavedByObjectVersion
1070
     0
  0
DICTIONARYVAR
  5
D42C
102
{ACAD_REACTORS
330
D427
102
}
330
D427
100
DictionaryVariables
280
     0
  1
1:1
  0
DICTIONARYVAR
  5
D429
102
{ACAD_REACTORS
330
D427
102
}
330
D427
100
DictionaryVariables
280
     0
  1
STANDARD
  0
DICTIONARYVAR
  5
D428
102
{ACAD_REACTORS
330
D427
102
}
330
D427
100
DictionaryVariables
280
     0
  1
STANDARD
  0
DICTIONARYVAR
  5
D42A
102
{ACAD_REACTORS
330
D427
102
}
330
D427
100
DictionaryVariables
280
     0
  1
Imperial24
  0
DICTIONARYVAR
  5
D42B
102
{ACAD_REACTORS
330
D427
102
}
330
D427
100
DictionaryVariables
280
     0
  1
Imperial24
  0
DICTIONARYVAR
  5
D42F
102
{ACAD_REACTORS
330
D427
102
}
330
D427
100
DictionaryVariables
280
     0
  1
1
  0
DICTIONARYVAR
  5
D42E
102
{ACAD_REACTORS
330
D427
102
}
330
D427
100
DictionaryVariables
280
     0
  1
0
  0
DICTIONARYVAR
  5
D42D
102
{ACAD_REACTORS
330
D427
102
}
330
D427
100
DictionaryVariables
280
     0
  1
127
  0
DICTIONARYVAR
  5
D430
102
{ACAD_REACTORS
330
D427
102
}
330
D427
100
DictionaryVariables
280
     0
  1
2
  0
DICTIONARY
  5
D46D
330
D412
100
AcDbDictionary
280
     1
281
     1
  3
ACAD_XREC_ROUNDTRIP
360
D46E
  0
DICTIONARY
  5
D46F
330
D413
100
AcDbDictionary
280
     1
281
     1
  3
ACAD_XREC_ROUNDTRIP
360
D470
  0
DICTIONARY
  5
D471
330
D414
100
AcDbDictionary
280
     1
281
     1
  3
ACAD_XREC_ROUNDTRIP
360
D472
  0
DICTIONARY
  5
D3D0
330
D3CF
100
AcDbDictionary
280
     1
281
     1
  3
ACAD_XREC_ROUNDTRIP
360
D437
  3
BUMPTILE
360
D3D2
  3
DIFFUSETILE
360
D3D1
  3
OPACITYTILE
360
D3D5
  3
REFLECTIONTILE
360
D3D4
  3
REFRACTIONTILE
360
D3D6
  3
SPECULARTILE
360
D3D3
  0
DICTIONARY
  5
D3C8
330
D3C7
100
AcDbDictionary
280
     1
281
     1
  3
ACAD_XREC_ROUNDTRIP
360
D436
  3
BUMPTILE
360
D3CA
  3
DIFFUSETILE
360
D3C9
  3
OPACITYTILE
360
D3CD
  3
REFLECTIONTILE
360
D3CC
  3
REFRACTIONTILE
360
D3CE
  3
SPECULARTILE
360
D3CB
  0
DICTIONARY
  5
D3D8
330
D3D7
100
AcDbDictionary
280
     1
281
     1
  3
ACAD_XREC_ROUNDTRIP
360
D438
  3
BUMPTILE
360
D3DA
  3
DIFFUSETILE
360
D3D9
  3
OPACITYTILE
360
D3DD
  3
REFLECTIONTILE
360
D3DC
  3
REFRACTIONTILE
360
D3DE
  3
SPECULARTILE
360
D3DB
  0
DICTIONARY
  5
D46B
330
D410
100
AcDbDictionary
280
     1
281
     1
  3
ACAD_XREC_ROUNDTRIP
360
D46C
  0
DICTIONARY
  5
D432
330
D3FA
100
AcDbDictionary
280
     1
281
     1
  3
ACAD_ROUNDTRIP_2008_TABLESTYLE_CELLSTYLEMAP
360
D433
  3
ACAD_XREC_ROUNDTRIP
360
D469
  0
DICTIONARY
  5
D443
330
D3E5
100
AcDbDictionary
280
     1
281
     1
  3
ACAD_XREC_ROUNDTRIP
360
D444
  0
DICTIONARY
  5
D441
330
D3E4
100
AcDbDictionary
280
     1
281
     1
  3
ACAD_XREC_ROUNDTRIP
360
D442
  0
DICTIONARY
  5
D44F
330
D3EB
100
AcDbDictionary
280
     1
281
     1
  3
ACAD_XREC_ROUNDTRIP
360
D450
  0
DICTIONARY
  5
D457
330
D3EF
100
AcDbDictionary
280
     1
281
     1
  3
ACAD_XREC_ROUNDTRIP
360
D458
  0
DICTIONARY
  5
D449
330
D3E8
100
AcDbDictionary
280
     1
281
     1
  3
ACAD_XREC_ROUNDTRIP
360
D44A
  0
DICTIONARY
  5
D44D
330
D3EA
100
AcDbDictionary
280
     1
281
     1
  3
ACAD_XREC_ROUNDTRIP
360
D44E
  0
DICTIONARY
  5
D467
330
D3F7
100
AcDbDictionary
280
     1
281
     1
  3
ACAD_XREC_ROUNDTRIP
360
D468
  0
DICTIONARY
  5
D455
330
D3EE
100
AcDbDictionary
280
     1
281
     1
  3
ACAD_XREC_ROUNDTRIP
360
D456
  0
DICTIONARY
  5
D439
330
D3E0
100
AcDbDictionary
280
     1
281
     1
  3
ACAD_XREC_ROUNDTRIP
360
D43A
  0
DICTIONARY
  5
D43B
330
D3E1
100
AcDbDictionary
280
     1
281
     1
  3
ACAD_XREC_ROUNDTRIP
360
D43C
  0
DICTIONARY
  5
D43D
330
D3E2
100
AcDbDictionary
280
     1
281
     1
  3
ACAD_XREC_ROUNDTRIP
360
D43E
  0
DICTIONARY
  5
D43F
330
D3E3
100
AcDbDictionary
280
     1
281
     1
  3
ACAD_XREC_ROUNDTRIP
360
D440
  0
DICTIONARY
  5
D447
330
D3E7
100
AcDbDictionary
280
     1
281
     1
  3
ACAD_XREC_ROUNDTRIP
360
D448
  0
DICTIONARY
  5
D463
330
D3F5
100
AcDbDictionary
280
     1
281
     1
  3
ACAD_XREC_ROUNDTRIP
360
D464
  0
DICTIONARY
  5
D453
330
D3ED
100
AcDbDictionary
280
     1
281
     1
  3
ACAD_XREC_ROUNDTRIP
360
D454
  0
DICTIONARY
  5
D465
330
D3F6
100
AcDbDictionary
280
     1
281
     1
  3
ACAD_XREC_ROUNDTRIP
360
D466
  0
DICTIONARY
  5
D44B
330
D3E9
100
AcDbDictionary
280
     1
281
     1
  3
ACAD_XREC_ROUNDTRIP
360
D44C
  0
DICTIONARY
  5
D461
330
D3F4
100
AcDbDictionary
280
     1
281
     1
  3
ACAD_XREC_ROUNDTRIP
360
D462
  0
DICTIONARY
  5
D45F
330
D3F3
100
AcDbDictionary
280
     1
281
     1
  3
ACAD_XREC_ROUNDTRIP
360
D460
  0
DICTIONARY
  5
D459
330
D3F0
100
AcDbDictionary
280
     1
281
     1
  3
ACAD_XREC_ROUNDTRIP
360
D45A
  0
DICTIONARY
  5
D45B
330
D3F1
100
AcDbDictionary
280
     1
281
     1
  3
ACAD_XREC_ROUNDTRIP
360
D45C
  0
DICTIONARY
  5
D451
330
D3EC
100
AcDbDictionary
280
     1
281
     1
  3
ACAD_XREC_ROUNDTRIP
360
D452
  0
DICTIONARY
  5
D445
330
D3E6
100
AcDbDictionary
280
     1
281
     1
  3
ACAD_XREC_ROUNDTRIP
360
D446
  0
DICTIONARY
  5
D45D
330
D3F2
100
AcDbDictionary
280
     1
281
     1
  3
ACAD_XREC_ROUNDTRIP
360
D45E
  0
XRECORD
  5
D46E
102
{ACAD_REACTORS
330
D46D
102
}
330
D46D
100
AcDbXrecord
280
     1
102
DISPLAYNAME
  1
Imperial24
102
FLAGS
 90
        0
  0
XRECORD
  5
D470
102
{ACAD_REACTORS
330
D46F
102
}
330
D46F
100
AcDbXrecord
280
     1
102
SHADEPLOT
 70
     0
102
SHADEPLOTRESLEVEL
 70
     2
102
SHADEPLOTCUSTOMDPI
 70
   300
  0
XRECORD
  5
D472
102
{ACAD_REACTORS
330
D471
102
}
330
D471
100
AcDbXrecord
280
     1
102
SHADEPLOT
 70
     0
102
SHADEPLOTRESLEVEL
 70
     2
102
SHADEPLOTCUSTOMDPI
 70
   300
  0
XRECORD
  5
D437
102
{ACAD_REACTORS
330
D3D0
102
}
330
D3D0
100
AcDbXrecord
280
     1
102
MATERIAL
148
0.0
149
0.0
149
0.0
 93
        0
 94
      127
282
     0
 72
     0
 77
     0
171
     0
175
     0
179
     0
273
     0
  0
XRECORD
  5
D3D2
102
{ACAD_REACTORS
330
D3D0
102
}
330
D3D0
100
AcDbXrecord
280
     1
270
     1
271
     1
  0
XRECORD
  5
D3D1
102
{ACAD_REACTORS
330
D3D0
102
}
330
D3D0
100
AcDbXrecord
280
     1
270
     1
271
     1
  0
XRECORD
  5
D3D5
102
{ACAD_REACTORS
330
D3D0
102
}
330
D3D0
100
AcDbXrecord
280
     1
270
     1
271
     1
  0
XRECORD
  5
D3D4
102
{ACAD_REACTORS
330
D3D0
102
}
330
D3D0
100
AcDbXrecord
280
     1
270
     1
271
     1
  0
XRECORD
  5
D3D6
102
{ACAD_REACTORS
330
D3D0
102
}
330
D3D0
100
AcDbXrecord
280
     1
270
     1
271
     1
  0
XRECORD
  5
D3D3
102
{ACAD_REACTORS
330
D3D0
102
}
330
D3D0
100
AcDbXrecord
280
     1
270
     1
271
     1
  0
XRECORD
  5
D436
102
{ACAD_REACTORS
330
D3C8
102
}
330
D3C8
100
AcDbXrecord
280
     1
102
MATERIAL
148
0.0
149
0.0
149
0.0
 93
        0
 94
      127
282
     0
 72
     0
 77
     0
171
     0
175
     0
179
     0
273
     0
  0
XRECORD
  5
D3CA
102
{ACAD_REACTORS
330
D3C8
102
}
330
D3C8
100
AcDbXrecord
280
     1
270
     1
271
     1
  0
XRECORD
  5
D3C9
102
{ACAD_REACTORS
330
D3C8
102
}
330
D3C8
100
AcDbXrecord
280
     1
270
     1
271
     1
  0
XRECORD
  5
D3CD
102
{ACAD_REACTORS
330
D3C8
102
}
330
D3C8
100
AcDbXrecord
280
     1
270
     1
271
     1
  0
XRECORD
  5
D3CC
102
{ACAD_REACTORS
330
D3C8
102
}
330
D3C8
100
AcDbXrecord
280
     1
270
     1
271
     1
  0
XRECORD
  5
D3CE
102
{ACAD_REACTORS
330
D3C8
102
}
330
D3C8
100
AcDbXrecord
280
     1
270
     1
271
     1
  0
XRECORD
  5
D3CB
102
{ACAD_REACTORS
330
D3C8
102
}
330
D3C8
100
AcDbXrecord
280
     1
270
     1
271
     1
  0
XRECORD
  5
D438
102
{ACAD_REACTORS
330
D3D8
102
}
330
D3D8
100
AcDbXrecord
280
     1
102
MATERIAL
148
0.0
149
0.0
149
0.0
 93
        0
 94
      127
282
     0
 72
     0
 77
     0
171
     0
175
     0
179
     0
273
     0
  0
XRECORD
  5
D3DA
102
{ACAD_REACTORS
330
D3D8
102
}
330
D3D8
100
AcDbXrecord
280
     1
270
     1
271
     1
  0
XRECORD
  5
D3D9
102
{ACAD_REACTORS
330
D3D8
102
}
330
D3D8
100
AcDbXrecord
280
     1
270
     1
271
     1
  0
XRECORD
  5
D3DD
102
{ACAD_REACTORS
330
D3D8
102
}
330
D3D8
100
AcDbXrecord
280
     1
270
     1
271
     1
  0
XRECORD
  5
D3DC
102
{ACAD_REACTORS
330
D3D8
102
}
330
D3D8
100
AcDbXrecord
280
     1
270
     1
271
     1
  0
XRECORD
  5
D3DE
102
{ACAD_REACTORS
330
D3D8
102
}
330
D3D8
100
AcDbXrecord
280
     1
270
     1
271
     1
  0
XRECORD
  5
D3DB
102
{ACAD_REACTORS
330
D3D8
102
}
330
D3D8
100
AcDbXrecord
280
     1
270
     1
271
     1
  0
XRECORD
  5
D46C
102
{ACAD_REACTORS
330
D46B
102
}
330
D46B
100
AcDbXrecord
280
     1
102
DISPLAYNAME
  1
Imperial24
102
FLAGS
 90
        0
  0
CELLSTYLEMAP
  5
D433
102
{ACAD_REACTORS
330
D432
102
}
330
D432
100
AcDbCellStyleMap
 90
        3
300
CELLSTYLE
  1
TABLEFORMAT_BEGIN
 90
        5
170
     1
 91
        0
 92
    32768
 62
   257
 93
        1
300
CONTENTFORMAT
  1
CONTENTFORMAT_BEGIN
 90
        0
 91
        0
 92
      512
 93
        0
300

 40
0.0
140
1.0
 94
        5
 62
     0
340
C5A8
144
0.25
309
CONTENTFORMAT_END
171
     0
 94
        0
309
TABLEFORMAT_END
  1
CELLSTYLE_BEGIN
 90
        1
 91
        1
300
_TITLE
309
CELLSTYLE_END
300
CELLSTYLE
  1
TABLEFORMAT_BEGIN
 90
        5
170
     1
 91
        0
 92
        0
 62
   257
 93
        1
300
CONTENTFORMAT
  1
CONTENTFORMAT_BEGIN
 90
        0
 91
        0
 92
      512
 93
        0
300

 40
0.0
140
1.0
 94
        5
 62
     0
340
C5A8
144
0.18
309
CONTENTFORMAT_END
171
     0
 94
        0
309
TABLEFORMAT_END
  1
CELLSTYLE_BEGIN
 90
        2
 91
        1
300
_HEADER
309
CELLSTYLE_END
300
CELLSTYLE
  1
TABLEFORMAT_BEGIN
 90
        5
170
     1
 91
        0
 92
        0
 62
   257
 93
        1
300
CONTENTFORMAT
  1
CONTENTFORMAT_BEGIN
 90
        0
 91
        0
 92
      512
 93
        0
300

 40
0.0
140
1.0
 94
        2
 62
     0
340
C5A8
144
0.18
309
CONTENTFORMAT_END
171
     0
 94
        0
309
TABLEFORMAT_END
  1
CELLSTYLE_BEGIN
 90
        3
 91
        2
300
_DATA
309
CELLSTYLE_END
  0
XRECORD
  5
D469
102
{ACAD_REACTORS
330
D432
102
}
330
D432
100
AcDbXrecord
280
     1
102
ACAD_ROUNDTRIP_PRE2007_TABLESTYLE
 90
      512
 91
        0
  1

 92
      512
 93
        0
  2

 94
      512
 95
        0
  3

  0
XRECORD
  5
D444
102
{ACAD_REACTORS
330
D443
102
}
330
D443
100
AcDbXrecord
280
     1
102
RTVSPost2010Prop28
280
     1
102
RTVSPost2010PropOp28
 70
     1
102
RTVSPost2010Prop29
280
     1
102
RTVSPost2010PropOp29
 70
     1
102
RTVSPost2010Prop30
280
     0
102
RTVSPost2010PropOp30
 70
     1
102
RTVSPost2010Prop31
280
     0
102
RTVSPost2010PropOp31
 70
     1
102
RTVSPost2010Prop32
280
     0
102
RTVSPost2010PropOp32
 70
     1
102
RTVSPost2010Prop33
280
     0
102
RTVSPost2010PropOp33
 70
     1
102
RTVSPost2010Prop34
280
     0
102
RTVSPost2010PropOp34
 70
     1
102
RTVSPost2010Prop35
280
     0
102
RTVSPost2010PropOp35
 70
     1
102
RTVSPost2010Prop36
280
     0
102
RTVSPost2010PropOp36
 70
     1
102
RTVSPost2010Prop37
 90
       50
102
RTVSPost2010PropOp37
 70
     1
102
RTVSPost2010Prop38
140
0.0
102
RTVSPost2010PropOp38
 70
     1
102
RTVSPost2010Prop39
140
1.0
102
RTVSPost2010PropOp39
 70
     1
102
RTVSPost2010Prop40
 90
        0
102
RTVSPost2010PropOp40
 70
     1
102
RTVSPost2010Prop41ColorIndex
 90
       18
102
RTVSPost2010Prop41ColorRGB
 90
        0
102
RTVSPost2010PropOp41
 70
     1
102
RTVSPost2010Prop42
 90
       50
102
RTVSPost2010PropOp42
 70
     1
102
RTVSPost2010Prop43
 90
        3
102
RTVSPost2010PropOp43
 70
     1
102
RTVSPost2010Prop44ColorIndex
 90
        5
102
RTVSPost2010Prop44ColorRGB
 90
      255
102
RTVSPost2010PropOp44
 70
     1
102
RTVSPost2010Prop45
280
     0
102
RTVSPost2010PropOp45
 70
     1
102
RTVSPost2010Prop46
 90
       50
102
RTVSPost2010PropOp46
 70
     1
102
RTVSPost2010Prop47
 90
       50
102
RTVSPost2010PropOp47
 70
     1
102
RTVSPost2010Prop48
 90
       50
102
RTVSPost2010PropOp48
 70
     1
102
RTVSPost2010Prop49
280
     0
102
RTVSPost2010PropOp49
 70
     1
102
RTVSPost2010Prop50
 90
       50
102
RTVSPost2010PropOp50
 70
     1
102
RTVSPost2010Prop51ColorIndex
 90
      256
102
RTVSPost2010Prop51ColorRGB
 90
-16777216
102
RTVSPost2010PropOp51
 70
     0
102
RTVSPost2010Prop52
140
1.0
102
RTVSPost2010PropOp52
 70
     0
102
RTVSPost2010Prop53
 90
        2
102
RTVSPost2010PropOp53
 70
     1
102
RTVSPost2010Prop54
  1
strokes_ogs.tif
102
RTVSPost2010PropOp54
 70
     1
102
RTVSPost2010Prop55
280
     0
102
RTVSPost2010PropOp55
 70
     1
102
RTVSPost2010Prop56
140
1.0
102
RTVSPost2010PropOp56
 70
     1
102
RTVSPost2010Prop57
140
1.0
102
RTVSPost2010PropOp57
 70
     1
102
RTVSPropertyOp0
 70
     1
102
RTVSPropertyOp1
 70
     1
102
RTVSPropertyOp2
 70
     1
102
RTVSPropertyOp3
 70
     1
102
RTVSPropertyOp4
 70
     1
102
RTVSPropertyOp5
 70
     1
102
RTVSPropertyOp6
 70
     1
102
RTVSPropertyOp7
 70
     1
102
RTVSPropertyOp8
 70
     1
102
RTVSPropertyOp9
 70
     1
102
RTVSPropertyOp10
 70
     1
102
RTVSPropertyOp11
 70
     1
102
RTVSPropertyOp12
 70
     1
102
RTVSPropertyOp13
 70
     1
102
RTVSPropertyOp14
 70
     1
102
RTVSPropertyOp15
 70
     1
102
RTVSPropertyOp16
 70
     1
102
RTVSPropertyOp17
 70
     1
102
RTVSPropertyOp18
 70
     1
102
RTVSPropertyOp19
 70
     1
102
RTVSPropertyOp20
 70
     1
102
RTVSPropertyOp21
 70
     1
102
RTVSPropertyOp22
 70
     1
102
RTVSPropertyOp23
 70
     1
102
RTVSPropertyOp24
 70
     1
102
RTVSPropertyOp25
 70
     1
102
RTVSPropertyOp26
 70
     1
102
RTVSPropertyOp27
 70
     1
102
RTVSPropertyOp28
 70
     1
102
RTVSPropertyOp29
 70
     1
102
RTVSPropertyOp30
 70
     1
102
RTVSPropertyOp31
 70
     1
102
RTVSPropertyOp32
 70
     1
102
RTVSPropertyOp33
 70
     1
102
RTVSPropertyOp34
 70
     1
102
RTVSPropertyOp35
 70
     1
102
RTVSPropertyOp36
 70
     1
102
RTVSPropertyOp37
 70
     1
102
RTVSPropertyOp38
 70
     1
102
RTVSPropertyOp39
 70
     1
102
RTVSPropertyOp40
 70
     1
102
RTVSPropertyOp41
 70
     1
102
RTVSPropertyOp42
 70
     1
102
RTVSPropertyOp43
 70
     1
102
RTVSPropertyOp44
 70
     1
102
RTVSPropertyOp45
 70
     1
102
RTVSPropertyOp46
 70
     1
102
RTVSPropertyOp47
 70
     1
102
RTVSPropertyOp48
 70
     1
102
RTVSPropertyOp49
 70
     1
102
RTVSPropertyOp50
 70
     1
102
RTVSPropertyOp51
 70
     0
102
RTVSPropertyOp52
 70
     0
102
RTVSPropertyOp53
 70
     1
102
RTVSPropertyOp54
 70
     1
102
RTVSPropertyOp55
 70
     1
102
RTVSPropertyOp56
 70
     1
102
RTVSPropertyOp57
 70
     1
102
RTVSPropertyOp58
 70
     1
102
RTVSPropertyOp59
 70
     1
102
RTVSPropertyOp60
 70
     1
102
RTVSPropertyOp61
 70
     1
102
RTVSPropertyOp62
 70
     1
  0
XRECORD
  5
D442
102
{ACAD_REACTORS
330
D441
102
}
330
D441
100
AcDbXrecord
280
     1
102
RTVSPost2010Prop28
280
     0
102
RTVSPost2010PropOp28
 70
     1
102
RTVSPost2010Prop29
280
     1
102
RTVSPost2010PropOp29
 70
     1
102
RTVSPost2010Prop30
280
     1
102
RTVSPost2010PropOp30
 70
     1
102
RTVSPost2010Prop31
280
     0
102
RTVSPost2010PropOp31
 70
     1
102
RTVSPost2010Prop32
280
     0
102
RTVSPost2010PropOp32
 70
     1
102
RTVSPost2010Prop33
280
     0
102
RTVSPost2010PropOp33
 70
     1
102
RTVSPost2010Prop34
280
     0
102
RTVSPost2010PropOp34
 70
     1
102
RTVSPost2010Prop35
280
     0
102
RTVSPost2010PropOp35
 70
     1
102
RTVSPost2010Prop36
280
     0
102
RTVSPost2010PropOp36
 70
     1
102
RTVSPost2010Prop37
 90
       50
102
RTVSPost2010PropOp37
 70
     1
102
RTVSPost2010Prop38
140
0.0
102
RTVSPost2010PropOp38
 70
     1
102
RTVSPost2010Prop39
140
1.0
102
RTVSPost2010PropOp39
 70
     1
102
RTVSPost2010Prop40
 90
        0
102
RTVSPost2010PropOp40
 70
     1
102
RTVSPost2010Prop41ColorIndex
 90
       18
102
RTVSPost2010Prop41ColorRGB
 90
        0
102
RTVSPost2010PropOp41
 70
     1
102
RTVSPost2010Prop42
 90
       50
102
RTVSPost2010PropOp42
 70
     1
102
RTVSPost2010Prop43
 90
        3
102
RTVSPost2010PropOp43
 70
     1
102
RTVSPost2010Prop44ColorIndex
 90
        5
102
RTVSPost2010Prop44ColorRGB
 90
      255
102
RTVSPost2010PropOp44
 70
     1
102
RTVSPost2010Prop45
280
     0
102
RTVSPost2010PropOp45
 70
     1
102
RTVSPost2010Prop46
 90
       50
102
RTVSPost2010PropOp46
 70
     1
102
RTVSPost2010Prop47
 90
       50
102
RTVSPost2010PropOp47
 70
     1
102
RTVSPost2010Prop48
 90
       50
102
RTVSPost2010PropOp48
 70
     1
102
RTVSPost2010Prop49
280
     0
102
RTVSPost2010PropOp49
 70
     1
102
RTVSPost2010Prop50
 90
       50
102
RTVSPost2010PropOp50
 70
     1
102
RTVSPost2010Prop51ColorIndex
 90
      256
102
RTVSPost2010Prop51ColorRGB
 90
-16777216
102
RTVSPost2010PropOp51
 70
     0
102
RTVSPost2010Prop52
140
1.0
102
RTVSPost2010PropOp52
 70
     0
102
RTVSPost2010Prop53
 90
        2
102
RTVSPost2010PropOp53
 70
     1
102
RTVSPost2010Prop54
  1
strokes_ogs.tif
102
RTVSPost2010PropOp54
 70
     1
102
RTVSPost2010Prop55
280
     0
102
RTVSPost2010PropOp55
 70
     1
102
RTVSPost2010Prop56
140
1.0
102
RTVSPost2010PropOp56
 70
     1
102
RTVSPost2010Prop57
140
1.0
102
RTVSPost2010PropOp57
 70
     1
102
RTVSPropertyOp0
 70
     1
102
RTVSPropertyOp1
 70
     1
102
RTVSPropertyOp2
 70
     1
102
RTVSPropertyOp3
 70
     1
102
RTVSPropertyOp4
 70
     1
102
RTVSPropertyOp5
 70
     1
102
RTVSPropertyOp6
 70
     1
102
RTVSPropertyOp7
 70
     1
102
RTVSPropertyOp8
 70
     1
102
RTVSPropertyOp9
 70
     1
102
RTVSPropertyOp10
 70
     1
102
RTVSPropertyOp11
 70
     1
102
RTVSPropertyOp12
 70
     1
102
RTVSPropertyOp13
 70
     1
102
RTVSPropertyOp14
 70
     1
102
RTVSPropertyOp15
 70
     1
102
RTVSPropertyOp16
 70
     1
102
RTVSPropertyOp17
 70
     1
102
RTVSPropertyOp18
 70
     1
102
RTVSPropertyOp19
 70
     1
102
RTVSPropertyOp20
 70
     1
102
RTVSPropertyOp21
 70
     1
102
RTVSPropertyOp22
 70
     1
102
RTVSPropertyOp23
 70
     1
102
RTVSPropertyOp24
 70
     1
102
RTVSPropertyOp25
 70
     1
102
RTVSPropertyOp26
 70
     1
102
RTVSPropertyOp27
 70
     1
102
RTVSPropertyOp28
 70
     1
102
RTVSPropertyOp29
 70
     1
102
RTVSPropertyOp30
 70
     1
102
RTVSPropertyOp31
 70
     1
102
RTVSPropertyOp32
 70
     1
102
RTVSPropertyOp33
 70
     1
102
RTVSPropertyOp34
 70
     1
102
RTVSPropertyOp35
 70
     1
102
RTVSPropertyOp36
 70
     1
102
RTVSPropertyOp37
 70
     1
102
RTVSPropertyOp38
 70
     1
102
RTVSPropertyOp39
 70
     1
102
RTVSPropertyOp40
 70
     1
102
RTVSPropertyOp41
 70
     1
102
RTVSPropertyOp42
 70
     1
102
RTVSPropertyOp43
 70
     1
102
RTVSPropertyOp44
 70
     1
102
RTVSPropertyOp45
 70
     1
102
RTVSPropertyOp46
 70
     1
102
RTVSPropertyOp47
 70
     1
102
RTVSPropertyOp48
 70
     1
102
RTVSPropertyOp49
 70
     1
102
RTVSPropertyOp50
 70
     1
102
RTVSPropertyOp51
 70
     0
102
RTVSPropertyOp52
 70
     0
102
RTVSPropertyOp53
 70
     1
102
RTVSPropertyOp54
 70
     1
102
RTVSPropertyOp55
 70
     1
102
RTVSPropertyOp56
 70
     1
102
RTVSPropertyOp57
 70
     1
102
RTVSPropertyOp58
 70
     1
102
RTVSPropertyOp59
 70
     1
102
RTVSPropertyOp60
 70
     1
102
RTVSPropertyOp61
 70
     1
102
RTVSPropertyOp62
 70
     1
  0
XRECORD
  5
D450
102
{ACAD_REACTORS
330
D44F
102
}
330
D44F
100
AcDbXrecord
280
     1
102
RTVSPost2010Prop28
280
     0
102
RTVSPost2010PropOp28
 70
     1
102
RTVSPost2010Prop29
280
     1
102
RTVSPost2010PropOp29
 70
     1
102
RTVSPost2010Prop30
280
     1
102
RTVSPost2010PropOp30
 70
     1
102
RTVSPost2010Prop31
280
     0
102
RTVSPost2010PropOp31
 70
     1
102
RTVSPost2010Prop32
280
     0
102
RTVSPost2010PropOp32
 70
     1
102
RTVSPost2010Prop33
280
     0
102
RTVSPost2010PropOp33
 70
     1
102
RTVSPost2010Prop34
280
     0
102
RTVSPost2010PropOp34
 70
     1
102
RTVSPost2010Prop35
280
     0
102
RTVSPost2010PropOp35
 70
     1
102
RTVSPost2010Prop36
280
     0
102
RTVSPost2010PropOp36
 70
     1
102
RTVSPost2010Prop37
 90
       50
102
RTVSPost2010PropOp37
 70
     1
102
RTVSPost2010Prop38
140
0.0
102
RTVSPost2010PropOp38
 70
     1
102
RTVSPost2010Prop39
140
1.0
102
RTVSPost2010PropOp39
 70
     1
102
RTVSPost2010Prop40
 90
        0
102
RTVSPost2010PropOp40
 70
     1
102
RTVSPost2010Prop41ColorIndex
 90
       18
102
RTVSPost2010Prop41ColorRGB
 90
        0
102
RTVSPost2010PropOp41
 70
     1
102
RTVSPost2010Prop42
 90
       50
102
RTVSPost2010PropOp42
 70
     1
102
RTVSPost2010Prop43
 90
        3
102
RTVSPost2010PropOp43
 70
     1
102
RTVSPost2010Prop44ColorIndex
 90
        5
102
RTVSPost2010Prop44ColorRGB
 90
      255
102
RTVSPost2010PropOp44
 70
     1
102
RTVSPost2010Prop45
280
     0
102
RTVSPost2010PropOp45
 70
     1
102
RTVSPost2010Prop46
 90
       50
102
RTVSPost2010PropOp46
 70
     1
102
RTVSPost2010Prop47
 90
       50
102
RTVSPost2010PropOp47
 70
     1
102
RTVSPost2010Prop48
 90
       50
102
RTVSPost2010PropOp48
 70
     1
102
RTVSPost2010Prop49
280
     0
102
RTVSPost2010PropOp49
 70
     1
102
RTVSPost2010Prop50
 90
       50
102
RTVSPost2010PropOp50
 70
     1
102
RTVSPost2010Prop51ColorIndex
 90
      256
102
RTVSPost2010Prop51ColorRGB
 90
-16777216
102
RTVSPost2010PropOp51
 70
     0
102
RTVSPost2010Prop52
140
1.0
102
RTVSPost2010PropOp52
 70
     0
102
RTVSPost2010Prop53
 90
        2
102
RTVSPost2010PropOp53
 70
     1
102
RTVSPost2010Prop54
  1
strokes_ogs.tif
102
RTVSPost2010PropOp54
 70
     1
102
RTVSPost2010Prop55
280
     0
102
RTVSPost2010PropOp55
 70
     1
102
RTVSPost2010Prop56
140
1.0
102
RTVSPost2010PropOp56
 70
     1
102
RTVSPost2010Prop57
140
1.0
102
RTVSPost2010PropOp57
 70
     1
102
RTVSPropertyOp0
 70
     1
102
RTVSPropertyOp1
 70
     1
102
RTVSPropertyOp2
 70
     1
102
RTVSPropertyOp3
 70
     1
102
RTVSPropertyOp4
 70
     1
102
RTVSPropertyOp5
 70
     1
102
RTVSPropertyOp6
 70
     1
102
RTVSPropertyOp7
 70
     1
102
RTVSPropertyOp8
 70
     1
102
RTVSPropertyOp9
 70
     1
102
RTVSPropertyOp10
 70
     1
102
RTVSPropertyOp11
 70
     1
102
RTVSPropertyOp12
 70
     1
102
RTVSPropertyOp13
 70
     1
102
RTVSPropertyOp14
 70
     1
102
RTVSPropertyOp15
 70
     1
102
RTVSPropertyOp16
 70
     1
102
RTVSPropertyOp17
 70
     1
102
RTVSPropertyOp18
 70
     1
102
RTVSPropertyOp19
 70
     1
102
RTVSPropertyOp20
 70
     1
102
RTVSPropertyOp21
 70
     1
102
RTVSPropertyOp22
 70
     1
102
RTVSPropertyOp23
 70
     1
102
RTVSPropertyOp24
 70
     1
102
RTVSPropertyOp25
 70
     1
102
RTVSPropertyOp26
 70
     1
102
RTVSPropertyOp27
 70
     1
102
RTVSPropertyOp28
 70
     1
102
RTVSPropertyOp29
 70
     1
102
RTVSPropertyOp30
 70
     1
102
RTVSPropertyOp31
 70
     1
102
RTVSPropertyOp32
 70
     1
102
RTVSPropertyOp33
 70
     1
102
RTVSPropertyOp34
 70
     1
102
RTVSPropertyOp35
 70
     1
102
RTVSPropertyOp36
 70
     1
102
RTVSPropertyOp37
 70
     1
102
RTVSPropertyOp38
 70
     1
102
RTVSPropertyOp39
 70
     1
102
RTVSPropertyOp40
 70
     1
102
RTVSPropertyOp41
 70
     1
102
RTVSPropertyOp42
 70
     1
102
RTVSPropertyOp43
 70
     1
102
RTVSPropertyOp44
 70
     1
102
RTVSPropertyOp45
 70
     1
102
RTVSPropertyOp46
 70
     1
102
RTVSPropertyOp47
 70
     1
102
RTVSPropertyOp48
 70
     1
102
RTVSPropertyOp49
 70
     1
102
RTVSPropertyOp50
 70
     1
102
RTVSPropertyOp51
 70
     0
102
RTVSPropertyOp52
 70
     0
102
RTVSPropertyOp53
 70
     1
102
RTVSPropertyOp54
 70
     1
102
RTVSPropertyOp55
 70
     1
102
RTVSPropertyOp56
 70
     1
102
RTVSPropertyOp57
 70
     1
102
RTVSPropertyOp58
 70
     1
102
RTVSPropertyOp59
 70
     1
102
RTVSPropertyOp60
 70
     1
102
RTVSPropertyOp61
 70
     1
102
RTVSPropertyOp62
 70
     1
  0
XRECORD
  5
D458
102
{ACAD_REACTORS
330
D457
102
}
330
D457
100
AcDbXrecord
280
     1
102
RTVSPost2010Prop28
280
     0
102
RTVSPost2010PropOp28
 70
     1
102
RTVSPost2010Prop29
280
     1
102
RTVSPost2010PropOp29
 70
     1
102
RTVSPost2010Prop30
280
     1
102
RTVSPost2010PropOp30
 70
     1
102
RTVSPost2010Prop31
280
     0
102
RTVSPost2010PropOp31
 70
     1
102
RTVSPost2010Prop32
280
     0
102
RTVSPost2010PropOp32
 70
     1
102
RTVSPost2010Prop33
280
     0
102
RTVSPost2010PropOp33
 70
     1
102
RTVSPost2010Prop34
280
     0
102
RTVSPost2010PropOp34
 70
     1
102
RTVSPost2010Prop35
280
     0
102
RTVSPost2010PropOp35
 70
     1
102
RTVSPost2010Prop36
280
     0
102
RTVSPost2010PropOp36
 70
     1
102
RTVSPost2010Prop37
 90
       50
102
RTVSPost2010PropOp37
 70
     1
102
RTVSPost2010Prop38
140
0.0
102
RTVSPost2010PropOp38
 70
     1
102
RTVSPost2010Prop39
140
1.0
102
RTVSPost2010PropOp39
 70
     1
102
RTVSPost2010Prop40
 90
        0
102
RTVSPost2010PropOp40
 70
     1
102
RTVSPost2010Prop41ColorIndex
 90
       18
102
RTVSPost2010Prop41ColorRGB
 90
        0
102
RTVSPost2010PropOp41
 70
     1
102
RTVSPost2010Prop42
 90
       50
102
RTVSPost2010PropOp42
 70
     1
102
RTVSPost2010Prop43
 90
        3
102
RTVSPost2010PropOp43
 70
     1
102
RTVSPost2010Prop44ColorIndex
 90
        5
102
RTVSPost2010Prop44ColorRGB
 90
      255
102
RTVSPost2010PropOp44
 70
     1
102
RTVSPost2010Prop45
280
     0
102
RTVSPost2010PropOp45
 70
     1
102
RTVSPost2010Prop46
 90
       50
102
RTVSPost2010PropOp46
 70
     1
102
RTVSPost2010Prop47
 90
       50
102
RTVSPost2010PropOp47
 70
     1
102
RTVSPost2010Prop48
 90
       50
102
RTVSPost2010PropOp48
 70
     1
102
RTVSPost2010Prop49
280
     0
102
RTVSPost2010PropOp49
 70
     1
102
RTVSPost2010Prop50
 90
       50
102
RTVSPost2010PropOp50
 70
     1
102
RTVSPost2010Prop51ColorIndex
 90
      256
102
RTVSPost2010Prop51ColorRGB
 90
-16777216
102
RTVSPost2010PropOp51
 70
     0
102
RTVSPost2010Prop52
140
1.0
102
RTVSPost2010PropOp52
 70
     0
102
RTVSPost2010Prop53
 90
        2
102
RTVSPost2010PropOp53
 70
     1
102
RTVSPost2010Prop54
  1
strokes_ogs.tif
102
RTVSPost2010PropOp54
 70
     1
102
RTVSPost2010Prop55
280
     0
102
RTVSPost2010PropOp55
 70
     1
102
RTVSPost2010Prop56
140
1.0
102
RTVSPost2010PropOp56
 70
     1
102
RTVSPost2010Prop57
140
1.0
102
RTVSPost2010PropOp57
 70
     1
102
RTVSPropertyOp0
 70
     1
102
RTVSPropertyOp1
 70
     1
102
RTVSPropertyOp2
 70
     1
102
RTVSPropertyOp3
 70
     1
102
RTVSPropertyOp4
 70
     1
102
RTVSPropertyOp5
 70
     1
102
RTVSPropertyOp6
 70
     1
102
RTVSPropertyOp7
 70
     1
102
RTVSPropertyOp8
 70
     1
102
RTVSPropertyOp9
 70
     1
102
RTVSPropertyOp10
 70
     1
102
RTVSPropertyOp11
 70
     1
102
RTVSPropertyOp12
 70
     1
102
RTVSPropertyOp13
 70
     1
102
RTVSPropertyOp14
 70
     1
102
RTVSPropertyOp15
 70
     1
102
RTVSPropertyOp16
 70
     1
102
RTVSPropertyOp17
 70
     1
102
RTVSPropertyOp18
 70
     1
102
RTVSPropertyOp19
 70
     1
102
RTVSPropertyOp20
 70
     1
102
RTVSPropertyOp21
 70
     1
102
RTVSPropertyOp22
 70
     1
102
RTVSPropertyOp23
 70
     1
102
RTVSPropertyOp24
 70
     1
102
RTVSPropertyOp25
 70
     1
102
RTVSPropertyOp26
 70
     1
102
RTVSPropertyOp27
 70
     1
102
RTVSPropertyOp28
 70
     1
102
RTVSPropertyOp29
 70
     1
102
RTVSPropertyOp30
 70
     1
102
RTVSPropertyOp31
 70
     1
102
RTVSPropertyOp32
 70
     1
102
RTVSPropertyOp33
 70
     1
102
RTVSPropertyOp34
 70
     1
102
RTVSPropertyOp35
 70
     1
102
RTVSPropertyOp36
 70
     1
102
RTVSPropertyOp37
 70
     1
102
RTVSPropertyOp38
 70
     1
102
RTVSPropertyOp39
 70
     1
102
RTVSPropertyOp40
 70
     1
102
RTVSPropertyOp41
 70
     1
102
RTVSPropertyOp42
 70
     1
102
RTVSPropertyOp43
 70
     1
102
RTVSPropertyOp44
 70
     1
102
RTVSPropertyOp45
 70
     1
102
RTVSPropertyOp46
 70
     1
102
RTVSPropertyOp47
 70
     1
102
RTVSPropertyOp48
 70
     1
102
RTVSPropertyOp49
 70
     1
102
RTVSPropertyOp50
 70
     1
102
RTVSPropertyOp51
 70
     0
102
RTVSPropertyOp52
 70
     0
102
RTVSPropertyOp53
 70
     1
102
RTVSPropertyOp54
 70
     1
102
RTVSPropertyOp55
 70
     1
102
RTVSPropertyOp56
 70
     1
102
RTVSPropertyOp57
 70
     1
102
RTVSPropertyOp58
 70
     1
102
RTVSPropertyOp59
 70
     1
102
RTVSPropertyOp60
 70
     1
102
RTVSPropertyOp61
 70
     1
102
RTVSPropertyOp62
 70
     1
  0
XRECORD
  5
D44A
102
{ACAD_REACTORS
330
D449
102
}
330
D449
100
AcDbXrecord
280
     1
102
RTVSPost2010Prop28
280
     0
102
RTVSPost2010PropOp28
 70
     1
102
RTVSPost2010Prop29
280
     1
102
RTVSPost2010PropOp29
 70
     1
102
RTVSPost2010Prop30
280
     1
102
RTVSPost2010PropOp30
 70
     1
102
RTVSPost2010Prop31
280
     0
102
RTVSPost2010PropOp31
 70
     1
102
RTVSPost2010Prop32
280
     0
102
RTVSPost2010PropOp32
 70
     1
102
RTVSPost2010Prop33
280
     0
102
RTVSPost2010PropOp33
 70
     1
102
RTVSPost2010Prop34
280
     0
102
RTVSPost2010PropOp34
 70
     1
102
RTVSPost2010Prop35
280
     0
102
RTVSPost2010PropOp35
 70
     1
102
RTVSPost2010Prop36
280
     0
102
RTVSPost2010PropOp36
 70
     1
102
RTVSPost2010Prop37
 90
       50
102
RTVSPost2010PropOp37
 70
     1
102
RTVSPost2010Prop38
140
0.0
102
RTVSPost2010PropOp38
 70
     1
102
RTVSPost2010Prop39
140
1.0
102
RTVSPost2010PropOp39
 70
     1
102
RTVSPost2010Prop40
 90
        0
102
RTVSPost2010PropOp40
 70
     1
102
RTVSPost2010Prop41ColorIndex
 90
       18
102
RTVSPost2010Prop41ColorRGB
 90
        0
102
RTVSPost2010PropOp41
 70
     1
102
RTVSPost2010Prop42
 90
       50
102
RTVSPost2010PropOp42
 70
     1
102
RTVSPost2010Prop43
 90
        3
102
RTVSPost2010PropOp43
 70
     1
102
RTVSPost2010Prop44ColorIndex
 90
        5
102
RTVSPost2010Prop44ColorRGB
 90
      255
102
RTVSPost2010PropOp44
 70
     1
102
RTVSPost2010Prop45
280
     0
102
RTVSPost2010PropOp45
 70
     1
102
RTVSPost2010Prop46
 90
       50
102
RTVSPost2010PropOp46
 70
     1
102
RTVSPost2010Prop47
 90
       50
102
RTVSPost2010PropOp47
 70
     1
102
RTVSPost2010Prop48
 90
       50
102
RTVSPost2010PropOp48
 70
     1
102
RTVSPost2010Prop49
280
     0
102
RTVSPost2010PropOp49
 70
     1
102
RTVSPost2010Prop50
 90
       50
102
RTVSPost2010PropOp50
 70
     1
102
RTVSPost2010Prop51ColorIndex
 90
      256
102
RTVSPost2010Prop51ColorRGB
 90
-16777216
102
RTVSPost2010PropOp51
 70
     0
102
RTVSPost2010Prop52
140
1.0
102
RTVSPost2010PropOp52
 70
     0
102
RTVSPost2010Prop53
 90
        2
102
RTVSPost2010PropOp53
 70
     1
102
RTVSPost2010Prop54
  1
strokes_ogs.tif
102
RTVSPost2010PropOp54
 70
     1
102
RTVSPost2010Prop55
280
     0
102
RTVSPost2010PropOp55
 70
     1
102
RTVSPost2010Prop56
140
1.0
102
RTVSPost2010PropOp56
 70
     1
102
RTVSPost2010Prop57
140
1.0
102
RTVSPost2010PropOp57
 70
     1
102
RTVSPropertyOp0
 70
     1
102
RTVSPropertyOp1
 70
     1
102
RTVSPropertyOp2
 70
     1
102
RTVSPropertyOp3
 70
     1
102
RTVSPropertyOp4
 70
     1
102
RTVSPropertyOp5
 70
     1
102
RTVSPropertyOp6
 70
     1
102
RTVSPropertyOp7
 70
     1
102
RTVSPropertyOp8
 70
     1
102
RTVSPropertyOp9
 70
     1
102
RTVSPropertyOp10
 70
     1
102
RTVSPropertyOp11
 70
     1
102
RTVSPropertyOp12
 70
     1
102
RTVSPropertyOp13
 70
     1
102
RTVSPropertyOp14
 70
     1
102
RTVSPropertyOp15
 70
     1
102
RTVSPropertyOp16
 70
     1
102
RTVSPropertyOp17
 70
     1
102
RTVSPropertyOp18
 70
     1
102
RTVSPropertyOp19
 70
     1
102
RTVSPropertyOp20
 70
     1
102
RTVSPropertyOp21
 70
     1
102
RTVSPropertyOp22
 70
     1
102
RTVSPropertyOp23
 70
     1
102
RTVSPropertyOp24
 70
     1
102
RTVSPropertyOp25
 70
     1
102
RTVSPropertyOp26
 70
     1
102
RTVSPropertyOp27
 70
     1
102
RTVSPropertyOp28
 70
     1
102
RTVSPropertyOp29
 70
     1
102
RTVSPropertyOp30
 70
     1
102
RTVSPropertyOp31
 70
     1
102
RTVSPropertyOp32
 70
     1
102
RTVSPropertyOp33
 70
     1
102
RTVSPropertyOp34
 70
     1
102
RTVSPropertyOp35
 70
     1
102
RTVSPropertyOp36
 70
     1
102
RTVSPropertyOp37
 70
     1
102
RTVSPropertyOp38
 70
     1
102
RTVSPropertyOp39
 70
     1
102
RTVSPropertyOp40
 70
     1
102
RTVSPropertyOp41
 70
     1
102
RTVSPropertyOp42
 70
     1
102
RTVSPropertyOp43
 70
     1
102
RTVSPropertyOp44
 70
     1
102
RTVSPropertyOp45
 70
     1
102
RTVSPropertyOp46
 70
     1
102
RTVSPropertyOp47
 70
     1
102
RTVSPropertyOp48
 70
     1
102
RTVSPropertyOp49
 70
     1
102
RTVSPropertyOp50
 70
     1
102
RTVSPropertyOp51
 70
     0
102
RTVSPropertyOp52
 70
     0
102
RTVSPropertyOp53
 70
     1
102
RTVSPropertyOp54
 70
     1
102
RTVSPropertyOp55
 70
     1
102
RTVSPropertyOp56
 70
     1
102
RTVSPropertyOp57
 70
     1
102
RTVSPropertyOp58
 70
     1
102
RTVSPropertyOp59
 70
     1
102
RTVSPropertyOp60
 70
     1
102
RTVSPropertyOp61
 70
     1
102
RTVSPropertyOp62
 70
     1
  0
XRECORD
  5
D44E
102
{ACAD_REACTORS
330
D44D
102
}
330
D44D
100
AcDbXrecord
280
     1
102
RTVSPost2010Prop28
280
     0
102
RTVSPost2010PropOp28
 70
     1
102
RTVSPost2010Prop29
280
     1
102
RTVSPost2010PropOp29
 70
     1
102
RTVSPost2010Prop30
280
     1
102
RTVSPost2010PropOp30
 70
     1
102
RTVSPost2010Prop31
280
     0
102
RTVSPost2010PropOp31
 70
     1
102
RTVSPost2010Prop32
280
     0
102
RTVSPost2010PropOp32
 70
     1
102
RTVSPost2010Prop33
280
     0
102
RTVSPost2010PropOp33
 70
     1
102
RTVSPost2010Prop34
280
     0
102
RTVSPost2010PropOp34
 70
     1
102
RTVSPost2010Prop35
280
     0
102
RTVSPost2010PropOp35
 70
     1
102
RTVSPost2010Prop36
280
     0
102
RTVSPost2010PropOp36
 70
     1
102
RTVSPost2010Prop37
 90
       50
102
RTVSPost2010PropOp37
 70
     1
102
RTVSPost2010Prop38
140
0.0
102
RTVSPost2010PropOp38
 70
     1
102
RTVSPost2010Prop39
140
1.0
102
RTVSPost2010PropOp39
 70
     1
102
RTVSPost2010Prop40
 90
        0
102
RTVSPost2010PropOp40
 70
     1
102
RTVSPost2010Prop41ColorIndex
 90
       18
102
RTVSPost2010Prop41ColorRGB
 90
        0
102
RTVSPost2010PropOp41
 70
     1
102
RTVSPost2010Prop42
 90
       50
102
RTVSPost2010PropOp42
 70
     1
102
RTVSPost2010Prop43
 90
        3
102
RTVSPost2010PropOp43
 70
     1
102
RTVSPost2010Prop44ColorIndex
 90
        5
102
RTVSPost2010Prop44ColorRGB
 90
      255
102
RTVSPost2010PropOp44
 70
     1
102
RTVSPost2010Prop45
280
     0
102
RTVSPost2010PropOp45
 70
     1
102
RTVSPost2010Prop46
 90
       50
102
RTVSPost2010PropOp46
 70
     1
102
RTVSPost2010Prop47
 90
       50
102
RTVSPost2010PropOp47
 70
     1
102
RTVSPost2010Prop48
 90
       50
102
RTVSPost2010PropOp48
 70
     1
102
RTVSPost2010Prop49
280
     0
102
RTVSPost2010PropOp49
 70
     1
102
RTVSPost2010Prop50
 90
       50
102
RTVSPost2010PropOp50
 70
     1
102
RTVSPost2010Prop51ColorIndex
 90
      256
102
RTVSPost2010Prop51ColorRGB
 90
-16777216
102
RTVSPost2010PropOp51
 70
     0
102
RTVSPost2010Prop52
140
1.0
102
RTVSPost2010PropOp52
 70
     0
102
RTVSPost2010Prop53
 90
        2
102
RTVSPost2010PropOp53
 70
     1
102
RTVSPost2010Prop54
  1
strokes_ogs.tif
102
RTVSPost2010PropOp54
 70
     1
102
RTVSPost2010Prop55
280
     0
102
RTVSPost2010PropOp55
 70
     1
102
RTVSPost2010Prop56
140
1.0
102
RTVSPost2010PropOp56
 70
     1
102
RTVSPost2010Prop57
140
1.0
102
RTVSPost2010PropOp57
 70
     1
102
RTVSPropertyOp0
 70
     1
102
RTVSPropertyOp1
 70
     1
102
RTVSPropertyOp2
 70
     1
102
RTVSPropertyOp3
 70
     1
102
RTVSPropertyOp4
 70
     1
102
RTVSPropertyOp5
 70
     1
102
RTVSPropertyOp6
 70
     1
102
RTVSPropertyOp7
 70
     1
102
RTVSPropertyOp8
 70
     1
102
RTVSPropertyOp9
 70
     1
102
RTVSPropertyOp10
 70
     1
102
RTVSPropertyOp11
 70
     1
102
RTVSPropertyOp12
 70
     1
102
RTVSPropertyOp13
 70
     1
102
RTVSPropertyOp14
 70
     1
102
RTVSPropertyOp15
 70
     1
102
RTVSPropertyOp16
 70
     1
102
RTVSPropertyOp17
 70
     1
102
RTVSPropertyOp18
 70
     1
102
RTVSPropertyOp19
 70
     1
102
RTVSPropertyOp20
 70
     1
102
RTVSPropertyOp21
 70
     1
102
RTVSPropertyOp22
 70
     1
102
RTVSPropertyOp23
 70
     1
102
RTVSPropertyOp24
 70
     1
102
RTVSPropertyOp25
 70
     1
102
RTVSPropertyOp26
 70
     1
102
RTVSPropertyOp27
 70
     1
102
RTVSPropertyOp28
 70
     1
102
RTVSPropertyOp29
 70
     1
102
RTVSPropertyOp30
 70
     1
102
RTVSPropertyOp31
 70
     1
102
RTVSPropertyOp32
 70
     1
102
RTVSPropertyOp33
 70
     1
102
RTVSPropertyOp34
 70
     1
102
RTVSPropertyOp35
 70
     1
102
RTVSPropertyOp36
 70
     1
102
RTVSPropertyOp37
 70
     1
102
RTVSPropertyOp38
 70
     1
102
RTVSPropertyOp39
 70
     1
102
RTVSPropertyOp40
 70
     1
102
RTVSPropertyOp41
 70
     1
102
RTVSPropertyOp42
 70
     1
102
RTVSPropertyOp43
 70
     1
102
RTVSPropertyOp44
 70
     1
102
RTVSPropertyOp45
 70
     1
102
RTVSPropertyOp46
 70
     1
102
RTVSPropertyOp47
 70
     1
102
RTVSPropertyOp48
 70
     1
102
RTVSPropertyOp49
 70
     1
102
RTVSPropertyOp50
 70
     1
102
RTVSPropertyOp51
 70
     0
102
RTVSPropertyOp52
 70
     0
102
RTVSPropertyOp53
 70
     1
102
RTVSPropertyOp54
 70
     1
102
RTVSPropertyOp55
 70
     1
102
RTVSPropertyOp56
 70
     1
102
RTVSPropertyOp57
 70
     1
102
RTVSPropertyOp58
 70
     1
102
RTVSPropertyOp59
 70
     1
102
RTVSPropertyOp60
 70
     1
102
RTVSPropertyOp61
 70
     1
102
RTVSPropertyOp62
 70
     1
  0
XRECORD
  5
D468
102
{ACAD_REACTORS
330
D467
102
}
330
D467
100
AcDbXrecord
280
     1
102
RTVSPost2010Prop28
280
     0
102
RTVSPost2010PropOp28
 70
     1
102
RTVSPost2010Prop29
280
     1
102
RTVSPost2010PropOp29
 70
     1
102
RTVSPost2010Prop30
280
     1
102
RTVSPost2010PropOp30
 70
     1
102
RTVSPost2010Prop31
280
     0
102
RTVSPost2010PropOp31
 70
     1
102
RTVSPost2010Prop32
280
     0
102
RTVSPost2010PropOp32
 70
     1
102
RTVSPost2010Prop33
280
     0
102
RTVSPost2010PropOp33
 70
     1
102
RTVSPost2010Prop34
280
     0
102
RTVSPost2010PropOp34
 70
     1
102
RTVSPost2010Prop35
280
     0
102
RTVSPost2010PropOp35
 70
     1
102
RTVSPost2010Prop36
280
     0
102
RTVSPost2010PropOp36
 70
     1
102
RTVSPost2010Prop37
 90
       50
102
RTVSPost2010PropOp37
 70
     0
102
RTVSPost2010Prop38
140
0.0
102
RTVSPost2010PropOp38
 70
     0
102
RTVSPost2010Prop39
140
1.0
102
RTVSPost2010PropOp39
 70
     0
102
RTVSPost2010Prop40
 90
        0
102
RTVSPost2010PropOp40
 70
     0
102
RTVSPost2010Prop41ColorIndex
 90
       18
102
RTVSPost2010Prop41ColorRGB
 90
        0
102
RTVSPost2010PropOp41
 70
     0
102
RTVSPost2010Prop42
 90
       50
102
RTVSPost2010PropOp42
 70
     0
102
RTVSPost2010Prop43
 90
        3
102
RTVSPost2010PropOp43
 70
     0
102
RTVSPost2010Prop44ColorIndex
 90
        5
102
RTVSPost2010Prop44ColorRGB
 90
      255
102
RTVSPost2010PropOp44
 70
     0
102
RTVSPost2010Prop45
280
     0
102
RTVSPost2010PropOp45
 70
     1
102
RTVSPost2010Prop46
 90
       50
102
RTVSPost2010PropOp46
 70
     0
102
RTVSPost2010Prop47
 90
       50
102
RTVSPost2010PropOp47
 70
     0
102
RTVSPost2010Prop48
 90
       50
102
RTVSPost2010PropOp48
 70
     0
102
RTVSPost2010Prop49
280
     0
102
RTVSPost2010PropOp49
 70
     1
102
RTVSPost2010Prop50
 90
       50
102
RTVSPost2010PropOp50
 70
     0
102
RTVSPost2010Prop51ColorIndex
 90
      256
102
RTVSPost2010Prop51ColorRGB
 90
-16777216
102
RTVSPost2010PropOp51
 70
     0
102
RTVSPost2010Prop52
140
1.0
102
RTVSPost2010PropOp52
 70
     0
102
RTVSPost2010Prop53
 90
        2
102
RTVSPost2010PropOp53
 70
     0
102
RTVSPost2010Prop54
  1
strokes_ogs.tif
102
RTVSPost2010PropOp54
 70
     0
102
RTVSPost2010Prop55
280
     0
102
RTVSPost2010PropOp55
 70
     1
102
RTVSPost2010Prop56
140
1.0
102
RTVSPost2010PropOp56
 70
     0
102
RTVSPost2010Prop57
140
1.0
102
RTVSPost2010PropOp57
 70
     0
102
RTVSPropertyOp0
 70
     0
102
RTVSPropertyOp1
 70
     0
102
RTVSPropertyOp2
 70
     0
102
RTVSPropertyOp3
 70
     0
102
RTVSPropertyOp4
 70
     0
102
RTVSPropertyOp5
 70
     0
102
RTVSPropertyOp6
 70
     0
102
RTVSPropertyOp7
 70
     0
102
RTVSPropertyOp8
 70
     0
102
RTVSPropertyOp9
 70
     0
102
RTVSPropertyOp10
 70
     0
102
RTVSPropertyOp11
 70
     0
102
RTVSPropertyOp12
 70
     0
102
RTVSPropertyOp13
 70
     0
102
RTVSPropertyOp14
 70
     2
102
RTVSPropertyOp15
 70
     0
102
RTVSPropertyOp16
 70
     0
102
RTVSPropertyOp17
 70
     0
102
RTVSPropertyOp18
 70
     0
102
RTVSPropertyOp19
 70
     0
102
RTVSPropertyOp20
 70
     0
102
RTVSPropertyOp21
 70
     0
102
RTVSPropertyOp22
 70
     0
102
RTVSPropertyOp23
 70
     0
102
RTVSPropertyOp24
 70
     0
102
RTVSPropertyOp25
 70
     0
102
RTVSPropertyOp26
 70
     0
102
RTVSPropertyOp27
 70
     0
102
RTVSPropertyOp28
 70
     1
102
RTVSPropertyOp29
 70
     1
102
RTVSPropertyOp30
 70
     1
102
RTVSPropertyOp31
 70
     1
102
RTVSPropertyOp32
 70
     1
102
RTVSPropertyOp33
 70
     1
102
RTVSPropertyOp34
 70
     1
102
RTVSPropertyOp35
 70
     1
102
RTVSPropertyOp36
 70
     1
102
RTVSPropertyOp37
 70
     0
102
RTVSPropertyOp38
 70
     0
102
RTVSPropertyOp39
 70
     0
102
RTVSPropertyOp40
 70
     0
102
RTVSPropertyOp41
 70
     0
102
RTVSPropertyOp42
 70
     0
102
RTVSPropertyOp43
 70
     0
102
RTVSPropertyOp44
 70
     0
102
RTVSPropertyOp45
 70
     1
102
RTVSPropertyOp46
 70
     0
102
RTVSPropertyOp47
 70
     0
102
RTVSPropertyOp48
 70
     0
102
RTVSPropertyOp49
 70
     1
102
RTVSPropertyOp50
 70
     0
102
RTVSPropertyOp51
 70
     0
102
RTVSPropertyOp52
 70
     0
102
RTVSPropertyOp53
 70
     0
102
RTVSPropertyOp54
 70
     0
102
RTVSPropertyOp55
 70
     1
102
RTVSPropertyOp56
 70
     0
102
RTVSPropertyOp57
 70
     0
102
RTVSPropertyOp58
 70
     0
102
RTVSPropertyOp59
 70
     0
102
RTVSPropertyOp60
 70
     0
102
RTVSPropertyOp61
 70
     0
102
RTVSPropertyOp62
 70
     0
  0
XRECORD
  5
D456
102
{ACAD_REACTORS
330
D455
102
}
330
D455
100
AcDbXrecord
280
     1
102
RTVSPost2010Prop28
280
     0
102
RTVSPost2010PropOp28
 70
     1
102
RTVSPost2010Prop29
280
     1
102
RTVSPost2010PropOp29
 70
     1
102
RTVSPost2010Prop30
280
     1
102
RTVSPost2010PropOp30
 70
     1
102
RTVSPost2010Prop31
280
     0
102
RTVSPost2010PropOp31
 70
     1
102
RTVSPost2010Prop32
280
     0
102
RTVSPost2010PropOp32
 70
     1
102
RTVSPost2010Prop33
280
     0
102
RTVSPost2010PropOp33
 70
     1
102
RTVSPost2010Prop34
280
     0
102
RTVSPost2010PropOp34
 70
     1
102
RTVSPost2010Prop35
280
     0
102
RTVSPost2010PropOp35
 70
     1
102
RTVSPost2010Prop36
280
     0
102
RTVSPost2010PropOp36
 70
     1
102
RTVSPost2010Prop37
 90
       50
102
RTVSPost2010PropOp37
 70
     1
102
RTVSPost2010Prop38
140
0.0
102
RTVSPost2010PropOp38
 70
     1
102
RTVSPost2010Prop39
140
1.0
102
RTVSPost2010PropOp39
 70
     1
102
RTVSPost2010Prop40
 90
        0
102
RTVSPost2010PropOp40
 70
     1
102
RTVSPost2010Prop41ColorIndex
 90
       18
102
RTVSPost2010Prop41ColorRGB
 90
        0
102
RTVSPost2010PropOp41
 70
     1
102
RTVSPost2010Prop42
 90
       50
102
RTVSPost2010PropOp42
 70
     1
102
RTVSPost2010Prop43
 90
        3
102
RTVSPost2010PropOp43
 70
     1
102
RTVSPost2010Prop44ColorIndex
 90
        5
102
RTVSPost2010Prop44ColorRGB
 90
      255
102
RTVSPost2010PropOp44
 70
     1
102
RTVSPost2010Prop45
280
     0
102
RTVSPost2010PropOp45
 70
     1
102
RTVSPost2010Prop46
 90
       50
102
RTVSPost2010PropOp46
 70
     1
102
RTVSPost2010Prop47
 90
       50
102
RTVSPost2010PropOp47
 70
     1
102
RTVSPost2010Prop48
 90
       50
102
RTVSPost2010PropOp48
 70
     1
102
RTVSPost2010Prop49
280
     0
102
RTVSPost2010PropOp49
 70
     1
102
RTVSPost2010Prop50
 90
       50
102
RTVSPost2010PropOp50
 70
     1
102
RTVSPost2010Prop51ColorIndex
 90
      256
102
RTVSPost2010Prop51ColorRGB
 90
-16777216
102
RTVSPost2010PropOp51
 70
     0
102
RTVSPost2010Prop52
140
1.0
102
RTVSPost2010PropOp52
 70
     0
102
RTVSPost2010Prop53
 90
        2
102
RTVSPost2010PropOp53
 70
     1
102
RTVSPost2010Prop54
  1
strokes_ogs.tif
102
RTVSPost2010PropOp54
 70
     1
102
RTVSPost2010Prop55
280
     0
102
RTVSPost2010PropOp55
 70
     1
102
RTVSPost2010Prop56
140
1.0
102
RTVSPost2010PropOp56
 70
     1
102
RTVSPost2010Prop57
140
1.0
102
RTVSPost2010PropOp57
 70
     1
102
RTVSPropertyOp0
 70
     1
102
RTVSPropertyOp1
 70
     1
102
RTVSPropertyOp2
 70
     1
102
RTVSPropertyOp3
 70
     1
102
RTVSPropertyOp4
 70
     1
102
RTVSPropertyOp5
 70
     1
102
RTVSPropertyOp6
 70
     1
102
RTVSPropertyOp7
 70
     1
102
RTVSPropertyOp8
 70
     1
102
RTVSPropertyOp9
 70
     1
102
RTVSPropertyOp10
 70
     1
102
RTVSPropertyOp11
 70
     1
102
RTVSPropertyOp12
 70
     1
102
RTVSPropertyOp13
 70
     1
102
RTVSPropertyOp14
 70
     1
102
RTVSPropertyOp15
 70
     1
102
RTVSPropertyOp16
 70
     1
102
RTVSPropertyOp17
 70
     1
102
RTVSPropertyOp18
 70
     1
102
RTVSPropertyOp19
 70
     1
102
RTVSPropertyOp20
 70
     1
102
RTVSPropertyOp21
 70
     1
102
RTVSPropertyOp22
 70
     1
102
RTVSPropertyOp23
 70
     1
102
RTVSPropertyOp24
 70
     1
102
RTVSPropertyOp25
 70
     1
102
RTVSPropertyOp26
 70
     1
102
RTVSPropertyOp27
 70
     1
102
RTVSPropertyOp28
 70
     1
102
RTVSPropertyOp29
 70
     1
102
RTVSPropertyOp30
 70
     1
102
RTVSPropertyOp31
 70
     1
102
RTVSPropertyOp32
 70
     1
102
RTVSPropertyOp33
 70
     1
102
RTVSPropertyOp34
 70
     1
102
RTVSPropertyOp35
 70
     1
102
RTVSPropertyOp36
 70
     1
102
RTVSPropertyOp37
 70
     1
102
RTVSPropertyOp38
 70
     1
102
RTVSPropertyOp39
 70
     1
102
RTVSPropertyOp40
 70
     1
102
RTVSPropertyOp41
 70
     1
102
RTVSPropertyOp42
 70
     1
102
RTVSPropertyOp43
 70
     1
102
RTVSPropertyOp44
 70
     1
102
RTVSPropertyOp45
 70
     1
102
RTVSPropertyOp46
 70
     1
102
RTVSPropertyOp47
 70
     1
102
RTVSPropertyOp48
 70
     1
102
RTVSPropertyOp49
 70
     1
102
RTVSPropertyOp50
 70
     1
102
RTVSPropertyOp51
 70
     0
102
RTVSPropertyOp52
 70
     0
102
RTVSPropertyOp53
 70
     1
102
RTVSPropertyOp54
 70
     1
102
RTVSPropertyOp55
 70
     1
102
RTVSPropertyOp56
 70
     1
102
RTVSPropertyOp57
 70
     1
102
RTVSPropertyOp58
 70
     1
102
RTVSPropertyOp59
 70
     1
102
RTVSPropertyOp60
 70
     1
102
RTVSPropertyOp61
 70
     1
102
RTVSPropertyOp62
 70
     1
  0
XRECORD
  5
D43A
102
{ACAD_REACTORS
330
D439
102
}
330
D439
100
AcDbXrecord
280
     1
102
RTVSPost2010Prop28
280
     0
102
RTVSPost2010PropOp28
 70
     1
102
RTVSPost2010Prop29
280
     1
102
RTVSPost2010PropOp29
 70
     1
102
RTVSPost2010Prop30
280
     1
102
RTVSPost2010PropOp30
 70
     1
102
RTVSPost2010Prop31
280
     0
102
RTVSPost2010PropOp31
 70
     1
102
RTVSPost2010Prop32
280
     0
102
RTVSPost2010PropOp32
 70
     1
102
RTVSPost2010Prop33
280
     0
102
RTVSPost2010PropOp33
 70
     1
102
RTVSPost2010Prop34
280
     0
102
RTVSPost2010PropOp34
 70
     1
102
RTVSPost2010Prop35
280
     0
102
RTVSPost2010PropOp35
 70
     1
102
RTVSPost2010Prop36
280
     0
102
RTVSPost2010PropOp36
 70
     1
102
RTVSPost2010Prop37
 90
       50
102
RTVSPost2010PropOp37
 70
     1
102
RTVSPost2010Prop38
140
0.0
102
RTVSPost2010PropOp38
 70
     1
102
RTVSPost2010Prop39
140
1.0
102
RTVSPost2010PropOp39
 70
     1
102
RTVSPost2010Prop40
 90
        0
102
RTVSPost2010PropOp40
 70
     1
102
RTVSPost2010Prop41ColorIndex
 90
       18
102
RTVSPost2010Prop41ColorRGB
 90
        0
102
RTVSPost2010PropOp41
 70
     1
102
RTVSPost2010Prop42
 90
       50
102
RTVSPost2010PropOp42
 70
     1
102
RTVSPost2010Prop43
 90
        3
102
RTVSPost2010PropOp43
 70
     1
102
RTVSPost2010Prop44ColorIndex
 90
        5
102
RTVSPost2010Prop44ColorRGB
 90
      255
102
RTVSPost2010PropOp44
 70
     1
102
RTVSPost2010Prop45
280
     0
102
RTVSPost2010PropOp45
 70
     1
102
RTVSPost2010Prop46
 90
       50
102
RTVSPost2010PropOp46
 70
     1
102
RTVSPost2010Prop47
 90
       50
102
RTVSPost2010PropOp47
 70
     1
102
RTVSPost2010Prop48
 90
       50
102
RTVSPost2010PropOp48
 70
     1
102
RTVSPost2010Prop49
280
     0
102
RTVSPost2010PropOp49
 70
     1
102
RTVSPost2010Prop50
 90
       50
102
RTVSPost2010PropOp50
 70
     1
102
RTVSPost2010Prop51ColorIndex
 90
      256
102
RTVSPost2010Prop51ColorRGB
 90
-16777216
102
RTVSPost2010PropOp51
 70
     0
102
RTVSPost2010Prop52
140
1.0
102
RTVSPost2010PropOp52
 70
     0
102
RTVSPost2010Prop53
 90
        2
102
RTVSPost2010PropOp53
 70
     1
102
RTVSPost2010Prop54
  1
strokes_ogs.tif
102
RTVSPost2010PropOp54
 70
     1
102
RTVSPost2010Prop55
280
     0
102
RTVSPost2010PropOp55
 70
     1
102
RTVSPost2010Prop56
140
1.0
102
RTVSPost2010PropOp56
 70
     1
102
RTVSPost2010Prop57
140
1.0
102
RTVSPost2010PropOp57
 70
     1
102
RTVSPropertyOp0
 70
     1
102
RTVSPropertyOp1
 70
     1
102
RTVSPropertyOp2
 70
     1
102
RTVSPropertyOp3
 70
     1
102
RTVSPropertyOp4
 70
     1
102
RTVSPropertyOp5
 70
     1
102
RTVSPropertyOp6
 70
     1
102
RTVSPropertyOp7
 70
     1
102
RTVSPropertyOp8
 70
     1
102
RTVSPropertyOp9
 70
     1
102
RTVSPropertyOp10
 70
     1
102
RTVSPropertyOp11
 70
     1
102
RTVSPropertyOp12
 70
     1
102
RTVSPropertyOp13
 70
     1
102
RTVSPropertyOp14
 70
     1
102
RTVSPropertyOp15
 70
     1
102
RTVSPropertyOp16
 70
     1
102
RTVSPropertyOp17
 70
     1
102
RTVSPropertyOp18
 70
     1
102
RTVSPropertyOp19
 70
     1
102
RTVSPropertyOp20
 70
     1
102
RTVSPropertyOp21
 70
     1
102
RTVSPropertyOp22
 70
     1
102
RTVSPropertyOp23
 70
     1
102
RTVSPropertyOp24
 70
     1
102
RTVSPropertyOp25
 70
     1
102
RTVSPropertyOp26
 70
     1
102
RTVSPropertyOp27
 70
     1
102
RTVSPropertyOp28
 70
     1
102
RTVSPropertyOp29
 70
     1
102
RTVSPropertyOp30
 70
     1
102
RTVSPropertyOp31
 70
     1
102
RTVSPropertyOp32
 70
     1
102
RTVSPropertyOp33
 70
     1
102
RTVSPropertyOp34
 70
     1
102
RTVSPropertyOp35
 70
     1
102
RTVSPropertyOp36
 70
     1
102
RTVSPropertyOp37
 70
     1
102
RTVSPropertyOp38
 70
     1
102
RTVSPropertyOp39
 70
     1
102
RTVSPropertyOp40
 70
     1
102
RTVSPropertyOp41
 70
     1
102
RTVSPropertyOp42
 70
     1
102
RTVSPropertyOp43
 70
     1
102
RTVSPropertyOp44
 70
     1
102
RTVSPropertyOp45
 70
     1
102
RTVSPropertyOp46
 70
     1
102
RTVSPropertyOp47
 70
     1
102
RTVSPropertyOp48
 70
     1
102
RTVSPropertyOp49
 70
     1
102
RTVSPropertyOp50
 70
     1
102
RTVSPropertyOp51
 70
     0
102
RTVSPropertyOp52
 70
     0
102
RTVSPropertyOp53
 70
     1
102
RTVSPropertyOp54
 70
     1
102
RTVSPropertyOp55
 70
     1
102
RTVSPropertyOp56
 70
     1
102
RTVSPropertyOp57
 70
     1
102
RTVSPropertyOp58
 70
     1
102
RTVSPropertyOp59
 70
     1
102
RTVSPropertyOp60
 70
     1
102
RTVSPropertyOp61
 70
     1
102
RTVSPropertyOp62
 70
     1
  0
XRECORD
  5
D43C
102
{ACAD_REACTORS
330
D43B
102
}
330
D43B
100
AcDbXrecord
280
     1
102
RTVSPost2010Prop28
280
     0
102
RTVSPost2010PropOp28
 70
     1
102
RTVSPost2010Prop29
280
     1
102
RTVSPost2010PropOp29
 70
     1
102
RTVSPost2010Prop30
280
     1
102
RTVSPost2010PropOp30
 70
     1
102
RTVSPost2010Prop31
280
     0
102
RTVSPost2010PropOp31
 70
     1
102
RTVSPost2010Prop32
280
     0
102
RTVSPost2010PropOp32
 70
     1
102
RTVSPost2010Prop33
280
     0
102
RTVSPost2010PropOp33
 70
     1
102
RTVSPost2010Prop34
280
     0
102
RTVSPost2010PropOp34
 70
     1
102
RTVSPost2010Prop35
280
     0
102
RTVSPost2010PropOp35
 70
     1
102
RTVSPost2010Prop36
280
     0
102
RTVSPost2010PropOp36
 70
     1
102
RTVSPost2010Prop37
 90
       50
102
RTVSPost2010PropOp37
 70
     1
102
RTVSPost2010Prop38
140
0.0
102
RTVSPost2010PropOp38
 70
     1
102
RTVSPost2010Prop39
140
1.0
102
RTVSPost2010PropOp39
 70
     1
102
RTVSPost2010Prop40
 90
        0
102
RTVSPost2010PropOp40
 70
     1
102
RTVSPost2010Prop41ColorIndex
 90
       18
102
RTVSPost2010Prop41ColorRGB
 90
        0
102
RTVSPost2010PropOp41
 70
     1
102
RTVSPost2010Prop42
 90
       50
102
RTVSPost2010PropOp42
 70
     1
102
RTVSPost2010Prop43
 90
        3
102
RTVSPost2010PropOp43
 70
     1
102
RTVSPost2010Prop44ColorIndex
 90
        5
102
RTVSPost2010Prop44ColorRGB
 90
      255
102
RTVSPost2010PropOp44
 70
     1
102
RTVSPost2010Prop45
280
     0
102
RTVSPost2010PropOp45
 70
     1
102
RTVSPost2010Prop46
 90
       50
102
RTVSPost2010PropOp46
 70
     1
102
RTVSPost2010Prop47
 90
       50
102
RTVSPost2010PropOp47
 70
     1
102
RTVSPost2010Prop48
 90
       50
102
RTVSPost2010PropOp48
 70
     1
102
RTVSPost2010Prop49
280
     0
102
RTVSPost2010PropOp49
 70
     1
102
RTVSPost2010Prop50
 90
       50
102
RTVSPost2010PropOp50
 70
     1
102
RTVSPost2010Prop51ColorIndex
 90
      256
102
RTVSPost2010Prop51ColorRGB
 90
-16777216
102
RTVSPost2010PropOp51
 70
     0
102
RTVSPost2010Prop52
140
1.0
102
RTVSPost2010PropOp52
 70
     0
102
RTVSPost2010Prop53
 90
        2
102
RTVSPost2010PropOp53
 70
     1
102
RTVSPost2010Prop54
  1
strokes_ogs.tif
102
RTVSPost2010PropOp54
 70
     1
102
RTVSPost2010Prop55
280
     0
102
RTVSPost2010PropOp55
 70
     1
102
RTVSPost2010Prop56
140
1.0
102
RTVSPost2010PropOp56
 70
     1
102
RTVSPost2010Prop57
140
1.0
102
RTVSPost2010PropOp57
 70
     1
102
RTVSPropertyOp0
 70
     1
102
RTVSPropertyOp1
 70
     1
102
RTVSPropertyOp2
 70
     1
102
RTVSPropertyOp3
 70
     1
102
RTVSPropertyOp4
 70
     1
102
RTVSPropertyOp5
 70
     1
102
RTVSPropertyOp6
 70
     1
102
RTVSPropertyOp7
 70
     1
102
RTVSPropertyOp8
 70
     1
102
RTVSPropertyOp9
 70
     1
102
RTVSPropertyOp10
 70
     1
102
RTVSPropertyOp11
 70
     1
102
RTVSPropertyOp12
 70
     1
102
RTVSPropertyOp13
 70
     1
102
RTVSPropertyOp14
 70
     1
102
RTVSPropertyOp15
 70
     1
102
RTVSPropertyOp16
 70
     1
102
RTVSPropertyOp17
 70
     1
102
RTVSPropertyOp18
 70
     1
102
RTVSPropertyOp19
 70
     1
102
RTVSPropertyOp20
 70
     1
102
RTVSPropertyOp21
 70
     1
102
RTVSPropertyOp22
 70
     1
102
RTVSPropertyOp23
 70
     1
102
RTVSPropertyOp24
 70
     1
102
RTVSPropertyOp25
 70
     1
102
RTVSPropertyOp26
 70
     1
102
RTVSPropertyOp27
 70
     1
102
RTVSPropertyOp28
 70
     1
102
RTVSPropertyOp29
 70
     1
102
RTVSPropertyOp30
 70
     1
102
RTVSPropertyOp31
 70
     1
102
RTVSPropertyOp32
 70
     1
102
RTVSPropertyOp33
 70
     1
102
RTVSPropertyOp34
 70
     1
102
RTVSPropertyOp35
 70
     1
102
RTVSPropertyOp36
 70
     1
102
RTVSPropertyOp37
 70
     1
102
RTVSPropertyOp38
 70
     1
102
RTVSPropertyOp39
 70
     1
102
RTVSPropertyOp40
 70
     1
102
RTVSPropertyOp41
 70
     1
102
RTVSPropertyOp42
 70
     1
102
RTVSPropertyOp43
 70
     1
102
RTVSPropertyOp44
 70
     1
102
RTVSPropertyOp45
 70
     1
102
RTVSPropertyOp46
 70
     1
102
RTVSPropertyOp47
 70
     1
102
RTVSPropertyOp48
 70
     1
102
RTVSPropertyOp49
 70
     1
102
RTVSPropertyOp50
 70
     1
102
RTVSPropertyOp51
 70
     0
102
RTVSPropertyOp52
 70
     0
102
RTVSPropertyOp53
 70
     1
102
RTVSPropertyOp54
 70
     1
102
RTVSPropertyOp55
 70
     1
102
RTVSPropertyOp56
 70
     1
102
RTVSPropertyOp57
 70
     1
102
RTVSPropertyOp58
 70
     1
102
RTVSPropertyOp59
 70
     1
102
RTVSPropertyOp60
 70
     1
102
RTVSPropertyOp61
 70
     1
102
RTVSPropertyOp62
 70
     1
  0
XRECORD
  5
D43E
102
{ACAD_REACTORS
330
D43D
102
}
330
D43D
100
AcDbXrecord
280
     1
102
RTVSPost2010Prop28
280
     0
102
RTVSPost2010PropOp28
 70
     1
102
RTVSPost2010Prop29
280
     1
102
RTVSPost2010PropOp29
 70
     1
102
RTVSPost2010Prop30
280
     1
102
RTVSPost2010PropOp30
 70
     1
102
RTVSPost2010Prop31
280
     0
102
RTVSPost2010PropOp31
 70
     1
102
RTVSPost2010Prop32
280
     0
102
RTVSPost2010PropOp32
 70
     1
102
RTVSPost2010Prop33
280
     0
102
RTVSPost2010PropOp33
 70
     1
102
RTVSPost2010Prop34
280
     0
102
RTVSPost2010PropOp34
 70
     1
102
RTVSPost2010Prop35
280
     0
102
RTVSPost2010PropOp35
 70
     1
102
RTVSPost2010Prop36
280
     0
102
RTVSPost2010PropOp36
 70
     1
102
RTVSPost2010Prop37
 90
       50
102
RTVSPost2010PropOp37
 70
     1
102
RTVSPost2010Prop38
140
0.0
102
RTVSPost2010PropOp38
 70
     1
102
RTVSPost2010Prop39
140
1.0
102
RTVSPost2010PropOp39
 70
     1
102
RTVSPost2010Prop40
 90
        0
102
RTVSPost2010PropOp40
 70
     1
102
RTVSPost2010Prop41ColorIndex
 90
       18
102
RTVSPost2010Prop41ColorRGB
 90
        0
102
RTVSPost2010PropOp41
 70
     1
102
RTVSPost2010Prop42
 90
       50
102
RTVSPost2010PropOp42
 70
     1
102
RTVSPost2010Prop43
 90
        3
102
RTVSPost2010PropOp43
 70
     1
102
RTVSPost2010Prop44ColorIndex
 90
        5
102
RTVSPost2010Prop44ColorRGB
 90
      255
102
RTVSPost2010PropOp44
 70
     1
102
RTVSPost2010Prop45
280
     0
102
RTVSPost2010PropOp45
 70
     1
102
RTVSPost2010Prop46
 90
       50
102
RTVSPost2010PropOp46
 70
     1
102
RTVSPost2010Prop47
 90
       50
102
RTVSPost2010PropOp47
 70
     1
102
RTVSPost2010Prop48
 90
       50
102
RTVSPost2010PropOp48
 70
     1
102
RTVSPost2010Prop49
280
     0
102
RTVSPost2010PropOp49
 70
     1
102
RTVSPost2010Prop50
 90
       50
102
RTVSPost2010PropOp50
 70
     1
102
RTVSPost2010Prop51ColorIndex
 90
      256
102
RTVSPost2010Prop51ColorRGB
 90
-16777216
102
RTVSPost2010PropOp51
 70
     0
102
RTVSPost2010Prop52
140
1.0
102
RTVSPost2010PropOp52
 70
     0
102
RTVSPost2010Prop53
 90
        2
102
RTVSPost2010PropOp53
 70
     1
102
RTVSPost2010Prop54
  1
strokes_ogs.tif
102
RTVSPost2010PropOp54
 70
     1
102
RTVSPost2010Prop55
280
     0
102
RTVSPost2010PropOp55
 70
     1
102
RTVSPost2010Prop56
140
1.0
102
RTVSPost2010PropOp56
 70
     1
102
RTVSPost2010Prop57
140
1.0
102
RTVSPost2010PropOp57
 70
     1
102
RTVSPropertyOp0
 70
     1
102
RTVSPropertyOp1
 70
     1
102
RTVSPropertyOp2
 70
     1
102
RTVSPropertyOp3
 70
     1
102
RTVSPropertyOp4
 70
     1
102
RTVSPropertyOp5
 70
     1
102
RTVSPropertyOp6
 70
     1
102
RTVSPropertyOp7
 70
     1
102
RTVSPropertyOp8
 70
     1
102
RTVSPropertyOp9
 70
     1
102
RTVSPropertyOp10
 70
     1
102
RTVSPropertyOp11
 70
     1
102
RTVSPropertyOp12
 70
     1
102
RTVSPropertyOp13
 70
     1
102
RTVSPropertyOp14
 70
     1
102
RTVSPropertyOp15
 70
     1
102
RTVSPropertyOp16
 70
     1
102
RTVSPropertyOp17
 70
     1
102
RTVSPropertyOp18
 70
     1
102
RTVSPropertyOp19
 70
     1
102
RTVSPropertyOp20
 70
     1
102
RTVSPropertyOp21
 70
     1
102
RTVSPropertyOp22
 70
     1
102
RTVSPropertyOp23
 70
     1
102
RTVSPropertyOp24
 70
     1
102
RTVSPropertyOp25
 70
     1
102
RTVSPropertyOp26
 70
     1
102
RTVSPropertyOp27
 70
     1
102
RTVSPropertyOp28
 70
     1
102
RTVSPropertyOp29
 70
     1
102
RTVSPropertyOp30
 70
     1
102
RTVSPropertyOp31
 70
     1
102
RTVSPropertyOp32
 70
     1
102
RTVSPropertyOp33
 70
     1
102
RTVSPropertyOp34
 70
     1
102
RTVSPropertyOp35
 70
     1
102
RTVSPropertyOp36
 70
     1
102
RTVSPropertyOp37
 70
     1
102
RTVSPropertyOp38
 70
     1
102
RTVSPropertyOp39
 70
     1
102
RTVSPropertyOp40
 70
     1
102
RTVSPropertyOp41
 70
     1
102
RTVSPropertyOp42
 70
     1
102
RTVSPropertyOp43
 70
     1
102
RTVSPropertyOp44
 70
     1
102
RTVSPropertyOp45
 70
     1
102
RTVSPropertyOp46
 70
     1
102
RTVSPropertyOp47
 70
     1
102
RTVSPropertyOp48
 70
     1
102
RTVSPropertyOp49
 70
     1
102
RTVSPropertyOp50
 70
     1
102
RTVSPropertyOp51
 70
     0
102
RTVSPropertyOp52
 70
     0
102
RTVSPropertyOp53
 70
     1
102
RTVSPropertyOp54
 70
     1
102
RTVSPropertyOp55
 70
     1
102
RTVSPropertyOp56
 70
     1
102
RTVSPropertyOp57
 70
     1
102
RTVSPropertyOp58
 70
     1
102
RTVSPropertyOp59
 70
     1
102
RTVSPropertyOp60
 70
     1
102
RTVSPropertyOp61
 70
     1
102
RTVSPropertyOp62
 70
     1
  0
XRECORD
  5
D440
102
{ACAD_REACTORS
330
D43F
102
}
330
D43F
100
AcDbXrecord
280
     1
102
RTVSPost2010Prop28
280
     0
102
RTVSPost2010PropOp28
 70
     1
102
RTVSPost2010Prop29
280
     1
102
RTVSPost2010PropOp29
 70
     1
102
RTVSPost2010Prop30
280
     1
102
RTVSPost2010PropOp30
 70
     1
102
RTVSPost2010Prop31
280
     0
102
RTVSPost2010PropOp31
 70
     1
102
RTVSPost2010Prop32
280
     0
102
RTVSPost2010PropOp32
 70
     1
102
RTVSPost2010Prop33
280
     0
102
RTVSPost2010PropOp33
 70
     1
102
RTVSPost2010Prop34
280
     0
102
RTVSPost2010PropOp34
 70
     1
102
RTVSPost2010Prop35
280
     0
102
RTVSPost2010PropOp35
 70
     1
102
RTVSPost2010Prop36
280
     0
102
RTVSPost2010PropOp36
 70
     1
102
RTVSPost2010Prop37
 90
       50
102
RTVSPost2010PropOp37
 70
     1
102
RTVSPost2010Prop38
140
0.0
102
RTVSPost2010PropOp38
 70
     1
102
RTVSPost2010Prop39
140
1.0
102
RTVSPost2010PropOp39
 70
     1
102
RTVSPost2010Prop40
 90
        0
102
RTVSPost2010PropOp40
 70
     1
102
RTVSPost2010Prop41ColorIndex
 90
       18
102
RTVSPost2010Prop41ColorRGB
 90
        0
102
RTVSPost2010PropOp41
 70
     1
102
RTVSPost2010Prop42
 90
       50
102
RTVSPost2010PropOp42
 70
     1
102
RTVSPost2010Prop43
 90
        3
102
RTVSPost2010PropOp43
 70
     1
102
RTVSPost2010Prop44ColorIndex
 90
        5
102
RTVSPost2010Prop44ColorRGB
 90
      255
102
RTVSPost2010PropOp44
 70
     1
102
RTVSPost2010Prop45
280
     0
102
RTVSPost2010PropOp45
 70
     1
102
RTVSPost2010Prop46
 90
       50
102
RTVSPost2010PropOp46
 70
     1
102
RTVSPost2010Prop47
 90
       50
102
RTVSPost2010PropOp47
 70
     1
102
RTVSPost2010Prop48
 90
       50
102
RTVSPost2010PropOp48
 70
     1
102
RTVSPost2010Prop49
280
     0
102
RTVSPost2010PropOp49
 70
     1
102
RTVSPost2010Prop50
 90
       50
102
RTVSPost2010PropOp50
 70
     1
102
RTVSPost2010Prop51ColorIndex
 90
      256
102
RTVSPost2010Prop51ColorRGB
 90
-16777216
102
RTVSPost2010PropOp51
 70
     0
102
RTVSPost2010Prop52
140
1.0
102
RTVSPost2010PropOp52
 70
     0
102
RTVSPost2010Prop53
 90
        2
102
RTVSPost2010PropOp53
 70
     1
102
RTVSPost2010Prop54
  1
strokes_ogs.tif
102
RTVSPost2010PropOp54
 70
     1
102
RTVSPost2010Prop55
280
     0
102
RTVSPost2010PropOp55
 70
     1
102
RTVSPost2010Prop56
140
1.0
102
RTVSPost2010PropOp56
 70
     1
102
RTVSPost2010Prop57
140
1.0
102
RTVSPost2010PropOp57
 70
     1
102
RTVSPropertyOp0
 70
     1
102
RTVSPropertyOp1
 70
     1
102
RTVSPropertyOp2
 70
     1
102
RTVSPropertyOp3
 70
     1
102
RTVSPropertyOp4
 70
     1
102
RTVSPropertyOp5
 70
     1
102
RTVSPropertyOp6
 70
     1
102
RTVSPropertyOp7
 70
     1
102
RTVSPropertyOp8
 70
     1
102
RTVSPropertyOp9
 70
     1
102
RTVSPropertyOp10
 70
     1
102
RTVSPropertyOp11
 70
     1
102
RTVSPropertyOp12
 70
     1
102
RTVSPropertyOp13
 70
     1
102
RTVSPropertyOp14
 70
     1
102
RTVSPropertyOp15
 70
     1
102
RTVSPropertyOp16
 70
     1
102
RTVSPropertyOp17
 70
     1
102
RTVSPropertyOp18
 70
     1
102
RTVSPropertyOp19
 70
     1
102
RTVSPropertyOp20
 70
     1
102
RTVSPropertyOp21
 70
     1
102
RTVSPropertyOp22
 70
     1
102
RTVSPropertyOp23
 70
     1
102
RTVSPropertyOp24
 70
     1
102
RTVSPropertyOp25
 70
     1
102
RTVSPropertyOp26
 70
     1
102
RTVSPropertyOp27
 70
     1
102
RTVSPropertyOp28
 70
     1
102
RTVSPropertyOp29
 70
     1
102
RTVSPropertyOp30
 70
     1
102
RTVSPropertyOp31
 70
     1
102
RTVSPropertyOp32
 70
     1
102
RTVSPropertyOp33
 70
     1
102
RTVSPropertyOp34
 70
     1
102
RTVSPropertyOp35
 70
     1
102
RTVSPropertyOp36
 70
     1
102
RTVSPropertyOp37
 70
     1
102
RTVSPropertyOp38
 70
     1
102
RTVSPropertyOp39
 70
     1
102
RTVSPropertyOp40
 70
     1
102
RTVSPropertyOp41
 70
     1
102
RTVSPropertyOp42
 70
     1
102
RTVSPropertyOp43
 70
     1
102
RTVSPropertyOp44
 70
     1
102
RTVSPropertyOp45
 70
     1
102
RTVSPropertyOp46
 70
     1
102
RTVSPropertyOp47
 70
     1
102
RTVSPropertyOp48
 70
     1
102
RTVSPropertyOp49
 70
     1
102
RTVSPropertyOp50
 70
     1
102
RTVSPropertyOp51
 70
     0
102
RTVSPropertyOp52
 70
     0
102
RTVSPropertyOp53
 70
     1
102
RTVSPropertyOp54
 70
     1
102
RTVSPropertyOp55
 70
     1
102
RTVSPropertyOp56
 70
     1
102
RTVSPropertyOp57
 70
     1
102
RTVSPropertyOp58
 70
     1
102
RTVSPropertyOp59
 70
     1
102
RTVSPropertyOp60
 70
     1
102
RTVSPropertyOp61
 70
     1
102
RTVSPropertyOp62
 70
     1
  0
XRECORD
  5
D448
102
{ACAD_REACTORS
330
D447
102
}
330
D447
100
AcDbXrecord
280
     1
102
RTVSPost2010Prop28
280
     0
102
RTVSPost2010PropOp28
 70
     1
102
RTVSPost2010Prop29
280
     1
102
RTVSPost2010PropOp29
 70
     1
102
RTVSPost2010Prop30
280
     1
102
RTVSPost2010PropOp30
 70
     1
102
RTVSPost2010Prop31
280
     0
102
RTVSPost2010PropOp31
 70
     1
102
RTVSPost2010Prop32
280
     0
102
RTVSPost2010PropOp32
 70
     1
102
RTVSPost2010Prop33
280
     0
102
RTVSPost2010PropOp33
 70
     1
102
RTVSPost2010Prop34
280
     0
102
RTVSPost2010PropOp34
 70
     1
102
RTVSPost2010Prop35
280
     0
102
RTVSPost2010PropOp35
 70
     1
102
RTVSPost2010Prop36
280
     0
102
RTVSPost2010PropOp36
 70
     1
102
RTVSPost2010Prop37
 90
       50
102
RTVSPost2010PropOp37
 70
     1
102
RTVSPost2010Prop38
140
0.0
102
RTVSPost2010PropOp38
 70
     1
102
RTVSPost2010Prop39
140
1.0
102
RTVSPost2010PropOp39
 70
     1
102
RTVSPost2010Prop40
 90
        0
102
RTVSPost2010PropOp40
 70
     1
102
RTVSPost2010Prop41ColorIndex
 90
       18
102
RTVSPost2010Prop41ColorRGB
 90
        0
102
RTVSPost2010PropOp41
 70
     1
102
RTVSPost2010Prop42
 90
       50
102
RTVSPost2010PropOp42
 70
     1
102
RTVSPost2010Prop43
 90
        3
102
RTVSPost2010PropOp43
 70
     1
102
RTVSPost2010Prop44ColorIndex
 90
        5
102
RTVSPost2010Prop44ColorRGB
 90
      255
102
RTVSPost2010PropOp44
 70
     1
102
RTVSPost2010Prop45
280
     0
102
RTVSPost2010PropOp45
 70
     1
102
RTVSPost2010Prop46
 90
       50
102
RTVSPost2010PropOp46
 70
     1
102
RTVSPost2010Prop47
 90
       50
102
RTVSPost2010PropOp47
 70
     1
102
RTVSPost2010Prop48
 90
       50
102
RTVSPost2010PropOp48
 70
     1
102
RTVSPost2010Prop49
280
     0
102
RTVSPost2010PropOp49
 70
     1
102
RTVSPost2010Prop50
 90
       50
102
RTVSPost2010PropOp50
 70
     1
102
RTVSPost2010Prop51ColorIndex
 90
      256
102
RTVSPost2010Prop51ColorRGB
 90
-16777216
102
RTVSPost2010PropOp51
 70
     0
102
RTVSPost2010Prop52
140
1.0
102
RTVSPost2010PropOp52
 70
     0
102
RTVSPost2010Prop53
 90
        2
102
RTVSPost2010PropOp53
 70
     1
102
RTVSPost2010Prop54
  1
strokes_ogs.tif
102
RTVSPost2010PropOp54
 70
     1
102
RTVSPost2010Prop55
280
     0
102
RTVSPost2010PropOp55
 70
     1
102
RTVSPost2010Prop56
140
1.0
102
RTVSPost2010PropOp56
 70
     1
102
RTVSPost2010Prop57
140
1.0
102
RTVSPost2010PropOp57
 70
     1
102
RTVSPropertyOp0
 70
     1
102
RTVSPropertyOp1
 70
     1
102
RTVSPropertyOp2
 70
     1
102
RTVSPropertyOp3
 70
     1
102
RTVSPropertyOp4
 70
     1
102
RTVSPropertyOp5
 70
     1
102
RTVSPropertyOp6
 70
     1
102
RTVSPropertyOp7
 70
     1
102
RTVSPropertyOp8
 70
     1
102
RTVSPropertyOp9
 70
     1
102
RTVSPropertyOp10
 70
     1
102
RTVSPropertyOp11
 70
     1
102
RTVSPropertyOp12
 70
     1
102
RTVSPropertyOp13
 70
     1
102
RTVSPropertyOp14
 70
     1
102
RTVSPropertyOp15
 70
     1
102
RTVSPropertyOp16
 70
     1
102
RTVSPropertyOp17
 70
     1
102
RTVSPropertyOp18
 70
     1
102
RTVSPropertyOp19
 70
     1
102
RTVSPropertyOp20
 70
     1
102
RTVSPropertyOp21
 70
     1
102
RTVSPropertyOp22
 70
     1
102
RTVSPropertyOp23
 70
     1
102
RTVSPropertyOp24
 70
     1
102
RTVSPropertyOp25
 70
     1
102
RTVSPropertyOp26
 70
     1
102
RTVSPropertyOp27
 70
     1
102
RTVSPropertyOp28
 70
     1
102
RTVSPropertyOp29
 70
     1
102
RTVSPropertyOp30
 70
     1
102
RTVSPropertyOp31
 70
     1
102
RTVSPropertyOp32
 70
     1
102
RTVSPropertyOp33
 70
     1
102
RTVSPropertyOp34
 70
     1
102
RTVSPropertyOp35
 70
     1
102
RTVSPropertyOp36
 70
     1
102
RTVSPropertyOp37
 70
     1
102
RTVSPropertyOp38
 70
     1
102
RTVSPropertyOp39
 70
     1
102
RTVSPropertyOp40
 70
     1
102
RTVSPropertyOp41
 70
     1
102
RTVSPropertyOp42
 70
     1
102
RTVSPropertyOp43
 70
     1
102
RTVSPropertyOp44
 70
     1
102
RTVSPropertyOp45
 70
     1
102
RTVSPropertyOp46
 70
     1
102
RTVSPropertyOp47
 70
     1
102
RTVSPropertyOp48
 70
     1
102
RTVSPropertyOp49
 70
     1
102
RTVSPropertyOp50
 70
     1
102
RTVSPropertyOp51
 70
     0
102
RTVSPropertyOp52
 70
     0
102
RTVSPropertyOp53
 70
     1
102
RTVSPropertyOp54
 70
     1
102
RTVSPropertyOp55
 70
     1
102
RTVSPropertyOp56
 70
     1
102
RTVSPropertyOp57
 70
     1
102
RTVSPropertyOp58
 70
     1
102
RTVSPropertyOp59
 70
     1
102
RTVSPropertyOp60
 70
     1
102
RTVSPropertyOp61
 70
     1
102
RTVSPropertyOp62
 70
     1
  0
XRECORD
  5
D464
102
{ACAD_REACTORS
330
D463
102
}
330
D463
100
AcDbXrecord
280
     1
102
RTVSPost2010Prop28
280
     0
102
RTVSPost2010PropOp28
 70
     1
102
RTVSPost2010Prop29
280
     1
102
RTVSPost2010PropOp29
 70
     1
102
RTVSPost2010Prop30
280
     1
102
RTVSPost2010PropOp30
 70
     1
102
RTVSPost2010Prop31
280
     0
102
RTVSPost2010PropOp31
 70
     1
102
RTVSPost2010Prop32
280
     0
102
RTVSPost2010PropOp32
 70
     1
102
RTVSPost2010Prop33
280
     0
102
RTVSPost2010PropOp33
 70
     1
102
RTVSPost2010Prop34
280
     0
102
RTVSPost2010PropOp34
 70
     1
102
RTVSPost2010Prop35
280
     0
102
RTVSPost2010PropOp35
 70
     1
102
RTVSPost2010Prop36
280
     0
102
RTVSPost2010PropOp36
 70
     1
102
RTVSPost2010Prop37
 90
       50
102
RTVSPost2010PropOp37
 70
     0
102
RTVSPost2010Prop38
140
0.0
102
RTVSPost2010PropOp38
 70
     0
102
RTVSPost2010Prop39
140
1.0
102
RTVSPost2010PropOp39
 70
     0
102
RTVSPost2010Prop40
 90
        0
102
RTVSPost2010PropOp40
 70
     0
102
RTVSPost2010Prop41ColorIndex
 90
       18
102
RTVSPost2010Prop41ColorRGB
 90
        0
102
RTVSPost2010PropOp41
 70
     0
102
RTVSPost2010Prop42
 90
       50
102
RTVSPost2010PropOp42
 70
     0
102
RTVSPost2010Prop43
 90
        3
102
RTVSPost2010PropOp43
 70
     0
102
RTVSPost2010Prop44ColorIndex
 90
        5
102
RTVSPost2010Prop44ColorRGB
 90
      255
102
RTVSPost2010PropOp44
 70
     0
102
RTVSPost2010Prop45
280
     0
102
RTVSPost2010PropOp45
 70
     1
102
RTVSPost2010Prop46
 90
       50
102
RTVSPost2010PropOp46
 70
     0
102
RTVSPost2010Prop47
 90
       50
102
RTVSPost2010PropOp47
 70
     0
102
RTVSPost2010Prop48
 90
       50
102
RTVSPost2010PropOp48
 70
     0
102
RTVSPost2010Prop49
280
     0
102
RTVSPost2010PropOp49
 70
     1
102
RTVSPost2010Prop50
 90
       50
102
RTVSPost2010PropOp50
 70
     0
102
RTVSPost2010Prop51ColorIndex
 90
      256
102
RTVSPost2010Prop51ColorRGB
 90
-16777216
102
RTVSPost2010PropOp51
 70
     0
102
RTVSPost2010Prop52
140
1.0
102
RTVSPost2010PropOp52
 70
     0
102
RTVSPost2010Prop53
 90
        2
102
RTVSPost2010PropOp53
 70
     0
102
RTVSPost2010Prop54
  1
strokes_ogs.tif
102
RTVSPost2010PropOp54
 70
     0
102
RTVSPost2010Prop55
280
     0
102
RTVSPost2010PropOp55
 70
     1
102
RTVSPost2010Prop56
140
1.0
102
RTVSPost2010PropOp56
 70
     0
102
RTVSPost2010Prop57
140
1.0
102
RTVSPost2010PropOp57
 70
     0
102
RTVSPropertyOp0
 70
     0
102
RTVSPropertyOp1
 70
     0
102
RTVSPropertyOp2
 70
     0
102
RTVSPropertyOp3
 70
     0
102
RTVSPropertyOp4
 70
     0
102
RTVSPropertyOp5
 70
     0
102
RTVSPropertyOp6
 70
     0
102
RTVSPropertyOp7
 70
     0
102
RTVSPropertyOp8
 70
     0
102
RTVSPropertyOp9
 70
     0
102
RTVSPropertyOp10
 70
     0
102
RTVSPropertyOp11
 70
     0
102
RTVSPropertyOp12
 70
     0
102
RTVSPropertyOp13
 70
     0
102
RTVSPropertyOp14
 70
     2
102
RTVSPropertyOp15
 70
     0
102
RTVSPropertyOp16
 70
     0
102
RTVSPropertyOp17
 70
     0
102
RTVSPropertyOp18
 70
     0
102
RTVSPropertyOp19
 70
     0
102
RTVSPropertyOp20
 70
     0
102
RTVSPropertyOp21
 70
     0
102
RTVSPropertyOp22
 70
     0
102
RTVSPropertyOp23
 70
     0
102
RTVSPropertyOp24
 70
     0
102
RTVSPropertyOp25
 70
     0
102
RTVSPropertyOp26
 70
     0
102
RTVSPropertyOp27
 70
     0
102
RTVSPropertyOp28
 70
     1
102
RTVSPropertyOp29
 70
     1
102
RTVSPropertyOp30
 70
     1
102
RTVSPropertyOp31
 70
     1
102
RTVSPropertyOp32
 70
     1
102
RTVSPropertyOp33
 70
     1
102
RTVSPropertyOp34
 70
     1
102
RTVSPropertyOp35
 70
     1
102
RTVSPropertyOp36
 70
     1
102
RTVSPropertyOp37
 70
     0
102
RTVSPropertyOp38
 70
     0
102
RTVSPropertyOp39
 70
     0
102
RTVSPropertyOp40
 70
     0
102
RTVSPropertyOp41
 70
     0
102
RTVSPropertyOp42
 70
     0
102
RTVSPropertyOp43
 70
     0
102
RTVSPropertyOp44
 70
     0
102
RTVSPropertyOp45
 70
     1
102
RTVSPropertyOp46
 70
     0
102
RTVSPropertyOp47
 70
     0
102
RTVSPropertyOp48
 70
     0
102
RTVSPropertyOp49
 70
     1
102
RTVSPropertyOp50
 70
     0
102
RTVSPropertyOp51
 70
     0
102
RTVSPropertyOp52
 70
     0
102
RTVSPropertyOp53
 70
     0
102
RTVSPropertyOp54
 70
     0
102
RTVSPropertyOp55
 70
     1
102
RTVSPropertyOp56
 70
     0
102
RTVSPropertyOp57
 70
     0
102
RTVSPropertyOp58
 70
     0
102
RTVSPropertyOp59
 70
     0
102
RTVSPropertyOp60
 70
     0
102
RTVSPropertyOp61
 70
     0
102
RTVSPropertyOp62
 70
     0
  0
XRECORD
  5
D454
102
{ACAD_REACTORS
330
D453
102
}
330
D453
100
AcDbXrecord
280
     1
102
RTVSPost2010Prop28
280
     0
102
RTVSPost2010PropOp28
 70
     1
102
RTVSPost2010Prop29
280
     1
102
RTVSPost2010PropOp29
 70
     1
102
RTVSPost2010Prop30
280
     1
102
RTVSPost2010PropOp30
 70
     1
102
RTVSPost2010Prop31
280
     0
102
RTVSPost2010PropOp31
 70
     1
102
RTVSPost2010Prop32
280
     0
102
RTVSPost2010PropOp32
 70
     1
102
RTVSPost2010Prop33
280
     0
102
RTVSPost2010PropOp33
 70
     1
102
RTVSPost2010Prop34
280
     0
102
RTVSPost2010PropOp34
 70
     1
102
RTVSPost2010Prop35
280
     0
102
RTVSPost2010PropOp35
 70
     1
102
RTVSPost2010Prop36
280
     0
102
RTVSPost2010PropOp36
 70
     1
102
RTVSPost2010Prop37
 90
       50
102
RTVSPost2010PropOp37
 70
     1
102
RTVSPost2010Prop38
140
0.0
102
RTVSPost2010PropOp38
 70
     1
102
RTVSPost2010Prop39
140
1.0
102
RTVSPost2010PropOp39
 70
     1
102
RTVSPost2010Prop40
 90
        0
102
RTVSPost2010PropOp40
 70
     1
102
RTVSPost2010Prop41ColorIndex
 90
       18
102
RTVSPost2010Prop41ColorRGB
 90
        0
102
RTVSPost2010PropOp41
 70
     1
102
RTVSPost2010Prop42
 90
       50
102
RTVSPost2010PropOp42
 70
     1
102
RTVSPost2010Prop43
 90
        3
102
RTVSPost2010PropOp43
 70
     1
102
RTVSPost2010Prop44ColorIndex
 90
        5
102
RTVSPost2010Prop44ColorRGB
 90
      255
102
RTVSPost2010PropOp44
 70
     1
102
RTVSPost2010Prop45
280
     0
102
RTVSPost2010PropOp45
 70
     1
102
RTVSPost2010Prop46
 90
       50
102
RTVSPost2010PropOp46
 70
     1
102
RTVSPost2010Prop47
 90
       50
102
RTVSPost2010PropOp47
 70
     1
102
RTVSPost2010Prop48
 90
       50
102
RTVSPost2010PropOp48
 70
     1
102
RTVSPost2010Prop49
280
     0
102
RTVSPost2010PropOp49
 70
     1
102
RTVSPost2010Prop50
 90
       50
102
RTVSPost2010PropOp50
 70
     1
102
RTVSPost2010Prop51ColorIndex
 90
      256
102
RTVSPost2010Prop51ColorRGB
 90
-16777216
102
RTVSPost2010PropOp51
 70
     0
102
RTVSPost2010Prop52
140
1.0
102
RTVSPost2010PropOp52
 70
     0
102
RTVSPost2010Prop53
 90
        2
102
RTVSPost2010PropOp53
 70
     1
102
RTVSPost2010Prop54
  1
strokes_ogs.tif
102
RTVSPost2010PropOp54
 70
     1
102
RTVSPost2010Prop55
280
     0
102
RTVSPost2010PropOp55
 70
     1
102
RTVSPost2010Prop56
140
1.0
102
RTVSPost2010PropOp56
 70
     1
102
RTVSPost2010Prop57
140
1.0
102
RTVSPost2010PropOp57
 70
     1
102
RTVSPropertyOp0
 70
     1
102
RTVSPropertyOp1
 70
     1
102
RTVSPropertyOp2
 70
     1
102
RTVSPropertyOp3
 70
     1
102
RTVSPropertyOp4
 70
     1
102
RTVSPropertyOp5
 70
     1
102
RTVSPropertyOp6
 70
     1
102
RTVSPropertyOp7
 70
     1
102
RTVSPropertyOp8
 70
     1
102
RTVSPropertyOp9
 70
     1
102
RTVSPropertyOp10
 70
     1
102
RTVSPropertyOp11
 70
     1
102
RTVSPropertyOp12
 70
     1
102
RTVSPropertyOp13
 70
     1
102
RTVSPropertyOp14
 70
     1
102
RTVSPropertyOp15
 70
     1
102
RTVSPropertyOp16
 70
     1
102
RTVSPropertyOp17
 70
     1
102
RTVSPropertyOp18
 70
     1
102
RTVSPropertyOp19
 70
     1
102
RTVSPropertyOp20
 70
     1
102
RTVSPropertyOp21
 70
     1
102
RTVSPropertyOp22
 70
     1
102
RTVSPropertyOp23
 70
     1
102
RTVSPropertyOp24
 70
     1
102
RTVSPropertyOp25
 70
     1
102
RTVSPropertyOp26
 70
     1
102
RTVSPropertyOp27
 70
     1
102
RTVSPropertyOp28
 70
     1
102
RTVSPropertyOp29
 70
     1
102
RTVSPropertyOp30
 70
     1
102
RTVSPropertyOp31
 70
     1
102
RTVSPropertyOp32
 70
     1
102
RTVSPropertyOp33
 70
     1
102
RTVSPropertyOp34
 70
     1
102
RTVSPropertyOp35
 70
     1
102
RTVSPropertyOp36
 70
     1
102
RTVSPropertyOp37
 70
     1
102
RTVSPropertyOp38
 70
     1
102
RTVSPropertyOp39
 70
     1
102
RTVSPropertyOp40
 70
     1
102
RTVSPropertyOp41
 70
     1
102
RTVSPropertyOp42
 70
     1
102
RTVSPropertyOp43
 70
     1
102
RTVSPropertyOp44
 70
     1
102
RTVSPropertyOp45
 70
     1
102
RTVSPropertyOp46
 70
     1
102
RTVSPropertyOp47
 70
     1
102
RTVSPropertyOp48
 70
     1
102
RTVSPropertyOp49
 70
     1
102
RTVSPropertyOp50
 70
     1
102
RTVSPropertyOp51
 70
     0
102
RTVSPropertyOp52
 70
     0
102
RTVSPropertyOp53
 70
     1
102
RTVSPropertyOp54
 70
     1
102
RTVSPropertyOp55
 70
     1
102
RTVSPropertyOp56
 70
     1
102
RTVSPropertyOp57
 70
     1
102
RTVSPropertyOp58
 70
     1
102
RTVSPropertyOp59
 70
     1
102
RTVSPropertyOp60
 70
     1
102
RTVSPropertyOp61
 70
     1
102
RTVSPropertyOp62
 70
     1
  0
XRECORD
  5
D466
102
{ACAD_REACTORS
330
D465
102
}
330
D465
100
AcDbXrecord
280
     1
102
RTVSPost2010Prop28
280
     0
102
RTVSPost2010PropOp28
 70
     1
102
RTVSPost2010Prop29
280
     1
102
RTVSPost2010PropOp29
 70
     1
102
RTVSPost2010Prop30
280
     1
102
RTVSPost2010PropOp30
 70
     1
102
RTVSPost2010Prop31
280
     0
102
RTVSPost2010PropOp31
 70
     1
102
RTVSPost2010Prop32
280
     0
102
RTVSPost2010PropOp32
 70
     1
102
RTVSPost2010Prop33
280
     0
102
RTVSPost2010PropOp33
 70
     1
102
RTVSPost2010Prop34
280
     0
102
RTVSPost2010PropOp34
 70
     1
102
RTVSPost2010Prop35
280
     0
102
RTVSPost2010PropOp35
 70
     1
102
RTVSPost2010Prop36
280
     0
102
RTVSPost2010PropOp36
 70
     1
102
RTVSPost2010Prop37
 90
       50
102
RTVSPost2010PropOp37
 70
     0
102
RTVSPost2010Prop38
140
0.0
102
RTVSPost2010PropOp38
 70
     0
102
RTVSPost2010Prop39
140
1.0
102
RTVSPost2010PropOp39
 70
     0
102
RTVSPost2010Prop40
 90
        0
102
RTVSPost2010PropOp40
 70
     0
102
RTVSPost2010Prop41ColorIndex
 90
       18
102
RTVSPost2010Prop41ColorRGB
 90
        0
102
RTVSPost2010PropOp41
 70
     0
102
RTVSPost2010Prop42
 90
       50
102
RTVSPost2010PropOp42
 70
     0
102
RTVSPost2010Prop43
 90
        3
102
RTVSPost2010PropOp43
 70
     0
102
RTVSPost2010Prop44ColorIndex
 90
        5
102
RTVSPost2010Prop44ColorRGB
 90
      255
102
RTVSPost2010PropOp44
 70
     0
102
RTVSPost2010Prop45
280
     0
102
RTVSPost2010PropOp45
 70
     1
102
RTVSPost2010Prop46
 90
       50
102
RTVSPost2010PropOp46
 70
     0
102
RTVSPost2010Prop47
 90
       50
102
RTVSPost2010PropOp47
 70
     0
102
RTVSPost2010Prop48
 90
       50
102
RTVSPost2010PropOp48
 70
     0
102
RTVSPost2010Prop49
280
     0
102
RTVSPost2010PropOp49
 70
     1
102
RTVSPost2010Prop50
 90
       50
102
RTVSPost2010PropOp50
 70
     0
102
RTVSPost2010Prop51ColorIndex
 90
      256
102
RTVSPost2010Prop51ColorRGB
 90
-16777216
102
RTVSPost2010PropOp51
 70
     0
102
RTVSPost2010Prop52
140
1.0
102
RTVSPost2010PropOp52
 70
     0
102
RTVSPost2010Prop53
 90
        2
102
RTVSPost2010PropOp53
 70
     0
102
RTVSPost2010Prop54
  1
strokes_ogs.tif
102
RTVSPost2010PropOp54
 70
     0
102
RTVSPost2010Prop55
280
     0
102
RTVSPost2010PropOp55
 70
     1
102
RTVSPost2010Prop56
140
1.0
102
RTVSPost2010PropOp56
 70
     0
102
RTVSPost2010Prop57
140
1.0
102
RTVSPost2010PropOp57
 70
     0
102
RTVSPropertyOp0
 70
     0
102
RTVSPropertyOp1
 70
     0
102
RTVSPropertyOp2
 70
     0
102
RTVSPropertyOp3
 70
     0
102
RTVSPropertyOp4
 70
     0
102
RTVSPropertyOp5
 70
     0
102
RTVSPropertyOp6
 70
     0
102
RTVSPropertyOp7
 70
     0
102
RTVSPropertyOp8
 70
     0
102
RTVSPropertyOp9
 70
     0
102
RTVSPropertyOp10
 70
     0
102
RTVSPropertyOp11
 70
     0
102
RTVSPropertyOp12
 70
     0
102
RTVSPropertyOp13
 70
     0
102
RTVSPropertyOp14
 70
     2
102
RTVSPropertyOp15
 70
     0
102
RTVSPropertyOp16
 70
     0
102
RTVSPropertyOp17
 70
     0
102
RTVSPropertyOp18
 70
     0
102
RTVSPropertyOp19
 70
     0
102
RTVSPropertyOp20
 70
     0
102
RTVSPropertyOp21
 70
     0
102
RTVSPropertyOp22
 70
     0
102
RTVSPropertyOp23
 70
     0
102
RTVSPropertyOp24
 70
     0
102
RTVSPropertyOp25
 70
     0
102
RTVSPropertyOp26
 70
     0
102
RTVSPropertyOp27
 70
     0
102
RTVSPropertyOp28
 70
     1
102
RTVSPropertyOp29
 70
     1
102
RTVSPropertyOp30
 70
     1
102
RTVSPropertyOp31
 70
     1
102
RTVSPropertyOp32
 70
     1
102
RTVSPropertyOp33
 70
     1
102
RTVSPropertyOp34
 70
     1
102
RTVSPropertyOp35
 70
     1
102
RTVSPropertyOp36
 70
     1
102
RTVSPropertyOp37
 70
     0
102
RTVSPropertyOp38
 70
     0
102
RTVSPropertyOp39
 70
     0
102
RTVSPropertyOp40
 70
     0
102
RTVSPropertyOp41
 70
     0
102
RTVSPropertyOp42
 70
     0
102
RTVSPropertyOp43
 70
     0
102
RTVSPropertyOp44
 70
     0
102
RTVSPropertyOp45
 70
     1
102
RTVSPropertyOp46
 70
     0
102
RTVSPropertyOp47
 70
     0
102
RTVSPropertyOp48
 70
     0
102
RTVSPropertyOp49
 70
     1
102
RTVSPropertyOp50
 70
     0
102
RTVSPropertyOp51
 70
     0
102
RTVSPropertyOp52
 70
     0
102
RTVSPropertyOp53
 70
     0
102
RTVSPropertyOp54
 70
     0
102
RTVSPropertyOp55
 70
     1
102
RTVSPropertyOp56
 70
     0
102
RTVSPropertyOp57
 70
     0
102
RTVSPropertyOp58
 70
     0
102
RTVSPropertyOp59
 70
     0
102
RTVSPropertyOp60
 70
     0
102
RTVSPropertyOp61
 70
     0
102
RTVSPropertyOp62
 70
     0
  0
XRECORD
  5
D44C
102
{ACAD_REACTORS
330
D44B
102
}
330
D44B
100
AcDbXrecord
280
     1
102
RTVSPost2010Prop28
280
     0
102
RTVSPost2010PropOp28
 70
     1
102
RTVSPost2010Prop29
280
     1
102
RTVSPost2010PropOp29
 70
     1
102
RTVSPost2010Prop30
280
     1
102
RTVSPost2010PropOp30
 70
     1
102
RTVSPost2010Prop31
280
     0
102
RTVSPost2010PropOp31
 70
     1
102
RTVSPost2010Prop32
280
     0
102
RTVSPost2010PropOp32
 70
     1
102
RTVSPost2010Prop33
280
     0
102
RTVSPost2010PropOp33
 70
     1
102
RTVSPost2010Prop34
280
     0
102
RTVSPost2010PropOp34
 70
     1
102
RTVSPost2010Prop35
280
     0
102
RTVSPost2010PropOp35
 70
     1
102
RTVSPost2010Prop36
280
     0
102
RTVSPost2010PropOp36
 70
     1
102
RTVSPost2010Prop37
 90
       50
102
RTVSPost2010PropOp37
 70
     1
102
RTVSPost2010Prop38
140
0.0
102
RTVSPost2010PropOp38
 70
     1
102
RTVSPost2010Prop39
140
1.0
102
RTVSPost2010PropOp39
 70
     1
102
RTVSPost2010Prop40
 90
        0
102
RTVSPost2010PropOp40
 70
     1
102
RTVSPost2010Prop41ColorIndex
 90
       18
102
RTVSPost2010Prop41ColorRGB
 90
        0
102
RTVSPost2010PropOp41
 70
     1
102
RTVSPost2010Prop42
 90
       50
102
RTVSPost2010PropOp42
 70
     1
102
RTVSPost2010Prop43
 90
        3
102
RTVSPost2010PropOp43
 70
     1
102
RTVSPost2010Prop44ColorIndex
 90
        5
102
RTVSPost2010Prop44ColorRGB
 90
      255
102
RTVSPost2010PropOp44
 70
     1
102
RTVSPost2010Prop45
280
     0
102
RTVSPost2010PropOp45
 70
     1
102
RTVSPost2010Prop46
 90
       50
102
RTVSPost2010PropOp46
 70
     1
102
RTVSPost2010Prop47
 90
       50
102
RTVSPost2010PropOp47
 70
     1
102
RTVSPost2010Prop48
 90
       50
102
RTVSPost2010PropOp48
 70
     1
102
RTVSPost2010Prop49
280
     0
102
RTVSPost2010PropOp49
 70
     1
102
RTVSPost2010Prop50
 90
       50
102
RTVSPost2010PropOp50
 70
     1
102
RTVSPost2010Prop51ColorIndex
 90
      256
102
RTVSPost2010Prop51ColorRGB
 90
-16777216
102
RTVSPost2010PropOp51
 70
     0
102
RTVSPost2010Prop52
140
1.0
102
RTVSPost2010PropOp52
 70
     0
102
RTVSPost2010Prop53
 90
        2
102
RTVSPost2010PropOp53
 70
     1
102
RTVSPost2010Prop54
  1
strokes_ogs.tif
102
RTVSPost2010PropOp54
 70
     1
102
RTVSPost2010Prop55
280
     0
102
RTVSPost2010PropOp55
 70
     1
102
RTVSPost2010Prop56
140
1.0
102
RTVSPost2010PropOp56
 70
     1
102
RTVSPost2010Prop57
140
1.0
102
RTVSPost2010PropOp57
 70
     1
102
RTVSPropertyOp0
 70
     1
102
RTVSPropertyOp1
 70
     1
102
RTVSPropertyOp2
 70
     1
102
RTVSPropertyOp3
 70
     1
102
RTVSPropertyOp4
 70
     1
102
RTVSPropertyOp5
 70
     1
102
RTVSPropertyOp6
 70
     1
102
RTVSPropertyOp7
 70
     1
102
RTVSPropertyOp8
 70
     1
102
RTVSPropertyOp9
 70
     1
102
RTVSPropertyOp10
 70
     1
102
RTVSPropertyOp11
 70
     1
102
RTVSPropertyOp12
 70
     1
102
RTVSPropertyOp13
 70
     1
102
RTVSPropertyOp14
 70
     1
102
RTVSPropertyOp15
 70
     1
102
RTVSPropertyOp16
 70
     1
102
RTVSPropertyOp17
 70
     1
102
RTVSPropertyOp18
 70
     1
102
RTVSPropertyOp19
 70
     1
102
RTVSPropertyOp20
 70
     1
102
RTVSPropertyOp21
 70
     1
102
RTVSPropertyOp22
 70
     1
102
RTVSPropertyOp23
 70
     1
102
RTVSPropertyOp24
 70
     1
102
RTVSPropertyOp25
 70
     1
102
RTVSPropertyOp26
 70
     1
102
RTVSPropertyOp27
 70
     1
102
RTVSPropertyOp28
 70
     1
102
RTVSPropertyOp29
 70
     1
102
RTVSPropertyOp30
 70
     1
102
RTVSPropertyOp31
 70
     1
102
RTVSPropertyOp32
 70
     1
102
RTVSPropertyOp33
 70
     1
102
RTVSPropertyOp34
 70
     1
102
RTVSPropertyOp35
 70
     1
102
RTVSPropertyOp36
 70
     1
102
RTVSPropertyOp37
 70
     1
102
RTVSPropertyOp38
 70
     1
102
RTVSPropertyOp39
 70
     1
102
RTVSPropertyOp40
 70
     1
102
RTVSPropertyOp41
 70
     1
102
RTVSPropertyOp42
 70
     1
102
RTVSPropertyOp43
 70
     1
102
RTVSPropertyOp44
 70
     1
102
RTVSPropertyOp45
 70
     1
102
RTVSPropertyOp46
 70
     1
102
RTVSPropertyOp47
 70
     1
102
RTVSPropertyOp48
 70
     1
102
RTVSPropertyOp49
 70
     1
102
RTVSPropertyOp50
 70
     1
102
RTVSPropertyOp51
 70
     0
102
RTVSPropertyOp52
 70
     0
102
RTVSPropertyOp53
 70
     1
102
RTVSPropertyOp54
 70
     1
102
RTVSPropertyOp55
 70
     1
102
RTVSPropertyOp56
 70
     1
102
RTVSPropertyOp57
 70
     1
102
RTVSPropertyOp58
 70
     1
102
RTVSPropertyOp59
 70
     1
102
RTVSPropertyOp60
 70
     1
102
RTVSPropertyOp61
 70
     1
102
RTVSPropertyOp62
 70
     1
  0
XRECORD
  5
D462
102
{ACAD_REACTORS
330
D461
102
}
330
D461
100
AcDbXrecord
280
     1
102
RTVSPost2010Prop28
280
     0
102
RTVSPost2010PropOp28
 70
     1
102
RTVSPost2010Prop29
280
     1
102
RTVSPost2010PropOp29
 70
     1
102
RTVSPost2010Prop30
280
     1
102
RTVSPost2010PropOp30
 70
     1
102
RTVSPost2010Prop31
280
     0
102
RTVSPost2010PropOp31
 70
     1
102
RTVSPost2010Prop32
280
     0
102
RTVSPost2010PropOp32
 70
     1
102
RTVSPost2010Prop33
280
     0
102
RTVSPost2010PropOp33
 70
     1
102
RTVSPost2010Prop34
280
     0
102
RTVSPost2010PropOp34
 70
     1
102
RTVSPost2010Prop35
280
     0
102
RTVSPost2010PropOp35
 70
     1
102
RTVSPost2010Prop36
280
     0
102
RTVSPost2010PropOp36
 70
     1
102
RTVSPost2010Prop37
 90
       50
102
RTVSPost2010PropOp37
 70
     1
102
RTVSPost2010Prop38
140
0.0
102
RTVSPost2010PropOp38
 70
     1
102
RTVSPost2010Prop39
140
1.0
102
RTVSPost2010PropOp39
 70
     1
102
RTVSPost2010Prop40
 90
        0
102
RTVSPost2010PropOp40
 70
     1
102
RTVSPost2010Prop41ColorIndex
 90
       18
102
RTVSPost2010Prop41ColorRGB
 90
        0
102
RTVSPost2010PropOp41
 70
     1
102
RTVSPost2010Prop42
 90
       50
102
RTVSPost2010PropOp42
 70
     1
102
RTVSPost2010Prop43
 90
        3
102
RTVSPost2010PropOp43
 70
     1
102
RTVSPost2010Prop44ColorIndex
 90
        5
102
RTVSPost2010Prop44ColorRGB
 90
      255
102
RTVSPost2010PropOp44
 70
     1
102
RTVSPost2010Prop45
280
     0
102
RTVSPost2010PropOp45
 70
     1
102
RTVSPost2010Prop46
 90
       50
102
RTVSPost2010PropOp46
 70
     1
102
RTVSPost2010Prop47
 90
       50
102
RTVSPost2010PropOp47
 70
     1
102
RTVSPost2010Prop48
 90
       50
102
RTVSPost2010PropOp48
 70
     1
102
RTVSPost2010Prop49
280
     0
102
RTVSPost2010PropOp49
 70
     1
102
RTVSPost2010Prop50
 90
       50
102
RTVSPost2010PropOp50
 70
     1
102
RTVSPost2010Prop51ColorIndex
 90
      256
102
RTVSPost2010Prop51ColorRGB
 90
-16777216
102
RTVSPost2010PropOp51
 70
     0
102
RTVSPost2010Prop52
140
1.0
102
RTVSPost2010PropOp52
 70
     0
102
RTVSPost2010Prop53
 90
        2
102
RTVSPost2010PropOp53
 70
     1
102
RTVSPost2010Prop54
  1
strokes_ogs.tif
102
RTVSPost2010PropOp54
 70
     1
102
RTVSPost2010Prop55
280
     0
102
RTVSPost2010PropOp55
 70
     1
102
RTVSPost2010Prop56
140
1.0
102
RTVSPost2010PropOp56
 70
     1
102
RTVSPost2010Prop57
140
1.0
102
RTVSPost2010PropOp57
 70
     1
102
RTVSPropertyOp0
 70
     1
102
RTVSPropertyOp1
 70
     1
102
RTVSPropertyOp2
 70
     1
102
RTVSPropertyOp3
 70
     1
102
RTVSPropertyOp4
 70
     1
102
RTVSPropertyOp5
 70
     1
102
RTVSPropertyOp6
 70
     1
102
RTVSPropertyOp7
 70
     1
102
RTVSPropertyOp8
 70
     1
102
RTVSPropertyOp9
 70
     1
102
RTVSPropertyOp10
 70
     1
102
RTVSPropertyOp11
 70
     1
102
RTVSPropertyOp12
 70
     1
102
RTVSPropertyOp13
 70
     1
102
RTVSPropertyOp14
 70
     1
102
RTVSPropertyOp15
 70
     1
102
RTVSPropertyOp16
 70
     1
102
RTVSPropertyOp17
 70
     1
102
RTVSPropertyOp18
 70
     1
102
RTVSPropertyOp19
 70
     1
102
RTVSPropertyOp20
 70
     1
102
RTVSPropertyOp21
 70
     1
102
RTVSPropertyOp22
 70
     1
102
RTVSPropertyOp23
 70
     1
102
RTVSPropertyOp24
 70
     1
102
RTVSPropertyOp25
 70
     1
102
RTVSPropertyOp26
 70
     1
102
RTVSPropertyOp27
 70
     1
102
RTVSPropertyOp28
 70
     1
102
RTVSPropertyOp29
 70
     1
102
RTVSPropertyOp30
 70
     1
102
RTVSPropertyOp31
 70
     1
102
RTVSPropertyOp32
 70
     1
102
RTVSPropertyOp33
 70
     1
102
RTVSPropertyOp34
 70
     1
102
RTVSPropertyOp35
 70
     1
102
RTVSPropertyOp36
 70
     1
102
RTVSPropertyOp37
 70
     1
102
RTVSPropertyOp38
 70
     1
102
RTVSPropertyOp39
 70
     1
102
RTVSPropertyOp40
 70
     1
102
RTVSPropertyOp41
 70
     1
102
RTVSPropertyOp42
 70
     1
102
RTVSPropertyOp43
 70
     1
102
RTVSPropertyOp44
 70
     1
102
RTVSPropertyOp45
 70
     1
102
RTVSPropertyOp46
 70
     1
102
RTVSPropertyOp47
 70
     1
102
RTVSPropertyOp48
 70
     1
102
RTVSPropertyOp49
 70
     1
102
RTVSPropertyOp50
 70
     1
102
RTVSPropertyOp51
 70
     0
102
RTVSPropertyOp52
 70
     0
102
RTVSPropertyOp53
 70
     1
102
RTVSPropertyOp54
 70
     1
102
RTVSPropertyOp55
 70
     1
102
RTVSPropertyOp56
 70
     1
102
RTVSPropertyOp57
 70
     1
102
RTVSPropertyOp58
 70
     1
102
RTVSPropertyOp59
 70
     1
102
RTVSPropertyOp60
 70
     1
102
RTVSPropertyOp61
 70
     1
102
RTVSPropertyOp62
 70
     1
  0
XRECORD
  5
D460
102
{ACAD_REACTORS
330
D45F
102
}
330
D45F
100
AcDbXrecord
280
     1
102
RTVSPost2010Prop28
280
     0
102
RTVSPost2010PropOp28
 70
     1
102
RTVSPost2010Prop29
280
     1
102
RTVSPost2010PropOp29
 70
     1
102
RTVSPost2010Prop30
280
     1
102
RTVSPost2010PropOp30
 70
     1
102
RTVSPost2010Prop31
280
     0
102
RTVSPost2010PropOp31
 70
     1
102
RTVSPost2010Prop32
280
     0
102
RTVSPost2010PropOp32
 70
     1
102
RTVSPost2010Prop33
280
     0
102
RTVSPost2010PropOp33
 70
     1
102
RTVSPost2010Prop34
280
     0
102
RTVSPost2010PropOp34
 70
     1
102
RTVSPost2010Prop35
280
     0
102
RTVSPost2010PropOp35
 70
     1
102
RTVSPost2010Prop36
280
     0
102
RTVSPost2010PropOp36
 70
     1
102
RTVSPost2010Prop37
 90
       50
102
RTVSPost2010PropOp37
 70
     1
102
RTVSPost2010Prop38
140
0.0
102
RTVSPost2010PropOp38
 70
     1
102
RTVSPost2010Prop39
140
1.0
102
RTVSPost2010PropOp39
 70
     1
102
RTVSPost2010Prop40
 90
        0
102
RTVSPost2010PropOp40
 70
     1
102
RTVSPost2010Prop41ColorIndex
 90
       18
102
RTVSPost2010Prop41ColorRGB
 90
        0
102
RTVSPost2010PropOp41
 70
     1
102
RTVSPost2010Prop42
 90
       50
102
RTVSPost2010PropOp42
 70
     1
102
RTVSPost2010Prop43
 90
        3
102
RTVSPost2010PropOp43
 70
     1
102
RTVSPost2010Prop44ColorIndex
 90
        5
102
RTVSPost2010Prop44ColorRGB
 90
      255
102
RTVSPost2010PropOp44
 70
     1
102
RTVSPost2010Prop45
280
     0
102
RTVSPost2010PropOp45
 70
     1
102
RTVSPost2010Prop46
 90
       50
102
RTVSPost2010PropOp46
 70
     1
102
RTVSPost2010Prop47
 90
       50
102
RTVSPost2010PropOp47
 70
     1
102
RTVSPost2010Prop48
 90
       50
102
RTVSPost2010PropOp48
 70
     1
102
RTVSPost2010Prop49
280
     0
102
RTVSPost2010PropOp49
 70
     1
102
RTVSPost2010Prop50
 90
       50
102
RTVSPost2010PropOp50
 70
     1
102
RTVSPost2010Prop51ColorIndex
 90
      256
102
RTVSPost2010Prop51ColorRGB
 90
-16777216
102
RTVSPost2010PropOp51
 70
     0
102
RTVSPost2010Prop52
140
1.0
102
RTVSPost2010PropOp52
 70
     0
102
RTVSPost2010Prop53
 90
        2
102
RTVSPost2010PropOp53
 70
     1
102
RTVSPost2010Prop54
  1
strokes_ogs.tif
102
RTVSPost2010PropOp54
 70
     1
102
RTVSPost2010Prop55
280
     0
102
RTVSPost2010PropOp55
 70
     1
102
RTVSPost2010Prop56
140
1.0
102
RTVSPost2010PropOp56
 70
     1
102
RTVSPost2010Prop57
140
1.0
102
RTVSPost2010PropOp57
 70
     1
102
RTVSPropertyOp0
 70
     1
102
RTVSPropertyOp1
 70
     1
102
RTVSPropertyOp2
 70
     1
102
RTVSPropertyOp3
 70
     1
102
RTVSPropertyOp4
 70
     1
102
RTVSPropertyOp5
 70
     1
102
RTVSPropertyOp6
 70
     1
102
RTVSPropertyOp7
 70
     1
102
RTVSPropertyOp8
 70
     1
102
RTVSPropertyOp9
 70
     1
102
RTVSPropertyOp10
 70
     1
102
RTVSPropertyOp11
 70
     1
102
RTVSPropertyOp12
 70
     1
102
RTVSPropertyOp13
 70
     1
102
RTVSPropertyOp14
 70
     1
102
RTVSPropertyOp15
 70
     1
102
RTVSPropertyOp16
 70
     1
102
RTVSPropertyOp17
 70
     1
102
RTVSPropertyOp18
 70
     1
102
RTVSPropertyOp19
 70
     1
102
RTVSPropertyOp20
 70
     1
102
RTVSPropertyOp21
 70
     1
102
RTVSPropertyOp22
 70
     1
102
RTVSPropertyOp23
 70
     1
102
RTVSPropertyOp24
 70
     1
102
RTVSPropertyOp25
 70
     1
102
RTVSPropertyOp26
 70
     1
102
RTVSPropertyOp27
 70
     1
102
RTVSPropertyOp28
 70
     1
102
RTVSPropertyOp29
 70
     1
102
RTVSPropertyOp30
 70
     1
102
RTVSPropertyOp31
 70
     1
102
RTVSPropertyOp32
 70
     1
102
RTVSPropertyOp33
 70
     1
102
RTVSPropertyOp34
 70
     1
102
RTVSPropertyOp35
 70
     1
102
RTVSPropertyOp36
 70
     1
102
RTVSPropertyOp37
 70
     1
102
RTVSPropertyOp38
 70
     1
102
RTVSPropertyOp39
 70
     1
102
RTVSPropertyOp40
 70
     1
102
RTVSPropertyOp41
 70
     1
102
RTVSPropertyOp42
 70
     1
102
RTVSPropertyOp43
 70
     1
102
RTVSPropertyOp44
 70
     1
102
RTVSPropertyOp45
 70
     1
102
RTVSPropertyOp46
 70
     1
102
RTVSPropertyOp47
 70
     1
102
RTVSPropertyOp48
 70
     1
102
RTVSPropertyOp49
 70
     1
102
RTVSPropertyOp50
 70
     1
102
RTVSPropertyOp51
 70
     0
102
RTVSPropertyOp52
 70
     0
102
RTVSPropertyOp53
 70
     1
102
RTVSPropertyOp54
 70
     1
102
RTVSPropertyOp55
 70
     1
102
RTVSPropertyOp56
 70
     1
102
RTVSPropertyOp57
 70
     1
102
RTVSPropertyOp58
 70
     1
102
RTVSPropertyOp59
 70
     1
102
RTVSPropertyOp60
 70
     1
102
RTVSPropertyOp61
 70
     1
102
RTVSPropertyOp62
 70
     1
  0
XRECORD
  5
D45A
102
{ACAD_REACTORS
330
D459
102
}
330
D459
100
AcDbXrecord
280
     1
102
RTVSPost2010Prop28
280
     0
102
RTVSPost2010PropOp28
 70
     1
102
RTVSPost2010Prop29
280
     1
102
RTVSPost2010PropOp29
 70
     1
102
RTVSPost2010Prop30
280
     1
102
RTVSPost2010PropOp30
 70
     1
102
RTVSPost2010Prop31
280
     0
102
RTVSPost2010PropOp31
 70
     1
102
RTVSPost2010Prop32
280
     0
102
RTVSPost2010PropOp32
 70
     1
102
RTVSPost2010Prop33
280
     0
102
RTVSPost2010PropOp33
 70
     1
102
RTVSPost2010Prop34
280
     0
102
RTVSPost2010PropOp34
 70
     1
102
RTVSPost2010Prop35
280
     0
102
RTVSPost2010PropOp35
 70
     1
102
RTVSPost2010Prop36
280
     0
102
RTVSPost2010PropOp36
 70
     1
102
RTVSPost2010Prop37
 90
       50
102
RTVSPost2010PropOp37
 70
     1
102
RTVSPost2010Prop38
140
0.0
102
RTVSPost2010PropOp38
 70
     1
102
RTVSPost2010Prop39
140
1.0
102
RTVSPost2010PropOp39
 70
     1
102
RTVSPost2010Prop40
 90
        0
102
RTVSPost2010PropOp40
 70
     1
102
RTVSPost2010Prop41ColorIndex
 90
       18
102
RTVSPost2010Prop41ColorRGB
 90
        0
102
RTVSPost2010PropOp41
 70
     1
102
RTVSPost2010Prop42
 90
       50
102
RTVSPost2010PropOp42
 70
     1
102
RTVSPost2010Prop43
 90
        3
102
RTVSPost2010PropOp43
 70
     1
102
RTVSPost2010Prop44ColorIndex
 90
        5
102
RTVSPost2010Prop44ColorRGB
 90
      255
102
RTVSPost2010PropOp44
 70
     1
102
RTVSPost2010Prop45
280
     0
102
RTVSPost2010PropOp45
 70
     1
102
RTVSPost2010Prop46
 90
       50
102
RTVSPost2010PropOp46
 70
     1
102
RTVSPost2010Prop47
 90
       50
102
RTVSPost2010PropOp47
 70
     1
102
RTVSPost2010Prop48
 90
       50
102
RTVSPost2010PropOp48
 70
     1
102
RTVSPost2010Prop49
280
     0
102
RTVSPost2010PropOp49
 70
     1
102
RTVSPost2010Prop50
 90
       50
102
RTVSPost2010PropOp50
 70
     1
102
RTVSPost2010Prop51ColorIndex
 90
      256
102
RTVSPost2010Prop51ColorRGB
 90
-16777216
102
RTVSPost2010PropOp51
 70
     0
102
RTVSPost2010Prop52
140
1.0
102
RTVSPost2010PropOp52
 70
     0
102
RTVSPost2010Prop53
 90
        2
102
RTVSPost2010PropOp53
 70
     1
102
RTVSPost2010Prop54
  1
strokes_ogs.tif
102
RTVSPost2010PropOp54
 70
     1
102
RTVSPost2010Prop55
280
     0
102
RTVSPost2010PropOp55
 70
     1
102
RTVSPost2010Prop56
140
1.0
102
RTVSPost2010PropOp56
 70
     1
102
RTVSPost2010Prop57
140
1.0
102
RTVSPost2010PropOp57
 70
     1
102
RTVSPropertyOp0
 70
     1
102
RTVSPropertyOp1
 70
     1
102
RTVSPropertyOp2
 70
     1
102
RTVSPropertyOp3
 70
     1
102
RTVSPropertyOp4
 70
     1
102
RTVSPropertyOp5
 70
     1
102
RTVSPropertyOp6
 70
     1
102
RTVSPropertyOp7
 70
     1
102
RTVSPropertyOp8
 70
     1
102
RTVSPropertyOp9
 70
     1
102
RTVSPropertyOp10
 70
     1
102
RTVSPropertyOp11
 70
     1
102
RTVSPropertyOp12
 70
     1
102
RTVSPropertyOp13
 70
     1
102
RTVSPropertyOp14
 70
     1
102
RTVSPropertyOp15
 70
     1
102
RTVSPropertyOp16
 70
     1
102
RTVSPropertyOp17
 70
     1
102
RTVSPropertyOp18
 70
     1
102
RTVSPropertyOp19
 70
     1
102
RTVSPropertyOp20
 70
     1
102
RTVSPropertyOp21
 70
     1
102
RTVSPropertyOp22
 70
     1
102
RTVSPropertyOp23
 70
     1
102
RTVSPropertyOp24
 70
     1
102
RTVSPropertyOp25
 70
     1
102
RTVSPropertyOp26
 70
     1
102
RTVSPropertyOp27
 70
     1
102
RTVSPropertyOp28
 70
     1
102
RTVSPropertyOp29
 70
     1
102
RTVSPropertyOp30
 70
     1
102
RTVSPropertyOp31
 70
     1
102
RTVSPropertyOp32
 70
     1
102
RTVSPropertyOp33
 70
     1
102
RTVSPropertyOp34
 70
     1
102
RTVSPropertyOp35
 70
     1
102
RTVSPropertyOp36
 70
     1
102
RTVSPropertyOp37
 70
     1
102
RTVSPropertyOp38
 70
     1
102
RTVSPropertyOp39
 70
     1
102
RTVSPropertyOp40
 70
     1
102
RTVSPropertyOp41
 70
     1
102
RTVSPropertyOp42
 70
     1
102
RTVSPropertyOp43
 70
     1
102
RTVSPropertyOp44
 70
     1
102
RTVSPropertyOp45
 70
     1
102
RTVSPropertyOp46
 70
     1
102
RTVSPropertyOp47
 70
     1
102
RTVSPropertyOp48
 70
     1
102
RTVSPropertyOp49
 70
     1
102
RTVSPropertyOp50
 70
     1
102
RTVSPropertyOp51
 70
     0
102
RTVSPropertyOp52
 70
     0
102
RTVSPropertyOp53
 70
     1
102
RTVSPropertyOp54
 70
     1
102
RTVSPropertyOp55
 70
     1
102
RTVSPropertyOp56
 70
     1
102
RTVSPropertyOp57
 70
     1
102
RTVSPropertyOp58
 70
     1
102
RTVSPropertyOp59
 70
     1
102
RTVSPropertyOp60
 70
     1
102
RTVSPropertyOp61
 70
     1
102
RTVSPropertyOp62
 70
     1
  0
XRECORD
  5
D45C
102
{ACAD_REACTORS
330
D45B
102
}
330
D45B
100
AcDbXrecord
280
     1
102
RTVSPost2010Prop28
280
     0
102
RTVSPost2010PropOp28
 70
     1
102
RTVSPost2010Prop29
280
     1
102
RTVSPost2010PropOp29
 70
     1
102
RTVSPost2010Prop30
280
     1
102
RTVSPost2010PropOp30
 70
     1
102
RTVSPost2010Prop31
280
     0
102
RTVSPost2010PropOp31
 70
     1
102
RTVSPost2010Prop32
280
     0
102
RTVSPost2010PropOp32
 70
     1
102
RTVSPost2010Prop33
280
     0
102
RTVSPost2010PropOp33
 70
     1
102
RTVSPost2010Prop34
280
     0
102
RTVSPost2010PropOp34
 70
     1
102
RTVSPost2010Prop35
280
     0
102
RTVSPost2010PropOp35
 70
     1
102
RTVSPost2010Prop36
280
     0
102
RTVSPost2010PropOp36
 70
     1
102
RTVSPost2010Prop37
 90
       50
102
RTVSPost2010PropOp37
 70
     1
102
RTVSPost2010Prop38
140
0.0
102
RTVSPost2010PropOp38
 70
     1
102
RTVSPost2010Prop39
140
1.0
102
RTVSPost2010PropOp39
 70
     1
102
RTVSPost2010Prop40
 90
        0
102
RTVSPost2010PropOp40
 70
     1
102
RTVSPost2010Prop41ColorIndex
 90
       18
102
RTVSPost2010Prop41ColorRGB
 90
        0
102
RTVSPost2010PropOp41
 70
     1
102
RTVSPost2010Prop42
 90
       50
102
RTVSPost2010PropOp42
 70
     1
102
RTVSPost2010Prop43
 90
        3
102
RTVSPost2010PropOp43
 70
     1
102
RTVSPost2010Prop44ColorIndex
 90
        5
102
RTVSPost2010Prop44ColorRGB
 90
      255
102
RTVSPost2010PropOp44
 70
     1
102
RTVSPost2010Prop45
280
     0
102
RTVSPost2010PropOp45
 70
     1
102
RTVSPost2010Prop46
 90
       50
102
RTVSPost2010PropOp46
 70
     1
102
RTVSPost2010Prop47
 90
       50
102
RTVSPost2010PropOp47
 70
     1
102
RTVSPost2010Prop48
 90
       50
102
RTVSPost2010PropOp48
 70
     1
102
RTVSPost2010Prop49
280
     0
102
RTVSPost2010PropOp49
 70
     1
102
RTVSPost2010Prop50
 90
       50
102
RTVSPost2010PropOp50
 70
     1
102
RTVSPost2010Prop51ColorIndex
 90
      256
102
RTVSPost2010Prop51ColorRGB
 90
-16777216
102
RTVSPost2010PropOp51
 70
     0
102
RTVSPost2010Prop52
140
1.0
102
RTVSPost2010PropOp52
 70
     0
102
RTVSPost2010Prop53
 90
        2
102
RTVSPost2010PropOp53
 70
     1
102
RTVSPost2010Prop54
  1
strokes_ogs.tif
102
RTVSPost2010PropOp54
 70
     1
102
RTVSPost2010Prop55
280
     0
102
RTVSPost2010PropOp55
 70
     1
102
RTVSPost2010Prop56
140
1.0
102
RTVSPost2010PropOp56
 70
     1
102
RTVSPost2010Prop57
140
1.0
102
RTVSPost2010PropOp57
 70
     1
102
RTVSPropertyOp0
 70
     1
102
RTVSPropertyOp1
 70
     1
102
RTVSPropertyOp2
 70
     1
102
RTVSPropertyOp3
 70
     1
102
RTVSPropertyOp4
 70
     1
102
RTVSPropertyOp5
 70
     1
102
RTVSPropertyOp6
 70
     1
102
RTVSPropertyOp7
 70
     1
102
RTVSPropertyOp8
 70
     1
102
RTVSPropertyOp9
 70
     1
102
RTVSPropertyOp10
 70
     1
102
RTVSPropertyOp11
 70
     1
102
RTVSPropertyOp12
 70
     1
102
RTVSPropertyOp13
 70
     1
102
RTVSPropertyOp14
 70
     1
102
RTVSPropertyOp15
 70
     1
102
RTVSPropertyOp16
 70
     1
102
RTVSPropertyOp17
 70
     1
102
RTVSPropertyOp18
 70
     1
102
RTVSPropertyOp19
 70
     1
102
RTVSPropertyOp20
 70
     1
102
RTVSPropertyOp21
 70
     1
102
RTVSPropertyOp22
 70
     1
102
RTVSPropertyOp23
 70
     1
102
RTVSPropertyOp24
 70
     1
102
RTVSPropertyOp25
 70
     1
102
RTVSPropertyOp26
 70
     1
102
RTVSPropertyOp27
 70
     1
102
RTVSPropertyOp28
 70
     1
102
RTVSPropertyOp29
 70
     1
102
RTVSPropertyOp30
 70
     1
102
RTVSPropertyOp31
 70
     1
102
RTVSPropertyOp32
 70
     1
102
RTVSPropertyOp33
 70
     1
102
RTVSPropertyOp34
 70
     1
102
RTVSPropertyOp35
 70
     1
102
RTVSPropertyOp36
 70
     1
102
RTVSPropertyOp37
 70
     1
102
RTVSPropertyOp38
 70
     1
102
RTVSPropertyOp39
 70
     1
102
RTVSPropertyOp40
 70
     1
102
RTVSPropertyOp41
 70
     1
102
RTVSPropertyOp42
 70
     1
102
RTVSPropertyOp43
 70
     1
102
RTVSPropertyOp44
 70
     1
102
RTVSPropertyOp45
 70
     1
102
RTVSPropertyOp46
 70
     1
102
RTVSPropertyOp47
 70
     1
102
RTVSPropertyOp48
 70
     1
102
RTVSPropertyOp49
 70
     1
102
RTVSPropertyOp50
 70
     1
102
RTVSPropertyOp51
 70
     0
102
RTVSPropertyOp52
 70
     0
102
RTVSPropertyOp53
 70
     1
102
RTVSPropertyOp54
 70
     1
102
RTVSPropertyOp55
 70
     1
102
RTVSPropertyOp56
 70
     1
102
RTVSPropertyOp57
 70
     1
102
RTVSPropertyOp58
 70
     1
102
RTVSPropertyOp59
 70
     1
102
RTVSPropertyOp60
 70
     1
102
RTVSPropertyOp61
 70
     1
102
RTVSPropertyOp62
 70
     1
  0
XRECORD
  5
D452
102
{ACAD_REACTORS
330
D451
102
}
330
D451
100
AcDbXrecord
280
     1
102
RTVSPost2010Prop28
280
     0
102
RTVSPost2010PropOp28
 70
     1
102
RTVSPost2010Prop29
280
     1
102
RTVSPost2010PropOp29
 70
     1
102
RTVSPost2010Prop30
280
     1
102
RTVSPost2010PropOp30
 70
     1
102
RTVSPost2010Prop31
280
     0
102
RTVSPost2010PropOp31
 70
     1
102
RTVSPost2010Prop32
280
     0
102
RTVSPost2010PropOp32
 70
     1
102
RTVSPost2010Prop33
280
     0
102
RTVSPost2010PropOp33
 70
     1
102
RTVSPost2010Prop34
280
     0
102
RTVSPost2010PropOp34
 70
     1
102
RTVSPost2010Prop35
280
     0
102
RTVSPost2010PropOp35
 70
     1
102
RTVSPost2010Prop36
280
     0
102
RTVSPost2010PropOp36
 70
     1
102
RTVSPost2010Prop37
 90
       50
102
RTVSPost2010PropOp37
 70
     1
102
RTVSPost2010Prop38
140
0.0
102
RTVSPost2010PropOp38
 70
     1
102
RTVSPost2010Prop39
140
1.0
102
RTVSPost2010PropOp39
 70
     1
102
RTVSPost2010Prop40
 90
        0
102
RTVSPost2010PropOp40
 70
     1
102
RTVSPost2010Prop41ColorIndex
 90
       18
102
RTVSPost2010Prop41ColorRGB
 90
        0
102
RTVSPost2010PropOp41
 70
     1
102
RTVSPost2010Prop42
 90
       50
102
RTVSPost2010PropOp42
 70
     1
102
RTVSPost2010Prop43
 90
        3
102
RTVSPost2010PropOp43
 70
     1
102
RTVSPost2010Prop44ColorIndex
 90
        5
102
RTVSPost2010Prop44ColorRGB
 90
      255
102
RTVSPost2010PropOp44
 70
     1
102
RTVSPost2010Prop45
280
     0
102
RTVSPost2010PropOp45
 70
     1
102
RTVSPost2010Prop46
 90
       50
102
RTVSPost2010PropOp46
 70
     1
102
RTVSPost2010Prop47
 90
       50
102
RTVSPost2010PropOp47
 70
     1
102
RTVSPost2010Prop48
 90
       50
102
RTVSPost2010PropOp48
 70
     1
102
RTVSPost2010Prop49
280
     0
102
RTVSPost2010PropOp49
 70
     1
102
RTVSPost2010Prop50
 90
       50
102
RTVSPost2010PropOp50
 70
     1
102
RTVSPost2010Prop51ColorIndex
 90
      256
102
RTVSPost2010Prop51ColorRGB
 90
-16777216
102
RTVSPost2010PropOp51
 70
     0
102
RTVSPost2010Prop52
140
1.0
102
RTVSPost2010PropOp52
 70
     0
102
RTVSPost2010Prop53
 90
        2
102
RTVSPost2010PropOp53
 70
     1
102
RTVSPost2010Prop54
  1
strokes_ogs.tif
102
RTVSPost2010PropOp54
 70
     1
102
RTVSPost2010Prop55
280
     0
102
RTVSPost2010PropOp55
 70
     1
102
RTVSPost2010Prop56
140
1.0
102
RTVSPost2010PropOp56
 70
     1
102
RTVSPost2010Prop57
140
1.0
102
RTVSPost2010PropOp57
 70
     1
102
RTVSPropertyOp0
 70
     1
102
RTVSPropertyOp1
 70
     1
102
RTVSPropertyOp2
 70
     1
102
RTVSPropertyOp3
 70
     1
102
RTVSPropertyOp4
 70
     1
102
RTVSPropertyOp5
 70
     1
102
RTVSPropertyOp6
 70
     1
102
RTVSPropertyOp7
 70
     1
102
RTVSPropertyOp8
 70
     1
102
RTVSPropertyOp9
 70
     1
102
RTVSPropertyOp10
 70
     1
102
RTVSPropertyOp11
 70
     1
102
RTVSPropertyOp12
 70
     1
102
RTVSPropertyOp13
 70
     1
102
RTVSPropertyOp14
 70
     1
102
RTVSPropertyOp15
 70
     1
102
RTVSPropertyOp16
 70
     1
102
RTVSPropertyOp17
 70
     1
102
RTVSPropertyOp18
 70
     1
102
RTVSPropertyOp19
 70
     1
102
RTVSPropertyOp20
 70
     1
102
RTVSPropertyOp21
 70
     1
102
RTVSPropertyOp22
 70
     1
102
RTVSPropertyOp23
 70
     1
102
RTVSPropertyOp24
 70
     1
102
RTVSPropertyOp25
 70
     1
102
RTVSPropertyOp26
 70
     1
102
RTVSPropertyOp27
 70
     1
102
RTVSPropertyOp28
 70
     1
102
RTVSPropertyOp29
 70
     1
102
RTVSPropertyOp30
 70
     1
102
RTVSPropertyOp31
 70
     1
102
RTVSPropertyOp32
 70
     1
102
RTVSPropertyOp33
 70
     1
102
RTVSPropertyOp34
 70
     1
102
RTVSPropertyOp35
 70
     1
102
RTVSPropertyOp36
 70
     1
102
RTVSPropertyOp37
 70
     1
102
RTVSPropertyOp38
 70
     1
102
RTVSPropertyOp39
 70
     1
102
RTVSPropertyOp40
 70
     1
102
RTVSPropertyOp41
 70
     1
102
RTVSPropertyOp42
 70
     1
102
RTVSPropertyOp43
 70
     1
102
RTVSPropertyOp44
 70
     1
102
RTVSPropertyOp45
 70
     1
102
RTVSPropertyOp46
 70
     1
102
RTVSPropertyOp47
 70
     1
102
RTVSPropertyOp48
 70
     1
102
RTVSPropertyOp49
 70
     1
102
RTVSPropertyOp50
 70
     1
102
RTVSPropertyOp51
 70
     0
102
RTVSPropertyOp52
 70
     0
102
RTVSPropertyOp53
 70
     1
102
RTVSPropertyOp54
 70
     1
102
RTVSPropertyOp55
 70
     1
102
RTVSPropertyOp56
 70
     1
102
RTVSPropertyOp57
 70
     1
102
RTVSPropertyOp58
 70
     1
102
RTVSPropertyOp59
 70
     1
102
RTVSPropertyOp60
 70
     1
102
RTVSPropertyOp61
 70
     1
102
RTVSPropertyOp62
 70
     1
  0
XRECORD
  5
D446
102
{ACAD_REACTORS
330
D445
102
}
330
D445
100
AcDbXrecord
280
     1
102
RTVSPost2010Prop28
280
     0
102
RTVSPost2010PropOp28
 70
     1
102
RTVSPost2010Prop29
280
     1
102
RTVSPost2010PropOp29
 70
     1
102
RTVSPost2010Prop30
280
     1
102
RTVSPost2010PropOp30
 70
     1
102
RTVSPost2010Prop31
280
     0
102
RTVSPost2010PropOp31
 70
     1
102
RTVSPost2010Prop32
280
     0
102
RTVSPost2010PropOp32
 70
     1
102
RTVSPost2010Prop33
280
     0
102
RTVSPost2010PropOp33
 70
     1
102
RTVSPost2010Prop34
280
     0
102
RTVSPost2010PropOp34
 70
     1
102
RTVSPost2010Prop35
280
     0
102
RTVSPost2010PropOp35
 70
     1
102
RTVSPost2010Prop36
280
     0
102
RTVSPost2010PropOp36
 70
     1
102
RTVSPost2010Prop37
 90
       50
102
RTVSPost2010PropOp37
 70
     1
102
RTVSPost2010Prop38
140
0.0
102
RTVSPost2010PropOp38
 70
     1
102
RTVSPost2010Prop39
140
1.0
102
RTVSPost2010PropOp39
 70
     1
102
RTVSPost2010Prop40
 90
        0
102
RTVSPost2010PropOp40
 70
     1
102
RTVSPost2010Prop41ColorIndex
 90
       18
102
RTVSPost2010Prop41ColorRGB
 90
        0
102
RTVSPost2010PropOp41
 70
     1
102
RTVSPost2010Prop42
 90
       50
102
RTVSPost2010PropOp42
 70
     1
102
RTVSPost2010Prop43
 90
        3
102
RTVSPost2010PropOp43
 70
     1
102
RTVSPost2010Prop44ColorIndex
 90
        5
102
RTVSPost2010Prop44ColorRGB
 90
      255
102
RTVSPost2010PropOp44
 70
     1
102
RTVSPost2010Prop45
280
     0
102
RTVSPost2010PropOp45
 70
     1
102
RTVSPost2010Prop46
 90
       50
102
RTVSPost2010PropOp46
 70
     1
102
RTVSPost2010Prop47
 90
       50
102
RTVSPost2010PropOp47
 70
     1
102
RTVSPost2010Prop48
 90
       50
102
RTVSPost2010PropOp48
 70
     1
102
RTVSPost2010Prop49
280
     0
102
RTVSPost2010PropOp49
 70
     1
102
RTVSPost2010Prop50
 90
       50
102
RTVSPost2010PropOp50
 70
     1
102
RTVSPost2010Prop51ColorIndex
 90
      256
102
RTVSPost2010Prop51ColorRGB
 90
-16777216
102
RTVSPost2010PropOp51
 70
     0
102
RTVSPost2010Prop52
140
1.0
102
RTVSPost2010PropOp52
 70
     0
102
RTVSPost2010Prop53
 90
        2
102
RTVSPost2010PropOp53
 70
     1
102
RTVSPost2010Prop54
  1
strokes_ogs.tif
102
RTVSPost2010PropOp54
 70
     1
102
RTVSPost2010Prop55
280
     0
102
RTVSPost2010PropOp55
 70
     1
102
RTVSPost2010Prop56
140
1.0
102
RTVSPost2010PropOp56
 70
     1
102
RTVSPost2010Prop57
140
1.0
102
RTVSPost2010PropOp57
 70
     1
102
RTVSPropertyOp0
 70
     1
102
RTVSPropertyOp1
 70
     1
102
RTVSPropertyOp2
 70
     1
102
RTVSPropertyOp3
 70
     1
102
RTVSPropertyOp4
 70
     1
102
RTVSPropertyOp5
 70
     1
102
RTVSPropertyOp6
 70
     1
102
RTVSPropertyOp7
 70
     1
102
RTVSPropertyOp8
 70
     1
102
RTVSPropertyOp9
 70
     1
102
RTVSPropertyOp10
 70
     1
102
RTVSPropertyOp11
 70
     1
102
RTVSPropertyOp12
 70
     1
102
RTVSPropertyOp13
 70
     1
102
RTVSPropertyOp14
 70
     1
102
RTVSPropertyOp15
 70
     1
102
RTVSPropertyOp16
 70
     1
102
RTVSPropertyOp17
 70
     1
102
RTVSPropertyOp18
 70
     1
102
RTVSPropertyOp19
 70
     1
102
RTVSPropertyOp20
 70
     1
102
RTVSPropertyOp21
 70
     1
102
RTVSPropertyOp22
 70
     1
102
RTVSPropertyOp23
 70
     1
102
RTVSPropertyOp24
 70
     1
102
RTVSPropertyOp25
 70
     1
102
RTVSPropertyOp26
 70
     1
102
RTVSPropertyOp27
 70
     1
102
RTVSPropertyOp28
 70
     1
102
RTVSPropertyOp29
 70
     1
102
RTVSPropertyOp30
 70
     1
102
RTVSPropertyOp31
 70
     1
102
RTVSPropertyOp32
 70
     1
102
RTVSPropertyOp33
 70
     1
102
RTVSPropertyOp34
 70
     1
102
RTVSPropertyOp35
 70
     1
102
RTVSPropertyOp36
 70
     1
102
RTVSPropertyOp37
 70
     1
102
RTVSPropertyOp38
 70
     1
102
RTVSPropertyOp39
 70
     1
102
RTVSPropertyOp40
 70
     1
102
RTVSPropertyOp41
 70
     1
102
RTVSPropertyOp42
 70
     1
102
RTVSPropertyOp43
 70
     1
102
RTVSPropertyOp44
 70
     1
102
RTVSPropertyOp45
 70
     1
102
RTVSPropertyOp46
 70
     1
102
RTVSPropertyOp47
 70
     1
102
RTVSPropertyOp48
 70
     1
102
RTVSPropertyOp49
 70
     1
102
RTVSPropertyOp50
 70
     1
102
RTVSPropertyOp51
 70
     0
102
RTVSPropertyOp52
 70
     0
102
RTVSPropertyOp53
 70
     1
102
RTVSPropertyOp54
 70
     1
102
RTVSPropertyOp55
 70
     1
102
RTVSPropertyOp56
 70
     1
102
RTVSPropertyOp57
 70
     1
102
RTVSPropertyOp58
 70
     1
102
RTVSPropertyOp59
 70
     1
102
RTVSPropertyOp60
 70
     1
102
RTVSPropertyOp61
 70
     1
102
RTVSPropertyOp62
 70
     1
  0
XRECORD
  5
D45E
102
{ACAD_REACTORS
330
D45D
102
}
330
D45D
100
AcDbXrecord
280
     1
102
RTVSPost2010Prop28
280
     0
102
RTVSPost2010PropOp28
 70
     1
102
RTVSPost2010Prop29
280
     1
102
RTVSPost2010PropOp29
 70
     1
102
RTVSPost2010Prop30
280
     1
102
RTVSPost2010PropOp30
 70
     1
102
RTVSPost2010Prop31
280
     0
102
RTVSPost2010PropOp31
 70
     1
102
RTVSPost2010Prop32
280
     0
102
RTVSPost2010PropOp32
 70
     1
102
RTVSPost2010Prop33
280
     0
102
RTVSPost2010PropOp33
 70
     1
102
RTVSPost2010Prop34
280
     0
102
RTVSPost2010PropOp34
 70
     1
102
RTVSPost2010Prop35
280
     0
102
RTVSPost2010PropOp35
 70
     1
102
RTVSPost2010Prop36
280
     0
102
RTVSPost2010PropOp36
 70
     1
102
RTVSPost2010Prop37
 90
       50
102
RTVSPost2010PropOp37
 70
     1
102
RTVSPost2010Prop38
140
0.0
102
RTVSPost2010PropOp38
 70
     1
102
RTVSPost2010Prop39
140
1.0
102
RTVSPost2010PropOp39
 70
     1
102
RTVSPost2010Prop40
 90
        0
102
RTVSPost2010PropOp40
 70
     1
102
RTVSPost2010Prop41ColorIndex
 90
       18
102
RTVSPost2010Prop41ColorRGB
 90
        0
102
RTVSPost2010PropOp41
 70
     1
102
RTVSPost2010Prop42
 90
       50
102
RTVSPost2010PropOp42
 70
     1
102
RTVSPost2010Prop43
 90
        3
102
RTVSPost2010PropOp43
 70
     1
102
RTVSPost2010Prop44ColorIndex
 90
        5
102
RTVSPost2010Prop44ColorRGB
 90
      255
102
RTVSPost2010PropOp44
 70
     1
102
RTVSPost2010Prop45
280
     0
102
RTVSPost2010PropOp45
 70
     1
102
RTVSPost2010Prop46
 90
       50
102
RTVSPost2010PropOp46
 70
     1
102
RTVSPost2010Prop47
 90
       50
102
RTVSPost2010PropOp47
 70
     1
102
RTVSPost2010Prop48
 90
       50
102
RTVSPost2010PropOp48
 70
     1
102
RTVSPost2010Prop49
280
     0
102
RTVSPost2010PropOp49
 70
     1
102
RTVSPost2010Prop50
 90
       50
102
RTVSPost2010PropOp50
 70
     1
102
RTVSPost2010Prop51ColorIndex
 90
      256
102
RTVSPost2010Prop51ColorRGB
 90
-16777216
102
RTVSPost2010PropOp51
 70
     0
102
RTVSPost2010Prop52
140
1.0
102
RTVSPost2010PropOp52
 70
     0
102
RTVSPost2010Prop53
 90
        2
102
RTVSPost2010PropOp53
 70
     1
102
RTVSPost2010Prop54
  1
strokes_ogs.tif
102
RTVSPost2010PropOp54
 70
     1
102
RTVSPost2010Prop55
280
     0
102
RTVSPost2010PropOp55
 70
     1
102
RTVSPost2010Prop56
140
1.0
102
RTVSPost2010PropOp56
 70
     1
102
RTVSPost2010Prop57
140
1.0
102
RTVSPost2010PropOp57
 70
     1
102
RTVSPropertyOp0
 70
     1
102
RTVSPropertyOp1
 70
     1
102
RTVSPropertyOp2
 70
     1
102
RTVSPropertyOp3
 70
     1
102
RTVSPropertyOp4
 70
     1
102
RTVSPropertyOp5
 70
     1
102
RTVSPropertyOp6
 70
     1
102
RTVSPropertyOp7
 70
     1
102
RTVSPropertyOp8
 70
     1
102
RTVSPropertyOp9
 70
     1
102
RTVSPropertyOp10
 70
     1
102
RTVSPropertyOp11
 70
     1
102
RTVSPropertyOp12
 70
     1
102
RTVSPropertyOp13
 70
     1
102
RTVSPropertyOp14
 70
     1
102
RTVSPropertyOp15
 70
     1
102
RTVSPropertyOp16
 70
     1
102
RTVSPropertyOp17
 70
     1
102
RTVSPropertyOp18
 70
     1
102
RTVSPropertyOp19
 70
     1
102
RTVSPropertyOp20
 70
     1
102
RTVSPropertyOp21
 70
     1
102
RTVSPropertyOp22
 70
     1
102
RTVSPropertyOp23
 70
     1
102
RTVSPropertyOp24
 70
     1
102
RTVSPropertyOp25
 70
     1
102
RTVSPropertyOp26
 70
     1
102
RTVSPropertyOp27
 70
     1
102
RTVSPropertyOp28
 70
     1
102
RTVSPropertyOp29
 70
     1
102
RTVSPropertyOp30
 70
     1
102
RTVSPropertyOp31
 70
     1
102
RTVSPropertyOp32
 70
     1
102
RTVSPropertyOp33
 70
     1
102
RTVSPropertyOp34
 70
     1
102
RTVSPropertyOp35
 70
     1
102
RTVSPropertyOp36
 70
     1
102
RTVSPropertyOp37
 70
     1
102
RTVSPropertyOp38
 70
     1
102
RTVSPropertyOp39
 70
     1
102
RTVSPropertyOp40
 70
     1
102
RTVSPropertyOp41
 70
     1
102
RTVSPropertyOp42
 70
     1
102
RTVSPropertyOp43
 70
     1
102
RTVSPropertyOp44
 70
     1
102
RTVSPropertyOp45
 70
     1
102
RTVSPropertyOp46
 70
     1
102
RTVSPropertyOp47
 70
     1
102
RTVSPropertyOp48
 70
     1
102
RTVSPropertyOp49
 70
     1
102
RTVSPropertyOp50
 70
     1
102
RTVSPropertyOp51
 70
     0
102
RTVSPropertyOp52
 70
     0
102
RTVSPropertyOp53
 70
     1
102
RTVSPropertyOp54
 70
     1
102
RTVSPropertyOp55
 70
     1
102
RTVSPropertyOp56
 70
     1
102
RTVSPropertyOp57
 70
     1
102
RTVSPropertyOp58
 70
     1
102
RTVSPropertyOp59
 70
     1
102
RTVSPropertyOp60
 70
     1
102
RTVSPropertyOp61
 70
     1
102
RTVSPropertyOp62
 70
     1
  0
ENDSEC
  0
EOF
