  0
SECTION
  2
HEADER
  9
$ACADVER
  1
AC1015
  9
$ACADMAINTVER
 70
    20
  9
$DWGCODEPAGE
  3
ANSI_932
  9
$INSBASE
 10
0.0
 20
0.0
 30
0.0
  9
$EXTMIN
 10
10.000002
 20
10.000001
 30
0.0
  9
$EXTMAX
 10
583.0576980000001
 20
539.3567009999998
 30
0.0
  9
$LIMMIN
 10
0.0
 20
0.0
  9
$LIMMAX
 10
871.2000000000001
 20
600.6
  9
$ORTHOMODE
 70
     1
  9
$REGENMODE
 70
     1
  9
$FILLMODE
 70
     1
  9
$QTEXTMODE
 70
     0
  9
$MIRRTEXT
 70
     1
  9
$LTSCALE
 40
20.0
  9
$ATTMODE
 70
     1
  9
$TEXTSIZE
 40
5.0
  9
$TRACEWID
 40
1.0
  9
$TEXTSTYLE
  7
STANDARD
  9
$CLAYER
  8
0
  9
$CELTYPE
  6
BYLAYER
  9
$CECOLOR
 62
   256
  9
$CELTSCALE
 40
1.0
  9
$DISPSILH
 70
     0
  9
$DIMSCALE
 40
1.0
  9
$DIMASZ
 40
2.5
  9
$DIMEXO
 40
1.0
  9
$DIMDLI
 40
10.0
  9
$DIMRND
 40
0.0
  9
$DIMDLE
 40
0.0
  9
$DIMEXE
 40
1.0
  9
$DIMTP
 40
0.0
  9
$DIMTM
 40
0.0
  9
$DIMTXT
 40
3.2
  9
$DIMCEN
 40
0.0
  9
$DIMTSZ
 40
0.0
  9
$DIMTOL
 70
     0
  9
$DIMLIM
 70
     0
  9
$DIMTIH
 70
     0
  9
$DIMTOH
 70
     0
  9
$DIMSE1
 70
     0
  9
$DIMSE2
 70
     0
  9
$DIMTAD
 70
     3
  9
$DIMZIN
 70
     8
  9
$DIMBLK
  1

  9
$DIMASO
 70
     1
  9
$DIMSHO
 70
     1
  9
$DIMPOST
  1

  9
$DIMAPOST
  1

  9
$DIMALT
 70
     0
  9
$DIMALTD
 70
     2
  9
$DIMALTF
 40
25.4
  9
$DIMLFAC
 40
1.0
  9
$DIMTOFL
 70
     1
  9
$DIMTVP
 40
0.0
  9
$DIMTIX
 70
     0
  9
$DIMSOXD
 70
     0
  9
$DIMSAH
 70
     1
  9
$DIMBLK1
  1
OPEN
  9
$DIMBLK2
  1
OPEN
  9
$DIMSTYLE
  2
STANDARD
  9
$DIMCLRD
 70
     0
  9
$DIMCLRE
 70
     0
  9
$DIMCLRT
 70
     0
  9
$DIMTFAC
 40
1.0
  9
$DIMGAP
 40
1.0
  9
$DIMJUST
 70
     0
  9
$DIMSD1
 70
     0
  9
$DIMSD2
 70
     0
  9
$DIMTOLJ
 70
     1
  9
$DIMTZIN
 70
     0
  9
$DIMALTZ
 70
     0
  9
$DIMALTTZ
 70
     0
  9
$DIMUPT
 70
     0
  9
$DIMDEC
 70
     4
  9
$DIMTDEC
 70
     4
  9
$DIMALTU
 70
     2
  9
$DIMALTTD
 70
     2
  9
$DIMTXSTY
  7
STANDARD
  9
$DIMAUNIT
 70
     0
  9
$DIMADEC
 70
     0
  9
$DIMALTRND
 40
0.0
  9
$DIMAZIN
 70
     0
  9
$DIMDSEP
 70
    46
  9
$DIMATFIT
 70
     3
  9
$DIMFRAC
 70
     0
  9
$DIMLDRBLK
  1
OPEN
  9
$DIMLUNIT
 70
     2
  9
$DIMLWD
 70
    -2
  9
$DIMLWE
 70
    -2
  9
$DIMTMOVE
 70
     0
  9
$LUNITS
 70
     2
  9
$LUPREC
 70
     4
  9
$SKETCHINC
 40
1.0
  9
$FILLETRAD
 40
0.0
  9
$AUNITS
 70
     0
  9
$AUPREC
 70
     2
  9
$MENU
  1
.
  9
$ELEVATION
 40
0.0
  9
$PELEVATION
 40
0.0
  9
$THICKNESS
 40
0.0
  9
$LIMCHECK
 70
     0
  9
$CHAMFERA
 40
10.0
  9
$CHAMFERB
 40
10.0
  9
$CHAMFERC
 40
0.0
  9
$CHAMFERD
 40
0.0
  9
$SKPOLY
 70
     0
  9
$TDCREATE
 40
2451347.389538657
  9
$TDUCREATE
 40
2451347.014538657
  9
$TDUPDATE
 40
2457192.643757986
  9
$TDUUPDATE
 40
2457192.268757986
  9
$TDINDWG
 40
0.0233101042
  9
$TDUSRTIMER
 40
0.0233097801
  9
$USRTIMER
 70
     1
  9
$ANGBASE
 50
0.0
  9
$ANGDIR
 70
     0
  9
$PDMODE
 70
     0
  9
$PDSIZE
 40
0.0
  9
$PLINEWID
 40
0.0
  9
$SPLFRAME
 70
     0
  9
$SPLINETYPE
 70
     6
  9
$SPLINESEGS
 70
     8
  9
$HANDSEED
  5
D04C
  9
$SURFTAB1
 70
     6
  9
$SURFTAB2
 70
     6
  9
$SURFTYPE
 70
     6
  9
$SURFU
 70
     6
  9
$SURFV
 70
     6
  9
$UCSBASE
  2

  9
$UCSNAME
  2

  9
$UCSORG
 10
0.0
 20
0.0
 30
0.0
  9
$UCSXDIR
 10
1.0
 20
0.0
 30
0.0
  9
$UCSYDIR
 10
0.0
 20
1.0
 30
0.0
  9
$UCSORTHOREF
  2

  9
$UCSORTHOVIEW
 70
     0
  9
$UCSORGTOP
 10
0.0
 20
0.0
 30
0.0
  9
$UCSORGBOTTOM
 10
0.0
 20
0.0
 30
0.0
  9
$UCSORGLEFT
 10
0.0
 20
0.0
 30
0.0
  9
$UCSORGRIGHT
 10
0.0
 20
0.0
 30
0.0
  9
$UCSORGFRONT
 10
0.0
 20
0.0
 30
0.0
  9
$UCSORGBACK
 10
0.0
 20
0.0
 30
0.0
  9
$PUCSBASE
  2

  9
$PUCSNAME
  2

  9
$PUCSORG
 10
0.0
 20
0.0
 30
0.0
  9
$PUCSXDIR
 10
1.0
 20
0.0
 30
0.0
  9
$PUCSYDIR
 10
0.0
 20
1.0
 30
0.0
  9
$PUCSORTHOREF
  2

  9
$PUCSORTHOVIEW
 70
     0
  9
$PUCSORGTOP
 10
0.0
 20
0.0
 30
0.0
  9
$PUCSORGBOTTOM
 10
0.0
 20
0.0
 30
0.0
  9
$PUCSORGLEFT
 10
0.0
 20
0.0
 30
0.0
  9
$PUCSORGRIGHT
 10
0.0
 20
0.0
 30
0.0
  9
$PUCSORGFRONT
 10
0.0
 20
0.0
 30
0.0
  9
$PUCSORGBACK
 10
0.0
 20
0.0
 30
0.0
  9
$USERI1
 70
     0
  9
$USERI2
 70
     0
  9
$USERI3
 70
     0
  9
$USERI4
 70
     0
  9
$USERI5
 70
     0
  9
$USERR1
 40
0.0
  9
$USERR2
 40
0.0
  9
$USERR3
 40
0.0
  9
$USERR4
 40
0.0
  9
$USERR5
 40
0.0
  9
$WORLDVIEW
 70
     1
  9
$SHADEDGE
 70
     3
  9
$SHADEDIF
 70
    70
  9
$TILEMODE
 70
     1
  9
$MAXACTVP
 70
    16
  9
$PINSBASE
 10
0.0
 20
0.0
 30
0.0
  9
$PLIMCHECK
 70
     0
  9
$PEXTMIN
 10
1.000000000000000E+20
 20
1.000000000000000E+20
 30
1.000000000000000E+20
  9
$PEXTMAX
 10
-1.000000000000000E+20
 20
-1.000000000000000E+20
 30
-1.000000000000000E+20
  9
$PLIMMIN
 10
0.0
 20
0.0
  9
$PLIMMAX
 10
420.0
 20
297.0
  9
$UNITMODE
 70
     0
  9
$VISRETAIN
 70
     0
  9
$PLINEGEN
 70
     0
  9
$PSLTSCALE
 70
     0
  9
$TREEDEPTH
 70
  3020
  9
$CMLSTYLE
  2
STANDARD
  9
$CMLJUST
 70
     0
  9
$CMLSCALE
 40
1.0
  9
$PROXYGRAPHICS
 70
     1
  9
$MEASUREMENT
 70
     0
  9
$CELWEIGHT
370
    -1
  9
$ENDCAPS
280
     0
  9
$JOINSTYLE
280
     0
  9
$LWDISPLAY
290
     0
  9
$INSUNITS
 70
     0
  9
$HYPERLINKBASE
  1

  9
$STYLESHEET
  1

  9
$XEDIT
290
     1
  9
$CEPSNTYPE
380
     0
  9
$PSTYLEMODE
290
     1
  9
$FINGERPRINTGUID
  2
{1707AA5F-1400-4558-AC34-178EE87E02A7}
  9
$VERSIONGUID
  2
{CCE69447-2BE0-4735-A9C3-2A228CB42297}
  9
$EXTNAMES
290
     1
  9
$PSVPSCALE
 40
0.0
  9
$OLESTARTUP
290
     0
  0
ENDSEC
  0
SECTION
  2
CLASSES
  0
CLASS
  1
ACDBDICTIONARYWDFLT
  2
AcDbDictionaryWithDefault
  3
ObjectDBX Classes
 90
        0
280
     0
281
     0
  0
CLASS
  1
ACDBPLACEHOLDER
  2
AcDbPlaceHolder
  3
ObjectDBX Classes
 90
        0
280
     0
281
     0
  0
CLASS
  1
LAYOUT
  2
AcDbLayout
  3
ObjectDBX Classes
 90
        0
280
     0
281
     0
  0
CLASS
  1
DICTIONARYVAR
  2
AcDbDictionaryVar
  3
ObjectDBX Classes
 90
        0
280
     0
281
     0
  0
CLASS
  1
MATERIAL
  2
AcDbMaterial
  3
ObjectDBX Classes
 90
     1153
280
     0
281
     0
  0
CLASS
  1
VISUALSTYLE
  2
AcDbVisualStyle
  3
ObjectDBX Classes
 90
     4095
280
     0
281
     0
  0
CLASS
  1
TABLESTYLE
  2
AcDbTableStyle
  3
ObjectDBX Classes
 90
     4095
280
     0
281
     0
  0
CLASS
  1
SCALE
  2
AcDbScale
  3
ObjectDBX Classes
 90
     1153
280
     0
281
     0
  0
CLASS
  1
MLEADERSTYLE
  2
AcDbMLeaderStyle
  3
ACDB_MLEADERSTYLE_CLASS
 90
     4095
280
     0
281
     0
  0
CLASS
  1
ACDBSECTIONVIEWSTYLE
  2
AcDbSectionViewStyle
  3
ObjectDBX Classes
 90
     1025
280
     0
281
     0
  0
CLASS
  1
ACDBDETAILVIEWSTYLE
  2
AcDbDetailViewStyle
  3
ObjectDBX Classes
 90
     1025
280
     0
281
     0
  0
CLASS
  1
CELLSTYLEMAP
  2
AcDbCellStyleMap
  3
ObjectDBX Classes
 90
     1152
280
     0
281
     0
  0
ENDSEC
  0
SECTION
  2
TABLES
  0
TABLE
  2
VPORT
  5
C59F
330
0
100
AcDbSymbolTable
 70
     1
  0
VPORT
  5
CF97
330
C59F
100
AcDbSymbolTableRecord
100
AcDbViewportTableRecord
  2
*ACTIVE
 70
     0
 10
0.0
 20
0.0
 11
1.0
 21
1.0
 12
466.6660705338842
 22
274.6854231214912
 13
0.0
 23
0.0
 14
10.0
 24
10.0
 15
10.0
 25
10.0
 16
0.0
 26
0.0
 36
1.0
 17
0.0
 27
0.0
 37
0.0
 40
534.5504484490126
 41
1.899603698811096
 42
50.0
 43
0.0
 44
0.0
 50
0.0
 51
0.0
 71
     0
 72
   100
 73
     1
 74
     0
 75
     0
 76
     0
 77
     0
 78
     0
281
     0
 65
     1
110
0.0
120
0.0
130
0.0
111
1.0
121
0.0
131
0.0
112
0.0
122
1.0
132
0.0
 79
     0
146
0.0
1001
ACAD_NAV_VCDISPLAY
1070
     3
  0
ENDTAB
  0
TABLE
  2
LTYPE
  5
C59C
330
0
100
AcDbSymbolTable
 70
     4
  0
LTYPE
  5
C5AA
330
C59C
100
AcDbSymbolTableRecord
100
AcDbLinetypeTableRecord
  2
BYBLOCK
 70
     0
  3

 72
    65
 73
     0
 40
0.0
  0
LTYPE
  5
C5AB
330
C59C
100
AcDbSymbolTableRecord
100
AcDbLinetypeTableRecord
  2
BYLAYER
 70
     0
  3

 72
    65
 73
     0
 40
0.0
  0
LTYPE
  5
C5AC
330
C59C
100
AcDbSymbolTableRecord
100
AcDbLinetypeTableRecord
  2
CONTINUOUS
 70
     0
  3
Solid line
 72
    65
 73
     0
 40
0.0
  0
LTYPE
  5
C5BA
330
C59C
100
AcDbSymbolTableRecord
100
AcDbLinetypeTableRecord
  2
DASHED
 70
     0
  3
__ __ __ __ __ __ __ __ __ __ __ __ __ __ __ __
 72
    65
 73
     2
 40
0.75
 49
0.5
 74
     0
 49
-0.25
 74
     0
  0
LTYPE
  5
C5BB
330
C59C
100
AcDbSymbolTableRecord
100
AcDbLinetypeTableRecord
  2
CENTER
 70
     0
  3
____ _ ____ _ ____ _ ____ _ ____ _ ____ _ ____ 
 72
    65
 73
     4
 40
2.0
 49
1.25
 74
     0
 49
-0.25
 74
     0
 49
0.25
 74
     0
 49
-0.25
 74
     0
  0
LTYPE
  5
C5BC
330
C59C
100
AcDbSymbolTableRecord
100
AcDbLinetypeTableRecord
  2
PHANTOM
 70
     0
  3
______  __  __  ______  __  __  ______  __  __ 
 72
    65
 73
     6
 40
2.5
 49
1.25
 74
     0
 49
-0.25
 74
     0
 49
0.25
 74
     0
 49
-0.25
 74
     0
 49
0.25
 74
     0
 49
-0.25
 74
     0
  0
ENDTAB
  0
TABLE
  2
LAYER
  5
C599
330
0
100
AcDbSymbolTable
 70
     8
  0
LAYER
  5
C5A7
102
{ACAD_XDICTIONARY
360
CFF0
102
}
330
C599
100
AcDbSymbolTableRecord
100
AcDbLayerTableRecord
  2
0
 70
     0
 62
     7
  6
CONTINUOUS
370
    -3
390
CF9E
  0
LAYER
  5
C5BD
102
{ACAD_XDICTIONARY
360
CFF2
102
}
330
C599
100
AcDbSymbolTableRecord
100
AcDbLayerTableRecord
  2
4
 70
     0
 62
     1
  6
CENTER
370
    -3
390
CF9E
  0
LAYER
  5
C5BE
102
{ACAD_XDICTIONARY
360
CFF4
102
}
330
C599
100
AcDbSymbolTableRecord
100
AcDbLayerTableRecord
  2
5
 70
     0
 62
     6
  6
PHANTOM
370
    -3
390
CF9E
  0
LAYER
  5
C5BF
102
{ACAD_XDICTIONARY
360
CFF6
102
}
330
C599
100
AcDbSymbolTableRecord
100
AcDbLayerTableRecord
  2
1
 70
     0
 62
     7
  6
CONTINUOUS
370
    -3
390
CF9E
  0
LAYER
  5
C5C0
102
{ACAD_XDICTIONARY
360
CFF8
102
}
330
C599
100
AcDbSymbolTableRecord
100
AcDbLayerTableRecord
  2
2
 70
     0
 62
     4
  6
CONTINUOUS
370
    -3
390
CF9E
  0
LAYER
  5
C5C1
102
{ACAD_XDICTIONARY
360
CFFA
102
}
330
C599
100
AcDbSymbolTableRecord
100
AcDbLayerTableRecord
  2
3
 70
     0
 62
     2
  6
DASHED
370
    -3
390
CF9E
  0
LAYER
  5
C5C2
102
{ACAD_XDICTIONARY
360
CFFC
102
}
330
C599
100
AcDbSymbolTableRecord
100
AcDbLayerTableRecord
  2
6
 70
     0
 62
     5
  6
CONTINUOUS
370
    -3
390
CF9E
  0
LAYER
  5
C5C3
102
{ACAD_XDICTIONARY
360
CFFE
102
}
330
C599
100
AcDbSymbolTableRecord
100
AcDbLayerTableRecord
  2
7
 70
     0
 62
     3
  6
CONTINUOUS
370
    -3
390
CF9E
  0
ENDTAB
  0
TABLE
  2
STYLE
  5
C59A
330
0
100
AcDbSymbolTable
 70
     1
  0
STYLE
  5
C5A8
330
C59A
100
AcDbSymbolTableRecord
100
AcDbTextStyleTableRecord
  2
STANDARD
 70
     0
 40
0.0
 41
1.0
 50
0.0
 71
     0
 42
5.0
  3
txt
  4

  0
ENDTAB
  0
TABLE
  2
VIEW
  5
C59D
330
0
100
AcDbSymbolTable
 70
     0
  0
ENDTAB
  0
TABLE
  2
UCS
  5
C59E
330
0
100
AcDbSymbolTable
 70
     0
  0
ENDTAB
  0
TABLE
  2
APPID
  5
C5A0
330
0
100
AcDbSymbolTable
 70
     3
  0
APPID
  5
C5A9
330
C5A0
100
AcDbSymbolTableRecord
100
AcDbRegAppTableRecord
  2
ACAD
 70
     0
  0
APPID
  5
D00A
330
C5A0
100
AcDbSymbolTableRecord
100
AcDbRegAppTableRecord
  2
ACAD_NAV_VCDISPLAY
 70
     0
  0
APPID
  5
D043
330
C5A0
100
AcDbSymbolTableRecord
100
AcDbRegAppTableRecord
  2
ACAD_MLEADERVER
 70
     0
  0
ENDTAB
  0
TABLE
  2
DIMSTYLE
  5
C5A1
330
0
100
AcDbSymbolTable
 70
     1
100
AcDbDimStyleTable
 71
     0
  0
DIMSTYLE
105
C5C5
330
C5A1
100
AcDbSymbolTableRecord
100
AcDbDimStyleTableRecord
  2
STANDARD
 70
     0
 41
2.5
 42
1.0
 43
10.0
 44
1.0
 73
     0
 74
     0
 77
     3
 78
     8
140
3.2
141
0.0
147
1.0
172
     1
173
     1
284
     8
285
     8
286
     8
340
C5A8
  0
ENDTAB
  0
TABLE
  2
BLOCK_RECORD
  5
C598
330
0
100
AcDbSymbolTable
 70
     1
  0
BLOCK_RECORD
  5
C5B5
102
{ACAD_XDICTIONARY
360
CA7F
102
}
330
C598
100
AcDbSymbolTableRecord
100
AcDbBlockTableRecord
  2
*MODEL_SPACE
340
CFEC
  0
BLOCK_RECORD
  5
C5B1
102
{ACAD_XDICTIONARY
360
CA7D
102
}
330
C598
100
AcDbSymbolTableRecord
100
AcDbBlockTableRecord
  2
*PAPER_SPACE
340
CFED
  0
BLOCK_RECORD
  5
C5FF
330
C598
100
AcDbSymbolTableRecord
100
AcDbBlockTableRecord
  2
_OPEN
340
0
  0
ENDTAB
  0
ENDSEC
  0
SECTION
  2
BLOCKS
  0
BLOCK
  5
C5B6
330
C5B5
100
AcDbEntity
  8
0
100
AcDbBlockBegin
  2
*MODEL_SPACE
 70
     0
 10
0.0
 20
0.0
 30
0.0
  3
*MODEL_SPACE
  1

  0
ENDBLK
  5
C5B7
330
C5B5
100
AcDbEntity
  8
0
100
AcDbBlockEnd
  0
BLOCK
  5
C5B2
330
C5B1
100
AcDbEntity
 67
     1
  8
0
100
AcDbBlockBegin
  2
*PAPER_SPACE
 70
     0
 10
0.0
 20
0.0
 30
0.0
  3
*PAPER_SPACE
  1

  0
ENDBLK
  5
C5B3
330
C5B1
100
AcDbEntity
 67
     1
  8
0
100
AcDbBlockEnd
  0
BLOCK
  5
C600
330
C5FF
100
AcDbEntity
  8
0
100
AcDbBlockBegin
  2
_OPEN
 70
     0
 10
0.0
 20
0.0
 30
0.0
  3
_OPEN
  1

  0
LINE
  5
C601
330
C5FF
100
AcDbEntity
  8
0
  6
ByBlock
 62
     0
100
AcDbLine
 10
-1.0
 20
0.166667
 30
0.0
 11
0.0
 21
0.0
 31
0.0
  0
LINE
  5
C602
330
C5FF
100
AcDbEntity
  8
0
  6
ByBlock
 62
     0
100
AcDbLine
 10
0.0
 20
0.0
 30
0.0
 11
-1.0
 21
-0.166667
 31
0.0
  0
LINE
  5
C603
330
C5FF
100
AcDbEntity
  8
0
  6
ByBlock
 62
     0
100
AcDbLine
 10
0.0
 20
0.0
 30
0.0
 11
-1.0
 21
0.0
 31
0.0
  0
ENDBLK
  5
C604
330
C5FF
100
AcDbEntity
  8
0
100
AcDbBlockEnd
  0
ENDSEC
  0
SECTION
  2
ENTITIES
  0
TEXT
  5
C60B
330
C5B5
100
AcDbEntity
  8
7
  6
Continuous
100
AcDbText
 10
10.000002
 20
18.000001
 30
0.0
 40
3.0
  1
TYPE No.THA-540-1K(No.200)
100
AcDbText
  0
TEXT
  5
C60C
330
C5B5
100
AcDbEntity
  8
7
  6
Continuous
100
AcDbText
 10
10.000002
 20
26.000001
 30
0.0
 40
3.0
  1
CODE No.3187
100
AcDbText
  0
TEXT
  5
C60D
330
C5B5
100
AcDbEntity
  8
1
  6
Continuous
100
AcDbText
 10
10.000002
 20
10.000001
 30
0.0
 40
1.399999999999999
  1
LAYER
100
AcDbText
  0
TEXT
  5
C60E
330
C5B5
100
AcDbEntity
  8
7
  6
Continuous
100
AcDbText
 10
29.979513
 20
10.048738
 30
0.0
 40
1.399999999999999
  1
7
100
AcDbText
  0
TEXT
  5
C60F
330
C5B5
100
AcDbEntity
  8
6
  6
Continuous
100
AcDbText
 10
27.979513
 20
10.048738
 30
0.0
 40
1.399999999999999
  1
6
100
AcDbText
  0
TEXT
  5
C610
330
C5B5
100
AcDbEntity
  8
4
  6
CENTER
100
AcDbText
 10
23.979513
 20
10.048738
 30
0.0
 40
1.399999999999999
  1
4
100
AcDbText
  0
TEXT
  5
C611
330
C5B5
100
AcDbEntity
  8
5
  6
PHANTOM
100
AcDbText
 10
25.979513
 20
10.048738
 30
0.0
 40
1.399999999999999
  1
5
100
AcDbText
  0
TEXT
  5
C612
330
C5B5
100
AcDbEntity
  8
3
  6
DASHED
100
AcDbText
 10
21.979513
 20
10.048738
 30
0.0
 40
1.399999999999999
  1
3
100
AcDbText
  0
TEXT
  5
C613
330
C5B5
100
AcDbEntity
  8
1
  6
Continuous
100
AcDbText
 10
17.979513
 20
10.048738
 30
0.0
 40
1.399999999999999
  1
1
100
AcDbText
  0
TEXT
  5
C614
330
C5B5
100
AcDbEntity
  8
2
  6
Continuous
100
AcDbText
 10
19.979513
 20
10.048738
 30
0.0
 40
1.399999999999999
  1
2
100
AcDbText
  0
LINE
  5
C615
330
C5B5
100
AcDbEntity
  8
1
  6
Continuous
100
AcDbLine
 10
209.357698
 20
119.500001
 30
0.0
 11
209.357698
 21
93.500001
 31
0.0
  0
LINE
  5
C616
330
C5B5
100
AcDbEntity
  8
1
  6
Continuous
100
AcDbLine
 10
207.7576979999999
 20
119.500001
 30
0.0
 11
207.7576979999999
 21
93.500001
 31
0.0
  0
LINE
  5
C617
330
C5B5
100
AcDbEntity
  8
1
  6
Continuous
100
AcDbLine
 10
207.5576979999999
 20
119.500001
 30
0.0
 11
207.5576979999999
 21
93.500001
 31
0.0
  0
LINE
  5
C618
330
C5B5
100
AcDbEntity
  8
1
  6
Continuous
100
AcDbLine
 10
192.5576979999999
 20
116.400001
 30
0.0
 11
192.5576979999999
 21
96.60000100000001
 31
0.0
  0
LINE
  5
C619
330
C5B5
100
AcDbEntity
  8
1
  6
Continuous
100
AcDbLine
 10
218.6576979999999
 20
101.600001
 30
0.0
 11
218.6576979999999
 21
92.40000100000001
 31
0.0
  0
ARC
  5
C61A
330
C5B5
100
AcDbEntity
  8
1
  6
Continuous
100
AcDbCircle
 10
209.9576979999999
 20
97.000001
 30
0.0
 40
12.0
100
AcDbArc
 50
344.506032
 51
15.493968
  0
LINE
  5
C61B
330
C5B5
100
AcDbEntity
  8
1
  6
Continuous
100
AcDbLine
 10
216.3576979999999
 20
102.0000009999999
 30
0.0
 11
216.3576979999999
 21
92.000001
 31
0.0
  0
LINE
  5
C61C
330
C5B5
100
AcDbEntity
  8
1
  6
Continuous
100
AcDbLine
 10
217.357698
 20
102.0000009999999
 30
0.0
 11
217.357698
 21
92.000001
 31
0.0
  0
LINE
  5
C61D
330
C5B5
100
AcDbEntity
  8
1
  6
Continuous
100
AcDbLine
 10
195.8576979999998
 20
122.500001
 30
0.0
 11
195.8576979999998
 21
90.500001
 31
0.0
  0
LINE
  5
C61E
330
C5B5
100
AcDbEntity
  8
1
  6
Continuous
100
AcDbLine
 10
194.357698
 20
122.500001
 30
0.0
 11
194.357698
 21
90.500001
 31
0.0
  0
LINE
  5
C61F
330
C5B5
100
AcDbEntity
  8
1
  6
Continuous
100
AcDbLine
 10
192.857698
 20
120.500001
 30
0.0
 11
192.857698
 21
92.50000099999999
 31
0.0
  0
ARC
  5
C620
330
C5B5
100
AcDbEntity
  8
1
  6
Continuous
100
AcDbCircle
 10
240.3526979999999
 20
106.5000009999996
 30
0.0
 40
49.995
100
AcDbArc
 50
168.5788139999999
 51
191.4211859999999
  0
LINE
  5
C621
330
C5B5
100
AcDbEntity
  8
1
  6
Continuous
100
AcDbLine
 10
212.857698
 20
156.0000009999999
 30
0.0
 11
212.857698
 21
41.00000099999999
 31
0.0
  0
LINE
  5
C622
330
C5B5
100
AcDbEntity
  8
1
  6
Continuous
100
AcDbLine
 10
216.0576979999999
 20
156.0000009999999
 30
0.0
 11
216.0576979999999
 21
41.00000099999999
 31
0.0
  0
LINE
  5
C623
330
C5B5
100
AcDbEntity
  8
1
  6
Continuous
100
AcDbLine
 10
194.357698
 20
90.500001
 30
0.0
 11
195.8576979999998
 21
90.500001
 31
0.0
  0
LINE
  5
C624
330
C5B5
100
AcDbEntity
  8
1
  6
Continuous
100
AcDbLine
 10
192.857698
 20
92.50000099999999
 30
0.0
 11
194.357698
 21
90.500001
 31
0.0
  0
LINE
  5
C625
330
C5B5
100
AcDbEntity
  8
1
  6
Continuous
100
AcDbLine
 10
191.347698
 20
96.60000100000001
 30
0.0
 11
192.857698
 21
96.60000100000001
 31
0.0
  0
LINE
  5
C626
330
C5B5
100
AcDbEntity
  8
1
  6
Continuous
100
AcDbLine
 10
212.857698
 20
41.00000099999999
 30
0.0
 11
216.0576979999999
 21
41.00000099999999
 31
0.0
  0
LINE
  5
C627
330
C5B5
100
AcDbEntity
  8
4
  6
CENTER
100
AcDbLine
 10
210.772423
 20
97.000001
 30
0.0
 11
224.0643069999999
 21
97.000001
 31
0.0
  0
LINE
  5
C628
330
C5B5
100
AcDbEntity
  8
4
  6
CENTER
100
AcDbLine
 10
210.4169379999999
 20
88.50000099999999
 30
0.0
 11
218.81284
 21
88.50000099999999
 31
0.0
  0
LINE
  5
C629
330
C5B5
100
AcDbEntity
  8
1
  6
Continuous
100
AcDbLine
 10
195.8576979999998
 20
93.500001
 30
0.0
 11
212.857698
 21
93.500001
 31
0.0
  0
ARC
  5
C62A
330
C5B5
100
AcDbEntity
  8
1
  6
Continuous
100
AcDbCircle
 10
219.979747
 20
94.221777
 30
0.0
 40
1.6
100
AcDbArc
 50
275.0
 51
344.506032
  0
LINE
  5
C62B
330
C5B5
100
AcDbEntity
  8
1
  6
Continuous
100
AcDbLine
 10
218.6576979999999
 20
92.50000099999999
 30
0.0
 11
220.1191959999999
 21
92.627865
 31
0.0
  0
LINE
  5
C62C
330
C5B5
100
AcDbEntity
  8
1
  6
Continuous
100
AcDbLine
 10
216.3576979999999
 20
92.000001
 30
0.0
 11
217.357698
 21
92.000001
 31
0.0
  0
LINE
  5
C62D
330
C5B5
100
AcDbEntity
  8
1
  6
Continuous
100
AcDbLine
 10
216.0576979999999
 20
93.75000099999999
 30
0.0
 11
216.3576979999999
 21
93.75000099999999
 31
0.0
  0
LINE
  5
C62E
330
C5B5
100
AcDbEntity
  8
1
  6
Continuous
100
AcDbLine
 10
217.357698
 20
92.40000100000001
 30
0.0
 11
218.6576979999999
 21
92.40000100000001
 31
0.0
  0
LINE
  5
C62F
330
C5B5
100
AcDbEntity
  8
1
  6
Continuous
100
AcDbLine
 10
217.357698
 20
97.000001
 30
0.0
 11
218.6576979999999
 21
98.30000099999999
 31
0.0
  0
LINE
  5
C630
330
C5B5
100
AcDbEntity
  8
1
  6
Continuous
100
AcDbLine
 10
218.6576979999999
 20
97.000001
 30
0.0
 11
217.357698
 21
95.70000099999999
 31
0.0
  0
LINE
  5
C631
330
C5B5
100
AcDbEntity
  8
4
  6
CENTER
100
AcDbLine
 10
187.667634
 20
106.5000009999996
 30
0.0
 11
228.3340659999999
 21
106.5000009999996
 31
0.0
  0
LINE
  5
C632
330
C5B5
100
AcDbEntity
  8
1
  6
Continuous
100
AcDbLine
 10
194.357698
 20
122.500001
 30
0.0
 11
195.8576979999998
 21
122.500001
 31
0.0
  0
LINE
  5
C633
330
C5B5
100
AcDbEntity
  8
1
  6
Continuous
100
AcDbLine
 10
192.857698
 20
120.500001
 30
0.0
 11
194.357698
 21
122.500001
 31
0.0
  0
LINE
  5
C634
330
C5B5
100
AcDbEntity
  8
1
  6
Continuous
100
AcDbLine
 10
191.347698
 20
116.400001
 30
0.0
 11
192.857698
 21
116.400001
 31
0.0
  0
LINE
  5
C635
330
C5B5
100
AcDbEntity
  8
4
  6
CENTER
100
AcDbLine
 10
210.8497009999999
 20
116.000001
 30
0.0
 11
224.3734179999999
 21
116.000001
 31
0.0
  0
LINE
  5
C636
330
C5B5
100
AcDbEntity
  8
1
  6
Continuous
100
AcDbLine
 10
203.357698
 20
102.500001
 30
0.0
 11
203.857698
 21
103.0000009999999
 31
0.0
  0
LINE
  5
C637
330
C5B5
100
AcDbEntity
  8
1
  6
Continuous
100
AcDbLine
 10
195.8576979999998
 20
102.500001
 30
0.0
 11
203.357698
 21
102.500001
 31
0.0
  0
LINE
  5
C638
330
C5B5
100
AcDbEntity
  8
1
  6
Continuous
100
AcDbLine
 10
203.357698
 20
110.5000009999999
 30
0.0
 11
203.857698
 21
110.000001
 31
0.0
  0
LINE
  5
C639
330
C5B5
100
AcDbEntity
  8
1
  6
Continuous
100
AcDbLine
 10
195.8576979999998
 20
110.5000009999999
 30
0.0
 11
203.357698
 21
110.5000009999999
 31
0.0
  0
LINE
  5
C63A
330
C5B5
100
AcDbEntity
  8
4
  6
CENTER
100
AcDbLine
 10
201.357698
 20
122.765451
 30
0.0
 11
201.357698
 21
90.23455099999999
 31
0.0
  0
LINE
  5
C63B
330
C5B5
100
AcDbEntity
  8
1
  6
Continuous
100
AcDbLine
 10
195.8576979999998
 20
119.500001
 30
0.0
 11
212.857698
 21
119.500001
 31
0.0
  0
LINE
  5
C63C
330
C5B5
100
AcDbEntity
  8
1
  6
Continuous
100
AcDbLine
 10
203.357698
 20
110.5000009999999
 30
0.0
 11
203.357698
 21
102.500001
 31
0.0
  0
LINE
  5
C63D
330
C5B5
100
AcDbEntity
  8
1
  6
Continuous
100
AcDbLine
 10
203.857698
 20
103.0000009999999
 30
0.0
 11
203.857698
 21
110.000001
 31
0.0
  0
ARC
  5
C63E
330
C5B5
100
AcDbEntity
  8
1
  6
Continuous
100
AcDbCircle
 10
219.979747
 20
99.77822500000002
 30
0.0
 40
1.6
100
AcDbArc
 50
15.493968
 51
85.0
  0
LINE
  5
C63F
330
C5B5
100
AcDbEntity
  8
1
  6
Continuous
100
AcDbLine
 10
218.6576979999999
 20
101.500001
 30
0.0
 11
220.1191959999999
 21
101.3721359999999
 31
0.0
  0
ARC
  5
C640
330
C5B5
100
AcDbEntity
  8
1
  6
Continuous
100
AcDbCircle
 10
219.0215779999996
 20
103.730918
 30
0.0
 40
1.230917
100
AcDbArc
 50
270.0
 51
340.436671
  0
LINE
  5
C641
330
C5B5
100
AcDbEntity
  8
1
  6
Continuous
100
AcDbLine
 10
216.3576979999999
 20
102.0000009999999
 30
0.0
 11
217.357698
 21
102.0000009999999
 31
0.0
  0
LINE
  5
C642
330
C5B5
100
AcDbEntity
  8
1
  6
Continuous
100
AcDbLine
 10
216.0576979999999
 20
100.2500009999996
 30
0.0
 11
216.3576979999999
 21
100.2500009999996
 31
0.0
  0
LINE
  5
C643
330
C5B5
100
AcDbEntity
  8
1
  6
Continuous
100
AcDbLine
 10
216.0576979999999
 20
102.500001
 30
0.0
 11
219.0215779999996
 21
102.500001
 31
0.0
  0
LINE
  5
C644
330
C5B5
100
AcDbEntity
  8
1
  6
Continuous
100
AcDbLine
 10
217.357698
 20
101.600001
 30
0.0
 11
218.6576979999999
 21
101.600001
 31
0.0
  0
ARC
  5
C645
330
C5B5
100
AcDbEntity
  8
1
  6
Continuous
100
AcDbCircle
 10
209.9576979999999
 20
116.000001
 30
0.0
 40
12.0
100
AcDbArc
 50
344.506032
 51
15.493968
  0
LINE
  5
C646
330
C5B5
100
AcDbEntity
  8
1
  6
Continuous
100
AcDbLine
 10
218.6576979999999
 20
120.600001
 30
0.0
 11
218.6576979999999
 21
111.400001
 31
0.0
  0
LINE
  5
C647
330
C5B5
100
AcDbEntity
  8
1
  6
Continuous
100
AcDbLine
 10
218.6576979999999
 20
120.500001
 30
0.0
 11
220.1191959999999
 21
120.372136
 31
0.0
  0
ARC
  5
C648
330
C5B5
100
AcDbEntity
  8
1
  6
Continuous
100
AcDbCircle
 10
219.979747
 20
118.778225
 30
0.0
 40
1.6
100
AcDbArc
 50
15.493968
 51
85.0
  0
LINE
  5
C649
330
C5B5
100
AcDbEntity
  8
1
  6
Continuous
100
AcDbLine
 10
218.6576979999999
 20
111.5000009999999
 30
0.0
 11
220.1191959999999
 21
111.6278649999999
 31
0.0
  0
ARC
  5
C64A
330
C5B5
100
AcDbEntity
  8
1
  6
Continuous
100
AcDbCircle
 10
219.979747
 20
113.221777
 30
0.0
 40
1.6
100
AcDbArc
 50
275.0
 51
344.506032
  0
ARC
  5
C64B
330
C5B5
100
AcDbEntity
  8
1
  6
Continuous
100
AcDbCircle
 10
219.0215779999996
 20
109.269084
 30
0.0
 40
1.230917
100
AcDbArc
 50
19.48812099999996
 51
90.0
  0
LINE
  5
C64C
330
C5B5
100
AcDbEntity
  8
1
  6
Continuous
100
AcDbLine
 10
216.3576979999999
 20
121.0000009999999
 30
0.0
 11
216.3576979999999
 21
111.000001
 31
0.0
  0
LINE
  5
C64D
330
C5B5
100
AcDbEntity
  8
1
  6
Continuous
100
AcDbLine
 10
217.357698
 20
121.0000009999999
 30
0.0
 11
217.357698
 21
111.000001
 31
0.0
  0
LINE
  5
C64E
330
C5B5
100
AcDbEntity
  8
1
  6
Continuous
100
AcDbLine
 10
216.0576979999999
 20
119.250001
 30
0.0
 11
216.3576979999999
 21
119.250001
 31
0.0
  0
LINE
  5
C64F
330
C5B5
100
AcDbEntity
  8
1
  6
Continuous
100
AcDbLine
 10
216.3576979999999
 20
121.0000009999999
 30
0.0
 11
217.357698
 21
121.0000009999999
 31
0.0
  0
LINE
  5
C650
330
C5B5
100
AcDbEntity
  8
1
  6
Continuous
100
AcDbLine
 10
216.0576979999999
 20
112.750001
 30
0.0
 11
216.3576979999999
 21
112.750001
 31
0.0
  0
LINE
  5
C651
330
C5B5
100
AcDbEntity
  8
1
  6
Continuous
100
AcDbLine
 10
216.3576979999999
 20
111.000001
 30
0.0
 11
217.357698
 21
111.000001
 31
0.0
  0
LINE
  5
C652
330
C5B5
100
AcDbEntity
  8
1
  6
Continuous
100
AcDbLine
 10
216.0576979999999
 20
110.5000009999999
 30
0.0
 11
219.0215779999996
 21
110.5000009999999
 31
0.0
  0
LINE
  5
C653
330
C5B5
100
AcDbEntity
  8
1
  6
Continuous
100
AcDbLine
 10
217.357698
 20
120.600001
 30
0.0
 11
218.6576979999999
 21
120.600001
 31
0.0
  0
LINE
  5
C654
330
C5B5
100
AcDbEntity
  8
1
  6
Continuous
100
AcDbLine
 10
217.357698
 20
111.400001
 30
0.0
 11
218.6576979999999
 21
111.400001
 31
0.0
  0
LINE
  5
C655
330
C5B5
100
AcDbEntity
  8
1
  6
Continuous
100
AcDbLine
 10
217.357698
 20
116.000001
 30
0.0
 11
218.6576979999999
 21
117.3000009999999
 31
0.0
  0
LINE
  5
C656
330
C5B5
100
AcDbEntity
  8
1
  6
Continuous
100
AcDbLine
 10
218.6576979999999
 20
116.000001
 30
0.0
 11
217.357698
 21
114.7000009999999
 31
0.0
  0
ARC
  5
C657
330
C5B5
100
AcDbEntity
  8
1
  6
Continuous
100
AcDbCircle
 10
212.989045
 20
106.5000009999996
 30
0.0
 40
7.868632999999997
100
AcDbArc
 50
336.139797
 51
23.848465
  0
LINE
  5
C658
330
C5B5
100
AcDbEntity
  8
4
  6
CENTER
100
AcDbLine
 10
210.4169379999999
 20
150.0000009999999
 30
0.0
 11
219.3407729999999
 21
150.0000009999999
 31
0.0
  0
LINE
  5
C659
330
C5B5
100
AcDbEntity
  8
1
  6
Continuous
100
AcDbLine
 10
212.857698
 20
156.0000009999999
 30
0.0
 11
216.0576979999999
 21
156.0000009999999
 31
0.0
  0
LINE
  5
C65A
330
C5B5
100
AcDbEntity
  8
1
  6
Continuous
100
AcDbLine
 10
50.90000199999997
 20
344.2783509999999
 30
0.0
 11
50.90000199999997
 21
267.1783509999999
 31
0.0
  0
LINE
  5
C65B
330
C5B5
100
AcDbEntity
  8
1
  6
Continuous
100
AcDbLine
 10
31.10000200000001
 20
344.2783509999999
 30
0.0
 11
31.10000200000001
 21
267.1783509999999
 31
0.0
  0
LINE
  5
C65C
330
C5B5
100
AcDbEntity
  8
4
  6
CENTER
100
AcDbLine
 10
41.00000199999999
 20
372.1783509999998
 30
0.0
 11
41.00000199999999
 21
224.1783509999999
 31
0.0
  0
LINE
  5
C65D
330
C5B5
100
AcDbEntity
  8
1
  6
Continuous
100
AcDbLine
 10
25.00000199999999
 20
364.1783509999998
 30
0.0
 11
25.00000199999999
 21
232.1783509999999
 31
0.0
  0
LINE
  5
C65E
330
C5B5
100
AcDbEntity
  8
1
  6
Continuous
100
AcDbLine
 10
57.00000199999998
 20
364.1783509999998
 30
0.0
 11
57.00000199999998
 21
232.1783509999999
 31
0.0
  0
LINE
  5
C65F
330
C5B5
100
AcDbEntity
  8
1
  6
Continuous
100
AcDbLine
 10
31.00000199999999
 20
343.6783509999998
 30
0.0
 11
31.00000199999999
 21
253.1783509999999
 31
0.0
  0
LINE
  5
C660
330
C5B5
100
AcDbEntity
  8
1
  6
Continuous
100
AcDbLine
 10
51.000002
 20
343.6783509999998
 30
0.0
 11
51.000002
 21
253.1783509999999
 31
0.0
  0
LINE
  5
C661
330
C5B5
100
AcDbEntity
  8
1
  6
Continuous
100
AcDbLine
 10
55.00000199999998
 20
364.1783509999998
 30
0.0
 11
55.00000199999998
 21
232.1783509999999
 31
0.0
  0
LINE
  5
C662
330
C5B5
100
AcDbEntity
  8
1
  6
Continuous
100
AcDbLine
 10
27.00000199999999
 20
364.1783509999998
 30
0.0
 11
27.00000199999999
 21
232.1783509999999
 31
0.0
  0
ARC
  5
C663
330
C5B5
100
AcDbEntity
  8
1
  6
Continuous
100
AcDbCircle
 10
52.00000199999998
 20
232.1783509999999
 30
0.0
 40
5.0
100
AcDbArc
 50
270.0
 51
0.0
  0
ARC
  5
C664
330
C5B5
100
AcDbEntity
  8
1
  6
Continuous
100
AcDbCircle
 10
30.00000199999999
 20
232.1783509999999
 30
0.0
 40
5.0
100
AcDbArc
 50
180.0
 51
270.0
  0
LINE
  5
C665
330
C5B5
100
AcDbEntity
  8
1
  6
Continuous
100
AcDbLine
 10
30.00000199999999
 20
227.1783509999999
 30
0.0
 11
52.00000199999998
 21
227.1783509999999
 31
0.0
  0
LINE
  5
C666
330
C5B5
100
AcDbEntity
  8
4
  6
CENTER
100
AcDbLine
 10
48.95091500000001
 20
234.1783509999999
 30
0.0
 11
33.20963299999994
 21
234.1783509999999
 31
0.0
  0
LINE
  5
C667
330
C5B5
100
AcDbEntity
  8
1
  6
Continuous
100
AcDbLine
 10
31.60000200000002
 20
263.1783509999999
 30
0.0
 11
36.68839000000003
 21
263.1783509999999
 31
0.0
  0
LINE
  5
C668
330
C5B5
100
AcDbEntity
  8
1
  6
Continuous
100
AcDbLine
 10
31.60000200000002
 20
264.1783509999999
 30
0.0
 11
38.857573
 21
264.1783509999999
 31
0.0
  0
LINE
  5
C669
330
C5B5
100
AcDbEntity
  8
1
  6
Continuous
100
AcDbLine
 10
31.608516
 20
250.1783509999996
 30
0.0
 11
36.68839000000003
 21
250.1783509999996
 31
0.0
  0
LINE
  5
C66A
330
C5B5
100
AcDbEntity
  8
1
  6
Continuous
100
AcDbLine
 10
31.70484199999998
 20
249.1783509999998
 30
0.0
 11
38.857573
 21
249.1783509999998
 31
0.0
  0
CIRCLE
  5
C66B
330
C5B5
100
AcDbEntity
  8
1
  6
Continuous
100
AcDbCircle
 10
41.00000199999999
 20
256.6783509999999
 30
0.0
 40
7.65
  0
CIRCLE
  5
C66C
330
C5B5
100
AcDbEntity
  8
1
  6
Continuous
100
AcDbCircle
 10
41.00000199999999
 20
256.6783509999999
 30
0.0
 40
7.799999999999998
  0
LINE
  5
C66D
330
C5B5
100
AcDbEntity
  8
1
  6
Continuous
100
AcDbLine
 10
31.00000199999999
 20
240.6783509999999
 30
0.0
 11
51.000002
 21
240.6783509999999
 31
0.0
  0
LINE
  5
C66E
330
C5B5
100
AcDbEntity
  8
4
  6
CENTER
100
AcDbLine
 10
53.73439099999996
 20
256.6783509999999
 30
0.0
 11
28.81222300000001
 21
256.6783509999999
 31
0.0
  0
ARC
  5
C66F
330
C5B5
100
AcDbEntity
  8
1
  6
Continuous
100
AcDbCircle
 10
41.00000199999999
 20
250.5783509999998
 30
0.0
 40
9.4
100
AcDbArc
 50
180.0
 51
0.0
  0
ARC
  5
C670
330
C5B5
100
AcDbEntity
  8
1
  6
Continuous
100
AcDbCircle
 10
41.00000199999999
 20
250.5783509999998
 30
0.0
 40
9.9
100
AcDbArc
 50
180.0
 51
0.0
  0
LINE
  5
C671
330
C5B5
100
AcDbEntity
  8
1
  6
Continuous
100
AcDbLine
 10
31.00000199999999
 20
265.6783509999999
 30
0.0
 11
51.000002
 21
265.6783509999999
 31
0.0
  0
LINE
  5
C672
330
C5B5
100
AcDbEntity
  8
1
  6
Continuous
100
AcDbLine
 10
50.40000199999997
 20
265.1783509999999
 30
0.0
 11
31.60000200000002
 21
265.1783509999999
 31
0.0
  0
LINE
  5
C673
330
C5B5
100
AcDbEntity
  8
1
  6
Continuous
100
AcDbLine
 10
31.60000200000002
 20
265.1783509999999
 30
0.0
 11
50.40000199999997
 21
265.1783509999999
 31
0.0
  0
LINE
  5
C674
330
C5B5
100
AcDbEntity
  8
1
  6
Continuous
100
AcDbLine
 10
31.91154800000004
 20
248.1783509999996
 30
0.0
 11
50.08845599999995
 21
248.1783509999996
 31
0.0
  0
LINE
  5
C675
330
C5B5
100
AcDbEntity
  8
1
  6
Continuous
100
AcDbLine
 10
32.23644100000001
 20
247.1783509999998
 30
0.0
 11
49.76356299999999
 21
247.1783509999998
 31
0.0
  0
LINE
  5
C676
330
C5B5
100
AcDbEntity
  8
1
  6
Continuous
100
AcDbLine
 10
32.69337800000005
 20
246.1783509999996
 30
0.0
 11
49.30662600000005
 21
246.1783509999996
 31
0.0
  0
LINE
  5
C677
330
C5B5
100
AcDbEntity
  8
1
  6
Continuous
100
AcDbLine
 10
33.30584799999996
 20
245.1783509999998
 30
0.0
 11
48.69415600000002
 21
245.1783509999998
 31
0.0
  0
LINE
  5
C678
330
C5B5
100
AcDbEntity
  8
1
  6
Continuous
100
AcDbLine
 10
34.11523599999998
 20
244.178351
 30
0.0
 11
47.884768
 21
244.178351
 31
0.0
  0
LINE
  5
C679
330
C5B5
100
AcDbEntity
  8
1
  6
Continuous
100
AcDbLine
 10
35.20345099999997
 20
243.1783509999998
 30
0.0
 11
46.79655300000002
 21
243.1783509999998
 31
0.0
  0
LINE
  5
C67A
330
C5B5
100
AcDbEntity
  8
1
  6
Continuous
100
AcDbLine
 10
30.00000199999999
 20
229.1783509999999
 30
0.0
 11
52.00000199999998
 21
229.1783509999999
 31
0.0
  0
LINE
  5
C67B
330
C5B5
100
AcDbEntity
  8
1
  6
Continuous
100
AcDbLine
 10
41.00000199999999
 20
229.1783509999999
 30
0.0
 11
31.00000199999999
 21
240.6783509999999
 31
0.0
  0
ARC
  5
C67C
330
C5B5
100
AcDbEntity
  8
1
  6
Continuous
100
AcDbCircle
 10
41.00000199999999
 20
253.1783509999999
 30
0.0
 40
10.0
100
AcDbArc
 50
180.0
 51
188.109614
  0
LINE
  5
C67D
330
C5B5
100
AcDbEntity
  8
1
  6
Continuous
100
AcDbLine
 10
31.60000200000002
 20
265.1783509999999
 30
0.0
 11
31.60000200000002
 21
250.5783509999998
 31
0.0
  0
LINE
  5
C67E
330
C5B5
100
AcDbEntity
  8
1
  6
Continuous
100
AcDbLine
 10
31.10000200000001
 20
265.1783509999999
 30
0.0
 11
31.10000200000001
 21
250.5783509999998
 31
0.0
  0
LINE
  5
C67F
330
C5B5
100
AcDbEntity
  8
1
  6
Continuous
100
AcDbLine
 10
31.60000200000002
 20
252.1783509999997
 30
0.0
 11
34.62897399999997
 21
252.1783509999997
 31
0.0
  0
LINE
  5
C680
330
C5B5
100
AcDbEntity
  8
1
  6
Continuous
100
AcDbLine
 10
31.60000200000002
 20
251.1783509999998
 30
0.0
 11
35.46917899999994
 21
251.1783509999998
 31
0.0
  0
ARC
  5
C681
330
C5B5
100
AcDbEntity
  8
1
  6
Continuous
100
AcDbCircle
 10
30.00000199999999
 20
232.1783509999999
 30
0.0
 40
3.0
100
AcDbArc
 50
180.0
 51
270.0
  0
ARC
  5
C682
330
C5B5
100
AcDbEntity
  8
1
  6
Continuous
100
AcDbCircle
 10
31.60000200000002
 20
265.1783509999999
 30
0.0
 40
0.5
100
AcDbArc
 50
90.0
 51
180.0
  0
LINE
  5
C683
330
C5B5
100
AcDbEntity
  8
1
  6
Continuous
100
AcDbLine
 10
33.57841199999995
 20
259.078351
 30
0.0
 11
33.73622199999999
 21
259.078351
 31
0.0
  0
LINE
  5
C684
330
C5B5
100
AcDbEntity
  8
1
  6
Continuous
100
AcDbLine
 10
33.26436999999998
 20
257.6783509999998
 30
0.0
 11
33.41564300000004
 21
257.6783509999998
 31
0.0
  0
LINE
  5
C685
330
C5B5
100
AcDbEntity
  8
1
  6
Continuous
100
AcDbLine
 10
31.60000200000002
 20
257.1783509999999
 30
0.0
 11
33.21604400000001
 21
257.1783509999999
 31
0.0
  0
LINE
  5
C686
330
C5B5
100
AcDbEntity
  8
1
  6
Continuous
100
AcDbLine
 10
31.60000200000002
 20
258.1783509999999
 30
0.0
 11
33.34559200000001
 21
258.1783509999999
 31
0.0
  0
LINE
  5
C687
330
C5B5
100
AcDbEntity
  8
1
  6
Continuous
100
AcDbLine
 10
31.60000200000002
 20
259.1783509999999
 30
0.0
 11
33.61149699999998
 21
259.1783509999999
 31
0.0
  0
LINE
  5
C688
330
C5B5
100
AcDbEntity
  8
1
  6
Continuous
100
AcDbLine
 10
31.60000200000002
 20
256.1783509999997
 30
0.0
 11
33.21604400000001
 21
256.1783509999997
 31
0.0
  0
LINE
  5
C689
330
C5B5
100
AcDbEntity
  8
1
  6
Continuous
100
AcDbLine
 10
31.60000200000002
 20
260.1783509999999
 30
0.0
 11
34.02934900000002
 21
260.1783509999999
 31
0.0
  0
LINE
  5
C68A
330
C5B5
100
AcDbEntity
  8
1
  6
Continuous
100
AcDbLine
 10
31.60000200000002
 20
261.1783509999999
 30
0.0
 11
34.62897399999997
 21
261.1783509999999
 31
0.0
  0
LINE
  5
C68B
330
C5B5
100
AcDbEntity
  8
1
  6
Continuous
100
AcDbLine
 10
31.60000200000002
 20
262.1783509999999
 30
0.0
 11
35.46917899999994
 21
262.1783509999999
 31
0.0
  0
ARC
  5
C68C
330
C5B5
100
AcDbEntity
  8
1
  6
Continuous
100
AcDbCircle
 10
32.60000200000002
 20
267.1783509999999
 30
0.0
 40
1.5
100
AcDbArc
 50
180.0
 51
270.0
  0
LINE
  5
C68D
330
C5B5
100
AcDbEntity
  8
1
  6
Continuous
100
AcDbLine
 10
31.60000200000002
 20
255.1783509999999
 30
0.0
 11
33.34559200000001
 21
255.1783509999999
 31
0.0
  0
LINE
  5
C68E
330
C5B5
100
AcDbEntity
  8
1
  6
Continuous
100
AcDbLine
 10
31.60000200000002
 20
254.1783509999997
 30
0.0
 11
33.61149699999998
 21
254.1783509999997
 31
0.0
  0
LINE
  5
C68F
330
C5B5
100
AcDbEntity
  8
1
  6
Continuous
100
AcDbLine
 10
31.60000200000002
 20
253.1783509999999
 30
0.0
 11
34.02934900000002
 21
253.1783509999999
 31
0.0
  0
ARC
  5
C690
330
C5B5
100
AcDbEntity
  8
1
  6
Continuous
100
AcDbCircle
 10
41.00000199999999
 20
253.1783509999999
 30
0.0
 40
10.0
100
AcDbArc
 50
351.8903859999999
 51
0.0
  0
LINE
  5
C691
330
C5B5
100
AcDbEntity
  8
1
  6
Continuous
100
AcDbLine
 10
50.40000199999997
 20
265.1783509999999
 30
0.0
 11
50.40000199999997
 21
250.5783509999998
 31
0.0
  0
LINE
  5
C692
330
C5B5
100
AcDbEntity
  8
1
  6
Continuous
100
AcDbLine
 10
50.90000199999997
 20
265.1783509999999
 30
0.0
 11
50.90000199999997
 21
250.5783509999998
 31
0.0
  0
ARC
  5
C693
330
C5B5
100
AcDbEntity
  8
1
  6
Continuous
100
AcDbCircle
 10
52.00000199999998
 20
232.1783509999999
 30
0.0
 40
3.0
100
AcDbArc
 50
270.0
 51
0.0
  0
ARC
  5
C694
330
C5B5
100
AcDbEntity
  8
1
  6
Continuous
100
AcDbCircle
 10
39.50000199999999
 20
237.8134289999999
 30
0.0
 40
0.8649219999999997
100
AcDbArc
 50
38.65980799999999
 51
141.340192
  0
ARC
  5
C695
330
C5B5
100
AcDbEntity
  8
1
  6
Continuous
100
AcDbCircle
 10
39.50000199999999
 20
237.0432729999996
 30
0.0
 40
0.8649219999999997
100
AcDbArc
 50
218.6598079999999
 51
321.3401919999999
  0
ARC
  5
C696
330
C5B5
100
AcDbEntity
  8
1
  6
Continuous
100
AcDbCircle
 10
39.01865399999996
 20
237.4283509999997
 30
0.0
 40
1.481347999999996
100
AcDbArc
 50
321.3401919999999
 51
38.65980799999999
  0
ARC
  5
C697
330
C5B5
100
AcDbEntity
  8
1
  6
Continuous
100
AcDbCircle
 10
39.98134900000002
 20
237.4283509999997
 30
0.0
 40
1.481347999999996
100
AcDbArc
 50
141.340192
 51
218.6598079999999
  0
LINE
  5
C698
330
C5B5
100
AcDbEntity
  8
1
  6
Continuous
100
AcDbLine
 10
42.87500199999999
 20
236.1783509999999
 30
0.0
 11
43.50000199999999
 21
238.6783509999998
 31
0.0
  0
LINE
  5
C699
330
C5B5
100
AcDbEntity
  8
1
  6
Continuous
100
AcDbLine
 10
42.25000199999999
 20
238.6783509999998
 30
0.0
 11
42.87500199999999
 21
236.1783509999999
 31
0.0
  0
LINE
  5
C69A
330
C5B5
100
AcDbEntity
  8
1
  6
Continuous
100
AcDbLine
 10
41.62500199999999
 20
236.1783509999999
 30
0.0
 11
42.25000199999999
 21
238.6783509999998
 31
0.0
  0
LINE
  5
C69B
330
C5B5
100
AcDbEntity
  8
1
  6
Continuous
100
AcDbLine
 10
41.00000199999999
 20
238.6783509999998
 30
0.0
 11
41.62500199999999
 21
236.1783509999999
 31
0.0
  0
LINE
  5
C69C
330
C5B5
100
AcDbEntity
  8
1
  6
Continuous
100
AcDbLine
 10
44.000002
 20
238.6783509999998
 30
0.0
 11
46.00000199999999
 21
236.1783509999999
 31
0.0
  0
LINE
  5
C69D
330
C5B5
100
AcDbEntity
  8
1
  6
Continuous
100
AcDbLine
 10
44.000002
 20
238.6783509999998
 30
0.0
 11
44.000002
 21
236.1783509999999
 31
0.0
  0
LINE
  5
C69E
330
C5B5
100
AcDbEntity
  8
1
  6
Continuous
100
AcDbLine
 10
46.00000199999999
 20
238.6783509999998
 30
0.0
 11
46.00000199999999
 21
236.1783509999999
 31
0.0
  0
LINE
  5
C69F
330
C5B5
100
AcDbEntity
  8
1
  6
Continuous
100
AcDbLine
 10
36.00000199999999
 20
238.6783509999998
 30
0.0
 11
36.75000199999999
 21
238.6783509999998
 31
0.0
  0
LINE
  5
C6A0
330
C5B5
100
AcDbEntity
  8
1
  6
Continuous
100
AcDbLine
 10
36.75000199999999
 20
236.1783509999999
 30
0.0
 11
36.00000199999999
 21
236.1783509999999
 31
0.0
  0
ARC
  5
C6A1
330
C5B5
100
AcDbEntity
  8
1
  6
Continuous
100
AcDbCircle
 10
36.75000199999999
 20
237.4283509999997
 30
0.0
 40
1.25
100
AcDbArc
 50
270.0
 51
90.0
  0
LINE
  5
C6A2
330
C5B5
100
AcDbEntity
  8
1
  6
Continuous
100
AcDbLine
 10
36.00000199999999
 20
236.1783509999999
 30
0.0
 11
36.00000199999999
 21
238.6783509999998
 31
0.0
  0
LINE
  5
C6A3
330
C5B5
100
AcDbEntity
  8
1
  6
Continuous
100
AcDbLine
 10
43.40000199999997
 20
249.414571
 30
0.0
 11
43.40000199999997
 21
249.2567609999999
 31
0.0
  0
LINE
  5
C6A4
330
C5B5
100
AcDbEntity
  8
1
  6
Continuous
100
AcDbLine
 10
42.00000199999998
 20
249.093992
 30
0.0
 11
42.00000199999998
 21
248.9427189999998
 31
0.0
  0
LINE
  5
C6A5
330
C5B5
100
AcDbEntity
  8
1
  6
Continuous
100
AcDbLine
 10
47.37103000000002
 20
252.1783509999997
 30
0.0
 11
50.40000199999997
 21
252.1783509999997
 31
0.0
  0
LINE
  5
C6A6
330
C5B5
100
AcDbEntity
  8
1
  6
Continuous
100
AcDbLine
 10
46.53082500000005
 20
251.1783509999998
 30
0.0
 11
50.40000199999997
 21
251.1783509999998
 31
0.0
  0
LINE
  5
C6A7
330
C5B5
100
AcDbEntity
  8
1
  6
Continuous
100
AcDbLine
 10
45.31161399999996
 20
250.1783509999996
 30
0.0
 11
50.39148799999998
 21
250.1783509999996
 31
0.0
  0
LINE
  5
C6A8
330
C5B5
100
AcDbEntity
  8
1
  6
Continuous
100
AcDbLine
 10
43.14243099999997
 20
249.1783509999998
 30
0.0
 11
50.29516199999999
 21
249.1783509999998
 31
0.0
  0
LINE
  5
C6A9
330
C5B5
100
AcDbEntity
  8
1
  6
Continuous
100
AcDbLine
 10
36.78099699999995
 20
242.178351
 30
0.0
 11
45.21900700000002
 21
242.178351
 31
0.0
  0
LINE
  5
C6AA
330
C5B5
100
AcDbEntity
  8
1
  6
Continuous
100
AcDbLine
 10
41.00000199999999
 20
229.1783509999999
 30
0.0
 11
51.000002
 21
240.6783509999999
 31
0.0
  0
ARC
  5
C6AB
330
C5B5
100
AcDbEntity
  8
1
  6
Continuous
100
AcDbCircle
 10
50.40000199999997
 20
265.1783509999999
 30
0.0
 40
0.5
100
AcDbArc
 50
0.0
 51
90.0
  0
LINE
  5
C6AC
330
C5B5
100
AcDbEntity
  8
1
  6
Continuous
100
AcDbLine
 10
43.40000199999997
 20
264.099941
 30
0.0
 11
43.40000199999997
 21
263.942131
 31
0.0
  0
LINE
  5
C6AD
330
C5B5
100
AcDbEntity
  8
1
  6
Continuous
100
AcDbLine
 10
48.26378199999999
 20
259.078351
 30
0.0
 11
48.42159200000002
 21
259.078351
 31
0.0
  0
LINE
  5
C6AE
330
C5B5
100
AcDbEntity
  8
1
  6
Continuous
100
AcDbLine
 10
48.78395999999998
 20
257.1783509999999
 30
0.0
 11
50.40000199999997
 21
257.1783509999999
 31
0.0
  0
LINE
  5
C6AF
330
C5B5
100
AcDbEntity
  8
1
  6
Continuous
100
AcDbLine
 10
48.65441199999998
 20
258.1783509999999
 30
0.0
 11
50.40000199999997
 21
258.1783509999999
 31
0.0
  0
LINE
  5
C6B0
330
C5B5
100
AcDbEntity
  8
1
  6
Continuous
100
AcDbLine
 10
48.388507
 20
259.1783509999999
 30
0.0
 11
50.40000199999997
 21
259.1783509999999
 31
0.0
  0
LINE
  5
C6B1
330
C5B5
100
AcDbEntity
  8
1
  6
Continuous
100
AcDbLine
 10
47.97065499999996
 20
260.1783509999999
 30
0.0
 11
50.40000199999997
 21
260.1783509999999
 31
0.0
  0
LINE
  5
C6B2
330
C5B5
100
AcDbEntity
  8
1
  6
Continuous
100
AcDbLine
 10
47.37103000000002
 20
261.1783509999999
 30
0.0
 11
50.40000199999997
 21
261.1783509999999
 31
0.0
  0
LINE
  5
C6B3
330
C5B5
100
AcDbEntity
  8
1
  6
Continuous
100
AcDbLine
 10
46.53082500000005
 20
262.1783509999999
 30
0.0
 11
50.40000199999997
 21
262.1783509999999
 31
0.0
  0
LINE
  5
C6B4
330
C5B5
100
AcDbEntity
  8
1
  6
Continuous
100
AcDbLine
 10
45.31161399999996
 20
263.1783509999999
 30
0.0
 11
50.40000199999997
 21
263.1783509999999
 31
0.0
  0
LINE
  5
C6B5
330
C5B5
100
AcDbEntity
  8
1
  6
Continuous
100
AcDbLine
 10
43.14243099999997
 20
264.1783509999999
 30
0.0
 11
50.40000199999997
 21
264.1783509999999
 31
0.0
  0
LINE
  5
C6B6
330
C5B5
100
AcDbEntity
  8
1
  6
Continuous
100
AcDbLine
 10
48.78395999999998
 20
256.1783509999997
 30
0.0
 11
50.40000199999997
 21
256.1783509999997
 31
0.0
  0
ARC
  5
C6B7
330
C5B5
100
AcDbEntity
  8
1
  6
Continuous
100
AcDbCircle
 10
49.40000199999997
 20
267.1783509999999
 30
0.0
 40
1.5
100
AcDbArc
 50
270.0
 51
0.0
  0
LINE
  5
C6B8
330
C5B5
100
AcDbEntity
  8
1
  6
Continuous
100
AcDbLine
 10
48.26378199999999
 20
254.2783509999998
 30
0.0
 11
48.42159200000002
 21
254.2783509999998
 31
0.0
  0
LINE
  5
C6B9
330
C5B5
100
AcDbEntity
  8
1
  6
Continuous
100
AcDbLine
 10
48.65441199999998
 20
255.1783509999999
 30
0.0
 11
50.40000199999997
 21
255.1783509999999
 31
0.0
  0
LINE
  5
C6BA
330
C5B5
100
AcDbEntity
  8
1
  6
Continuous
100
AcDbLine
 10
48.388507
 20
254.1783509999997
 30
0.0
 11
50.40000199999997
 21
254.1783509999997
 31
0.0
  0
LINE
  5
C6BB
330
C5B5
100
AcDbEntity
  8
1
  6
Continuous
100
AcDbLine
 10
47.97065499999996
 20
253.1783509999999
 30
0.0
 11
50.40000199999997
 21
253.1783509999999
 31
0.0
  0
LINE
  5
C6BC
330
C5B5
100
AcDbEntity
  8
1
  6
Continuous
100
AcDbLine
 10
42.05000199999995
 20
253.3283509999999
 30
0.0
 11
42.05000199999995
 21
260.3283509999999
 31
0.0
  0
CIRCLE
  5
C6BD
330
C5B5
100
AcDbEntity
  8
1
  6
Continuous
100
AcDbCircle
 10
41.00000199999999
 20
262.3783509999995
 30
0.0
 40
0.45
  0
LINE
  5
C6BE
330
C5B5
100
AcDbEntity
  8
1
  6
Continuous
100
AcDbLine
 10
38.60000200000001
 20
264.099941
 30
0.0
 11
38.60000200000001
 21
263.942131
 31
0.0
  0
LINE
  5
C6C4
330
C5B5
100
AcDbEntity
  8
1
  6
Continuous
100
AcDbLine
 10
39.95000200000004
 20
253.3283509999999
 30
0.0
 11
39.95000200000004
 21
260.3283509999999
 31
0.0
  0
LINE
  5
C6C5
330
C5B5
100
AcDbEntity
  8
1
  6
Continuous
100
AcDbLine
 10
42.05000199999995
 20
260.3283509999999
 30
0.0
 11
39.95000200000004
 21
260.3283509999999
 31
0.0
  0
LINE
  5
C6C6
330
C5B5
100
AcDbEntity
  8
1
  6
Continuous
100
AcDbLine
 10
42.05000199999995
 20
253.3283509999999
 30
0.0
 11
39.95000200000004
 21
253.3283509999999
 31
0.0
  0
LINE
  5
C6CC
330
C5B5
100
AcDbEntity
  8
1
  6
Continuous
100
AcDbLine
 10
31.00000199999999
 20
297.0067779999999
 30
0.0
 11
31.10000200000001
 21
297.0067779999999
 31
0.0
  0
LINE
  5
C6CD
330
C5B5
100
AcDbEntity
  8
1
  6
Continuous
100
AcDbLine
 10
31.00000199999999
 20
294.0067779999998
 30
0.0
 11
31.10000200000001
 21
294.0067779999998
 31
0.0
  0
LINE
  5
C6CE
330
C5B5
100
AcDbEntity
  8
1
  6
Continuous
100
AcDbLine
 10
50.90000199999997
 20
297.0067779999999
 30
0.0
 11
51.000002
 21
297.0067779999999
 31
0.0
  0
LINE
  5
C6CF
330
C5B5
100
AcDbEntity
  8
1
  6
Continuous
100
AcDbLine
 10
50.90000199999997
 20
294.0067779999998
 30
0.0
 11
51.000002
 21
294.0067779999998
 31
0.0
  0
LINE
  5
C6D0
330
C5B5
100
AcDbEntity
  8
4
  6
CENTER
100
AcDbLine
 10
45.46039099999996
 20
362.1783509999998
 30
0.0
 11
35.779314
 21
362.1783509999998
 31
0.0
  0
LINE
  5
C6D1
330
C5B5
100
AcDbEntity
  8
4
  6
CENTER
100
AcDbLine
 10
61.04485599999998
 20
340.1783509999998
 30
0.0
 11
21.86103200000002
 21
340.1783509999998
 31
0.0
  0
LINE
  5
C6D2
330
C5B5
100
AcDbEntity
  8
1
  6
Continuous
100
AcDbLine
 10
30.00000199999999
 20
367.1783509999999
 30
0.0
 11
52.00000199999998
 21
367.1783509999999
 31
0.0
  0
LINE
  5
C6D3
330
C5B5
100
AcDbEntity
  8
1
  6
Continuous
100
AcDbLine
 10
30.00000199999999
 20
369.1783509999999
 30
0.0
 11
52.00000199999998
 21
369.1783509999999
 31
0.0
  0
ARC
  5
C6D4
330
C5B5
100
AcDbEntity
  8
1
  6
Continuous
100
AcDbCircle
 10
41.00000199999999
 20
342.2783509999999
 30
0.0
 40
9.9
100
AcDbArc
 50
0.0
 51
180.0
  0
ARC
  5
C6D5
330
C5B5
100
AcDbEntity
  8
1
  6
Continuous
100
AcDbCircle
 10
41.00000199999999
 20
343.6783509999998
 30
0.0
 40
10.0
100
AcDbArc
 50
0.0
 51
180.0
  0
LINE
  5
C6D6
330
C5B5
100
AcDbEntity
  8
1
  6
Continuous
100
AcDbLine
 10
31.00000199999999
 20
342.6783509999998
 30
0.0
 11
31.10000200000001
 21
342.6783509999998
 31
0.0
  0
ARC
  5
C6D7
330
C5B5
100
AcDbEntity
  8
1
  6
Continuous
100
AcDbCircle
 10
41.00000199999999
 20
344.2783509999999
 30
0.0
 40
9.9
100
AcDbArc
 50
172.1138339999999
 51
180.0
  0
LINE
  5
C6D8
330
C5B5
100
AcDbEntity
  8
1
  6
Continuous
100
AcDbLine
 10
31.00000199999999
 20
343.6783509999998
 30
0.0
 11
31.10000200000001
 21
343.6783509999998
 31
0.0
  0
LINE
  5
C6D9
330
C5B5
100
AcDbEntity
  8
1
  6
Continuous
100
AcDbLine
 10
31.00000199999999
 20
337.6783509999998
 30
0.0
 11
31.10000200000001
 21
337.6783509999998
 31
0.0
  0
LINE
  5
C6DA
330
C5B5
100
AcDbEntity
  8
1
  6
Continuous
100
AcDbLine
 10
31.00000199999999
 20
333.1783509999998
 30
0.0
 11
31.10000200000001
 21
333.1783509999998
 31
0.0
  0
ARC
  5
C6DB
330
C5B5
100
AcDbEntity
  8
1
  6
Continuous
100
AcDbCircle
 10
30.00000199999999
 20
364.1783509999998
 30
0.0
 40
3.0
100
AcDbArc
 50
90.0
 51
180.0
  0
ARC
  5
C6DC
330
C5B5
100
AcDbEntity
  8
1
  6
Continuous
100
AcDbCircle
 10
30.00000199999999
 20
364.1783509999998
 30
0.0
 40
5.0
100
AcDbArc
 50
90.0
 51
180.0
  0
LINE
  5
C6DD
330
C5B5
100
AcDbEntity
  8
1
  6
Continuous
100
AcDbLine
 10
50.90000199999997
 20
342.6783509999998
 30
0.0
 11
51.000002
 21
342.6783509999998
 31
0.0
  0
ARC
  5
C6DE
330
C5B5
100
AcDbEntity
  8
1
  6
Continuous
100
AcDbCircle
 10
41.00000199999999
 20
344.2783509999999
 30
0.0
 40
9.9
100
AcDbArc
 50
0.0
 51
7.886166000000002
  0
LINE
  5
C6DF
330
C5B5
100
AcDbEntity
  8
1
  6
Continuous
100
AcDbLine
 10
50.90000199999997
 20
343.6783509999998
 30
0.0
 11
51.000002
 21
343.6783509999998
 31
0.0
  0
LINE
  5
C6E0
330
C5B5
100
AcDbEntity
  8
1
  6
Continuous
100
AcDbLine
 10
50.90000199999997
 20
337.6783509999998
 30
0.0
 11
51.000002
 21
337.6783509999998
 31
0.0
  0
LINE
  5
C6E1
330
C5B5
100
AcDbEntity
  8
1
  6
Continuous
100
AcDbLine
 10
50.90000199999997
 20
333.1783509999998
 30
0.0
 11
51.000002
 21
333.1783509999998
 31
0.0
  0
ARC
  5
C6E2
330
C5B5
100
AcDbEntity
  8
1
  6
Continuous
100
AcDbCircle
 10
52.00000199999998
 20
364.1783509999998
 30
0.0
 40
3.0
100
AcDbArc
 50
0.0
 51
90.0
  0
ARC
  5
C6E3
330
C5B5
100
AcDbEntity
  8
1
  6
Continuous
100
AcDbCircle
 10
52.00000199999998
 20
364.1783509999998
 30
0.0
 40
5.0
100
AcDbArc
 50
0.0
 51
90.0
  0
LINE
  5
C6E4
330
C5B5
100
AcDbEntity
  8
1
  6
Continuous
100
AcDbLine
 10
209.357698
 20
293.1783509999998
 30
0.0
 11
209.357698
 21
243.1783509999998
 31
0.0
  0
LINE
  5
C6E5
330
C5B5
100
AcDbEntity
  8
1
  6
Continuous
100
AcDbLine
 10
194.357698
 20
227.1783509999999
 30
0.0
 11
194.357698
 21
369.1783509999999
 31
0.0
  0
LINE
  5
C6E6
330
C5B5
100
AcDbEntity
  8
1
  6
Continuous
100
AcDbLine
 10
195.8576979999998
 20
227.1783509999999
 30
0.0
 11
195.8576979999998
 21
369.1783509999999
 31
0.0
  0
LINE
  5
C6E7
330
C5B5
100
AcDbEntity
  8
1
  6
Continuous
100
AcDbLine
 10
192.857698
 20
229.1783509999999
 30
0.0
 11
192.857698
 21
367.1783509999999
 31
0.0
  0
LINE
  5
C6E8
330
C5B5
100
AcDbEntity
  8
1
  6
Continuous
100
AcDbLine
 10
194.357698
 20
227.1783509999999
 30
0.0
 11
195.8576979999998
 21
227.1783509999999
 31
0.0
  0
LINE
  5
C6E9
330
C5B5
100
AcDbEntity
  8
4
  6
CENTER
100
AcDbLine
 10
191.6068859999999
 20
234.1783509999999
 30
0.0
 11
205.2403659999999
 21
234.1783509999999
 31
0.0
  0
LINE
  5
C6EA
330
C5B5
100
AcDbEntity
  8
1
  6
Continuous
100
AcDbLine
 10
194.357698
 20
227.1783509999999
 30
0.0
 11
192.857698
 21
229.1783509999999
 31
0.0
  0
LINE
  5
C6EB
330
C5B5
100
AcDbEntity
  8
1
  6
Continuous
100
AcDbLine
 10
192.857698
 20
265.6783509999999
 30
0.0
 11
190.357698
 21
240.6783509999999
 31
0.0
  0
LINE
  5
C6EC
330
C5B5
100
AcDbEntity
  8
1
  6
Continuous
100
AcDbLine
 10
192.5576979999999
 20
256.5783509999999
 30
0.0
 11
192.5576979999999
 21
241.1783509999998
 31
0.0
  0
LINE
  5
C6ED
330
C5B5
100
AcDbEntity
  8
1
  6
Continuous
100
AcDbLine
 10
192.5576979999999
 20
246.6783509999999
 30
0.0
 11
192.857698
 21
246.6783509999999
 31
0.0
  0
LINE
  5
C6EE
330
C5B5
100
AcDbEntity
  8
1
  6
Continuous
100
AcDbLine
 10
190.357698
 20
240.6783509999999
 30
0.0
 11
192.5576979999999
 21
240.6783509999999
 31
0.0
  0
ARC
  5
C6EF
330
C5B5
100
AcDbEntity
  8
1
  6
Continuous
100
AcDbCircle
 10
192.0576979999999
 20
241.1783509999998
 30
0.0
 40
0.5
100
AcDbArc
 50
270.0
 51
0.0
  0
ARC
  5
C6F0
330
C5B5
100
AcDbEntity
  8
1
  6
Continuous
100
AcDbCircle
 10
192.5576979999999
 20
240.8783509999996
 30
0.0
 40
0.2
100
AcDbArc
 50
270.0
 51
0.0
  0
LINE
  5
C6F1
330
C5B5
100
AcDbEntity
  8
1
  6
Continuous
100
AcDbLine
 10
192.7576979999999
 20
246.6783509999999
 30
0.0
 11
192.7576979999999
 21
240.8783509999996
 31
0.0
  0
LINE
  5
C6F2
330
C5B5
100
AcDbEntity
  8
1
  6
Continuous
100
AcDbLine
 10
207.5576979999999
 20
265.6783509999999
 30
0.0
 11
207.5576979999999
 21
240.2288609999999
 31
0.0
  0
LINE
  5
C6F3
330
C5B5
100
AcDbEntity
  8
1
  6
Continuous
100
AcDbLine
 10
207.8576979999999
 20
265.6783509999999
 30
0.0
 11
207.8576979999999
 21
243.1783509999998
 31
0.0
  0
LINE
  5
C6F4
330
C5B5
100
AcDbEntity
  8
1
  6
Continuous
100
AcDbLine
 10
207.7576979999999
 20
265.6783509999999
 30
0.0
 11
207.7576979999999
 21
240.178351
 31
0.0
  0
POLYLINE
  5
C6F5
330
C5B5
100
AcDbEntity
  8
1
  6
Continuous
100
AcDb2dPolyline
 66
     1
 10
0.0
 20
0.0
 30
0.0
 70
     2
  0
VERTEX
  5
C6F6
330
C6F5
100
AcDbEntity
  8
1
  6
Continuous
100
AcDbVertex
100
AcDb2dVertex
 10
207.7576979999999
 20
240.1964159999999
 30
0.0
 42
0.354857
  0
VERTEX
  5
C6F7
330
C6F5
100
AcDbEntity
  8
1
  6
Continuous
100
AcDbVertex
100
AcDb2dVertex
 10
207.7424739999999
 20
240.208833
 30
0.0
 42
0.056548
  0
VERTEX
  5
C6F8
330
C6F5
100
AcDbEntity
  8
1
  6
Continuous
100
AcDbVertex
100
AcDb2dVertex
 10
207.6991189999998
 20
240.219358
 30
0.0
 42
0.024387
  0
VERTEX
  5
C6F9
330
C6F5
100
AcDbEntity
  8
1
  6
Continuous
100
AcDbVertex
100
AcDb2dVertex
 10
207.634235
 20
240.2263919999999
 30
0.0
 42
0.016915
  0
VERTEX
  5
C6FA
330
C6F5
100
AcDbEntity
  8
1
  6
Continuous
100
AcDbVertex
100
AcDb2dVertex
 10
207.5576979999999
 20
240.2288609999999
 30
0.0
  0
SEQEND
  5
C6FB
330
C6F5
100
AcDbEntity
  8
1
  6
Continuous
  0
LINE
  5
C6FC
330
C5B5
100
AcDbEntity
  8
1
  6
Continuous
100
AcDbLine
 10
207.8576979999999
 20
243.1783509999998
 30
0.0
 11
209.357698
 21
243.1783509999998
 31
0.0
  0
LINE
  5
C6FD
330
C5B5
100
AcDbEntity
  8
1
  6
Continuous
100
AcDbLine
 10
203.357698
 20
238.1783509999999
 30
0.0
 11
203.857698
 21
237.6783509999996
 31
0.0
  0
LINE
  5
C6FE
330
C5B5
100
AcDbEntity
  8
1
  6
Continuous
100
AcDbLine
 10
195.8576979999998
 20
238.1783509999999
 30
0.0
 11
203.357698
 21
238.1783509999999
 31
0.0
  0
LINE
  5
C6FF
330
C5B5
100
AcDbEntity
  8
1
  6
Continuous
100
AcDbLine
 10
195.8576979999998
 20
240.178351
 30
0.0
 11
207.7576979999999
 21
240.178351
 31
0.0
  0
LINE
  5
C700
330
C5B5
100
AcDbEntity
  8
1
  6
Continuous
100
AcDbLine
 10
203.357698
 20
230.1783509999999
 30
0.0
 11
203.857698
 21
230.6783509999999
 31
0.0
  0
LINE
  5
C701
330
C5B5
100
AcDbEntity
  8
1
  6
Continuous
100
AcDbLine
 10
195.8576979999998
 20
230.1783509999999
 30
0.0
 11
203.357698
 21
230.1783509999999
 31
0.0
  0
LINE
  5
C702
330
C5B5
100
AcDbEntity
  8
1
  6
Continuous
100
AcDbLine
 10
203.357698
 20
230.1783509999999
 30
0.0
 11
203.357698
 21
238.1783509999999
 31
0.0
  0
LINE
  5
C703
330
C5B5
100
AcDbEntity
  8
1
  6
Continuous
100
AcDbLine
 10
203.857698
 20
237.6783509999996
 30
0.0
 11
203.857698
 21
230.6783509999999
 31
0.0
  0
LINE
  5
C704
330
C5B5
100
AcDbEntity
  8
4
  6
CENTER
100
AcDbLine
 10
212.7768069999999
 20
263.1783509999999
 30
0.0
 11
205.1267089999997
 21
263.1783509999999
 31
0.0
  0
LINE
  5
C705
330
C5B5
100
AcDbEntity
  8
1
  6
Continuous
100
AcDbLine
 10
207.5576979999999
 20
265.6783509999999
 30
0.0
 11
209.357698
 21
265.6783509999999
 31
0.0
  0
LINE
  5
C706
330
C5B5
100
AcDbEntity
  8
1
  6
Continuous
100
AcDbLine
 10
207.7576979999999
 20
259.078351
 30
0.0
 11
207.8576979999999
 21
259.078351
 31
0.0
  0
LINE
  5
C707
330
C5B5
100
AcDbEntity
  8
1
  6
Continuous
100
AcDbLine
 10
194.357698
 20
369.1783509999999
 30
0.0
 11
195.8576979999998
 21
369.1783509999999
 31
0.0
  0
LINE
  5
C708
330
C5B5
100
AcDbEntity
  8
4
  6
CENTER
100
AcDbLine
 10
190.6286499999998
 20
362.1783509999998
 30
0.0
 11
205.357698
 21
362.1783509999998
 31
0.0
  0
LINE
  5
C709
330
C5B5
100
AcDbEntity
  8
5
  6
PHANTOM
100
AcDbLine
 10
183.1300869999998
 20
329.2783269999998
 30
0.0
 11
148.4267399999998
 21
305.0425719999998
 31
0.0
  0
LINE
  5
C70A
330
C5B5
100
AcDbEntity
  8
5
  6
PHANTOM
100
AcDbLine
 10
192.857698
 20
340.9506779999998
 30
0.0
 11
137.1290599999999
 21
302.0315029999999
 31
0.0
  0
LINE
  5
C70B
330
C5B5
100
AcDbEntity
  8
5
  6
PHANTOM
100
AcDbLine
 10
192.857698
 20
344.609841
 30
0.0
 11
136.6411549999999
 21
305.3499279999998
 31
0.0
  0
LINE
  5
C70C
330
C5B5
100
AcDbEntity
  8
5
  6
PHANTOM
100
AcDbLine
 10
144.8653689999998
 20
297.0666739999998
 30
0.0
 11
138.3588489999999
 21
302.89035
 31
0.0
  0
LINE
  5
C70D
330
C5B5
100
AcDbEntity
  8
5
  6
PHANTOM
100
AcDbLine
 10
146.0402689999998
 20
306.2333529999999
 30
0.0
 11
149.9161239999999
 21
297.945535
 31
0.0
  0
ARC
  5
C70E
330
C5B5
100
AcDbEntity
  8
5
  6
PHANTOM
100
AcDbCircle
 10
149.0102839999999
 20
297.5219139999998
 30
0.0
 40
1.0
100
AcDbArc
 50
304.9292699999998
 51
25.063463
  0
LINE
  5
C70F
330
C5B5
100
AcDbEntity
  8
5
  6
PHANTOM
100
AcDbLine
 10
149.582849
 20
296.7020539999998
 30
0.0
 11
144.5334139999998
 21
293.1756829999999
 31
0.0
  0
ARC
  5
C710
330
C5B5
100
AcDbEntity
  8
5
  6
PHANTOM
100
AcDbCircle
 10
143.9608499999999
 20
293.9955429999999
 30
0.0
 40
1.0
100
AcDbArc
 50
214.92927
 51
304.9292699999998
  0
ARC
  5
C711
330
C5B5
100
AcDbEntity
  8
5
  6
PHANTOM
100
AcDbCircle
 10
142.6920729999999
 20
294.9390499999998
 30
0.0
 40
0.5
100
AcDbArc
 50
124.9292699999999
 51
214.92927
  0
LINE
  5
C712
330
C5B5
100
AcDbEntity
  8
5
  6
PHANTOM
100
AcDbLine
 10
144.8653689999998
 20
297.0666739999998
 30
0.0
 11
142.4057899999999
 21
295.3489789999999
 31
0.0
  0
LINE
  5
C713
330
C5B5
100
AcDbEntity
  8
5
  6
PHANTOM
100
AcDbLine
 10
142.2821429999999
 20
294.6527669999998
 30
0.0
 11
143.1409899999998
 21
293.4229779999999
 31
0.0
  0
LINE
  5
C714
330
C5B5
100
AcDbEntity
  8
5
  6
PHANTOM
100
AcDbLine
 10
136.2702129999999
 20
303.2612919999999
 30
0.0
 11
137.1290599999999
 21
302.0315029999999
 31
0.0
  0
ARC
  5
C715
330
C5B5
100
AcDbEntity
  8
5
  6
PHANTOM
100
AcDbCircle
 10
137.5000019999999
 20
304.1201389999999
 30
0.0
 40
1.5
100
AcDbArc
 50
124.9292699999999
 51
214.92927
  0
ARC
  5
C716
330
C5B5
100
AcDbEntity
  8
5
  6
PHANTOM
100
AcDbCircle
 10
147.8519469999998
 20
307.080597
 30
0.0
 40
2.0
100
AcDbArc
 50
124.9292699999999
 51
205.0634629999998
  0
ARC
  5
C717
330
C5B5
100
AcDbEntity
  8
5
  6
PHANTOM
100
AcDbCircle
 10
149.5718689999998
 20
303.4028529999998
 30
0.0
 40
2.0
100
AcDbArc
 50
124.9292699999999
 51
205.0634629999998
  0
LINE
  5
C718
330
C5B5
100
AcDbEntity
  8
5
  6
PHANTOM
100
AcDbLine
 10
185.9076889999998
 20
333.012064
 30
0.0
 11
187.254226
 21
332.938358
 31
0.0
  0
LINE
  5
C719
330
C5B5
100
AcDbEntity
  8
5
  6
PHANTOM
100
AcDbLine
 10
184.459548
 20
335.0856669999997
 30
0.0
 11
185.9076889999998
 21
333.012064
 31
0.0
  0
LINE
  5
C71A
330
C5B5
100
AcDbEntity
  8
5
  6
PHANTOM
100
AcDbLine
 10
185.9076889999998
 20
333.012064
 30
0.0
 11
187.960348
 21
337.5305189999998
 31
0.0
  0
ARC
  5
C71B
330
C5B5
100
AcDbEntity
  8
5
  6
PHANTOM
100
AcDbCircle
 10
183.4402159999999
 20
328.8850509999998
 30
0.0
 40
0.5
100
AcDbArc
 50
131.5879469999996
 51
311.5879469999998
  0
LINE
  5
C71C
330
C5B5
100
AcDbEntity
  8
5
  6
PHANTOM
100
AcDbLine
 10
188.6732519999999
 20
332.8606849999999
 30
0.0
 11
192.857698
 21
332.63164
 31
0.0
  0
LINE
  5
C71D
330
C5B5
100
AcDbEntity
  8
5
  6
PHANTOM
100
AcDbLine
 10
183.7721009999999
 20
328.5110829999998
 30
0.0
 11
192.857698
 21
336.5742359999998
 31
0.0
  0
LINE
  5
C71E
330
C5B5
100
AcDbEntity
  8
5
  6
PHANTOM
100
AcDbLine
 10
183.108332
 20
329.25902
 30
0.0
 11
192.857698
 21
337.9112459999999
 31
0.0
  0
LINE
  5
C71F
330
C5B5
100
AcDbEntity
  8
1
  6
Continuous
100
AcDbLine
 10
192.857698
 20
367.1783509999999
 30
0.0
 11
194.357698
 21
369.1783509999999
 31
0.0
  0
LINE
  5
C720
330
C5B5
100
AcDbEntity
  8
1
  6
Continuous
100
AcDbLine
 10
216.0576979999999
 20
370.1783509999998
 30
0.0
 11
216.0576979999999
 21
325.1783509999998
 31
0.0
  0
LINE
  5
C721
330
C5B5
100
AcDbEntity
  8
1
  6
Continuous
100
AcDbLine
 10
212.857698
 20
370.1783509999998
 30
0.0
 11
212.857698
 21
325.1783509999998
 31
0.0
  0
LINE
  5
C722
330
C5B5
100
AcDbEntity
  8
1
  6
Continuous
100
AcDbLine
 10
212.3576979999999
 20
335.1783509999998
 30
0.0
 11
212.3576979999999
 21
296.1783509999999
 31
0.0
  0
LINE
  5
C723
330
C5B5
100
AcDbEntity
  8
1
  6
Continuous
100
AcDbLine
 10
209.357698
 20
293.1783509999998
 30
0.0
 11
212.3576979999999
 21
296.1783509999999
 31
0.0
  0
LINE
  5
C724
330
C5B5
100
AcDbEntity
  8
1
  6
Continuous
100
AcDbLine
 10
212.857698
 20
325.1783509999998
 30
0.0
 11
216.0576979999999
 21
325.1783509999998
 31
0.0
  0
LINE
  5
C725
330
C5B5
100
AcDbEntity
  8
1
  6
Continuous
100
AcDbLine
 10
220.8576979999997
 20
346.817879
 30
0.0
 11
217.1854779999999
 21
353.1783509999999
 31
0.0
  0
LINE
  5
C726
330
C5B5
100
AcDbEntity
  8
1
  6
Continuous
100
AcDbLine
 10
212.857698
 20
345.1783509999998
 30
0.0
 11
216.0576979999999
 21
345.1783509999998
 31
0.0
  0
LINE
  5
C727
330
C5B5
100
AcDbEntity
  8
4
  6
CENTER
100
AcDbLine
 10
217.965762
 20
335.1783509999998
 30
0.0
 11
211.2775729999999
 21
335.1783509999998
 31
0.0
  0
LINE
  5
C728
330
C5B5
100
AcDbEntity
  8
1
  6
Continuous
100
AcDbLine
 10
212.3576979999999
 20
333.1783509999998
 30
0.0
 11
212.857698
 21
333.1783509999998
 31
0.0
  0
LINE
  5
C729
330
C5B5
100
AcDbEntity
  8
1
  6
Continuous
100
AcDbLine
 10
218.6576979999999
 20
340.1783509999998
 30
0.0
 11
217.357698
 21
338.8783509999998
 31
0.0
  0
LINE
  5
C72A
330
C5B5
100
AcDbEntity
  8
1
  6
Continuous
100
AcDbLine
 10
217.357698
 20
340.1783509999998
 30
0.0
 11
218.6576979999999
 21
341.4783509999998
 31
0.0
  0
ARC
  5
C72B
330
C5B5
100
AcDbEntity
  8
1
  6
Continuous
100
AcDbCircle
 10
209.9576979999999
 20
340.1783509999998
 30
0.0
 40
12.0
100
AcDbArc
 50
344.506032
 51
15.493968
  0
LINE
  5
C72C
330
C5B5
100
AcDbEntity
  8
1
  6
Continuous
100
AcDbLine
 10
218.3401779999999
 20
351.1783509999998
 30
0.0
 11
216.0576979999999
 21
351.1783509999998
 31
0.0
  0
LINE
  5
C72D
330
C5B5
100
AcDbEntity
  8
1
  6
Continuous
100
AcDbLine
 10
218.6576979999999
 20
344.6783509999999
 30
0.0
 11
220.1191959999998
 21
344.5504869999999
 31
0.0
  0
LINE
  5
C72E
330
C5B5
100
AcDbEntity
  8
1
  6
Continuous
100
AcDbLine
 10
217.357698
 20
344.7783509999999
 30
0.0
 11
218.6576979999999
 21
344.7783509999999
 31
0.0
  0
LINE
  5
C72F
330
C5B5
100
AcDbEntity
  8
1
  6
Continuous
100
AcDbLine
 10
216.0576979999999
 20
344.046598
 30
0.0
 11
216.3576979999999
 21
344.2198029999998
 31
0.0
  0
LINE
  5
C730
330
C5B5
100
AcDbEntity
  8
1
  6
Continuous
100
AcDbLine
 10
216.0576979999999
 20
343.4283509999998
 30
0.0
 11
216.3576979999999
 21
343.4283509999998
 31
0.0
  0
LINE
  5
C731
330
C5B5
100
AcDbEntity
  8
1
  6
Continuous
100
AcDbLine
 10
216.3576979999999
 20
345.1783509999998
 30
0.0
 11
217.357698
 21
345.1783509999998
 31
0.0
  0
LINE
  5
C732
330
C5B5
100
AcDbEntity
  8
1
  6
Continuous
100
AcDbLine
 10
218.6576979999999
 20
335.6783509999998
 30
0.0
 11
220.1191959999998
 21
335.8062159999997
 31
0.0
  0
LINE
  5
C733
330
C5B5
100
AcDbEntity
  8
1
  6
Continuous
100
AcDbLine
 10
216.0576979999999
 20
336.9283509999998
 30
0.0
 11
216.3576979999999
 21
336.9283509999998
 31
0.0
  0
LINE
  5
C734
330
C5B5
100
AcDbEntity
  8
1
  6
Continuous
100
AcDbLine
 10
217.357698
 20
335.5783509999998
 30
0.0
 11
218.6576979999999
 21
335.5783509999998
 31
0.0
  0
LINE
  5
C735
330
C5B5
100
AcDbEntity
  8
1
  6
Continuous
100
AcDbLine
 10
216.3576979999999
 20
335.1783509999998
 30
0.0
 11
217.357698
 21
335.1783509999998
 31
0.0
  0
LINE
  5
C736
330
C5B5
100
AcDbEntity
  8
1
  6
Continuous
100
AcDbLine
 10
216.3576979999999
 20
335.1783509999998
 30
0.0
 11
216.3576979999999
 21
345.1783509999998
 31
0.0
  0
LINE
  5
C737
330
C5B5
100
AcDbEntity
  8
1
  6
Continuous
100
AcDbLine
 10
217.357698
 20
335.1783509999998
 30
0.0
 11
217.357698
 21
345.1783509999998
 31
0.0
  0
LINE
  5
C738
330
C5B5
100
AcDbEntity
  8
1
  6
Continuous
100
AcDbLine
 10
218.6576979999999
 20
335.5783509999998
 30
0.0
 11
218.6576979999999
 21
344.7783509999999
 31
0.0
  0
ARC
  5
C739
330
C5B5
100
AcDbEntity
  8
1
  6
Continuous
100
AcDbCircle
 10
219.979747
 20
337.4001269999999
 30
0.0
 40
1.6
100
AcDbArc
 50
275.0
 51
344.506032
  0
ARC
  5
C73A
330
C5B5
100
AcDbEntity
  8
1
  6
Continuous
100
AcDbCircle
 10
219.979747
 20
342.9565749999998
 30
0.0
 40
1.6
100
AcDbArc
 50
15.493968
 51
85.0
  0
LINE
  5
C73B
330
C5B5
100
AcDbEntity
  8
1
  6
Continuous
100
AcDbLine
 10
217.357698
 20
344.7971529999999
 30
0.0
 11
220.8576979999997
 21
346.817879
 31
0.0
  0
LINE
  5
C73C
330
C5B5
100
AcDbEntity
  8
4
  6
CENTER
100
AcDbLine
 10
218.6727629999996
 20
362.1783509999998
 30
0.0
 11
210.413199
 21
362.1783509999998
 31
0.0
  0
LINE
  5
C73D
330
C5B5
100
AcDbEntity
  8
1
  6
Continuous
100
AcDbLine
 10
212.857698
 20
370.1783509999998
 30
0.0
 11
216.0576979999999
 21
370.1783509999998
 31
0.0
  0
LINE
  5
C73E
330
C5B5
100
AcDbEntity
  8
1
  6
Continuous
100
AcDbLine
 10
203.357698
 20
366.1783509999998
 30
0.0
 11
203.857698
 21
365.6783509999999
 31
0.0
  0
LINE
  5
C73F
330
C5B5
100
AcDbEntity
  8
1
  6
Continuous
100
AcDbLine
 10
195.8576979999998
 20
366.1783509999998
 30
0.0
 11
203.357698
 21
366.1783509999998
 31
0.0
  0
LINE
  5
C740
330
C5B5
100
AcDbEntity
  8
1
  6
Continuous
100
AcDbLine
 10
203.357698
 20
358.1783509999998
 30
0.0
 11
203.857698
 21
358.6783509999999
 31
0.0
  0
LINE
  5
C741
330
C5B5
100
AcDbEntity
  8
1
  6
Continuous
100
AcDbLine
 10
195.8576979999998
 20
358.1783509999998
 30
0.0
 11
203.357698
 21
358.1783509999998
 31
0.0
  0
LINE
  5
C742
330
C5B5
100
AcDbEntity
  8
1
  6
Continuous
100
AcDbLine
 10
195.8576979999998
 20
356.1783509999998
 30
0.0
 11
212.857698
 21
356.1783509999998
 31
0.0
  0
LINE
  5
C743
330
C5B5
100
AcDbEntity
  8
1
  6
Continuous
100
AcDbLine
 10
203.357698
 20
358.1783509999998
 30
0.0
 11
203.357698
 21
366.1783509999998
 31
0.0
  0
LINE
  5
C744
330
C5B5
100
AcDbEntity
  8
1
  6
Continuous
100
AcDbLine
 10
203.857698
 20
365.6783509999999
 30
0.0
 11
203.857698
 21
358.6783509999999
 31
0.0
  0
LINE
  5
C745
330
C5B5
100
AcDbEntity
  8
1
  6
Continuous
100
AcDbLine
 10
217.1854779999999
 20
353.1783509999999
 30
0.0
 11
216.0576979999999
 21
353.1783509999999
 31
0.0
  0
LINE
  5
C746
330
C5B5
100
AcDbEntity
  8
4
  6
CENTER
100
AcDbLine
 10
251.1232679999998
 20
106.5000009999996
 30
0.0
 11
268.6173679999997
 21
106.5000009999996
 31
0.0
  0
ARC
  5
C748
330
C5B5
100
AcDbEntity
  8
1
  6
Continuous
100
AcDbCircle
 10
263.945268
 20
103.7220009999999
 30
0.0
 40
1.6
100
AcDbArc
 50
275.0000999999999
 51
344.5059999999998
  0
LINE
  5
C749
330
C5B5
100
AcDbEntity
  8
1
  6
Continuous
100
AcDbLine
 10
264.0847679999999
 20
102.1280009999999
 30
0.0
 11
262.623268
 21
102.0000009999999
 31
0.0
  0
ARC
  5
C74B
330
C5B5
100
AcDbEntity
  8
1
  6
Continuous
100
AcDbCircle
 10
263.945268
 20
109.278001
 30
0.0
 40
1.6
100
AcDbArc
 50
15.494
 51
85.0
  0
LINE
  5
C74C
330
C5B5
100
AcDbEntity
  8
1
  6
Continuous
100
AcDbLine
 10
264.0847679999999
 20
110.872001
 30
0.0
 11
262.623268
 21
111.000001
 31
0.0
  0
ARC
  5
C74D
330
C5B5
100
AcDbEntity
  8
1
  6
Continuous
100
AcDbCircle
 10
253.923268
 20
106.5000009999996
 30
0.0
 40
12.0
100
AcDbArc
 50
344.5059999999998
 51
15.494
  0
LINE
  5
C750
330
C5B5
100
AcDbEntity
  8
5
  6
PHANTOM
100
AcDbLine
 10
336.6023589999998
 20
354.320487
 30
0.0
 11
410.848571
 21
280.0742749999999
 31
0.0
  0
ARC
  5
C751
330
C5B5
100
AcDbEntity
  8
5
  6
PHANTOM
100
AcDbCircle
 10
382.5642999999999
 20
364.9270879999999
 30
0.0
 40
5.0
100
AcDbArc
 50
45.0
 51
135.0
  0
ARC
  5
C752
330
C5B5
100
AcDbEntity
  8
1
  6
Continuous
100
AcDbCircle
 10
381.457698
 20
344.178379
 30
0.0
 40
4.0
100
AcDbArc
 50
174.4754889999999
 51
5.170396
  0
ARC
  5
C753
330
C5B5
100
AcDbEntity
  8
1
  6
Continuous
100
AcDbCircle
 10
381.457698
 20
350.817879
 30
0.0
 40
4.0
100
AcDbArc
 50
174.4754889999999
 51
5.170396
  0
LINE
  5
C754
330
C5B5
100
AcDbEntity
  8
1
  6
Continuous
100
AcDbLine
 10
381.457698
 20
235.1988479999999
 30
0.0
 11
380.829221
 21
235.4276669999999
 31
0.0
  0
LINE
  5
C755
330
C5B5
100
AcDbEntity
  8
1
  6
Continuous
100
AcDbLine
 10
381.457698
 20
233.1578549999999
 30
0.0
 11
380.8292919999999
 21
232.9291059999999
 31
0.0
  0
CIRCLE
  5
C756
330
C5B5
100
AcDbEntity
  8
1
  6
Continuous
100
AcDbCircle
 10
381.457698
 20
234.1783509999999
 30
0.0
 40
4.5
  0
LINE
  5
C759
330
C5B5
100
AcDbEntity
  8
4
  6
CENTER
100
AcDbLine
 10
375.9801849999998
 20
362.1783509999998
 30
0.0
 11
387.0940809999996
 21
362.1783509999998
 31
0.0
  0
LINE
  5
C75A
330
C5B5
100
AcDbEntity
  8
1
  6
Continuous
100
AcDbLine
 10
378.9576979999998
 20
353.1783509999999
 30
0.0
 11
381.9427269999998
 21
353.1783509999999
 31
0.0
  0
LINE
  5
C75B
330
C5B5
100
AcDbEntity
  8
1
  6
Continuous
100
AcDbLine
 10
361.9576979999998
 20
370.1783509999998
 30
0.0
 11
401.957698
 21
370.1783509999998
 31
0.0
  0
LINE
  5
C75C
330
C5B5
100
AcDbEntity
  8
1
  6
Continuous
100
AcDbLine
 10
336.957698
 20
325.1783509999998
 30
0.0
 11
441.957698
 21
325.1783509999998
 31
0.0
  0
LINE
  5
C75D
330
C5B5
100
AcDbEntity
  8
4
  6
CENTER
100
AcDbLine
 10
365.4576979999998
 20
340.1783509999998
 30
0.0
 11
397.4576980000002
 21
340.1783509999998
 31
0.0
  0
ARC
  5
C75E
330
C5B5
100
AcDbEntity
  8
1
  6
Continuous
100
AcDbCircle
 10
381.457698
 20
342.1783509999998
 30
0.0
 40
6.0
100
AcDbArc
 50
221.980039
 51
318.0199609999998
  0
ARC
  5
C75F
330
C5B5
100
AcDbEntity
  8
1
  6
Continuous
100
AcDbCircle
 10
381.457698
 20
348.1783509999999
 30
0.0
 40
5.0
100
AcDbArc
 50
36.869898
 51
143.130102
  0
LINE
  5
C760
330
C5B5
100
AcDbEntity
  8
1
  6
Continuous
100
AcDbLine
 10
378.8249679999998
 20
280.2828349999998
 30
0.0
 11
380.9001679999998
 21
280.2828349999998
 31
0.0
  0
LINE
  5
C761
330
C5B5
100
AcDbEntity
  8
1
  6
Continuous
100
AcDbLine
 10
370.9576979999998
 20
243.1783509999998
 30
0.0
 11
391.957698
 21
243.1783509999998
 31
0.0
  0
LINE
  5
C762
330
C5B5
100
AcDbEntity
  8
1
  6
Continuous
100
AcDbLine
 10
368.457698
 20
265.6783509999999
 30
0.0
 11
394.4576979999998
 21
265.6783509999999
 31
0.0
  0
LINE
  5
C763
330
C5B5
100
AcDbEntity
  8
1
  6
Continuous
100
AcDbLine
 10
368.457698
 20
293.1783509999998
 30
0.0
 11
394.4576979999998
 21
293.1783509999998
 31
0.0
  0
LINE
  5
C764
330
C5B5
100
AcDbEntity
  8
1
  6
Continuous
100
AcDbLine
 10
368.457698
 20
296.1783509999999
 30
0.0
 11
394.4576979999998
 21
296.1783509999999
 31
0.0
  0
LINE
  5
C765
330
C5B5
100
AcDbEntity
  8
1
  6
Continuous
100
AcDbLine
 10
370.9576979999998
 20
240.178351
 30
0.0
 11
391.957698
 21
240.178351
 31
0.0
  0
LINE
  5
C767
330
C5B5
100
AcDbEntity
  8
1
  6
Continuous
100
AcDbLine
 10
392.457698
 20
227.1783509999999
 30
0.0
 11
370.4576979999998
 21
227.1783509999999
 31
0.0
  0
LINE
  5
C768
330
C5B5
100
AcDbEntity
  8
4
  6
CENTER
100
AcDbLine
 10
390.8112489999999
 20
234.1783509999999
 30
0.0
 11
373.0137769999998
 21
234.1783509999999
 31
0.0
  0
LINE
  5
C769
330
C5B5
100
AcDbEntity
  8
1
  6
Continuous
100
AcDbLine
 10
365.4576979999998
 20
325.1783509999998
 30
0.0
 11
365.4576979999998
 21
232.1783509999999
 31
0.0
  0
LINE
  5
C76A
330
C5B5
100
AcDbEntity
  8
1
  6
Continuous
100
AcDbLine
 10
368.457698
 20
325.1783509999998
 30
0.0
 11
368.457698
 21
242.6783509999999
 31
0.0
  0
LINE
  5
C76B
330
C5B5
100
AcDbEntity
  8
4
  6
CENTER
100
AcDbLine
 10
251.1233029999997
 20
234.1783509999999
 30
0.0
 11
268.3026029999998
 21
234.1783509999999
 31
0.0
  0
LINE
  5
C76C
330
C5B5
100
AcDbEntity
  8
1
  6
Continuous
100
AcDbLine
 10
264.0848029999999
 20
238.5503509999999
 30
0.0
 11
262.6233029999998
 21
238.6783509999998
 31
0.0
  0
ARC
  5
C76E
330
C5B5
100
AcDbEntity
  8
1
  6
Continuous
100
AcDbCircle
 10
263.9453029999998
 20
236.9563509999999
 30
0.0
 40
1.6
100
AcDbArc
 50
15.494
 51
84.99990000000002
  0
LINE
  5
C76F
330
C5B5
100
AcDbEntity
  8
1
  6
Continuous
100
AcDbLine
 10
264.0848029999999
 20
229.8063509999996
 30
0.0
 11
262.6233029999998
 21
229.678351
 31
0.0
  0
ARC
  5
C771
330
C5B5
100
AcDbEntity
  8
1
  6
Continuous
100
AcDbCircle
 10
263.9453029999998
 20
231.4003509999996
 30
0.0
 40
1.6
100
AcDbArc
 50
275.0
 51
344.5059999999998
  0
ARC
  5
C774
330
C5B5
100
AcDbEntity
  8
1
  6
Continuous
100
AcDbCircle
 10
253.9233029999998
 20
234.1783509999999
 30
0.0
 40
12.0
100
AcDbArc
 50
344.5059999999998
 51
15.494
  0
ARC
  5
C775
330
C5B5
100
AcDbEntity
  8
1
  6
Continuous
100
AcDbCircle
 10
370.4576979999998
 20
232.1783509999999
 30
0.0
 40
5.0
100
AcDbArc
 50
180.0
 51
270.0
  0
LINE
  5
C776
330
C5B5
100
AcDbEntity
  8
1
  6
Continuous
100
AcDbLine
 10
380.829221
 20
235.4276669999999
 30
0.0
 11
380.0479389999999
 21
236.1820799999999
 31
0.0
  0
LINE
  5
C777
330
C5B5
100
AcDbEntity
  8
1
  6
Continuous
100
AcDbLine
 10
380.4372009999998
 20
234.1783509999999
 30
0.0
 11
380.2084519999998
 21
234.8068979999999
 31
0.0
  0
LINE
  5
C778
330
C5B5
100
AcDbEntity
  8
1
  6
Continuous
100
AcDbLine
 10
380.2085230000001
 20
234.8068279999997
 30
0.0
 11
379.4539689999999
 21
235.5881099999999
 31
0.0
  0
LINE
  5
C779
330
C5B5
100
AcDbEntity
  8
1
  6
Continuous
100
AcDbLine
 10
380.2085230000001
 20
233.5498749999999
 30
0.0
 11
379.4539689999999
 21
232.7685919999999
 31
0.0
  0
LINE
  5
C77A
330
C5B5
100
AcDbEntity
  8
1
  6
Continuous
100
AcDbLine
 10
380.4372009999998
 20
234.1783509999999
 30
0.0
 11
380.2085230000001
 21
233.5498749999999
 31
0.0
  0
LINE
  5
C77B
330
C5B5
100
AcDbEntity
  8
1
  6
Continuous
100
AcDbLine
 10
380.8292919999999
 20
232.9291059999999
 30
0.0
 11
380.0479389999999
 21
232.174623
 31
0.0
  0
ARC
  5
C77C
330
C5B5
100
AcDbEntity
  8
1
  6
Continuous
100
AcDbCircle
 10
381.457698
 20
234.1783509999999
 30
0.0
 40
2.45
100
AcDbArc
 50
125.1291
 51
144.8709
  0
ARC
  5
C77D
330
C5B5
100
AcDbEntity
  8
1
  6
Continuous
100
AcDbCircle
 10
381.457698
 20
234.1783509999999
 30
0.0
 40
2.45
100
AcDbArc
 50
215.1289999999999
 51
234.871
  0
LINE
  5
C782
330
C5B5
100
AcDbEntity
  8
1
  6
Continuous
100
AcDbLine
 10
370.4576979999998
 20
240.2288609999999
 30
0.0
 11
370.4576979999998
 21
243.2288609999998
 31
0.0
  0
LINE
  5
C783
330
C5B5
100
AcDbEntity
  8
1
  6
Continuous
100
AcDbLine
 10
371.457698
 20
240.178351
 30
0.0
 11
371.457698
 21
243.1783509999998
 31
0.0
  0
ARC
  5
C784
330
C5B5
100
AcDbEntity
  8
1
  6
Continuous
100
AcDbCircle
 10
370.9576979999998
 20
242.6783509999999
 30
0.0
 40
2.5
100
AcDbArc
 50
180.0
 51
270.0
  0
ARC
  5
C785
330
C5B5
100
AcDbEntity
  8
1
  6
Continuous
100
AcDbCircle
 10
370.9576979999998
 20
245.6783509999999
 30
0.0
 40
2.5
100
AcDbArc
 50
180.0
 51
270.0
  0
LINE
  5
C786
330
C5B5
100
AcDbEntity
  8
1
  6
Continuous
100
AcDbLine
 10
379.4576879999998
 20
275.104843
 30
0.0
 11
380.4601679999996
 21
275.104843
 31
0.0
  0
LINE
  5
C787
330
C5B5
100
AcDbEntity
  8
1
  6
Continuous
100
AcDbLine
 10
375.9020879999998
 20
274.4731629999999
 30
0.0
 11
377.587688
 21
274.4731629999999
 31
0.0
  0
LINE
  5
C788
330
C5B5
100
AcDbEntity
  8
1
  6
Continuous
100
AcDbLine
 10
376.7588879999999
 20
276.7020269999998
 30
0.0
 11
375.518408
 21
273.5076429999998
 31
0.0
  0
LINE
  5
C789
330
C5B5
100
AcDbEntity
  8
1
  6
Continuous
100
AcDbLine
 10
376.7588879999999
 20
276.7076509999999
 30
0.0
 11
377.942648
 21
273.5076429999998
 31
0.0
  0
LINE
  5
C78A
330
C5B5
100
AcDbEntity
  8
1
  6
Continuous
100
AcDbLine
 10
372.5565200000001
 20
275.104843
 30
0.0
 11
374.5612879999998
 21
275.104843
 31
0.0
  0
LINE
  5
C78B
330
C5B5
100
AcDbEntity
  8
1
  6
Continuous
100
AcDbLine
 10
372.5565200000001
 20
276.7287709999998
 30
0.0
 11
372.5565200000001
 21
273.5287629999999
 31
0.0
  0
LINE
  5
C78C
330
C5B5
100
AcDbEntity
  8
1
  6
Continuous
100
AcDbLine
 10
374.5612879999998
 20
276.7287709999998
 30
0.0
 11
374.5612879999998
 21
273.5287629999999
 31
0.0
  0
LINE
  5
C78D
330
C5B5
100
AcDbEntity
  8
1
  6
Continuous
100
AcDbLine
 10
370.358896
 20
276.7048429999998
 30
0.0
 11
370.358896
 21
273.5048429999999
 31
0.0
  0
LINE
  5
C78E
330
C5B5
100
AcDbEntity
  8
1
  6
Continuous
100
AcDbLine
 10
369.1044879999998
 20
276.7048429999998
 30
0.0
 11
371.6244479999998
 21
276.7048429999998
 31
0.0
  0
ARC
  5
C78F
330
C5B5
100
AcDbEntity
  8
1
  6
Continuous
100
AcDbCircle
 10
375.457698
 20
263.1783509999999
 30
0.0
 40
1.199999999999999
100
AcDbArc
 50
298.3282509999999
 51
331.6717489999998
  0
ARC
  5
C790
330
C5B5
100
AcDbEntity
  8
1
  6
Continuous
100
AcDbCircle
 10
375.457698
 20
263.1783509999999
 30
0.0
 40
1.199999999999999
100
AcDbArc
 50
28.32825099999999
 51
61.671749
  0
LINE
  5
C791
330
C5B5
100
AcDbEntity
  8
1
  6
Continuous
100
AcDbLine
 10
375.457698
 20
262.5259629999999
 30
0.0
 11
375.7086069999999
 21
262.4296479999999
 31
0.0
  0
LINE
  5
C792
330
C5B5
100
AcDbEntity
  8
1
  6
Continuous
100
AcDbLine
 10
375.7086069999999
 20
262.4296479999999
 30
0.0
 11
376.027125
 21
262.1220589999998
 31
0.0
  0
LINE
  5
C793
330
C5B5
100
AcDbEntity
  8
1
  6
Continuous
100
AcDbLine
 10
376.2064009999999
 20
262.9274419999998
 30
0.0
 11
376.5139899999998
 21
262.6089239999998
 31
0.0
  0
LINE
  5
C794
330
C5B5
100
AcDbEntity
  8
1
  6
Continuous
100
AcDbLine
 10
376.1100859999999
 20
263.1783509999999
 30
0.0
 11
376.2064009999999
 21
262.9274419999998
 31
0.0
  0
LINE
  5
C795
330
C5B5
100
AcDbEntity
  8
1
  6
Continuous
100
AcDbLine
 10
376.1100859999999
 20
263.1783509999999
 30
0.0
 11
376.2064009999999
 21
263.4292599999998
 31
0.0
  0
LINE
  5
C796
330
C5B5
100
AcDbEntity
  8
1
  6
Continuous
100
AcDbLine
 10
376.2064009999999
 20
263.4292599999998
 30
0.0
 11
376.5139899999998
 21
263.7477779999999
 31
0.0
  0
LINE
  5
C797
330
C5B5
100
AcDbEntity
  8
1
  6
Continuous
100
AcDbLine
 10
375.7086069999999
 20
263.927054
 30
0.0
 11
376.027125
 21
264.2346429999999
 31
0.0
  0
LINE
  5
C798
330
C5B5
100
AcDbEntity
  8
1
  6
Continuous
100
AcDbLine
 10
375.457698
 20
263.830739
 30
0.0
 11
375.7086069999999
 21
263.927054
 31
0.0
  0
ARC
  5
C799
330
C5B5
100
AcDbEntity
  8
1
  6
Continuous
100
AcDbCircle
 10
375.457698
 20
263.1783509999999
 30
0.0
 40
1.199999999999999
100
AcDbArc
 50
208.328251
 51
241.6717489999999
  0
ARC
  5
C79A
330
C5B5
100
AcDbEntity
  8
1
  6
Continuous
100
AcDbCircle
 10
375.457698
 20
263.1783509999999
 30
0.0
 40
1.199999999999999
100
AcDbArc
 50
118.3282509999999
 51
151.671749
  0
LINE
  5
C79B
330
C5B5
100
AcDbEntity
  8
1
  6
Continuous
100
AcDbLine
 10
375.2067889999996
 20
262.4296479999999
 30
0.0
 11
374.8882709999999
 21
262.1220589999998
 31
0.0
  0
LINE
  5
C79C
330
C5B5
100
AcDbEntity
  8
1
  6
Continuous
100
AcDbLine
 10
375.2067889999996
 20
263.927054
 30
0.0
 11
374.8882709999999
 21
264.2346429999999
 31
0.0
  0
LINE
  5
C79D
330
C5B5
100
AcDbEntity
  8
1
  6
Continuous
100
AcDbLine
 10
374.708995
 20
262.9274419999998
 30
0.0
 11
374.4014059999998
 21
262.6089239999998
 31
0.0
  0
LINE
  5
C79E
330
C5B5
100
AcDbEntity
  8
1
  6
Continuous
100
AcDbLine
 10
374.708995
 20
263.4292599999998
 30
0.0
 11
374.4014059999998
 21
263.7477779999999
 31
0.0
  0
LINE
  5
C79F
330
C5B5
100
AcDbEntity
  8
1
  6
Continuous
100
AcDbLine
 10
374.8053099999999
 20
263.1783509999999
 30
0.0
 11
374.708995
 21
262.9274419999998
 31
0.0
  0
LINE
  5
C7A0
330
C5B5
100
AcDbEntity
  8
1
  6
Continuous
100
AcDbLine
 10
374.8053099999999
 20
263.1783509999999
 30
0.0
 11
374.708995
 21
263.4292599999998
 31
0.0
  0
ARC
  5
C7A1
330
C5B5
100
AcDbEntity
  8
1
  6
Continuous
100
AcDbCircle
 10
370.9576979999998
 20
263.1783509999999
 30
0.0
 40
2.5
100
AcDbArc
 50
90.0
 51
180.0
  0
CIRCLE
  5
C7A2
330
C5B5
100
AcDbEntity
  8
1
  6
Continuous
100
AcDbCircle
 10
375.457698
 20
263.1783509999999
 30
0.0
 40
2.299999999999998
  0
LINE
  5
C7A3
330
C5B5
100
AcDbEntity
  8
4
  6
CENTER
100
AcDbLine
 10
379.457698
 20
263.1783509999999
 30
0.0
 11
371.457698
 21
263.1783509999999
 31
0.0
  0
CIRCLE
  5
C7A4
330
C5B5
100
AcDbEntity
  8
1
  6
Continuous
100
AcDbCircle
 10
375.457698
 20
263.1783509999999
 30
0.0
 40
2.5
  0
LINE
  5
C7A5
330
C5B5
100
AcDbEntity
  8
1
  6
Continuous
100
AcDbLine
 10
375.457698
 20
262.5259629999999
 30
0.0
 11
375.2067889999996
 21
262.4296479999999
 31
0.0
  0
LINE
  5
C7A6
330
C5B5
100
AcDbEntity
  8
1
  6
Continuous
100
AcDbLine
 10
375.457698
 20
263.830739
 30
0.0
 11
375.2067889999996
 21
263.927054
 31
0.0
  0
LINE
  5
C7A7
330
C5B5
100
AcDbEntity
  8
4
  6
CENTER
100
AcDbLine
 10
375.457698
 20
267.1783509999999
 30
0.0
 11
375.457698
 21
259.1783509999999
 31
0.0
  0
ARC
  5
C7B2
330
C5B5
100
AcDbEntity
  8
1
  6
Continuous
100
AcDbCircle
 10
336.957698
 20
330.1783509999998
 30
0.0
 40
5.0
100
AcDbArc
 50
180.0
 51
270.0
  0
ARC
  5
C7B3
330
C5B5
100
AcDbEntity
  8
1
  6
Continuous
100
AcDbCircle
 10
376.6885679999999
 20
279.6369149999998
 30
0.0
 40
0.8210319999999999
100
AcDbArc
 50
289.1929999999998
 51
354.341
  0
ARC
  5
C7B4
330
C5B5
100
AcDbEntity
  8
1
  6
Continuous
100
AcDbCircle
 10
376.6885679999999
 20
281.0347229999998
 30
0.0
 40
0.8210319999999999
100
AcDbArc
 50
5.659239999999998
 51
70.80719999999998
  0
LINE
  5
C7B5
330
C5B5
100
AcDbEntity
  8
1
  6
Continuous
100
AcDbLine
 10
378.8249679999998
 20
281.9639869999998
 30
0.0
 11
378.8249679999998
 21
278.6016829999999
 31
0.0
  0
ARC
  5
C7B6
330
C5B5
100
AcDbEntity
  8
1
  6
Continuous
100
AcDbCircle
 10
376.5556879999999
 20
280.6530349999998
 30
0.0
 40
1.225184
100
AcDbArc
 50
70.80719999999998
 51
138.9319999999997
  0
ARC
  5
C7B7
330
C5B5
100
AcDbEntity
  8
1
  6
Continuous
100
AcDbCircle
 10
376.5556879999999
 20
280.0186029999999
 30
0.0
 40
1.225184
100
AcDbArc
 50
221.0679999999999
 51
289.1929999999998
  0
ARC
  5
C7B8
330
C5B5
100
AcDbEntity
  8
1
  6
Continuous
100
AcDbCircle
 10
373.1978879999999
 20
280.6360749999999
 30
0.0
 40
1.225184
100
AcDbArc
 50
41.0679
 51
138.9319999999997
  0
ARC
  5
C7B9
330
C5B5
100
AcDbEntity
  8
1
  6
Continuous
100
AcDbCircle
 10
373.1978879999999
 20
280.0016429999999
 30
0.0
 40
1.225184
100
AcDbArc
 50
221.0679999999999
 51
318.932
  0
ARC
  5
C7BA
330
C5B5
100
AcDbEntity
  8
1
  6
Continuous
100
AcDbCircle
 10
373.5619279999998
 20
280.3188589999998
 30
0.0
 40
1.708047999999998
100
AcDbArc
 50
138.9319999999997
 51
221.0679999999999
  0
ARC
  5
C7BB
330
C5B5
100
AcDbEntity
  8
1
  6
Continuous
100
AcDbCircle
 10
372.83384
 20
280.3188589999998
 30
0.0
 40
1.708047999999998
100
AcDbArc
 50
318.932
 51
41.0679
  0
LINE
  5
C7BC
330
C5B5
100
AcDbEntity
  8
1
  6
Continuous
100
AcDbLine
 10
368.71472
 20
281.8248429999998
 30
0.0
 11
371.323392
 21
281.8248429999998
 31
0.0
  0
LINE
  5
C7BD
330
C5B5
100
AcDbEntity
  8
1
  6
Continuous
100
AcDbLine
 10
370.0133119999999
 20
281.8248429999998
 30
0.0
 11
370.0133119999999
 21
278.6248429999998
 31
0.0
  0
ARC
  5
C7BE
330
C5B5
100
AcDbEntity
  8
1
  6
Continuous
100
AcDbCircle
 10
376.9197679999999
 20
280.335819
 30
0.0
 40
1.708047999999998
100
AcDbArc
 50
138.9319999999997
 51
221.0679999999999
  0
ARC
  5
C7BF
330
C5B5
100
AcDbEntity
  8
5
  6
PHANTOM
100
AcDbCircle
 10
347.2089609999999
 20
364.9270879999999
 30
0.0
 40
5.0
100
AcDbArc
 50
45.0
 51
135.0
  0
CIRCLE
  5
C7C0
330
C5B5
100
AcDbEntity
  8
5
  6
PHANTOM
100
AcDbCircle
 10
344.3805329999999
 20
360.6844479999999
 30
0.0
 40
1.75
  0
LINE
  5
C7C1
330
C5B5
100
AcDbEntity
  8
4
  6
CENTER
100
AcDbLine
 10
346.6786299999998
 20
358.3863509999998
 30
0.0
 11
342.0824359999998
 21
362.982545
 31
0.0
  0
LINE
  5
C7C2
330
C5B5
100
AcDbEntity
  8
4
  6
CENTER
100
AcDbLine
 10
346.6786299999998
 20
362.982545
 30
0.0
 11
342.0824359999998
 21
358.3863509999998
 31
0.0
  0
LINE
  5
C7C3
330
C5B5
100
AcDbEntity
  8
1
  6
Continuous
100
AcDbLine
 10
336.957698
 20
345.1783509999998
 30
0.0
 11
351.957698
 21
345.1783509999998
 31
0.0
  0
LINE
  5
C7C4
330
C5B5
100
AcDbEntity
  8
4
  6
CENTER
100
AcDbLine
 10
337.9576979999998
 20
338.4283509999998
 30
0.0
 11
337.9576979999998
 21
331.9283509999998
 31
0.0
  0
LINE
  5
C7C5
330
C5B5
100
AcDbEntity
  8
1
  6
Continuous
100
AcDbLine
 10
331.9576979999998
 20
330.1783509999998
 30
0.0
 11
331.9576979999998
 21
340.1783509999998
 31
0.0
  0
LINE
  5
C7C6
330
C5B5
100
AcDbEntity
  8
4
  6
CENTER
100
AcDbLine
 10
341.207698
 20
335.1783509999998
 30
0.0
 11
334.707698
 21
335.1783509999998
 31
0.0
  0
CIRCLE
  5
C7C7
330
C5B5
100
AcDbEntity
  8
1
  6
Continuous
100
AcDbCircle
 10
337.9576979999998
 20
335.1783509999998
 30
0.0
 40
1.75
  0
ARC
  5
C7C8
330
C5B5
100
AcDbEntity
  8
1
  6
Continuous
100
AcDbCircle
 10
336.957698
 20
340.1783509999998
 30
0.0
 40
5.0
100
AcDbArc
 50
90.0
 51
180.0
  0
ARC
  5
C7C9
330
C5B5
100
AcDbEntity
  8
5
  6
PHANTOM
100
AcDbCircle
 10
340.137893
 20
357.856021
 30
0.0
 40
5.0
100
AcDbArc
 50
135.0
 51
225.0
  0
LINE
  5
C7CA
330
C5B5
100
AcDbEntity
  8
5
  6
PHANTOM
100
AcDbLine
 10
336.6023589999998
 20
361.3915539999999
 30
0.0
 11
343.673427
 21
368.462622
 31
0.0
  0
ARC
  5
C7CB
330
C5B5
100
AcDbEntity
  8
1
  6
Continuous
100
AcDbCircle
 10
381.457698
 20
344.2783509999999
 30
0.0
 40
9.9
100
AcDbArc
 50
124.0044629999996
 51
161.525869
  0
ARC
  5
C7CC
330
C5B5
100
AcDbEntity
  8
1
  6
Continuous
100
AcDbCircle
 10
378.9576979999998
 20
346.1783509999999
 30
0.0
 40
7.0
100
AcDbArc
 50
90.0
 51
180.0
  0
LINE
  5
C7CD
330
C5B5
100
AcDbEntity
  8
1
  6
Continuous
100
AcDbLine
 10
356.9576979999998
 20
350.1783509999999
 30
0.0
 11
356.9576979999998
 21
365.1783509999999
 31
0.0
  0
ARC
  5
C7CE
330
C5B5
100
AcDbEntity
  8
1
  6
Continuous
100
AcDbCircle
 10
351.957698
 20
350.1783509999999
 30
0.0
 40
5.0
100
AcDbArc
 50
270.0
 51
0.0
  0
LINE
  5
C7CF
330
C5B5
100
AcDbEntity
  8
1
  6
Continuous
100
AcDbLine
 10
376.457698
 20
343.6783509999998
 30
0.0
 11
376.457698
 21
342.3578009999999
 31
0.0
  0
LINE
  5
C7D0
330
C5B5
100
AcDbEntity
  8
1
  6
Continuous
100
AcDbLine
 10
376.457698
 20
342.6783509999998
 30
0.0
 11
377.4576979999998
 21
342.6783509999998
 31
0.0
  0
LINE
  5
C7D1
330
C5B5
100
AcDbEntity
  8
1
  6
Continuous
100
AcDbLine
 10
375.5284119999998
 20
343.6783509999998
 30
0.0
 11
376.457698
 21
343.6783509999998
 31
0.0
  0
ARC
  5
C7D2
330
C5B5
100
AcDbEntity
  8
1
  6
Continuous
100
AcDbCircle
 10
371.957698
 20
340.1783509999998
 30
0.0
 40
2.45
100
AcDbArc
 50
28.32825099999999
 51
61.671749
  0
LINE
  5
C7D3
330
C5B5
100
AcDbEntity
  8
1
  6
Continuous
100
AcDbLine
 10
372.4699709999999
 20
341.7069539999999
 30
0.0
 11
373.120278
 21
342.3349479999998
 31
0.0
  0
LINE
  5
C7D4
330
C5B5
100
AcDbEntity
  8
1
  6
Continuous
100
AcDbLine
 10
371.957698
 20
341.5103109999999
 30
0.0
 11
372.4699709999999
 21
341.7069539999999
 31
0.0
  0
LINE
  5
C7D5
330
C5B5
100
AcDbEntity
  8
1
  6
Continuous
100
AcDbLine
 10
371.957698
 20
345.1783509999998
 30
0.0
 11
371.957698
 21
346.1783509999999
 31
0.0
  0
ARC
  5
C7D6
330
C5B5
100
AcDbEntity
  8
1
  6
Continuous
100
AcDbCircle
 10
371.957698
 20
340.1783509999998
 30
0.0
 40
2.45
100
AcDbArc
 50
118.3282509999999
 51
151.671749
  0
LINE
  5
C7D7
330
C5B5
100
AcDbEntity
  8
1
  6
Continuous
100
AcDbLine
 10
371.445425
 20
341.7069539999999
 30
0.0
 11
370.7951179999998
 21
342.3349479999998
 31
0.0
  0
LINE
  5
C7D8
330
C5B5
100
AcDbEntity
  8
1
  6
Continuous
100
AcDbLine
 10
371.957698
 20
341.5103109999999
 30
0.0
 11
371.445425
 21
341.7069539999999
 31
0.0
  0
ARC
  5
C7D9
330
C5B5
100
AcDbEntity
  8
1
  6
Continuous
100
AcDbCircle
 10
375.8823639999998
 20
337.1618139999998
 30
0.0
 40
1.5
100
AcDbArc
 50
41.98003899999998
 51
59.23122700000001
  0
ARC
  5
C7DA
330
C5B5
100
AcDbEntity
  8
1
  6
Continuous
100
AcDbCircle
 10
371.957698
 20
340.1783509999998
 30
0.0
 40
2.45
100
AcDbArc
 50
298.3282509999999
 51
331.6717489999998
  0
LINE
  5
C7DB
330
C5B5
100
AcDbEntity
  8
1
  6
Continuous
100
AcDbLine
 10
373.2896569999998
 20
340.1783509999998
 30
0.0
 11
373.4863
 21
339.6660779999998
 31
0.0
  0
LINE
  5
C7DC
330
C5B5
100
AcDbEntity
  8
1
  6
Continuous
100
AcDbLine
 10
373.2896569999998
 20
340.1783509999998
 30
0.0
 11
373.4863
 21
340.690624
 31
0.0
  0
LINE
  5
C7DD
330
C5B5
100
AcDbEntity
  8
1
  6
Continuous
100
AcDbLine
 10
371.957698
 20
338.8463919999998
 30
0.0
 11
372.4699709999999
 21
338.6497489999998
 31
0.0
  0
LINE
  5
C7DE
330
C5B5
100
AcDbEntity
  8
1
  6
Continuous
100
AcDbLine
 10
372.4699709999999
 20
338.6497489999998
 30
0.0
 11
373.120278
 21
338.0217549999998
 31
0.0
  0
LINE
  5
C7DF
330
C5B5
100
AcDbEntity
  8
1
  6
Continuous
100
AcDbLine
 10
373.4863
 20
339.6660779999998
 30
0.0
 11
374.114295
 21
339.0157709999998
 31
0.0
  0
ARC
  5
C7E0
330
C5B5
100
AcDbEntity
  8
1
  6
Continuous
100
AcDbCircle
 10
371.957698
 20
340.1783509999998
 30
0.0
 40
2.45
100
AcDbArc
 50
208.328251
 51
241.6717489999999
  0
LINE
  5
C7E1
330
C5B5
100
AcDbEntity
  8
1
  6
Continuous
100
AcDbLine
 10
371.445425
 20
338.6497489999998
 30
0.0
 11
370.7951179999998
 21
338.0217549999998
 31
0.0
  0
LINE
  5
C7E2
330
C5B5
100
AcDbEntity
  8
1
  6
Continuous
100
AcDbLine
 10
370.4290959999998
 20
339.6660779999998
 30
0.0
 11
369.8011009999998
 21
339.0157709999998
 31
0.0
  0
LINE
  5
C7E3
330
C5B5
100
AcDbEntity
  8
1
  6
Continuous
100
AcDbLine
 10
370.6257389999996
 20
340.1783509999998
 30
0.0
 11
370.4290959999998
 21
339.6660779999998
 31
0.0
  0
LINE
  5
C7E4
330
C5B5
100
AcDbEntity
  8
1
  6
Continuous
100
AcDbLine
 10
370.6257389999996
 20
340.1783509999998
 30
0.0
 11
370.4290959999998
 21
340.690624
 31
0.0
  0
LINE
  5
C7E5
330
C5B5
100
AcDbEntity
  8
1
  6
Continuous
100
AcDbLine
 10
371.957698
 20
338.8463919999998
 30
0.0
 11
371.445425
 21
338.6497489999998
 31
0.0
  0
CIRCLE
  5
C7E6
330
C5B5
100
AcDbEntity
  8
1
  6
Continuous
100
AcDbCircle
 10
371.957698
 20
340.1783509999998
 30
0.0
 40
4.5
  0
CIRCLE
  5
C7E7
330
C5B5
100
AcDbEntity
  8
1
  6
Continuous
100
AcDbCircle
 10
371.957698
 20
340.1783509999998
 30
0.0
 40
5.0
  0
CIRCLE
  5
C7E8
330
C5B5
100
AcDbEntity
  8
1
  6
Continuous
100
AcDbCircle
 10
371.957698
 20
340.1783509999998
 30
0.0
 40
4.599999999999996
  0
LINE
  5
C7E9
330
C5B5
100
AcDbEntity
  8
1
  6
Continuous
100
AcDbLine
 10
370.4290959999998
 20
340.690624
 30
0.0
 11
369.8011009999998
 21
341.340931
 31
0.0
  0
LINE
  5
C7EA
330
C5B5
100
AcDbEntity
  8
4
  6
CENTER
100
AcDbLine
 10
371.957698
 20
345.1783509999998
 30
0.0
 11
371.957698
 21
333.6783509999998
 31
0.0
  0
LINE
  5
C7EB
330
C5B5
100
AcDbEntity
  8
1
  6
Continuous
100
AcDbLine
 10
377.4576979999998
 20
351.1783509999998
 30
0.0
 11
377.4576979999998
 21
337.7062149999998
 31
0.0
  0
LINE
  5
C7EC
330
C5B5
100
AcDbEntity
  8
1
  6
Continuous
100
AcDbLine
 10
373.4863
 20
340.690624
 30
0.0
 11
374.114295
 21
341.340931
 31
0.0
  0
ARC
  5
C7ED
330
C5B5
100
AcDbEntity
  8
5
  6
PHANTOM
100
AcDbCircle
 10
364.8866299999999
 20
361.3915539999999
 30
0.0
 40
5.0
100
AcDbArc
 50
225.0
 51
315.0
  0
LINE
  5
C7EE
330
C5B5
100
AcDbEntity
  8
5
  6
PHANTOM
100
AcDbLine
 10
350.7444939999999
 20
368.462622
 30
0.0
 11
361.3510959999999
 21
357.856021
 31
0.0
  0
ARC
  5
C7EF
330
C5B5
100
AcDbEntity
  8
1
  6
Continuous
100
AcDbCircle
 10
361.9576979999998
 20
365.1783509999999
 30
0.0
 40
5.0
100
AcDbArc
 50
90.0
 51
180.0
  0
LINE
  5
C7F0
330
C5B5
100
AcDbEntity
  8
5
  6
PHANTOM
100
AcDbLine
 10
368.422164
 20
357.856021
 30
0.0
 11
379.028766
 21
368.462622
 31
0.0
  0
LINE
  5
C7F1
330
C5B5
100
AcDbEntity
  8
4
  6
CENTER
100
AcDbLine
 10
381.457698
 20
224.973452
 30
0.0
 11
381.457698
 21
373.1783509999999
 31
0.0
  0
LINE
  5
C7F2
330
C5B5
100
AcDbEntity
  8
1
  6
Continuous
100
AcDbLine
 10
397.4576980000002
 20
325.1783509999998
 30
0.0
 11
397.4576980000002
 21
232.1783509999999
 31
0.0
  0
LINE
  5
C7F3
330
C5B5
100
AcDbEntity
  8
1
  6
Continuous
100
AcDbLine
 10
394.4576979999998
 20
325.1783509999998
 30
0.0
 11
394.4576979999998
 21
242.6783509999999
 31
0.0
  0
ARC
  5
C7F4
330
C5B5
100
AcDbEntity
  8
1
  6
Continuous
100
AcDbCircle
 10
392.457698
 20
232.1783509999999
 30
0.0
 40
5.0
100
AcDbArc
 50
270.0
 51
0.0
  0
LINE
  5
C7F5
330
C5B5
100
AcDbEntity
  8
1
  6
Continuous
100
AcDbLine
 10
382.478194
 20
234.1783509999999
 30
0.0
 11
382.7070139999999
 21
234.8068279999997
 31
0.0
  0
LINE
  5
C7F6
330
C5B5
100
AcDbEntity
  8
1
  6
Continuous
100
AcDbLine
 10
382.7070139999999
 20
234.8068279999997
 30
0.0
 11
383.4614969999998
 21
235.5881809999999
 31
0.0
  0
LINE
  5
C7F7
330
C5B5
100
AcDbEntity
  8
1
  6
Continuous
100
AcDbLine
 10
382.0862449999999
 20
235.4275969999999
 30
0.0
 11
382.8675269999998
 21
236.1821499999999
 31
0.0
  0
LINE
  5
C7F8
330
C5B5
100
AcDbEntity
  8
1
  6
Continuous
100
AcDbLine
 10
381.457698
 20
235.1988479999999
 30
0.0
 11
382.0862449999999
 21
235.4275969999999
 31
0.0
  0
LINE
  5
C7F9
330
C5B5
100
AcDbEntity
  8
1
  6
Continuous
100
AcDbLine
 10
382.0862449999999
 20
232.9291059999999
 30
0.0
 11
382.8675269999998
 21
232.1745519999999
 31
0.0
  0
LINE
  5
C7FA
330
C5B5
100
AcDbEntity
  8
1
  6
Continuous
100
AcDbLine
 10
381.457698
 20
233.1578549999999
 30
0.0
 11
382.0862449999999
 21
232.9291059999999
 31
0.0
  0
LINE
  5
C7FB
330
C5B5
100
AcDbEntity
  8
1
  6
Continuous
100
AcDbLine
 10
382.478194
 20
234.1783509999999
 30
0.0
 11
382.7070139999999
 21
233.5498749999999
 31
0.0
  0
LINE
  5
C7FC
330
C5B5
100
AcDbEntity
  8
1
  6
Continuous
100
AcDbLine
 10
382.7070139999999
 20
233.5498749999999
 30
0.0
 11
383.4614969999998
 21
232.7685219999999
 31
0.0
  0
ARC
  5
C7FD
330
C5B5
100
AcDbEntity
  8
1
  6
Continuous
100
AcDbCircle
 10
381.457698
 20
234.1783509999999
 30
0.0
 40
2.45
100
AcDbArc
 50
35.129
 51
54.87089
  0
ARC
  5
C7FE
330
C5B5
100
AcDbEntity
  8
1
  6
Continuous
100
AcDbCircle
 10
381.457698
 20
234.1783509999999
 30
0.0
 40
2.45
100
AcDbArc
 50
305.129
 51
324.8709999999998
  0
LINE
  5
C803
330
C5B5
100
AcDbEntity
  8
1
  6
Continuous
100
AcDbLine
 10
392.457698
 20
240.2288609999999
 30
0.0
 11
392.457698
 21
243.2288609999998
 31
0.0
  0
LINE
  5
C804
330
C5B5
100
AcDbEntity
  8
1
  6
Continuous
100
AcDbLine
 10
391.4576979999998
 20
240.178351
 30
0.0
 11
391.4576979999998
 21
243.1783509999998
 31
0.0
  0
ARC
  5
C805
330
C5B5
100
AcDbEntity
  8
1
  6
Continuous
100
AcDbCircle
 10
391.957698
 20
242.6783509999999
 30
0.0
 40
2.5
100
AcDbArc
 50
270.0
 51
0.0
  0
ARC
  5
C806
330
C5B5
100
AcDbEntity
  8
1
  6
Continuous
100
AcDbCircle
 10
391.957698
 20
245.6783509999999
 30
0.0
 40
2.5
100
AcDbArc
 50
270.0
 51
0.0
  0
LINE
  5
C807
330
C5B5
100
AcDbEntity
  8
1
  6
Continuous
100
AcDbLine
 10
392.2182009999998
 20
276.7070029999999
 30
0.0
 11
391.8650809999999
 21
276.3650029999999
 31
0.0
  0
LINE
  5
C808
330
C5B5
100
AcDbEntity
  8
1
  6
Continuous
100
AcDbLine
 10
392.2182009999998
 20
276.7070109999997
 30
0.0
 11
392.2182009999998
 21
273.5070029999998
 31
0.0
  0
ARC
  5
C809
330
C5B5
100
AcDbEntity
  8
1
  6
Continuous
100
AcDbCircle
 10
388.4354909999998
 20
275.7254829999999
 30
0.0
 40
1.002143999999999
100
AcDbArc
 50
0.0
 51
44.0725
  0
ARC
  5
C80A
330
C5B5
100
AcDbEntity
  8
1
  6
Continuous
100
AcDbCircle
 10
388.4354909999998
 20
274.4842029999998
 30
0.0
 40
1.002143999999999
100
AcDbArc
 50
315.927
 51
0.0
  0
ARC
  5
C80B
330
C5B5
100
AcDbEntity
  8
1
  6
Continuous
100
AcDbCircle
 10
388.5438109999999
 20
275.7254829999999
 30
0.0
 40
1.002143999999999
100
AcDbArc
 50
135.928
 51
180.0
  0
ARC
  5
C80C
330
C5B5
100
AcDbEntity
  8
1
  6
Continuous
100
AcDbCircle
 10
388.4896509999999
 20
275.7778989999998
 30
0.0
 40
0.9267839999999999
100
AcDbArc
 50
44.0725
 51
135.928
  0
ARC
  5
C80D
330
C5B5
100
AcDbEntity
  8
1
  6
Continuous
100
AcDbCircle
 10
388.5438109999999
 20
274.4842029999998
 30
0.0
 40
1.002143999999999
100
AcDbArc
 50
180.0
 51
224.072
  0
ARC
  5
C80E
330
C5B5
100
AcDbEntity
  8
1
  6
Continuous
100
AcDbCircle
 10
388.4896509999999
 20
274.4317869999998
 30
0.0
 40
0.9267839999999999
100
AcDbArc
 50
224.072
 51
315.927
  0
LINE
  5
C80F
330
C5B5
100
AcDbEntity
  8
1
  6
Continuous
100
AcDbLine
 10
387.5416509999998
 20
275.7254829999999
 30
0.0
 11
387.5416509999998
 21
274.4842029999998
 31
0.0
  0
LINE
  5
C810
330
C5B5
100
AcDbEntity
  8
1
  6
Continuous
100
AcDbLine
 10
389.4376509999998
 20
275.7254829999999
 30
0.0
 11
389.4376509999998
 21
274.4842029999998
 31
0.0
  0
LINE
  5
C811
330
C5B5
100
AcDbEntity
  8
1
  6
Continuous
100
AcDbLine
 10
384.157364
 20
274.238375
 30
0.0
 11
386.2389639999999
 21
274.238375
 31
0.0
  0
LINE
  5
C812
330
C5B5
100
AcDbEntity
  8
1
  6
Continuous
100
AcDbLine
 10
385.915124
 20
276.7048429999998
 30
0.0
 11
385.915124
 21
273.5048429999999
 31
0.0
  0
ARC
  5
C813
330
C5B5
100
AcDbEntity
  8
1
  6
Continuous
100
AcDbCircle
 10
382.3819789999998
 20
274.495083
 30
0.0
 40
1.144263999999999
100
AcDbArc
 50
319.944
 51
40.0559
  0
LINE
  5
C814
330
C5B5
100
AcDbEntity
  8
1
  6
Continuous
100
AcDbLine
 10
385.915124
 20
276.7048429999998
 30
0.0
 11
384.157364
 21
274.238375
 31
0.0
  0
LINE
  5
C815
330
C5B5
100
AcDbEntity
  8
1
  6
Continuous
100
AcDbLine
 10
390.374394
 20
275.104843
 30
0.0
 11
391.376874
 21
275.104843
 31
0.0
  0
ARC
  5
C816
330
C5B5
100
AcDbEntity
  8
1
  6
Continuous
100
AcDbCircle
 10
391.957698
 20
263.1783509999999
 30
0.0
 40
2.5
100
AcDbArc
 50
0.0
 51
90.0
  0
ARC
  5
C817
330
C5B5
100
AcDbEntity
  8
1
  6
Continuous
100
AcDbCircle
 10
387.4576979999998
 20
263.1783509999999
 30
0.0
 40
1.199999999999999
100
AcDbArc
 50
298.3282509999999
 51
331.6717489999998
  0
ARC
  5
C818
330
C5B5
100
AcDbEntity
  8
1
  6
Continuous
100
AcDbCircle
 10
387.4576979999998
 20
263.1783509999999
 30
0.0
 40
1.199999999999999
100
AcDbArc
 50
28.32825099999999
 51
61.671749
  0
LINE
  5
C819
330
C5B5
100
AcDbEntity
  8
1
  6
Continuous
100
AcDbLine
 10
387.4576979999998
 20
262.5259629999999
 30
0.0
 11
387.2067889999996
 21
262.4296479999999
 31
0.0
  0
LINE
  5
C81A
330
C5B5
100
AcDbEntity
  8
1
  6
Continuous
100
AcDbLine
 10
387.4576979999998
 20
262.5259629999999
 30
0.0
 11
387.7086069999998
 21
262.4296479999999
 31
0.0
  0
LINE
  5
C81B
330
C5B5
100
AcDbEntity
  8
1
  6
Continuous
100
AcDbLine
 10
387.7086069999998
 20
262.4296479999999
 30
0.0
 11
388.0271249999998
 21
262.1220589999998
 31
0.0
  0
LINE
  5
C81C
330
C5B5
100
AcDbEntity
  8
1
  6
Continuous
100
AcDbLine
 10
388.2064009999999
 20
262.9274419999998
 30
0.0
 11
388.5139899999999
 21
262.6089239999998
 31
0.0
  0
LINE
  5
C81D
330
C5B5
100
AcDbEntity
  8
1
  6
Continuous
100
AcDbLine
 10
388.110086
 20
263.1783509999999
 30
0.0
 11
388.2064009999999
 21
262.9274419999998
 31
0.0
  0
LINE
  5
C81E
330
C5B5
100
AcDbEntity
  8
1
  6
Continuous
100
AcDbLine
 10
388.110086
 20
263.1783509999999
 30
0.0
 11
388.2064009999999
 21
263.4292599999998
 31
0.0
  0
LINE
  5
C81F
330
C5B5
100
AcDbEntity
  8
1
  6
Continuous
100
AcDbLine
 10
388.2064009999999
 20
263.4292599999998
 30
0.0
 11
388.5139899999999
 21
263.7477779999999
 31
0.0
  0
LINE
  5
C820
330
C5B5
100
AcDbEntity
  8
1
  6
Continuous
100
AcDbLine
 10
387.7086069999998
 20
263.927054
 30
0.0
 11
388.0271249999998
 21
264.2346429999999
 31
0.0
  0
LINE
  5
C821
330
C5B5
100
AcDbEntity
  8
1
  6
Continuous
100
AcDbLine
 10
387.4576979999998
 20
263.830739
 30
0.0
 11
387.7086069999998
 21
263.927054
 31
0.0
  0
LINE
  5
C822
330
C5B5
100
AcDbEntity
  8
1
  6
Continuous
100
AcDbLine
 10
387.4576979999998
 20
263.830739
 30
0.0
 11
387.2067889999996
 21
263.927054
 31
0.0
  0
ARC
  5
C823
330
C5B5
100
AcDbEntity
  8
1
  6
Continuous
100
AcDbCircle
 10
387.4576979999998
 20
263.1783509999999
 30
0.0
 40
1.199999999999999
100
AcDbArc
 50
208.328251
 51
241.6717489999999
  0
ARC
  5
C824
330
C5B5
100
AcDbEntity
  8
1
  6
Continuous
100
AcDbCircle
 10
387.4576979999998
 20
263.1783509999999
 30
0.0
 40
1.199999999999999
100
AcDbArc
 50
118.3282509999999
 51
151.671749
  0
LINE
  5
C825
330
C5B5
100
AcDbEntity
  8
1
  6
Continuous
100
AcDbLine
 10
386.708995
 20
262.9274419999998
 30
0.0
 11
386.4014059999998
 21
262.6089239999998
 31
0.0
  0
LINE
  5
C826
330
C5B5
100
AcDbEntity
  8
1
  6
Continuous
100
AcDbLine
 10
386.708995
 20
263.4292599999998
 30
0.0
 11
386.4014059999998
 21
263.7477779999999
 31
0.0
  0
LINE
  5
C827
330
C5B5
100
AcDbEntity
  8
1
  6
Continuous
100
AcDbLine
 10
386.8053099999999
 20
263.1783509999999
 30
0.0
 11
386.708995
 21
262.9274419999998
 31
0.0
  0
LINE
  5
C828
330
C5B5
100
AcDbEntity
  8
1
  6
Continuous
100
AcDbLine
 10
386.8053099999999
 20
263.1783509999999
 30
0.0
 11
386.708995
 21
263.4292599999998
 31
0.0
  0
LINE
  5
C829
330
C5B5
100
AcDbEntity
  8
1
  6
Continuous
100
AcDbLine
 10
387.2067889999996
 20
262.4296479999999
 30
0.0
 11
386.8882709999999
 21
262.1220589999998
 31
0.0
  0
LINE
  5
C82A
330
C5B5
100
AcDbEntity
  8
1
  6
Continuous
100
AcDbLine
 10
387.2067889999996
 20
263.927054
 30
0.0
 11
386.8882709999999
 21
264.2346429999999
 31
0.0
  0
CIRCLE
  5
C82B
330
C5B5
100
AcDbEntity
  8
1
  6
Continuous
100
AcDbCircle
 10
387.4576979999998
 20
263.1783509999999
 30
0.0
 40
2.299999999999998
  0
CIRCLE
  5
C82C
330
C5B5
100
AcDbEntity
  8
1
  6
Continuous
100
AcDbCircle
 10
387.4576979999998
 20
263.1783509999999
 30
0.0
 40
2.5
  0
LINE
  5
C82D
330
C5B5
100
AcDbEntity
  8
4
  6
CENTER
100
AcDbLine
 10
391.4576979999998
 20
263.1783509999999
 30
0.0
 11
383.457698
 21
263.1783509999999
 31
0.0
  0
LINE
  5
C82E
330
C5B5
100
AcDbEntity
  8
4
  6
CENTER
100
AcDbLine
 10
387.4576979999998
 20
267.1783509999999
 30
0.0
 11
387.4576979999998
 21
259.1783509999999
 31
0.0
  0
ARC
  5
C82F
330
C5B5
100
AcDbEntity
  8
1
  6
Continuous
100
AcDbCircle
 10
382.6801389999998
 20
274.2854829999998
 30
0.0
 40
1.215543999999997
100
AcDbArc
 50
90.0
 51
121.845
  0
ARC
  5
C830
330
C5B5
100
AcDbEntity
  8
1
  6
Continuous
100
AcDbCircle
 10
382.9809389999999
 20
274.495083
 30
0.0
 40
1.144263999999999
100
AcDbArc
 50
189.307
 51
220.0559999999999
  0
LINE
  5
C831
330
C5B5
100
AcDbEntity
  8
1
  6
Continuous
100
AcDbLine
 10
381.8546989999999
 20
276.7048429999998
 30
0.0
 11
381.8546989999999
 21
274.9890029999999
 31
0.0
  0
ARC
  5
C832
330
C5B5
100
AcDbEntity
  8
1
  6
Continuous
100
AcDbCircle
 10
382.2431789999998
 20
274.9890029999999
 30
0.0
 40
0.387335
100
AcDbArc
 50
121.845
 51
180.0
  0
LINE
  5
C833
330
C5B5
100
AcDbEntity
  8
1
  6
Continuous
100
AcDbLine
 10
381.8421389999999
 20
276.7048429999998
 30
0.0
 11
383.5078189999999
 21
276.7048429999998
 31
0.0
  0
ARC
  5
C834
330
C5B5
100
AcDbEntity
  8
1
  6
Continuous
100
AcDbCircle
 10
382.6814989999999
 20
274.7469229999998
 30
0.0
 40
0.7530210000000001
100
AcDbArc
 50
40.0559
 51
90.10099999999999
  0
ARC
  5
C835
330
C5B5
100
AcDbEntity
  8
1
  6
Continuous
100
AcDbCircle
 10
382.6814989999999
 20
274.2433229999998
 30
0.0
 40
0.7530210000000001
100
AcDbArc
 50
220.0559999999999
 51
319.944
  0
LINE
  5
C837
330
C5B5
100
AcDbEntity
  8
5
  6
PHANTOM
100
AcDbLine
 10
403.7775029999999
 20
322.5006819999999
 30
0.0
 11
414.3841049999998
 21
333.1072829999998
 31
0.0
  0
ARC
  5
C838
330
C5B5
100
AcDbEntity
  8
1
  6
Continuous
100
AcDbCircle
 10
441.957698
 20
330.1783509999998
 30
0.0
 40
5.0
100
AcDbArc
 50
270.0
 51
0.0
  0
LINE
  5
C839
330
C5B5
100
AcDbEntity
  8
5
  6
PHANTOM
100
AcDbLine
 10
403.7775029999999
 20
315.429614
 30
0.0
 11
421.4551730000001
 21
297.7519439999998
 31
0.0
  0
ARC
  5
C83A
330
C5B5
100
AcDbEntity
  8
5
  6
PHANTOM
100
AcDbCircle
 10
414.3841049999998
 20
283.6098089999998
 30
0.0
 40
5.0
100
AcDbArc
 50
225.0
 51
315.0
  0
LINE
  5
C83B
330
C5B5
100
AcDbEntity
  8
1
  6
Continuous
100
AcDbLine
 10
391.9204879999999
 20
281.8885869999998
 30
0.0
 11
393.1321679999999
 21
278.613195
 31
0.0
  0
LINE
  5
C83C
330
C5B5
100
AcDbEntity
  8
1
  6
Continuous
100
AcDbLine
 10
391.033608
 20
279.5754909999999
 30
0.0
 11
392.7784879999999
 21
279.5754909999999
 31
0.0
  0
LINE
  5
C83D
330
C5B5
100
AcDbEntity
  8
1
  6
Continuous
100
AcDbLine
 10
388.935048
 20
280.1088589999999
 30
0.0
 11
390.0208079999999
 21
281.9894189999999
 31
0.0
  0
LINE
  5
C83E
330
C5B5
100
AcDbEntity
  8
1
  6
Continuous
100
AcDbLine
 10
388.935048
 20
280.114635
 30
0.0
 11
387.857128
 21
281.9874029999998
 31
0.0
  0
LINE
  5
C83F
330
C5B5
100
AcDbEntity
  8
1
  6
Continuous
100
AcDbLine
 10
388.935048
 20
280.1088669999998
 30
0.0
 11
388.935048
 21
278.6016829999999
 31
0.0
  0
ARC
  5
C840
330
C5B5
100
AcDbEntity
  8
1
  6
Continuous
100
AcDbCircle
 10
384.641608
 20
279.8878189999998
 30
0.0
 40
1.151999999999999
100
AcDbArc
 50
269.5819999999998
 51
11.6541
  0
ARC
  5
C841
330
C5B5
100
AcDbEntity
  8
1
  6
Continuous
100
AcDbCircle
 10
384.633208
 20
279.9605149999998
 30
0.0
 40
1.225184
100
AcDbArc
 50
221.0679999999999
 51
276.591
  0
ARC
  5
C842
330
C5B5
100
AcDbEntity
  8
1
  6
Continuous
100
AcDbCircle
 10
384.9972079999998
 20
280.2777389999998
 30
0.0
 40
1.708047999999998
100
AcDbArc
 50
138.9319999999997
 51
221.0679999999999
  0
ARC
  5
C843
330
C5B5
100
AcDbEntity
  8
1
  6
Continuous
100
AcDbCircle
 10
384.633208
 20
280.5949549999999
 30
0.0
 40
1.225184
100
AcDbArc
 50
70.80719999999998
 51
138.9319999999997
  0
ARC
  5
C844
330
C5B5
100
AcDbEntity
  8
1
  6
Continuous
100
AcDbCircle
 10
384.7660879999999
 20
280.976643
 30
0.0
 40
0.8210319999999999
100
AcDbArc
 50
5.659239999999998
 51
70.80719999999998
  0
LINE
  5
C845
330
C5B5
100
AcDbEntity
  8
1
  6
Continuous
100
AcDbLine
 10
386.697368
 20
281.9639869999998
 30
0.0
 11
386.697368
 21
278.6016829999999
 31
0.0
  0
LINE
  5
C846
330
C5B5
100
AcDbEntity
  8
1
  6
Continuous
100
AcDbLine
 10
385.769848
 20
279.6436109999999
 30
0.0
 11
385.769848
 21
278.6248429999998
 31
0.0
  0
LINE
  5
C847
330
C5B5
100
AcDbEntity
  8
1
  6
Continuous
100
AcDbLine
 10
384.645208
 20
280.120531
 30
0.0
 11
385.769848
 21
280.120531
 31
0.0
  0
LINE
  5
C848
330
C5B5
100
AcDbEntity
  8
1
  6
Continuous
100
AcDbLine
 10
391.9204879999999
 20
281.882835
 30
0.0
 11
390.6509679999999
 21
278.6132029999998
 31
0.0
  0
LINE
  5
C849
330
C5B5
100
AcDbEntity
  8
1
  6
Continuous
100
AcDbLine
 10
382.0249679999998
 20
281.9639869999998
 30
0.0
 11
382.0249679999998
 21
278.6016829999999
 31
0.0
  0
LINE
  5
C84A
330
C5B5
100
AcDbEntity
  8
1
  6
Continuous
100
AcDbLine
 10
380.9001679999998
 20
281.9639869999998
 30
0.0
 11
380.9001679999998
 21
278.6016829999999
 31
0.0
  0
ARC
  5
C84B
330
C5B5
100
AcDbEntity
  8
5
  6
PHANTOM
100
AcDbCircle
 10
407.313037
 20
318.9651479999998
 30
0.0
 40
5.0
100
AcDbArc
 50
135.0
 51
225.0
  0
LINE
  5
C84C
330
C5B5
100
AcDbEntity
  8
5
  6
PHANTOM
100
AcDbLine
 10
421.4551730000001
 20
283.6098089999998
 30
0.0
 11
421.4551730000001
 21
297.7519439999998
 31
0.0
  0
LINE
  5
C84D
330
C5B5
100
AcDbEntity
  8
5
  6
PHANTOM
100
AcDbLine
 10
417.9196389999995
 20
280.0742749999999
 30
0.0
 11
421.4551730000001
 21
283.6098089999998
 31
0.0
  0
ARC
  5
C84E
330
C5B5
100
AcDbEntity
  8
1
  6
Continuous
100
AcDbCircle
 10
417.3174889999998
 20
335.1018139999999
 30
0.0
 40
1.225184
100
AcDbArc
 50
41.0679
 51
138.9319999999997
  0
ARC
  5
C84F
330
C5B5
100
AcDbEntity
  8
1
  6
Continuous
100
AcDbCircle
 10
417.3174889999998
 20
334.4673819999998
 30
0.0
 40
1.225184
100
AcDbArc
 50
221.0679999999999
 51
318.932
  0
LINE
  5
C850
330
C5B5
100
AcDbEntity
  8
1
  6
Continuous
100
AcDbLine
 10
411.9576979999997
 20
345.1783509999998
 30
0.0
 11
436.9576979999997
 21
345.1783509999998
 31
0.0
  0
LINE
  5
C851
330
C5B5
100
AcDbEntity
  8
5
  6
PHANTOM
100
AcDbLine
 10
386.099833
 20
368.462622
 30
0.0
 11
414.3841049999998
 21
340.1783509999998
 31
0.0
  0
LINE
  5
C852
330
C5B5
100
AcDbEntity
  8
1
  6
Continuous
100
AcDbLine
 10
391.4576979999998
 20
351.3027609999999
 30
0.0
 11
391.4576979999998
 21
345.1532879999998
 31
0.0
  0
ARC
  5
C853
330
C5B5
100
AcDbEntity
  8
1
  6
Continuous
100
AcDbCircle
 10
371.957698
 20
340.1783509999998
 30
0.0
 40
22.45
100
AcDbArc
 50
10.052847
 51
45.0
  0
LINE
  5
C854
330
C5B5
100
AcDbEntity
  8
1
  6
Continuous
100
AcDbLine
 10
406.9576979999998
 20
350.1783509999999
 30
0.0
 11
406.9576979999998
 21
365.1783509999999
 31
0.0
  0
ARC
  5
C855
330
C5B5
100
AcDbEntity
  8
1
  6
Continuous
100
AcDbCircle
 10
381.457698
 20
344.2783509999999
 30
0.0
 40
9.9
100
AcDbArc
 50
5.140420999999999
 51
86.935339
  0
ARC
  5
C856
330
C5B5
100
AcDbEntity
  8
1
  6
Continuous
100
AcDbCircle
 10
381.457698
 20
345.6783509999998
 30
0.0
 40
10.0
100
AcDbArc
 50
0.0
 51
83.54081800000001
  0
ARC
  5
C857
330
C5B5
100
AcDbEntity
  8
1
  6
Continuous
100
AcDbCircle
 10
390.9576979999998
 20
340.1783509999998
 30
0.0
 40
2.45
100
AcDbArc
 50
28.32825099999999
 51
61.671749
  0
LINE
  5
C858
330
C5B5
100
AcDbEntity
  8
1
  6
Continuous
100
AcDbLine
 10
391.4699709999999
 20
341.7069539999999
 30
0.0
 11
392.1202779999999
 21
342.3349479999998
 31
0.0
  0
LINE
  5
C859
330
C5B5
100
AcDbEntity
  8
1
  6
Continuous
100
AcDbLine
 10
390.9576979999998
 20
341.5103109999999
 30
0.0
 11
391.4699709999999
 21
341.7069539999999
 31
0.0
  0
ARC
  5
C85A
330
C5B5
100
AcDbEntity
  8
1
  6
Continuous
100
AcDbCircle
 10
381.457698
 20
343.6783509999998
 30
0.0
 40
10.0
100
AcDbArc
 50
8.539044
 51
11.29340899999998
  0
ARC
  5
C85B
330
C5B5
100
AcDbEntity
  8
1
  6
Continuous
100
AcDbCircle
 10
390.9576979999998
 20
340.1783509999998
 30
0.0
 40
2.45
100
AcDbArc
 50
118.3282509999999
 51
151.671749
  0
LINE
  5
C85C
330
C5B5
100
AcDbEntity
  8
1
  6
Continuous
100
AcDbLine
 10
390.4454249999998
 20
341.7069539999999
 30
0.0
 11
389.7951179999998
 21
342.3349479999998
 31
0.0
  0
LINE
  5
C85D
330
C5B5
100
AcDbEntity
  8
1
  6
Continuous
100
AcDbLine
 10
386.4576979999998
 20
343.6783509999998
 30
0.0
 11
386.4576979999998
 21
342.3578009999999
 31
0.0
  0
LINE
  5
C85E
330
C5B5
100
AcDbEntity
  8
1
  6
Continuous
100
AcDbLine
 10
385.457698
 20
342.6783509999998
 30
0.0
 11
386.4576979999998
 21
342.6783509999998
 31
0.0
  0
LINE
  5
C85F
330
C5B5
100
AcDbEntity
  8
1
  6
Continuous
100
AcDbLine
 10
386.4576979999998
 20
343.6783509999998
 30
0.0
 11
387.3869839999999
 21
343.6783509999998
 31
0.0
  0
LINE
  5
C860
330
C5B5
100
AcDbEntity
  8
1
  6
Continuous
100
AcDbLine
 10
390.9576979999998
 20
341.5103109999999
 30
0.0
 11
390.4454249999998
 21
341.7069539999999
 31
0.0
  0
ARC
  5
C861
330
C5B5
100
AcDbEntity
  8
1
  6
Continuous
100
AcDbCircle
 10
390.9576979999998
 20
340.1783509999998
 30
0.0
 40
2.45
100
AcDbArc
 50
298.3282509999999
 51
331.6717489999998
  0
LINE
  5
C862
330
C5B5
100
AcDbEntity
  8
1
  6
Continuous
100
AcDbLine
 10
390.9576979999998
 20
338.8463919999998
 30
0.0
 11
391.4699709999999
 21
338.6497489999998
 31
0.0
  0
LINE
  5
C863
330
C5B5
100
AcDbEntity
  8
1
  6
Continuous
100
AcDbLine
 10
391.4699709999999
 20
338.6497489999998
 30
0.0
 11
392.1202779999999
 21
338.0217549999998
 31
0.0
  0
LINE
  5
C864
330
C5B5
100
AcDbEntity
  8
1
  6
Continuous
100
AcDbLine
 10
392.4863
 20
339.6660779999998
 30
0.0
 11
393.114295
 21
339.0157709999998
 31
0.0
  0
LINE
  5
C865
330
C5B5
100
AcDbEntity
  8
1
  6
Continuous
100
AcDbLine
 10
392.2896569999999
 20
340.1783509999998
 30
0.0
 11
392.4863
 21
339.6660779999998
 31
0.0
  0
LINE
  5
C866
330
C5B5
100
AcDbEntity
  8
1
  6
Continuous
100
AcDbLine
 10
392.2896569999999
 20
340.1783509999998
 30
0.0
 11
392.4863
 21
340.690624
 31
0.0
  0
ARC
  5
C867
330
C5B5
100
AcDbEntity
  8
1
  6
Continuous
100
AcDbCircle
 10
390.9576979999998
 20
340.1783509999998
 30
0.0
 40
2.45
100
AcDbArc
 50
208.328251
 51
241.6717489999999
  0
LINE
  5
C868
330
C5B5
100
AcDbEntity
  8
1
  6
Continuous
100
AcDbLine
 10
389.429096
 20
339.6660779999998
 30
0.0
 11
388.8011009999996
 21
339.0157709999998
 31
0.0
  0
LINE
  5
C869
330
C5B5
100
AcDbEntity
  8
1
  6
Continuous
100
AcDbLine
 10
390.4454249999998
 20
338.6497489999998
 30
0.0
 11
389.7951179999998
 21
338.0217549999998
 31
0.0
  0
LINE
  5
C86A
330
C5B5
100
AcDbEntity
  8
1
  6
Continuous
100
AcDbLine
 10
389.6257389999996
 20
340.1783509999998
 30
0.0
 11
389.429096
 21
339.6660779999998
 31
0.0
  0
LINE
  5
C86B
330
C5B5
100
AcDbEntity
  8
1
  6
Continuous
100
AcDbLine
 10
389.6257389999996
 20
340.1783509999998
 30
0.0
 11
389.429096
 21
340.690624
 31
0.0
  0
ARC
  5
C86C
330
C5B5
100
AcDbEntity
  8
1
  6
Continuous
100
AcDbCircle
 10
387.0330319999998
 20
337.1618139999998
 30
0.0
 40
1.5
100
AcDbArc
 50
120.7687729999999
 51
138.019961
  0
LINE
  5
C86D
330
C5B5
100
AcDbEntity
  8
1
  6
Continuous
100
AcDbLine
 10
390.9576979999998
 20
338.8463919999998
 30
0.0
 11
390.4454249999998
 21
338.6497489999998
 31
0.0
  0
LINE
  5
C86E
330
C5B5
100
AcDbEntity
  8
1
  6
Continuous
100
AcDbLine
 10
385.457698
 20
351.1783509999998
 30
0.0
 11
385.457698
 21
337.7062149999998
 31
0.0
  0
LINE
  5
C86F
330
C5B5
100
AcDbEntity
  8
1
  6
Continuous
100
AcDbLine
 10
389.429096
 20
340.690624
 30
0.0
 11
388.8011009999996
 21
341.340931
 31
0.0
  0
CIRCLE
  5
C870
330
C5B5
100
AcDbEntity
  8
1
  6
Continuous
100
AcDbCircle
 10
390.9576979999998
 20
340.1783509999998
 30
0.0
 40
4.5
  0
CIRCLE
  5
C871
330
C5B5
100
AcDbEntity
  8
1
  6
Continuous
100
AcDbCircle
 10
390.9576979999998
 20
340.1783509999998
 30
0.0
 40
4.599999999999996
  0
CIRCLE
  5
C872
330
C5B5
100
AcDbEntity
  8
1
  6
Continuous
100
AcDbCircle
 10
390.9576979999998
 20
340.1783509999998
 30
0.0
 40
5.0
  0
LINE
  5
C873
330
C5B5
100
AcDbEntity
  8
1
  6
Continuous
100
AcDbLine
 10
392.4863
 20
340.690624
 30
0.0
 11
393.114295
 21
341.340931
 31
0.0
  0
LINE
  5
C874
330
C5B5
100
AcDbEntity
  8
4
  6
CENTER
100
AcDbLine
 10
390.9576979999998
 20
346.6783509999999
 30
0.0
 11
390.9576979999998
 21
333.6783509999998
 31
0.0
  0
ARC
  5
C875
330
C5B5
100
AcDbEntity
  8
5
  6
PHANTOM
100
AcDbCircle
 10
410.848571
 20
336.6428169999999
 30
0.0
 40
5.0
100
AcDbArc
 50
315.0
 51
45.0
  0
CIRCLE
  5
C876
330
C5B5
100
AcDbEntity
  8
5
  6
PHANTOM
100
AcDbCircle
 10
406.9594839999998
 20
336.289264
 30
0.0
 40
1.75
  0
LINE
  5
C877
330
C5B5
100
AcDbEntity
  8
4
  6
CENTER
100
AcDbLine
 10
409.2575809999996
 20
333.991167
 30
0.0
 11
404.6613859999998
 21
338.5873609999999
 31
0.0
  0
LINE
  5
C878
330
C5B5
100
AcDbEntity
  8
4
  6
CENTER
100
AcDbLine
 10
409.2575809999996
 20
338.5873609999999
 30
0.0
 11
404.6613859999998
 21
333.991167
 31
0.0
  0
LINE
  5
C879
330
C5B5
100
AcDbEntity
  8
1
  6
Continuous
100
AcDbLine
 10
414.1329129999999
 20
336.2905819999998
 30
0.0
 11
414.1329129999999
 21
333.0905819999999
 31
0.0
  0
ARC
  5
C87A
330
C5B5
100
AcDbEntity
  8
1
  6
Continuous
100
AcDbCircle
 10
417.681529
 20
334.784598
 30
0.0
 40
1.708047999999998
100
AcDbArc
 50
138.9319999999997
 51
221.0679999999999
  0
ARC
  5
C87B
330
C5B5
100
AcDbEntity
  8
1
  6
Continuous
100
AcDbCircle
 10
411.9576979999997
 20
350.1783509999999
 30
0.0
 40
5.0
100
AcDbArc
 50
180.0
 51
270.0
  0
ARC
  5
C87C
330
C5B5
100
AcDbEntity
  8
1
  6
Continuous
100
AcDbCircle
 10
406.9704929999998
 20
330.086615
 30
0.0
 40
6.610656999999998
100
AcDbArc
 50
79.896
 51
82.20699999999999
  0
ARC
  5
C87D
330
C5B5
100
AcDbEntity
  8
1
  6
Continuous
100
AcDbCircle
 10
407.8603039999999
 20
336.581449
 30
0.0
 40
0.055565
100
AcDbArc
 50
82.20699999999999
 51
180.0
  0
ARC
  5
C87E
330
C5B5
100
AcDbEntity
  8
1
  6
Continuous
100
AcDbCircle
 10
408.0824749999998
 20
336.3209339999998
 30
0.0
 40
0.277826
100
AcDbArc
 50
0.0
 51
79.896
  0
LINE
  5
C87F
330
C5B5
100
AcDbEntity
  8
1
  6
Continuous
100
AcDbLine
 10
411.7353259999998
 20
334.7533319999997
 30
0.0
 11
410.5872549999999
 21
334.7533319999997
 31
0.0
  0
ARC
  5
C880
330
C5B5
100
AcDbEntity
  8
1
  6
Continuous
100
AcDbCircle
 10
410.3041849999995
 20
334.7533319999997
 30
0.0
 40
1.431648999999999
100
AcDbArc
 50
305.5379999999999
 51
315.699
  0
ARC
  5
C881
330
C5B5
100
AcDbEntity
  8
1
  6
Continuous
100
AcDbCircle
 10
406.9704929999998
 20
339.418922
 30
0.0
 40
6.610656999999998
100
AcDbArc
 50
277.793
 51
280.104
  0
ARC
  5
C882
330
C5B5
100
AcDbEntity
  8
1
  6
Continuous
100
AcDbCircle
 10
407.8603039999999
 20
332.9240869999998
 30
0.0
 40
0.055565
100
AcDbArc
 50
180.0
 51
277.793
  0
LINE
  5
C883
330
C5B5
100
AcDbEntity
  8
1
  6
Continuous
100
AcDbLine
 10
408.3599069999998
 20
334.7533319999997
 30
0.0
 11
408.0824749999998
 21
334.7533319999997
 31
0.0
  0
LINE
  5
C884
330
C5B5
100
AcDbEntity
  8
1
  6
Continuous
100
AcDbLine
 10
409.7481929999998
 20
334.7533319999997
 30
0.0
 11
409.7481929999998
 21
333.4203069999998
 31
0.0
  0
ARC
  5
C885
330
C5B5
100
AcDbEntity
  8
1
  6
Continuous
100
AcDbCircle
 10
409.7481929999998
 20
335.0307639999998
 30
0.0
 40
0.277826
100
AcDbArc
 50
180.0
 51
0.0
  0
ARC
  5
C886
330
C5B5
100
AcDbEntity
  8
1
  6
Continuous
100
AcDbCircle
 10
408.0824749999998
 20
333.1846019999998
 30
0.0
 40
0.277826
100
AcDbArc
 50
280.104
 51
0.0
  0
LINE
  5
C887
330
C5B5
100
AcDbEntity
  8
1
  6
Continuous
100
AcDbLine
 10
408.3599069999998
 20
333.1846019999998
 30
0.0
 11
408.3599069999998
 21
334.7533319999997
 31
0.0
  0
LINE
  5
C888
330
C5B5
100
AcDbEntity
  8
1
  6
Continuous
100
AcDbLine
 10
406.693061
 20
336.6908429999998
 30
0.0
 11
406.693061
 21
332.8146929999998
 31
0.0
  0
LINE
  5
C889
330
C5B5
100
AcDbEntity
  8
1
  6
Continuous
100
AcDbLine
 10
407.2490519999998
 20
336.6908429999998
 30
0.0
 11
407.2490519999998
 21
332.8146929999998
 31
0.0
  0
LINE
  5
C88A
330
C5B5
100
AcDbEntity
  8
1
  6
Continuous
100
AcDbLine
 10
407.803916
 20
336.581449
 30
0.0
 11
407.803916
 21
332.9240869999998
 31
0.0
  0
LINE
  5
C88B
330
C5B5
100
AcDbEntity
  8
1
  6
Continuous
100
AcDbLine
 10
408.3599069999998
 20
335.419845
 30
0.0
 11
408.3599069999998
 21
336.3209339999998
 31
0.0
  0
LINE
  5
C88C
330
C5B5
100
AcDbEntity
  8
1
  6
Continuous
100
AcDbLine
 10
409.470762
 20
336.3175509999998
 30
0.0
 11
409.470762
 21
335.0307639999998
 31
0.0
  0
LINE
  5
C88D
330
C5B5
100
AcDbEntity
  8
1
  6
Continuous
100
AcDbLine
 10
410.0267529999999
 20
335.0307639999998
 30
0.0
 11
410.0267529999999
 21
336.2171789999998
 31
0.0
  0
LINE
  5
C88E
330
C5B5
100
AcDbEntity
  8
1
  6
Continuous
100
AcDbLine
 10
410.3086959999997
 20
333.713527
 30
0.0
 11
410.9368639999996
 21
336.0547799999999
 31
0.0
  0
ARC
  5
C88F
330
C5B5
100
AcDbEntity
  8
1
  6
Continuous
100
AcDbCircle
 10
410.3041849999995
 20
334.7533319999997
 30
0.0
 40
1.431648999999999
100
AcDbArc
 50
332.25
 51
54.46200000000001
  0
LINE
  5
C890
330
C5B5
100
AcDbEntity
  8
1
  6
Continuous
100
AcDbLine
 10
408.9147699999998
 20
336.5791939999998
 30
0.0
 11
408.9147699999998
 21
333.1011470000001
 31
0.0
  0
ARC
  5
C891
330
C5B5
100
AcDbEntity
  8
1
  6
Continuous
100
AcDbCircle
 10
405.304775
 20
336.195752
 30
0.0
 40
0.277826
100
AcDbArc
 50
105.2575
 51
180.0
  0
ARC
  5
C892
330
C5B5
100
AcDbEntity
  8
1
  6
Continuous
100
AcDbCircle
 10
404.1939199999998
 20
335.777349
 30
0.0
 40
0.277826
100
AcDbArc
 50
116.0144
 51
180.0
  0
ARC
  5
C893
330
C5B5
100
AcDbEntity
  8
1
  6
Continuous
100
AcDbCircle
 10
406.9704929999998
 20
330.086615
 30
0.0
 40
6.610656999999998
100
AcDbArc
 50
112.9439999999999
 51
116.0144
  0
ARC
  5
C894
330
C5B5
100
AcDbEntity
  8
1
  6
Continuous
100
AcDbCircle
 10
404.416091
 20
336.123574
 30
0.0
 40
0.055565
100
AcDbArc
 50
0.0
 51
112.9439999999999
  0
ARC
  5
C895
330
C5B5
100
AcDbEntity
  8
1
  6
Continuous
100
AcDbCircle
 10
405.5269459999998
 20
336.4799499999998
 30
0.0
 40
0.055565
100
AcDbArc
 50
0.0
 51
102.7288999999999
  0
ARC
  5
C896
330
C5B5
100
AcDbEntity
  8
1
  6
Continuous
100
AcDbCircle
 10
406.9704929999998
 20
330.086615
 30
0.0
 40
6.610656999999998
100
AcDbArc
 50
102.7288999999999
 51
103.2680999999999
  0
ARC
  5
C897
330
C5B5
100
AcDbEntity
  8
1
  6
Continuous
100
AcDbCircle
 10
406.9704929999998
 20
330.086615
 30
0.0
 40
6.610656999999998
100
AcDbArc
 50
103.2680999999999
 51
105.2575
  0
ARC
  5
C898
330
C5B5
100
AcDbEntity
  8
1
  6
Continuous
100
AcDbCircle
 10
405.304775
 20
333.3097849999998
 30
0.0
 40
0.277826
100
AcDbArc
 50
180.0
 51
254.742
  0
ARC
  5
C899
330
C5B5
100
AcDbEntity
  8
1
  6
Continuous
100
AcDbCircle
 10
404.1939199999998
 20
333.7281879999999
 30
0.0
 40
0.277826
100
AcDbArc
 50
180.0
 51
243.9859999999999
  0
ARC
  5
C89A
330
C5B5
100
AcDbEntity
  8
1
  6
Continuous
100
AcDbCircle
 10
404.416091
 20
333.3830899999998
 30
0.0
 40
0.055565
100
AcDbArc
 50
247.0559999999999
 51
0.0
  0
ARC
  5
C89B
330
C5B5
100
AcDbEntity
  8
1
  6
Continuous
100
AcDbCircle
 10
406.9704929999998
 20
339.418922
 30
0.0
 40
6.610656999999998
100
AcDbArc
 50
243.9859999999999
 51
247.0559999999999
  0
ARC
  5
C89C
330
C5B5
100
AcDbEntity
  8
1
  6
Continuous
100
AcDbCircle
 10
406.9704929999998
 20
339.418922
 30
0.0
 40
6.610656999999998
100
AcDbArc
 50
254.742
 51
254.794
  0
ARC
  5
C89D
330
C5B5
100
AcDbEntity
  8
1
  6
Continuous
100
AcDbCircle
 10
406.9704929999998
 20
339.418922
 30
0.0
 40
6.610656999999998
100
AcDbArc
 50
254.794
 51
257.2709999999996
  0
ARC
  5
C89E
330
C5B5
100
AcDbEntity
  8
1
  6
Continuous
100
AcDbCircle
 10
405.5269459999998
 20
333.0255869999998
 30
0.0
 40
0.055565
100
AcDbArc
 50
257.2709999999996
 51
0.0
  0
LINE
  5
C89F
330
C5B5
100
AcDbEntity
  8
1
  6
Continuous
100
AcDbLine
 10
405.5822059999998
 20
333.0255869999998
 30
0.0
 11
405.5822059999998
 21
334.0868189999998
 31
0.0
  0
ARC
  5
C8A0
330
C5B5
100
AcDbEntity
  8
1
  6
Continuous
100
AcDbCircle
 10
403.637929
 20
334.7533319999997
 30
0.0
 40
1.431648999999999
100
AcDbArc
 50
180.0
 51
234.4619999999999
  0
LINE
  5
C8A1
330
C5B5
100
AcDbEntity
  8
1
  6
Continuous
100
AcDbLine
 10
403.3604969999998
 20
336.2769509999998
 30
0.0
 11
403.3604969999998
 21
333.8815649999998
 31
0.0
  0
LINE
  5
C8A2
330
C5B5
100
AcDbEntity
  8
1
  6
Continuous
100
AcDbLine
 10
403.9153609999999
 20
333.7281879999999
 30
0.0
 11
403.9153609999999
 21
335.777349
 31
0.0
  0
LINE
  5
C8A3
330
C5B5
100
AcDbEntity
  8
1
  6
Continuous
100
AcDbLine
 10
404.471352
 20
336.123574
 30
0.0
 11
404.471352
 21
333.3830899999998
 31
0.0
  0
LINE
  5
C8A4
330
C5B5
100
AcDbEntity
  8
1
  6
Continuous
100
AcDbLine
 10
405.026215
 20
336.195752
 30
0.0
 11
405.026215
 21
333.3097849999998
 31
0.0
  0
ARC
  5
C8A5
330
C5B5
100
AcDbEntity
  8
1
  6
Continuous
100
AcDbCircle
 10
403.637929
 20
334.7533319999997
 30
0.0
 40
1.431648999999999
100
AcDbArc
 50
125.5376999999999
 51
166.5373999999999
  0
LINE
  5
C8A6
330
C5B5
100
AcDbEntity
  8
1
  6
Continuous
100
AcDbLine
 10
405.5822059999998
 20
335.419845
 30
0.0
 11
405.5822059999998
 21
336.4799499999998
 31
0.0
  0
LINE
  5
C8A7
330
C5B5
100
AcDbEntity
  8
1
  6
Continuous
100
AcDbLine
 10
406.138198
 20
336.6446049999996
 30
0.0
 11
406.138198
 21
332.8609319999999
 31
0.0
  0
ARC
  5
C8A8
330
C5B5
100
AcDbEntity
  8
1
  6
Continuous
100
AcDbCircle
 10
406.9704929999998
 20
339.418922
 30
0.0
 40
7.166163
100
AcDbArc
 50
234.4619999999999
 51
305.5379999999999
  0
ARC
  5
C8A9
330
C5B5
100
AcDbEntity
  8
1
  6
Continuous
100
AcDbCircle
 10
406.9704929999998
 20
330.086615
 30
0.0
 40
7.166163
100
AcDbArc
 50
54.46200000000001
 51
125.5376999999999
  0
LINE
  5
C8AA
330
C5B5
100
AcDbEntity
  8
1
  6
Continuous
100
AcDbLine
 10
406.693061
 20
334.7533319999997
 30
0.0
 11
406.138198
 21
334.7533319999997
 31
0.0
  0
LINE
  5
C8AB
330
C5B5
100
AcDbEntity
  8
1
  6
Continuous
100
AcDbLine
 10
412.8785049999995
 20
336.2905819999998
 30
0.0
 11
415.3984649999999
 21
336.2905819999998
 31
0.0
  0
LINE
  5
C8AC
330
C5B5
100
AcDbEntity
  8
4
  6
CENTER
100
AcDbLine
 10
402.707698
 20
362.1783509999998
 30
0.0
 11
396.2076979999998
 21
362.1783509999998
 31
0.0
  0
CIRCLE
  5
C8AD
330
C5B5
100
AcDbEntity
  8
1
  6
Continuous
100
AcDbCircle
 10
399.4576979999998
 20
362.1783509999998
 30
0.0
 40
1.75
  0
LINE
  5
C8AE
330
C5B5
100
AcDbEntity
  8
1
  6
Continuous
100
AcDbLine
 10
385.8165969999999
 20
354.6783509999999
 30
0.0
 11
389.0969069999999
 21
354.6783509999999
 31
0.0
  0
LINE
  5
C8AF
330
C5B5
100
AcDbEntity
  8
1
  6
Continuous
100
AcDbLine
 10
381.9427269999998
 20
353.6133799999998
 30
0.0
 11
381.9427269999998
 21
353.1783509999999
 31
0.0
  0
ARC
  5
C8B0
330
C5B5
100
AcDbEntity
  8
1
  6
Continuous
100
AcDbCircle
 10
385.3927269999999
 20
353.6133799999998
 30
0.0
 40
3.45
100
AcDbArc
 50
45.0
 51
180.0
  0
LINE
  5
C8B1
330
C5B5
100
AcDbEntity
  8
1
  6
Continuous
100
AcDbLine
 10
383.0854719999999
 20
356.1783509999998
 30
0.0
 11
387.699981
 21
356.1783509999998
 31
0.0
  0
ARC
  5
C8B2
330
C5B5
100
AcDbEntity
  8
1
  6
Continuous
100
AcDbCircle
 10
401.957698
 20
365.1783509999999
 30
0.0
 40
5.0
100
AcDbArc
 50
0.0
 51
90.0
  0
LINE
  5
C8B3
330
C5B5
100
AcDbEntity
  8
4
  6
CENTER
100
AcDbLine
 10
399.4576979999998
 20
365.4283509999999
 30
0.0
 11
399.4576979999998
 21
358.9283509999999
 31
0.0
  0
ARC
  5
C8B4
330
C5B5
100
AcDbEntity
  8
1
  6
Continuous
100
AcDbCircle
 10
435.323401
 20
335.3636379999998
 30
0.0
 40
0.9267839999999999
100
AcDbArc
 50
44.0725
 51
135.928
  0
ARC
  5
C8B5
330
C5B5
100
AcDbEntity
  8
1
  6
Continuous
100
AcDbCircle
 10
435.323401
 20
334.0175259999998
 30
0.0
 40
0.9267839999999999
100
AcDbArc
 50
224.072
 51
315.927
  0
ARC
  5
C8B6
330
C5B5
100
AcDbEntity
  8
1
  6
Continuous
100
AcDbCircle
 10
430.2258349999998
 20
335.3636379999998
 30
0.0
 40
0.9267839999999999
100
AcDbArc
 50
44.0725
 51
135.928
  0
ARC
  5
C8B7
330
C5B5
100
AcDbEntity
  8
1
  6
Continuous
100
AcDbCircle
 10
435.377561
 20
334.0699419999998
 30
0.0
 40
1.002143999999999
100
AcDbArc
 50
180.0
 51
224.072
  0
LINE
  5
C8B8
330
C5B5
100
AcDbEntity
  8
1
  6
Continuous
100
AcDbLine
 10
434.3754009999996
 20
335.311222
 30
0.0
 11
434.3754009999996
 21
334.0699419999998
 31
0.0
  0
LINE
  5
C8B9
330
C5B5
100
AcDbEntity
  8
1
  6
Continuous
100
AcDbLine
 10
431.1738349999997
 20
335.311222
 30
0.0
 11
431.1738349999997
 21
334.0699419999998
 31
0.0
  0
ARC
  5
C8BA
330
C5B5
100
AcDbEntity
  8
1
  6
Continuous
100
AcDbCircle
 10
430.1716749999997
 20
334.0699419999998
 30
0.0
 40
1.002143999999999
100
AcDbArc
 50
315.927
 51
0.0
  0
ARC
  5
C8BB
330
C5B5
100
AcDbEntity
  8
1
  6
Continuous
100
AcDbCircle
 10
430.2258349999998
 20
334.0175259999998
 30
0.0
 40
0.9267839999999999
100
AcDbArc
 50
224.072
 51
315.927
  0
LINE
  5
C8BC
330
C5B5
100
AcDbEntity
  8
1
  6
Continuous
100
AcDbLine
 10
432.556336
 20
334.6905819999999
 30
0.0
 11
433.5588159999998
 21
334.6905819999999
 31
0.0
  0
ARC
  5
C8BD
330
C5B5
100
AcDbEntity
  8
1
  6
Continuous
100
AcDbCircle
 10
430.1716749999997
 20
335.311222
 30
0.0
 40
1.002143999999999
100
AcDbArc
 50
0.0
 51
44.0725
  0
ARC
  5
C8BE
330
C5B5
100
AcDbEntity
  8
1
  6
Continuous
100
AcDbCircle
 10
435.377561
 20
335.311222
 30
0.0
 40
1.002143999999999
100
AcDbArc
 50
135.928
 51
180.0
  0
ARC
  5
C8BF
330
C5B5
100
AcDbEntity
  8
1
  6
Continuous
100
AcDbCircle
 10
427.5032719999998
 20
335.3636379999998
 30
0.0
 40
0.9267839999999999
100
AcDbArc
 50
44.0725
 51
135.928
  0
ARC
  5
C8C0
330
C5B5
100
AcDbEntity
  8
1
  6
Continuous
100
AcDbCircle
 10
424.7218269999998
 20
335.289982
 30
0.0
 40
1.000599999999999
100
AcDbArc
 50
47.1304
 51
132.8699999999996
  0
ARC
  5
C8C1
330
C5B5
100
AcDbEntity
  8
1
  6
Continuous
100
AcDbCircle
 10
427.5032719999998
 20
334.0175259999998
 30
0.0
 40
0.9267839999999999
100
AcDbArc
 50
224.072
 51
315.927
  0
ARC
  5
C8C2
330
C5B5
100
AcDbEntity
  8
1
  6
Continuous
100
AcDbCircle
 10
427.449112
 20
334.0699419999998
 30
0.0
 40
1.002143999999999
100
AcDbArc
 50
315.927
 51
0.0
  0
ARC
  5
C8C3
330
C5B5
100
AcDbEntity
  8
1
  6
Continuous
100
AcDbCircle
 10
427.557432
 20
334.0699419999998
 30
0.0
 40
1.002143999999999
100
AcDbArc
 50
180.0
 51
224.072
  0
LINE
  5
C8C4
330
C5B5
100
AcDbEntity
  8
1
  6
Continuous
100
AcDbLine
 10
428.4512719999995
 20
335.311222
 30
0.0
 11
428.4512719999995
 21
334.0699419999998
 31
0.0
  0
LINE
  5
C8C5
330
C5B5
100
AcDbEntity
  8
1
  6
Continuous
100
AcDbLine
 10
426.555272
 20
335.311222
 30
0.0
 11
426.555272
 21
334.0699419999998
 31
0.0
  0
LINE
  5
C8C6
330
C5B5
100
AcDbEntity
  8
1
  6
Continuous
100
AcDbLine
 10
429.2778349999998
 20
335.311222
 30
0.0
 11
429.2778349999998
 21
334.0699419999998
 31
0.0
  0
ARC
  5
C8C7
330
C5B5
100
AcDbEntity
  8
1
  6
Continuous
100
AcDbCircle
 10
424.6098749999998
 20
333.9705819999999
 30
0.0
 40
0.8360479999999999
100
AcDbArc
 50
193.0139999999999
 51
227.13
  0
ARC
  5
C8C8
330
C5B5
100
AcDbEntity
  8
1
  6
Continuous
100
AcDbCircle
 10
424.7218269999998
 20
333.849979
 30
0.0
 40
1.000599999999999
100
AcDbArc
 50
47.1304
 51
57.1503
  0
ARC
  5
C8C9
330
C5B5
100
AcDbEntity
  8
1
  6
Continuous
100
AcDbCircle
 10
424.7218269999998
 20
334.091182
 30
0.0
 40
1.000599999999999
100
AcDbArc
 50
227.13
 51
312.87
  0
ARC
  5
C8CA
330
C5B5
100
AcDbEntity
  8
1
  6
Continuous
100
AcDbCircle
 10
424.7218269999998
 20
335.531182
 30
0.0
 40
1.000599999999999
100
AcDbArc
 50
302.85
 51
312.87
  0
LINE
  5
C8CB
330
C5B5
100
AcDbEntity
  8
1
  6
Continuous
100
AcDbLine
 10
424.7962589999998
 20
334.6905819999999
 30
0.0
 11
425.2645949999998
 21
334.6905819999999
 31
0.0
  0
ARC
  5
C8CC
330
C5B5
100
AcDbEntity
  8
1
  6
Continuous
100
AcDbCircle
 10
424.8337789999998
 20
333.9705819999999
 30
0.0
 40
0.8360479999999999
100
AcDbArc
 50
312.87
 51
47.1304
  0
ARC
  5
C8CD
330
C5B5
100
AcDbEntity
  8
1
  6
Continuous
100
AcDbCircle
 10
424.6098749999998
 20
335.4105819999998
 30
0.0
 40
0.8360479999999999
100
AcDbArc
 50
132.8699999999996
 51
198.208
  0
ARC
  5
C8CE
330
C5B5
100
AcDbEntity
  8
1
  6
Continuous
100
AcDbCircle
 10
424.8337789999998
 20
335.4105819999998
 30
0.0
 40
0.8360479999999999
100
AcDbArc
 50
312.87
 51
47.1304
  0
ARC
  5
C8CF
330
C5B5
100
AcDbEntity
  8
1
  6
Continuous
100
AcDbCircle
 10
427.449112
 20
335.311222
 30
0.0
 40
1.002143999999999
100
AcDbArc
 50
0.0
 51
44.0725
  0
ARC
  5
C8D0
330
C5B5
100
AcDbEntity
  8
1
  6
Continuous
100
AcDbCircle
 10
427.557432
 20
335.311222
 30
0.0
 40
1.002143999999999
100
AcDbArc
 50
135.928
 51
180.0
  0
LINE
  5
C8D1
330
C5B5
100
AcDbEntity
  8
1
  6
Continuous
100
AcDbLine
 10
419.928273
 20
334.6905819999999
 30
0.0
 11
420.930753
 21
334.6905819999999
 31
0.0
  0
ARC
  5
C8D2
330
C5B5
100
AcDbEntity
  8
1
  6
Continuous
100
AcDbCircle
 10
416.9534409999998
 20
334.784598
 30
0.0
 40
1.708047999999998
100
AcDbArc
 50
318.932
 51
41.0679
  0
ARC
  5
C8D3
330
C5B5
100
AcDbEntity
  8
1
  6
Continuous
100
AcDbCircle
 10
430.2799949999998
 20
335.311222
 30
0.0
 40
1.002143999999999
100
AcDbArc
 50
135.928
 51
180.0
  0
ARC
  5
C8D4
330
C5B5
100
AcDbEntity
  8
1
  6
Continuous
100
AcDbCircle
 10
430.2799949999998
 20
334.0699419999998
 30
0.0
 40
1.002143999999999
100
AcDbArc
 50
180.0
 51
224.072
  0
LINE
  5
C8D5
330
C5B5
100
AcDbEntity
  8
1
  6
Continuous
100
AcDbLine
 10
446.957698
 20
330.1783509999998
 30
0.0
 11
446.957698
 21
335.1783509999998
 31
0.0
  0
ARC
  5
C8D6
330
C5B5
100
AcDbEntity
  8
1
  6
Continuous
100
AcDbCircle
 10
435.269241
 20
334.0699419999998
 30
0.0
 40
1.002143999999999
100
AcDbArc
 50
315.927
 51
0.0
  0
LINE
  5
C8D7
330
C5B5
100
AcDbEntity
  8
1
  6
Continuous
100
AcDbLine
 10
436.2714009999998
 20
335.311222
 30
0.0
 11
436.2714009999998
 21
334.0699419999998
 31
0.0
  0
ARC
  5
C8D8
330
C5B5
100
AcDbEntity
  8
1
  6
Continuous
100
AcDbCircle
 10
435.269241
 20
335.311222
 30
0.0
 40
1.002143999999999
100
AcDbArc
 50
0.0
 51
44.0725
  0
LINE
  5
C8D9
330
C5B5
100
AcDbEntity
  8
1
  6
Continuous
100
AcDbLine
 10
446.957698
 20
335.1783509999998
 30
0.0
 11
436.9576979999997
 21
345.1783509999998
 31
0.0
  0
LINE
  5
C8DB
330
C5B5
100
AcDbEntity
  8
1
  6
Continuous
100
AcDbLine
 10
69.50000199999999
 20
470.7567009999998
 30
0.0
 11
72.84209599999996
 21
473.892048
 31
0.0
  0
LINE
  5
C8DC
330
C5B5
100
AcDbEntity
  8
1
  6
Continuous
100
AcDbLine
 10
70.50000199999998
 20
476.9567009999998
 30
0.0
 11
72.85302000000001
 21
474.6107889999998
 31
0.0
  0
LINE
  5
C8DD
330
C5B5
100
AcDbEntity
  8
1
  6
Continuous
100
AcDbLine
 10
49.50000199999998
 20
473.3567009999998
 30
0.0
 11
72.27144799999995
 21
473.3567009999998
 31
0.0
  0
LINE
  5
C8DE
330
C5B5
100
AcDbEntity
  8
1
  6
Continuous
100
AcDbLine
 10
49.50000199999998
 20
474.5567009999998
 30
0.0
 11
72.90727199999992
 21
474.5567009999998
 31
0.0
  0
LINE
  5
C8DF
330
C5B5
100
AcDbEntity
  8
4
  6
CENTER
100
AcDbLine
 10
23.25448900000004
 20
473.8567009999997
 30
0.0
 11
74.28890999999999
 21
473.8567009999997
 31
0.0
  0
ARC
  5
C8E0
330
C5B5
100
AcDbEntity
  8
1
  6
Continuous
100
AcDbCircle
 10
35.33333500000003
 20
483.8567009999998
 30
0.0
 40
1.0
100
AcDbArc
 50
53.130102
 51
90.0
  0
ARC
  5
C8E1
330
C5B5
100
AcDbEntity
  8
1
  6
Continuous
100
AcDbCircle
 10
35.33333500000003
 20
483.8567009999998
 30
0.0
 40
2.0
100
AcDbArc
 50
53.130102
 51
90.0
  0
ARC
  5
C8E2
330
C5B5
100
AcDbEntity
  8
1
  6
Continuous
100
AcDbCircle
 10
35.33333500000003
 20
463.856701
 30
0.0
 40
1.0
100
AcDbArc
 50
270.0
 51
306.8698979999998
  0
ARC
  5
C8E3
330
C5B5
100
AcDbEntity
  8
1
  6
Continuous
100
AcDbCircle
 10
35.33333500000003
 20
463.856701
 30
0.0
 40
2.0
100
AcDbArc
 50
270.0
 51
306.8698979999998
  0
LINE
  5
C8E4
330
C5B5
100
AcDbEntity
  8
1
  6
Continuous
100
AcDbLine
 10
33.286697
 20
474.2466839999998
 30
0.0
 11
38.71330699999998
 21
474.2466839999998
 31
0.0
  0
LINE
  5
C8E5
330
C5B5
100
AcDbEntity
  8
1
  6
Continuous
100
AcDbLine
 10
33.86614600000007
 20
468.802707
 30
0.0
 11
37.2196859999999
 21
468.802707
 31
0.0
  0
LINE
  5
C8E6
330
C5B5
100
AcDbEntity
  8
1
  6
Continuous
100
AcDbLine
 10
37.43441400000006
 20
469.579516
 30
0.0
 11
34.56558999999993
 21
469.579516
 31
0.0
  0
LINE
  5
C8E7
330
C5B5
100
AcDbEntity
  8
1
  6
Continuous
100
AcDbLine
 10
34.08087399999999
 20
470.357904
 30
0.0
 11
37.917551
 21
470.357904
 31
0.0
  0
LINE
  5
C8E8
330
C5B5
100
AcDbEntity
  8
1
  6
Continuous
100
AcDbLine
 10
33.979825
 20
471.1347119999998
 30
0.0
 11
38.02017899999998
 21
471.1347119999998
 31
0.0
  0
LINE
  5
C8E9
330
C5B5
100
AcDbEntity
  8
1
  6
Continuous
100
AcDbLine
 10
33.35143100000006
 20
472.6914879999998
 30
0.0
 11
38.64857299999993
 21
472.6914879999998
 31
0.0
  0
LINE
  5
C8EA
330
C5B5
100
AcDbEntity
  8
1
  6
Continuous
100
AcDbLine
 10
33.286697
 20
473.4682969999999
 30
0.0
 11
38.71330699999998
 21
473.4682969999999
 31
0.0
  0
LINE
  5
C8EB
330
C5B5
100
AcDbEntity
  8
1
  6
Continuous
100
AcDbLine
 10
37.45493999999997
 20
478.5301849999998
 30
0.0
 11
34.17718500000001
 21
479.409621
 31
0.0
  0
ARC
  5
C8EC
330
C5B5
100
AcDbEntity
  8
1
  6
Continuous
100
AcDbCircle
 10
35.61080800000003
 20
477.745482
 30
0.0
 40
0.388957
100
AcDbArc
 50
270.0
 51
90.0
  0
ARC
  5
C8ED
330
C5B5
100
AcDbEntity
  8
1
  6
Continuous
100
AcDbCircle
 10
35.99921199999994
 20
478.5238699999998
 30
0.0
 40
2.004309
100
AcDbArc
 50
62.24999999999999
 51
144.462
  0
LINE
  5
C8EE
330
C5B5
100
AcDbEntity
  8
1
  6
Continuous
100
AcDbLine
 10
33.43984799999998
 20
475.0234929999996
 30
0.0
 11
38.56015500000001
 21
475.0234929999996
 31
0.0
  0
LINE
  5
C8EF
330
C5B5
100
AcDbEntity
  8
1
  6
Continuous
100
AcDbLine
 10
33.44300599999996
 20
476.5786900000001
 30
0.0
 11
38.31227100000001
 21
476.5786900000001
 31
0.0
  0
LINE
  5
C8F0
330
C5B5
100
AcDbEntity
  8
1
  6
Continuous
100
AcDbLine
 10
30.23831900000004
 20
484.4114009999998
 30
0.0
 11
26.16795200000001
 21
478.3058499999998
 31
0.0
  0
LINE
  5
C8F1
330
C5B5
100
AcDbEntity
  8
1
  6
Continuous
100
AcDbLine
 10
25.33590100000003
 20
478.86055
 30
0.0
 11
29.40626900000006
 21
484.9661009999996
 31
0.0
  0
ARC
  5
C8F2
330
C5B5
100
AcDbEntity
  8
1
  6
Continuous
100
AcDbCircle
 10
42.53261700000007
 20
473.8567009999997
 30
0.0
 40
10.032628
100
AcDbArc
 50
144.462
 51
215.5377
  0
LINE
  5
C8F3
330
C5B5
100
AcDbEntity
  8
1
  6
Continuous
100
AcDbLine
 10
35.06609400000002
 20
471.9130999999999
 30
0.0
 11
33.58194800000001
 21
471.9130999999999
 31
0.0
  0
ARC
  5
C8F4
330
C5B5
100
AcDbEntity
  8
1
  6
Continuous
100
AcDbCircle
 10
34.56558999999993
 20
469.9694989999998
 30
0.0
 40
0.388957
100
AcDbArc
 50
206.0144
 51
270.0
  0
ARC
  5
C8F5
330
C5B5
100
AcDbEntity
  8
1
  6
Continuous
100
AcDbCircle
 10
42.53261700000007
 20
473.8567009999997
 30
0.0
 40
9.254918999999999
100
AcDbArc
 50
202.944
 51
206.0144
  0
ARC
  5
C8F6
330
C5B5
100
AcDbEntity
  8
1
  6
Continuous
100
AcDbCircle
 10
34.08087399999999
 20
470.2805379999999
 30
0.0
 40
0.077791
100
AcDbArc
 50
90.0
 51
202.944
  0
ARC
  5
C8F7
330
C5B5
100
AcDbEntity
  8
1
  6
Continuous
100
AcDbCircle
 10
33.58194800000001
 20
471.8357349999998
 30
0.0
 40
0.077791
100
AcDbArc
 50
90.0
 51
192.7289
  0
ARC
  5
C8F8
330
C5B5
100
AcDbEntity
  8
1
  6
Continuous
100
AcDbCircle
 10
42.53261700000007
 20
473.8567009999997
 30
0.0
 40
9.254918999999999
100
AcDbArc
 50
192.7289
 51
193.2680999999999
  0
ARC
  5
C8F9
330
C5B5
100
AcDbEntity
  8
1
  6
Continuous
100
AcDbCircle
 10
42.53261700000007
 20
473.8567009999997
 30
0.0
 40
9.254918999999999
100
AcDbArc
 50
193.2680999999999
 51
195.2574999999999
  0
ARC
  5
C8FA
330
C5B5
100
AcDbEntity
  8
1
  6
Continuous
100
AcDbCircle
 10
33.979825
 20
471.5246959999998
 30
0.0
 40
0.388957
100
AcDbArc
 50
195.2574999999999
 51
270.0
  0
LINE
  5
C8FB
330
C5B5
100
AcDbEntity
  8
1
  6
Continuous
100
AcDbLine
 10
35.06609400000002
 20
475.8018809999998
 30
0.0
 11
33.80457000000002
 21
475.8018809999998
 31
0.0
  0
LINE
  5
C8FC
330
C5B5
100
AcDbEntity
  8
1
  6
Continuous
100
AcDbLine
 10
33.80930599999999
 20
477.3570769999999
 30
0.0
 11
35.61080800000003
 21
477.3570769999999
 31
0.0
  0
LINE
  5
C8FD
330
C5B5
100
AcDbEntity
  8
1
  6
Continuous
100
AcDbLine
 10
35.61080800000003
 20
478.1354650000001
 30
0.0
 11
33.94982700000003
 21
478.1354650000001
 31
0.0
  0
ARC
  5
C8FE
330
C5B5
100
AcDbEntity
  8
1
  6
Continuous
100
AcDbCircle
 10
33.80457000000002
 20
475.4134759999998
 30
0.0
 40
0.388957
100
AcDbArc
 50
90.0
 51
169.896
  0
ARC
  5
C8FF
330
C5B5
100
AcDbEntity
  8
1
  6
Continuous
100
AcDbCircle
 10
42.53261700000007
 20
473.8567009999997
 30
0.0
 40
9.254918999999999
100
AcDbArc
 50
169.896
 51
172.2069999999999
  0
ARC
  5
C900
330
C5B5
100
AcDbEntity
  8
1
  6
Continuous
100
AcDbCircle
 10
33.43984799999998
 20
475.102437
 30
0.0
 40
0.077791
100
AcDbArc
 50
172.2069999999999
 51
270.0
  0
ARC
  5
C901
330
C5B5
100
AcDbEntity
  8
1
  6
Continuous
100
AcDbCircle
 10
35.99921199999994
 20
469.1911109999998
 30
0.0
 40
2.004309
100
AcDbArc
 50
215.5377
 51
256.5374
  0
LINE
  5
C902
330
C5B5
100
AcDbEntity
  8
1
  6
Continuous
100
AcDbLine
 10
30.23831900000004
 20
463.3020009999996
 30
0.0
 11
26.16795200000001
 21
469.4075519999996
 31
0.0
  0
ARC
  5
C903
330
C5B5
100
AcDbEntity
  8
1
  6
Continuous
100
AcDbCircle
 10
27.00000199999999
 20
477.7511500000001
 30
0.0
 40
1.0
100
AcDbArc
 50
146.3099319999996
 51
180.0
  0
LINE
  5
C904
330
C5B5
100
AcDbEntity
  8
1
  6
Continuous
100
AcDbLine
 10
26.00000199999999
 20
469.9622519999998
 30
0.0
 11
26.00000199999999
 21
477.7511500000001
 31
0.0
  0
ARC
  5
C905
330
C5B5
100
AcDbEntity
  8
1
  6
Continuous
100
AcDbCircle
 10
27.00000199999999
 20
469.9622519999998
 30
0.0
 40
1.0
100
AcDbArc
 50
180.0
 51
213.690068
  0
ARC
  5
C906
330
C5B5
100
AcDbEntity
  8
1
  6
Continuous
100
AcDbCircle
 10
31.07036900000002
 20
463.856701
 30
0.0
 40
1.0
100
AcDbArc
 50
213.690068
 51
270.0
  0
ARC
  5
C907
330
C5B5
100
AcDbEntity
  8
1
  6
Continuous
100
AcDbCircle
 10
27.50000199999999
 20
477.3567009999998
 30
0.0
 40
0.5
100
AcDbArc
 50
90.0
 51
180.0
  0
ARC
  5
C908
330
C5B5
100
AcDbEntity
  8
1
  6
Continuous
100
AcDbCircle
 10
31.07036900000002
 20
463.856701
 30
0.0
 40
2.0
100
AcDbArc
 50
213.690068
 51
270.0
  0
ARC
  5
C909
330
C5B5
100
AcDbEntity
  8
1
  6
Continuous
100
AcDbCircle
 10
27.00000199999999
 20
469.9622519999998
 30
0.0
 40
2.0
100
AcDbArc
 50
180.0
 51
213.690068
  0
ARC
  5
C90A
330
C5B5
100
AcDbEntity
  8
1
  6
Continuous
100
AcDbCircle
 10
27.00000199999999
 20
477.7511500000001
 30
0.0
 40
2.0
100
AcDbArc
 50
146.3099319999996
 51
180.0
  0
ARC
  5
C90B
330
C5B5
100
AcDbEntity
  8
1
  6
Continuous
100
AcDbCircle
 10
30.50000199999999
 20
477.3567009999998
 30
0.0
 40
0.5
100
AcDbArc
 50
0.0
 51
90.0
  0
ARC
  5
C90C
330
C5B5
100
AcDbEntity
  8
1
  6
Continuous
100
AcDbCircle
 10
30.50000199999999
 20
470.3567009999998
 30
0.0
 40
0.5
100
AcDbArc
 50
270.0
 51
0.0
  0
ARC
  5
C90D
330
C5B5
100
AcDbEntity
  8
1
  6
Continuous
100
AcDbCircle
 10
27.50000199999999
 20
470.3567009999998
 30
0.0
 40
0.5
100
AcDbArc
 50
180.0
 51
270.0
  0
LINE
  5
C90E
330
C5B5
100
AcDbEntity
  8
1
  6
Continuous
100
AcDbLine
 10
25.33590100000003
 20
468.8528519999998
 30
0.0
 11
29.40626900000006
 21
462.747301
 31
0.0
  0
LINE
  5
C90F
330
C5B5
100
AcDbEntity
  8
1
  6
Continuous
100
AcDbLine
 10
27.50000199999999
 20
477.8567009999997
 30
0.0
 11
30.50000199999999
 21
477.8567009999997
 31
0.0
  0
LINE
  5
C910
330
C5B5
100
AcDbEntity
  8
1
  6
Continuous
100
AcDbLine
 10
27.50000199999999
 20
469.8567009999998
 30
0.0
 11
30.50000199999999
 21
469.8567009999998
 31
0.0
  0
LINE
  5
C911
330
C5B5
100
AcDbEntity
  8
1
  6
Continuous
100
AcDbLine
 10
31.00000199999999
 20
477.3567009999998
 30
0.0
 11
31.00000199999999
 21
470.3567009999998
 31
0.0
  0
LINE
  5
C912
330
C5B5
100
AcDbEntity
  8
1
  6
Continuous
100
AcDbLine
 10
27.00000199999999
 20
477.3567009999998
 30
0.0
 11
27.00000199999999
 21
470.3567009999998
 31
0.0
  0
LINE
  5
C913
330
C5B5
100
AcDbEntity
  8
1
  6
Continuous
100
AcDbLine
 10
25.00000199999999
 20
477.7511500000001
 30
0.0
 11
25.00000199999999
 21
469.9622519999998
 31
0.0
  0
LINE
  5
C914
330
C5B5
100
AcDbEntity
  8
1
  6
Continuous
100
AcDbLine
 10
35.33333500000003
 20
462.8567009999998
 30
0.0
 11
31.07036900000002
 21
462.8567009999998
 31
0.0
  0
LINE
  5
C915
330
C5B5
100
AcDbEntity
  8
1
  6
Continuous
100
AcDbLine
 10
31.07036900000002
 20
461.8567009999998
 30
0.0
 11
35.33333500000003
 21
461.8567009999998
 31
0.0
  0
ARC
  5
C916
330
C5B5
100
AcDbEntity
  8
1
  6
Continuous
100
AcDbCircle
 10
31.07036900000002
 20
483.8567009999998
 30
0.0
 40
1.0
100
AcDbArc
 50
90.0
 51
146.3099319999996
  0
ARC
  5
C917
330
C5B5
100
AcDbEntity
  8
1
  6
Continuous
100
AcDbCircle
 10
31.07036900000002
 20
483.8567009999998
 30
0.0
 40
2.0
100
AcDbArc
 50
90.0
 51
146.3099319999996
  0
LINE
  5
C918
330
C5B5
100
AcDbEntity
  8
1
  6
Continuous
100
AcDbLine
 10
31.07036900000002
 20
484.8567009999999
 30
0.0
 11
35.33333500000003
 21
484.8567009999999
 31
0.0
  0
LINE
  5
C919
330
C5B5
100
AcDbEntity
  8
1
  6
Continuous
100
AcDbLine
 10
31.07036900000002
 20
485.8567009999998
 30
0.0
 11
35.33333500000003
 21
485.8567009999998
 31
0.0
  0
LINE
  5
C91A
330
C5B5
100
AcDbEntity
  8
1
  6
Continuous
100
AcDbLine
 10
35.99921199999994
 20
480.5274679999999
 30
0.0
 11
35.99921199999994
 21
478.9201679999997
 31
0.0
  0
ARC
  5
C91B
330
C5B5
100
AcDbEntity
  8
1
  6
Continuous
100
AcDbCircle
 10
35.99921199999994
 20
478.5238699999998
 30
0.0
 40
2.004309
100
AcDbArc
 50
35.53799999999997
 51
45.69899999999999
  0
LINE
  5
C91C
330
C5B5
100
AcDbEntity
  8
1
  6
Continuous
100
AcDbLine
 10
35.93333499999994
 20
484.6567009999995
 30
0.0
 11
46.00000199999999
 21
477.1067009999998
 31
0.0
  0
LINE
  5
C91D
330
C5B5
100
AcDbEntity
  8
1
  6
Continuous
100
AcDbLine
 10
36.53333499999996
 20
485.4567009999998
 30
0.0
 11
46.00000199999999
 21
478.3567009999996
 31
0.0
  0
LINE
  5
C91E
330
C5B5
100
AcDbEntity
  8
1
  6
Continuous
100
AcDbLine
 10
53.00000199999999
 20
476.9567009999998
 30
0.0
 11
70.50000199999998
 21
476.9567009999998
 31
0.0
  0
LINE
  5
C91F
330
C5B5
100
AcDbEntity
  8
1
  6
Continuous
100
AcDbLine
 10
53.00000199999999
 20
470.7567009999998
 30
0.0
 11
69.50000199999999
 21
470.7567009999998
 31
0.0
  0
ARC
  5
C920
330
C5B5
100
AcDbEntity
  8
1
  6
Continuous
100
AcDbCircle
 10
52.70000200000004
 20
469.6567009999998
 30
0.0
 40
0.3
100
AcDbArc
 50
270.0
 51
0.0
  0
ARC
  5
C921
330
C5B5
100
AcDbEntity
  8
1
  6
Continuous
100
AcDbCircle
 10
52.70000200000004
 20
478.0567009999998
 30
0.0
 40
0.3
100
AcDbArc
 50
0.0
 51
90.0
  0
LINE
  5
C922
330
C5B5
100
AcDbEntity
  8
1
  6
Continuous
100
AcDbLine
 10
53.00000199999999
 20
470.7567009999998
 30
0.0
 11
53.00000199999999
 21
469.6567009999998
 31
0.0
  0
LINE
  5
C923
330
C5B5
100
AcDbEntity
  8
1
  6
Continuous
100
AcDbLine
 10
53.00000199999999
 20
478.0567009999998
 30
0.0
 11
53.00000199999999
 21
476.9567009999998
 31
0.0
  0
LINE
  5
C924
330
C5B5
100
AcDbEntity
  8
1
  6
Continuous
100
AcDbLine
 10
49.50000199999998
 20
474.5567009999998
 30
0.0
 11
49.50000199999998
 21
473.3567009999998
 31
0.0
  0
LINE
  5
C925
330
C5B5
100
AcDbEntity
  8
1
  6
Continuous
100
AcDbLine
 10
46.00000199999999
 20
470.6067009999999
 30
0.0
 11
46.00000199999999
 21
477.1067009999998
 31
0.0
  0
LINE
  5
C926
330
C5B5
100
AcDbEntity
  8
1
  6
Continuous
100
AcDbLine
 10
46.00000199999999
 20
470.6067009999999
 30
0.0
 11
35.93333499999994
 21
463.0567009999999
 31
0.0
  0
LINE
  5
C927
330
C5B5
100
AcDbEntity
  8
1
  6
Continuous
100
AcDbLine
 10
36.53333499999996
 20
462.2567009999998
 30
0.0
 11
46.00000199999999
 21
469.3567009999998
 31
0.0
  0
ARC
  5
C928
330
C5B5
100
AcDbEntity
  8
1
  6
Continuous
100
AcDbCircle
 10
35.99921199999994
 20
469.1911109999998
 30
0.0
 40
2.004309
100
AcDbArc
 50
270.0
 51
324.4619999999998
  0
ARC
  5
C929
330
C5B5
100
AcDbEntity
  8
1
  6
Continuous
100
AcDbCircle
 10
29.46738700000004
 20
473.8567009999997
 30
0.0
 40
10.032628
100
AcDbArc
 50
324.4619999999998
 51
35.53799999999997
  0
LINE
  5
C92A
330
C5B5
100
AcDbEntity
  8
1
  6
Continuous
100
AcDbLine
 10
35.99921199999994
 20
473.4682969999999
 30
0.0
 11
35.99921199999994
 21
472.6914879999998
 31
0.0
  0
ARC
  5
C92B
330
C5B5
100
AcDbEntity
  8
1
  6
Continuous
100
AcDbCircle
 10
37.43441400000006
 20
469.9694989999998
 30
0.0
 40
0.388957
100
AcDbArc
 50
270.0
 51
333.9859999999998
  0
ARC
  5
C92C
330
C5B5
100
AcDbEntity
  8
1
  6
Continuous
100
AcDbCircle
 10
38.02017899999998
 20
471.5246959999998
 30
0.0
 40
0.388957
100
AcDbArc
 50
270.0
 51
344.7419999999997
  0
ARC
  5
C92D
330
C5B5
100
AcDbEntity
  8
1
  6
Continuous
100
AcDbCircle
 10
29.46738700000004
 20
473.8567009999997
 30
0.0
 40
9.254918999999999
100
AcDbArc
 50
344.7419999999997
 51
344.794
  0
ARC
  5
C92E
330
C5B5
100
AcDbEntity
  8
1
  6
Continuous
100
AcDbCircle
 10
29.46738700000004
 20
473.8567009999997
 30
0.0
 40
9.254918999999999
100
AcDbArc
 50
344.794
 51
347.2709999999996
  0
ARC
  5
C92F
330
C5B5
100
AcDbEntity
  8
1
  6
Continuous
100
AcDbCircle
 10
38.41805599999998
 20
471.8357349999998
 30
0.0
 40
0.077791
100
AcDbArc
 50
347.2709999999996
 51
90.0
  0
LINE
  5
C930
330
C5B5
100
AcDbEntity
  8
1
  6
Continuous
100
AcDbLine
 10
38.41805599999998
 20
471.9130999999999
 30
0.0
 11
36.93232999999997
 21
471.9130999999999
 31
0.0
  0
ARC
  5
C931
330
C5B5
100
AcDbEntity
  8
1
  6
Continuous
100
AcDbCircle
 10
37.917551
 20
470.2805379999999
 30
0.0
 40
0.077791
100
AcDbArc
 50
337.0559999999998
 51
90.0
  0
ARC
  5
C932
330
C5B5
100
AcDbEntity
  8
1
  6
Continuous
100
AcDbCircle
 10
29.46738700000004
 20
473.8567009999997
 30
0.0
 40
9.254918999999999
100
AcDbArc
 50
333.9859999999998
 51
337.0559999999998
  0
LINE
  5
C933
330
C5B5
100
AcDbEntity
  8
1
  6
Continuous
100
AcDbLine
 10
35.99921199999994
 20
475.8018809999998
 30
0.0
 11
35.99921199999994
 21
475.4134759999998
 31
0.0
  0
LINE
  5
C934
330
C5B5
100
AcDbEntity
  8
1
  6
Continuous
100
AcDbLine
 10
35.99921199999994
 20
477.745482
 30
0.0
 11
37.86544800000001
 21
477.745482
 31
0.0
  0
ARC
  5
C935
330
C5B5
100
AcDbEntity
  8
1
  6
Continuous
100
AcDbCircle
 10
38.19543399999997
 20
475.4134759999998
 30
0.0
 40
0.388957
100
AcDbArc
 50
10.10399999999999
 51
90.0
  0
ARC
  5
C936
330
C5B5
100
AcDbEntity
  8
1
  6
Continuous
100
AcDbCircle
 10
38.56015500000001
 20
475.102437
 30
0.0
 40
0.077791
100
AcDbArc
 50
270.0
 51
7.792999999999999
  0
ARC
  5
C937
330
C5B5
100
AcDbEntity
  8
1
  6
Continuous
100
AcDbCircle
 10
29.46738700000004
 20
473.8567009999997
 30
0.0
 40
9.254918999999999
100
AcDbArc
 50
7.792999999999999
 51
10.10399999999999
  0
LINE
  5
C938
330
C5B5
100
AcDbEntity
  8
1
  6
Continuous
100
AcDbLine
 10
38.19543399999997
 20
475.8018809999998
 30
0.0
 11
35.99921199999994
 21
475.8018809999998
 31
0.0
  0
LINE
  5
C939
330
C5B5
100
AcDbEntity
  8
1
  6
Continuous
100
AcDbLine
 10
46.00000199999999
 20
478.3567009999996
 30
0.0
 11
52.70000200000004
 21
478.3567009999996
 31
0.0
  0
LINE
  5
C93A
330
C5B5
100
AcDbEntity
  8
1
  6
Continuous
100
AcDbLine
 10
46.00000199999999
 20
469.3567009999998
 30
0.0
 11
52.70000200000004
 21
469.3567009999998
 31
0.0
  0
ARC
  5
C93B
330
C5B5
100
AcDbEntity
  8
1
  6
Continuous
100
AcDbCircle
 10
72.50000199999998
 20
474.256701
 30
0.0
 40
0.5
100
AcDbArc
 50
313.1718549999998
 51
45.08664600000001
  0
LINE
  5
C93C
330
C5B5
100
AcDbEntity
  8
1
  6
Continuous
100
AcDbLine
 10
216.0576979999999
 20
424.3567009999998
 30
0.0
 11
216.0576979999999
 21
539.3567009999998
 31
0.0
  0
LINE
  5
C93D
330
C5B5
100
AcDbEntity
  8
1
  6
Continuous
100
AcDbLine
 10
212.857698
 20
424.3567009999998
 30
0.0
 11
212.857698
 21
539.3567009999998
 31
0.0
  0
LINE
  5
C93E
330
C5B5
100
AcDbEntity
  8
1
  6
Continuous
100
AcDbLine
 10
212.857698
 20
424.3567009999998
 30
0.0
 11
216.0576979999999
 21
424.3567009999998
 31
0.0
  0
LINE
  5
C93F
330
C5B5
100
AcDbEntity
  8
1
  6
Continuous
100
AcDbLine
 10
212.857698
 20
449.3567009999998
 30
0.0
 11
216.0576979999999
 21
449.3567009999998
 31
0.0
  0
LINE
  5
C940
330
C5B5
100
AcDbEntity
  8
4
  6
CENTER
100
AcDbLine
 10
210.4169379999999
 20
430.3567009999999
 30
0.0
 11
219.3407729999999
 21
430.3567009999999
 31
0.0
  0
LINE
  5
C941
330
C5B5
100
AcDbEntity
  8
1
  6
Continuous
100
AcDbLine
 10
194.357698
 20
457.8567009999998
 30
0.0
 11
195.8576979999998
 21
457.8567009999998
 31
0.0
  0
LINE
  5
C942
330
C5B5
100
AcDbEntity
  8
4
  6
CENTER
100
AcDbLine
 10
187.667634
 20
473.8567009999997
 30
0.0
 11
228.3340659999999
 21
473.8567009999997
 31
0.0
  0
LINE
  5
C943
330
C5B5
100
AcDbEntity
  8
1
  6
Continuous
100
AcDbLine
 10
194.357698
 20
489.8567009999998
 30
0.0
 11
195.8576979999998
 21
489.8567009999998
 31
0.0
  0
ARC
  5
C944
330
C5B5
100
AcDbEntity
  8
1
  6
Continuous
100
AcDbCircle
 10
240.3526979999999
 20
473.8567009999997
 30
0.0
 40
49.995
100
AcDbArc
 50
168.5788139999999
 51
191.4211859999999
  0
ARC
  5
C945
330
C5B5
100
AcDbEntity
  8
1
  6
Continuous
100
AcDbCircle
 10
240.9922679999999
 20
473.8567009999997
 30
0.0
 40
49.81574099999999
100
AcDbArc
 50
171.6129679999999
 51
188.3870319999999
  0
LINE
  5
C946
330
C5B5
100
AcDbEntity
  8
1
  6
Continuous
100
AcDbLine
 10
192.857698
 20
459.856701
 30
0.0
 11
192.857698
 21
487.8567009999998
 31
0.0
  0
LINE
  5
C947
330
C5B5
100
AcDbEntity
  8
1
  6
Continuous
100
AcDbLine
 10
194.357698
 20
457.8567009999998
 30
0.0
 11
194.357698
 21
489.8567009999998
 31
0.0
  0
ARC
  5
C948
330
C5B5
100
AcDbEntity
  8
1
  6
Continuous
100
AcDbCircle
 10
192.3276979999999
 20
466.681796
 30
0.0
 40
0.625095
100
AcDbArc
 50
188.3870319999999
 51
327.9808089999999
  0
LINE
  5
C949
330
C5B5
100
AcDbEntity
  8
1
  6
Continuous
100
AcDbLine
 10
191.2493369999999
 20
464.4567009999995
 30
0.0
 11
192.857698
 21
464.4567009999995
 31
0.0
  0
LINE
  5
C94A
330
C5B5
100
AcDbEntity
  8
1
  6
Continuous
100
AcDbLine
 10
191.347698
 20
463.9567009999998
 30
0.0
 11
192.857698
 21
463.9567009999998
 31
0.0
  0
LINE
  5
C94B
330
C5B5
100
AcDbEntity
  8
1
  6
Continuous
100
AcDbLine
 10
192.857698
 20
459.856701
 30
0.0
 11
194.357698
 21
457.8567009999998
 31
0.0
  0
ARC
  5
C94C
330
C5B5
100
AcDbEntity
  8
1
  6
Continuous
100
AcDbCircle
 10
192.3276979999999
 20
481.0316059999998
 30
0.0
 40
0.625095
100
AcDbArc
 50
32.019191
 51
171.6129679999999
  0
LINE
  5
C94D
330
C5B5
100
AcDbEntity
  8
1
  6
Continuous
100
AcDbLine
 10
191.2493369999999
 20
483.2567009999998
 30
0.0
 11
192.857698
 21
483.2567009999998
 31
0.0
  0
LINE
  5
C94E
330
C5B5
100
AcDbEntity
  8
1
  6
Continuous
100
AcDbLine
 10
191.347698
 20
483.7567009999999
 30
0.0
 11
192.857698
 21
483.7567009999999
 31
0.0
  0
LINE
  5
C94F
330
C5B5
100
AcDbEntity
  8
1
  6
Continuous
100
AcDbLine
 10
192.857698
 20
487.8567009999998
 30
0.0
 11
194.357698
 21
489.8567009999998
 31
0.0
  0
LINE
  5
C950
330
C5B5
100
AcDbEntity
  8
1
  6
Continuous
100
AcDbLine
 10
217.357698
 20
478.3567009999996
 30
0.0
 11
217.357698
 21
488.3567009999999
 31
0.0
  0
LINE
  5
C951
330
C5B5
100
AcDbEntity
  8
1
  6
Continuous
100
AcDbLine
 10
218.6576979999999
 20
478.756701
 30
0.0
 11
218.6576979999999
 21
487.9567009999998
 31
0.0
  0
ARC
  5
C952
330
C5B5
100
AcDbEntity
  8
1
  6
Continuous
100
AcDbCircle
 10
219.979747
 20
480.5784769999998
 30
0.0
 40
1.6
100
AcDbArc
 50
275.0
 51
344.506032
  0
LINE
  5
C953
330
C5B5
100
AcDbEntity
  8
1
  6
Continuous
100
AcDbLine
 10
216.3576979999999
 20
478.3567009999996
 30
0.0
 11
216.3576979999999
 21
488.3567009999999
 31
0.0
  0
LINE
  5
C954
330
C5B5
100
AcDbEntity
  8
1
  6
Continuous
100
AcDbLine
 10
195.8576979999998
 20
457.8567009999998
 30
0.0
 11
195.8576979999998
 21
489.8567009999998
 31
0.0
  0
LINE
  5
C955
330
C5B5
100
AcDbEntity
  8
4
  6
CENTER
100
AcDbLine
 10
210.8497009999998
 20
464.3567009999999
 30
0.0
 11
224.3734179999999
 21
464.3567009999999
 31
0.0
  0
LINE
  5
C956
330
C5B5
100
AcDbEntity
  8
4
  6
CENTER
100
AcDbLine
 10
201.357698
 20
457.5912509999998
 30
0.0
 11
201.357698
 21
490.122151
 31
0.0
  0
LINE
  5
C957
330
C5B5
100
AcDbEntity
  8
1
  6
Continuous
100
AcDbLine
 10
195.8576979999998
 20
460.8567009999998
 30
0.0
 11
212.857698
 21
460.8567009999998
 31
0.0
  0
LINE
  5
C958
330
C5B5
100
AcDbEntity
  8
1
  6
Continuous
100
AcDbLine
 10
195.8576979999998
 20
477.8567009999997
 30
0.0
 11
203.357698
 21
477.8567009999997
 31
0.0
  0
LINE
  5
C959
330
C5B5
100
AcDbEntity
  8
1
  6
Continuous
100
AcDbLine
 10
203.357698
 20
477.8567009999997
 30
0.0
 11
203.857698
 21
477.3567009999998
 31
0.0
  0
LINE
  5
C95A
330
C5B5
100
AcDbEntity
  8
1
  6
Continuous
100
AcDbLine
 10
195.8576979999998
 20
469.8567009999998
 30
0.0
 11
203.357698
 21
469.8567009999998
 31
0.0
  0
LINE
  5
C95B
330
C5B5
100
AcDbEntity
  8
1
  6
Continuous
100
AcDbLine
 10
203.357698
 20
469.8567009999998
 30
0.0
 11
203.857698
 21
470.3567009999998
 31
0.0
  0
LINE
  5
C95C
330
C5B5
100
AcDbEntity
  8
1
  6
Continuous
100
AcDbLine
 10
203.857698
 20
477.3567009999998
 30
0.0
 11
203.857698
 21
470.3567009999998
 31
0.0
  0
LINE
  5
C95D
330
C5B5
100
AcDbEntity
  8
1
  6
Continuous
100
AcDbLine
 10
203.357698
 20
469.8567009999998
 30
0.0
 11
203.357698
 21
477.8567009999997
 31
0.0
  0
ARC
  5
C95E
330
C5B5
100
AcDbEntity
  8
1
  6
Continuous
100
AcDbCircle
 10
219.0215779999996
 20
476.6257839999998
 30
0.0
 40
1.230917
100
AcDbArc
 50
19.56332899999998
 51
160.3402669999999
  0
ARC
  5
C95F
330
C5B5
100
AcDbEntity
  8
1
  6
Continuous
100
AcDbCircle
 10
212.989045
 20
473.8567009999997
 30
0.0
 40
7.868632999999997
100
AcDbArc
 50
336.151535
 51
23.860203
  0
ARC
  5
C960
330
C5B5
100
AcDbEntity
  8
1
  6
Continuous
100
AcDbCircle
 10
225.05411
 20
473.8567009999997
 30
0.0
 40
7.868632999999997
100
AcDbArc
 50
156.12475
 51
203.87525
  0
ARC
  5
C961
330
C5B5
100
AcDbEntity
  8
1
  6
Continuous
100
AcDbCircle
 10
219.0215779999996
 20
471.0876179999998
 30
0.0
 40
1.230917
100
AcDbArc
 50
199.6597329999999
 51
340.511879
  0
LINE
  5
C962
330
C5B5
100
AcDbEntity
  8
1
  6
Continuous
100
AcDbLine
 10
218.6576979999999
 20
464.3567009999999
 30
0.0
 11
217.357698
 21
463.0567009999999
 31
0.0
  0
LINE
  5
C963
330
C5B5
100
AcDbEntity
  8
1
  6
Continuous
100
AcDbLine
 10
217.357698
 20
464.3567009999999
 30
0.0
 11
218.6576979999999
 21
465.6567009999998
 31
0.0
  0
LINE
  5
C964
330
C5B5
100
AcDbEntity
  8
1
  6
Continuous
100
AcDbLine
 10
218.6576979999999
 20
478.8567009999998
 30
0.0
 11
220.1191959999998
 21
478.9845659999998
 31
0.0
  0
LINE
  5
C965
330
C5B5
100
AcDbEntity
  8
1
  6
Continuous
100
AcDbLine
 10
217.357698
 20
478.756701
 30
0.0
 11
218.6576979999999
 21
478.756701
 31
0.0
  0
LINE
  5
C966
330
C5B5
100
AcDbEntity
  8
1
  6
Continuous
100
AcDbLine
 10
216.3576979999999
 20
478.3567009999996
 30
0.0
 11
217.357698
 21
478.3567009999996
 31
0.0
  0
ARC
  5
C967
330
C5B5
100
AcDbEntity
  8
1
  6
Continuous
100
AcDbCircle
 10
219.979747
 20
467.1349249999998
 30
0.0
 40
1.6
100
AcDbArc
 50
15.493968
 51
85.0
  0
LINE
  5
C968
330
C5B5
100
AcDbEntity
  8
1
  6
Continuous
100
AcDbLine
 10
216.3576979999999
 20
469.3567009999998
 30
0.0
 11
217.357698
 21
469.3567009999998
 31
0.0
  0
LINE
  5
C969
330
C5B5
100
AcDbEntity
  8
1
  6
Continuous
100
AcDbLine
 10
216.0576979999999
 20
467.6067009999998
 30
0.0
 11
216.3576979999999
 21
467.6067009999998
 31
0.0
  0
LINE
  5
C96A
330
C5B5
100
AcDbEntity
  8
1
  6
Continuous
100
AcDbLine
 10
217.357698
 20
468.9567009999996
 30
0.0
 11
218.6576979999999
 21
468.9567009999996
 31
0.0
  0
LINE
  5
C96B
330
C5B5
100
AcDbEntity
  8
1
  6
Continuous
100
AcDbLine
 10
218.6576979999999
 20
468.8567009999998
 30
0.0
 11
220.1191959999998
 21
468.728837
 31
0.0
  0
ARC
  5
C96C
330
C5B5
100
AcDbEntity
  8
1
  6
Continuous
100
AcDbCircle
 10
219.979747
 20
461.5784769999998
 30
0.0
 40
1.6
100
AcDbArc
 50
275.0
 51
344.506032
  0
LINE
  5
C96D
330
C5B5
100
AcDbEntity
  8
1
  6
Continuous
100
AcDbLine
 10
216.3576979999999
 20
459.3567009999999
 30
0.0
 11
217.357698
 21
459.3567009999999
 31
0.0
  0
LINE
  5
C96E
330
C5B5
100
AcDbEntity
  8
1
  6
Continuous
100
AcDbLine
 10
217.357698
 20
459.7567009999998
 30
0.0
 11
218.6576979999999
 21
459.7567009999998
 31
0.0
  0
LINE
  5
C96F
330
C5B5
100
AcDbEntity
  8
1
  6
Continuous
100
AcDbLine
 10
216.0576979999999
 20
461.1067009999998
 30
0.0
 11
216.3576979999999
 21
461.1067009999998
 31
0.0
  0
LINE
  5
C970
330
C5B5
100
AcDbEntity
  8
1
  6
Continuous
100
AcDbLine
 10
218.6576979999999
 20
459.856701
 30
0.0
 11
220.1191959999998
 21
459.984566
 31
0.0
  0
LINE
  5
C971
330
C5B5
100
AcDbEntity
  8
1
  6
Continuous
100
AcDbLine
 10
218.6576979999999
 20
459.7567009999998
 30
0.0
 11
218.6576979999999
 21
468.9567009999996
 31
0.0
  0
LINE
  5
C972
330
C5B5
100
AcDbEntity
  8
1
  6
Continuous
100
AcDbLine
 10
217.357698
 20
459.3567009999999
 30
0.0
 11
217.357698
 21
469.3567009999998
 31
0.0
  0
LINE
  5
C973
330
C5B5
100
AcDbEntity
  8
1
  6
Continuous
100
AcDbLine
 10
216.3576979999999
 20
459.3567009999999
 30
0.0
 11
216.3576979999999
 21
469.3567009999998
 31
0.0
  0
ARC
  5
C974
330
C5B5
100
AcDbEntity
  8
1
  6
Continuous
100
AcDbCircle
 10
209.9576979999999
 20
464.3567009999999
 30
0.0
 40
12.0
100
AcDbArc
 50
344.506032
 51
15.493968
  0
LINE
  5
C975
330
C5B5
100
AcDbEntity
  8
1
  6
Continuous
100
AcDbLine
 10
216.0576979999999
 20
469.8567009999998
 30
0.0
 11
219.0215779999996
 21
469.8567009999998
 31
0.0
  0
LINE
  5
C976
330
C5B5
100
AcDbEntity
  8
1
  6
Continuous
100
AcDbLine
 10
216.0576979999999
 20
477.8567009999997
 30
0.0
 11
219.0215779999996
 21
477.8567009999997
 31
0.0
  0
LINE
  5
C977
330
C5B5
100
AcDbEntity
  8
1
  6
Continuous
100
AcDbLine
 10
212.857698
 20
499.3567009999998
 30
0.0
 11
216.0576979999999
 21
499.3567009999998
 31
0.0
  0
LINE
  5
C978
330
C5B5
100
AcDbEntity
  8
4
  6
CENTER
100
AcDbLine
 10
210.4169379999999
 20
491.8567009999998
 30
0.0
 11
218.81284
 21
491.8567009999998
 31
0.0
  0
LINE
  5
C979
330
C5B5
100
AcDbEntity
  8
4
  6
CENTER
100
AcDbLine
 10
210.772423
 20
483.3567009999998
 30
0.0
 11
224.0643069999998
 21
483.3567009999998
 31
0.0
  0
LINE
  5
C97A
330
C5B5
100
AcDbEntity
  8
1
  6
Continuous
100
AcDbLine
 10
195.8576979999998
 20
486.8567009999998
 30
0.0
 11
212.857698
 21
486.8567009999998
 31
0.0
  0
LINE
  5
C97B
330
C5B5
100
AcDbEntity
  8
1
  6
Continuous
100
AcDbLine
 10
218.6576979999999
 20
483.3567009999998
 30
0.0
 11
217.357698
 21
482.0567009999998
 31
0.0
  0
LINE
  5
C97C
330
C5B5
100
AcDbEntity
  8
1
  6
Continuous
100
AcDbLine
 10
217.357698
 20
483.3567009999998
 30
0.0
 11
218.6576979999999
 21
484.6567009999995
 31
0.0
  0
ARC
  5
C97D
330
C5B5
100
AcDbEntity
  8
1
  6
Continuous
100
AcDbCircle
 10
209.9576979999999
 20
483.3567009999998
 30
0.0
 40
12.0
100
AcDbArc
 50
344.506032
 51
15.493968
  0
LINE
  5
C97E
330
C5B5
100
AcDbEntity
  8
1
  6
Continuous
100
AcDbLine
 10
218.6576979999999
 20
487.8567009999998
 30
0.0
 11
220.1191959999998
 21
487.7288369999998
 31
0.0
  0
LINE
  5
C97F
330
C5B5
100
AcDbEntity
  8
1
  6
Continuous
100
AcDbLine
 10
217.357698
 20
487.9567009999998
 30
0.0
 11
218.6576979999999
 21
487.9567009999998
 31
0.0
  0
ARC
  5
C980
330
C5B5
100
AcDbEntity
  8
1
  6
Continuous
100
AcDbCircle
 10
219.979747
 20
486.1349249999998
 30
0.0
 40
1.6
100
AcDbArc
 50
15.493968
 51
85.0
  0
LINE
  5
C981
330
C5B5
100
AcDbEntity
  8
1
  6
Continuous
100
AcDbLine
 10
216.0576979999999
 20
480.1067009999997
 30
0.0
 11
216.3576979999999
 21
480.1067009999997
 31
0.0
  0
LINE
  5
C982
330
C5B5
100
AcDbEntity
  8
1
  6
Continuous
100
AcDbLine
 10
216.0576979999999
 20
486.6067009999999
 30
0.0
 11
216.3576979999999
 21
486.6067009999999
 31
0.0
  0
LINE
  5
C983
330
C5B5
100
AcDbEntity
  8
1
  6
Continuous
100
AcDbLine
 10
216.3576979999999
 20
488.3567009999999
 30
0.0
 11
217.357698
 21
488.3567009999999
 31
0.0
  0
LINE
  5
C984
330
C5B5
100
AcDbEntity
  8
1
  6
Continuous
100
AcDbLine
 10
212.857698
 20
529.3567009999998
 30
0.0
 11
216.0576979999999
 21
529.3567009999998
 31
0.0
  0
LINE
  5
C985
330
C5B5
100
AcDbEntity
  8
1
  6
Continuous
100
AcDbLine
 10
212.857698
 20
539.3567009999998
 30
0.0
 11
216.0576979999999
 21
539.3567009999998
 31
0.0
  0
LINE
  5
C994
330
C5B5
100
AcDbEntity
  8
1
  6
Continuous
100
AcDbLine
 10
580.5576979999997
 20
229.1783509999999
 30
0.0
 11
580.5576979999997
 21
367.1783509999999
 31
0.0
  0
LINE
  5
C995
330
C5B5
100
AcDbEntity
  8
1
  6
Continuous
100
AcDbLine
 10
577.5576979999997
 20
227.1783509999999
 30
0.0
 11
577.5576979999997
 21
369.1783509999999
 31
0.0
  0
LINE
  5
C996
330
C5B5
100
AcDbEntity
  8
1
  6
Continuous
100
AcDbLine
 10
579.0576980000001
 20
227.1783509999999
 30
0.0
 11
579.0576980000001
 21
369.1783509999999
 31
0.0
  0
LINE
  5
C997
330
C5B5
100
AcDbEntity
  8
1
  6
Continuous
100
AcDbLine
 10
564.0576979999997
 20
293.1783509999998
 30
0.0
 11
564.0576979999997
 21
243.1783509999998
 31
0.0
  0
LINE
  5
C99E
330
C5B5
100
AcDbEntity
  8
1
  6
Continuous
100
AcDbLine
 10
579.0576980000001
 20
227.1783509999999
 30
0.0
 11
580.5576979999997
 21
229.1783509999999
 31
0.0
  0
LINE
  5
C99F
330
C5B5
100
AcDbEntity
  8
1
  6
Continuous
100
AcDbLine
 10
579.0576980000001
 20
227.1783509999999
 30
0.0
 11
577.5576979999997
 21
227.1783509999999
 31
0.0
  0
LINE
  5
C9A0
330
C5B5
100
AcDbEntity
  8
1
  6
Continuous
100
AcDbLine
 10
565.6576979999998
 20
265.6783509999999
 30
0.0
 11
565.6576979999998
 21
240.178351
 31
0.0
  0
LINE
  5
C9A1
330
C5B5
100
AcDbEntity
  8
1
  6
Continuous
100
AcDbLine
 10
565.5576979999997
 20
265.6783509999999
 30
0.0
 11
565.5576979999997
 21
243.1783509999998
 31
0.0
  0
LINE
  5
C9A2
330
C5B5
100
AcDbEntity
  8
1
  6
Continuous
100
AcDbLine
 10
565.857698
 20
265.6783509999999
 30
0.0
 11
565.857698
 21
240.2288609999999
 31
0.0
  0
LINE
  5
C9A3
330
C5B5
100
AcDbEntity
  8
1
  6
Continuous
100
AcDbLine
 10
580.857698
 20
256.5783509999999
 30
0.0
 11
580.857698
 21
241.1783509999998
 31
0.0
  0
LINE
  5
C9A4
330
C5B5
100
AcDbEntity
  8
1
  6
Continuous
100
AcDbLine
 10
580.5576979999997
 20
265.6783509999999
 30
0.0
 11
583.0576980000001
 21
240.6783509999999
 31
0.0
  0
LINE
  5
C9A5
330
C5B5
100
AcDbEntity
  8
1
  6
Continuous
100
AcDbLine
 10
577.5576979999997
 20
230.1783509999999
 30
0.0
 11
570.0576979999997
 21
230.1783509999999
 31
0.0
  0
LINE
  5
C9A6
330
C5B5
100
AcDbEntity
  8
1
  6
Continuous
100
AcDbLine
 10
577.5576979999997
 20
240.178351
 30
0.0
 11
565.6576979999998
 21
240.178351
 31
0.0
  0
LINE
  5
C9A7
330
C5B5
100
AcDbEntity
  8
1
  6
Continuous
100
AcDbLine
 10
577.5576979999997
 20
238.1783509999999
 30
0.0
 11
570.0576979999997
 21
238.1783509999999
 31
0.0
  0
LINE
  5
C9A8
330
C5B5
100
AcDbEntity
  8
4
  6
CENTER
100
AcDbLine
 10
581.8085099999997
 20
234.1783509999999
 30
0.0
 11
568.1750289999997
 21
234.1783509999999
 31
0.0
  0
LINE
  5
C9A9
330
C5B5
100
AcDbEntity
  8
1
  6
Continuous
100
AcDbLine
 10
569.5576979999997
 20
237.6783509999996
 30
0.0
 11
569.5576979999997
 21
230.6783509999999
 31
0.0
  0
LINE
  5
C9AA
330
C5B5
100
AcDbEntity
  8
1
  6
Continuous
100
AcDbLine
 10
570.0576979999997
 20
230.1783509999999
 30
0.0
 11
570.0576979999997
 21
238.1783509999999
 31
0.0
  0
LINE
  5
C9AB
330
C5B5
100
AcDbEntity
  8
1
  6
Continuous
100
AcDbLine
 10
570.0576979999997
 20
230.1783509999999
 30
0.0
 11
569.5576979999997
 21
230.6783509999999
 31
0.0
  0
LINE
  5
C9AC
330
C5B5
100
AcDbEntity
  8
1
  6
Continuous
100
AcDbLine
 10
570.0576979999997
 20
238.1783509999999
 30
0.0
 11
569.5576979999997
 21
237.6783509999996
 31
0.0
  0
LINE
  5
C9AD
330
C5B5
100
AcDbEntity
  8
1
  6
Continuous
100
AcDbLine
 10
565.5576979999997
 20
243.1783509999998
 30
0.0
 11
564.0576979999997
 21
243.1783509999998
 31
0.0
  0
POLYLINE
  5
C9AE
330
C5B5
100
AcDbEntity
  8
1
  6
Continuous
100
AcDb2dPolyline
 66
     1
 10
0.0
 20
0.0
 30
0.0
 70
     2
  0
VERTEX
  5
C9AF
330
C9AE
100
AcDbEntity
  8
1
  6
Continuous
100
AcDbVertex
100
AcDb2dVertex
 10
565.6576979999998
 20
240.1964159999999
 30
0.0
 42
-0.354857
  0
VERTEX
  5
C9B0
330
C9AE
100
AcDbEntity
  8
1
  6
Continuous
100
AcDbVertex
100
AcDb2dVertex
 10
565.6729219999999
 20
240.208833
 30
0.0
 42
-0.056548
  0
VERTEX
  5
C9B1
330
C9AE
100
AcDbEntity
  8
1
  6
Continuous
100
AcDbVertex
100
AcDb2dVertex
 10
565.716277
 20
240.219358
 30
0.0
 42
-0.024387
  0
VERTEX
  5
C9B2
330
C9AE
100
AcDbEntity
  8
1
  6
Continuous
100
AcDbVertex
100
AcDb2dVertex
 10
565.7811609999997
 20
240.2263919999999
 30
0.0
 42
-0.016915
  0
VERTEX
  5
C9B3
330
C9AE
100
AcDbEntity
  8
1
  6
Continuous
100
AcDbVertex
100
AcDb2dVertex
 10
565.857698
 20
240.2288609999999
 30
0.0
  0
SEQEND
  5
C9B4
330
C9AE
100
AcDbEntity
  8
1
  6
Continuous
  0
LINE
  5
C9B5
330
C5B5
100
AcDbEntity
  8
1
  6
Continuous
100
AcDbLine
 10
580.657698
 20
246.6783509999999
 30
0.0
 11
580.657698
 21
240.8783509999996
 31
0.0
  0
ARC
  5
C9B6
330
C5B5
100
AcDbEntity
  8
1
  6
Continuous
100
AcDbCircle
 10
580.857698
 20
240.8783509999996
 30
0.0
 40
0.2
100
AcDbArc
 50
180.0
 51
270.0
  0
ARC
  5
C9B7
330
C5B5
100
AcDbEntity
  8
1
  6
Continuous
100
AcDbCircle
 10
581.357698
 20
241.1783509999998
 30
0.0
 40
0.5
100
AcDbArc
 50
180.0
 51
270.0
  0
LINE
  5
C9B8
330
C5B5
100
AcDbEntity
  8
1
  6
Continuous
100
AcDbLine
 10
583.0576980000001
 20
240.6783509999999
 30
0.0
 11
580.857698
 21
240.6783509999999
 31
0.0
  0
LINE
  5
C9B9
330
C5B5
100
AcDbEntity
  8
1
  6
Continuous
100
AcDbLine
 10
580.857698
 20
246.6783509999999
 30
0.0
 11
580.5576979999997
 21
246.6783509999999
 31
0.0
  0
LINE
  5
C9BA
330
C5B5
100
AcDbEntity
  8
1
  6
Continuous
100
AcDbLine
 10
565.6576979999998
 20
259.078351
 30
0.0
 11
565.5576979999997
 21
259.078351
 31
0.0
  0
LINE
  5
C9BB
330
C5B5
100
AcDbEntity
  8
1
  6
Continuous
100
AcDbLine
 10
565.857698
 20
265.6783509999999
 30
0.0
 11
564.0576979999997
 21
265.6783509999999
 31
0.0
  0
LINE
  5
C9BC
330
C5B5
100
AcDbEntity
  8
4
  6
CENTER
100
AcDbLine
 10
560.6385889999995
 20
263.1783509999999
 30
0.0
 11
568.2886859999999
 21
263.1783509999999
 31
0.0
  0
LINE
  5
C9BD
330
C5B5
100
AcDbEntity
  8
4
  6
CENTER
100
AcDbLine
 10
554.7426329999998
 20
362.1783509999998
 30
0.0
 11
563.002197
 21
362.1783509999998
 31
0.0
  0
LINE
  5
C9BE
330
C5B5
100
AcDbEntity
  8
1
  6
Continuous
100
AcDbLine
 10
556.0576979999998
 20
344.7971529999999
 30
0.0
 11
552.5576979999998
 21
346.817879
 31
0.0
  0
LINE
  5
C9BF
330
C5B5
100
AcDbEntity
  8
1
  6
Continuous
100
AcDbLine
 10
556.0576979999998
 20
335.5783509999998
 30
0.0
 11
554.7576979999998
 21
335.5783509999998
 31
0.0
  0
LINE
  5
C9C0
330
C5B5
100
AcDbEntity
  8
1
  6
Continuous
100
AcDbLine
 10
556.0576979999998
 20
344.7783509999999
 30
0.0
 11
554.7576979999998
 21
344.7783509999999
 31
0.0
  0
LINE
  5
C9C1
330
C5B5
100
AcDbEntity
  8
1
  6
Continuous
100
AcDbLine
 10
555.0752179999998
 20
351.1783509999998
 30
0.0
 11
557.357698
 21
351.1783509999998
 31
0.0
  0
LINE
  5
C9C2
330
C5B5
100
AcDbEntity
  8
1
  6
Continuous
100
AcDbLine
 10
556.0576979999998
 20
340.1783509999998
 30
0.0
 11
554.7576979999998
 21
338.8783509999998
 31
0.0
  0
LINE
  5
C9C3
330
C5B5
100
AcDbEntity
  8
1
  6
Continuous
100
AcDbLine
 10
554.7576979999998
 20
340.1783509999998
 30
0.0
 11
556.0576979999998
 21
341.4783509999998
 31
0.0
  0
LINE
  5
C9C4
330
C5B5
100
AcDbEntity
  8
4
  6
CENTER
100
AcDbLine
 10
555.4496339999998
 20
335.1783509999998
 30
0.0
 11
562.1378220000001
 21
335.1783509999998
 31
0.0
  0
LINE
  5
C9C5
330
C5B5
100
AcDbEntity
  8
1
  6
Continuous
100
AcDbLine
 10
552.5576979999998
 20
346.817879
 30
0.0
 11
556.229918
 21
353.1783509999999
 31
0.0
  0
ARC
  5
C9CC
330
C5B5
100
AcDbEntity
  8
1
  6
Continuous
100
AcDbCircle
 10
553.435649
 20
342.9565749999998
 30
0.0
 40
1.6
100
AcDbArc
 50
95.0
 51
164.5060319999998
  0
ARC
  5
C9CD
330
C5B5
100
AcDbEntity
  8
1
  6
Continuous
100
AcDbCircle
 10
553.435649
 20
337.4001269999999
 30
0.0
 40
1.6
100
AcDbArc
 50
195.4939679999999
 51
265.0
  0
LINE
  5
C9CE
330
C5B5
100
AcDbEntity
  8
1
  6
Continuous
100
AcDbLine
 10
554.7576979999998
 20
335.5783509999998
 30
0.0
 11
554.7576979999998
 21
344.7783509999999
 31
0.0
  0
LINE
  5
C9CF
330
C5B5
100
AcDbEntity
  8
1
  6
Continuous
100
AcDbLine
 10
554.7576979999998
 20
335.6783509999998
 30
0.0
 11
553.2961999999996
 21
335.8062159999997
 31
0.0
  0
LINE
  5
C9D0
330
C5B5
100
AcDbEntity
  8
1
  6
Continuous
100
AcDbLine
 10
554.7576979999998
 20
344.6783509999999
 30
0.0
 11
553.2961999999996
 21
344.5504869999999
 31
0.0
  0
ARC
  5
C9D1
330
C5B5
100
AcDbEntity
  8
1
  6
Continuous
100
AcDbCircle
 10
563.4576980000002
 20
340.1783509999998
 30
0.0
 40
12.0
100
AcDbArc
 50
164.5060319999998
 51
195.4939679999999
  0
LINE
  5
C9D2
330
C5B5
100
AcDbEntity
  8
1
  6
Continuous
100
AcDbLine
 10
561.0576979999998
 20
335.1783509999998
 30
0.0
 11
561.0576979999998
 21
296.1783509999999
 31
0.0
  0
LINE
  5
C9D3
330
C5B5
100
AcDbEntity
  8
1
  6
Continuous
100
AcDbLine
 10
560.5576979999998
 20
370.1783509999998
 30
0.0
 11
560.5576979999998
 21
325.1783509999998
 31
0.0
  0
LINE
  5
C9D4
330
C5B5
100
AcDbEntity
  8
1
  6
Continuous
100
AcDbLine
 10
557.357698
 20
370.1783509999998
 30
0.0
 11
557.357698
 21
325.1783509999998
 31
0.0
  0
LINE
  5
C9D6
330
C5B5
100
AcDbEntity
  8
1
  6
Continuous
100
AcDbLine
 10
564.0576979999997
 20
293.1783509999998
 30
0.0
 11
561.0576979999998
 21
296.1783509999999
 31
0.0
  0
LINE
  5
C9D7
330
C5B5
100
AcDbEntity
  8
1
  6
Continuous
100
AcDbLine
 10
560.5576979999998
 20
325.1783509999998
 30
0.0
 11
557.357698
 21
325.1783509999998
 31
0.0
  0
LINE
  5
C9DB
330
C5B5
100
AcDbEntity
  8
1
  6
Continuous
100
AcDbLine
 10
560.5576979999998
 20
335.1783509999998
 30
0.0
 11
557.357698
 21
335.1783509999998
 31
0.0
  0
LINE
  5
C9DC
330
C5B5
100
AcDbEntity
  8
1
  6
Continuous
100
AcDbLine
 10
556.0576979999998
 20
335.1783509999998
 30
0.0
 11
556.0576979999998
 21
345.1783509999998
 31
0.0
  0
LINE
  5
C9DD
330
C5B5
100
AcDbEntity
  8
1
  6
Continuous
100
AcDbLine
 10
557.0576979999998
 20
335.1783509999998
 30
0.0
 11
557.0576979999998
 21
345.1783509999998
 31
0.0
  0
LINE
  5
C9DE
330
C5B5
100
AcDbEntity
  8
1
  6
Continuous
100
AcDbLine
 10
557.0576979999998
 20
335.1783509999998
 30
0.0
 11
556.0576979999998
 21
335.1783509999998
 31
0.0
  0
LINE
  5
C9DF
330
C5B5
100
AcDbEntity
  8
1
  6
Continuous
100
AcDbLine
 10
557.357698
 20
336.9283509999998
 30
0.0
 11
557.0576979999998
 21
336.9283509999998
 31
0.0
  0
LINE
  5
C9E0
330
C5B5
100
AcDbEntity
  8
1
  6
Continuous
100
AcDbLine
 10
557.0576979999998
 20
345.1783509999998
 30
0.0
 11
556.0576979999998
 21
345.1783509999998
 31
0.0
  0
LINE
  5
C9E1
330
C5B5
100
AcDbEntity
  8
1
  6
Continuous
100
AcDbLine
 10
557.357698
 20
343.4283509999998
 30
0.0
 11
557.0576979999998
 21
343.4283509999998
 31
0.0
  0
LINE
  5
C9E2
330
C5B5
100
AcDbEntity
  8
1
  6
Continuous
100
AcDbLine
 10
557.357698
 20
344.046598
 30
0.0
 11
557.0576979999998
 21
344.2198029999998
 31
0.0
  0
LINE
  5
C9E3
330
C5B5
100
AcDbEntity
  8
1
  6
Continuous
100
AcDbLine
 10
561.0576979999998
 20
333.1783509999998
 30
0.0
 11
560.5576979999998
 21
333.1783509999998
 31
0.0
  0
LINE
  5
C9E4
330
C5B5
100
AcDbEntity
  8
1
  6
Continuous
100
AcDbLine
 10
560.5576979999998
 20
345.1783509999998
 30
0.0
 11
557.357698
 21
345.1783509999998
 31
0.0
  0
LINE
  5
C9EC
330
C5B5
100
AcDbEntity
  8
1
  6
Continuous
100
AcDbLine
 10
577.5576979999997
 20
356.1783509999998
 30
0.0
 11
560.5576979999998
 21
356.1783509999998
 31
0.0
  0
LINE
  5
C9ED
330
C5B5
100
AcDbEntity
  8
1
  6
Continuous
100
AcDbLine
 10
577.5576979999997
 20
358.1783509999998
 30
0.0
 11
570.0576979999997
 21
358.1783509999998
 31
0.0
  0
LINE
  5
C9EE
330
C5B5
100
AcDbEntity
  8
1
  6
Continuous
100
AcDbLine
 10
577.5576979999997
 20
366.1783509999998
 30
0.0
 11
570.0576979999997
 21
366.1783509999998
 31
0.0
  0
LINE
  5
C9EF
330
C5B5
100
AcDbEntity
  8
4
  6
CENTER
100
AcDbLine
 10
582.786746
 20
362.1783509999998
 30
0.0
 11
568.0576980000002
 21
362.1783509999998
 31
0.0
  0
LINE
  5
C9F0
330
C5B5
100
AcDbEntity
  8
1
  6
Continuous
100
AcDbLine
 10
556.229918
 20
353.1783509999999
 30
0.0
 11
557.357698
 21
353.1783509999999
 31
0.0
  0
LINE
  5
C9F1
330
C5B5
100
AcDbEntity
  8
1
  6
Continuous
100
AcDbLine
 10
569.5576979999997
 20
365.6783509999999
 30
0.0
 11
569.5576979999997
 21
358.6783509999999
 31
0.0
  0
LINE
  5
C9F2
330
C5B5
100
AcDbEntity
  8
1
  6
Continuous
100
AcDbLine
 10
570.0576979999997
 20
358.1783509999998
 30
0.0
 11
570.0576979999997
 21
366.1783509999998
 31
0.0
  0
LINE
  5
C9F3
330
C5B5
100
AcDbEntity
  8
1
  6
Continuous
100
AcDbLine
 10
570.0576979999997
 20
358.1783509999998
 30
0.0
 11
569.5576979999997
 21
358.6783509999999
 31
0.0
  0
LINE
  5
C9F4
330
C5B5
100
AcDbEntity
  8
1
  6
Continuous
100
AcDbLine
 10
570.0576979999997
 20
366.1783509999998
 30
0.0
 11
569.5576979999997
 21
365.6783509999999
 31
0.0
  0
LINE
  5
C9F5
330
C5B5
100
AcDbEntity
  8
1
  6
Continuous
100
AcDbLine
 10
560.5576979999998
 20
370.1783509999998
 30
0.0
 11
557.357698
 21
370.1783509999998
 31
0.0
  0
LINE
  5
C9F6
330
C5B5
100
AcDbEntity
  8
1
  6
Continuous
100
AcDbLine
 10
580.5576979999997
 20
367.1783509999999
 30
0.0
 11
579.0576980000001
 21
369.1783509999999
 31
0.0
  0
LINE
  5
C9F7
330
C5B5
100
AcDbEntity
  8
1
  6
Continuous
100
AcDbLine
 10
579.0576980000001
 20
369.1783509999999
 30
0.0
 11
577.5576979999997
 21
369.1783509999999
 31
0.0
  0
LINE
  5
C9FF
330
C5B5
100
AcDbEntity
  8
4
  6
CENTER
100
AcDbLine
 10
201.357698
 20
347.1783509999998
 30
0.0
 11
201.357698
 21
333.1783509999998
 31
0.0
  0
LINE
  5
CA00
330
C5B5
100
AcDbEntity
  8
4
  6
CENTER
100
AcDbLine
 10
194.357698
 20
340.1783509999998
 30
0.0
 11
223.457698
 21
340.1783509999998
 31
0.0
  0
CIRCLE
  5
CA01
330
C5B5
100
AcDbEntity
  8
1
  6
Continuous
100
AcDbCircle
 10
201.357698
 20
340.1783509999998
 30
0.0
 40
5.500000000000056
  0
LINE
  5
CA02
330
C5B5
100
AcDbEntity
  8
1
  6
Continuous
100
AcDbLine
 10
201.357698
 20
345.6783509999998
 30
0.0
 11
195.8576980000005
 21
345.6783509999977
 31
0.0
  0
LINE
  5
CA03
330
C5B5
100
AcDbEntity
  8
1
  6
Continuous
100
AcDbLine
 10
201.357698
 20
334.6783509999998
 30
0.0
 11
195.8576980000007
 21
334.6783510000122
 31
0.0
  0
LINE
  5
CA04
330
C5B5
100
AcDbEntity
  8
1
  6
Continuous
100
AcDbLine
 10
197.115057312882
 20
336.678350999998
 30
0.0
 11
195.8576980000029
 21
336.6783509999976
 31
0.0
  0
LINE
  5
CA05
330
C5B5
100
AcDbEntity
  8
1
  6
Continuous
100
AcDbLine
 10
197.1150573128791
 20
343.678350999998
 30
0.0
 11
195.8576980000002
 21
343.6783509999977
 31
0.0
  0
LINE
  5
CA06
330
C5B5
100
AcDbEntity
  8
4
  6
CENTER
100
AcDbLine
 10
579.0576979999997
 20
340.1783509999998
 30
0.0
 11
549.9576980000001
 21
340.1783509999998
 31
0.0
  0
LINE
  5
CA07
330
C5B5
100
AcDbEntity
  8
4
  6
CENTER
100
AcDbLine
 10
572.0576979999997
 20
347.1783509999998
 30
0.0
 11
572.0576979999997
 21
333.1783509999998
 31
0.0
  0
CIRCLE
  5
CA08
330
C5B5
100
AcDbEntity
  8
1
  6
Continuous
100
AcDbCircle
 10
572.0576979999997
 20
340.1783509999998
 30
0.0
 40
2.5
  0
ARC
  5
CA43
330
C5B5
100
AcDbEntity
  8
1
  6
Continuous
100
AcDbCircle
 10
381.457697
 20
290.8445049999999
 30
0.0
 40
7.166163
100
AcDbArc
 50
234.4619999999986
 51
305.5380000000013
  0
ARC
  5
CA44
330
C5B5
100
AcDbEntity
  8
1
  6
Continuous
100
AcDbCircle
 10
381.457697
 20
281.5121969999998
 30
0.0
 40
7.166163
100
AcDbArc
 50
54.46199999999862
 51
125.5376999999991
  0
LINE
  5
CA45
330
C5B5
100
AcDbEntity
  8
1
  6
Continuous
100
AcDbLine
 10
377.8477009999999
 20
287.7025339999999
 30
0.0
 11
377.8477009999999
 21
285.3071479999998
 31
0.0
  0
LINE
  5
CA46
330
C5B5
100
AcDbEntity
  8
1
  6
Continuous
100
AcDbLine
 10
378.402565
 20
285.153771
 30
0.0
 11
378.402565
 21
287.2029309999997
 31
0.0
  0
LINE
  5
CA47
330
C5B5
100
AcDbEntity
  8
1
  6
Continuous
100
AcDbLine
 10
378.9585559999999
 20
287.5491569999999
 30
0.0
 11
378.9585559999999
 21
284.8086729999999
 31
0.0
  0
LINE
  5
CA48
330
C5B5
100
AcDbEntity
  8
1
  6
Continuous
100
AcDbLine
 10
379.513419
 20
287.6213339999998
 30
0.0
 11
379.513419
 21
284.7353679999999
 31
0.0
  0
ARC
  5
CA49
330
C5B5
100
AcDbEntity
  8
1
  6
Continuous
100
AcDbCircle
 10
378.1251329999999
 20
286.1789149999999
 30
0.0
 40
1.431648999999999
100
AcDbArc
 50
180.0
 51
234.4619999999986
  0
ARC
  5
CA4A
330
C5B5
100
AcDbEntity
  8
1
  6
Continuous
100
AcDbCircle
 10
381.457697
 20
290.8445049999999
 30
0.0
 40
6.610656999999998
100
AcDbArc
 50
243.9859999999999
 51
247.055999999999
  0
ARC
  5
CA4B
330
C5B5
100
AcDbEntity
  8
1
  6
Continuous
100
AcDbCircle
 10
378.6811239999999
 20
285.153771
 30
0.0
 40
0.277826
100
AcDbArc
 50
180.0
 51
243.9859999999999
  0
ARC
  5
CA4C
330
C5B5
100
AcDbEntity
  8
1
  6
Continuous
100
AcDbCircle
 10
379.791979
 20
284.7353679999999
 30
0.0
 40
0.277826
100
AcDbArc
 50
180.0
 51
254.7419999999994
  0
ARC
  5
CA4D
330
C5B5
100
AcDbEntity
  8
1
  6
Continuous
100
AcDbCircle
 10
381.457697
 20
290.8445049999999
 30
0.0
 40
6.610656999999998
100
AcDbArc
 50
254.7419999999994
 51
254.7939999999994
  0
ARC
  5
CA4E
330
C5B5
100
AcDbEntity
  8
1
  6
Continuous
100
AcDbCircle
 10
381.457697
 20
290.8445049999999
 30
0.0
 40
6.610656999999998
100
AcDbArc
 50
254.7939999999994
 51
257.271000000001
  0
ARC
  5
CA4F
330
C5B5
100
AcDbEntity
  8
1
  6
Continuous
100
AcDbCircle
 10
380.0141499999999
 20
284.4511689999998
 30
0.0
 40
0.055565
100
AcDbArc
 50
257.271000000001
 51
0.0
  0
ARC
  5
CA50
330
C5B5
100
AcDbEntity
  8
1
  6
Continuous
100
AcDbCircle
 10
378.9032949999998
 20
284.8086729999999
 30
0.0
 40
0.055565
100
AcDbArc
 50
247.055999999999
 51
0.0
  0
LINE
  5
CA51
330
C5B5
100
AcDbEntity
  8
1
  6
Continuous
100
AcDbLine
 10
380.0694110000002
 20
284.4511689999998
 30
0.0
 11
380.0694110000002
 21
285.5124019999998
 31
0.0
  0
ARC
  5
CA52
330
C5B5
100
AcDbEntity
  8
1
  6
Continuous
100
AcDbCircle
 10
378.1251329999999
 20
286.1789149999999
 30
0.0
 40
1.431648999999999
100
AcDbArc
 50
125.5376999999991
 51
166.5373999999991
  0
ARC
  5
CA53
330
C5B5
100
AcDbEntity
  8
1
  6
Continuous
100
AcDbCircle
 10
381.457697
 20
281.5121969999998
 30
0.0
 40
6.610656999999998
100
AcDbArc
 50
112.9440000000008
 51
116.0143999999998
  0
ARC
  5
CA54
330
C5B5
100
AcDbEntity
  8
1
  6
Continuous
100
AcDbCircle
 10
378.6811239999999
 20
287.2029309999997
 30
0.0
 40
0.277826
100
AcDbArc
 50
116.0143999999998
 51
180.0
  0
LINE
  5
CA55
330
C5B5
100
AcDbEntity
  8
1
  6
Continuous
100
AcDbLine
 10
380.0694110000002
 20
286.8454279999999
 30
0.0
 11
380.0694110000002
 21
287.9055329999999
 31
0.0
  0
ARC
  5
CA56
330
C5B5
100
AcDbEntity
  8
1
  6
Continuous
100
AcDbCircle
 10
378.9032949999998
 20
287.5491569999999
 30
0.0
 40
0.055565
100
AcDbArc
 50
0.0
 51
112.9440000000008
  0
ARC
  5
CA57
330
C5B5
100
AcDbEntity
  8
1
  6
Continuous
100
AcDbCircle
 10
380.0141499999999
 20
287.9055329999999
 30
0.0
 40
0.055565
100
AcDbArc
 50
0.0
 51
102.7288999999994
  0
ARC
  5
CA58
330
C5B5
100
AcDbEntity
  8
1
  6
Continuous
100
AcDbCircle
 10
381.457697
 20
281.5121969999998
 30
0.0
 40
6.610656999999998
100
AcDbArc
 50
102.7288999999994
 51
103.2681000000005
  0
ARC
  5
CA59
330
C5B5
100
AcDbEntity
  8
1
  6
Continuous
100
AcDbCircle
 10
381.457697
 20
281.5121969999998
 30
0.0
 40
6.610656999999998
100
AcDbArc
 50
103.2681000000005
 51
105.2574999999984
  0
ARC
  5
CA5A
330
C5B5
100
AcDbEntity
  8
1
  6
Continuous
100
AcDbCircle
 10
379.791979
 20
287.6213339999998
 30
0.0
 40
0.277826
100
AcDbArc
 50
105.2574999999984
 51
180.0
  0
LINE
  5
CA5B
330
C5B5
100
AcDbEntity
  8
1
  6
Continuous
100
AcDbLine
 10
380.6254019999999
 20
288.070187
 30
0.0
 11
380.6254019999999
 21
284.2865149999997
 31
0.0
  0
LINE
  5
CA5C
330
C5B5
100
AcDbEntity
  8
1
  6
Continuous
100
AcDbLine
 10
381.1802649999998
 20
288.1164259999998
 30
0.0
 11
381.1802649999998
 21
284.2402759999998
 31
0.0
  0
LINE
  5
CA5D
330
C5B5
100
AcDbEntity
  8
1
  6
Continuous
100
AcDbLine
 10
381.1802649999998
 20
286.1789149999999
 30
0.0
 11
380.6254019999999
 21
286.1789149999999
 31
0.0
  0
LINE
  5
CA5E
330
C5B5
100
AcDbEntity
  8
1
  6
Continuous
100
AcDbLine
 10
383.9579659999998
 20
287.7431339999998
 30
0.0
 11
383.9579659999998
 21
286.4563469999998
 31
0.0
  0
LINE
  5
CA5F
330
C5B5
100
AcDbEntity
  8
1
  6
Continuous
100
AcDbLine
 10
384.513957
 20
286.4563469999998
 30
0.0
 11
384.513957
 21
287.6427619999999
 31
0.0
  0
LINE
  5
CA60
330
C5B5
100
AcDbEntity
  8
1
  6
Continuous
100
AcDbLine
 10
384.7959
 20
285.1391099999998
 30
0.0
 11
385.424069
 21
287.480363
 31
0.0
  0
ARC
  5
CA61
330
C5B5
100
AcDbEntity
  8
1
  6
Continuous
100
AcDbCircle
 10
384.791389
 20
286.1789149999999
 30
0.0
 40
1.431648999999999
100
AcDbArc
 50
332.2499999999996
 51
54.46199999999862
  0
LINE
  5
CA62
330
C5B5
100
AcDbEntity
  8
1
  6
Continuous
100
AcDbLine
 10
381.7362569999998
 20
288.1164259999998
 30
0.0
 11
381.7362569999998
 21
284.2402759999998
 31
0.0
  0
LINE
  5
CA63
330
C5B5
100
AcDbEntity
  8
1
  6
Continuous
100
AcDbLine
 10
382.29112
 20
288.0070319999999
 30
0.0
 11
382.29112
 21
284.3496699999998
 31
0.0
  0
LINE
  5
CA64
330
C5B5
100
AcDbEntity
  8
1
  6
Continuous
100
AcDbLine
 10
383.4019749999998
 20
288.0047769999998
 30
0.0
 11
383.4019749999998
 21
284.5267299999998
 31
0.0
  0
LINE
  5
CA65
330
C5B5
100
AcDbEntity
  8
1
  6
Continuous
100
AcDbLine
 10
386.2225309999999
 20
286.1789149999999
 30
0.0
 11
385.074459
 21
286.1789149999999
 31
0.0
  0
LINE
  5
CA66
330
C5B5
100
AcDbEntity
  8
1
  6
Continuous
100
AcDbLine
 10
382.847111
 20
286.1789149999999
 30
0.0
 11
382.5696799999998
 21
286.1789149999999
 31
0.0
  0
ARC
  5
CA67
330
C5B5
100
AcDbEntity
  8
1
  6
Continuous
100
AcDbCircle
 10
384.235398
 20
286.4563469999998
 30
0.0
 40
0.277826
100
AcDbArc
 50
180.0
 51
0.0
  0
ARC
  5
CA68
330
C5B5
100
AcDbEntity
  8
1
  6
Continuous
100
AcDbCircle
 10
381.457697
 20
290.8445049999999
 30
0.0
 40
6.610656999999998
100
AcDbArc
 50
277.7930000000005
 51
280.1040000000003
  0
ARC
  5
CA69
330
C5B5
100
AcDbEntity
  8
1
  6
Continuous
100
AcDbCircle
 10
382.347509
 20
284.3496699999998
 30
0.0
 40
0.055565
100
AcDbArc
 50
180.0
 51
277.7930000000005
  0
ARC
  5
CA6A
330
C5B5
100
AcDbEntity
  8
1
  6
Continuous
100
AcDbCircle
 10
382.5696799999998
 20
284.6101849999998
 30
0.0
 40
0.277826
100
AcDbArc
 50
280.1040000000003
 51
0.0
  0
LINE
  5
CA6B
330
C5B5
100
AcDbEntity
  8
1
  6
Continuous
100
AcDbLine
 10
384.235398
 20
286.1789149999999
 30
0.0
 11
384.235398
 21
284.8458889999998
 31
0.0
  0
LINE
  5
CA6C
330
C5B5
100
AcDbEntity
  8
1
  6
Continuous
100
AcDbLine
 10
382.847111
 20
284.6101849999998
 30
0.0
 11
382.847111
 21
286.1789149999999
 31
0.0
  0
ARC
  5
CA6D
330
C5B5
100
AcDbEntity
  8
1
  6
Continuous
100
AcDbCircle
 10
384.791389
 20
286.1789149999999
 30
0.0
 40
1.431648999999999
100
AcDbArc
 50
305.5380000000013
 51
315.6989999999993
  0
ARC
  5
CA6E
330
C5B5
100
AcDbEntity
  8
1
  6
Continuous
100
AcDbCircle
 10
381.457697
 20
281.5121969999998
 30
0.0
 40
6.610656999999998
100
AcDbArc
 50
79.89599999999967
 51
82.20699999999945
  0
ARC
  5
CA6F
330
C5B5
100
AcDbEntity
  8
1
  6
Continuous
100
AcDbCircle
 10
382.347509
 20
288.0070319999999
 30
0.0
 40
0.055565
100
AcDbArc
 50
82.20699999999945
 51
180.0
  0
LINE
  5
CA70
330
C5B5
100
AcDbEntity
  8
1
  6
Continuous
100
AcDbLine
 10
382.847111
 20
286.8454279999999
 30
0.0
 11
382.847111
 21
287.7465169999999
 31
0.0
  0
ARC
  5
CA71
330
C5B5
100
AcDbEntity
  8
1
  6
Continuous
100
AcDbCircle
 10
382.5696799999998
 20
287.7465169999999
 30
0.0
 40
0.277826
100
AcDbArc
 50
0.0
 51
79.89599999999967
  0
LINE
  5
CDC2
330
C5B5
100
AcDbEntity
  8
1
  6
Continuous
100
AcDbLine
 10
254.6233029999998
 20
239.5283509999999
 30
0.0
 11
254.623303
 21
228.8283510000001
 31
0.0
  0
LINE
  5
CDC3
330
C5B5
100
AcDbEntity
  8
1
  6
Continuous
100
AcDbLine
 10
254.1233029999998
 20
239.5283509999999
 30
0.0
 11
254.1233029999998
 21
228.8283509999998
 31
0.0
  0
LINE
  5
CDC4
330
C5B5
100
AcDbEntity
  8
1
  6
Continuous
100
AcDbLine
 10
262.6233029999999
 20
229.678351
 30
0.0
 11
262.6233029999998
 21
238.6783509999998
 31
0.0
  0
LINE
  5
CDC9
330
C5B5
100
AcDbEntity
  8
1
  6
Continuous
100
AcDbLine
 10
254.9508637595784
 20
239.3776040632101
 30
0.0
 11
262.1544921430774
 21
238.9273772892414
 31
0.0
  0
ARC
  5
CDCA
330
C5B5
100
AcDbEntity
  8
1
  6
Continuous
100
AcDbCircle
 10
254.9820529026561
 20
239.8766303524515
 30
0.0
 40
0.5
100
AcDbArc
 50
224.1515563454726
 51
266.4236656250035
  0
LINE
  5
CDCB
330
C5B5
100
AcDbEntity
  8
1
  6
Continuous
100
AcDbLine
 10
254.1233029999998
 20
239.5283509999999
 30
0.0
 11
254.6233029999998
 21
239.5283509999999
 31
0.0
  0
ARC
  5
CDCC
330
C5B5
100
AcDbEntity
  8
1
  6
Continuous
100
AcDbCircle
 10
262.1233029999999
 20
238.4283509999999
 30
0.0
 40
0.5
100
AcDbArc
 50
0.0
 51
86.42366562500182
  0
ARC
  5
CDCD
330
C5B5
100
AcDbEntity
  8
1
  6
Continuous
100
AcDbCircle
 10
382.4576980000001
 20
234.1783509999999
 30
0.0
 40
5.349999999999694
100
AcDbArc
 50
270.0
 51
90.0
  0
LINE
  5
CDD0
330
C5B5
100
AcDbEntity
  8
1
  6
Continuous
100
AcDbLine
 10
254.6232680000001
 20
100.1500009999997
 30
0.0
 11
254.6232679999996
 21
112.8500009999998
 31
0.0
  0
ARC
  5
CDD2
330
C5B5
100
AcDbEntity
  8
1
  6
Continuous
100
AcDbCircle
 10
382.4576980000001
 20
234.1783509999999
 30
0.0
 40
4.249999999995736
100
AcDbArc
 50
278.0308272901848
 51
81.96917270981511
  0
LINE
  5
CDD5
330
C5B5
100
AcDbEntity
  8
1
  6
Continuous
100
AcDbLine
 10
254.1232680000001
 20
100.1500009999997
 30
0.0
 11
254.1232679999996
 21
112.8500009999997
 31
0.0
  0
LINE
  5
CDD6
330
C5B5
100
AcDbEntity
  8
1
  6
Continuous
100
AcDbLine
 10
262.6232679999997
 20
111.7500009999996
 30
0.0
 11
262.6232680000001
 21
101.2500009999997
 31
0.0
  0
ARC
  5
CDE7
330
C5B5
100
AcDbEntity
  8
1
  6
Continuous
100
AcDbCircle
 10
380.457698
 20
234.1783509999999
 30
0.0
 40
5.349999999999893
100
AcDbArc
 50
90.0
 51
270.0
  0
ARC
  5
CDEB
330
C5B5
100
AcDbEntity
  8
1
  6
Continuous
100
AcDbCircle
 10
380.457698
 20
234.1783509999999
 30
0.0
 40
4.249999999995736
100
AcDbArc
 50
98.03082729018871
 51
261.9691727098112
  0
LINE
  5
CDEE
330
C5B5
100
AcDbEntity
  8
1
  6
Continuous
100
AcDbLine
 10
382.4576980000001
 20
228.8283510000002
 30
0.0
 11
380.457698
 21
228.8283510000002
 31
0.0
  0
LINE
  5
CDF6
330
C5B5
100
AcDbEntity
  8
1
  6
Continuous
100
AcDbLine
 10
382.4576980000001
 20
239.5283509999996
 30
0.0
 11
380.457698
 21
239.5283509999996
 31
0.0
  0
LINE
  5
CDFC
330
C5B5
100
AcDbEntity
  8
1
  6
Continuous
100
AcDbLine
 10
254.9508637595784
 20
228.9790979367897
 30
0.0
 11
262.1544921430774
 21
229.4293247107583
 31
0.0
  0
ARC
  5
CE00
330
C5B5
100
AcDbEntity
  8
1
  6
Continuous
100
AcDbCircle
 10
262.1233029999999
 20
229.9283509999999
 30
0.0
 40
0.5
100
AcDbArc
 50
273.5763343749981
 51
0.0
  0
ARC
  5
CE01
330
C5B5
100
AcDbEntity
  8
1
  6
Continuous
100
AcDbCircle
 10
254.9820529026561
 20
228.4800716475483
 30
0.0
 40
0.5
100
AcDbArc
 50
93.57633437499655
 51
135.8484436545273
  0
LINE
  5
CE02
330
C5B5
100
AcDbEntity
  8
1
  6
Continuous
100
AcDbLine
 10
254.1233029999998
 20
228.8283509999998
 30
0.0
 11
254.6233029999998
 21
228.8283509999998
 31
0.0
  0
ARC
  5
CE05
330
C5B5
100
AcDbEntity
  8
1
  6
Continuous
100
AcDbCircle
 10
262.1232679999997
 20
111.7500009999996
 30
0.0
 40
0.5
100
AcDbArc
 50
0.0
 51
86.42366562500182
  0
LINE
  5
CE14
330
C5B5
100
AcDbEntity
  8
1
  6
Continuous
100
AcDbLine
 10
254.9508287595784
 20
112.6992540632098
 30
0.0
 11
262.1544571430774
 21
112.2490272892411
 31
0.0
  0
ARC
  5
CE16
330
C5B5
100
AcDbEntity
  8
1
  6
Continuous
100
AcDbCircle
 10
254.982017902656
 20
113.1982803524513
 30
0.0
 40
0.5
100
AcDbArc
 50
224.1515563454645
 51
266.4236656250035
  0
LINE
  5
CE17
330
C5B5
100
AcDbEntity
  8
1
  6
Continuous
100
AcDbLine
 10
254.1232679999996
 20
112.8500009999997
 30
0.0
 11
254.6232679999996
 21
112.8500009999997
 31
0.0
  0
LINE
  5
CE1D
330
C5B5
100
AcDbEntity
  8
1
  6
Continuous
100
AcDbLine
 10
254.9508287595784
 20
100.3007479367895
 30
0.0
 11
262.1544571430777
 21
100.7509747107581
 31
0.0
  0
ARC
  5
CE1E
330
C5B5
100
AcDbEntity
  8
1
  6
Continuous
100
AcDbCircle
 10
254.982017902656
 20
99.80172164754828
 30
0.0
 40
0.5
100
AcDbArc
 50
93.57633437499655
 51
135.8484436545354
  0
LINE
  5
CE1F
330
C5B5
100
AcDbEntity
  8
1
  6
Continuous
100
AcDbLine
 10
254.1232679999996
 20
100.1500009999998
 30
0.0
 11
254.6232679999996
 21
100.1500009999998
 31
0.0
  0
ARC
  5
CE20
330
C5B5
100
AcDbEntity
  8
1
  6
Continuous
100
AcDbCircle
 10
262.1232680000001
 20
101.2500009999997
 30
0.0
 40
0.5
100
AcDbArc
 50
273.5763343749981
 51
0.0
  0
LINE
  5
CE71
330
C5B5
100
AcDbEntity
  8
1
  6
Continuous
100
AcDbLine
 10
254.9508287595784
 20
480.0559540632097
 30
0.0
 11
262.1544571430774
 21
479.6057272892412
 31
0.0
  0
LINE
  5
CE72
330
C5B5
100
AcDbEntity
  8
1
  6
Continuous
100
AcDbLine
 10
254.1232680000001
 20
467.5067009999998
 30
0.0
 11
254.1232679999996
 21
480.2067009999998
 31
0.0
  0
LINE
  5
CE73
330
C5B5
100
AcDbEntity
  8
1
  6
Continuous
100
AcDbLine
 10
254.6232680000001
 20
467.5067009999998
 30
0.0
 11
254.6232679999996
 21
480.206701
 31
0.0
  0
LINE
  5
CE74
330
C5B5
100
AcDbEntity
  8
4
  6
CENTER
100
AcDbLine
 10
251.1232679999998
 20
473.8567009999997
 30
0.0
 11
268.6173679999997
 21
473.8567009999997
 31
0.0
  0
ARC
  5
CE75
330
C5B5
100
AcDbEntity
  8
1
  6
Continuous
100
AcDbCircle
 10
263.945268
 20
476.6347010000002
 30
0.0
 40
1.6
100
AcDbArc
 50
15.494
 51
85.0
  0
ARC
  5
CE76
330
C5B5
100
AcDbEntity
  8
1
  6
Continuous
100
AcDbCircle
 10
263.945268
 20
471.0787009999999
 30
0.0
 40
1.6
100
AcDbArc
 50
275.0000999999999
 51
344.5059999999998
  0
ARC
  5
CE77
330
C5B5
100
AcDbEntity
  8
1
  6
Continuous
100
AcDbCircle
 10
262.1232680000001
 20
468.6067009999998
 30
0.0
 40
0.5
100
AcDbArc
 50
273.5763343749981
 51
0.0
  0
LINE
  5
CE78
330
C5B5
100
AcDbEntity
  8
1
  6
Continuous
100
AcDbLine
 10
254.9508287595784
 20
467.6574479367896
 30
0.0
 11
262.1544571430777
 21
468.1076747107582
 31
0.0
  0
LINE
  5
CE79
330
C5B5
100
AcDbEntity
  8
1
  6
Continuous
100
AcDbLine
 10
254.1232679999996
 20
467.5067009999998
 30
0.0
 11
254.6232679999996
 21
467.5067009999998
 31
0.0
  0
ARC
  5
CE7A
330
C5B5
100
AcDbEntity
  8
1
  6
Continuous
100
AcDbCircle
 10
254.982017902656
 20
467.1584216475483
 30
0.0
 40
0.5
100
AcDbArc
 50
93.57633437499655
 51
135.8484436545354
  0
ARC
  5
CE7B
330
C5B5
100
AcDbEntity
  8
1
  6
Continuous
100
AcDbCircle
 10
262.1232679999997
 20
479.1067009999999
 30
0.0
 40
0.5
100
AcDbArc
 50
0.0
 51
86.42366562500182
  0
LINE
  5
CE7C
330
C5B5
100
AcDbEntity
  8
1
  6
Continuous
100
AcDbLine
 10
262.6232679999997
 20
479.1067009999999
 30
0.0
 11
262.6232680000001
 21
468.6067009999998
 31
0.0
  0
LINE
  5
CE7D
330
C5B5
100
AcDbEntity
  8
1
  6
Continuous
100
AcDbLine
 10
264.0847679999999
 20
478.2287010000001
 30
0.0
 11
262.623268
 21
478.3567010000001
 31
0.0
  0
LINE
  5
CE7E
330
C5B5
100
AcDbEntity
  8
1
  6
Continuous
100
AcDbLine
 10
264.0847679999999
 20
469.484701
 30
0.0
 11
262.623268
 21
469.3567009999998
 31
0.0
  0
ARC
  5
CE7F
330
C5B5
100
AcDbEntity
  8
1
  6
Continuous
100
AcDbCircle
 10
253.923268
 20
473.8567009999997
 30
0.0
 40
12.0
100
AcDbArc
 50
344.5059999999998
 51
15.494
  0
LINE
  5
CE80
330
C5B5
100
AcDbEntity
  8
1
  6
Continuous
100
AcDbLine
 10
254.1232679999996
 20
480.2067009999998
 30
0.0
 11
254.6232679999996
 21
480.2067009999998
 31
0.0
  0
ARC
  5
CE81
330
C5B5
100
AcDbEntity
  8
1
  6
Continuous
100
AcDbCircle
 10
254.982017902656
 20
480.5549803524514
 30
0.0
 40
0.5
100
AcDbArc
 50
224.1515563454645
 51
266.4236656250035
  0
LINE
  5
CEAC
330
C5B5
100
AcDbEntity
  8
4
  6
CENTER
100
AcDbLine
 10
251.1233029999997
 20
362.1783509999998
 30
0.0
 11
268.3026029999998
 21
362.1783509999998
 31
0.0
  0
ARC
  5
CEAD
330
C5B5
100
AcDbEntity
  8
1
  6
Continuous
100
AcDbCircle
 10
263.9453029999998
 20
364.956351
 30
0.0
 40
1.6
100
AcDbArc
 50
15.494
 51
84.99990000000002
  0
ARC
  5
CEAE
330
C5B5
100
AcDbEntity
  8
1
  6
Continuous
100
AcDbCircle
 10
263.9453029999998
 20
359.4003509999996
 30
0.0
 40
1.6
100
AcDbArc
 50
275.0
 51
344.5059999999998
  0
LINE
  5
CEB0
330
C5B5
100
AcDbEntity
  8
1
  6
Continuous
100
AcDbLine
 10
262.6233029999999
 20
357.6783509999998
 30
0.0
 11
262.6233029999998
 21
366.6783509999998
 31
0.0
  0
ARC
  5
CEB1
330
C5B5
100
AcDbEntity
  8
1
  6
Continuous
100
AcDbCircle
 10
262.1233029999999
 20
357.9283509999998
 30
0.0
 40
0.5
100
AcDbArc
 50
273.5763343749981
 51
0.0
  0
LINE
  5
CEB2
330
C5B5
100
AcDbEntity
  8
1
  6
Continuous
100
AcDbLine
 10
254.1233029999998
 20
367.5283509999999
 30
0.0
 11
254.1233029999998
 21
356.8283509999998
 31
0.0
  0
LINE
  5
CEB3
330
C5B5
100
AcDbEntity
  8
1
  6
Continuous
100
AcDbLine
 10
254.6233029999998
 20
367.5283509999999
 30
0.0
 11
254.623303
 21
356.828351
 31
0.0
  0
LINE
  5
CEB4
330
C5B5
100
AcDbEntity
  8
1
  6
Continuous
100
AcDbLine
 10
254.9508637595784
 20
356.9790979367898
 30
0.0
 11
262.1544921430774
 21
357.4293247107583
 31
0.0
  0
LINE
  5
CEB5
330
C5B5
100
AcDbEntity
  8
1
  6
Continuous
100
AcDbLine
 10
254.1233029999998
 20
356.8283509999998
 30
0.0
 11
254.6233029999998
 21
356.8283509999998
 31
0.0
  0
ARC
  5
CEB6
330
C5B5
100
AcDbEntity
  8
1
  6
Continuous
100
AcDbCircle
 10
254.9820529026561
 20
356.4800716475483
 30
0.0
 40
0.5
100
AcDbArc
 50
93.57633437499655
 51
135.8484436545273
  0
LINE
  5
CEB7
330
C5B5
100
AcDbEntity
  8
1
  6
Continuous
100
AcDbLine
 10
264.0848029999999
 20
357.8063509999997
 30
0.0
 11
262.6233029999998
 21
357.6783509999998
 31
0.0
  0
LINE
  5
CEB9
330
C5B5
100
AcDbEntity
  8
1
  6
Continuous
100
AcDbLine
 10
254.9508637595784
 20
367.3776040632101
 30
0.0
 11
262.1544921430774
 21
366.9273772892414
 31
0.0
  0
LINE
  5
CEBA
330
C5B5
100
AcDbEntity
  8
1
  6
Continuous
100
AcDbLine
 10
254.1233029999998
 20
367.5283509999999
 30
0.0
 11
254.6233029999998
 21
367.5283509999999
 31
0.0
  0
ARC
  5
CEBB
330
C5B5
100
AcDbEntity
  8
1
  6
Continuous
100
AcDbCircle
 10
254.9820529026561
 20
367.8766303524515
 30
0.0
 40
0.5
100
AcDbArc
 50
224.1515563454726
 51
266.4236656250035
  0
ARC
  5
CEBC
330
C5B5
100
AcDbEntity
  8
1
  6
Continuous
100
AcDbCircle
 10
262.1233029999999
 20
366.428351
 30
0.0
 40
0.5
100
AcDbArc
 50
0.0
 51
86.42366562500182
  0
LINE
  5
CEBD
330
C5B5
100
AcDbEntity
  8
1
  6
Continuous
100
AcDbLine
 10
264.0848029999999
 20
366.5503509999999
 30
0.0
 11
262.6233029999998
 21
366.6783509999998
 31
0.0
  0
ARC
  5
CEBE
330
C5B5
100
AcDbEntity
  8
1
  6
Continuous
100
AcDbCircle
 10
253.9233029999998
 20
362.1783509999998
 30
0.0
 40
12.0
100
AcDbArc
 50
344.5059999999998
 51
15.494
  0
LINE
  5
CF11
330
C5B5
100
AcDbEntity
  8
4
  6
CENTER
100
AcDbLine
 10
511.7920930000003
 20
234.1783509999999
 30
0.0
 11
494.6127930000001
 21
234.1783509999999
 31
0.0
  0
ARC
  5
CF12
330
C5B5
100
AcDbEntity
  8
1
  6
Continuous
100
AcDbCircle
 10
498.9700930000001
 20
236.9563509999999
 30
0.0
 40
1.6
100
AcDbArc
 50
95.00009999999996
 51
164.5059999999999
  0
ARC
  5
CF13
330
C5B5
100
AcDbEntity
  8
1
  6
Continuous
100
AcDbCircle
 10
498.9700930000001
 20
231.4003509999996
 30
0.0
 40
1.6
100
AcDbArc
 50
195.494
 51
265.0
  0
LINE
  5
CF15
330
C5B5
100
AcDbEntity
  8
1
  6
Continuous
100
AcDbLine
 10
500.2920930000001
 20
229.678351
 30
0.0
 11
500.2920930000001
 21
238.6783509999998
 31
0.0
  0
ARC
  5
CF16
330
C5B5
100
AcDbEntity
  8
1
  6
Continuous
100
AcDbCircle
 10
500.7920930000001
 20
229.9283509999999
 30
0.0
 40
0.5
100
AcDbArc
 50
180.0
 51
266.4236656250018
  0
LINE
  5
CF17
330
C5B5
100
AcDbEntity
  8
1
  6
Continuous
100
AcDbLine
 10
508.7920930000001
 20
239.5283509999999
 30
0.0
 11
508.7920930000001
 21
228.8283509999998
 31
0.0
  0
LINE
  5
CF18
330
C5B5
100
AcDbEntity
  8
1
  6
Continuous
100
AcDbLine
 10
508.2920930000001
 20
239.5283509999999
 30
0.0
 11
508.2920930000001
 21
228.8283510000001
 31
0.0
  0
LINE
  5
CF19
330
C5B5
100
AcDbEntity
  8
1
  6
Continuous
100
AcDbLine
 10
507.9645322404216
 20
228.9790979367897
 30
0.0
 11
500.7609038569226
 21
229.4293247107583
 31
0.0
  0
LINE
  5
CF1A
330
C5B5
100
AcDbEntity
  8
1
  6
Continuous
100
AcDbLine
 10
508.7920930000001
 20
228.8283509999998
 30
0.0
 11
508.2920930000001
 21
228.8283509999998
 31
0.0
  0
ARC
  5
CF1B
330
C5B5
100
AcDbEntity
  8
1
  6
Continuous
100
AcDbCircle
 10
507.933343097344
 20
228.4800716475483
 30
0.0
 40
0.5
100
AcDbArc
 50
44.15155634547267
 51
86.42366562500347
  0
LINE
  5
CF1C
330
C5B5
100
AcDbEntity
  8
1
  6
Continuous
100
AcDbLine
 10
498.8305930000001
 20
229.8063509999996
 30
0.0
 11
500.2920930000001
 21
229.678351
 31
0.0
  0
LINE
  5
CF1E
330
C5B5
100
AcDbEntity
  8
1
  6
Continuous
100
AcDbLine
 10
507.9645322404216
 20
239.3776040632101
 30
0.0
 11
500.7609038569226
 21
238.9273772892414
 31
0.0
  0
LINE
  5
CF1F
330
C5B5
100
AcDbEntity
  8
1
  6
Continuous
100
AcDbLine
 10
508.7920930000001
 20
239.5283509999999
 30
0.0
 11
508.2920930000001
 21
239.5283509999999
 31
0.0
  0
ARC
  5
CF20
330
C5B5
100
AcDbEntity
  8
1
  6
Continuous
100
AcDbCircle
 10
507.933343097344
 20
239.8766303524515
 30
0.0
 40
0.5
100
AcDbArc
 50
273.5763343749965
 51
315.8484436545273
  0
ARC
  5
CF21
330
C5B5
100
AcDbEntity
  8
1
  6
Continuous
100
AcDbCircle
 10
500.7920930000001
 20
238.4283509999999
 30
0.0
 40
0.5
100
AcDbArc
 50
93.57633437499821
 51
180.0
  0
LINE
  5
CF22
330
C5B5
100
AcDbEntity
  8
1
  6
Continuous
100
AcDbLine
 10
498.8305930000001
 20
238.5503509999999
 30
0.0
 11
500.2920930000001
 21
238.6783509999998
 31
0.0
  0
ARC
  5
CF23
330
C5B5
100
AcDbEntity
  8
1
  6
Continuous
100
AcDbCircle
 10
508.9920930000001
 20
234.1783509999999
 30
0.0
 40
12.0
100
AcDbArc
 50
164.5059999999999
 51
195.494
  0
ARC
  5
CF24
330
C5B5
100
AcDbEntity
  8
1
  6
Continuous
100
AcDbCircle
 10
498.9700930000001
 20
359.4003509999996
 30
0.0
 40
1.6
100
AcDbArc
 50
195.494
 51
265.0
  0
ARC
  5
CF25
330
C5B5
100
AcDbEntity
  8
1
  6
Continuous
100
AcDbCircle
 10
498.9700930000001
 20
364.956351
 30
0.0
 40
1.6
100
AcDbArc
 50
95.00009999999996
 51
164.5059999999999
  0
LINE
  5
CF26
330
C5B5
100
AcDbEntity
  8
4
  6
CENTER
100
AcDbLine
 10
511.7920930000003
 20
362.1783509999998
 30
0.0
 11
494.6127930000001
 21
362.1783509999998
 31
0.0
  0
LINE
  5
CF29
330
C5B5
100
AcDbEntity
  8
1
  6
Continuous
100
AcDbLine
 10
508.2920930000001
 20
367.5283509999999
 30
0.0
 11
508.2920930000001
 21
356.828351
 31
0.0
  0
LINE
  5
CF2A
330
C5B5
100
AcDbEntity
  8
1
  6
Continuous
100
AcDbLine
 10
508.7920930000001
 20
367.5283509999999
 30
0.0
 11
508.7920930000001
 21
356.8283509999998
 31
0.0
  0
LINE
  5
CF2B
330
C5B5
100
AcDbEntity
  8
1
  6
Continuous
100
AcDbLine
 10
500.2920930000001
 20
357.6783509999998
 30
0.0
 11
500.2920930000001
 21
366.6783509999998
 31
0.0
  0
LINE
  5
CF2C
330
C5B5
100
AcDbEntity
  8
1
  6
Continuous
100
AcDbLine
 10
507.9645322404216
 20
356.9790979367898
 30
0.0
 11
500.7609038569226
 21
357.4293247107583
 31
0.0
  0
ARC
  5
CF2D
330
C5B5
100
AcDbEntity
  8
1
  6
Continuous
100
AcDbCircle
 10
507.933343097344
 20
356.4800716475483
 30
0.0
 40
0.5
100
AcDbArc
 50
44.15155634547267
 51
86.42366562500347
  0
LINE
  5
CF2E
330
C5B5
100
AcDbEntity
  8
1
  6
Continuous
100
AcDbLine
 10
508.7920930000001
 20
356.8283509999998
 30
0.0
 11
508.2920930000001
 21
356.8283509999998
 31
0.0
  0
LINE
  5
CF2F
330
C5B5
100
AcDbEntity
  8
1
  6
Continuous
100
AcDbLine
 10
498.8305930000001
 20
357.8063509999997
 30
0.0
 11
500.2920930000001
 21
357.6783509999998
 31
0.0
  0
ARC
  5
CF30
330
C5B5
100
AcDbEntity
  8
1
  6
Continuous
100
AcDbCircle
 10
500.7920930000001
 20
357.9283509999998
 30
0.0
 40
0.5
100
AcDbArc
 50
180.0
 51
266.4236656250018
  0
LINE
  5
CF31
330
C5B5
100
AcDbEntity
  8
1
  6
Continuous
100
AcDbLine
 10
507.9645322404216
 20
367.3776040632101
 30
0.0
 11
500.7609038569226
 21
366.9273772892414
 31
0.0
  0
ARC
  5
CF32
330
C5B5
100
AcDbEntity
  8
1
  6
Continuous
100
AcDbCircle
 10
507.933343097344
 20
367.8766303524515
 30
0.0
 40
0.5
100
AcDbArc
 50
273.5763343749965
 51
315.8484436545273
  0
LINE
  5
CF33
330
C5B5
100
AcDbEntity
  8
1
  6
Continuous
100
AcDbLine
 10
508.7920930000001
 20
367.5283509999999
 30
0.0
 11
508.2920930000001
 21
367.5283509999999
 31
0.0
  0
LINE
  5
CF34
330
C5B5
100
AcDbEntity
  8
1
  6
Continuous
100
AcDbLine
 10
498.8305930000001
 20
366.5503509999999
 30
0.0
 11
500.2920930000001
 21
366.6783509999998
 31
0.0
  0
ARC
  5
CF35
330
C5B5
100
AcDbEntity
  8
1
  6
Continuous
100
AcDbCircle
 10
500.7920930000001
 20
366.428351
 30
0.0
 40
0.5
100
AcDbArc
 50
93.57633437499821
 51
180.0
  0
ARC
  5
CF36
330
C5B5
100
AcDbEntity
  8
1
  6
Continuous
100
AcDbCircle
 10
508.9920930000001
 20
362.1783509999998
 30
0.0
 40
12.0
100
AcDbArc
 50
164.5059999999999
 51
195.494
  0
ENDSEC
  0
SECTION
  2
OBJECTS
  0
DICTIONARY
  5
C5A3
330
0
100
AcDbDictionary
281
     1
  3
ACAD_CIP_PREVIOUS_PRODUCT_INFO
350
CFEF
  3
ACAD_COLOR
350
CFD1
  3
ACAD_DETAILVIEWSTYLE
350
CFEA
  3
ACAD_GROUP
350
C5A4
  3
ACAD_LAYOUT
350
C5B0
  3
ACAD_MATERIAL
350
CF9F
  3
ACAD_MLEADERSTYLE
350
CFE6
  3
ACAD_MLINESTYLE
350
C5AD
  3
ACAD_PLOTSETTINGS
350
C5AF
  3
ACAD_PLOTSTYLENAME
350
CF9D
  3
ACAD_SCALELIST
350
CFD4
  3
ACAD_SECTIONVIEWSTYLE
350
CFE8
  3
ACAD_TABLESTYLE
350
CFD2
  3
ACAD_VISUALSTYLE
350
CFB8
  3
ACDB_RECOMPOSE_DATA
350
D00D
  3
AcDbVariableDictionary
350
D000
  3
DWGPROPS
350
D00E
  0
DICTIONARY
  5
CFF0
330
C5A7
100
AcDbDictionary
280
     1
281
     1
  3
ADSK_XREC_LAYER_RECONCILED
360
CFF1
  0
DICTIONARY
  5
CFF2
330
C5BD
100
AcDbDictionary
280
     1
281
     1
  3
ADSK_XREC_LAYER_RECONCILED
360
CFF3
  0
DICTIONARY
  5
CFF4
330
C5BE
100
AcDbDictionary
280
     1
281
     1
  3
ADSK_XREC_LAYER_RECONCILED
360
CFF5
  0
DICTIONARY
  5
CFF6
330
C5BF
100
AcDbDictionary
280
     1
281
     1
  3
ADSK_XREC_LAYER_RECONCILED
360
CFF7
  0
DICTIONARY
  5
CFF8
330
C5C0
100
AcDbDictionary
280
     1
281
     1
  3
ADSK_XREC_LAYER_RECONCILED
360
CFF9
  0
DICTIONARY
  5
CFFA
330
C5C1
100
AcDbDictionary
280
     1
281
     1
  3
ADSK_XREC_LAYER_RECONCILED
360
CFFB
  0
DICTIONARY
  5
CFFC
330
C5C2
100
AcDbDictionary
280
     1
281
     1
  3
ADSK_XREC_LAYER_RECONCILED
360
CFFD
  0
DICTIONARY
  5
CFFE
330
C5C3
100
AcDbDictionary
280
     1
281
     1
  3
ADSK_XREC_LAYER_RECONCILED
360
CFFF
  0
DICTIONARY
  5
CA7F
330
C5B5
100
AcDbDictionary
281
     1
  3
ACAD_LAYOUTSELFREF
350
CF99
  0
DICTIONARY
  5
CA7D
330
C5B1
100
AcDbDictionary
281
     1
  3
ACAD_LAYOUTSELFREF
350
CF98
  0
XRECORD
  5
CFEF
102
{ACAD_REACTORS
330
C5A3
102
}
330
C5A3
100
AcDbXrecord
280
     1
300
ACDLT
300
2014
300
ACDLT_F_S
  0
DICTIONARY
  5
CFD1
102
{ACAD_REACTORS
330
C5A3
102
}
330
C5A3
100
AcDbDictionary
281
     1
  0
DICTIONARY
  5
CFEA
102
{ACAD_REACTORS
330
C5A3
102
}
330
C5A3
100
AcDbDictionary
281
     1
  3
Imperial24
350
CFEB
  0
DICTIONARY
  5
C5A4
102
{ACAD_REACTORS
330
C5A3
102
}
330
C5A3
100
AcDbDictionary
281
     1
  0
DICTIONARY
  5
C5B0
102
{ACAD_REACTORS
330
C5A3
102
}
330
C5A3
100
AcDbDictionary
281
     1
  3
Model
350
CFEC
  3
レイアウト1
350
CFED
  0
DICTIONARY
  5
CF9F
102
{ACAD_REACTORS
330
C5A3
102
}
330
C5A3
100
AcDbDictionary
281
     1
  3
ByBlock
350
CFA8
  3
ByLayer
350
CFA0
  3
Global
350
CFB0
  0
DICTIONARY
  5
CFE6
102
{ACAD_REACTORS
330
C5A3
102
}
330
C5A3
100
AcDbDictionary
281
     1
  3
Standard
350
CFE7
  0
DICTIONARY
  5
C5AD
102
{ACAD_REACTORS
330
C5A3
102
}
330
C5A3
100
AcDbDictionary
281
     1
  3
STANDARD
350
C5AE
  0
DICTIONARY
  5
C5AF
102
{ACAD_REACTORS
330
C5A3
102
}
330
C5A3
100
AcDbDictionary
281
     1
  0
ACDBDICTIONARYWDFLT
  5
CF9D
102
{ACAD_REACTORS
330
C5A3
102
}
330
C5A3
100
AcDbDictionary
281
     1
  3
Normal
350
CF9E
100
AcDbDictionaryWithDefault
340
CF9E
  0
DICTIONARY
  5
CFD4
102
{ACAD_REACTORS
330
C5A3
102
}
330
C5A3
100
AcDbDictionary
281
     1
  3
A0
350
CFD5
  3
A1
350
CFD6
  3
A2
350
CFD7
  3
A3
350
CFD8
  3
A4
350
CFD9
  3
A5
350
CFDA
  3
A6
350
CFDB
  3
A7
350
CFDC
  3
A8
350
CFDD
  3
A9
350
CFDE
  3
B0
350
CFDF
  3
B1
350
CFE0
  3
B2
350
CFE1
  3
B3
350
CFE2
  3
B4
350
CFE3
  3
B5
350
CFE4
  3
B6
350
CFE5
  0
DICTIONARY
  5
CFE8
102
{ACAD_REACTORS
330
C5A3
102
}
330
C5A3
100
AcDbDictionary
281
     1
  3
Imperial24
350
CFE9
  0
DICTIONARY
  5
CFD2
102
{ACAD_REACTORS
330
C5A3
102
}
330
C5A3
100
AcDbDictionary
281
     1
  3
Standard
350
CFD3
  0
DICTIONARY
  5
CFB8
102
{ACAD_REACTORS
330
C5A3
102
}
330
C5A3
100
AcDbDictionary
281
     1
  3
2dWireframe
350
CFBE
  3
Basic
350
CFBD
  3
Brighten
350
CFC4
  3
ColorChange
350
CFC8
  3
Conceptual
350
CFC1
  3
Dim
350
CFC3
  3
EdgeColorOff
350
CFD0
  3
Facepattern
350
CFC7
  3
Flat
350
CFB9
  3
FlatWithEdges
350
CFBA
  3
Gouraud
350
CFBB
  3
GouraudWithEdges
350
CFBC
  3
Hidden
350
CFC0
  3
JitterOff
350
CFCE
  3
Linepattern
350
CFC6
  3
OverhangOff
350
CFCF
  3
Realistic
350
CFC2
  3
Shaded
350
CFCD
  3
Shaded with edges
350
CFCC
  3
Shades of Gray
350
CFC9
  3
Sketchy
350
CFCA
  3
Thicken
350
CFC5
  3
Wireframe
350
CFBF
  3
X-Ray
350
CFCB
  0
XRECORD
  5
D00D
102
{ACAD_REACTORS
330
C5A3
102
}
330
C5A3
100
AcDbXrecord
280
     1
 90
        1
330
CFD3
  0
DICTIONARY
  5
D000
102
{ACAD_REACTORS
330
C5A3
102
}
330
C5A3
100
AcDbDictionary
281
     1
  3
CANNOSCALE
350
D005
  3
CMLEADERSTYLE
350
D002
  3
CTABLESTYLE
350
D001
  3
CVIEWDETAILSTYLE
350
D003
  3
CVIEWSECTIONSTYLE
350
D004
  3
DIMASSOC
350
D008
  3
INDEXCTL
350
D007
  3
SORTENTS
350
D006
  3
XCLIPFRAME
350
D009
  0
XRECORD
  5
D00E
102
{ACAD_REACTORS
330
C5A3
102
}
330
C5A3
100
AcDbXrecord
280
     1
  1
DWGPROPS COOKIE
  2

  3

  4

  6

  7

  8
Yoshitsune
  9

300
=
301
=
302
=
303
=
304
=
305
=
306
=
307
=
308
=
309
=
 40
0.0233093865740741
 41
2451347.389538657
 42
2457192.643757986
  1

 90
        0
  0
XRECORD
  5
CFF1
102
{ACAD_REACTORS
330
CFF0
102
}
330
CFF0
100
AcDbXrecord
280
     1
290
     1
  0
XRECORD
  5
CFF3
102
{ACAD_REACTORS
330
CFF2
102
}
330
CFF2
100
AcDbXrecord
280
     1
290
     1
  0
XRECORD
  5
CFF5
102
{ACAD_REACTORS
330
CFF4
102
}
330
CFF4
100
AcDbXrecord
280
     1
290
     1
  0
XRECORD
  5
CFF7
102
{ACAD_REACTORS
330
CFF6
102
}
330
CFF6
100
AcDbXrecord
280
     1
290
     1
  0
XRECORD
  5
CFF9
102
{ACAD_REACTORS
330
CFF8
102
}
330
CFF8
100
AcDbXrecord
280
     1
290
     1
  0
XRECORD
  5
CFFB
102
{ACAD_REACTORS
330
CFFA
102
}
330
CFFA
100
AcDbXrecord
280
     1
290
     1
  0
XRECORD
  5
CFFD
102
{ACAD_REACTORS
330
CFFC
102
}
330
CFFC
100
AcDbXrecord
280
     1
290
     1
  0
XRECORD
  5
CFFF
102
{ACAD_REACTORS
330
CFFE
102
}
330
CFFE
100
AcDbXrecord
280
     1
290
     1
  0
XRECORD
  5
CF99
102
{ACAD_REACTORS
330
CA7F
102
}
330
CA7F
100
AcDbXrecord
280
     1
340
C5B5
  0
XRECORD
  5
CF98
102
{ACAD_REACTORS
330
CA7D
102
}
330
CA7D
100
AcDbXrecord
280
     1
340
C5B1
  0
ACDBDETAILVIEWSTYLE
  5
CFEB
102
{ACAD_XDICTIONARY
360
D046
102
}
102
{ACAD_REACTORS
330
CFEA
102
}
330
CFEA
100
AcDbModelDocViewStyle
 70
     0
  3
Imperial24
290
     0
100
AcDbDetailViewStyle
 70
     0
 71
     0
 90
        3
 71
     1
340
C5A8
 40
0.24
340
0
 40
0.24
300

 40
0.36
280
     3
 71
     2
340
C5AC
 90
       25
 71
     3
340
C5A8
 40
0.24
 90
        1
 40
0.75
 90
        1
300
%<\AcVar ViewType \f "%tc1">% %<\AcVar ViewDetailId>%\PSCALE %<\AcVar ViewScale \f "%sn">%
 71
     4
340
C5AC
 90
       25
340
C5AC
 90
       25
280
     0
  0
LAYOUT
  5
CFEC
102
{ACAD_XDICTIONARY
360
D048
102
}
102
{ACAD_REACTORS
330
C5B0
102
}
330
C5B0
100
AcDbPlotSettings
  1

  2
Canon LBP9100C
  4

  6

 40
0.0
 41
0.0
 42
0.0
 43
0.0
 44
0.0
 45
0.0
 46
0.0
 47
0.0
 48
0.0
 49
0.0
140
0.0
141
0.0
142
1.0
143
1.0
 70
  1712
 72
     0
 73
     0
 74
     0
  7

 75
     0
147
1.0
148
0.0
149
0.0
100
AcDbLayout
  1
Model
 70
     1
 71
     0
 10
0.0
 20
0.0
 11
12.0
 21
9.0
 12
0.0
 22
0.0
 32
0.0
 14
0.0
 24
0.0
 34
0.0
 15
0.0
 25
0.0
 35
0.0
146
0.0
 13
0.0
 23
0.0
 33
0.0
 16
1.0
 26
0.0
 36
0.0
 17
0.0
 27
1.0
 37
0.0
 76
     0
330
C5B5
331
CF97
  0
LAYOUT
  5
CFED
102
{ACAD_XDICTIONARY
360
D04A
102
}
102
{ACAD_REACTORS
330
C5B0
102
}
330
C5B0
100
AcDbPlotSettings
  1

  2
Canon LBP9100C
  4

  6

 40
0.0
 41
0.0
 42
0.0
 43
0.0
 44
0.0
 45
0.0
 46
0.0
 47
0.0
 48
0.0
 49
0.0
140
0.0
141
0.0
142
1.0
143
1.0
 70
   688
 72
     0
 73
     0
 74
     5
  7

 75
    16
147
1.0
148
0.0
149
0.0
100
AcDbLayout
  1
レイアウト1
 70
     0
 71
     1
 10
0.0
 20
0.0
 11
420.0
 21
297.0
 12
0.0
 22
0.0
 32
0.0
 14
1.000000000000000E+20
 24
1.000000000000000E+20
 34
1.000000000000000E+20
 15
-1.000000000000000E+20
 25
-1.000000000000000E+20
 35
-1.000000000000000E+20
146
0.0
 13
0.0
 23
0.0
 33
0.0
 16
1.0
 26
0.0
 36
0.0
 17
0.0
 27
1.0
 37
0.0
 76
     0
330
C5B1
  0
MATERIAL
  5
CFA8
102
{ACAD_XDICTIONARY
360
CFA9
102
}
102
{ACAD_REACTORS
330
CF9F
102
}
330
CF9F
100
AcDbMaterial
  1
ByBlock
 72
     0
 43
0.0208333333333333
 43
0.0
 43
0.0
 43
0.0
 43
0.0
 43
0.0208333333333333
 43
0.0
 43
0.0
 43
0.0
 43
0.0
 43
1.0
 43
0.0
 43
0.0
 43
0.0
 43
0.0
 43
1.0
 77
     0
 47
0.0208333333333333
 47
0.0
 47
0.0
 47
0.0
 47
0.0
 47
0.0208333333333333
 47
0.0
 47
0.0
 47
0.0
 47
0.0
 47
1.0
 47
0.0
 47
0.0
 47
0.0
 47
0.0
 47
1.0
171
     0
 49
0.0208333333333333
 49
0.0
 49
0.0
 49
0.0
 49
0.0
 49
0.0208333333333333
 49
0.0
 49
0.0
 49
0.0
 49
0.0
 49
1.0
 49
0.0
 49
0.0
 49
0.0
 49
0.0
 49
1.0
175
     0
142
0.0208333333333333
142
0.0
142
0.0
142
0.0
142
0.0
142
0.0208333333333333
142
0.0
142
0.0
142
0.0
142
0.0
142
1.0
142
0.0
142
0.0
142
0.0
142
0.0
142
1.0
179
     0
144
0.0208333333333333
144
0.0
144
0.0
144
0.0
144
0.0
144
0.0208333333333333
144
0.0
144
0.0
144
0.0
144
0.0
144
1.0
144
0.0
144
0.0
144
0.0
144
0.0
144
1.0
147
0.0208333333333333
147
0.0
147
0.0
147
0.0
147
0.0
147
0.0208333333333333
147
0.0
147
0.0
147
0.0
147
0.0
147
1.0
147
0.0
147
0.0
147
0.0
147
0.0
147
1.0
  0
MATERIAL
  5
CFA0
102
{ACAD_XDICTIONARY
360
CFA1
102
}
102
{ACAD_REACTORS
330
CF9F
102
}
330
CF9F
100
AcDbMaterial
  1
ByLayer
 72
     0
 43
0.0208333333333333
 43
0.0
 43
0.0
 43
0.0
 43
0.0
 43
0.0208333333333333
 43
0.0
 43
0.0
 43
0.0
 43
0.0
 43
1.0
 43
0.0
 43
0.0
 43
0.0
 43
0.0
 43
1.0
 77
     0
 47
0.0208333333333333
 47
0.0
 47
0.0
 47
0.0
 47
0.0
 47
0.0208333333333333
 47
0.0
 47
0.0
 47
0.0
 47
0.0
 47
1.0
 47
0.0
 47
0.0
 47
0.0
 47
0.0
 47
1.0
171
     0
 49
0.0208333333333333
 49
0.0
 49
0.0
 49
0.0
 49
0.0
 49
0.0208333333333333
 49
0.0
 49
0.0
 49
0.0
 49
0.0
 49
1.0
 49
0.0
 49
0.0
 49
0.0
 49
0.0
 49
1.0
175
     0
142
0.0208333333333333
142
0.0
142
0.0
142
0.0
142
0.0
142
0.0208333333333333
142
0.0
142
0.0
142
0.0
142
0.0
142
1.0
142
0.0
142
0.0
142
0.0
142
0.0
142
1.0
179
     0
144
0.0208333333333333
144
0.0
144
0.0
144
0.0
144
0.0
144
0.0208333333333333
144
0.0
144
0.0
144
0.0
144
0.0
144
1.0
144
0.0
144
0.0
144
0.0
144
0.0
144
1.0
147
0.0208333333333333
147
0.0
147
0.0
147
0.0
147
0.0
147
0.0208333333333333
147
0.0
147
0.0
147
0.0
147
0.0
147
1.0
147
0.0
147
0.0
147
0.0
147
0.0
147
1.0
  0
MATERIAL
  5
CFB0
102
{ACAD_XDICTIONARY
360
CFB1
102
}
102
{ACAD_REACTORS
330
CF9F
102
}
330
CF9F
100
AcDbMaterial
  1
Global
 72
     0
 43
0.0208333333333333
 43
0.0
 43
0.0
 43
0.0
 43
0.0
 43
0.0208333333333333
 43
0.0
 43
0.0
 43
0.0
 43
0.0
 43
1.0
 43
0.0
 43
0.0
 43
0.0
 43
0.0
 43
1.0
 77
     0
 47
0.0208333333333333
 47
0.0
 47
0.0
 47
0.0
 47
0.0
 47
0.0208333333333333
 47
0.0
 47
0.0
 47
0.0
 47
0.0
 47
1.0
 47
0.0
 47
0.0
 47
0.0
 47
0.0
 47
1.0
171
     0
 49
0.0208333333333333
 49
0.0
 49
0.0
 49
0.0
 49
0.0
 49
0.0208333333333333
 49
0.0
 49
0.0
 49
0.0
 49
0.0
 49
1.0
 49
0.0
 49
0.0
 49
0.0
 49
0.0
 49
1.0
175
     0
142
0.0208333333333333
142
0.0
142
0.0
142
0.0
142
0.0
142
0.0208333333333333
142
0.0
142
0.0
142
0.0
142
0.0
142
1.0
142
0.0
142
0.0
142
0.0
142
0.0
142
1.0
179
     0
144
0.0208333333333333
144
0.0
144
0.0
144
0.0
144
0.0
144
0.0208333333333333
144
0.0
144
0.0
144
0.0
144
0.0
144
1.0
144
0.0
144
0.0
144
0.0
144
0.0
144
1.0
147
0.0208333333333333
147
0.0
147
0.0
147
0.0
147
0.0
147
0.0208333333333333
147
0.0
147
0.0
147
0.0
147
0.0
147
1.0
147
0.0
147
0.0
147
0.0
147
0.0
147
1.0
  0
MLEADERSTYLE
  5
CFE7
102
{ACAD_REACTORS
330
CFE6
102
}
330
CFE6
100
AcDbMLeaderStyle
170
     2
171
     1
172
     0
 90
        2
 40
0.0
 41
0.0
173
     1
 91
-1056964608
340
C5AA
 92
       -2
290
     1
 42
0.09
291
     1
 43
0.36
  3
Standard
 44
0.18
300

342
C5A8
174
     1
178
     6
175
     1
176
     0
 93
-1056964608
 45
0.18
292
     0
297
     0
 46
0.18
 94
-1056964608
 47
1.0
 49
1.0
140
1.0
293
     1
141
0.0
294
     1
177
     0
142
1.0
295
     0
296
     0
143
0.125
1001
ACAD_MLEADERVER
1070
     2
  0
MLINESTYLE
  5
C5AE
102
{ACAD_REACTORS
330
C5AD
102
}
330
C5AD
100
AcDbMlineStyle
  2
STANDARD
 70
     0
  3

 62
   256
 51
90.0
 52
90.0
 71
     2
 49
0.5
 62
   256
  6
BYLAYER
 49
-0.5
 62
   256
  6
BYLAYER
  0
ACDBPLACEHOLDER
  5
CF9E
102
{ACAD_REACTORS
330
CF9D
102
}
330
CF9D
  0
SCALE
  5
CFD5
102
{ACAD_REACTORS
330
CFD4
102
}
330
CFD4
100
AcDbScale
 70
     0
300
1:1
140
1.0
141
1.0
290
     1
  0
SCALE
  5
CFD6
102
{ACAD_REACTORS
330
CFD4
102
}
330
CFD4
100
AcDbScale
 70
     0
300
1/128" = 1'-0"
140
0.0078125
141
12.0
290
     0
  0
SCALE
  5
CFD7
102
{ACAD_REACTORS
330
CFD4
102
}
330
CFD4
100
AcDbScale
 70
     0
300
1/64" = 1'-0"
140
0.015625
141
12.0
290
     0
  0
SCALE
  5
CFD8
102
{ACAD_REACTORS
330
CFD4
102
}
330
CFD4
100
AcDbScale
 70
     0
300
1/32" = 1'-0"
140
0.03125
141
12.0
290
     0
  0
SCALE
  5
CFD9
102
{ACAD_REACTORS
330
CFD4
102
}
330
CFD4
100
AcDbScale
 70
     0
300
1/16" = 1'-0"
140
0.0625
141
12.0
290
     0
  0
SCALE
  5
CFDA
102
{ACAD_REACTORS
330
CFD4
102
}
330
CFD4
100
AcDbScale
 70
     0
300
3/32" = 1'-0"
140
0.09375
141
12.0
290
     0
  0
SCALE
  5
CFDB
102
{ACAD_REACTORS
330
CFD4
102
}
330
CFD4
100
AcDbScale
 70
     0
300
1/8" = 1'-0"
140
0.125
141
12.0
290
     0
  0
SCALE
  5
CFDC
102
{ACAD_REACTORS
330
CFD4
102
}
330
CFD4
100
AcDbScale
 70
     0
300
3/16" = 1'-0"
140
0.1875
141
12.0
290
     0
  0
SCALE
  5
CFDD
102
{ACAD_REACTORS
330
CFD4
102
}
330
CFD4
100
AcDbScale
 70
     0
300
1/4" = 1'-0"
140
0.25
141
12.0
290
     0
  0
SCALE
  5
CFDE
102
{ACAD_REACTORS
330
CFD4
102
}
330
CFD4
100
AcDbScale
 70
     0
300
3/8" = 1'-0"
140
0.375
141
12.0
290
     0
  0
SCALE
  5
CFDF
102
{ACAD_REACTORS
330
CFD4
102
}
330
CFD4
100
AcDbScale
 70
     0
300
1/2" = 1'-0"
140
0.5
141
12.0
290
     0
  0
SCALE
  5
CFE0
102
{ACAD_REACTORS
330
CFD4
102
}
330
CFD4
100
AcDbScale
 70
     0
300
3/4" = 1'-0"
140
0.75
141
12.0
290
     0
  0
SCALE
  5
CFE1
102
{ACAD_REACTORS
330
CFD4
102
}
330
CFD4
100
AcDbScale
 70
     0
300
1" = 1'-0"
140
1.0
141
12.0
290
     0
  0
SCALE
  5
CFE2
102
{ACAD_REACTORS
330
CFD4
102
}
330
CFD4
100
AcDbScale
 70
     0
300
1-1/2" = 1'-0"
140
1.5
141
12.0
290
     0
  0
SCALE
  5
CFE3
102
{ACAD_REACTORS
330
CFD4
102
}
330
CFD4
100
AcDbScale
 70
     0
300
3" = 1'-0"
140
3.0
141
12.0
290
     0
  0
SCALE
  5
CFE4
102
{ACAD_REACTORS
330
CFD4
102
}
330
CFD4
100
AcDbScale
 70
     0
300
6" = 1'-0"
140
6.0
141
12.0
290
     0
  0
SCALE
  5
CFE5
102
{ACAD_REACTORS
330
CFD4
102
}
330
CFD4
100
AcDbScale
 70
     0
300
1'-0" = 1'-0"
140
12.0
141
12.0
290
     0
  0
ACDBSECTIONVIEWSTYLE
  5
CFE9
102
{ACAD_XDICTIONARY
360
D044
102
}
102
{ACAD_REACTORS
330
CFE8
102
}
330
CFE8
100
AcDbModelDocViewStyle
 70
     0
  3
Imperial24
290
     0
100
AcDbSectionViewStyle
 70
     0
 71
     0
 90
       78
 71
     1
340
C5A8
 40
0.24
340
0
340
0
 40
0.24
300
I, O, Q, S, X, Z
 40
0.48
 90
        3
 40
0.18
 90
        1
 71
     2
340
C5AC
 90
       25
340
C5AC
 90
       50
 40
0.24
 40
0.0
 40
0.24
 71
     3
340
C5A8
 40
0.24
 90
        1
 40
0.75
 90
        1
300
%<\AcVar ViewType \f "%tc1">% %<\AcVar ViewSectionStartId>%-%<\AcVar ViewSectionEndId>%\PSCALE %<\AcVar ViewScale \f "%sn">%
 71
     4
300
ANSI31
 40
1.0
 90
        0
290
     0
290
     0
 90
        6
 40
0.0
 40
1.570796326794896
 40
0.2617993877991494
 40
1.308996938995747
 40
-0.2617993877991494
 40
1.832595714594046
  0
TABLESTYLE
  5
CFD3
102
{ACAD_XDICTIONARY
360
D00B
102
}
102
{ACAD_REACTORS
330
CFD2
102
}
330
CFD2
100
AcDbTableStyle
  3
Standard
 70
     0
 71
     0
 40
0.06
 41
0.06
280
     0
281
     0
  7
STANDARD
140
0.18
170
     2
 62
     0
 63
     7
283
     0
274
    -2
284
     1
 64
     0
275
    -2
285
     1
 65
     0
276
    -2
286
     1
 66
     0
277
    -2
287
     1
 67
     0
278
    -2
288
     1
 68
     0
279
    -2
289
     1
 69
     0
  7
STANDARD
140
0.25
170
     5
 62
     0
 63
     7
283
     0
274
    -2
284
     1
 64
     0
275
    -2
285
     1
 65
     0
276
    -2
286
     1
 66
     0
277
    -2
287
     1
 67
     0
278
    -2
288
     1
 68
     0
279
    -2
289
     1
 69
     0
  7
STANDARD
140
0.18
170
     5
 62
     0
 63
     7
283
     0
274
    -2
284
     1
 64
     0
275
    -2
285
     1
 65
     0
276
    -2
286
     1
 66
     0
277
    -2
287
     1
 67
     0
278
    -2
288
     1
 68
     0
279
    -2
289
     1
 69
     0
  0
VISUALSTYLE
  5
CFBE
102
{ACAD_XDICTIONARY
360
D01C
102
}
102
{ACAD_REACTORS
330
CFB8
102
}
330
CFB8
100
AcDbVisualStyle
  2
2dWireframe
 70
     4
 71
     0
 72
     2
 73
     0
 90
        0
 40
-0.6
 41
-30.0
 62
     5
 63
     7
 74
     1
 91
        4
 64
     7
 65
   257
 75
     1
175
     1
 42
1.0
 92
        0
 66
   257
 43
1.0
 76
     1
 77
     6
 78
     2
 67
     7
 79
     5
170
     0
171
     0
290
     0
174
     0
 93
        1
 44
0.0
173
     0
291
     0
 45
0.0
1001
ACAD
1000
AcDbSavedByObjectVersion
1070
     0
  0
VISUALSTYLE
  5
CFBD
102
{ACAD_XDICTIONARY
360
D01A
102
}
102
{ACAD_REACTORS
330
CFB8
102
}
330
CFB8
100
AcDbVisualStyle
  2
Basic
 70
     7
 71
     1
 72
     0
 73
     1
 90
        0
 40
-0.6
 41
-30.0
 62
     5
 63
     7
 74
     0
 91
        4
 64
     7
 65
   257
 75
     1
175
     1
 42
1.0
 92
        8
 66
     7
 43
1.0
 76
     1
 77
     6
 78
     2
 67
     7
 79
     5
170
     0
171
     0
290
     0
174
     0
 93
        1
 44
0.0
173
     0
291
     1
 45
0.0
1001
ACAD
1000
AcDbSavedByObjectVersion
1070
     0
  0
VISUALSTYLE
  5
CFC4
102
{ACAD_XDICTIONARY
360
D028
102
}
102
{ACAD_REACTORS
330
CFB8
102
}
330
CFB8
100
AcDbVisualStyle
  2
Brighten
 70
    12
 71
     2
 72
     2
 73
     0
 90
        0
 40
-0.6
 41
-30.0
 62
     5
 63
     7
 74
     1
 91
        4
 64
     7
 65
   257
 75
     1
175
     1
 42
1.0
 92
        8
 66
     7
 43
1.0
 76
     1
 77
     6
 78
     2
 67
     7
 79
     5
170
     0
171
     0
290
     0
174
     0
 93
        1
 44
50.0
173
     0
291
     1
 45
0.0
1001
ACAD
1000
AcDbSavedByObjectVersion
1070
     0
  0
VISUALSTYLE
  5
CFC8
102
{ACAD_XDICTIONARY
360
D030
102
}
102
{ACAD_REACTORS
330
CFB8
102
}
330
CFB8
100
AcDbVisualStyle
  2
ColorChange
 70
    16
 71
     2
 72
     2
 73
     3
 90
        0
 40
-0.6
 41
-30.0
 62
     5
 63
     8
 74
     1
 91
        4
 64
     7
 65
   257
 75
     1
175
     1
 42
1.0
 92
        8
 66
     8
 43
1.0
 76
     1
 77
     6
 78
     2
 67
     7
 79
     5
170
     0
171
     0
290
     0
174
     0
 93
        1
 44
0.0
173
     0
291
     1
 45
0.0
1001
ACAD
1000
AcDbSavedByObjectVersion
1070
     0
  0
VISUALSTYLE
  5
CFC1
102
{ACAD_XDICTIONARY
360
D022
102
}
102
{ACAD_REACTORS
330
CFB8
102
}
330
CFB8
100
AcDbVisualStyle
  2
Conceptual
 70
     9
 71
     3
 72
     2
 73
     0
 90
        0
 40
-0.6
 41
-30.0
 62
     5
 63
     7
 74
     2
 91
        2
 64
     7
 65
   257
 75
     1
175
     1
 42
179.0
 92
        8
 66
     7
 43
1.0
 76
     1
 77
     6
 78
     2
 67
     7
 79
     3
170
     0
171
     0
290
     0
174
     0
 93
        1
 44
0.0
173
     0
291
     0
 45
0.0
1001
ACAD
1000
AcDbSavedByObjectVersion
1070
     0
  0
VISUALSTYLE
  5
CFC3
102
{ACAD_XDICTIONARY
360
D026
102
}
102
{ACAD_REACTORS
330
CFB8
102
}
330
CFB8
100
AcDbVisualStyle
  2
Dim
 70
    11
 71
     2
 72
     2
 73
     0
 90
        0
 40
-0.6
 41
-30.0
 62
     5
 63
     7
 74
     1
 91
        4
 64
     7
 65
   257
 75
     1
175
     1
 42
1.0
 92
        8
 66
     7
 43
1.0
 76
     1
 77
     6
 78
     2
 67
     7
 79
     5
170
     0
171
     0
290
     0
174
     0
 93
        1
 44
-50.0
173
     0
291
     1
 45
0.0
1001
ACAD
1000
AcDbSavedByObjectVersion
1070
     0
  0
VISUALSTYLE
  5
CFD0
102
{ACAD_XDICTIONARY
360
D040
102
}
102
{ACAD_REACTORS
330
CFB8
102
}
330
CFB8
100
AcDbVisualStyle
  2
EdgeColorOff
 70
    22
 71
     2
 72
     2
 73
     0
 90
        0
 40
-0.6
 41
-30.0
 62
     5
 63
     7
 74
     1
 91
        4
 64
     7
 65
   257
 75
     1
175
     1
 42
1.0
 92
        8
 66
     7
 43
1.0
 76
     1
 77
     6
 78
     2
 67
     7
 79
     5
170
     0
171
     0
290
     0
174
     0
 93
        1
 44
0.0
173
     0
291
     1
 45
0.0
1001
ACAD
1000
AcDbSavedByObjectVersion
1070
     0
  0
VISUALSTYLE
  5
CFC7
102
{ACAD_XDICTIONARY
360
D02E
102
}
102
{ACAD_REACTORS
330
CFB8
102
}
330
CFB8
100
AcDbVisualStyle
  2
Facepattern
 70
    15
 71
     2
 72
     2
 73
     0
 90
        0
 40
-0.6
 41
-30.0
 62
     5
 63
     7
 74
     1
 91
        4
 64
     7
 65
   257
 75
     1
175
     1
 42
1.0
 92
        8
 66
     7
 43
1.0
 76
     1
 77
     6
 78
     2
 67
     7
 79
     5
170
     0
171
     0
290
     0
174
     0
 93
        1
 44
0.0
173
     0
291
     1
 45
0.0
1001
ACAD
1000
AcDbSavedByObjectVersion
1070
     0
  0
VISUALSTYLE
  5
CFB9
102
{ACAD_XDICTIONARY
360
D012
102
}
102
{ACAD_REACTORS
330
CFB8
102
}
330
CFB8
100
AcDbVisualStyle
  2
Flat
 70
     0
 71
     2
 72
     1
 73
     1
 90
        2
 40
-0.6
 41
30.0
 62
     5
 63
     7
 74
     0
 91
        0
 64
     7
 65
   257
 75
     1
175
     1
 42
1.0
 92
        8
 66
     7
 43
1.0
 76
     1
 77
     6
 78
     2
 67
     7
 79
     5
170
     0
171
     0
290
     0
174
     0
 93
       13
 44
0.0
173
     0
291
     1
 45
0.0
1001
ACAD
1000
AcDbSavedByObjectVersion
1070
     0
  0
VISUALSTYLE
  5
CFBA
102
{ACAD_XDICTIONARY
360
D014
102
}
102
{ACAD_REACTORS
330
CFB8
102
}
330
CFB8
100
AcDbVisualStyle
  2
FlatWithEdges
 70
     1
 71
     2
 72
     1
 73
     1
 90
        2
 40
-0.6
 41
30.0
 62
     5
 63
     7
 74
     1
 91
        0
 64
     7
 65
   257
 75
     1
175
     1
 42
1.0
 92
        0
 66
   257
 43
1.0
 76
     1
 77
     6
 78
     2
 67
     7
 79
     5
170
     0
171
     0
290
     0
174
     0
 93
       13
 44
0.0
173
     0
291
     1
 45
0.0
1001
ACAD
1000
AcDbSavedByObjectVersion
1070
     0
  0
VISUALSTYLE
  5
CFBB
102
{ACAD_XDICTIONARY
360
D016
102
}
102
{ACAD_REACTORS
330
CFB8
102
}
330
CFB8
100
AcDbVisualStyle
  2
Gouraud
 70
     2
 71
     2
 72
     2
 73
     1
 90
        2
 40
-0.6
 41
30.0
 62
     5
 63
     7
 74
     0
 91
        0
 64
     7
 65
   257
 75
     1
175
     1
 42
1.0
 92
        0
 66
     7
 43
1.0
 76
     1
 77
     6
 78
     2
 67
     7
 79
     5
170
     0
171
     0
290
     0
174
     0
 93
       13
 44
0.0
173
     0
291
     1
 45
0.0
1001
ACAD
1000
AcDbSavedByObjectVersion
1070
     0
  0
VISUALSTYLE
  5
CFBC
102
{ACAD_XDICTIONARY
360
D018
102
}
102
{ACAD_REACTORS
330
CFB8
102
}
330
CFB8
100
AcDbVisualStyle
  2
GouraudWithEdges
 70
     3
 71
     2
 72
     2
 73
     1
 90
        2
 40
-0.6
 41
30.0
 62
     5
 63
     7
 74
     1
 91
        0
 64
     7
 65
   257
 75
     1
175
     1
 42
1.0
 92
        0
 66
   257
 43
1.0
 76
     1
 77
     6
 78
     2
 67
     7
 79
     5
170
     0
171
     0
290
     0
174
     0
 93
       13
 44
0.0
173
     0
291
     1
 45
0.0
1001
ACAD
1000
AcDbSavedByObjectVersion
1070
     0
  0
VISUALSTYLE
  5
CFC0
102
{ACAD_XDICTIONARY
360
D020
102
}
102
{ACAD_REACTORS
330
CFB8
102
}
330
CFB8
100
AcDbVisualStyle
  2
Hidden
 70
     6
 71
     1
 72
     2
 73
     2
 90
        0
 40
-0.6
 41
-30.0
 62
     5
 63
     7
 74
     2
 91
        2
 64
     7
 65
   257
 75
     2
175
     1
 42
40.0
 92
        0
 66
   257
 43
1.0
 76
     1
 77
     6
 78
     2
 67
     7
 79
     3
170
     0
171
     0
290
     0
174
     0
 93
        1
 44
0.0
173
     0
291
     0
 45
0.0
1001
ACAD
1000
AcDbSavedByObjectVersion
1070
     0
  0
VISUALSTYLE
  5
CFCE
102
{ACAD_XDICTIONARY
360
D03C
102
}
102
{ACAD_REACTORS
330
CFB8
102
}
330
CFB8
100
AcDbVisualStyle
  2
JitterOff
 70
    20
 71
     2
 72
     2
 73
     0
 90
        0
 40
-0.6
 41
-30.0
 62
     5
 63
     7
 74
     1
 91
        4
 64
     7
 65
   257
 75
     1
175
     1
 42
1.0
 92
       10
 66
     7
 43
1.0
 76
     1
 77
     6
 78
     2
 67
     7
 79
     5
170
     0
171
     0
290
     0
174
     0
 93
        1
 44
0.0
173
     0
291
     1
 45
0.0
1001
ACAD
1000
AcDbSavedByObjectVersion
1070
     0
  0
VISUALSTYLE
  5
CFC6
102
{ACAD_XDICTIONARY
360
D02C
102
}
102
{ACAD_REACTORS
330
CFB8
102
}
330
CFB8
100
AcDbVisualStyle
  2
Linepattern
 70
    14
 71
     2
 72
     2
 73
     0
 90
        0
 40
-0.6
 41
-30.0
 62
     5
 63
     7
 74
     1
 91
        4
 64
     7
 65
   257
 75
     7
175
     7
 42
1.0
 92
        8
 66
     7
 43
1.0
 76
     1
 77
     6
 78
     2
 67
     7
 79
     5
170
     0
171
     0
290
     0
174
     0
 93
        1
 44
0.0
173
     0
291
     1
 45
0.0
1001
ACAD
1000
AcDbSavedByObjectVersion
1070
     0
  0
VISUALSTYLE
  5
CFCF
102
{ACAD_XDICTIONARY
360
D03E
102
}
102
{ACAD_REACTORS
330
CFB8
102
}
330
CFB8
100
AcDbVisualStyle
  2
OverhangOff
 70
    21
 71
     2
 72
     2
 73
     0
 90
        0
 40
-0.6
 41
-30.0
 62
     5
 63
     7
 74
     1
 91
        4
 64
     7
 65
   257
 75
     1
175
     1
 42
1.0
 92
        9
 66
     7
 43
1.0
 76
     1
 77
     6
 78
     2
 67
     7
 79
     5
170
     0
171
     0
290
     0
174
     0
 93
        1
 44
0.0
173
     0
291
     1
 45
0.0
1001
ACAD
1000
AcDbSavedByObjectVersion
1070
     0
  0
VISUALSTYLE
  5
CFC2
102
{ACAD_XDICTIONARY
360
D024
102
}
102
{ACAD_REACTORS
330
CFB8
102
}
330
CFB8
100
AcDbVisualStyle
  2
Realistic
 70
     8
 71
     2
 72
     3
 73
     0
 90
        2
 40
-0.6
 41
30.0
 62
     5
 63
     7
 74
     0
 91
        0
 64
     7
 65
   257
 75
     1
175
     1
 42
1.0
 92
        8
 66
   257
 43
1.0
 76
     1
 77
     6
 78
     2
 67
     7
 79
     3
170
     0
171
     0
290
     0
174
     0
 93
       13
 44
0.0
173
     0
291
     0
 45
0.0
1001
ACAD
1000
AcDbSavedByObjectVersion
1070
     0
  0
VISUALSTYLE
  5
CFCD
102
{ACAD_XDICTIONARY
360
D03A
102
}
102
{ACAD_REACTORS
330
CFB8
102
}
330
CFB8
100
AcDbVisualStyle
  2
Shaded
 70
    27
 71
     2
 72
     2
 73
     1
 90
        2
 40
-0.6
 41
30.0
 62
     5
 63
     7
 74
     0
 91
        4
 64
     7
 65
   257
 75
     1
175
     1
 42
1.0
 92
        8
 66
   257
 43
1.0
 76
     1
 77
     6
 78
     2
 67
     8
 79
     3
170
     0
171
     0
290
     0
174
     0
 93
        5
 44
0.0
173
     0
291
     0
 45
0.0
1001
ACAD
1000
AcDbSavedByObjectVersion
1070
     0
  0
VISUALSTYLE
  5
CFCC
102
{ACAD_XDICTIONARY
360
D038
102
}
102
{ACAD_REACTORS
330
CFB8
102
}
330
CFB8
100
AcDbVisualStyle
  2
Shaded with edges
 70
    26
 71
     2
 72
     2
 73
     1
 90
        2
 40
-0.6
 41
30.0
 62
     5
 63
     7
 74
     1
 91
       10
 64
     7
 65
   257
 75
     2
175
     1
 42
1.0
 92
        8
 66
   257
 43
1.0
 76
     1
 77
     6
 78
     2
 67
     7
 79
     3
170
     0
171
     0
290
     0
174
     0
 93
        5
 44
0.0
173
     0
291
     0
 45
0.0
1001
ACAD
1000
AcDbSavedByObjectVersion
1070
     0
  0
VISUALSTYLE
  5
CFC9
102
{ACAD_XDICTIONARY
360
D032
102
}
102
{ACAD_REACTORS
330
CFB8
102
}
330
CFB8
100
AcDbVisualStyle
  2
Shades of Gray
 70
    23
 71
     2
 72
     2
 73
     3
 90
        0
 40
-0.6
 41
-30.0
 62
     5
 63
     7
 74
     2
 91
        2
 64
     7
 65
     7
 75
     1
175
     1
 42
40.0
 92
        8
 66
     7
 43
1.0
 76
     1
 77
     6
 78
     2
 67
     7
 79
     3
170
     0
171
     0
290
     0
174
     0
 93
        1
 44
0.0
173
     0
291
     0
 45
0.0
1001
ACAD
1000
AcDbSavedByObjectVersion
1070
     0
  0
VISUALSTYLE
  5
CFCA
102
{ACAD_XDICTIONARY
360
D034
102
}
102
{ACAD_REACTORS
330
CFB8
102
}
330
CFB8
100
AcDbVisualStyle
  2
Sketchy
 70
    24
 71
     1
 72
     2
 73
     2
 90
        0
 40
-0.6
 41
-30.0
 62
     5
 63
     7
 74
     2
 91
        2
 64
     7
 65
     7
 75
     1
175
     1
 42
40.0
 92
       11
 66
     7
 43
1.0
 76
     1
 77
     6
 78
     2
 67
     7
 79
     6
170
     0
171
     0
290
     0
174
     0
 93
        1
 44
0.0
173
     0
291
     0
 45
0.0
1001
ACAD
1000
AcDbSavedByObjectVersion
1070
     0
  0
VISUALSTYLE
  5
CFC5
102
{ACAD_XDICTIONARY
360
D02A
102
}
102
{ACAD_REACTORS
330
CFB8
102
}
330
CFB8
100
AcDbVisualStyle
  2
Thicken
 70
    13
 71
     2
 72
     2
 73
     0
 90
        0
 40
-0.6
 41
-30.0
 62
     5
 63
     7
 74
     1
 91
        4
 64
     7
 65
   257
 75
     1
175
     1
 42
1.0
 92
       12
 66
     7
 43
1.0
 76
     1
 77
     6
 78
     2
 67
     7
 79
     5
170
     0
171
     0
290
     0
174
     0
 93
        1
 44
0.0
173
     0
291
     1
 45
0.0
1001
ACAD
1000
AcDbSavedByObjectVersion
1070
     0
  0
VISUALSTYLE
  5
CFBF
102
{ACAD_XDICTIONARY
360
D01E
102
}
102
{ACAD_REACTORS
330
CFB8
102
}
330
CFB8
100
AcDbVisualStyle
  2
Wireframe
 70
     5
 71
     0
 72
     2
 73
     0
 90
        0
 40
-0.6
 41
-30.0
 62
     5
 63
     7
 74
     1
 91
        4
 64
     7
 65
   257
 75
     1
175
     1
 42
1.0
 92
        0
 66
   257
 43
1.0
 76
     1
 77
     6
 78
     2
 67
     7
 79
     3
170
     0
171
     0
290
     0
174
     0
 93
        1
 44
0.0
173
     0
291
     0
 45
0.0
1001
ACAD
1000
AcDbSavedByObjectVersion
1070
     0
  0
VISUALSTYLE
  5
CFCB
102
{ACAD_XDICTIONARY
360
D036
102
}
102
{ACAD_REACTORS
330
CFB8
102
}
330
CFB8
100
AcDbVisualStyle
  2
X-Ray
 70
    25
 71
     2
 72
     2
 73
     1
 90
        1
 40
0.5
 41
-30.0
 62
     5
 63
     7
 74
     1
 91
        0
 64
     7
 65
   257
 75
     1
175
     1
 42
1.0
 92
        8
 66
     7
 43
1.0
 76
     1
 77
     6
 78
     2
 67
     7
 79
     3
170
     0
171
     0
290
     0
174
     0
 93
       13
 44
0.0
173
     0
291
     0
 45
0.0
1001
ACAD
1000
AcDbSavedByObjectVersion
1070
     0
  0
DICTIONARYVAR
  5
D005
102
{ACAD_REACTORS
330
D000
102
}
330
D000
100
DictionaryVariables
280
     0
  1
1:1
  0
DICTIONARYVAR
  5
D002
102
{ACAD_REACTORS
330
D000
102
}
330
D000
100
DictionaryVariables
280
     0
  1
STANDARD
  0
DICTIONARYVAR
  5
D001
102
{ACAD_REACTORS
330
D000
102
}
330
D000
100
DictionaryVariables
280
     0
  1
STANDARD
  0
DICTIONARYVAR
  5
D003
102
{ACAD_REACTORS
330
D000
102
}
330
D000
100
DictionaryVariables
280
     0
  1
Imperial24
  0
DICTIONARYVAR
  5
D004
102
{ACAD_REACTORS
330
D000
102
}
330
D000
100
DictionaryVariables
280
     0
  1
Imperial24
  0
DICTIONARYVAR
  5
D008
102
{ACAD_REACTORS
330
D000
102
}
330
D000
100
DictionaryVariables
280
     0
  1
1
  0
DICTIONARYVAR
  5
D007
102
{ACAD_REACTORS
330
D000
102
}
330
D000
100
DictionaryVariables
280
     0
  1
0
  0
DICTIONARYVAR
  5
D006
102
{ACAD_REACTORS
330
D000
102
}
330
D000
100
DictionaryVariables
280
     0
  1
127
  0
DICTIONARYVAR
  5
D009
102
{ACAD_REACTORS
330
D000
102
}
330
D000
100
DictionaryVariables
280
     0
  1
2
  0
DICTIONARY
  5
D046
330
CFEB
100
AcDbDictionary
280
     1
281
     1
  3
ACAD_XREC_ROUNDTRIP
360
D047
  0
DICTIONARY
  5
D048
330
CFEC
100
AcDbDictionary
280
     1
281
     1
  3
ACAD_XREC_ROUNDTRIP
360
D049
  0
DICTIONARY
  5
D04A
330
CFED
100
AcDbDictionary
280
     1
281
     1
  3
ACAD_XREC_ROUNDTRIP
360
D04B
  0
DICTIONARY
  5
CFA9
330
CFA8
100
AcDbDictionary
280
     1
281
     1
  3
ACAD_XREC_ROUNDTRIP
360
D010
  3
BUMPTILE
360
CFAB
  3
DIFFUSETILE
360
CFAA
  3
OPACITYTILE
360
CFAE
  3
REFLECTIONTILE
360
CFAD
  3
REFRACTIONTILE
360
CFAF
  3
SPECULARTILE
360
CFAC
  0
DICTIONARY
  5
CFA1
330
CFA0
100
AcDbDictionary
280
     1
281
     1
  3
ACAD_XREC_ROUNDTRIP
360
D00F
  3
BUMPTILE
360
CFA3
  3
DIFFUSETILE
360
CFA2
  3
OPACITYTILE
360
CFA6
  3
REFLECTIONTILE
360
CFA5
  3
REFRACTIONTILE
360
CFA7
  3
SPECULARTILE
360
CFA4
  0
DICTIONARY
  5
CFB1
330
CFB0
100
AcDbDictionary
280
     1
281
     1
  3
ACAD_XREC_ROUNDTRIP
360
D011
  3
BUMPTILE
360
CFB3
  3
DIFFUSETILE
360
CFB2
  3
OPACITYTILE
360
CFB6
  3
REFLECTIONTILE
360
CFB5
  3
REFRACTIONTILE
360
CFB7
  3
SPECULARTILE
360
CFB4
  0
DICTIONARY
  5
D044
330
CFE9
100
AcDbDictionary
280
     1
281
     1
  3
ACAD_XREC_ROUNDTRIP
360
D045
  0
DICTIONARY
  5
D00B
330
CFD3
100
AcDbDictionary
280
     1
281
     1
  3
ACAD_ROUNDTRIP_2008_TABLESTYLE_CELLSTYLEMAP
360
D00C
  3
ACAD_XREC_ROUNDTRIP
360
D042
  0
DICTIONARY
  5
D01C
330
CFBE
100
AcDbDictionary
280
     1
281
     1
  3
ACAD_XREC_ROUNDTRIP
360
D01D
  0
DICTIONARY
  5
D01A
330
CFBD
100
AcDbDictionary
280
     1
281
     1
  3
ACAD_XREC_ROUNDTRIP
360
D01B
  0
DICTIONARY
  5
D028
330
CFC4
100
AcDbDictionary
280
     1
281
     1
  3
ACAD_XREC_ROUNDTRIP
360
D029
  0
DICTIONARY
  5
D030
330
CFC8
100
AcDbDictionary
280
     1
281
     1
  3
ACAD_XREC_ROUNDTRIP
360
D031
  0
DICTIONARY
  5
D022
330
CFC1
100
AcDbDictionary
280
     1
281
     1
  3
ACAD_XREC_ROUNDTRIP
360
D023
  0
DICTIONARY
  5
D026
330
CFC3
100
AcDbDictionary
280
     1
281
     1
  3
ACAD_XREC_ROUNDTRIP
360
D027
  0
DICTIONARY
  5
D040
330
CFD0
100
AcDbDictionary
280
     1
281
     1
  3
ACAD_XREC_ROUNDTRIP
360
D041
  0
DICTIONARY
  5
D02E
330
CFC7
100
AcDbDictionary
280
     1
281
     1
  3
ACAD_XREC_ROUNDTRIP
360
D02F
  0
DICTIONARY
  5
D012
330
CFB9
100
AcDbDictionary
280
     1
281
     1
  3
ACAD_XREC_ROUNDTRIP
360
D013
  0
DICTIONARY
  5
D014
330
CFBA
100
AcDbDictionary
280
     1
281
     1
  3
ACAD_XREC_ROUNDTRIP
360
D015
  0
DICTIONARY
  5
D016
330
CFBB
100
AcDbDictionary
280
     1
281
     1
  3
ACAD_XREC_ROUNDTRIP
360
D017
  0
DICTIONARY
  5
D018
330
CFBC
100
AcDbDictionary
280
     1
281
     1
  3
ACAD_XREC_ROUNDTRIP
360
D019
  0
DICTIONARY
  5
D020
330
CFC0
100
AcDbDictionary
280
     1
281
     1
  3
ACAD_XREC_ROUNDTRIP
360
D021
  0
DICTIONARY
  5
D03C
330
CFCE
100
AcDbDictionary
280
     1
281
     1
  3
ACAD_XREC_ROUNDTRIP
360
D03D
  0
DICTIONARY
  5
D02C
330
CFC6
100
AcDbDictionary
280
     1
281
     1
  3
ACAD_XREC_ROUNDTRIP
360
D02D
  0
DICTIONARY
  5
D03E
330
CFCF
100
AcDbDictionary
280
     1
281
     1
  3
ACAD_XREC_ROUNDTRIP
360
D03F
  0
DICTIONARY
  5
D024
330
CFC2
100
AcDbDictionary
280
     1
281
     1
  3
ACAD_XREC_ROUNDTRIP
360
D025
  0
DICTIONARY
  5
D03A
330
CFCD
100
AcDbDictionary
280
     1
281
     1
  3
ACAD_XREC_ROUNDTRIP
360
D03B
  0
DICTIONARY
  5
D038
330
CFCC
100
AcDbDictionary
280
     1
281
     1
  3
ACAD_XREC_ROUNDTRIP
360
D039
  0
DICTIONARY
  5
D032
330
CFC9
100
AcDbDictionary
280
     1
281
     1
  3
ACAD_XREC_ROUNDTRIP
360
D033
  0
DICTIONARY
  5
D034
330
CFCA
100
AcDbDictionary
280
     1
281
     1
  3
ACAD_XREC_ROUNDTRIP
360
D035
  0
DICTIONARY
  5
D02A
330
CFC5
100
AcDbDictionary
280
     1
281
     1
  3
ACAD_XREC_ROUNDTRIP
360
D02B
  0
DICTIONARY
  5
D01E
330
CFBF
100
AcDbDictionary
280
     1
281
     1
  3
ACAD_XREC_ROUNDTRIP
360
D01F
  0
DICTIONARY
  5
D036
330
CFCB
100
AcDbDictionary
280
     1
281
     1
  3
ACAD_XREC_ROUNDTRIP
360
D037
  0
XRECORD
  5
D047
102
{ACAD_REACTORS
330
D046
102
}
330
D046
100
AcDbXrecord
280
     1
102
DISPLAYNAME
  1
Imperial24
102
FLAGS
 90
        0
  0
XRECORD
  5
D049
102
{ACAD_REACTORS
330
D048
102
}
330
D048
100
AcDbXrecord
280
     1
102
SHADEPLOT
 70
     0
102
SHADEPLOTRESLEVEL
 70
     2
102
SHADEPLOTCUSTOMDPI
 70
   300
  0
XRECORD
  5
D04B
102
{ACAD_REACTORS
330
D04A
102
}
330
D04A
100
AcDbXrecord
280
     1
102
SHADEPLOT
 70
     0
102
SHADEPLOTRESLEVEL
 70
     2
102
SHADEPLOTCUSTOMDPI
 70
   300
  0
XRECORD
  5
D010
102
{ACAD_REACTORS
330
CFA9
102
}
330
CFA9
100
AcDbXrecord
280
     1
102
MATERIAL
148
0.0
149
0.0
149
0.0
 93
        0
 94
      127
282
     0
 72
     0
 77
     0
171
     0
175
     0
179
     0
273
     0
  0
XRECORD
  5
CFAB
102
{ACAD_REACTORS
330
CFA9
102
}
330
CFA9
100
AcDbXrecord
280
     1
270
     1
271
     1
  0
XRECORD
  5
CFAA
102
{ACAD_REACTORS
330
CFA9
102
}
330
CFA9
100
AcDbXrecord
280
     1
270
     1
271
     1
  0
XRECORD
  5
CFAE
102
{ACAD_REACTORS
330
CFA9
102
}
330
CFA9
100
AcDbXrecord
280
     1
270
     1
271
     1
  0
XRECORD
  5
CFAD
102
{ACAD_REACTORS
330
CFA9
102
}
330
CFA9
100
AcDbXrecord
280
     1
270
     1
271
     1
  0
XRECORD
  5
CFAF
102
{ACAD_REACTORS
330
CFA9
102
}
330
CFA9
100
AcDbXrecord
280
     1
270
     1
271
     1
  0
XRECORD
  5
CFAC
102
{ACAD_REACTORS
330
CFA9
102
}
330
CFA9
100
AcDbXrecord
280
     1
270
     1
271
     1
  0
XRECORD
  5
D00F
102
{ACAD_REACTORS
330
CFA1
102
}
330
CFA1
100
AcDbXrecord
280
     1
102
MATERIAL
148
0.0
149
0.0
149
0.0
 93
        0
 94
      127
282
     0
 72
     0
 77
     0
171
     0
175
     0
179
     0
273
     0
  0
XRECORD
  5
CFA3
102
{ACAD_REACTORS
330
CFA1
102
}
330
CFA1
100
AcDbXrecord
280
     1
270
     1
271
     1
  0
XRECORD
  5
CFA2
102
{ACAD_REACTORS
330
CFA1
102
}
330
CFA1
100
AcDbXrecord
280
     1
270
     1
271
     1
  0
XRECORD
  5
CFA6
102
{ACAD_REACTORS
330
CFA1
102
}
330
CFA1
100
AcDbXrecord
280
     1
270
     1
271
     1
  0
XRECORD
  5
CFA5
102
{ACAD_REACTORS
330
CFA1
102
}
330
CFA1
100
AcDbXrecord
280
     1
270
     1
271
     1
  0
XRECORD
  5
CFA7
102
{ACAD_REACTORS
330
CFA1
102
}
330
CFA1
100
AcDbXrecord
280
     1
270
     1
271
     1
  0
XRECORD
  5
CFA4
102
{ACAD_REACTORS
330
CFA1
102
}
330
CFA1
100
AcDbXrecord
280
     1
270
     1
271
     1
  0
XRECORD
  5
D011
102
{ACAD_REACTORS
330
CFB1
102
}
330
CFB1
100
AcDbXrecord
280
     1
102
MATERIAL
148
0.0
149
0.0
149
0.0
 93
        0
 94
      127
282
     0
 72
     0
 77
     0
171
     0
175
     0
179
     0
273
     0
  0
XRECORD
  5
CFB3
102
{ACAD_REACTORS
330
CFB1
102
}
330
CFB1
100
AcDbXrecord
280
     1
270
     1
271
     1
  0
XRECORD
  5
CFB2
102
{ACAD_REACTORS
330
CFB1
102
}
330
CFB1
100
AcDbXrecord
280
     1
270
     1
271
     1
  0
XRECORD
  5
CFB6
102
{ACAD_REACTORS
330
CFB1
102
}
330
CFB1
100
AcDbXrecord
280
     1
270
     1
271
     1
  0
XRECORD
  5
CFB5
102
{ACAD_REACTORS
330
CFB1
102
}
330
CFB1
100
AcDbXrecord
280
     1
270
     1
271
     1
  0
XRECORD
  5
CFB7
102
{ACAD_REACTORS
330
CFB1
102
}
330
CFB1
100
AcDbXrecord
280
     1
270
     1
271
     1
  0
XRECORD
  5
CFB4
102
{ACAD_REACTORS
330
CFB1
102
}
330
CFB1
100
AcDbXrecord
280
     1
270
     1
271
     1
  0
XRECORD
  5
D045
102
{ACAD_REACTORS
330
D044
102
}
330
D044
100
AcDbXrecord
280
     1
102
DISPLAYNAME
  1
Imperial24
102
FLAGS
 90
        0
  0
CELLSTYLEMAP
  5
D00C
102
{ACAD_REACTORS
330
D00B
102
}
330
D00B
100
AcDbCellStyleMap
 90
        3
300
CELLSTYLE
  1
TABLEFORMAT_BEGIN
 90
        5
170
     1
 91
        0
 92
    32768
 62
   257
 93
        1
300
CONTENTFORMAT
  1
CONTENTFORMAT_BEGIN
 90
        0
 91
        0
 92
      512
 93
        0
300

 40
0.0
140
1.0
 94
        5
 62
     0
340
C5A8
144
0.25
309
CONTENTFORMAT_END
171
     0
 94
        0
309
TABLEFORMAT_END
  1
CELLSTYLE_BEGIN
 90
        1
 91
        1
300
_TITLE
309
CELLSTYLE_END
300
CELLSTYLE
  1
TABLEFORMAT_BEGIN
 90
        5
170
     1
 91
        0
 92
        0
 62
   257
 93
        1
300
CONTENTFORMAT
  1
CONTENTFORMAT_BEGIN
 90
        0
 91
        0
 92
      512
 93
        0
300

 40
0.0
140
1.0
 94
        5
 62
     0
340
C5A8
144
0.18
309
CONTENTFORMAT_END
171
     0
 94
        0
309
TABLEFORMAT_END
  1
CELLSTYLE_BEGIN
 90
        2
 91
        1
300
_HEADER
309
CELLSTYLE_END
300
CELLSTYLE
  1
TABLEFORMAT_BEGIN
 90
        5
170
     1
 91
        0
 92
        0
 62
   257
 93
        1
300
CONTENTFORMAT
  1
CONTENTFORMAT_BEGIN
 90
        0
 91
        0
 92
      512
 93
        0
300

 40
0.0
140
1.0
 94
        2
 62
     0
340
C5A8
144
0.18
309
CONTENTFORMAT_END
171
     0
 94
        0
309
TABLEFORMAT_END
  1
CELLSTYLE_BEGIN
 90
        3
 91
        2
300
_DATA
309
CELLSTYLE_END
  0
XRECORD
  5
D042
102
{ACAD_REACTORS
330
D00B
102
}
330
D00B
100
AcDbXrecord
280
     1
102
ACAD_ROUNDTRIP_PRE2007_TABLESTYLE
 90
      512
 91
        0
  1

 92
      512
 93
        0
  2

 94
      512
 95
        0
  3

  0
XRECORD
  5
D01D
102
{ACAD_REACTORS
330
D01C
102
}
330
D01C
100
AcDbXrecord
280
     1
102
RTVSPost2010Prop28
280
     1
102
RTVSPost2010PropOp28
 70
     1
102
RTVSPost2010Prop29
280
     1
102
RTVSPost2010PropOp29
 70
     1
102
RTVSPost2010Prop30
280
     0
102
RTVSPost2010PropOp30
 70
     1
102
RTVSPost2010Prop31
280
     0
102
RTVSPost2010PropOp31
 70
     1
102
RTVSPost2010Prop32
280
     0
102
RTVSPost2010PropOp32
 70
     1
102
RTVSPost2010Prop33
280
     0
102
RTVSPost2010PropOp33
 70
     1
102
RTVSPost2010Prop34
280
     0
102
RTVSPost2010PropOp34
 70
     1
102
RTVSPost2010Prop35
280
     0
102
RTVSPost2010PropOp35
 70
     1
102
RTVSPost2010Prop36
280
     0
102
RTVSPost2010PropOp36
 70
     1
102
RTVSPost2010Prop37
 90
       50
102
RTVSPost2010PropOp37
 70
     1
102
RTVSPost2010Prop38
140
0.0
102
RTVSPost2010PropOp38
 70
     1
102
RTVSPost2010Prop39
140
1.0
102
RTVSPost2010PropOp39
 70
     1
102
RTVSPost2010Prop40
 90
        0
102
RTVSPost2010PropOp40
 70
     1
102
RTVSPost2010Prop41ColorIndex
 90
       18
102
RTVSPost2010Prop41ColorRGB
 90
        0
102
RTVSPost2010PropOp41
 70
     1
102
RTVSPost2010Prop42
 90
       50
102
RTVSPost2010PropOp42
 70
     1
102
RTVSPost2010Prop43
 90
        3
102
RTVSPost2010PropOp43
 70
     1
102
RTVSPost2010Prop44ColorIndex
 90
        5
102
RTVSPost2010Prop44ColorRGB
 90
      255
102
RTVSPost2010PropOp44
 70
     1
102
RTVSPost2010Prop45
280
     0
102
RTVSPost2010PropOp45
 70
     1
102
RTVSPost2010Prop46
 90
       50
102
RTVSPost2010PropOp46
 70
     1
102
RTVSPost2010Prop47
 90
       50
102
RTVSPost2010PropOp47
 70
     1
102
RTVSPost2010Prop48
 90
       50
102
RTVSPost2010PropOp48
 70
     1
102
RTVSPost2010Prop49
280
     0
102
RTVSPost2010PropOp49
 70
     1
102
RTVSPost2010Prop50
 90
       50
102
RTVSPost2010PropOp50
 70
     1
102
RTVSPost2010Prop51ColorIndex
 90
      256
102
RTVSPost2010Prop51ColorRGB
 90
-16777216
102
RTVSPost2010PropOp51
 70
     0
102
RTVSPost2010Prop52
140
1.0
102
RTVSPost2010PropOp52
 70
     0
102
RTVSPost2010Prop53
 90
        2
102
RTVSPost2010PropOp53
 70
     1
102
RTVSPost2010Prop54
  1
strokes_ogs.tif
102
RTVSPost2010PropOp54
 70
     1
102
RTVSPost2010Prop55
280
     0
102
RTVSPost2010PropOp55
 70
     1
102
RTVSPost2010Prop56
140
1.0
102
RTVSPost2010PropOp56
 70
     1
102
RTVSPost2010Prop57
140
1.0
102
RTVSPost2010PropOp57
 70
     1
102
RTVSPropertyOp0
 70
     1
102
RTVSPropertyOp1
 70
     1
102
RTVSPropertyOp2
 70
     1
102
RTVSPropertyOp3
 70
     1
102
RTVSPropertyOp4
 70
     1
102
RTVSPropertyOp5
 70
     1
102
RTVSPropertyOp6
 70
     1
102
RTVSPropertyOp7
 70
     1
102
RTVSPropertyOp8
 70
     1
102
RTVSPropertyOp9
 70
     1
102
RTVSPropertyOp10
 70
     1
102
RTVSPropertyOp11
 70
     1
102
RTVSPropertyOp12
 70
     1
102
RTVSPropertyOp13
 70
     1
102
RTVSPropertyOp14
 70
     1
102
RTVSPropertyOp15
 70
     1
102
RTVSPropertyOp16
 70
     1
102
RTVSPropertyOp17
 70
     1
102
RTVSPropertyOp18
 70
     1
102
RTVSPropertyOp19
 70
     1
102
RTVSPropertyOp20
 70
     1
102
RTVSPropertyOp21
 70
     1
102
RTVSPropertyOp22
 70
     1
102
RTVSPropertyOp23
 70
     1
102
RTVSPropertyOp24
 70
     1
102
RTVSPropertyOp25
 70
     1
102
RTVSPropertyOp26
 70
     1
102
RTVSPropertyOp27
 70
     1
102
RTVSPropertyOp28
 70
     1
102
RTVSPropertyOp29
 70
     1
102
RTVSPropertyOp30
 70
     1
102
RTVSPropertyOp31
 70
     1
102
RTVSPropertyOp32
 70
     1
102
RTVSPropertyOp33
 70
     1
102
RTVSPropertyOp34
 70
     1
102
RTVSPropertyOp35
 70
     1
102
RTVSPropertyOp36
 70
     1
102
RTVSPropertyOp37
 70
     1
102
RTVSPropertyOp38
 70
     1
102
RTVSPropertyOp39
 70
     1
102
RTVSPropertyOp40
 70
     1
102
RTVSPropertyOp41
 70
     1
102
RTVSPropertyOp42
 70
     1
102
RTVSPropertyOp43
 70
     1
102
RTVSPropertyOp44
 70
     1
102
RTVSPropertyOp45
 70
     1
102
RTVSPropertyOp46
 70
     1
102
RTVSPropertyOp47
 70
     1
102
RTVSPropertyOp48
 70
     1
102
RTVSPropertyOp49
 70
     1
102
RTVSPropertyOp50
 70
     1
102
RTVSPropertyOp51
 70
     0
102
RTVSPropertyOp52
 70
     0
102
RTVSPropertyOp53
 70
     1
102
RTVSPropertyOp54
 70
     1
102
RTVSPropertyOp55
 70
     1
102
RTVSPropertyOp56
 70
     1
102
RTVSPropertyOp57
 70
     1
102
RTVSPropertyOp58
 70
     1
102
RTVSPropertyOp59
 70
     1
102
RTVSPropertyOp60
 70
     1
102
RTVSPropertyOp61
 70
     1
102
RTVSPropertyOp62
 70
     1
  0
XRECORD
  5
D01B
102
{ACAD_REACTORS
330
D01A
102
}
330
D01A
100
AcDbXrecord
280
     1
102
RTVSPost2010Prop28
280
     0
102
RTVSPost2010PropOp28
 70
     1
102
RTVSPost2010Prop29
280
     1
102
RTVSPost2010PropOp29
 70
     1
102
RTVSPost2010Prop30
280
     1
102
RTVSPost2010PropOp30
 70
     1
102
RTVSPost2010Prop31
280
     0
102
RTVSPost2010PropOp31
 70
     1
102
RTVSPost2010Prop32
280
     0
102
RTVSPost2010PropOp32
 70
     1
102
RTVSPost2010Prop33
280
     0
102
RTVSPost2010PropOp33
 70
     1
102
RTVSPost2010Prop34
280
     0
102
RTVSPost2010PropOp34
 70
     1
102
RTVSPost2010Prop35
280
     0
102
RTVSPost2010PropOp35
 70
     1
102
RTVSPost2010Prop36
280
     0
102
RTVSPost2010PropOp36
 70
     1
102
RTVSPost2010Prop37
 90
       50
102
RTVSPost2010PropOp37
 70
     1
102
RTVSPost2010Prop38
140
0.0
102
RTVSPost2010PropOp38
 70
     1
102
RTVSPost2010Prop39
140
1.0
102
RTVSPost2010PropOp39
 70
     1
102
RTVSPost2010Prop40
 90
        0
102
RTVSPost2010PropOp40
 70
     1
102
RTVSPost2010Prop41ColorIndex
 90
       18
102
RTVSPost2010Prop41ColorRGB
 90
        0
102
RTVSPost2010PropOp41
 70
     1
102
RTVSPost2010Prop42
 90
       50
102
RTVSPost2010PropOp42
 70
     1
102
RTVSPost2010Prop43
 90
        3
102
RTVSPost2010PropOp43
 70
     1
102
RTVSPost2010Prop44ColorIndex
 90
        5
102
RTVSPost2010Prop44ColorRGB
 90
      255
102
RTVSPost2010PropOp44
 70
     1
102
RTVSPost2010Prop45
280
     0
102
RTVSPost2010PropOp45
 70
     1
102
RTVSPost2010Prop46
 90
       50
102
RTVSPost2010PropOp46
 70
     1
102
RTVSPost2010Prop47
 90
       50
102
RTVSPost2010PropOp47
 70
     1
102
RTVSPost2010Prop48
 90
       50
102
RTVSPost2010PropOp48
 70
     1
102
RTVSPost2010Prop49
280
     0
102
RTVSPost2010PropOp49
 70
     1
102
RTVSPost2010Prop50
 90
       50
102
RTVSPost2010PropOp50
 70
     1
102
RTVSPost2010Prop51ColorIndex
 90
      256
102
RTVSPost2010Prop51ColorRGB
 90
-16777216
102
RTVSPost2010PropOp51
 70
     0
102
RTVSPost2010Prop52
140
1.0
102
RTVSPost2010PropOp52
 70
     0
102
RTVSPost2010Prop53
 90
        2
102
RTVSPost2010PropOp53
 70
     1
102
RTVSPost2010Prop54
  1
strokes_ogs.tif
102
RTVSPost2010PropOp54
 70
     1
102
RTVSPost2010Prop55
280
     0
102
RTVSPost2010PropOp55
 70
     1
102
RTVSPost2010Prop56
140
1.0
102
RTVSPost2010PropOp56
 70
     1
102
RTVSPost2010Prop57
140
1.0
102
RTVSPost2010PropOp57
 70
     1
102
RTVSPropertyOp0
 70
     1
102
RTVSPropertyOp1
 70
     1
102
RTVSPropertyOp2
 70
     1
102
RTVSPropertyOp3
 70
     1
102
RTVSPropertyOp4
 70
     1
102
RTVSPropertyOp5
 70
     1
102
RTVSPropertyOp6
 70
     1
102
RTVSPropertyOp7
 70
     1
102
RTVSPropertyOp8
 70
     1
102
RTVSPropertyOp9
 70
     1
102
RTVSPropertyOp10
 70
     1
102
RTVSPropertyOp11
 70
     1
102
RTVSPropertyOp12
 70
     1
102
RTVSPropertyOp13
 70
     1
102
RTVSPropertyOp14
 70
     1
102
RTVSPropertyOp15
 70
     1
102
RTVSPropertyOp16
 70
     1
102
RTVSPropertyOp17
 70
     1
102
RTVSPropertyOp18
 70
     1
102
RTVSPropertyOp19
 70
     1
102
RTVSPropertyOp20
 70
     1
102
RTVSPropertyOp21
 70
     1
102
RTVSPropertyOp22
 70
     1
102
RTVSPropertyOp23
 70
     1
102
RTVSPropertyOp24
 70
     1
102
RTVSPropertyOp25
 70
     1
102
RTVSPropertyOp26
 70
     1
102
RTVSPropertyOp27
 70
     1
102
RTVSPropertyOp28
 70
     1
102
RTVSPropertyOp29
 70
     1
102
RTVSPropertyOp30
 70
     1
102
RTVSPropertyOp31
 70
     1
102
RTVSPropertyOp32
 70
     1
102
RTVSPropertyOp33
 70
     1
102
RTVSPropertyOp34
 70
     1
102
RTVSPropertyOp35
 70
     1
102
RTVSPropertyOp36
 70
     1
102
RTVSPropertyOp37
 70
     1
102
RTVSPropertyOp38
 70
     1
102
RTVSPropertyOp39
 70
     1
102
RTVSPropertyOp40
 70
     1
102
RTVSPropertyOp41
 70
     1
102
RTVSPropertyOp42
 70
     1
102
RTVSPropertyOp43
 70
     1
102
RTVSPropertyOp44
 70
     1
102
RTVSPropertyOp45
 70
     1
102
RTVSPropertyOp46
 70
     1
102
RTVSPropertyOp47
 70
     1
102
RTVSPropertyOp48
 70
     1
102
RTVSPropertyOp49
 70
     1
102
RTVSPropertyOp50
 70
     1
102
RTVSPropertyOp51
 70
     0
102
RTVSPropertyOp52
 70
     0
102
RTVSPropertyOp53
 70
     1
102
RTVSPropertyOp54
 70
     1
102
RTVSPropertyOp55
 70
     1
102
RTVSPropertyOp56
 70
     1
102
RTVSPropertyOp57
 70
     1
102
RTVSPropertyOp58
 70
     1
102
RTVSPropertyOp59
 70
     1
102
RTVSPropertyOp60
 70
     1
102
RTVSPropertyOp61
 70
     1
102
RTVSPropertyOp62
 70
     1
  0
XRECORD
  5
D029
102
{ACAD_REACTORS
330
D028
102
}
330
D028
100
AcDbXrecord
280
     1
102
RTVSPost2010Prop28
280
     0
102
RTVSPost2010PropOp28
 70
     1
102
RTVSPost2010Prop29
280
     1
102
RTVSPost2010PropOp29
 70
     1
102
RTVSPost2010Prop30
280
     1
102
RTVSPost2010PropOp30
 70
     1
102
RTVSPost2010Prop31
280
     0
102
RTVSPost2010PropOp31
 70
     1
102
RTVSPost2010Prop32
280
     0
102
RTVSPost2010PropOp32
 70
     1
102
RTVSPost2010Prop33
280
     0
102
RTVSPost2010PropOp33
 70
     1
102
RTVSPost2010Prop34
280
     0
102
RTVSPost2010PropOp34
 70
     1
102
RTVSPost2010Prop35
280
     0
102
RTVSPost2010PropOp35
 70
     1
102
RTVSPost2010Prop36
280
     0
102
RTVSPost2010PropOp36
 70
     1
102
RTVSPost2010Prop37
 90
       50
102
RTVSPost2010PropOp37
 70
     1
102
RTVSPost2010Prop38
140
0.0
102
RTVSPost2010PropOp38
 70
     1
102
RTVSPost2010Prop39
140
1.0
102
RTVSPost2010PropOp39
 70
     1
102
RTVSPost2010Prop40
 90
        0
102
RTVSPost2010PropOp40
 70
     1
102
RTVSPost2010Prop41ColorIndex
 90
       18
102
RTVSPost2010Prop41ColorRGB
 90
        0
102
RTVSPost2010PropOp41
 70
     1
102
RTVSPost2010Prop42
 90
       50
102
RTVSPost2010PropOp42
 70
     1
102
RTVSPost2010Prop43
 90
        3
102
RTVSPost2010PropOp43
 70
     1
102
RTVSPost2010Prop44ColorIndex
 90
        5
102
RTVSPost2010Prop44ColorRGB
 90
      255
102
RTVSPost2010PropOp44
 70
     1
102
RTVSPost2010Prop45
280
     0
102
RTVSPost2010PropOp45
 70
     1
102
RTVSPost2010Prop46
 90
       50
102
RTVSPost2010PropOp46
 70
     1
102
RTVSPost2010Prop47
 90
       50
102
RTVSPost2010PropOp47
 70
     1
102
RTVSPost2010Prop48
 90
       50
102
RTVSPost2010PropOp48
 70
     1
102
RTVSPost2010Prop49
280
     0
102
RTVSPost2010PropOp49
 70
     1
102
RTVSPost2010Prop50
 90
       50
102
RTVSPost2010PropOp50
 70
     1
102
RTVSPost2010Prop51ColorIndex
 90
      256
102
RTVSPost2010Prop51ColorRGB
 90
-16777216
102
RTVSPost2010PropOp51
 70
     0
102
RTVSPost2010Prop52
140
1.0
102
RTVSPost2010PropOp52
 70
     0
102
RTVSPost2010Prop53
 90
        2
102
RTVSPost2010PropOp53
 70
     1
102
RTVSPost2010Prop54
  1
strokes_ogs.tif
102
RTVSPost2010PropOp54
 70
     1
102
RTVSPost2010Prop55
280
     0
102
RTVSPost2010PropOp55
 70
     1
102
RTVSPost2010Prop56
140
1.0
102
RTVSPost2010PropOp56
 70
     1
102
RTVSPost2010Prop57
140
1.0
102
RTVSPost2010PropOp57
 70
     1
102
RTVSPropertyOp0
 70
     1
102
RTVSPropertyOp1
 70
     1
102
RTVSPropertyOp2
 70
     1
102
RTVSPropertyOp3
 70
     1
102
RTVSPropertyOp4
 70
     1
102
RTVSPropertyOp5
 70
     1
102
RTVSPropertyOp6
 70
     1
102
RTVSPropertyOp7
 70
     1
102
RTVSPropertyOp8
 70
     1
102
RTVSPropertyOp9
 70
     1
102
RTVSPropertyOp10
 70
     1
102
RTVSPropertyOp11
 70
     1
102
RTVSPropertyOp12
 70
     1
102
RTVSPropertyOp13
 70
     1
102
RTVSPropertyOp14
 70
     1
102
RTVSPropertyOp15
 70
     1
102
RTVSPropertyOp16
 70
     1
102
RTVSPropertyOp17
 70
     1
102
RTVSPropertyOp18
 70
     1
102
RTVSPropertyOp19
 70
     1
102
RTVSPropertyOp20
 70
     1
102
RTVSPropertyOp21
 70
     1
102
RTVSPropertyOp22
 70
     1
102
RTVSPropertyOp23
 70
     1
102
RTVSPropertyOp24
 70
     1
102
RTVSPropertyOp25
 70
     1
102
RTVSPropertyOp26
 70
     1
102
RTVSPropertyOp27
 70
     1
102
RTVSPropertyOp28
 70
     1
102
RTVSPropertyOp29
 70
     1
102
RTVSPropertyOp30
 70
     1
102
RTVSPropertyOp31
 70
     1
102
RTVSPropertyOp32
 70
     1
102
RTVSPropertyOp33
 70
     1
102
RTVSPropertyOp34
 70
     1
102
RTVSPropertyOp35
 70
     1
102
RTVSPropertyOp36
 70
     1
102
RTVSPropertyOp37
 70
     1
102
RTVSPropertyOp38
 70
     1
102
RTVSPropertyOp39
 70
     1
102
RTVSPropertyOp40
 70
     1
102
RTVSPropertyOp41
 70
     1
102
RTVSPropertyOp42
 70
     1
102
RTVSPropertyOp43
 70
     1
102
RTVSPropertyOp44
 70
     1
102
RTVSPropertyOp45
 70
     1
102
RTVSPropertyOp46
 70
     1
102
RTVSPropertyOp47
 70
     1
102
RTVSPropertyOp48
 70
     1
102
RTVSPropertyOp49
 70
     1
102
RTVSPropertyOp50
 70
     1
102
RTVSPropertyOp51
 70
     0
102
RTVSPropertyOp52
 70
     0
102
RTVSPropertyOp53
 70
     1
102
RTVSPropertyOp54
 70
     1
102
RTVSPropertyOp55
 70
     1
102
RTVSPropertyOp56
 70
     1
102
RTVSPropertyOp57
 70
     1
102
RTVSPropertyOp58
 70
     1
102
RTVSPropertyOp59
 70
     1
102
RTVSPropertyOp60
 70
     1
102
RTVSPropertyOp61
 70
     1
102
RTVSPropertyOp62
 70
     1
  0
XRECORD
  5
D031
102
{ACAD_REACTORS
330
D030
102
}
330
D030
100
AcDbXrecord
280
     1
102
RTVSPost2010Prop28
280
     0
102
RTVSPost2010PropOp28
 70
     1
102
RTVSPost2010Prop29
280
     1
102
RTVSPost2010PropOp29
 70
     1
102
RTVSPost2010Prop30
280
     1
102
RTVSPost2010PropOp30
 70
     1
102
RTVSPost2010Prop31
280
     0
102
RTVSPost2010PropOp31
 70
     1
102
RTVSPost2010Prop32
280
     0
102
RTVSPost2010PropOp32
 70
     1
102
RTVSPost2010Prop33
280
     0
102
RTVSPost2010PropOp33
 70
     1
102
RTVSPost2010Prop34
280
     0
102
RTVSPost2010PropOp34
 70
     1
102
RTVSPost2010Prop35
280
     0
102
RTVSPost2010PropOp35
 70
     1
102
RTVSPost2010Prop36
280
     0
102
RTVSPost2010PropOp36
 70
     1
102
RTVSPost2010Prop37
 90
       50
102
RTVSPost2010PropOp37
 70
     1
102
RTVSPost2010Prop38
140
0.0
102
RTVSPost2010PropOp38
 70
     1
102
RTVSPost2010Prop39
140
1.0
102
RTVSPost2010PropOp39
 70
     1
102
RTVSPost2010Prop40
 90
        0
102
RTVSPost2010PropOp40
 70
     1
102
RTVSPost2010Prop41ColorIndex
 90
       18
102
RTVSPost2010Prop41ColorRGB
 90
        0
102
RTVSPost2010PropOp41
 70
     1
102
RTVSPost2010Prop42
 90
       50
102
RTVSPost2010PropOp42
 70
     1
102
RTVSPost2010Prop43
 90
        3
102
RTVSPost2010PropOp43
 70
     1
102
RTVSPost2010Prop44ColorIndex
 90
        5
102
RTVSPost2010Prop44ColorRGB
 90
      255
102
RTVSPost2010PropOp44
 70
     1
102
RTVSPost2010Prop45
280
     0
102
RTVSPost2010PropOp45
 70
     1
102
RTVSPost2010Prop46
 90
       50
102
RTVSPost2010PropOp46
 70
     1
102
RTVSPost2010Prop47
 90
       50
102
RTVSPost2010PropOp47
 70
     1
102
RTVSPost2010Prop48
 90
       50
102
RTVSPost2010PropOp48
 70
     1
102
RTVSPost2010Prop49
280
     0
102
RTVSPost2010PropOp49
 70
     1
102
RTVSPost2010Prop50
 90
       50
102
RTVSPost2010PropOp50
 70
     1
102
RTVSPost2010Prop51ColorIndex
 90
      256
102
RTVSPost2010Prop51ColorRGB
 90
-16777216
102
RTVSPost2010PropOp51
 70
     0
102
RTVSPost2010Prop52
140
1.0
102
RTVSPost2010PropOp52
 70
     0
102
RTVSPost2010Prop53
 90
        2
102
RTVSPost2010PropOp53
 70
     1
102
RTVSPost2010Prop54
  1
strokes_ogs.tif
102
RTVSPost2010PropOp54
 70
     1
102
RTVSPost2010Prop55
280
     0
102
RTVSPost2010PropOp55
 70
     1
102
RTVSPost2010Prop56
140
1.0
102
RTVSPost2010PropOp56
 70
     1
102
RTVSPost2010Prop57
140
1.0
102
RTVSPost2010PropOp57
 70
     1
102
RTVSPropertyOp0
 70
     1
102
RTVSPropertyOp1
 70
     1
102
RTVSPropertyOp2
 70
     1
102
RTVSPropertyOp3
 70
     1
102
RTVSPropertyOp4
 70
     1
102
RTVSPropertyOp5
 70
     1
102
RTVSPropertyOp6
 70
     1
102
RTVSPropertyOp7
 70
     1
102
RTVSPropertyOp8
 70
     1
102
RTVSPropertyOp9
 70
     1
102
RTVSPropertyOp10
 70
     1
102
RTVSPropertyOp11
 70
     1
102
RTVSPropertyOp12
 70
     1
102
RTVSPropertyOp13
 70
     1
102
RTVSPropertyOp14
 70
     1
102
RTVSPropertyOp15
 70
     1
102
RTVSPropertyOp16
 70
     1
102
RTVSPropertyOp17
 70
     1
102
RTVSPropertyOp18
 70
     1
102
RTVSPropertyOp19
 70
     1
102
RTVSPropertyOp20
 70
     1
102
RTVSPropertyOp21
 70
     1
102
RTVSPropertyOp22
 70
     1
102
RTVSPropertyOp23
 70
     1
102
RTVSPropertyOp24
 70
     1
102
RTVSPropertyOp25
 70
     1
102
RTVSPropertyOp26
 70
     1
102
RTVSPropertyOp27
 70
     1
102
RTVSPropertyOp28
 70
     1
102
RTVSPropertyOp29
 70
     1
102
RTVSPropertyOp30
 70
     1
102
RTVSPropertyOp31
 70
     1
102
RTVSPropertyOp32
 70
     1
102
RTVSPropertyOp33
 70
     1
102
RTVSPropertyOp34
 70
     1
102
RTVSPropertyOp35
 70
     1
102
RTVSPropertyOp36
 70
     1
102
RTVSPropertyOp37
 70
     1
102
RTVSPropertyOp38
 70
     1
102
RTVSPropertyOp39
 70
     1
102
RTVSPropertyOp40
 70
     1
102
RTVSPropertyOp41
 70
     1
102
RTVSPropertyOp42
 70
     1
102
RTVSPropertyOp43
 70
     1
102
RTVSPropertyOp44
 70
     1
102
RTVSPropertyOp45
 70
     1
102
RTVSPropertyOp46
 70
     1
102
RTVSPropertyOp47
 70
     1
102
RTVSPropertyOp48
 70
     1
102
RTVSPropertyOp49
 70
     1
102
RTVSPropertyOp50
 70
     1
102
RTVSPropertyOp51
 70
     0
102
RTVSPropertyOp52
 70
     0
102
RTVSPropertyOp53
 70
     1
102
RTVSPropertyOp54
 70
     1
102
RTVSPropertyOp55
 70
     1
102
RTVSPropertyOp56
 70
     1
102
RTVSPropertyOp57
 70
     1
102
RTVSPropertyOp58
 70
     1
102
RTVSPropertyOp59
 70
     1
102
RTVSPropertyOp60
 70
     1
102
RTVSPropertyOp61
 70
     1
102
RTVSPropertyOp62
 70
     1
  0
XRECORD
  5
D023
102
{ACAD_REACTORS
330
D022
102
}
330
D022
100
AcDbXrecord
280
     1
102
RTVSPost2010Prop28
280
     0
102
RTVSPost2010PropOp28
 70
     1
102
RTVSPost2010Prop29
280
     1
102
RTVSPost2010PropOp29
 70
     1
102
RTVSPost2010Prop30
280
     1
102
RTVSPost2010PropOp30
 70
     1
102
RTVSPost2010Prop31
280
     0
102
RTVSPost2010PropOp31
 70
     1
102
RTVSPost2010Prop32
280
     0
102
RTVSPost2010PropOp32
 70
     1
102
RTVSPost2010Prop33
280
     0
102
RTVSPost2010PropOp33
 70
     1
102
RTVSPost2010Prop34
280
     0
102
RTVSPost2010PropOp34
 70
     1
102
RTVSPost2010Prop35
280
     0
102
RTVSPost2010PropOp35
 70
     1
102
RTVSPost2010Prop36
280
     0
102
RTVSPost2010PropOp36
 70
     1
102
RTVSPost2010Prop37
 90
       50
102
RTVSPost2010PropOp37
 70
     1
102
RTVSPost2010Prop38
140
0.0
102
RTVSPost2010PropOp38
 70
     1
102
RTVSPost2010Prop39
140
1.0
102
RTVSPost2010PropOp39
 70
     1
102
RTVSPost2010Prop40
 90
        0
102
RTVSPost2010PropOp40
 70
     1
102
RTVSPost2010Prop41ColorIndex
 90
       18
102
RTVSPost2010Prop41ColorRGB
 90
        0
102
RTVSPost2010PropOp41
 70
     1
102
RTVSPost2010Prop42
 90
       50
102
RTVSPost2010PropOp42
 70
     1
102
RTVSPost2010Prop43
 90
        3
102
RTVSPost2010PropOp43
 70
     1
102
RTVSPost2010Prop44ColorIndex
 90
        5
102
RTVSPost2010Prop44ColorRGB
 90
      255
102
RTVSPost2010PropOp44
 70
     1
102
RTVSPost2010Prop45
280
     0
102
RTVSPost2010PropOp45
 70
     1
102
RTVSPost2010Prop46
 90
       50
102
RTVSPost2010PropOp46
 70
     1
102
RTVSPost2010Prop47
 90
       50
102
RTVSPost2010PropOp47
 70
     1
102
RTVSPost2010Prop48
 90
       50
102
RTVSPost2010PropOp48
 70
     1
102
RTVSPost2010Prop49
280
     0
102
RTVSPost2010PropOp49
 70
     1
102
RTVSPost2010Prop50
 90
       50
102
RTVSPost2010PropOp50
 70
     1
102
RTVSPost2010Prop51ColorIndex
 90
      256
102
RTVSPost2010Prop51ColorRGB
 90
-16777216
102
RTVSPost2010PropOp51
 70
     0
102
RTVSPost2010Prop52
140
1.0
102
RTVSPost2010PropOp52
 70
     0
102
RTVSPost2010Prop53
 90
        2
102
RTVSPost2010PropOp53
 70
     1
102
RTVSPost2010Prop54
  1
strokes_ogs.tif
102
RTVSPost2010PropOp54
 70
     1
102
RTVSPost2010Prop55
280
     0
102
RTVSPost2010PropOp55
 70
     1
102
RTVSPost2010Prop56
140
1.0
102
RTVSPost2010PropOp56
 70
     1
102
RTVSPost2010Prop57
140
1.0
102
RTVSPost2010PropOp57
 70
     1
102
RTVSPropertyOp0
 70
     1
102
RTVSPropertyOp1
 70
     1
102
RTVSPropertyOp2
 70
     1
102
RTVSPropertyOp3
 70
     1
102
RTVSPropertyOp4
 70
     1
102
RTVSPropertyOp5
 70
     1
102
RTVSPropertyOp6
 70
     1
102
RTVSPropertyOp7
 70
     1
102
RTVSPropertyOp8
 70
     1
102
RTVSPropertyOp9
 70
     1
102
RTVSPropertyOp10
 70
     1
102
RTVSPropertyOp11
 70
     1
102
RTVSPropertyOp12
 70
     1
102
RTVSPropertyOp13
 70
     1
102
RTVSPropertyOp14
 70
     1
102
RTVSPropertyOp15
 70
     1
102
RTVSPropertyOp16
 70
     1
102
RTVSPropertyOp17
 70
     1
102
RTVSPropertyOp18
 70
     1
102
RTVSPropertyOp19
 70
     1
102
RTVSPropertyOp20
 70
     1
102
RTVSPropertyOp21
 70
     1
102
RTVSPropertyOp22
 70
     1
102
RTVSPropertyOp23
 70
     1
102
RTVSPropertyOp24
 70
     1
102
RTVSPropertyOp25
 70
     1
102
RTVSPropertyOp26
 70
     1
102
RTVSPropertyOp27
 70
     1
102
RTVSPropertyOp28
 70
     1
102
RTVSPropertyOp29
 70
     1
102
RTVSPropertyOp30
 70
     1
102
RTVSPropertyOp31
 70
     1
102
RTVSPropertyOp32
 70
     1
102
RTVSPropertyOp33
 70
     1
102
RTVSPropertyOp34
 70
     1
102
RTVSPropertyOp35
 70
     1
102
RTVSPropertyOp36
 70
     1
102
RTVSPropertyOp37
 70
     1
102
RTVSPropertyOp38
 70
     1
102
RTVSPropertyOp39
 70
     1
102
RTVSPropertyOp40
 70
     1
102
RTVSPropertyOp41
 70
     1
102
RTVSPropertyOp42
 70
     1
102
RTVSPropertyOp43
 70
     1
102
RTVSPropertyOp44
 70
     1
102
RTVSPropertyOp45
 70
     1
102
RTVSPropertyOp46
 70
     1
102
RTVSPropertyOp47
 70
     1
102
RTVSPropertyOp48
 70
     1
102
RTVSPropertyOp49
 70
     1
102
RTVSPropertyOp50
 70
     1
102
RTVSPropertyOp51
 70
     0
102
RTVSPropertyOp52
 70
     0
102
RTVSPropertyOp53
 70
     1
102
RTVSPropertyOp54
 70
     1
102
RTVSPropertyOp55
 70
     1
102
RTVSPropertyOp56
 70
     1
102
RTVSPropertyOp57
 70
     1
102
RTVSPropertyOp58
 70
     1
102
RTVSPropertyOp59
 70
     1
102
RTVSPropertyOp60
 70
     1
102
RTVSPropertyOp61
 70
     1
102
RTVSPropertyOp62
 70
     1
  0
XRECORD
  5
D027
102
{ACAD_REACTORS
330
D026
102
}
330
D026
100
AcDbXrecord
280
     1
102
RTVSPost2010Prop28
280
     0
102
RTVSPost2010PropOp28
 70
     1
102
RTVSPost2010Prop29
280
     1
102
RTVSPost2010PropOp29
 70
     1
102
RTVSPost2010Prop30
280
     1
102
RTVSPost2010PropOp30
 70
     1
102
RTVSPost2010Prop31
280
     0
102
RTVSPost2010PropOp31
 70
     1
102
RTVSPost2010Prop32
280
     0
102
RTVSPost2010PropOp32
 70
     1
102
RTVSPost2010Prop33
280
     0
102
RTVSPost2010PropOp33
 70
     1
102
RTVSPost2010Prop34
280
     0
102
RTVSPost2010PropOp34
 70
     1
102
RTVSPost2010Prop35
280
     0
102
RTVSPost2010PropOp35
 70
     1
102
RTVSPost2010Prop36
280
     0
102
RTVSPost2010PropOp36
 70
     1
102
RTVSPost2010Prop37
 90
       50
102
RTVSPost2010PropOp37
 70
     1
102
RTVSPost2010Prop38
140
0.0
102
RTVSPost2010PropOp38
 70
     1
102
RTVSPost2010Prop39
140
1.0
102
RTVSPost2010PropOp39
 70
     1
102
RTVSPost2010Prop40
 90
        0
102
RTVSPost2010PropOp40
 70
     1
102
RTVSPost2010Prop41ColorIndex
 90
       18
102
RTVSPost2010Prop41ColorRGB
 90
        0
102
RTVSPost2010PropOp41
 70
     1
102
RTVSPost2010Prop42
 90
       50
102
RTVSPost2010PropOp42
 70
     1
102
RTVSPost2010Prop43
 90
        3
102
RTVSPost2010PropOp43
 70
     1
102
RTVSPost2010Prop44ColorIndex
 90
        5
102
RTVSPost2010Prop44ColorRGB
 90
      255
102
RTVSPost2010PropOp44
 70
     1
102
RTVSPost2010Prop45
280
     0
102
RTVSPost2010PropOp45
 70
     1
102
RTVSPost2010Prop46
 90
       50
102
RTVSPost2010PropOp46
 70
     1
102
RTVSPost2010Prop47
 90
       50
102
RTVSPost2010PropOp47
 70
     1
102
RTVSPost2010Prop48
 90
       50
102
RTVSPost2010PropOp48
 70
     1
102
RTVSPost2010Prop49
280
     0
102
RTVSPost2010PropOp49
 70
     1
102
RTVSPost2010Prop50
 90
       50
102
RTVSPost2010PropOp50
 70
     1
102
RTVSPost2010Prop51ColorIndex
 90
      256
102
RTVSPost2010Prop51ColorRGB
 90
-16777216
102
RTVSPost2010PropOp51
 70
     0
102
RTVSPost2010Prop52
140
1.0
102
RTVSPost2010PropOp52
 70
     0
102
RTVSPost2010Prop53
 90
        2
102
RTVSPost2010PropOp53
 70
     1
102
RTVSPost2010Prop54
  1
strokes_ogs.tif
102
RTVSPost2010PropOp54
 70
     1
102
RTVSPost2010Prop55
280
     0
102
RTVSPost2010PropOp55
 70
     1
102
RTVSPost2010Prop56
140
1.0
102
RTVSPost2010PropOp56
 70
     1
102
RTVSPost2010Prop57
140
1.0
102
RTVSPost2010PropOp57
 70
     1
102
RTVSPropertyOp0
 70
     1
102
RTVSPropertyOp1
 70
     1
102
RTVSPropertyOp2
 70
     1
102
RTVSPropertyOp3
 70
     1
102
RTVSPropertyOp4
 70
     1
102
RTVSPropertyOp5
 70
     1
102
RTVSPropertyOp6
 70
     1
102
RTVSPropertyOp7
 70
     1
102
RTVSPropertyOp8
 70
     1
102
RTVSPropertyOp9
 70
     1
102
RTVSPropertyOp10
 70
     1
102
RTVSPropertyOp11
 70
     1
102
RTVSPropertyOp12
 70
     1
102
RTVSPropertyOp13
 70
     1
102
RTVSPropertyOp14
 70
     1
102
RTVSPropertyOp15
 70
     1
102
RTVSPropertyOp16
 70
     1
102
RTVSPropertyOp17
 70
     1
102
RTVSPropertyOp18
 70
     1
102
RTVSPropertyOp19
 70
     1
102
RTVSPropertyOp20
 70
     1
102
RTVSPropertyOp21
 70
     1
102
RTVSPropertyOp22
 70
     1
102
RTVSPropertyOp23
 70
     1
102
RTVSPropertyOp24
 70
     1
102
RTVSPropertyOp25
 70
     1
102
RTVSPropertyOp26
 70
     1
102
RTVSPropertyOp27
 70
     1
102
RTVSPropertyOp28
 70
     1
102
RTVSPropertyOp29
 70
     1
102
RTVSPropertyOp30
 70
     1
102
RTVSPropertyOp31
 70
     1
102
RTVSPropertyOp32
 70
     1
102
RTVSPropertyOp33
 70
     1
102
RTVSPropertyOp34
 70
     1
102
RTVSPropertyOp35
 70
     1
102
RTVSPropertyOp36
 70
     1
102
RTVSPropertyOp37
 70
     1
102
RTVSPropertyOp38
 70
     1
102
RTVSPropertyOp39
 70
     1
102
RTVSPropertyOp40
 70
     1
102
RTVSPropertyOp41
 70
     1
102
RTVSPropertyOp42
 70
     1
102
RTVSPropertyOp43
 70
     1
102
RTVSPropertyOp44
 70
     1
102
RTVSPropertyOp45
 70
     1
102
RTVSPropertyOp46
 70
     1
102
RTVSPropertyOp47
 70
     1
102
RTVSPropertyOp48
 70
     1
102
RTVSPropertyOp49
 70
     1
102
RTVSPropertyOp50
 70
     1
102
RTVSPropertyOp51
 70
     0
102
RTVSPropertyOp52
 70
     0
102
RTVSPropertyOp53
 70
     1
102
RTVSPropertyOp54
 70
     1
102
RTVSPropertyOp55
 70
     1
102
RTVSPropertyOp56
 70
     1
102
RTVSPropertyOp57
 70
     1
102
RTVSPropertyOp58
 70
     1
102
RTVSPropertyOp59
 70
     1
102
RTVSPropertyOp60
 70
     1
102
RTVSPropertyOp61
 70
     1
102
RTVSPropertyOp62
 70
     1
  0
XRECORD
  5
D041
102
{ACAD_REACTORS
330
D040
102
}
330
D040
100
AcDbXrecord
280
     1
102
RTVSPost2010Prop28
280
     0
102
RTVSPost2010PropOp28
 70
     1
102
RTVSPost2010Prop29
280
     1
102
RTVSPost2010PropOp29
 70
     1
102
RTVSPost2010Prop30
280
     1
102
RTVSPost2010PropOp30
 70
     1
102
RTVSPost2010Prop31
280
     0
102
RTVSPost2010PropOp31
 70
     1
102
RTVSPost2010Prop32
280
     0
102
RTVSPost2010PropOp32
 70
     1
102
RTVSPost2010Prop33
280
     0
102
RTVSPost2010PropOp33
 70
     1
102
RTVSPost2010Prop34
280
     0
102
RTVSPost2010PropOp34
 70
     1
102
RTVSPost2010Prop35
280
     0
102
RTVSPost2010PropOp35
 70
     1
102
RTVSPost2010Prop36
280
     0
102
RTVSPost2010PropOp36
 70
     1
102
RTVSPost2010Prop37
 90
       50
102
RTVSPost2010PropOp37
 70
     0
102
RTVSPost2010Prop38
140
0.0
102
RTVSPost2010PropOp38
 70
     0
102
RTVSPost2010Prop39
140
1.0
102
RTVSPost2010PropOp39
 70
     0
102
RTVSPost2010Prop40
 90
        0
102
RTVSPost2010PropOp40
 70
     0
102
RTVSPost2010Prop41ColorIndex
 90
       18
102
RTVSPost2010Prop41ColorRGB
 90
        0
102
RTVSPost2010PropOp41
 70
     0
102
RTVSPost2010Prop42
 90
       50
102
RTVSPost2010PropOp42
 70
     0
102
RTVSPost2010Prop43
 90
        3
102
RTVSPost2010PropOp43
 70
     0
102
RTVSPost2010Prop44ColorIndex
 90
        5
102
RTVSPost2010Prop44ColorRGB
 90
      255
102
RTVSPost2010PropOp44
 70
     0
102
RTVSPost2010Prop45
280
     0
102
RTVSPost2010PropOp45
 70
     1
102
RTVSPost2010Prop46
 90
       50
102
RTVSPost2010PropOp46
 70
     0
102
RTVSPost2010Prop47
 90
       50
102
RTVSPost2010PropOp47
 70
     0
102
RTVSPost2010Prop48
 90
       50
102
RTVSPost2010PropOp48
 70
     0
102
RTVSPost2010Prop49
280
     0
102
RTVSPost2010PropOp49
 70
     1
102
RTVSPost2010Prop50
 90
       50
102
RTVSPost2010PropOp50
 70
     0
102
RTVSPost2010Prop51ColorIndex
 90
      256
102
RTVSPost2010Prop51ColorRGB
 90
-16777216
102
RTVSPost2010PropOp51
 70
     0
102
RTVSPost2010Prop52
140
1.0
102
RTVSPost2010PropOp52
 70
     0
102
RTVSPost2010Prop53
 90
        2
102
RTVSPost2010PropOp53
 70
     0
102
RTVSPost2010Prop54
  1
strokes_ogs.tif
102
RTVSPost2010PropOp54
 70
     0
102
RTVSPost2010Prop55
280
     0
102
RTVSPost2010PropOp55
 70
     1
102
RTVSPost2010Prop56
140
1.0
102
RTVSPost2010PropOp56
 70
     0
102
RTVSPost2010Prop57
140
1.0
102
RTVSPost2010PropOp57
 70
     0
102
RTVSPropertyOp0
 70
     0
102
RTVSPropertyOp1
 70
     0
102
RTVSPropertyOp2
 70
     0
102
RTVSPropertyOp3
 70
     0
102
RTVSPropertyOp4
 70
     0
102
RTVSPropertyOp5
 70
     0
102
RTVSPropertyOp6
 70
     0
102
RTVSPropertyOp7
 70
     0
102
RTVSPropertyOp8
 70
     0
102
RTVSPropertyOp9
 70
     0
102
RTVSPropertyOp10
 70
     0
102
RTVSPropertyOp11
 70
     0
102
RTVSPropertyOp12
 70
     0
102
RTVSPropertyOp13
 70
     0
102
RTVSPropertyOp14
 70
     2
102
RTVSPropertyOp15
 70
     0
102
RTVSPropertyOp16
 70
     0
102
RTVSPropertyOp17
 70
     0
102
RTVSPropertyOp18
 70
     0
102
RTVSPropertyOp19
 70
     0
102
RTVSPropertyOp20
 70
     0
102
RTVSPropertyOp21
 70
     0
102
RTVSPropertyOp22
 70
     0
102
RTVSPropertyOp23
 70
     0
102
RTVSPropertyOp24
 70
     0
102
RTVSPropertyOp25
 70
     0
102
RTVSPropertyOp26
 70
     0
102
RTVSPropertyOp27
 70
     0
102
RTVSPropertyOp28
 70
     1
102
RTVSPropertyOp29
 70
     1
102
RTVSPropertyOp30
 70
     1
102
RTVSPropertyOp31
 70
     1
102
RTVSPropertyOp32
 70
     1
102
RTVSPropertyOp33
 70
     1
102
RTVSPropertyOp34
 70
     1
102
RTVSPropertyOp35
 70
     1
102
RTVSPropertyOp36
 70
     1
102
RTVSPropertyOp37
 70
     0
102
RTVSPropertyOp38
 70
     0
102
RTVSPropertyOp39
 70
     0
102
RTVSPropertyOp40
 70
     0
102
RTVSPropertyOp41
 70
     0
102
RTVSPropertyOp42
 70
     0
102
RTVSPropertyOp43
 70
     0
102
RTVSPropertyOp44
 70
     0
102
RTVSPropertyOp45
 70
     1
102
RTVSPropertyOp46
 70
     0
102
RTVSPropertyOp47
 70
     0
102
RTVSPropertyOp48
 70
     0
102
RTVSPropertyOp49
 70
     1
102
RTVSPropertyOp50
 70
     0
102
RTVSPropertyOp51
 70
     0
102
RTVSPropertyOp52
 70
     0
102
RTVSPropertyOp53
 70
     0
102
RTVSPropertyOp54
 70
     0
102
RTVSPropertyOp55
 70
     1
102
RTVSPropertyOp56
 70
     0
102
RTVSPropertyOp57
 70
     0
102
RTVSPropertyOp58
 70
     0
102
RTVSPropertyOp59
 70
     0
102
RTVSPropertyOp60
 70
     0
102
RTVSPropertyOp61
 70
     0
102
RTVSPropertyOp62
 70
     0
  0
XRECORD
  5
D02F
102
{ACAD_REACTORS
330
D02E
102
}
330
D02E
100
AcDbXrecord
280
     1
102
RTVSPost2010Prop28
280
     0
102
RTVSPost2010PropOp28
 70
     1
102
RTVSPost2010Prop29
280
     1
102
RTVSPost2010PropOp29
 70
     1
102
RTVSPost2010Prop30
280
     1
102
RTVSPost2010PropOp30
 70
     1
102
RTVSPost2010Prop31
280
     0
102
RTVSPost2010PropOp31
 70
     1
102
RTVSPost2010Prop32
280
     0
102
RTVSPost2010PropOp32
 70
     1
102
RTVSPost2010Prop33
280
     0
102
RTVSPost2010PropOp33
 70
     1
102
RTVSPost2010Prop34
280
     0
102
RTVSPost2010PropOp34
 70
     1
102
RTVSPost2010Prop35
280
     0
102
RTVSPost2010PropOp35
 70
     1
102
RTVSPost2010Prop36
280
     0
102
RTVSPost2010PropOp36
 70
     1
102
RTVSPost2010Prop37
 90
       50
102
RTVSPost2010PropOp37
 70
     1
102
RTVSPost2010Prop38
140
0.0
102
RTVSPost2010PropOp38
 70
     1
102
RTVSPost2010Prop39
140
1.0
102
RTVSPost2010PropOp39
 70
     1
102
RTVSPost2010Prop40
 90
        0
102
RTVSPost2010PropOp40
 70
     1
102
RTVSPost2010Prop41ColorIndex
 90
       18
102
RTVSPost2010Prop41ColorRGB
 90
        0
102
RTVSPost2010PropOp41
 70
     1
102
RTVSPost2010Prop42
 90
       50
102
RTVSPost2010PropOp42
 70
     1
102
RTVSPost2010Prop43
 90
        3
102
RTVSPost2010PropOp43
 70
     1
102
RTVSPost2010Prop44ColorIndex
 90
        5
102
RTVSPost2010Prop44ColorRGB
 90
      255
102
RTVSPost2010PropOp44
 70
     1
102
RTVSPost2010Prop45
280
     0
102
RTVSPost2010PropOp45
 70
     1
102
RTVSPost2010Prop46
 90
       50
102
RTVSPost2010PropOp46
 70
     1
102
RTVSPost2010Prop47
 90
       50
102
RTVSPost2010PropOp47
 70
     1
102
RTVSPost2010Prop48
 90
       50
102
RTVSPost2010PropOp48
 70
     1
102
RTVSPost2010Prop49
280
     0
102
RTVSPost2010PropOp49
 70
     1
102
RTVSPost2010Prop50
 90
       50
102
RTVSPost2010PropOp50
 70
     1
102
RTVSPost2010Prop51ColorIndex
 90
      256
102
RTVSPost2010Prop51ColorRGB
 90
-16777216
102
RTVSPost2010PropOp51
 70
     0
102
RTVSPost2010Prop52
140
1.0
102
RTVSPost2010PropOp52
 70
     0
102
RTVSPost2010Prop53
 90
        2
102
RTVSPost2010PropOp53
 70
     1
102
RTVSPost2010Prop54
  1
strokes_ogs.tif
102
RTVSPost2010PropOp54
 70
     1
102
RTVSPost2010Prop55
280
     0
102
RTVSPost2010PropOp55
 70
     1
102
RTVSPost2010Prop56
140
1.0
102
RTVSPost2010PropOp56
 70
     1
102
RTVSPost2010Prop57
140
1.0
102
RTVSPost2010PropOp57
 70
     1
102
RTVSPropertyOp0
 70
     1
102
RTVSPropertyOp1
 70
     1
102
RTVSPropertyOp2
 70
     1
102
RTVSPropertyOp3
 70
     1
102
RTVSPropertyOp4
 70
     1
102
RTVSPropertyOp5
 70
     1
102
RTVSPropertyOp6
 70
     1
102
RTVSPropertyOp7
 70
     1
102
RTVSPropertyOp8
 70
     1
102
RTVSPropertyOp9
 70
     1
102
RTVSPropertyOp10
 70
     1
102
RTVSPropertyOp11
 70
     1
102
RTVSPropertyOp12
 70
     1
102
RTVSPropertyOp13
 70
     1
102
RTVSPropertyOp14
 70
     1
102
RTVSPropertyOp15
 70
     1
102
RTVSPropertyOp16
 70
     1
102
RTVSPropertyOp17
 70
     1
102
RTVSPropertyOp18
 70
     1
102
RTVSPropertyOp19
 70
     1
102
RTVSPropertyOp20
 70
     1
102
RTVSPropertyOp21
 70
     1
102
RTVSPropertyOp22
 70
     1
102
RTVSPropertyOp23
 70
     1
102
RTVSPropertyOp24
 70
     1
102
RTVSPropertyOp25
 70
     1
102
RTVSPropertyOp26
 70
     1
102
RTVSPropertyOp27
 70
     1
102
RTVSPropertyOp28
 70
     1
102
RTVSPropertyOp29
 70
     1
102
RTVSPropertyOp30
 70
     1
102
RTVSPropertyOp31
 70
     1
102
RTVSPropertyOp32
 70
     1
102
RTVSPropertyOp33
 70
     1
102
RTVSPropertyOp34
 70
     1
102
RTVSPropertyOp35
 70
     1
102
RTVSPropertyOp36
 70
     1
102
RTVSPropertyOp37
 70
     1
102
RTVSPropertyOp38
 70
     1
102
RTVSPropertyOp39
 70
     1
102
RTVSPropertyOp40
 70
     1
102
RTVSPropertyOp41
 70
     1
102
RTVSPropertyOp42
 70
     1
102
RTVSPropertyOp43
 70
     1
102
RTVSPropertyOp44
 70
     1
102
RTVSPropertyOp45
 70
     1
102
RTVSPropertyOp46
 70
     1
102
RTVSPropertyOp47
 70
     1
102
RTVSPropertyOp48
 70
     1
102
RTVSPropertyOp49
 70
     1
102
RTVSPropertyOp50
 70
     1
102
RTVSPropertyOp51
 70
     0
102
RTVSPropertyOp52
 70
     0
102
RTVSPropertyOp53
 70
     1
102
RTVSPropertyOp54
 70
     1
102
RTVSPropertyOp55
 70
     1
102
RTVSPropertyOp56
 70
     1
102
RTVSPropertyOp57
 70
     1
102
RTVSPropertyOp58
 70
     1
102
RTVSPropertyOp59
 70
     1
102
RTVSPropertyOp60
 70
     1
102
RTVSPropertyOp61
 70
     1
102
RTVSPropertyOp62
 70
     1
  0
XRECORD
  5
D013
102
{ACAD_REACTORS
330
D012
102
}
330
D012
100
AcDbXrecord
280
     1
102
RTVSPost2010Prop28
280
     0
102
RTVSPost2010PropOp28
 70
     1
102
RTVSPost2010Prop29
280
     1
102
RTVSPost2010PropOp29
 70
     1
102
RTVSPost2010Prop30
280
     1
102
RTVSPost2010PropOp30
 70
     1
102
RTVSPost2010Prop31
280
     0
102
RTVSPost2010PropOp31
 70
     1
102
RTVSPost2010Prop32
280
     0
102
RTVSPost2010PropOp32
 70
     1
102
RTVSPost2010Prop33
280
     0
102
RTVSPost2010PropOp33
 70
     1
102
RTVSPost2010Prop34
280
     0
102
RTVSPost2010PropOp34
 70
     1
102
RTVSPost2010Prop35
280
     0
102
RTVSPost2010PropOp35
 70
     1
102
RTVSPost2010Prop36
280
     0
102
RTVSPost2010PropOp36
 70
     1
102
RTVSPost2010Prop37
 90
       50
102
RTVSPost2010PropOp37
 70
     1
102
RTVSPost2010Prop38
140
0.0
102
RTVSPost2010PropOp38
 70
     1
102
RTVSPost2010Prop39
140
1.0
102
RTVSPost2010PropOp39
 70
     1
102
RTVSPost2010Prop40
 90
        0
102
RTVSPost2010PropOp40
 70
     1
102
RTVSPost2010Prop41ColorIndex
 90
       18
102
RTVSPost2010Prop41ColorRGB
 90
        0
102
RTVSPost2010PropOp41
 70
     1
102
RTVSPost2010Prop42
 90
       50
102
RTVSPost2010PropOp42
 70
     1
102
RTVSPost2010Prop43
 90
        3
102
RTVSPost2010PropOp43
 70
     1
102
RTVSPost2010Prop44ColorIndex
 90
        5
102
RTVSPost2010Prop44ColorRGB
 90
      255
102
RTVSPost2010PropOp44
 70
     1
102
RTVSPost2010Prop45
280
     0
102
RTVSPost2010PropOp45
 70
     1
102
RTVSPost2010Prop46
 90
       50
102
RTVSPost2010PropOp46
 70
     1
102
RTVSPost2010Prop47
 90
       50
102
RTVSPost2010PropOp47
 70
     1
102
RTVSPost2010Prop48
 90
       50
102
RTVSPost2010PropOp48
 70
     1
102
RTVSPost2010Prop49
280
     0
102
RTVSPost2010PropOp49
 70
     1
102
RTVSPost2010Prop50
 90
       50
102
RTVSPost2010PropOp50
 70
     1
102
RTVSPost2010Prop51ColorIndex
 90
      256
102
RTVSPost2010Prop51ColorRGB
 90
-16777216
102
RTVSPost2010PropOp51
 70
     0
102
RTVSPost2010Prop52
140
1.0
102
RTVSPost2010PropOp52
 70
     0
102
RTVSPost2010Prop53
 90
        2
102
RTVSPost2010PropOp53
 70
     1
102
RTVSPost2010Prop54
  1
strokes_ogs.tif
102
RTVSPost2010PropOp54
 70
     1
102
RTVSPost2010Prop55
280
     0
102
RTVSPost2010PropOp55
 70
     1
102
RTVSPost2010Prop56
140
1.0
102
RTVSPost2010PropOp56
 70
     1
102
RTVSPost2010Prop57
140
1.0
102
RTVSPost2010PropOp57
 70
     1
102
RTVSPropertyOp0
 70
     1
102
RTVSPropertyOp1
 70
     1
102
RTVSPropertyOp2
 70
     1
102
RTVSPropertyOp3
 70
     1
102
RTVSPropertyOp4
 70
     1
102
RTVSPropertyOp5
 70
     1
102
RTVSPropertyOp6
 70
     1
102
RTVSPropertyOp7
 70
     1
102
RTVSPropertyOp8
 70
     1
102
RTVSPropertyOp9
 70
     1
102
RTVSPropertyOp10
 70
     1
102
RTVSPropertyOp11
 70
     1
102
RTVSPropertyOp12
 70
     1
102
RTVSPropertyOp13
 70
     1
102
RTVSPropertyOp14
 70
     1
102
RTVSPropertyOp15
 70
     1
102
RTVSPropertyOp16
 70
     1
102
RTVSPropertyOp17
 70
     1
102
RTVSPropertyOp18
 70
     1
102
RTVSPropertyOp19
 70
     1
102
RTVSPropertyOp20
 70
     1
102
RTVSPropertyOp21
 70
     1
102
RTVSPropertyOp22
 70
     1
102
RTVSPropertyOp23
 70
     1
102
RTVSPropertyOp24
 70
     1
102
RTVSPropertyOp25
 70
     1
102
RTVSPropertyOp26
 70
     1
102
RTVSPropertyOp27
 70
     1
102
RTVSPropertyOp28
 70
     1
102
RTVSPropertyOp29
 70
     1
102
RTVSPropertyOp30
 70
     1
102
RTVSPropertyOp31
 70
     1
102
RTVSPropertyOp32
 70
     1
102
RTVSPropertyOp33
 70
     1
102
RTVSPropertyOp34
 70
     1
102
RTVSPropertyOp35
 70
     1
102
RTVSPropertyOp36
 70
     1
102
RTVSPropertyOp37
 70
     1
102
RTVSPropertyOp38
 70
     1
102
RTVSPropertyOp39
 70
     1
102
RTVSPropertyOp40
 70
     1
102
RTVSPropertyOp41
 70
     1
102
RTVSPropertyOp42
 70
     1
102
RTVSPropertyOp43
 70
     1
102
RTVSPropertyOp44
 70
     1
102
RTVSPropertyOp45
 70
     1
102
RTVSPropertyOp46
 70
     1
102
RTVSPropertyOp47
 70
     1
102
RTVSPropertyOp48
 70
     1
102
RTVSPropertyOp49
 70
     1
102
RTVSPropertyOp50
 70
     1
102
RTVSPropertyOp51
 70
     0
102
RTVSPropertyOp52
 70
     0
102
RTVSPropertyOp53
 70
     1
102
RTVSPropertyOp54
 70
     1
102
RTVSPropertyOp55
 70
     1
102
RTVSPropertyOp56
 70
     1
102
RTVSPropertyOp57
 70
     1
102
RTVSPropertyOp58
 70
     1
102
RTVSPropertyOp59
 70
     1
102
RTVSPropertyOp60
 70
     1
102
RTVSPropertyOp61
 70
     1
102
RTVSPropertyOp62
 70
     1
  0
XRECORD
  5
D015
102
{ACAD_REACTORS
330
D014
102
}
330
D014
100
AcDbXrecord
280
     1
102
RTVSPost2010Prop28
280
     0
102
RTVSPost2010PropOp28
 70
     1
102
RTVSPost2010Prop29
280
     1
102
RTVSPost2010PropOp29
 70
     1
102
RTVSPost2010Prop30
280
     1
102
RTVSPost2010PropOp30
 70
     1
102
RTVSPost2010Prop31
280
     0
102
RTVSPost2010PropOp31
 70
     1
102
RTVSPost2010Prop32
280
     0
102
RTVSPost2010PropOp32
 70
     1
102
RTVSPost2010Prop33
280
     0
102
RTVSPost2010PropOp33
 70
     1
102
RTVSPost2010Prop34
280
     0
102
RTVSPost2010PropOp34
 70
     1
102
RTVSPost2010Prop35
280
     0
102
RTVSPost2010PropOp35
 70
     1
102
RTVSPost2010Prop36
280
     0
102
RTVSPost2010PropOp36
 70
     1
102
RTVSPost2010Prop37
 90
       50
102
RTVSPost2010PropOp37
 70
     1
102
RTVSPost2010Prop38
140
0.0
102
RTVSPost2010PropOp38
 70
     1
102
RTVSPost2010Prop39
140
1.0
102
RTVSPost2010PropOp39
 70
     1
102
RTVSPost2010Prop40
 90
        0
102
RTVSPost2010PropOp40
 70
     1
102
RTVSPost2010Prop41ColorIndex
 90
       18
102
RTVSPost2010Prop41ColorRGB
 90
        0
102
RTVSPost2010PropOp41
 70
     1
102
RTVSPost2010Prop42
 90
       50
102
RTVSPost2010PropOp42
 70
     1
102
RTVSPost2010Prop43
 90
        3
102
RTVSPost2010PropOp43
 70
     1
102
RTVSPost2010Prop44ColorIndex
 90
        5
102
RTVSPost2010Prop44ColorRGB
 90
      255
102
RTVSPost2010PropOp44
 70
     1
102
RTVSPost2010Prop45
280
     0
102
RTVSPost2010PropOp45
 70
     1
102
RTVSPost2010Prop46
 90
       50
102
RTVSPost2010PropOp46
 70
     1
102
RTVSPost2010Prop47
 90
       50
102
RTVSPost2010PropOp47
 70
     1
102
RTVSPost2010Prop48
 90
       50
102
RTVSPost2010PropOp48
 70
     1
102
RTVSPost2010Prop49
280
     0
102
RTVSPost2010PropOp49
 70
     1
102
RTVSPost2010Prop50
 90
       50
102
RTVSPost2010PropOp50
 70
     1
102
RTVSPost2010Prop51ColorIndex
 90
      256
102
RTVSPost2010Prop51ColorRGB
 90
-16777216
102
RTVSPost2010PropOp51
 70
     0
102
RTVSPost2010Prop52
140
1.0
102
RTVSPost2010PropOp52
 70
     0
102
RTVSPost2010Prop53
 90
        2
102
RTVSPost2010PropOp53
 70
     1
102
RTVSPost2010Prop54
  1
strokes_ogs.tif
102
RTVSPost2010PropOp54
 70
     1
102
RTVSPost2010Prop55
280
     0
102
RTVSPost2010PropOp55
 70
     1
102
RTVSPost2010Prop56
140
1.0
102
RTVSPost2010PropOp56
 70
     1
102
RTVSPost2010Prop57
140
1.0
102
RTVSPost2010PropOp57
 70
     1
102
RTVSPropertyOp0
 70
     1
102
RTVSPropertyOp1
 70
     1
102
RTVSPropertyOp2
 70
     1
102
RTVSPropertyOp3
 70
     1
102
RTVSPropertyOp4
 70
     1
102
RTVSPropertyOp5
 70
     1
102
RTVSPropertyOp6
 70
     1
102
RTVSPropertyOp7
 70
     1
102
RTVSPropertyOp8
 70
     1
102
RTVSPropertyOp9
 70
     1
102
RTVSPropertyOp10
 70
     1
102
RTVSPropertyOp11
 70
     1
102
RTVSPropertyOp12
 70
     1
102
RTVSPropertyOp13
 70
     1
102
RTVSPropertyOp14
 70
     1
102
RTVSPropertyOp15
 70
     1
102
RTVSPropertyOp16
 70
     1
102
RTVSPropertyOp17
 70
     1
102
RTVSPropertyOp18
 70
     1
102
RTVSPropertyOp19
 70
     1
102
RTVSPropertyOp20
 70
     1
102
RTVSPropertyOp21
 70
     1
102
RTVSPropertyOp22
 70
     1
102
RTVSPropertyOp23
 70
     1
102
RTVSPropertyOp24
 70
     1
102
RTVSPropertyOp25
 70
     1
102
RTVSPropertyOp26
 70
     1
102
RTVSPropertyOp27
 70
     1
102
RTVSPropertyOp28
 70
     1
102
RTVSPropertyOp29
 70
     1
102
RTVSPropertyOp30
 70
     1
102
RTVSPropertyOp31
 70
     1
102
RTVSPropertyOp32
 70
     1
102
RTVSPropertyOp33
 70
     1
102
RTVSPropertyOp34
 70
     1
102
RTVSPropertyOp35
 70
     1
102
RTVSPropertyOp36
 70
     1
102
RTVSPropertyOp37
 70
     1
102
RTVSPropertyOp38
 70
     1
102
RTVSPropertyOp39
 70
     1
102
RTVSPropertyOp40
 70
     1
102
RTVSPropertyOp41
 70
     1
102
RTVSPropertyOp42
 70
     1
102
RTVSPropertyOp43
 70
     1
102
RTVSPropertyOp44
 70
     1
102
RTVSPropertyOp45
 70
     1
102
RTVSPropertyOp46
 70
     1
102
RTVSPropertyOp47
 70
     1
102
RTVSPropertyOp48
 70
     1
102
RTVSPropertyOp49
 70
     1
102
RTVSPropertyOp50
 70
     1
102
RTVSPropertyOp51
 70
     0
102
RTVSPropertyOp52
 70
     0
102
RTVSPropertyOp53
 70
     1
102
RTVSPropertyOp54
 70
     1
102
RTVSPropertyOp55
 70
     1
102
RTVSPropertyOp56
 70
     1
102
RTVSPropertyOp57
 70
     1
102
RTVSPropertyOp58
 70
     1
102
RTVSPropertyOp59
 70
     1
102
RTVSPropertyOp60
 70
     1
102
RTVSPropertyOp61
 70
     1
102
RTVSPropertyOp62
 70
     1
  0
XRECORD
  5
D017
102
{ACAD_REACTORS
330
D016
102
}
330
D016
100
AcDbXrecord
280
     1
102
RTVSPost2010Prop28
280
     0
102
RTVSPost2010PropOp28
 70
     1
102
RTVSPost2010Prop29
280
     1
102
RTVSPost2010PropOp29
 70
     1
102
RTVSPost2010Prop30
280
     1
102
RTVSPost2010PropOp30
 70
     1
102
RTVSPost2010Prop31
280
     0
102
RTVSPost2010PropOp31
 70
     1
102
RTVSPost2010Prop32
280
     0
102
RTVSPost2010PropOp32
 70
     1
102
RTVSPost2010Prop33
280
     0
102
RTVSPost2010PropOp33
 70
     1
102
RTVSPost2010Prop34
280
     0
102
RTVSPost2010PropOp34
 70
     1
102
RTVSPost2010Prop35
280
     0
102
RTVSPost2010PropOp35
 70
     1
102
RTVSPost2010Prop36
280
     0
102
RTVSPost2010PropOp36
 70
     1
102
RTVSPost2010Prop37
 90
       50
102
RTVSPost2010PropOp37
 70
     1
102
RTVSPost2010Prop38
140
0.0
102
RTVSPost2010PropOp38
 70
     1
102
RTVSPost2010Prop39
140
1.0
102
RTVSPost2010PropOp39
 70
     1
102
RTVSPost2010Prop40
 90
        0
102
RTVSPost2010PropOp40
 70
     1
102
RTVSPost2010Prop41ColorIndex
 90
       18
102
RTVSPost2010Prop41ColorRGB
 90
        0
102
RTVSPost2010PropOp41
 70
     1
102
RTVSPost2010Prop42
 90
       50
102
RTVSPost2010PropOp42
 70
     1
102
RTVSPost2010Prop43
 90
        3
102
RTVSPost2010PropOp43
 70
     1
102
RTVSPost2010Prop44ColorIndex
 90
        5
102
RTVSPost2010Prop44ColorRGB
 90
      255
102
RTVSPost2010PropOp44
 70
     1
102
RTVSPost2010Prop45
280
     0
102
RTVSPost2010PropOp45
 70
     1
102
RTVSPost2010Prop46
 90
       50
102
RTVSPost2010PropOp46
 70
     1
102
RTVSPost2010Prop47
 90
       50
102
RTVSPost2010PropOp47
 70
     1
102
RTVSPost2010Prop48
 90
       50
102
RTVSPost2010PropOp48
 70
     1
102
RTVSPost2010Prop49
280
     0
102
RTVSPost2010PropOp49
 70
     1
102
RTVSPost2010Prop50
 90
       50
102
RTVSPost2010PropOp50
 70
     1
102
RTVSPost2010Prop51ColorIndex
 90
      256
102
RTVSPost2010Prop51ColorRGB
 90
-16777216
102
RTVSPost2010PropOp51
 70
     0
102
RTVSPost2010Prop52
140
1.0
102
RTVSPost2010PropOp52
 70
     0
102
RTVSPost2010Prop53
 90
        2
102
RTVSPost2010PropOp53
 70
     1
102
RTVSPost2010Prop54
  1
strokes_ogs.tif
102
RTVSPost2010PropOp54
 70
     1
102
RTVSPost2010Prop55
280
     0
102
RTVSPost2010PropOp55
 70
     1
102
RTVSPost2010Prop56
140
1.0
102
RTVSPost2010PropOp56
 70
     1
102
RTVSPost2010Prop57
140
1.0
102
RTVSPost2010PropOp57
 70
     1
102
RTVSPropertyOp0
 70
     1
102
RTVSPropertyOp1
 70
     1
102
RTVSPropertyOp2
 70
     1
102
RTVSPropertyOp3
 70
     1
102
RTVSPropertyOp4
 70
     1
102
RTVSPropertyOp5
 70
     1
102
RTVSPropertyOp6
 70
     1
102
RTVSPropertyOp7
 70
     1
102
RTVSPropertyOp8
 70
     1
102
RTVSPropertyOp9
 70
     1
102
RTVSPropertyOp10
 70
     1
102
RTVSPropertyOp11
 70
     1
102
RTVSPropertyOp12
 70
     1
102
RTVSPropertyOp13
 70
     1
102
RTVSPropertyOp14
 70
     1
102
RTVSPropertyOp15
 70
     1
102
RTVSPropertyOp16
 70
     1
102
RTVSPropertyOp17
 70
     1
102
RTVSPropertyOp18
 70
     1
102
RTVSPropertyOp19
 70
     1
102
RTVSPropertyOp20
 70
     1
102
RTVSPropertyOp21
 70
     1
102
RTVSPropertyOp22
 70
     1
102
RTVSPropertyOp23
 70
     1
102
RTVSPropertyOp24
 70
     1
102
RTVSPropertyOp25
 70
     1
102
RTVSPropertyOp26
 70
     1
102
RTVSPropertyOp27
 70
     1
102
RTVSPropertyOp28
 70
     1
102
RTVSPropertyOp29
 70
     1
102
RTVSPropertyOp30
 70
     1
102
RTVSPropertyOp31
 70
     1
102
RTVSPropertyOp32
 70
     1
102
RTVSPropertyOp33
 70
     1
102
RTVSPropertyOp34
 70
     1
102
RTVSPropertyOp35
 70
     1
102
RTVSPropertyOp36
 70
     1
102
RTVSPropertyOp37
 70
     1
102
RTVSPropertyOp38
 70
     1
102
RTVSPropertyOp39
 70
     1
102
RTVSPropertyOp40
 70
     1
102
RTVSPropertyOp41
 70
     1
102
RTVSPropertyOp42
 70
     1
102
RTVSPropertyOp43
 70
     1
102
RTVSPropertyOp44
 70
     1
102
RTVSPropertyOp45
 70
     1
102
RTVSPropertyOp46
 70
     1
102
RTVSPropertyOp47
 70
     1
102
RTVSPropertyOp48
 70
     1
102
RTVSPropertyOp49
 70
     1
102
RTVSPropertyOp50
 70
     1
102
RTVSPropertyOp51
 70
     0
102
RTVSPropertyOp52
 70
     0
102
RTVSPropertyOp53
 70
     1
102
RTVSPropertyOp54
 70
     1
102
RTVSPropertyOp55
 70
     1
102
RTVSPropertyOp56
 70
     1
102
RTVSPropertyOp57
 70
     1
102
RTVSPropertyOp58
 70
     1
102
RTVSPropertyOp59
 70
     1
102
RTVSPropertyOp60
 70
     1
102
RTVSPropertyOp61
 70
     1
102
RTVSPropertyOp62
 70
     1
  0
XRECORD
  5
D019
102
{ACAD_REACTORS
330
D018
102
}
330
D018
100
AcDbXrecord
280
     1
102
RTVSPost2010Prop28
280
     0
102
RTVSPost2010PropOp28
 70
     1
102
RTVSPost2010Prop29
280
     1
102
RTVSPost2010PropOp29
 70
     1
102
RTVSPost2010Prop30
280
     1
102
RTVSPost2010PropOp30
 70
     1
102
RTVSPost2010Prop31
280
     0
102
RTVSPost2010PropOp31
 70
     1
102
RTVSPost2010Prop32
280
     0
102
RTVSPost2010PropOp32
 70
     1
102
RTVSPost2010Prop33
280
     0
102
RTVSPost2010PropOp33
 70
     1
102
RTVSPost2010Prop34
280
     0
102
RTVSPost2010PropOp34
 70
     1
102
RTVSPost2010Prop35
280
     0
102
RTVSPost2010PropOp35
 70
     1
102
RTVSPost2010Prop36
280
     0
102
RTVSPost2010PropOp36
 70
     1
102
RTVSPost2010Prop37
 90
       50
102
RTVSPost2010PropOp37
 70
     1
102
RTVSPost2010Prop38
140
0.0
102
RTVSPost2010PropOp38
 70
     1
102
RTVSPost2010Prop39
140
1.0
102
RTVSPost2010PropOp39
 70
     1
102
RTVSPost2010Prop40
 90
        0
102
RTVSPost2010PropOp40
 70
     1
102
RTVSPost2010Prop41ColorIndex
 90
       18
102
RTVSPost2010Prop41ColorRGB
 90
        0
102
RTVSPost2010PropOp41
 70
     1
102
RTVSPost2010Prop42
 90
       50
102
RTVSPost2010PropOp42
 70
     1
102
RTVSPost2010Prop43
 90
        3
102
RTVSPost2010PropOp43
 70
     1
102
RTVSPost2010Prop44ColorIndex
 90
        5
102
RTVSPost2010Prop44ColorRGB
 90
      255
102
RTVSPost2010PropOp44
 70
     1
102
RTVSPost2010Prop45
280
     0
102
RTVSPost2010PropOp45
 70
     1
102
RTVSPost2010Prop46
 90
       50
102
RTVSPost2010PropOp46
 70
     1
102
RTVSPost2010Prop47
 90
       50
102
RTVSPost2010PropOp47
 70
     1
102
RTVSPost2010Prop48
 90
       50
102
RTVSPost2010PropOp48
 70
     1
102
RTVSPost2010Prop49
280
     0
102
RTVSPost2010PropOp49
 70
     1
102
RTVSPost2010Prop50
 90
       50
102
RTVSPost2010PropOp50
 70
     1
102
RTVSPost2010Prop51ColorIndex
 90
      256
102
RTVSPost2010Prop51ColorRGB
 90
-16777216
102
RTVSPost2010PropOp51
 70
     0
102
RTVSPost2010Prop52
140
1.0
102
RTVSPost2010PropOp52
 70
     0
102
RTVSPost2010Prop53
 90
        2
102
RTVSPost2010PropOp53
 70
     1
102
RTVSPost2010Prop54
  1
strokes_ogs.tif
102
RTVSPost2010PropOp54
 70
     1
102
RTVSPost2010Prop55
280
     0
102
RTVSPost2010PropOp55
 70
     1
102
RTVSPost2010Prop56
140
1.0
102
RTVSPost2010PropOp56
 70
     1
102
RTVSPost2010Prop57
140
1.0
102
RTVSPost2010PropOp57
 70
     1
102
RTVSPropertyOp0
 70
     1
102
RTVSPropertyOp1
 70
     1
102
RTVSPropertyOp2
 70
     1
102
RTVSPropertyOp3
 70
     1
102
RTVSPropertyOp4
 70
     1
102
RTVSPropertyOp5
 70
     1
102
RTVSPropertyOp6
 70
     1
102
RTVSPropertyOp7
 70
     1
102
RTVSPropertyOp8
 70
     1
102
RTVSPropertyOp9
 70
     1
102
RTVSPropertyOp10
 70
     1
102
RTVSPropertyOp11
 70
     1
102
RTVSPropertyOp12
 70
     1
102
RTVSPropertyOp13
 70
     1
102
RTVSPropertyOp14
 70
     1
102
RTVSPropertyOp15
 70
     1
102
RTVSPropertyOp16
 70
     1
102
RTVSPropertyOp17
 70
     1
102
RTVSPropertyOp18
 70
     1
102
RTVSPropertyOp19
 70
     1
102
RTVSPropertyOp20
 70
     1
102
RTVSPropertyOp21
 70
     1
102
RTVSPropertyOp22
 70
     1
102
RTVSPropertyOp23
 70
     1
102
RTVSPropertyOp24
 70
     1
102
RTVSPropertyOp25
 70
     1
102
RTVSPropertyOp26
 70
     1
102
RTVSPropertyOp27
 70
     1
102
RTVSPropertyOp28
 70
     1
102
RTVSPropertyOp29
 70
     1
102
RTVSPropertyOp30
 70
     1
102
RTVSPropertyOp31
 70
     1
102
RTVSPropertyOp32
 70
     1
102
RTVSPropertyOp33
 70
     1
102
RTVSPropertyOp34
 70
     1
102
RTVSPropertyOp35
 70
     1
102
RTVSPropertyOp36
 70
     1
102
RTVSPropertyOp37
 70
     1
102
RTVSPropertyOp38
 70
     1
102
RTVSPropertyOp39
 70
     1
102
RTVSPropertyOp40
 70
     1
102
RTVSPropertyOp41
 70
     1
102
RTVSPropertyOp42
 70
     1
102
RTVSPropertyOp43
 70
     1
102
RTVSPropertyOp44
 70
     1
102
RTVSPropertyOp45
 70
     1
102
RTVSPropertyOp46
 70
     1
102
RTVSPropertyOp47
 70
     1
102
RTVSPropertyOp48
 70
     1
102
RTVSPropertyOp49
 70
     1
102
RTVSPropertyOp50
 70
     1
102
RTVSPropertyOp51
 70
     0
102
RTVSPropertyOp52
 70
     0
102
RTVSPropertyOp53
 70
     1
102
RTVSPropertyOp54
 70
     1
102
RTVSPropertyOp55
 70
     1
102
RTVSPropertyOp56
 70
     1
102
RTVSPropertyOp57
 70
     1
102
RTVSPropertyOp58
 70
     1
102
RTVSPropertyOp59
 70
     1
102
RTVSPropertyOp60
 70
     1
102
RTVSPropertyOp61
 70
     1
102
RTVSPropertyOp62
 70
     1
  0
XRECORD
  5
D021
102
{ACAD_REACTORS
330
D020
102
}
330
D020
100
AcDbXrecord
280
     1
102
RTVSPost2010Prop28
280
     0
102
RTVSPost2010PropOp28
 70
     1
102
RTVSPost2010Prop29
280
     1
102
RTVSPost2010PropOp29
 70
     1
102
RTVSPost2010Prop30
280
     1
102
RTVSPost2010PropOp30
 70
     1
102
RTVSPost2010Prop31
280
     0
102
RTVSPost2010PropOp31
 70
     1
102
RTVSPost2010Prop32
280
     0
102
RTVSPost2010PropOp32
 70
     1
102
RTVSPost2010Prop33
280
     0
102
RTVSPost2010PropOp33
 70
     1
102
RTVSPost2010Prop34
280
     0
102
RTVSPost2010PropOp34
 70
     1
102
RTVSPost2010Prop35
280
     0
102
RTVSPost2010PropOp35
 70
     1
102
RTVSPost2010Prop36
280
     0
102
RTVSPost2010PropOp36
 70
     1
102
RTVSPost2010Prop37
 90
       50
102
RTVSPost2010PropOp37
 70
     1
102
RTVSPost2010Prop38
140
0.0
102
RTVSPost2010PropOp38
 70
     1
102
RTVSPost2010Prop39
140
1.0
102
RTVSPost2010PropOp39
 70
     1
102
RTVSPost2010Prop40
 90
        0
102
RTVSPost2010PropOp40
 70
     1
102
RTVSPost2010Prop41ColorIndex
 90
       18
102
RTVSPost2010Prop41ColorRGB
 90
        0
102
RTVSPost2010PropOp41
 70
     1
102
RTVSPost2010Prop42
 90
       50
102
RTVSPost2010PropOp42
 70
     1
102
RTVSPost2010Prop43
 90
        3
102
RTVSPost2010PropOp43
 70
     1
102
RTVSPost2010Prop44ColorIndex
 90
        5
102
RTVSPost2010Prop44ColorRGB
 90
      255
102
RTVSPost2010PropOp44
 70
     1
102
RTVSPost2010Prop45
280
     0
102
RTVSPost2010PropOp45
 70
     1
102
RTVSPost2010Prop46
 90
       50
102
RTVSPost2010PropOp46
 70
     1
102
RTVSPost2010Prop47
 90
       50
102
RTVSPost2010PropOp47
 70
     1
102
RTVSPost2010Prop48
 90
       50
102
RTVSPost2010PropOp48
 70
     1
102
RTVSPost2010Prop49
280
     0
102
RTVSPost2010PropOp49
 70
     1
102
RTVSPost2010Prop50
 90
       50
102
RTVSPost2010PropOp50
 70
     1
102
RTVSPost2010Prop51ColorIndex
 90
      256
102
RTVSPost2010Prop51ColorRGB
 90
-16777216
102
RTVSPost2010PropOp51
 70
     0
102
RTVSPost2010Prop52
140
1.0
102
RTVSPost2010PropOp52
 70
     0
102
RTVSPost2010Prop53
 90
        2
102
RTVSPost2010PropOp53
 70
     1
102
RTVSPost2010Prop54
  1
strokes_ogs.tif
102
RTVSPost2010PropOp54
 70
     1
102
RTVSPost2010Prop55
280
     0
102
RTVSPost2010PropOp55
 70
     1
102
RTVSPost2010Prop56
140
1.0
102
RTVSPost2010PropOp56
 70
     1
102
RTVSPost2010Prop57
140
1.0
102
RTVSPost2010PropOp57
 70
     1
102
RTVSPropertyOp0
 70
     1
102
RTVSPropertyOp1
 70
     1
102
RTVSPropertyOp2
 70
     1
102
RTVSPropertyOp3
 70
     1
102
RTVSPropertyOp4
 70
     1
102
RTVSPropertyOp5
 70
     1
102
RTVSPropertyOp6
 70
     1
102
RTVSPropertyOp7
 70
     1
102
RTVSPropertyOp8
 70
     1
102
RTVSPropertyOp9
 70
     1
102
RTVSPropertyOp10
 70
     1
102
RTVSPropertyOp11
 70
     1
102
RTVSPropertyOp12
 70
     1
102
RTVSPropertyOp13
 70
     1
102
RTVSPropertyOp14
 70
     1
102
RTVSPropertyOp15
 70
     1
102
RTVSPropertyOp16
 70
     1
102
RTVSPropertyOp17
 70
     1
102
RTVSPropertyOp18
 70
     1
102
RTVSPropertyOp19
 70
     1
102
RTVSPropertyOp20
 70
     1
102
RTVSPropertyOp21
 70
     1
102
RTVSPropertyOp22
 70
     1
102
RTVSPropertyOp23
 70
     1
102
RTVSPropertyOp24
 70
     1
102
RTVSPropertyOp25
 70
     1
102
RTVSPropertyOp26
 70
     1
102
RTVSPropertyOp27
 70
     1
102
RTVSPropertyOp28
 70
     1
102
RTVSPropertyOp29
 70
     1
102
RTVSPropertyOp30
 70
     1
102
RTVSPropertyOp31
 70
     1
102
RTVSPropertyOp32
 70
     1
102
RTVSPropertyOp33
 70
     1
102
RTVSPropertyOp34
 70
     1
102
RTVSPropertyOp35
 70
     1
102
RTVSPropertyOp36
 70
     1
102
RTVSPropertyOp37
 70
     1
102
RTVSPropertyOp38
 70
     1
102
RTVSPropertyOp39
 70
     1
102
RTVSPropertyOp40
 70
     1
102
RTVSPropertyOp41
 70
     1
102
RTVSPropertyOp42
 70
     1
102
RTVSPropertyOp43
 70
     1
102
RTVSPropertyOp44
 70
     1
102
RTVSPropertyOp45
 70
     1
102
RTVSPropertyOp46
 70
     1
102
RTVSPropertyOp47
 70
     1
102
RTVSPropertyOp48
 70
     1
102
RTVSPropertyOp49
 70
     1
102
RTVSPropertyOp50
 70
     1
102
RTVSPropertyOp51
 70
     0
102
RTVSPropertyOp52
 70
     0
102
RTVSPropertyOp53
 70
     1
102
RTVSPropertyOp54
 70
     1
102
RTVSPropertyOp55
 70
     1
102
RTVSPropertyOp56
 70
     1
102
RTVSPropertyOp57
 70
     1
102
RTVSPropertyOp58
 70
     1
102
RTVSPropertyOp59
 70
     1
102
RTVSPropertyOp60
 70
     1
102
RTVSPropertyOp61
 70
     1
102
RTVSPropertyOp62
 70
     1
  0
XRECORD
  5
D03D
102
{ACAD_REACTORS
330
D03C
102
}
330
D03C
100
AcDbXrecord
280
     1
102
RTVSPost2010Prop28
280
     0
102
RTVSPost2010PropOp28
 70
     1
102
RTVSPost2010Prop29
280
     1
102
RTVSPost2010PropOp29
 70
     1
102
RTVSPost2010Prop30
280
     1
102
RTVSPost2010PropOp30
 70
     1
102
RTVSPost2010Prop31
280
     0
102
RTVSPost2010PropOp31
 70
     1
102
RTVSPost2010Prop32
280
     0
102
RTVSPost2010PropOp32
 70
     1
102
RTVSPost2010Prop33
280
     0
102
RTVSPost2010PropOp33
 70
     1
102
RTVSPost2010Prop34
280
     0
102
RTVSPost2010PropOp34
 70
     1
102
RTVSPost2010Prop35
280
     0
102
RTVSPost2010PropOp35
 70
     1
102
RTVSPost2010Prop36
280
     0
102
RTVSPost2010PropOp36
 70
     1
102
RTVSPost2010Prop37
 90
       50
102
RTVSPost2010PropOp37
 70
     0
102
RTVSPost2010Prop38
140
0.0
102
RTVSPost2010PropOp38
 70
     0
102
RTVSPost2010Prop39
140
1.0
102
RTVSPost2010PropOp39
 70
     0
102
RTVSPost2010Prop40
 90
        0
102
RTVSPost2010PropOp40
 70
     0
102
RTVSPost2010Prop41ColorIndex
 90
       18
102
RTVSPost2010Prop41ColorRGB
 90
        0
102
RTVSPost2010PropOp41
 70
     0
102
RTVSPost2010Prop42
 90
       50
102
RTVSPost2010PropOp42
 70
     0
102
RTVSPost2010Prop43
 90
        3
102
RTVSPost2010PropOp43
 70
     0
102
RTVSPost2010Prop44ColorIndex
 90
        5
102
RTVSPost2010Prop44ColorRGB
 90
      255
102
RTVSPost2010PropOp44
 70
     0
102
RTVSPost2010Prop45
280
     0
102
RTVSPost2010PropOp45
 70
     1
102
RTVSPost2010Prop46
 90
       50
102
RTVSPost2010PropOp46
 70
     0
102
RTVSPost2010Prop47
 90
       50
102
RTVSPost2010PropOp47
 70
     0
102
RTVSPost2010Prop48
 90
       50
102
RTVSPost2010PropOp48
 70
     0
102
RTVSPost2010Prop49
280
     0
102
RTVSPost2010PropOp49
 70
     1
102
RTVSPost2010Prop50
 90
       50
102
RTVSPost2010PropOp50
 70
     0
102
RTVSPost2010Prop51ColorIndex
 90
      256
102
RTVSPost2010Prop51ColorRGB
 90
-16777216
102
RTVSPost2010PropOp51
 70
     0
102
RTVSPost2010Prop52
140
1.0
102
RTVSPost2010PropOp52
 70
     0
102
RTVSPost2010Prop53
 90
        2
102
RTVSPost2010PropOp53
 70
     0
102
RTVSPost2010Prop54
  1
strokes_ogs.tif
102
RTVSPost2010PropOp54
 70
     0
102
RTVSPost2010Prop55
280
     0
102
RTVSPost2010PropOp55
 70
     1
102
RTVSPost2010Prop56
140
1.0
102
RTVSPost2010PropOp56
 70
     0
102
RTVSPost2010Prop57
140
1.0
102
RTVSPost2010PropOp57
 70
     0
102
RTVSPropertyOp0
 70
     0
102
RTVSPropertyOp1
 70
     0
102
RTVSPropertyOp2
 70
     0
102
RTVSPropertyOp3
 70
     0
102
RTVSPropertyOp4
 70
     0
102
RTVSPropertyOp5
 70
     0
102
RTVSPropertyOp6
 70
     0
102
RTVSPropertyOp7
 70
     0
102
RTVSPropertyOp8
 70
     0
102
RTVSPropertyOp9
 70
     0
102
RTVSPropertyOp10
 70
     0
102
RTVSPropertyOp11
 70
     0
102
RTVSPropertyOp12
 70
     0
102
RTVSPropertyOp13
 70
     0
102
RTVSPropertyOp14
 70
     2
102
RTVSPropertyOp15
 70
     0
102
RTVSPropertyOp16
 70
     0
102
RTVSPropertyOp17
 70
     0
102
RTVSPropertyOp18
 70
     0
102
RTVSPropertyOp19
 70
     0
102
RTVSPropertyOp20
 70
     0
102
RTVSPropertyOp21
 70
     0
102
RTVSPropertyOp22
 70
     0
102
RTVSPropertyOp23
 70
     0
102
RTVSPropertyOp24
 70
     0
102
RTVSPropertyOp25
 70
     0
102
RTVSPropertyOp26
 70
     0
102
RTVSPropertyOp27
 70
     0
102
RTVSPropertyOp28
 70
     1
102
RTVSPropertyOp29
 70
     1
102
RTVSPropertyOp30
 70
     1
102
RTVSPropertyOp31
 70
     1
102
RTVSPropertyOp32
 70
     1
102
RTVSPropertyOp33
 70
     1
102
RTVSPropertyOp34
 70
     1
102
RTVSPropertyOp35
 70
     1
102
RTVSPropertyOp36
 70
     1
102
RTVSPropertyOp37
 70
     0
102
RTVSPropertyOp38
 70
     0
102
RTVSPropertyOp39
 70
     0
102
RTVSPropertyOp40
 70
     0
102
RTVSPropertyOp41
 70
     0
102
RTVSPropertyOp42
 70
     0
102
RTVSPropertyOp43
 70
     0
102
RTVSPropertyOp44
 70
     0
102
RTVSPropertyOp45
 70
     1
102
RTVSPropertyOp46
 70
     0
102
RTVSPropertyOp47
 70
     0
102
RTVSPropertyOp48
 70
     0
102
RTVSPropertyOp49
 70
     1
102
RTVSPropertyOp50
 70
     0
102
RTVSPropertyOp51
 70
     0
102
RTVSPropertyOp52
 70
     0
102
RTVSPropertyOp53
 70
     0
102
RTVSPropertyOp54
 70
     0
102
RTVSPropertyOp55
 70
     1
102
RTVSPropertyOp56
 70
     0
102
RTVSPropertyOp57
 70
     0
102
RTVSPropertyOp58
 70
     0
102
RTVSPropertyOp59
 70
     0
102
RTVSPropertyOp60
 70
     0
102
RTVSPropertyOp61
 70
     0
102
RTVSPropertyOp62
 70
     0
  0
XRECORD
  5
D02D
102
{ACAD_REACTORS
330
D02C
102
}
330
D02C
100
AcDbXrecord
280
     1
102
RTVSPost2010Prop28
280
     0
102
RTVSPost2010PropOp28
 70
     1
102
RTVSPost2010Prop29
280
     1
102
RTVSPost2010PropOp29
 70
     1
102
RTVSPost2010Prop30
280
     1
102
RTVSPost2010PropOp30
 70
     1
102
RTVSPost2010Prop31
280
     0
102
RTVSPost2010PropOp31
 70
     1
102
RTVSPost2010Prop32
280
     0
102
RTVSPost2010PropOp32
 70
     1
102
RTVSPost2010Prop33
280
     0
102
RTVSPost2010PropOp33
 70
     1
102
RTVSPost2010Prop34
280
     0
102
RTVSPost2010PropOp34
 70
     1
102
RTVSPost2010Prop35
280
     0
102
RTVSPost2010PropOp35
 70
     1
102
RTVSPost2010Prop36
280
     0
102
RTVSPost2010PropOp36
 70
     1
102
RTVSPost2010Prop37
 90
       50
102
RTVSPost2010PropOp37
 70
     1
102
RTVSPost2010Prop38
140
0.0
102
RTVSPost2010PropOp38
 70
     1
102
RTVSPost2010Prop39
140
1.0
102
RTVSPost2010PropOp39
 70
     1
102
RTVSPost2010Prop40
 90
        0
102
RTVSPost2010PropOp40
 70
     1
102
RTVSPost2010Prop41ColorIndex
 90
       18
102
RTVSPost2010Prop41ColorRGB
 90
        0
102
RTVSPost2010PropOp41
 70
     1
102
RTVSPost2010Prop42
 90
       50
102
RTVSPost2010PropOp42
 70
     1
102
RTVSPost2010Prop43
 90
        3
102
RTVSPost2010PropOp43
 70
     1
102
RTVSPost2010Prop44ColorIndex
 90
        5
102
RTVSPost2010Prop44ColorRGB
 90
      255
102
RTVSPost2010PropOp44
 70
     1
102
RTVSPost2010Prop45
280
     0
102
RTVSPost2010PropOp45
 70
     1
102
RTVSPost2010Prop46
 90
       50
102
RTVSPost2010PropOp46
 70
     1
102
RTVSPost2010Prop47
 90
       50
102
RTVSPost2010PropOp47
 70
     1
102
RTVSPost2010Prop48
 90
       50
102
RTVSPost2010PropOp48
 70
     1
102
RTVSPost2010Prop49
280
     0
102
RTVSPost2010PropOp49
 70
     1
102
RTVSPost2010Prop50
 90
       50
102
RTVSPost2010PropOp50
 70
     1
102
RTVSPost2010Prop51ColorIndex
 90
      256
102
RTVSPost2010Prop51ColorRGB
 90
-16777216
102
RTVSPost2010PropOp51
 70
     0
102
RTVSPost2010Prop52
140
1.0
102
RTVSPost2010PropOp52
 70
     0
102
RTVSPost2010Prop53
 90
        2
102
RTVSPost2010PropOp53
 70
     1
102
RTVSPost2010Prop54
  1
strokes_ogs.tif
102
RTVSPost2010PropOp54
 70
     1
102
RTVSPost2010Prop55
280
     0
102
RTVSPost2010PropOp55
 70
     1
102
RTVSPost2010Prop56
140
1.0
102
RTVSPost2010PropOp56
 70
     1
102
RTVSPost2010Prop57
140
1.0
102
RTVSPost2010PropOp57
 70
     1
102
RTVSPropertyOp0
 70
     1
102
RTVSPropertyOp1
 70
     1
102
RTVSPropertyOp2
 70
     1
102
RTVSPropertyOp3
 70
     1
102
RTVSPropertyOp4
 70
     1
102
RTVSPropertyOp5
 70
     1
102
RTVSPropertyOp6
 70
     1
102
RTVSPropertyOp7
 70
     1
102
RTVSPropertyOp8
 70
     1
102
RTVSPropertyOp9
 70
     1
102
RTVSPropertyOp10
 70
     1
102
RTVSPropertyOp11
 70
     1
102
RTVSPropertyOp12
 70
     1
102
RTVSPropertyOp13
 70
     1
102
RTVSPropertyOp14
 70
     1
102
RTVSPropertyOp15
 70
     1
102
RTVSPropertyOp16
 70
     1
102
RTVSPropertyOp17
 70
     1
102
RTVSPropertyOp18
 70
     1
102
RTVSPropertyOp19
 70
     1
102
RTVSPropertyOp20
 70
     1
102
RTVSPropertyOp21
 70
     1
102
RTVSPropertyOp22
 70
     1
102
RTVSPropertyOp23
 70
     1
102
RTVSPropertyOp24
 70
     1
102
RTVSPropertyOp25
 70
     1
102
RTVSPropertyOp26
 70
     1
102
RTVSPropertyOp27
 70
     1
102
RTVSPropertyOp28
 70
     1
102
RTVSPropertyOp29
 70
     1
102
RTVSPropertyOp30
 70
     1
102
RTVSPropertyOp31
 70
     1
102
RTVSPropertyOp32
 70
     1
102
RTVSPropertyOp33
 70
     1
102
RTVSPropertyOp34
 70
     1
102
RTVSPropertyOp35
 70
     1
102
RTVSPropertyOp36
 70
     1
102
RTVSPropertyOp37
 70
     1
102
RTVSPropertyOp38
 70
     1
102
RTVSPropertyOp39
 70
     1
102
RTVSPropertyOp40
 70
     1
102
RTVSPropertyOp41
 70
     1
102
RTVSPropertyOp42
 70
     1
102
RTVSPropertyOp43
 70
     1
102
RTVSPropertyOp44
 70
     1
102
RTVSPropertyOp45
 70
     1
102
RTVSPropertyOp46
 70
     1
102
RTVSPropertyOp47
 70
     1
102
RTVSPropertyOp48
 70
     1
102
RTVSPropertyOp49
 70
     1
102
RTVSPropertyOp50
 70
     1
102
RTVSPropertyOp51
 70
     0
102
RTVSPropertyOp52
 70
     0
102
RTVSPropertyOp53
 70
     1
102
RTVSPropertyOp54
 70
     1
102
RTVSPropertyOp55
 70
     1
102
RTVSPropertyOp56
 70
     1
102
RTVSPropertyOp57
 70
     1
102
RTVSPropertyOp58
 70
     1
102
RTVSPropertyOp59
 70
     1
102
RTVSPropertyOp60
 70
     1
102
RTVSPropertyOp61
 70
     1
102
RTVSPropertyOp62
 70
     1
  0
XRECORD
  5
D03F
102
{ACAD_REACTORS
330
D03E
102
}
330
D03E
100
AcDbXrecord
280
     1
102
RTVSPost2010Prop28
280
     0
102
RTVSPost2010PropOp28
 70
     1
102
RTVSPost2010Prop29
280
     1
102
RTVSPost2010PropOp29
 70
     1
102
RTVSPost2010Prop30
280
     1
102
RTVSPost2010PropOp30
 70
     1
102
RTVSPost2010Prop31
280
     0
102
RTVSPost2010PropOp31
 70
     1
102
RTVSPost2010Prop32
280
     0
102
RTVSPost2010PropOp32
 70
     1
102
RTVSPost2010Prop33
280
     0
102
RTVSPost2010PropOp33
 70
     1
102
RTVSPost2010Prop34
280
     0
102
RTVSPost2010PropOp34
 70
     1
102
RTVSPost2010Prop35
280
     0
102
RTVSPost2010PropOp35
 70
     1
102
RTVSPost2010Prop36
280
     0
102
RTVSPost2010PropOp36
 70
     1
102
RTVSPost2010Prop37
 90
       50
102
RTVSPost2010PropOp37
 70
     0
102
RTVSPost2010Prop38
140
0.0
102
RTVSPost2010PropOp38
 70
     0
102
RTVSPost2010Prop39
140
1.0
102
RTVSPost2010PropOp39
 70
     0
102
RTVSPost2010Prop40
 90
        0
102
RTVSPost2010PropOp40
 70
     0
102
RTVSPost2010Prop41ColorIndex
 90
       18
102
RTVSPost2010Prop41ColorRGB
 90
        0
102
RTVSPost2010PropOp41
 70
     0
102
RTVSPost2010Prop42
 90
       50
102
RTVSPost2010PropOp42
 70
     0
102
RTVSPost2010Prop43
 90
        3
102
RTVSPost2010PropOp43
 70
     0
102
RTVSPost2010Prop44ColorIndex
 90
        5
102
RTVSPost2010Prop44ColorRGB
 90
      255
102
RTVSPost2010PropOp44
 70
     0
102
RTVSPost2010Prop45
280
     0
102
RTVSPost2010PropOp45
 70
     1
102
RTVSPost2010Prop46
 90
       50
102
RTVSPost2010PropOp46
 70
     0
102
RTVSPost2010Prop47
 90
       50
102
RTVSPost2010PropOp47
 70
     0
102
RTVSPost2010Prop48
 90
       50
102
RTVSPost2010PropOp48
 70
     0
102
RTVSPost2010Prop49
280
     0
102
RTVSPost2010PropOp49
 70
     1
102
RTVSPost2010Prop50
 90
       50
102
RTVSPost2010PropOp50
 70
     0
102
RTVSPost2010Prop51ColorIndex
 90
      256
102
RTVSPost2010Prop51ColorRGB
 90
-16777216
102
RTVSPost2010PropOp51
 70
     0
102
RTVSPost2010Prop52
140
1.0
102
RTVSPost2010PropOp52
 70
     0
102
RTVSPost2010Prop53
 90
        2
102
RTVSPost2010PropOp53
 70
     0
102
RTVSPost2010Prop54
  1
strokes_ogs.tif
102
RTVSPost2010PropOp54
 70
     0
102
RTVSPost2010Prop55
280
     0
102
RTVSPost2010PropOp55
 70
     1
102
RTVSPost2010Prop56
140
1.0
102
RTVSPost2010PropOp56
 70
     0
102
RTVSPost2010Prop57
140
1.0
102
RTVSPost2010PropOp57
 70
     0
102
RTVSPropertyOp0
 70
     0
102
RTVSPropertyOp1
 70
     0
102
RTVSPropertyOp2
 70
     0
102
RTVSPropertyOp3
 70
     0
102
RTVSPropertyOp4
 70
     0
102
RTVSPropertyOp5
 70
     0
102
RTVSPropertyOp6
 70
     0
102
RTVSPropertyOp7
 70
     0
102
RTVSPropertyOp8
 70
     0
102
RTVSPropertyOp9
 70
     0
102
RTVSPropertyOp10
 70
     0
102
RTVSPropertyOp11
 70
     0
102
RTVSPropertyOp12
 70
     0
102
RTVSPropertyOp13
 70
     0
102
RTVSPropertyOp14
 70
     2
102
RTVSPropertyOp15
 70
     0
102
RTVSPropertyOp16
 70
     0
102
RTVSPropertyOp17
 70
     0
102
RTVSPropertyOp18
 70
     0
102
RTVSPropertyOp19
 70
     0
102
RTVSPropertyOp20
 70
     0
102
RTVSPropertyOp21
 70
     0
102
RTVSPropertyOp22
 70
     0
102
RTVSPropertyOp23
 70
     0
102
RTVSPropertyOp24
 70
     0
102
RTVSPropertyOp25
 70
     0
102
RTVSPropertyOp26
 70
     0
102
RTVSPropertyOp27
 70
     0
102
RTVSPropertyOp28
 70
     1
102
RTVSPropertyOp29
 70
     1
102
RTVSPropertyOp30
 70
     1
102
RTVSPropertyOp31
 70
     1
102
RTVSPropertyOp32
 70
     1
102
RTVSPropertyOp33
 70
     1
102
RTVSPropertyOp34
 70
     1
102
RTVSPropertyOp35
 70
     1
102
RTVSPropertyOp36
 70
     1
102
RTVSPropertyOp37
 70
     0
102
RTVSPropertyOp38
 70
     0
102
RTVSPropertyOp39
 70
     0
102
RTVSPropertyOp40
 70
     0
102
RTVSPropertyOp41
 70
     0
102
RTVSPropertyOp42
 70
     0
102
RTVSPropertyOp43
 70
     0
102
RTVSPropertyOp44
 70
     0
102
RTVSPropertyOp45
 70
     1
102
RTVSPropertyOp46
 70
     0
102
RTVSPropertyOp47
 70
     0
102
RTVSPropertyOp48
 70
     0
102
RTVSPropertyOp49
 70
     1
102
RTVSPropertyOp50
 70
     0
102
RTVSPropertyOp51
 70
     0
102
RTVSPropertyOp52
 70
     0
102
RTVSPropertyOp53
 70
     0
102
RTVSPropertyOp54
 70
     0
102
RTVSPropertyOp55
 70
     1
102
RTVSPropertyOp56
 70
     0
102
RTVSPropertyOp57
 70
     0
102
RTVSPropertyOp58
 70
     0
102
RTVSPropertyOp59
 70
     0
102
RTVSPropertyOp60
 70
     0
102
RTVSPropertyOp61
 70
     0
102
RTVSPropertyOp62
 70
     0
  0
XRECORD
  5
D025
102
{ACAD_REACTORS
330
D024
102
}
330
D024
100
AcDbXrecord
280
     1
102
RTVSPost2010Prop28
280
     0
102
RTVSPost2010PropOp28
 70
     1
102
RTVSPost2010Prop29
280
     1
102
RTVSPost2010PropOp29
 70
     1
102
RTVSPost2010Prop30
280
     1
102
RTVSPost2010PropOp30
 70
     1
102
RTVSPost2010Prop31
280
     0
102
RTVSPost2010PropOp31
 70
     1
102
RTVSPost2010Prop32
280
     0
102
RTVSPost2010PropOp32
 70
     1
102
RTVSPost2010Prop33
280
     0
102
RTVSPost2010PropOp33
 70
     1
102
RTVSPost2010Prop34
280
     0
102
RTVSPost2010PropOp34
 70
     1
102
RTVSPost2010Prop35
280
     0
102
RTVSPost2010PropOp35
 70
     1
102
RTVSPost2010Prop36
280
     0
102
RTVSPost2010PropOp36
 70
     1
102
RTVSPost2010Prop37
 90
       50
102
RTVSPost2010PropOp37
 70
     1
102
RTVSPost2010Prop38
140
0.0
102
RTVSPost2010PropOp38
 70
     1
102
RTVSPost2010Prop39
140
1.0
102
RTVSPost2010PropOp39
 70
     1
102
RTVSPost2010Prop40
 90
        0
102
RTVSPost2010PropOp40
 70
     1
102
RTVSPost2010Prop41ColorIndex
 90
       18
102
RTVSPost2010Prop41ColorRGB
 90
        0
102
RTVSPost2010PropOp41
 70
     1
102
RTVSPost2010Prop42
 90
       50
102
RTVSPost2010PropOp42
 70
     1
102
RTVSPost2010Prop43
 90
        3
102
RTVSPost2010PropOp43
 70
     1
102
RTVSPost2010Prop44ColorIndex
 90
        5
102
RTVSPost2010Prop44ColorRGB
 90
      255
102
RTVSPost2010PropOp44
 70
     1
102
RTVSPost2010Prop45
280
     0
102
RTVSPost2010PropOp45
 70
     1
102
RTVSPost2010Prop46
 90
       50
102
RTVSPost2010PropOp46
 70
     1
102
RTVSPost2010Prop47
 90
       50
102
RTVSPost2010PropOp47
 70
     1
102
RTVSPost2010Prop48
 90
       50
102
RTVSPost2010PropOp48
 70
     1
102
RTVSPost2010Prop49
280
     0
102
RTVSPost2010PropOp49
 70
     1
102
RTVSPost2010Prop50
 90
       50
102
RTVSPost2010PropOp50
 70
     1
102
RTVSPost2010Prop51ColorIndex
 90
      256
102
RTVSPost2010Prop51ColorRGB
 90
-16777216
102
RTVSPost2010PropOp51
 70
     0
102
RTVSPost2010Prop52
140
1.0
102
RTVSPost2010PropOp52
 70
     0
102
RTVSPost2010Prop53
 90
        2
102
RTVSPost2010PropOp53
 70
     1
102
RTVSPost2010Prop54
  1
strokes_ogs.tif
102
RTVSPost2010PropOp54
 70
     1
102
RTVSPost2010Prop55
280
     0
102
RTVSPost2010PropOp55
 70
     1
102
RTVSPost2010Prop56
140
1.0
102
RTVSPost2010PropOp56
 70
     1
102
RTVSPost2010Prop57
140
1.0
102
RTVSPost2010PropOp57
 70
     1
102
RTVSPropertyOp0
 70
     1
102
RTVSPropertyOp1
 70
     1
102
RTVSPropertyOp2
 70
     1
102
RTVSPropertyOp3
 70
     1
102
RTVSPropertyOp4
 70
     1
102
RTVSPropertyOp5
 70
     1
102
RTVSPropertyOp6
 70
     1
102
RTVSPropertyOp7
 70
     1
102
RTVSPropertyOp8
 70
     1
102
RTVSPropertyOp9
 70
     1
102
RTVSPropertyOp10
 70
     1
102
RTVSPropertyOp11
 70
     1
102
RTVSPropertyOp12
 70
     1
102
RTVSPropertyOp13
 70
     1
102
RTVSPropertyOp14
 70
     1
102
RTVSPropertyOp15
 70
     1
102
RTVSPropertyOp16
 70
     1
102
RTVSPropertyOp17
 70
     1
102
RTVSPropertyOp18
 70
     1
102
RTVSPropertyOp19
 70
     1
102
RTVSPropertyOp20
 70
     1
102
RTVSPropertyOp21
 70
     1
102
RTVSPropertyOp22
 70
     1
102
RTVSPropertyOp23
 70
     1
102
RTVSPropertyOp24
 70
     1
102
RTVSPropertyOp25
 70
     1
102
RTVSPropertyOp26
 70
     1
102
RTVSPropertyOp27
 70
     1
102
RTVSPropertyOp28
 70
     1
102
RTVSPropertyOp29
 70
     1
102
RTVSPropertyOp30
 70
     1
102
RTVSPropertyOp31
 70
     1
102
RTVSPropertyOp32
 70
     1
102
RTVSPropertyOp33
 70
     1
102
RTVSPropertyOp34
 70
     1
102
RTVSPropertyOp35
 70
     1
102
RTVSPropertyOp36
 70
     1
102
RTVSPropertyOp37
 70
     1
102
RTVSPropertyOp38
 70
     1
102
RTVSPropertyOp39
 70
     1
102
RTVSPropertyOp40
 70
     1
102
RTVSPropertyOp41
 70
     1
102
RTVSPropertyOp42
 70
     1
102
RTVSPropertyOp43
 70
     1
102
RTVSPropertyOp44
 70
     1
102
RTVSPropertyOp45
 70
     1
102
RTVSPropertyOp46
 70
     1
102
RTVSPropertyOp47
 70
     1
102
RTVSPropertyOp48
 70
     1
102
RTVSPropertyOp49
 70
     1
102
RTVSPropertyOp50
 70
     1
102
RTVSPropertyOp51
 70
     0
102
RTVSPropertyOp52
 70
     0
102
RTVSPropertyOp53
 70
     1
102
RTVSPropertyOp54
 70
     1
102
RTVSPropertyOp55
 70
     1
102
RTVSPropertyOp56
 70
     1
102
RTVSPropertyOp57
 70
     1
102
RTVSPropertyOp58
 70
     1
102
RTVSPropertyOp59
 70
     1
102
RTVSPropertyOp60
 70
     1
102
RTVSPropertyOp61
 70
     1
102
RTVSPropertyOp62
 70
     1
  0
XRECORD
  5
D03B
102
{ACAD_REACTORS
330
D03A
102
}
330
D03A
100
AcDbXrecord
280
     1
102
RTVSPost2010Prop28
280
     0
102
RTVSPost2010PropOp28
 70
     1
102
RTVSPost2010Prop29
280
     1
102
RTVSPost2010PropOp29
 70
     1
102
RTVSPost2010Prop30
280
     1
102
RTVSPost2010PropOp30
 70
     1
102
RTVSPost2010Prop31
280
     0
102
RTVSPost2010PropOp31
 70
     1
102
RTVSPost2010Prop32
280
     0
102
RTVSPost2010PropOp32
 70
     1
102
RTVSPost2010Prop33
280
     0
102
RTVSPost2010PropOp33
 70
     1
102
RTVSPost2010Prop34
280
     0
102
RTVSPost2010PropOp34
 70
     1
102
RTVSPost2010Prop35
280
     0
102
RTVSPost2010PropOp35
 70
     1
102
RTVSPost2010Prop36
280
     0
102
RTVSPost2010PropOp36
 70
     1
102
RTVSPost2010Prop37
 90
       50
102
RTVSPost2010PropOp37
 70
     1
102
RTVSPost2010Prop38
140
0.0
102
RTVSPost2010PropOp38
 70
     1
102
RTVSPost2010Prop39
140
1.0
102
RTVSPost2010PropOp39
 70
     1
102
RTVSPost2010Prop40
 90
        0
102
RTVSPost2010PropOp40
 70
     1
102
RTVSPost2010Prop41ColorIndex
 90
       18
102
RTVSPost2010Prop41ColorRGB
 90
        0
102
RTVSPost2010PropOp41
 70
     1
102
RTVSPost2010Prop42
 90
       50
102
RTVSPost2010PropOp42
 70
     1
102
RTVSPost2010Prop43
 90
        3
102
RTVSPost2010PropOp43
 70
     1
102
RTVSPost2010Prop44ColorIndex
 90
        5
102
RTVSPost2010Prop44ColorRGB
 90
      255
102
RTVSPost2010PropOp44
 70
     1
102
RTVSPost2010Prop45
280
     0
102
RTVSPost2010PropOp45
 70
     1
102
RTVSPost2010Prop46
 90
       50
102
RTVSPost2010PropOp46
 70
     1
102
RTVSPost2010Prop47
 90
       50
102
RTVSPost2010PropOp47
 70
     1
102
RTVSPost2010Prop48
 90
       50
102
RTVSPost2010PropOp48
 70
     1
102
RTVSPost2010Prop49
280
     0
102
RTVSPost2010PropOp49
 70
     1
102
RTVSPost2010Prop50
 90
       50
102
RTVSPost2010PropOp50
 70
     1
102
RTVSPost2010Prop51ColorIndex
 90
      256
102
RTVSPost2010Prop51ColorRGB
 90
-16777216
102
RTVSPost2010PropOp51
 70
     0
102
RTVSPost2010Prop52
140
1.0
102
RTVSPost2010PropOp52
 70
     0
102
RTVSPost2010Prop53
 90
        2
102
RTVSPost2010PropOp53
 70
     1
102
RTVSPost2010Prop54
  1
strokes_ogs.tif
102
RTVSPost2010PropOp54
 70
     1
102
RTVSPost2010Prop55
280
     0
102
RTVSPost2010PropOp55
 70
     1
102
RTVSPost2010Prop56
140
1.0
102
RTVSPost2010PropOp56
 70
     1
102
RTVSPost2010Prop57
140
1.0
102
RTVSPost2010PropOp57
 70
     1
102
RTVSPropertyOp0
 70
     1
102
RTVSPropertyOp1
 70
     1
102
RTVSPropertyOp2
 70
     1
102
RTVSPropertyOp3
 70
     1
102
RTVSPropertyOp4
 70
     1
102
RTVSPropertyOp5
 70
     1
102
RTVSPropertyOp6
 70
     1
102
RTVSPropertyOp7
 70
     1
102
RTVSPropertyOp8
 70
     1
102
RTVSPropertyOp9
 70
     1
102
RTVSPropertyOp10
 70
     1
102
RTVSPropertyOp11
 70
     1
102
RTVSPropertyOp12
 70
     1
102
RTVSPropertyOp13
 70
     1
102
RTVSPropertyOp14
 70
     1
102
RTVSPropertyOp15
 70
     1
102
RTVSPropertyOp16
 70
     1
102
RTVSPropertyOp17
 70
     1
102
RTVSPropertyOp18
 70
     1
102
RTVSPropertyOp19
 70
     1
102
RTVSPropertyOp20
 70
     1
102
RTVSPropertyOp21
 70
     1
102
RTVSPropertyOp22
 70
     1
102
RTVSPropertyOp23
 70
     1
102
RTVSPropertyOp24
 70
     1
102
RTVSPropertyOp25
 70
     1
102
RTVSPropertyOp26
 70
     1
102
RTVSPropertyOp27
 70
     1
102
RTVSPropertyOp28
 70
     1
102
RTVSPropertyOp29
 70
     1
102
RTVSPropertyOp30
 70
     1
102
RTVSPropertyOp31
 70
     1
102
RTVSPropertyOp32
 70
     1
102
RTVSPropertyOp33
 70
     1
102
RTVSPropertyOp34
 70
     1
102
RTVSPropertyOp35
 70
     1
102
RTVSPropertyOp36
 70
     1
102
RTVSPropertyOp37
 70
     1
102
RTVSPropertyOp38
 70
     1
102
RTVSPropertyOp39
 70
     1
102
RTVSPropertyOp40
 70
     1
102
RTVSPropertyOp41
 70
     1
102
RTVSPropertyOp42
 70
     1
102
RTVSPropertyOp43
 70
     1
102
RTVSPropertyOp44
 70
     1
102
RTVSPropertyOp45
 70
     1
102
RTVSPropertyOp46
 70
     1
102
RTVSPropertyOp47
 70
     1
102
RTVSPropertyOp48
 70
     1
102
RTVSPropertyOp49
 70
     1
102
RTVSPropertyOp50
 70
     1
102
RTVSPropertyOp51
 70
     0
102
RTVSPropertyOp52
 70
     0
102
RTVSPropertyOp53
 70
     1
102
RTVSPropertyOp54
 70
     1
102
RTVSPropertyOp55
 70
     1
102
RTVSPropertyOp56
 70
     1
102
RTVSPropertyOp57
 70
     1
102
RTVSPropertyOp58
 70
     1
102
RTVSPropertyOp59
 70
     1
102
RTVSPropertyOp60
 70
     1
102
RTVSPropertyOp61
 70
     1
102
RTVSPropertyOp62
 70
     1
  0
XRECORD
  5
D039
102
{ACAD_REACTORS
330
D038
102
}
330
D038
100
AcDbXrecord
280
     1
102
RTVSPost2010Prop28
280
     0
102
RTVSPost2010PropOp28
 70
     1
102
RTVSPost2010Prop29
280
     1
102
RTVSPost2010PropOp29
 70
     1
102
RTVSPost2010Prop30
280
     1
102
RTVSPost2010PropOp30
 70
     1
102
RTVSPost2010Prop31
280
     0
102
RTVSPost2010PropOp31
 70
     1
102
RTVSPost2010Prop32
280
     0
102
RTVSPost2010PropOp32
 70
     1
102
RTVSPost2010Prop33
280
     0
102
RTVSPost2010PropOp33
 70
     1
102
RTVSPost2010Prop34
280
     0
102
RTVSPost2010PropOp34
 70
     1
102
RTVSPost2010Prop35
280
     0
102
RTVSPost2010PropOp35
 70
     1
102
RTVSPost2010Prop36
280
     0
102
RTVSPost2010PropOp36
 70
     1
102
RTVSPost2010Prop37
 90
       50
102
RTVSPost2010PropOp37
 70
     1
102
RTVSPost2010Prop38
140
0.0
102
RTVSPost2010PropOp38
 70
     1
102
RTVSPost2010Prop39
140
1.0
102
RTVSPost2010PropOp39
 70
     1
102
RTVSPost2010Prop40
 90
        0
102
RTVSPost2010PropOp40
 70
     1
102
RTVSPost2010Prop41ColorIndex
 90
       18
102
RTVSPost2010Prop41ColorRGB
 90
        0
102
RTVSPost2010PropOp41
 70
     1
102
RTVSPost2010Prop42
 90
       50
102
RTVSPost2010PropOp42
 70
     1
102
RTVSPost2010Prop43
 90
        3
102
RTVSPost2010PropOp43
 70
     1
102
RTVSPost2010Prop44ColorIndex
 90
        5
102
RTVSPost2010Prop44ColorRGB
 90
      255
102
RTVSPost2010PropOp44
 70
     1
102
RTVSPost2010Prop45
280
     0
102
RTVSPost2010PropOp45
 70
     1
102
RTVSPost2010Prop46
 90
       50
102
RTVSPost2010PropOp46
 70
     1
102
RTVSPost2010Prop47
 90
       50
102
RTVSPost2010PropOp47
 70
     1
102
RTVSPost2010Prop48
 90
       50
102
RTVSPost2010PropOp48
 70
     1
102
RTVSPost2010Prop49
280
     0
102
RTVSPost2010PropOp49
 70
     1
102
RTVSPost2010Prop50
 90
       50
102
RTVSPost2010PropOp50
 70
     1
102
RTVSPost2010Prop51ColorIndex
 90
      256
102
RTVSPost2010Prop51ColorRGB
 90
-16777216
102
RTVSPost2010PropOp51
 70
     0
102
RTVSPost2010Prop52
140
1.0
102
RTVSPost2010PropOp52
 70
     0
102
RTVSPost2010Prop53
 90
        2
102
RTVSPost2010PropOp53
 70
     1
102
RTVSPost2010Prop54
  1
strokes_ogs.tif
102
RTVSPost2010PropOp54
 70
     1
102
RTVSPost2010Prop55
280
     0
102
RTVSPost2010PropOp55
 70
     1
102
RTVSPost2010Prop56
140
1.0
102
RTVSPost2010PropOp56
 70
     1
102
RTVSPost2010Prop57
140
1.0
102
RTVSPost2010PropOp57
 70
     1
102
RTVSPropertyOp0
 70
     1
102
RTVSPropertyOp1
 70
     1
102
RTVSPropertyOp2
 70
     1
102
RTVSPropertyOp3
 70
     1
102
RTVSPropertyOp4
 70
     1
102
RTVSPropertyOp5
 70
     1
102
RTVSPropertyOp6
 70
     1
102
RTVSPropertyOp7
 70
     1
102
RTVSPropertyOp8
 70
     1
102
RTVSPropertyOp9
 70
     1
102
RTVSPropertyOp10
 70
     1
102
RTVSPropertyOp11
 70
     1
102
RTVSPropertyOp12
 70
     1
102
RTVSPropertyOp13
 70
     1
102
RTVSPropertyOp14
 70
     1
102
RTVSPropertyOp15
 70
     1
102
RTVSPropertyOp16
 70
     1
102
RTVSPropertyOp17
 70
     1
102
RTVSPropertyOp18
 70
     1
102
RTVSPropertyOp19
 70
     1
102
RTVSPropertyOp20
 70
     1
102
RTVSPropertyOp21
 70
     1
102
RTVSPropertyOp22
 70
     1
102
RTVSPropertyOp23
 70
     1
102
RTVSPropertyOp24
 70
     1
102
RTVSPropertyOp25
 70
     1
102
RTVSPropertyOp26
 70
     1
102
RTVSPropertyOp27
 70
     1
102
RTVSPropertyOp28
 70
     1
102
RTVSPropertyOp29
 70
     1
102
RTVSPropertyOp30
 70
     1
102
RTVSPropertyOp31
 70
     1
102
RTVSPropertyOp32
 70
     1
102
RTVSPropertyOp33
 70
     1
102
RTVSPropertyOp34
 70
     1
102
RTVSPropertyOp35
 70
     1
102
RTVSPropertyOp36
 70
     1
102
RTVSPropertyOp37
 70
     1
102
RTVSPropertyOp38
 70
     1
102
RTVSPropertyOp39
 70
     1
102
RTVSPropertyOp40
 70
     1
102
RTVSPropertyOp41
 70
     1
102
RTVSPropertyOp42
 70
     1
102
RTVSPropertyOp43
 70
     1
102
RTVSPropertyOp44
 70
     1
102
RTVSPropertyOp45
 70
     1
102
RTVSPropertyOp46
 70
     1
102
RTVSPropertyOp47
 70
     1
102
RTVSPropertyOp48
 70
     1
102
RTVSPropertyOp49
 70
     1
102
RTVSPropertyOp50
 70
     1
102
RTVSPropertyOp51
 70
     0
102
RTVSPropertyOp52
 70
     0
102
RTVSPropertyOp53
 70
     1
102
RTVSPropertyOp54
 70
     1
102
RTVSPropertyOp55
 70
     1
102
RTVSPropertyOp56
 70
     1
102
RTVSPropertyOp57
 70
     1
102
RTVSPropertyOp58
 70
     1
102
RTVSPropertyOp59
 70
     1
102
RTVSPropertyOp60
 70
     1
102
RTVSPropertyOp61
 70
     1
102
RTVSPropertyOp62
 70
     1
  0
XRECORD
  5
D033
102
{ACAD_REACTORS
330
D032
102
}
330
D032
100
AcDbXrecord
280
     1
102
RTVSPost2010Prop28
280
     0
102
RTVSPost2010PropOp28
 70
     1
102
RTVSPost2010Prop29
280
     1
102
RTVSPost2010PropOp29
 70
     1
102
RTVSPost2010Prop30
280
     1
102
RTVSPost2010PropOp30
 70
     1
102
RTVSPost2010Prop31
280
     0
102
RTVSPost2010PropOp31
 70
     1
102
RTVSPost2010Prop32
280
     0
102
RTVSPost2010PropOp32
 70
     1
102
RTVSPost2010Prop33
280
     0
102
RTVSPost2010PropOp33
 70
     1
102
RTVSPost2010Prop34
280
     0
102
RTVSPost2010PropOp34
 70
     1
102
RTVSPost2010Prop35
280
     0
102
RTVSPost2010PropOp35
 70
     1
102
RTVSPost2010Prop36
280
     0
102
RTVSPost2010PropOp36
 70
     1
102
RTVSPost2010Prop37
 90
       50
102
RTVSPost2010PropOp37
 70
     1
102
RTVSPost2010Prop38
140
0.0
102
RTVSPost2010PropOp38
 70
     1
102
RTVSPost2010Prop39
140
1.0
102
RTVSPost2010PropOp39
 70
     1
102
RTVSPost2010Prop40
 90
        0
102
RTVSPost2010PropOp40
 70
     1
102
RTVSPost2010Prop41ColorIndex
 90
       18
102
RTVSPost2010Prop41ColorRGB
 90
        0
102
RTVSPost2010PropOp41
 70
     1
102
RTVSPost2010Prop42
 90
       50
102
RTVSPost2010PropOp42
 70
     1
102
RTVSPost2010Prop43
 90
        3
102
RTVSPost2010PropOp43
 70
     1
102
RTVSPost2010Prop44ColorIndex
 90
        5
102
RTVSPost2010Prop44ColorRGB
 90
      255
102
RTVSPost2010PropOp44
 70
     1
102
RTVSPost2010Prop45
280
     0
102
RTVSPost2010PropOp45
 70
     1
102
RTVSPost2010Prop46
 90
       50
102
RTVSPost2010PropOp46
 70
     1
102
RTVSPost2010Prop47
 90
       50
102
RTVSPost2010PropOp47
 70
     1
102
RTVSPost2010Prop48
 90
       50
102
RTVSPost2010PropOp48
 70
     1
102
RTVSPost2010Prop49
280
     0
102
RTVSPost2010PropOp49
 70
     1
102
RTVSPost2010Prop50
 90
       50
102
RTVSPost2010PropOp50
 70
     1
102
RTVSPost2010Prop51ColorIndex
 90
      256
102
RTVSPost2010Prop51ColorRGB
 90
-16777216
102
RTVSPost2010PropOp51
 70
     0
102
RTVSPost2010Prop52
140
1.0
102
RTVSPost2010PropOp52
 70
     0
102
RTVSPost2010Prop53
 90
        2
102
RTVSPost2010PropOp53
 70
     1
102
RTVSPost2010Prop54
  1
strokes_ogs.tif
102
RTVSPost2010PropOp54
 70
     1
102
RTVSPost2010Prop55
280
     0
102
RTVSPost2010PropOp55
 70
     1
102
RTVSPost2010Prop56
140
1.0
102
RTVSPost2010PropOp56
 70
     1
102
RTVSPost2010Prop57
140
1.0
102
RTVSPost2010PropOp57
 70
     1
102
RTVSPropertyOp0
 70
     1
102
RTVSPropertyOp1
 70
     1
102
RTVSPropertyOp2
 70
     1
102
RTVSPropertyOp3
 70
     1
102
RTVSPropertyOp4
 70
     1
102
RTVSPropertyOp5
 70
     1
102
RTVSPropertyOp6
 70
     1
102
RTVSPropertyOp7
 70
     1
102
RTVSPropertyOp8
 70
     1
102
RTVSPropertyOp9
 70
     1
102
RTVSPropertyOp10
 70
     1
102
RTVSPropertyOp11
 70
     1
102
RTVSPropertyOp12
 70
     1
102
RTVSPropertyOp13
 70
     1
102
RTVSPropertyOp14
 70
     1
102
RTVSPropertyOp15
 70
     1
102
RTVSPropertyOp16
 70
     1
102
RTVSPropertyOp17
 70
     1
102
RTVSPropertyOp18
 70
     1
102
RTVSPropertyOp19
 70
     1
102
RTVSPropertyOp20
 70
     1
102
RTVSPropertyOp21
 70
     1
102
RTVSPropertyOp22
 70
     1
102
RTVSPropertyOp23
 70
     1
102
RTVSPropertyOp24
 70
     1
102
RTVSPropertyOp25
 70
     1
102
RTVSPropertyOp26
 70
     1
102
RTVSPropertyOp27
 70
     1
102
RTVSPropertyOp28
 70
     1
102
RTVSPropertyOp29
 70
     1
102
RTVSPropertyOp30
 70
     1
102
RTVSPropertyOp31
 70
     1
102
RTVSPropertyOp32
 70
     1
102
RTVSPropertyOp33
 70
     1
102
RTVSPropertyOp34
 70
     1
102
RTVSPropertyOp35
 70
     1
102
RTVSPropertyOp36
 70
     1
102
RTVSPropertyOp37
 70
     1
102
RTVSPropertyOp38
 70
     1
102
RTVSPropertyOp39
 70
     1
102
RTVSPropertyOp40
 70
     1
102
RTVSPropertyOp41
 70
     1
102
RTVSPropertyOp42
 70
     1
102
RTVSPropertyOp43
 70
     1
102
RTVSPropertyOp44
 70
     1
102
RTVSPropertyOp45
 70
     1
102
RTVSPropertyOp46
 70
     1
102
RTVSPropertyOp47
 70
     1
102
RTVSPropertyOp48
 70
     1
102
RTVSPropertyOp49
 70
     1
102
RTVSPropertyOp50
 70
     1
102
RTVSPropertyOp51
 70
     0
102
RTVSPropertyOp52
 70
     0
102
RTVSPropertyOp53
 70
     1
102
RTVSPropertyOp54
 70
     1
102
RTVSPropertyOp55
 70
     1
102
RTVSPropertyOp56
 70
     1
102
RTVSPropertyOp57
 70
     1
102
RTVSPropertyOp58
 70
     1
102
RTVSPropertyOp59
 70
     1
102
RTVSPropertyOp60
 70
     1
102
RTVSPropertyOp61
 70
     1
102
RTVSPropertyOp62
 70
     1
  0
XRECORD
  5
D035
102
{ACAD_REACTORS
330
D034
102
}
330
D034
100
AcDbXrecord
280
     1
102
RTVSPost2010Prop28
280
     0
102
RTVSPost2010PropOp28
 70
     1
102
RTVSPost2010Prop29
280
     1
102
RTVSPost2010PropOp29
 70
     1
102
RTVSPost2010Prop30
280
     1
102
RTVSPost2010PropOp30
 70
     1
102
RTVSPost2010Prop31
280
     0
102
RTVSPost2010PropOp31
 70
     1
102
RTVSPost2010Prop32
280
     0
102
RTVSPost2010PropOp32
 70
     1
102
RTVSPost2010Prop33
280
     0
102
RTVSPost2010PropOp33
 70
     1
102
RTVSPost2010Prop34
280
     0
102
RTVSPost2010PropOp34
 70
     1
102
RTVSPost2010Prop35
280
     0
102
RTVSPost2010PropOp35
 70
     1
102
RTVSPost2010Prop36
280
     0
102
RTVSPost2010PropOp36
 70
     1
102
RTVSPost2010Prop37
 90
       50
102
RTVSPost2010PropOp37
 70
     1
102
RTVSPost2010Prop38
140
0.0
102
RTVSPost2010PropOp38
 70
     1
102
RTVSPost2010Prop39
140
1.0
102
RTVSPost2010PropOp39
 70
     1
102
RTVSPost2010Prop40
 90
        0
102
RTVSPost2010PropOp40
 70
     1
102
RTVSPost2010Prop41ColorIndex
 90
       18
102
RTVSPost2010Prop41ColorRGB
 90
        0
102
RTVSPost2010PropOp41
 70
     1
102
RTVSPost2010Prop42
 90
       50
102
RTVSPost2010PropOp42
 70
     1
102
RTVSPost2010Prop43
 90
        3
102
RTVSPost2010PropOp43
 70
     1
102
RTVSPost2010Prop44ColorIndex
 90
        5
102
RTVSPost2010Prop44ColorRGB
 90
      255
102
RTVSPost2010PropOp44
 70
     1
102
RTVSPost2010Prop45
280
     0
102
RTVSPost2010PropOp45
 70
     1
102
RTVSPost2010Prop46
 90
       50
102
RTVSPost2010PropOp46
 70
     1
102
RTVSPost2010Prop47
 90
       50
102
RTVSPost2010PropOp47
 70
     1
102
RTVSPost2010Prop48
 90
       50
102
RTVSPost2010PropOp48
 70
     1
102
RTVSPost2010Prop49
280
     0
102
RTVSPost2010PropOp49
 70
     1
102
RTVSPost2010Prop50
 90
       50
102
RTVSPost2010PropOp50
 70
     1
102
RTVSPost2010Prop51ColorIndex
 90
      256
102
RTVSPost2010Prop51ColorRGB
 90
-16777216
102
RTVSPost2010PropOp51
 70
     0
102
RTVSPost2010Prop52
140
1.0
102
RTVSPost2010PropOp52
 70
     0
102
RTVSPost2010Prop53
 90
        2
102
RTVSPost2010PropOp53
 70
     1
102
RTVSPost2010Prop54
  1
strokes_ogs.tif
102
RTVSPost2010PropOp54
 70
     1
102
RTVSPost2010Prop55
280
     0
102
RTVSPost2010PropOp55
 70
     1
102
RTVSPost2010Prop56
140
1.0
102
RTVSPost2010PropOp56
 70
     1
102
RTVSPost2010Prop57
140
1.0
102
RTVSPost2010PropOp57
 70
     1
102
RTVSPropertyOp0
 70
     1
102
RTVSPropertyOp1
 70
     1
102
RTVSPropertyOp2
 70
     1
102
RTVSPropertyOp3
 70
     1
102
RTVSPropertyOp4
 70
     1
102
RTVSPropertyOp5
 70
     1
102
RTVSPropertyOp6
 70
     1
102
RTVSPropertyOp7
 70
     1
102
RTVSPropertyOp8
 70
     1
102
RTVSPropertyOp9
 70
     1
102
RTVSPropertyOp10
 70
     1
102
RTVSPropertyOp11
 70
     1
102
RTVSPropertyOp12
 70
     1
102
RTVSPropertyOp13
 70
     1
102
RTVSPropertyOp14
 70
     1
102
RTVSPropertyOp15
 70
     1
102
RTVSPropertyOp16
 70
     1
102
RTVSPropertyOp17
 70
     1
102
RTVSPropertyOp18
 70
     1
102
RTVSPropertyOp19
 70
     1
102
RTVSPropertyOp20
 70
     1
102
RTVSPropertyOp21
 70
     1
102
RTVSPropertyOp22
 70
     1
102
RTVSPropertyOp23
 70
     1
102
RTVSPropertyOp24
 70
     1
102
RTVSPropertyOp25
 70
     1
102
RTVSPropertyOp26
 70
     1
102
RTVSPropertyOp27
 70
     1
102
RTVSPropertyOp28
 70
     1
102
RTVSPropertyOp29
 70
     1
102
RTVSPropertyOp30
 70
     1
102
RTVSPropertyOp31
 70
     1
102
RTVSPropertyOp32
 70
     1
102
RTVSPropertyOp33
 70
     1
102
RTVSPropertyOp34
 70
     1
102
RTVSPropertyOp35
 70
     1
102
RTVSPropertyOp36
 70
     1
102
RTVSPropertyOp37
 70
     1
102
RTVSPropertyOp38
 70
     1
102
RTVSPropertyOp39
 70
     1
102
RTVSPropertyOp40
 70
     1
102
RTVSPropertyOp41
 70
     1
102
RTVSPropertyOp42
 70
     1
102
RTVSPropertyOp43
 70
     1
102
RTVSPropertyOp44
 70
     1
102
RTVSPropertyOp45
 70
     1
102
RTVSPropertyOp46
 70
     1
102
RTVSPropertyOp47
 70
     1
102
RTVSPropertyOp48
 70
     1
102
RTVSPropertyOp49
 70
     1
102
RTVSPropertyOp50
 70
     1
102
RTVSPropertyOp51
 70
     0
102
RTVSPropertyOp52
 70
     0
102
RTVSPropertyOp53
 70
     1
102
RTVSPropertyOp54
 70
     1
102
RTVSPropertyOp55
 70
     1
102
RTVSPropertyOp56
 70
     1
102
RTVSPropertyOp57
 70
     1
102
RTVSPropertyOp58
 70
     1
102
RTVSPropertyOp59
 70
     1
102
RTVSPropertyOp60
 70
     1
102
RTVSPropertyOp61
 70
     1
102
RTVSPropertyOp62
 70
     1
  0
XRECORD
  5
D02B
102
{ACAD_REACTORS
330
D02A
102
}
330
D02A
100
AcDbXrecord
280
     1
102
RTVSPost2010Prop28
280
     0
102
RTVSPost2010PropOp28
 70
     1
102
RTVSPost2010Prop29
280
     1
102
RTVSPost2010PropOp29
 70
     1
102
RTVSPost2010Prop30
280
     1
102
RTVSPost2010PropOp30
 70
     1
102
RTVSPost2010Prop31
280
     0
102
RTVSPost2010PropOp31
 70
     1
102
RTVSPost2010Prop32
280
     0
102
RTVSPost2010PropOp32
 70
     1
102
RTVSPost2010Prop33
280
     0
102
RTVSPost2010PropOp33
 70
     1
102
RTVSPost2010Prop34
280
     0
102
RTVSPost2010PropOp34
 70
     1
102
RTVSPost2010Prop35
280
     0
102
RTVSPost2010PropOp35
 70
     1
102
RTVSPost2010Prop36
280
     0
102
RTVSPost2010PropOp36
 70
     1
102
RTVSPost2010Prop37
 90
       50
102
RTVSPost2010PropOp37
 70
     1
102
RTVSPost2010Prop38
140
0.0
102
RTVSPost2010PropOp38
 70
     1
102
RTVSPost2010Prop39
140
1.0
102
RTVSPost2010PropOp39
 70
     1
102
RTVSPost2010Prop40
 90
        0
102
RTVSPost2010PropOp40
 70
     1
102
RTVSPost2010Prop41ColorIndex
 90
       18
102
RTVSPost2010Prop41ColorRGB
 90
        0
102
RTVSPost2010PropOp41
 70
     1
102
RTVSPost2010Prop42
 90
       50
102
RTVSPost2010PropOp42
 70
     1
102
RTVSPost2010Prop43
 90
        3
102
RTVSPost2010PropOp43
 70
     1
102
RTVSPost2010Prop44ColorIndex
 90
        5
102
RTVSPost2010Prop44ColorRGB
 90
      255
102
RTVSPost2010PropOp44
 70
     1
102
RTVSPost2010Prop45
280
     0
102
RTVSPost2010PropOp45
 70
     1
102
RTVSPost2010Prop46
 90
       50
102
RTVSPost2010PropOp46
 70
     1
102
RTVSPost2010Prop47
 90
       50
102
RTVSPost2010PropOp47
 70
     1
102
RTVSPost2010Prop48
 90
       50
102
RTVSPost2010PropOp48
 70
     1
102
RTVSPost2010Prop49
280
     0
102
RTVSPost2010PropOp49
 70
     1
102
RTVSPost2010Prop50
 90
       50
102
RTVSPost2010PropOp50
 70
     1
102
RTVSPost2010Prop51ColorIndex
 90
      256
102
RTVSPost2010Prop51ColorRGB
 90
-16777216
102
RTVSPost2010PropOp51
 70
     0
102
RTVSPost2010Prop52
140
1.0
102
RTVSPost2010PropOp52
 70
     0
102
RTVSPost2010Prop53
 90
        2
102
RTVSPost2010PropOp53
 70
     1
102
RTVSPost2010Prop54
  1
strokes_ogs.tif
102
RTVSPost2010PropOp54
 70
     1
102
RTVSPost2010Prop55
280
     0
102
RTVSPost2010PropOp55
 70
     1
102
RTVSPost2010Prop56
140
1.0
102
RTVSPost2010PropOp56
 70
     1
102
RTVSPost2010Prop57
140
1.0
102
RTVSPost2010PropOp57
 70
     1
102
RTVSPropertyOp0
 70
     1
102
RTVSPropertyOp1
 70
     1
102
RTVSPropertyOp2
 70
     1
102
RTVSPropertyOp3
 70
     1
102
RTVSPropertyOp4
 70
     1
102
RTVSPropertyOp5
 70
     1
102
RTVSPropertyOp6
 70
     1
102
RTVSPropertyOp7
 70
     1
102
RTVSPropertyOp8
 70
     1
102
RTVSPropertyOp9
 70
     1
102
RTVSPropertyOp10
 70
     1
102
RTVSPropertyOp11
 70
     1
102
RTVSPropertyOp12
 70
     1
102
RTVSPropertyOp13
 70
     1
102
RTVSPropertyOp14
 70
     1
102
RTVSPropertyOp15
 70
     1
102
RTVSPropertyOp16
 70
     1
102
RTVSPropertyOp17
 70
     1
102
RTVSPropertyOp18
 70
     1
102
RTVSPropertyOp19
 70
     1
102
RTVSPropertyOp20
 70
     1
102
RTVSPropertyOp21
 70
     1
102
RTVSPropertyOp22
 70
     1
102
RTVSPropertyOp23
 70
     1
102
RTVSPropertyOp24
 70
     1
102
RTVSPropertyOp25
 70
     1
102
RTVSPropertyOp26
 70
     1
102
RTVSPropertyOp27
 70
     1
102
RTVSPropertyOp28
 70
     1
102
RTVSPropertyOp29
 70
     1
102
RTVSPropertyOp30
 70
     1
102
RTVSPropertyOp31
 70
     1
102
RTVSPropertyOp32
 70
     1
102
RTVSPropertyOp33
 70
     1
102
RTVSPropertyOp34
 70
     1
102
RTVSPropertyOp35
 70
     1
102
RTVSPropertyOp36
 70
     1
102
RTVSPropertyOp37
 70
     1
102
RTVSPropertyOp38
 70
     1
102
RTVSPropertyOp39
 70
     1
102
RTVSPropertyOp40
 70
     1
102
RTVSPropertyOp41
 70
     1
102
RTVSPropertyOp42
 70
     1
102
RTVSPropertyOp43
 70
     1
102
RTVSPropertyOp44
 70
     1
102
RTVSPropertyOp45
 70
     1
102
RTVSPropertyOp46
 70
     1
102
RTVSPropertyOp47
 70
     1
102
RTVSPropertyOp48
 70
     1
102
RTVSPropertyOp49
 70
     1
102
RTVSPropertyOp50
 70
     1
102
RTVSPropertyOp51
 70
     0
102
RTVSPropertyOp52
 70
     0
102
RTVSPropertyOp53
 70
     1
102
RTVSPropertyOp54
 70
     1
102
RTVSPropertyOp55
 70
     1
102
RTVSPropertyOp56
 70
     1
102
RTVSPropertyOp57
 70
     1
102
RTVSPropertyOp58
 70
     1
102
RTVSPropertyOp59
 70
     1
102
RTVSPropertyOp60
 70
     1
102
RTVSPropertyOp61
 70
     1
102
RTVSPropertyOp62
 70
     1
  0
XRECORD
  5
D01F
102
{ACAD_REACTORS
330
D01E
102
}
330
D01E
100
AcDbXrecord
280
     1
102
RTVSPost2010Prop28
280
     0
102
RTVSPost2010PropOp28
 70
     1
102
RTVSPost2010Prop29
280
     1
102
RTVSPost2010PropOp29
 70
     1
102
RTVSPost2010Prop30
280
     1
102
RTVSPost2010PropOp30
 70
     1
102
RTVSPost2010Prop31
280
     0
102
RTVSPost2010PropOp31
 70
     1
102
RTVSPost2010Prop32
280
     0
102
RTVSPost2010PropOp32
 70
     1
102
RTVSPost2010Prop33
280
     0
102
RTVSPost2010PropOp33
 70
     1
102
RTVSPost2010Prop34
280
     0
102
RTVSPost2010PropOp34
 70
     1
102
RTVSPost2010Prop35
280
     0
102
RTVSPost2010PropOp35
 70
     1
102
RTVSPost2010Prop36
280
     0
102
RTVSPost2010PropOp36
 70
     1
102
RTVSPost2010Prop37
 90
       50
102
RTVSPost2010PropOp37
 70
     1
102
RTVSPost2010Prop38
140
0.0
102
RTVSPost2010PropOp38
 70
     1
102
RTVSPost2010Prop39
140
1.0
102
RTVSPost2010PropOp39
 70
     1
102
RTVSPost2010Prop40
 90
        0
102
RTVSPost2010PropOp40
 70
     1
102
RTVSPost2010Prop41ColorIndex
 90
       18
102
RTVSPost2010Prop41ColorRGB
 90
        0
102
RTVSPost2010PropOp41
 70
     1
102
RTVSPost2010Prop42
 90
       50
102
RTVSPost2010PropOp42
 70
     1
102
RTVSPost2010Prop43
 90
        3
102
RTVSPost2010PropOp43
 70
     1
102
RTVSPost2010Prop44ColorIndex
 90
        5
102
RTVSPost2010Prop44ColorRGB
 90
      255
102
RTVSPost2010PropOp44
 70
     1
102
RTVSPost2010Prop45
280
     0
102
RTVSPost2010PropOp45
 70
     1
102
RTVSPost2010Prop46
 90
       50
102
RTVSPost2010PropOp46
 70
     1
102
RTVSPost2010Prop47
 90
       50
102
RTVSPost2010PropOp47
 70
     1
102
RTVSPost2010Prop48
 90
       50
102
RTVSPost2010PropOp48
 70
     1
102
RTVSPost2010Prop49
280
     0
102
RTVSPost2010PropOp49
 70
     1
102
RTVSPost2010Prop50
 90
       50
102
RTVSPost2010PropOp50
 70
     1
102
RTVSPost2010Prop51ColorIndex
 90
      256
102
RTVSPost2010Prop51ColorRGB
 90
-16777216
102
RTVSPost2010PropOp51
 70
     0
102
RTVSPost2010Prop52
140
1.0
102
RTVSPost2010PropOp52
 70
     0
102
RTVSPost2010Prop53
 90
        2
102
RTVSPost2010PropOp53
 70
     1
102
RTVSPost2010Prop54
  1
strokes_ogs.tif
102
RTVSPost2010PropOp54
 70
     1
102
RTVSPost2010Prop55
280
     0
102
RTVSPost2010PropOp55
 70
     1
102
RTVSPost2010Prop56
140
1.0
102
RTVSPost2010PropOp56
 70
     1
102
RTVSPost2010Prop57
140
1.0
102
RTVSPost2010PropOp57
 70
     1
102
RTVSPropertyOp0
 70
     1
102
RTVSPropertyOp1
 70
     1
102
RTVSPropertyOp2
 70
     1
102
RTVSPropertyOp3
 70
     1
102
RTVSPropertyOp4
 70
     1
102
RTVSPropertyOp5
 70
     1
102
RTVSPropertyOp6
 70
     1
102
RTVSPropertyOp7
 70
     1
102
RTVSPropertyOp8
 70
     1
102
RTVSPropertyOp9
 70
     1
102
RTVSPropertyOp10
 70
     1
102
RTVSPropertyOp11
 70
     1
102
RTVSPropertyOp12
 70
     1
102
RTVSPropertyOp13
 70
     1
102
RTVSPropertyOp14
 70
     1
102
RTVSPropertyOp15
 70
     1
102
RTVSPropertyOp16
 70
     1
102
RTVSPropertyOp17
 70
     1
102
RTVSPropertyOp18
 70
     1
102
RTVSPropertyOp19
 70
     1
102
RTVSPropertyOp20
 70
     1
102
RTVSPropertyOp21
 70
     1
102
RTVSPropertyOp22
 70
     1
102
RTVSPropertyOp23
 70
     1
102
RTVSPropertyOp24
 70
     1
102
RTVSPropertyOp25
 70
     1
102
RTVSPropertyOp26
 70
     1
102
RTVSPropertyOp27
 70
     1
102
RTVSPropertyOp28
 70
     1
102
RTVSPropertyOp29
 70
     1
102
RTVSPropertyOp30
 70
     1
102
RTVSPropertyOp31
 70
     1
102
RTVSPropertyOp32
 70
     1
102
RTVSPropertyOp33
 70
     1
102
RTVSPropertyOp34
 70
     1
102
RTVSPropertyOp35
 70
     1
102
RTVSPropertyOp36
 70
     1
102
RTVSPropertyOp37
 70
     1
102
RTVSPropertyOp38
 70
     1
102
RTVSPropertyOp39
 70
     1
102
RTVSPropertyOp40
 70
     1
102
RTVSPropertyOp41
 70
     1
102
RTVSPropertyOp42
 70
     1
102
RTVSPropertyOp43
 70
     1
102
RTVSPropertyOp44
 70
     1
102
RTVSPropertyOp45
 70
     1
102
RTVSPropertyOp46
 70
     1
102
RTVSPropertyOp47
 70
     1
102
RTVSPropertyOp48
 70
     1
102
RTVSPropertyOp49
 70
     1
102
RTVSPropertyOp50
 70
     1
102
RTVSPropertyOp51
 70
     0
102
RTVSPropertyOp52
 70
     0
102
RTVSPropertyOp53
 70
     1
102
RTVSPropertyOp54
 70
     1
102
RTVSPropertyOp55
 70
     1
102
RTVSPropertyOp56
 70
     1
102
RTVSPropertyOp57
 70
     1
102
RTVSPropertyOp58
 70
     1
102
RTVSPropertyOp59
 70
     1
102
RTVSPropertyOp60
 70
     1
102
RTVSPropertyOp61
 70
     1
102
RTVSPropertyOp62
 70
     1
  0
XRECORD
  5
D037
102
{ACAD_REACTORS
330
D036
102
}
330
D036
100
AcDbXrecord
280
     1
102
RTVSPost2010Prop28
280
     0
102
RTVSPost2010PropOp28
 70
     1
102
RTVSPost2010Prop29
280
     1
102
RTVSPost2010PropOp29
 70
     1
102
RTVSPost2010Prop30
280
     1
102
RTVSPost2010PropOp30
 70
     1
102
RTVSPost2010Prop31
280
     0
102
RTVSPost2010PropOp31
 70
     1
102
RTVSPost2010Prop32
280
     0
102
RTVSPost2010PropOp32
 70
     1
102
RTVSPost2010Prop33
280
     0
102
RTVSPost2010PropOp33
 70
     1
102
RTVSPost2010Prop34
280
     0
102
RTVSPost2010PropOp34
 70
     1
102
RTVSPost2010Prop35
280
     0
102
RTVSPost2010PropOp35
 70
     1
102
RTVSPost2010Prop36
280
     0
102
RTVSPost2010PropOp36
 70
     1
102
RTVSPost2010Prop37
 90
       50
102
RTVSPost2010PropOp37
 70
     1
102
RTVSPost2010Prop38
140
0.0
102
RTVSPost2010PropOp38
 70
     1
102
RTVSPost2010Prop39
140
1.0
102
RTVSPost2010PropOp39
 70
     1
102
RTVSPost2010Prop40
 90
        0
102
RTVSPost2010PropOp40
 70
     1
102
RTVSPost2010Prop41ColorIndex
 90
       18
102
RTVSPost2010Prop41ColorRGB
 90
        0
102
RTVSPost2010PropOp41
 70
     1
102
RTVSPost2010Prop42
 90
       50
102
RTVSPost2010PropOp42
 70
     1
102
RTVSPost2010Prop43
 90
        3
102
RTVSPost2010PropOp43
 70
     1
102
RTVSPost2010Prop44ColorIndex
 90
        5
102
RTVSPost2010Prop44ColorRGB
 90
      255
102
RTVSPost2010PropOp44
 70
     1
102
RTVSPost2010Prop45
280
     0
102
RTVSPost2010PropOp45
 70
     1
102
RTVSPost2010Prop46
 90
       50
102
RTVSPost2010PropOp46
 70
     1
102
RTVSPost2010Prop47
 90
       50
102
RTVSPost2010PropOp47
 70
     1
102
RTVSPost2010Prop48
 90
       50
102
RTVSPost2010PropOp48
 70
     1
102
RTVSPost2010Prop49
280
     0
102
RTVSPost2010PropOp49
 70
     1
102
RTVSPost2010Prop50
 90
       50
102
RTVSPost2010PropOp50
 70
     1
102
RTVSPost2010Prop51ColorIndex
 90
      256
102
RTVSPost2010Prop51ColorRGB
 90
-16777216
102
RTVSPost2010PropOp51
 70
     0
102
RTVSPost2010Prop52
140
1.0
102
RTVSPost2010PropOp52
 70
     0
102
RTVSPost2010Prop53
 90
        2
102
RTVSPost2010PropOp53
 70
     1
102
RTVSPost2010Prop54
  1
strokes_ogs.tif
102
RTVSPost2010PropOp54
 70
     1
102
RTVSPost2010Prop55
280
     0
102
RTVSPost2010PropOp55
 70
     1
102
RTVSPost2010Prop56
140
1.0
102
RTVSPost2010PropOp56
 70
     1
102
RTVSPost2010Prop57
140
1.0
102
RTVSPost2010PropOp57
 70
     1
102
RTVSPropertyOp0
 70
     1
102
RTVSPropertyOp1
 70
     1
102
RTVSPropertyOp2
 70
     1
102
RTVSPropertyOp3
 70
     1
102
RTVSPropertyOp4
 70
     1
102
RTVSPropertyOp5
 70
     1
102
RTVSPropertyOp6
 70
     1
102
RTVSPropertyOp7
 70
     1
102
RTVSPropertyOp8
 70
     1
102
RTVSPropertyOp9
 70
     1
102
RTVSPropertyOp10
 70
     1
102
RTVSPropertyOp11
 70
     1
102
RTVSPropertyOp12
 70
     1
102
RTVSPropertyOp13
 70
     1
102
RTVSPropertyOp14
 70
     1
102
RTVSPropertyOp15
 70
     1
102
RTVSPropertyOp16
 70
     1
102
RTVSPropertyOp17
 70
     1
102
RTVSPropertyOp18
 70
     1
102
RTVSPropertyOp19
 70
     1
102
RTVSPropertyOp20
 70
     1
102
RTVSPropertyOp21
 70
     1
102
RTVSPropertyOp22
 70
     1
102
RTVSPropertyOp23
 70
     1
102
RTVSPropertyOp24
 70
     1
102
RTVSPropertyOp25
 70
     1
102
RTVSPropertyOp26
 70
     1
102
RTVSPropertyOp27
 70
     1
102
RTVSPropertyOp28
 70
     1
102
RTVSPropertyOp29
 70
     1
102
RTVSPropertyOp30
 70
     1
102
RTVSPropertyOp31
 70
     1
102
RTVSPropertyOp32
 70
     1
102
RTVSPropertyOp33
 70
     1
102
RTVSPropertyOp34
 70
     1
102
RTVSPropertyOp35
 70
     1
102
RTVSPropertyOp36
 70
     1
102
RTVSPropertyOp37
 70
     1
102
RTVSPropertyOp38
 70
     1
102
RTVSPropertyOp39
 70
     1
102
RTVSPropertyOp40
 70
     1
102
RTVSPropertyOp41
 70
     1
102
RTVSPropertyOp42
 70
     1
102
RTVSPropertyOp43
 70
     1
102
RTVSPropertyOp44
 70
     1
102
RTVSPropertyOp45
 70
     1
102
RTVSPropertyOp46
 70
     1
102
RTVSPropertyOp47
 70
     1
102
RTVSPropertyOp48
 70
     1
102
RTVSPropertyOp49
 70
     1
102
RTVSPropertyOp50
 70
     1
102
RTVSPropertyOp51
 70
     0
102
RTVSPropertyOp52
 70
     0
102
RTVSPropertyOp53
 70
     1
102
RTVSPropertyOp54
 70
     1
102
RTVSPropertyOp55
 70
     1
102
RTVSPropertyOp56
 70
     1
102
RTVSPropertyOp57
 70
     1
102
RTVSPropertyOp58
 70
     1
102
RTVSPropertyOp59
 70
     1
102
RTVSPropertyOp60
 70
     1
102
RTVSPropertyOp61
 70
     1
102
RTVSPropertyOp62
 70
     1
  0
ENDSEC
  0
EOF
