  0
SECTION
  2
HEADER
  9
$ACADVER
  1
AC1015
  9
$ACADMAINTVER
 70
    20
  9
$DWGCODEPAGE
  3
ANSI_932
  9
$INSBASE
 10
0.0
 20
0.0
 30
0.0
  9
$EXTMIN
 10
10.591353
 20
9.999999999999998
 30
0.0
  9
$EXTMAX
 10
570.8067019999997
 20
484.082143
 30
0.0
  9
$LIMMIN
 10
0.0
 20
0.0
  9
$LIMMAX
 10
792.0
 20
546.0
  9
$ORTHOMODE
 70
     1
  9
$REGENMODE
 70
     1
  9
$FILLMODE
 70
     1
  9
$QTEXTMODE
 70
     0
  9
$MIRRTEXT
 70
     1
  9
$LTSCALE
 40
20.0
  9
$ATTMODE
 70
     1
  9
$TEXTSIZE
 40
5.0
  9
$TRACEWID
 40
1.0
  9
$TEXTSTYLE
  7
STANDARD
  9
$CLAYER
  8
0
  9
$CELTYPE
  6
BYLAYER
  9
$CECOLOR
 62
   256
  9
$CELTSCALE
 40
1.0
  9
$DISPSILH
 70
     0
  9
$DIMSCALE
 40
1.0
  9
$DIMASZ
 40
2.5
  9
$DIMEXO
 40
1.0
  9
$DIMDLI
 40
10.0
  9
$DIMRND
 40
0.0
  9
$DIMDLE
 40
0.0
  9
$DIMEXE
 40
1.0
  9
$DIMTP
 40
0.0
  9
$DIMTM
 40
0.0
  9
$DIMTXT
 40
3.2
  9
$DIMCEN
 40
0.0
  9
$DIMTSZ
 40
0.0
  9
$DIMTOL
 70
     0
  9
$DIMLIM
 70
     0
  9
$DIMTIH
 70
     0
  9
$DIMTOH
 70
     0
  9
$DIMSE1
 70
     0
  9
$DIMSE2
 70
     0
  9
$DIMTAD
 70
     3
  9
$DIMZIN
 70
     8
  9
$DIMBLK
  1

  9
$DIMASO
 70
     1
  9
$DIMSHO
 70
     1
  9
$DIMPOST
  1

  9
$DIMAPOST
  1

  9
$DIMALT
 70
     0
  9
$DIMALTD
 70
     2
  9
$DIMALTF
 40
25.4
  9
$DIMLFAC
 40
1.0
  9
$DIMTOFL
 70
     1
  9
$DIMTVP
 40
0.0
  9
$DIMTIX
 70
     0
  9
$DIMSOXD
 70
     0
  9
$DIMSAH
 70
     1
  9
$DIMBLK1
  1
OPEN
  9
$DIMBLK2
  1
OPEN
  9
$DIMSTYLE
  2
STANDARD
  9
$DIMCLRD
 70
     0
  9
$DIMCLRE
 70
     0
  9
$DIMCLRT
 70
     0
  9
$DIMTFAC
 40
1.0
  9
$DIMGAP
 40
1.0
  9
$DIMJUST
 70
     0
  9
$DIMSD1
 70
     0
  9
$DIMSD2
 70
     0
  9
$DIMTOLJ
 70
     1
  9
$DIMTZIN
 70
     0
  9
$DIMALTZ
 70
     0
  9
$DIMALTTZ
 70
     0
  9
$DIMUPT
 70
     0
  9
$DIMDEC
 70
     4
  9
$DIMTDEC
 70
     4
  9
$DIMALTU
 70
     2
  9
$DIMALTTD
 70
     2
  9
$DIMTXSTY
  7
STANDARD
  9
$DIMAUNIT
 70
     0
  9
$DIMADEC
 70
     0
  9
$DIMALTRND
 40
0.0
  9
$DIMAZIN
 70
     0
  9
$DIMDSEP
 70
    46
  9
$DIMATFIT
 70
     3
  9
$DIMFRAC
 70
     0
  9
$DIMLDRBLK
  1
OPEN
  9
$DIMLUNIT
 70
     2
  9
$DIMLWD
 70
    -2
  9
$DIMLWE
 70
    -2
  9
$DIMTMOVE
 70
     0
  9
$LUNITS
 70
     2
  9
$LUPREC
 70
     4
  9
$SKETCHINC
 40
1.0
  9
$FILLETRAD
 40
0.0
  9
$AUNITS
 70
     0
  9
$AUPREC
 70
     2
  9
$MENU
  1
.
  9
$ELEVATION
 40
0.0
  9
$PELEVATION
 40
0.0
  9
$THICKNESS
 40
0.0
  9
$LIMCHECK
 70
     0
  9
$CHAMFERA
 40
10.0
  9
$CHAMFERB
 40
10.0
  9
$CHAMFERC
 40
0.0
  9
$CHAMFERD
 40
0.0
  9
$SKPOLY
 70
     0
  9
$TDCREATE
 40
2451347.384590973
  9
$TDUCREATE
 40
2451347.009590973
  9
$TDUPDATE
 40
2457192.643787431
  9
$TDUUPDATE
 40
2457192.268787431
  9
$TDINDWG
 40
0.0492896412
  9
$TDUSRTIMER
 40
0.0492891551
  9
$USRTIMER
 70
     1
  9
$ANGBASE
 50
0.0
  9
$ANGDIR
 70
     0
  9
$PDMODE
 70
     0
  9
$PDSIZE
 40
0.0
  9
$PLINEWID
 40
0.0
  9
$SPLFRAME
 70
     0
  9
$SPLINETYPE
 70
     6
  9
$SPLINESEGS
 70
     8
  9
$HANDSEED
  5
D130
  9
$SURFTAB1
 70
     6
  9
$SURFTAB2
 70
     6
  9
$SURFTYPE
 70
     6
  9
$SURFU
 70
     6
  9
$SURFV
 70
     6
  9
$UCSBASE
  2

  9
$UCSNAME
  2

  9
$UCSORG
 10
0.0
 20
0.0
 30
0.0
  9
$UCSXDIR
 10
1.0
 20
0.0
 30
0.0
  9
$UCSYDIR
 10
0.0
 20
1.0
 30
0.0
  9
$UCSORTHOREF
  2

  9
$UCSORTHOVIEW
 70
     0
  9
$UCSORGTOP
 10
0.0
 20
0.0
 30
0.0
  9
$UCSORGBOTTOM
 10
0.0
 20
0.0
 30
0.0
  9
$UCSORGLEFT
 10
0.0
 20
0.0
 30
0.0
  9
$UCSORGRIGHT
 10
0.0
 20
0.0
 30
0.0
  9
$UCSORGFRONT
 10
0.0
 20
0.0
 30
0.0
  9
$UCSORGBACK
 10
0.0
 20
0.0
 30
0.0
  9
$PUCSBASE
  2

  9
$PUCSNAME
  2

  9
$PUCSORG
 10
0.0
 20
0.0
 30
0.0
  9
$PUCSXDIR
 10
1.0
 20
0.0
 30
0.0
  9
$PUCSYDIR
 10
0.0
 20
1.0
 30
0.0
  9
$PUCSORTHOREF
  2

  9
$PUCSORTHOVIEW
 70
     0
  9
$PUCSORGTOP
 10
0.0
 20
0.0
 30
0.0
  9
$PUCSORGBOTTOM
 10
0.0
 20
0.0
 30
0.0
  9
$PUCSORGLEFT
 10
0.0
 20
0.0
 30
0.0
  9
$PUCSORGRIGHT
 10
0.0
 20
0.0
 30
0.0
  9
$PUCSORGFRONT
 10
0.0
 20
0.0
 30
0.0
  9
$PUCSORGBACK
 10
0.0
 20
0.0
 30
0.0
  9
$USERI1
 70
     0
  9
$USERI2
 70
     0
  9
$USERI3
 70
     0
  9
$USERI4
 70
     0
  9
$USERI5
 70
     0
  9
$USERR1
 40
0.0
  9
$USERR2
 40
0.0
  9
$USERR3
 40
0.0
  9
$USERR4
 40
0.0
  9
$USERR5
 40
0.0
  9
$WORLDVIEW
 70
     1
  9
$SHADEDGE
 70
     3
  9
$SHADEDIF
 70
    70
  9
$TILEMODE
 70
     1
  9
$MAXACTVP
 70
    16
  9
$PINSBASE
 10
0.0
 20
0.0
 30
0.0
  9
$PLIMCHECK
 70
     0
  9
$PEXTMIN
 10
1.000000000000000E+20
 20
1.000000000000000E+20
 30
1.000000000000000E+20
  9
$PEXTMAX
 10
-1.000000000000000E+20
 20
-1.000000000000000E+20
 30
-1.000000000000000E+20
  9
$PLIMMIN
 10
0.0
 20
0.0
  9
$PLIMMAX
 10
420.0
 20
297.0
  9
$UNITMODE
 70
     0
  9
$VISRETAIN
 70
     0
  9
$PLINEGEN
 70
     0
  9
$PSLTSCALE
 70
     0
  9
$TREEDEPTH
 70
  3020
  9
$CMLSTYLE
  2
STANDARD
  9
$CMLJUST
 70
     0
  9
$CMLSCALE
 40
1.0
  9
$PROXYGRAPHICS
 70
     1
  9
$MEASUREMENT
 70
     0
  9
$CELWEIGHT
370
    -1
  9
$ENDCAPS
280
     0
  9
$JOINSTYLE
280
     0
  9
$LWDISPLAY
290
     0
  9
$INSUNITS
 70
     0
  9
$HYPERLINKBASE
  1

  9
$STYLESHEET
  1

  9
$XEDIT
290
     1
  9
$CEPSNTYPE
380
     0
  9
$PSTYLEMODE
290
     1
  9
$FINGERPRINTGUID
  2
{A18D3378-77DD-4C7F-B880-6599043284D5}
  9
$VERSIONGUID
  2
{24660A46-3BF3-4871-9B1E-A058F81BEC52}
  9
$EXTNAMES
290
     1
  9
$PSVPSCALE
 40
0.0
  9
$OLESTARTUP
290
     0
  0
ENDSEC
  0
SECTION
  2
CLASSES
  0
CLASS
  1
ACDBDICTIONARYWDFLT
  2
AcDbDictionaryWithDefault
  3
ObjectDBX Classes
 90
        0
280
     0
281
     0
  0
CLASS
  1
ACDBPLACEHOLDER
  2
AcDbPlaceHolder
  3
ObjectDBX Classes
 90
        0
280
     0
281
     0
  0
CLASS
  1
LAYOUT
  2
AcDbLayout
  3
ObjectDBX Classes
 90
        0
280
     0
281
     0
  0
CLASS
  1
DICTIONARYVAR
  2
AcDbDictionaryVar
  3
ObjectDBX Classes
 90
        0
280
     0
281
     0
  0
CLASS
  1
MATERIAL
  2
AcDbMaterial
  3
ObjectDBX Classes
 90
     1153
280
     0
281
     0
  0
CLASS
  1
VISUALSTYLE
  2
AcDbVisualStyle
  3
ObjectDBX Classes
 90
     4095
280
     0
281
     0
  0
CLASS
  1
TABLESTYLE
  2
AcDbTableStyle
  3
ObjectDBX Classes
 90
     4095
280
     0
281
     0
  0
CLASS
  1
SCALE
  2
AcDbScale
  3
ObjectDBX Classes
 90
     1153
280
     0
281
     0
  0
CLASS
  1
MLEADERSTYLE
  2
AcDbMLeaderStyle
  3
ACDB_MLEADERSTYLE_CLASS
 90
     4095
280
     0
281
     0
  0
CLASS
  1
ACDBSECTIONVIEWSTYLE
  2
AcDbSectionViewStyle
  3
ObjectDBX Classes
 90
     1025
280
     0
281
     0
  0
CLASS
  1
ACDBDETAILVIEWSTYLE
  2
AcDbDetailViewStyle
  3
ObjectDBX Classes
 90
     1025
280
     0
281
     0
  0
CLASS
  1
CELLSTYLEMAP
  2
AcDbCellStyleMap
  3
ObjectDBX Classes
 90
     1152
280
     0
281
     0
  0
ENDSEC
  0
SECTION
  2
TABLES
  0
TABLE
  2
VPORT
  5
C856
330
0
100
AcDbSymbolTable
 70
     1
  0
VPORT
  5
D07B
330
C856
100
AcDbSymbolTableRecord
100
AcDbViewportTableRecord
  2
*ACTIVE
 70
     0
 10
0.0
 20
0.0
 11
1.0
 21
1.0
 12
443.0576776046033
 22
247.0480053914337
 13
0.0
 23
0.0
 14
10.0
 24
10.0
 15
10.0
 25
10.0
 16
0.0
 26
0.0
 36
1.0
 17
0.0
 27
0.0
 37
0.0
 40
478.7207267160711
 41
1.899603698811096
 42
50.0
 43
0.0
 44
0.0
 50
0.0
 51
0.0
 71
     0
 72
   100
 73
     1
 74
     0
 75
     0
 76
     0
 77
     0
 78
     0
281
     0
 65
     1
110
0.0
120
0.0
130
0.0
111
1.0
121
0.0
131
0.0
112
0.0
122
1.0
132
0.0
 79
     0
146
0.0
1001
ACAD_NAV_VCDISPLAY
1070
     3
  0
ENDTAB
  0
TABLE
  2
LTYPE
  5
C853
330
0
100
AcDbSymbolTable
 70
     4
  0
LTYPE
  5
C861
330
C853
100
AcDbSymbolTableRecord
100
AcDbLinetypeTableRecord
  2
BYBLOCK
 70
     0
  3

 72
    65
 73
     0
 40
0.0
  0
LTYPE
  5
C862
330
C853
100
AcDbSymbolTableRecord
100
AcDbLinetypeTableRecord
  2
BYLAYER
 70
     0
  3

 72
    65
 73
     0
 40
0.0
  0
LTYPE
  5
C863
330
C853
100
AcDbSymbolTableRecord
100
AcDbLinetypeTableRecord
  2
CONTINUOUS
 70
     0
  3
Solid line
 72
    65
 73
     0
 40
0.0
  0
LTYPE
  5
C871
330
C853
100
AcDbSymbolTableRecord
100
AcDbLinetypeTableRecord
  2
DASHED
 70
     0
  3
__ __ __ __ __ __ __ __ __ __ __ __ __ __ __ __
 72
    65
 73
     2
 40
0.75
 49
0.5
 74
     0
 49
-0.25
 74
     0
  0
LTYPE
  5
C872
330
C853
100
AcDbSymbolTableRecord
100
AcDbLinetypeTableRecord
  2
CENTER
 70
     0
  3
____ _ ____ _ ____ _ ____ _ ____ _ ____ _ ____ 
 72
    65
 73
     4
 40
2.0
 49
1.25
 74
     0
 49
-0.25
 74
     0
 49
0.25
 74
     0
 49
-0.25
 74
     0
  0
LTYPE
  5
C873
330
C853
100
AcDbSymbolTableRecord
100
AcDbLinetypeTableRecord
  2
PHANTOM
 70
     0
  3
______  __  __  ______  __  __  ______  __  __ 
 72
    65
 73
     6
 40
2.5
 49
1.25
 74
     0
 49
-0.25
 74
     0
 49
0.25
 74
     0
 49
-0.25
 74
     0
 49
0.25
 74
     0
 49
-0.25
 74
     0
  0
ENDTAB
  0
TABLE
  2
LAYER
  5
C850
330
0
100
AcDbSymbolTable
 70
     8
  0
LAYER
  5
C85E
102
{ACAD_XDICTIONARY
360
D0D4
102
}
330
C850
100
AcDbSymbolTableRecord
100
AcDbLayerTableRecord
  2
0
 70
     0
 62
     7
  6
CONTINUOUS
370
    -3
390
D082
  0
LAYER
  5
C874
102
{ACAD_XDICTIONARY
360
D0D6
102
}
330
C850
100
AcDbSymbolTableRecord
100
AcDbLayerTableRecord
  2
4
 70
     0
 62
     1
  6
CENTER
370
    -3
390
D082
  0
LAYER
  5
C875
102
{ACAD_XDICTIONARY
360
D0D8
102
}
330
C850
100
AcDbSymbolTableRecord
100
AcDbLayerTableRecord
  2
5
 70
     0
 62
     6
  6
PHANTOM
370
    -3
390
D082
  0
LAYER
  5
C876
102
{ACAD_XDICTIONARY
360
D0DA
102
}
330
C850
100
AcDbSymbolTableRecord
100
AcDbLayerTableRecord
  2
1
 70
     0
 62
     7
  6
CONTINUOUS
370
    -3
390
D082
  0
LAYER
  5
C877
102
{ACAD_XDICTIONARY
360
D0DC
102
}
330
C850
100
AcDbSymbolTableRecord
100
AcDbLayerTableRecord
  2
2
 70
     0
 62
     4
  6
CONTINUOUS
370
    -3
390
D082
  0
LAYER
  5
C878
102
{ACAD_XDICTIONARY
360
D0DE
102
}
330
C850
100
AcDbSymbolTableRecord
100
AcDbLayerTableRecord
  2
3
 70
     0
 62
     2
  6
DASHED
370
    -3
390
D082
  0
LAYER
  5
C879
102
{ACAD_XDICTIONARY
360
D0E0
102
}
330
C850
100
AcDbSymbolTableRecord
100
AcDbLayerTableRecord
  2
6
 70
     0
 62
     5
  6
CONTINUOUS
370
    -3
390
D082
  0
LAYER
  5
C87A
102
{ACAD_XDICTIONARY
360
D0E2
102
}
330
C850
100
AcDbSymbolTableRecord
100
AcDbLayerTableRecord
  2
7
 70
     0
 62
     3
  6
CONTINUOUS
370
    -3
390
D082
  0
ENDTAB
  0
TABLE
  2
STYLE
  5
C851
330
0
100
AcDbSymbolTable
 70
     1
  0
STYLE
  5
C85F
330
C851
100
AcDbSymbolTableRecord
100
AcDbTextStyleTableRecord
  2
STANDARD
 70
     0
 40
0.0
 41
1.0
 50
0.0
 71
     0
 42
5.0
  3
txt
  4

  0
ENDTAB
  0
TABLE
  2
VIEW
  5
C854
330
0
100
AcDbSymbolTable
 70
     0
  0
ENDTAB
  0
TABLE
  2
UCS
  5
C855
330
0
100
AcDbSymbolTable
 70
     0
  0
ENDTAB
  0
TABLE
  2
APPID
  5
C857
330
0
100
AcDbSymbolTable
 70
     3
  0
APPID
  5
C860
330
C857
100
AcDbSymbolTableRecord
100
AcDbRegAppTableRecord
  2
ACAD
 70
     0
  0
APPID
  5
D0EE
330
C857
100
AcDbSymbolTableRecord
100
AcDbRegAppTableRecord
  2
ACAD_NAV_VCDISPLAY
 70
     0
  0
APPID
  5
D127
330
C857
100
AcDbSymbolTableRecord
100
AcDbRegAppTableRecord
  2
ACAD_MLEADERVER
 70
     0
  0
ENDTAB
  0
TABLE
  2
DIMSTYLE
  5
C858
330
0
100
AcDbSymbolTable
 70
     1
100
AcDbDimStyleTable
 71
     0
  0
DIMSTYLE
105
C87C
330
C858
100
AcDbSymbolTableRecord
100
AcDbDimStyleTableRecord
  2
STANDARD
 70
     0
 41
2.5
 42
1.0
 43
10.0
 44
1.0
 73
     0
 74
     0
 77
     3
 78
     8
140
3.2
141
0.0
147
1.0
172
     1
173
     1
284
     8
285
     8
286
     8
340
C85F
  0
ENDTAB
  0
TABLE
  2
BLOCK_RECORD
  5
C84F
330
0
100
AcDbSymbolTable
 70
     1
  0
BLOCK_RECORD
  5
C86C
102
{ACAD_XDICTIONARY
360
CD04
102
}
330
C84F
100
AcDbSymbolTableRecord
100
AcDbBlockTableRecord
  2
*MODEL_SPACE
340
D0D0
  0
BLOCK_RECORD
  5
C868
102
{ACAD_XDICTIONARY
360
CD02
102
}
330
C84F
100
AcDbSymbolTableRecord
100
AcDbBlockTableRecord
  2
*PAPER_SPACE
340
D0D1
  0
BLOCK_RECORD
  5
C884
330
C84F
100
AcDbSymbolTableRecord
100
AcDbBlockTableRecord
  2
_OPEN
340
0
  0
ENDTAB
  0
ENDSEC
  0
SECTION
  2
BLOCKS
  0
BLOCK
  5
C86D
330
C86C
100
AcDbEntity
  8
0
100
AcDbBlockBegin
  2
*MODEL_SPACE
 70
     0
 10
0.0
 20
0.0
 30
0.0
  3
*MODEL_SPACE
  1

  0
ENDBLK
  5
C86E
330
C86C
100
AcDbEntity
  8
0
100
AcDbBlockEnd
  0
BLOCK
  5
C869
330
C868
100
AcDbEntity
 67
     1
  8
0
100
AcDbBlockBegin
  2
*PAPER_SPACE
 70
     0
 10
0.0
 20
0.0
 30
0.0
  3
*PAPER_SPACE
  1

  0
ENDBLK
  5
C86A
330
C868
100
AcDbEntity
 67
     1
  8
0
100
AcDbBlockEnd
  0
BLOCK
  5
C885
330
C884
100
AcDbEntity
  8
0
100
AcDbBlockBegin
  2
_OPEN
 70
     0
 10
0.0
 20
0.0
 30
0.0
  3
_OPEN
  1

  0
LINE
  5
C886
330
C884
100
AcDbEntity
  8
0
  6
ByBlock
 62
     0
100
AcDbLine
 10
-1.0
 20
0.166667
 30
0.0
 11
0.0
 21
0.0
 31
0.0
  0
LINE
  5
C887
330
C884
100
AcDbEntity
  8
0
  6
ByBlock
 62
     0
100
AcDbLine
 10
0.0
 20
0.0
 30
0.0
 11
-1.0
 21
-0.166667
 31
0.0
  0
LINE
  5
C888
330
C884
100
AcDbEntity
  8
0
  6
ByBlock
 62
     0
100
AcDbLine
 10
0.0
 20
0.0
 30
0.0
 11
-1.0
 21
0.0
 31
0.0
  0
ENDBLK
  5
C889
330
C884
100
AcDbEntity
  8
0
100
AcDbBlockEnd
  0
ENDSEC
  0
SECTION
  2
ENTITIES
  0
TEXT
  5
C88A
330
C86C
100
AcDbEntity
  8
7
  6
Continuous
100
AcDbText
 10
10.591353
 20
18.0
 30
0.0
 40
3.0
  1
TYPE No.THA-540-2K(No.200)
100
AcDbText
  0
TEXT
  5
C88B
330
C86C
100
AcDbEntity
  8
7
  6
Continuous
100
AcDbText
 10
10.591353
 20
26.0
 30
0.0
 40
3.0
  1
CODE No.3188
100
AcDbText
  0
TEXT
  5
C88C
330
C86C
100
AcDbEntity
  8
1
  6
Continuous
100
AcDbText
 10
10.591353
 20
10.0
 30
0.0
 40
1.399999999999999
  1
LAYER
100
AcDbText
  0
TEXT
  5
C88D
330
C86C
100
AcDbEntity
  8
7
  6
Continuous
100
AcDbText
 10
30.570864
 20
10.04873699999998
 30
0.0
 40
1.399999999999999
  1
7
100
AcDbText
  0
TEXT
  5
C88E
330
C86C
100
AcDbEntity
  8
6
  6
Continuous
100
AcDbText
 10
28.570864
 20
10.04873699999998
 30
0.0
 40
1.399999999999999
  1
6
100
AcDbText
  0
TEXT
  5
C88F
330
C86C
100
AcDbEntity
  8
4
  6
CENTER
100
AcDbText
 10
24.570864
 20
10.04873699999998
 30
0.0
 40
1.399999999999999
  1
4
100
AcDbText
  0
TEXT
  5
C890
330
C86C
100
AcDbEntity
  8
5
  6
PHANTOM
100
AcDbText
 10
26.570864
 20
10.04873699999998
 30
0.0
 40
1.399999999999999
  1
5
100
AcDbText
  0
TEXT
  5
C891
330
C86C
100
AcDbEntity
  8
3
  6
DASHED
100
AcDbText
 10
22.57086399999999
 20
10.04873699999998
 30
0.0
 40
1.399999999999999
  1
3
100
AcDbText
  0
TEXT
  5
C892
330
C86C
100
AcDbEntity
  8
1
  6
Continuous
100
AcDbText
 10
18.570864
 20
10.04873699999998
 30
0.0
 40
1.399999999999999
  1
1
100
AcDbText
  0
TEXT
  5
C893
330
C86C
100
AcDbEntity
  8
2
  6
Continuous
100
AcDbText
 10
20.570864
 20
10.04873699999998
 30
0.0
 40
1.399999999999999
  1
2
100
AcDbText
  0
LINE
  5
C894
330
C86C
100
AcDbEntity
  8
1
  6
Continuous
100
AcDbLine
 10
203.759738
 20
151.0000009999999
 30
0.0
 11
203.759738
 21
41.00000099999999
 31
0.0
  0
LINE
  5
C895
330
C86C
100
AcDbEntity
  8
1
  6
Continuous
100
AcDbLine
 10
205.7597379999999
 20
151.0000009999999
 30
0.0
 11
205.7597379999999
 21
41.00000099999999
 31
0.0
  0
LINE
  5
C896
330
C86C
100
AcDbEntity
  8
1
  6
Continuous
100
AcDbLine
 10
203.759738
 20
41.00000099999999
 30
0.0
 11
205.7597379999999
 21
41.00000099999999
 31
0.0
  0
LINE
  5
C897
330
C86C
100
AcDbEntity
  8
4
  6
CENTER
100
AcDbLine
 10
202.7147429999998
 20
82.500113
 30
0.0
 11
207.178682
 21
82.500113
 31
0.0
  0
LINE
  5
C898
330
C86C
100
AcDbEntity
  8
1
  6
Continuous
100
AcDbLine
 10
191.259738
 20
106.0000009999999
 30
0.0
 11
196.7597379999999
 21
106.0000009999999
 31
0.0
  0
LINE
  5
C899
330
C86C
100
AcDbEntity
  8
1
  6
Continuous
100
AcDbLine
 10
191.259738
 20
99.00000099999999
 30
0.0
 11
196.7597379999999
 21
99.00000099999999
 31
0.0
  0
LINE
  5
C89A
330
C86C
100
AcDbEntity
  8
1
  6
Continuous
100
AcDbLine
 10
191.259738
 20
91.000001
 30
0.0
 11
203.759738
 21
91.000001
 31
0.0
  0
LINE
  5
C89B
330
C86C
100
AcDbEntity
  8
1
  6
Continuous
100
AcDbLine
 10
191.259738
 20
114.000001
 30
0.0
 11
203.759738
 21
114.000001
 31
0.0
  0
LINE
  5
C89C
330
C86C
100
AcDbEntity
  8
4
  6
CENTER
100
AcDbLine
 10
183.5529339999999
 20
102.500001
 30
0.0
 11
211.369527
 21
102.500001
 31
0.0
  0
LINE
  5
C89D
330
C86C
100
AcDbEntity
  8
1
  6
Continuous
100
AcDbLine
 10
188.4597379999999
 20
110.900001
 30
0.0
 11
188.4597379999999
 21
94.10000100000001
 31
0.0
  0
ARC
  5
C89E
330
C86C
100
AcDbEntity
  8
1
  6
Continuous
100
AcDbCircle
 10
227.0172379999999
 20
102.500001
 30
0.0
 40
40.7575
100
AcDbArc
 50
168.1062739999999
 51
191.893726
  0
LINE
  5
C89F
330
C86C
100
AcDbEntity
  8
1
  6
Continuous
100
AcDbLine
 10
190.2597379999999
 20
116.5000009999999
 30
0.0
 11
190.2597379999999
 21
88.50000099999999
 31
0.0
  0
LINE
  5
C8A0
330
C86C
100
AcDbEntity
  8
1
  6
Continuous
100
AcDbLine
 10
191.259738
 20
116.5000009999999
 30
0.0
 11
191.259738
 21
88.50000099999999
 31
0.0
  0
LINE
  5
C8A1
330
C86C
100
AcDbEntity
  8
1
  6
Continuous
100
AcDbLine
 10
188.759738
 20
114.5000009999999
 30
0.0
 11
188.759738
 21
90.500001
 31
0.0
  0
LINE
  5
C8A2
330
C86C
100
AcDbEntity
  8
1
  6
Continuous
100
AcDbLine
 10
188.759738
 20
90.500001
 30
0.0
 11
190.2597379999999
 21
88.50000099999999
 31
0.0
  0
LINE
  5
C8A3
330
C86C
100
AcDbEntity
  8
1
  6
Continuous
100
AcDbLine
 10
190.2597379999999
 20
88.50000099999999
 30
0.0
 11
191.259738
 21
88.50000099999999
 31
0.0
  0
LINE
  5
C8A4
330
C86C
100
AcDbEntity
  8
1
  6
Continuous
100
AcDbLine
 10
187.1347379999999
 20
94.10000100000001
 30
0.0
 11
188.759738
 21
94.10000100000001
 31
0.0
  0
LINE
  5
C8A5
330
C86C
100
AcDbEntity
  8
1
  6
Continuous
100
AcDbLine
 10
187.1347379999999
 20
110.900001
 30
0.0
 11
188.759738
 21
110.900001
 31
0.0
  0
LINE
  5
C8A6
330
C86C
100
AcDbEntity
  8
1
  6
Continuous
100
AcDbLine
 10
188.759738
 20
114.5000009999999
 30
0.0
 11
190.2597379999999
 21
116.5000009999999
 31
0.0
  0
LINE
  5
C8A7
330
C86C
100
AcDbEntity
  8
1
  6
Continuous
100
AcDbLine
 10
190.2597379999999
 20
116.5000009999999
 30
0.0
 11
191.259738
 21
116.5000009999999
 31
0.0
  0
LINE
  5
C8A8
330
C86C
100
AcDbEntity
  8
1
  6
Continuous
100
AcDbLine
 10
203.2597379999999
 20
114.000001
 30
0.0
 11
203.2597379999999
 21
91.000001
 31
0.0
  0
LINE
  5
C8A9
330
C86C
100
AcDbEntity
  8
1
  6
Continuous
100
AcDbLine
 10
202.1597379999998
 20
114.000001
 30
0.0
 11
202.1597379999998
 21
91.000001
 31
0.0
  0
LINE
  5
C8AA
330
C86C
100
AcDbEntity
  8
1
  6
Continuous
100
AcDbLine
 10
201.9597379999999
 20
114.000001
 30
0.0
 11
201.9597379999999
 21
91.000001
 31
0.0
  0
LINE
  5
C8AB
330
C86C
100
AcDbEntity
  8
1
  6
Continuous
100
AcDbLine
 10
207.859738
 20
111.000001
 30
0.0
 11
206.8597379999999
 21
110.000001
 31
0.0
  0
LINE
  5
C8AC
330
C86C
100
AcDbEntity
  8
1
  6
Continuous
100
AcDbLine
 10
206.0597379999999
 20
116.000001
 30
0.0
 11
206.0597379999999
 21
106.0000009999999
 31
0.0
  0
ARC
  5
C8AD
330
C86C
100
AcDbEntity
  8
1
  6
Continuous
100
AcDbCircle
 10
201.459738
 20
111.000001
 30
0.0
 40
9.0
100
AcDbArc
 50
344.1191499999998
 51
15.88085
  0
LINE
  5
C8AE
330
C86C
100
AcDbEntity
  8
1
  6
Continuous
100
AcDbLine
 10
206.8597379999999
 20
116.000001
 30
0.0
 11
206.8597379999999
 21
106.0000009999999
 31
0.0
  0
LINE
  5
C8AF
330
C86C
100
AcDbEntity
  8
1
  6
Continuous
100
AcDbLine
 10
207.859738
 20
114.800001
 30
0.0
 11
207.859738
 21
107.200001
 31
0.0
  0
LINE
  5
C8B0
330
C86C
100
AcDbEntity
  8
1
  6
Continuous
100
AcDbLine
 10
207.859738
 20
90.500001
 30
0.0
 11
208.9791539999999
 21
90.597937
 31
0.0
  0
LINE
  5
C8B1
330
C86C
100
AcDbEntity
  8
1
  6
Continuous
100
AcDbLine
 10
207.859738
 20
107.5000009999999
 30
0.0
 11
208.9791539999999
 21
107.597937
 31
0.0
  0
LINE
  5
C8B2
330
C86C
100
AcDbEntity
  8
1
  6
Continuous
100
AcDbLine
 10
207.859738
 20
97.50000100000001
 30
0.0
 11
208.9791539999999
 21
97.40206499999999
 31
0.0
  0
ARC
  5
C8B3
330
C86C
100
AcDbEntity
  8
1
  6
Continuous
100
AcDbCircle
 10
207.7597379999999
 20
100.0000009999999
 30
0.0
 40
1.0
100
AcDbArc
 50
270.0
 51
0.0
  0
ARC
  5
C8B4
330
C86C
100
AcDbEntity
  8
1
  6
Continuous
100
AcDbCircle
 10
207.7597379999999
 20
105.0000009999999
 30
0.0
 40
1.0
100
AcDbArc
 50
0.0
 51
90.0
  0
LINE
  5
C8B5
330
C86C
100
AcDbEntity
  8
4
  6
CENTER
100
AcDbLine
 10
202.259738
 20
94.00000099999996
 30
0.0
 11
211.959738
 21
94.00000099999996
 31
0.0
  0
LINE
  5
C8B6
330
C86C
100
AcDbEntity
  8
1
  6
Continuous
100
AcDbLine
 10
206.8597379999999
 20
90.200001
 30
0.0
 11
207.859738
 21
90.200001
 31
0.0
  0
LINE
  5
C8B7
330
C86C
100
AcDbEntity
  8
1
  6
Continuous
100
AcDbLine
 10
206.0597379999999
 20
89.00000099999996
 30
0.0
 11
206.8597379999999
 21
89.00000099999996
 31
0.0
  0
LINE
  5
C8B8
330
C86C
100
AcDbEntity
  8
1
  6
Continuous
100
AcDbLine
 10
206.8597379999999
 20
107.200001
 30
0.0
 11
207.859738
 21
107.200001
 31
0.0
  0
LINE
  5
C8B9
330
C86C
100
AcDbEntity
  8
1
  6
Continuous
100
AcDbLine
 10
206.8597379999999
 20
97.800001
 30
0.0
 11
207.859738
 21
97.800001
 31
0.0
  0
LINE
  5
C8BA
330
C86C
100
AcDbEntity
  8
1
  6
Continuous
100
AcDbLine
 10
207.859738
 20
94.00000099999996
 30
0.0
 11
206.8597379999999
 21
93.000001
 31
0.0
  0
LINE
  5
C8BB
330
C86C
100
AcDbEntity
  8
1
  6
Continuous
100
AcDbLine
 10
206.8597379999999
 20
94.00000099999996
 30
0.0
 11
207.859738
 21
95.00000099999999
 31
0.0
  0
LINE
  5
C8BC
330
C86C
100
AcDbEntity
  8
1
  6
Continuous
100
AcDbLine
 10
196.7597379999999
 20
106.0000009999999
 30
0.0
 11
196.7597379999999
 21
99.00000099999999
 31
0.0
  0
LINE
  5
C8BD
330
C86C
100
AcDbEntity
  8
1
  6
Continuous
100
AcDbLine
 10
197.259738
 20
99.500001
 30
0.0
 11
197.259738
 21
105.500001
 31
0.0
  0
LINE
  5
C8BE
330
C86C
100
AcDbEntity
  8
1
  6
Continuous
100
AcDbLine
 10
196.7597379999999
 20
106.0000009999999
 30
0.0
 11
197.259738
 21
105.500001
 31
0.0
  0
LINE
  5
C8BF
330
C86C
100
AcDbEntity
  8
1
  6
Continuous
100
AcDbLine
 10
196.7597379999999
 20
99.00000099999999
 30
0.0
 11
197.259738
 21
99.500001
 31
0.0
  0
LINE
  5
C8C0
330
C86C
100
AcDbEntity
  8
1
  6
Continuous
100
AcDbLine
 10
205.7597379999999
 20
108.3000009999999
 30
0.0
 11
206.0597379999999
 21
108.3000009999999
 31
0.0
  0
LINE
  5
C8C1
330
C86C
100
AcDbEntity
  8
1
  6
Continuous
100
AcDbLine
 10
205.7597379999999
 20
96.70000100000001
 30
0.0
 11
206.0597379999999
 21
96.70000100000001
 31
0.0
  0
LINE
  5
C8C2
330
C86C
100
AcDbEntity
  8
1
  6
Continuous
100
AcDbLine
 10
205.7597379999999
 20
91.300001
 30
0.0
 11
206.0597379999999
 21
91.300001
 31
0.0
  0
LINE
  5
C8C3
330
C86C
100
AcDbEntity
  8
1
  6
Continuous
100
AcDbLine
 10
206.0597379999999
 20
106.0000009999999
 30
0.0
 11
206.8597379999999
 21
106.0000009999999
 31
0.0
  0
LINE
  5
C8C4
330
C86C
100
AcDbEntity
  8
1
  6
Continuous
100
AcDbLine
 10
206.0597379999999
 20
99.00000099999999
 30
0.0
 11
206.8597379999999
 21
99.00000099999999
 31
0.0
  0
LINE
  5
C8C5
330
C86C
100
AcDbEntity
  8
1
  6
Continuous
100
AcDbLine
 10
205.7597379999999
 20
99.00000099999999
 30
0.0
 11
207.7597379999999
 21
99.00000099999999
 31
0.0
  0
LINE
  5
C8C6
330
C86C
100
AcDbEntity
  8
1
  6
Continuous
100
AcDbLine
 10
205.7597379999999
 20
106.0000009999999
 30
0.0
 11
207.7597379999999
 21
106.0000009999999
 31
0.0
  0
LINE
  5
C8C7
330
C86C
100
AcDbEntity
  8
1
  6
Continuous
100
AcDbLine
 10
206.0597379999999
 20
99.00000099999999
 30
0.0
 11
206.0597379999999
 21
89.00000099999996
 31
0.0
  0
LINE
  5
C8C8
330
C86C
100
AcDbEntity
  8
1
  6
Continuous
100
AcDbLine
 10
206.8597379999999
 20
99.00000099999999
 30
0.0
 11
206.8597379999999
 21
89.00000099999996
 31
0.0
  0
LINE
  5
C8C9
330
C86C
100
AcDbEntity
  8
1
  6
Continuous
100
AcDbLine
 10
207.859738
 20
97.800001
 30
0.0
 11
207.859738
 21
90.200001
 31
0.0
  0
LINE
  5
C8CA
330
C86C
100
AcDbEntity
  8
4
  6
CENTER
100
AcDbLine
 10
194.259738
 20
116.792142
 30
0.0
 11
194.259738
 21
88.207859
 31
0.0
  0
ARC
  5
C8CB
330
C86C
100
AcDbEntity
  8
1
  6
Continuous
100
AcDbCircle
 10
208.865851
 20
108.8929899999999
 30
0.0
 40
1.3
100
AcDbArc
 50
275.0
 51
344.1191499999998
  0
ARC
  5
C8CC
330
C86C
100
AcDbEntity
  8
1
  6
Continuous
100
AcDbCircle
 10
201.459738
 20
94.00000099999996
 30
0.0
 40
9.0
100
AcDbArc
 50
344.1191499999998
 51
15.88085
  0
ARC
  5
C8CD
330
C86C
100
AcDbEntity
  8
1
  6
Continuous
100
AcDbCircle
 10
208.865851
 20
96.10701200000001
 30
0.0
 40
1.3
100
AcDbArc
 50
15.88085
 51
85.0
  0
LINE
  5
C8CE
330
C86C
100
AcDbEntity
  8
1
  6
Continuous
100
AcDbLine
 10
208.759738
 20
105.0000009999999
 30
0.0
 11
208.759738
 21
100.0000009999999
 31
0.0
  0
ARC
  5
C8CF
330
C86C
100
AcDbEntity
  8
1
  6
Continuous
100
AcDbCircle
 10
208.865851
 20
91.89299
 30
0.0
 40
1.3
100
AcDbArc
 50
275.0
 51
344.1191499999998
  0
LINE
  5
C8D0
330
C86C
100
AcDbEntity
  8
4
  6
CENTER
100
AcDbLine
 10
202.259738
 20
111.000001
 30
0.0
 11
211.959738
 21
111.000001
 31
0.0
  0
LINE
  5
C8D1
330
C86C
100
AcDbEntity
  8
1
  6
Continuous
100
AcDbLine
 10
207.859738
 20
114.5000009999999
 30
0.0
 11
208.9791539999999
 21
114.4020649999996
 31
0.0
  0
LINE
  5
C8D2
330
C86C
100
AcDbEntity
  8
1
  6
Continuous
100
AcDbLine
 10
206.8597379999999
 20
111.000001
 30
0.0
 11
207.859738
 21
112.000001
 31
0.0
  0
LINE
  5
C8D3
330
C86C
100
AcDbEntity
  8
1
  6
Continuous
100
AcDbLine
 10
206.8597379999999
 20
114.800001
 30
0.0
 11
207.859738
 21
114.800001
 31
0.0
  0
LINE
  5
C8D4
330
C86C
100
AcDbEntity
  8
1
  6
Continuous
100
AcDbLine
 10
205.7597379999999
 20
113.7000009999999
 30
0.0
 11
206.0597379999999
 21
113.7000009999999
 31
0.0
  0
LINE
  5
C8D5
330
C86C
100
AcDbEntity
  8
1
  6
Continuous
100
AcDbLine
 10
206.0597379999999
 20
116.000001
 30
0.0
 11
206.8597379999999
 21
116.000001
 31
0.0
  0
ARC
  5
C8D6
330
C86C
100
AcDbEntity
  8
1
  6
Continuous
100
AcDbCircle
 10
208.865851
 20
113.107012
 30
0.0
 40
1.3
100
AcDbArc
 50
15.88085
 51
85.0
  0
LINE
  5
C8D7
330
C86C
100
AcDbEntity
  8
1
  6
Continuous
100
AcDbLine
 10
203.759738
 20
151.0000009999999
 30
0.0
 11
205.7597379999999
 21
151.0000009999999
 31
0.0
  0
LINE
  5
C8D8
330
C86C
100
AcDbEntity
  8
4
  6
CENTER
100
AcDbLine
 10
202.7147429999998
 20
146.000113
 30
0.0
 11
207.178682
 21
146.000113
 31
0.0
  0
LINE
  5
C8D9
330
C86C
100
AcDbEntity
  8
1
  6
Continuous
100
AcDbLine
 10
47.99135299999998
 20
311.1821429999999
 30
0.0
 11
47.99135299999998
 21
250.082143
 31
0.0
  0
LINE
  5
C8DA
330
C86C
100
AcDbEntity
  8
1
  6
Continuous
100
AcDbLine
 10
31.19135299999999
 20
311.1821429999999
 30
0.0
 11
31.19135299999999
 21
250.082143
 31
0.0
  0
LINE
  5
C8DB
330
C86C
100
AcDbEntity
  8
1
  6
Continuous
100
AcDbLine
 10
31.091353
 20
236.582143
 30
0.0
 11
31.091353
 21
310.5821429999998
 31
0.0
  0
LINE
  5
C8DC
330
C86C
100
AcDbEntity
  8
1
  6
Continuous
100
AcDbLine
 10
48.09135300000001
 20
236.582143
 30
0.0
 11
48.09135300000001
 21
310.5821429999998
 31
0.0
  0
LINE
  5
C8DD
330
C86C
100
AcDbEntity
  8
4
  6
CENTER
100
AcDbLine
 10
39.59135299999999
 20
335.5821429999998
 30
0.0
 11
39.59135299999999
 21
212.582143
 31
0.0
  0
LINE
  5
C8DE
330
C86C
100
AcDbEntity
  8
1
  6
Continuous
100
AcDbLine
 10
53.59135300000001
 20
327.5821429999998
 30
0.0
 11
53.59135300000001
 21
220.582143
 31
0.0
  0
LINE
  5
C8DF
330
C86C
100
AcDbEntity
  8
1
  6
Continuous
100
AcDbLine
 10
27.591353
 20
327.5821429999998
 30
0.0
 11
27.591353
 21
220.582143
 31
0.0
  0
LINE
  5
C8E0
330
C86C
100
AcDbEntity
  8
1
  6
Continuous
100
AcDbLine
 10
51.59135299999999
 20
327.5821429999998
 30
0.0
 11
51.59135299999999
 21
220.582143
 31
0.0
  0
LINE
  5
C8E1
330
C86C
100
AcDbEntity
  8
1
  6
Continuous
100
AcDbLine
 10
25.591353
 20
327.5821429999998
 30
0.0
 11
25.591353
 21
220.582143
 31
0.0
  0
ARC
  5
C8E2
330
C86C
100
AcDbEntity
  8
1
  6
Continuous
100
AcDbCircle
 10
48.59135300000001
 20
220.582143
 30
0.0
 40
5.0
100
AcDbArc
 50
270.0
 51
0.0
  0
ARC
  5
C8E3
330
C86C
100
AcDbEntity
  8
1
  6
Continuous
100
AcDbCircle
 10
48.59135300000001
 20
220.582143
 30
0.0
 40
3.0
100
AcDbArc
 50
270.0
 51
0.0
  0
ARC
  5
C8E4
330
C86C
100
AcDbEntity
  8
1
  6
Continuous
100
AcDbCircle
 10
30.591353
 20
220.582143
 30
0.0
 40
3.0
100
AcDbArc
 50
180.0
 51
270.0
  0
ARC
  5
C8E5
330
C86C
100
AcDbEntity
  8
1
  6
Continuous
100
AcDbCircle
 10
30.591353
 20
220.582143
 30
0.0
 40
5.0
100
AcDbArc
 50
180.0
 51
270.0
  0
LINE
  5
C8E6
330
C86C
100
AcDbEntity
  8
1
  6
Continuous
100
AcDbLine
 10
31.091353
 20
224.582143
 30
0.0
 11
39.59135299999999
 21
217.582143
 31
0.0
  0
LINE
  5
C8E7
330
C86C
100
AcDbEntity
  8
1
  6
Continuous
100
AcDbLine
 10
39.59135299999999
 20
217.582143
 30
0.0
 11
48.09135300000001
 21
224.582143
 31
0.0
  0
LINE
  5
C8E8
330
C86C
100
AcDbEntity
  8
1
  6
Continuous
100
AcDbLine
 10
48.59135300000001
 20
217.582143
 30
0.0
 11
30.591353
 21
217.582143
 31
0.0
  0
LINE
  5
C8E9
330
C86C
100
AcDbEntity
  8
1
  6
Continuous
100
AcDbLine
 10
30.591353
 20
215.582143
 30
0.0
 11
48.59135300000001
 21
215.582143
 31
0.0
  0
LINE
  5
C8EA
330
C86C
100
AcDbEntity
  8
1
  6
Continuous
100
AcDbLine
 10
32.24288299999999
 20
230.082143
 30
0.0
 11
46.93982199999999
 21
230.082143
 31
0.0
  0
LINE
  5
C8EB
330
C86C
100
AcDbEntity
  8
1
  6
Continuous
100
AcDbLine
 10
31.923237
 20
231.082143
 30
0.0
 11
47.259468
 21
231.082143
 31
0.0
  0
LINE
  5
C8EC
330
C86C
100
AcDbEntity
  8
1
  6
Continuous
100
AcDbLine
 10
31.742786
 20
232.082143
 30
0.0
 11
37.44892399999999
 21
232.082143
 31
0.0
  0
LINE
  5
C8ED
330
C86C
100
AcDbEntity
  8
1
  6
Continuous
100
AcDbLine
 10
31.69135300000001
 20
233.082143
 30
0.0
 11
35.27973999999999
 21
233.082143
 31
0.0
  0
LINE
  5
C8EE
330
C86C
100
AcDbEntity
  8
1
  6
Continuous
100
AcDbLine
 10
31.69135300000001
 20
234.082143
 30
0.0
 11
34.06052999999999
 21
234.082143
 31
0.0
  0
LINE
  5
C8EF
330
C86C
100
AcDbEntity
  8
1
  6
Continuous
100
AcDbLine
 10
31.69135300000001
 20
235.082143
 30
0.0
 11
33.22032399999999
 21
235.082143
 31
0.0
  0
LINE
  5
C8F0
330
C86C
100
AcDbEntity
  8
1
  6
Continuous
100
AcDbLine
 10
31.69135300000001
 20
236.082143
 30
0.0
 11
32.6207
 21
236.082143
 31
0.0
  0
ARC
  5
C8F1
330
C86C
100
AcDbEntity
  8
1
  6
Continuous
100
AcDbCircle
 10
32.691353
 20
250.082143
 30
0.0
 40
1.5
100
AcDbArc
 50
180.0
 51
270.0
  0
LINE
  5
C8F2
330
C86C
100
AcDbEntity
  8
1
  6
Continuous
100
AcDbLine
 10
31.69135300000001
 20
243.082143
 30
0.0
 11
32.6207
 21
243.082143
 31
0.0
  0
LINE
  5
C8F3
330
C86C
100
AcDbEntity
  8
1
  6
Continuous
100
AcDbLine
 10
31.69135300000001
 20
244.082143
 30
0.0
 11
33.22032500000001
 21
244.082143
 31
0.0
  0
LINE
  5
C8F4
330
C86C
100
AcDbEntity
  8
1
  6
Continuous
100
AcDbLine
 10
31.69135300000001
 20
245.082143
 30
0.0
 11
34.06052999999999
 21
245.082143
 31
0.0
  0
LINE
  5
C8F5
330
C86C
100
AcDbEntity
  8
1
  6
Continuous
100
AcDbLine
 10
31.69135300000001
 20
246.082143
 30
0.0
 11
35.27974099999996
 21
246.082143
 31
0.0
  0
LINE
  5
C8F6
330
C86C
100
AcDbEntity
  8
1
  6
Continuous
100
AcDbLine
 10
31.69135300000001
 20
247.082143
 30
0.0
 11
37.44892399999999
 21
247.082143
 31
0.0
  0
CIRCLE
  5
C8F7
330
C86C
100
AcDbEntity
  8
1
  6
Continuous
100
AcDbCircle
 10
39.59135299999999
 20
239.582143
 30
0.0
 40
7.65
  0
CIRCLE
  5
C8F8
330
C86C
100
AcDbEntity
  8
1
  6
Continuous
100
AcDbCircle
 10
39.59135299999999
 20
239.582143
 30
0.0
 40
7.799999999999998
  0
LINE
  5
C8F9
330
C86C
100
AcDbEntity
  8
4
  6
CENTER
100
AcDbLine
 10
49.43192299999999
 20
239.582143
 30
0.0
 11
29.85717
 21
239.582143
 31
0.0
  0
ARC
  5
C8FA
330
C86C
100
AcDbEntity
  8
1
  6
Continuous
100
AcDbCircle
 10
39.59135299999999
 20
232.9821429999999
 30
0.0
 40
7.9
100
AcDbArc
 50
180.0
 51
0.0
  0
ARC
  5
C8FB
330
C86C
100
AcDbEntity
  8
1
  6
Continuous
100
AcDbCircle
 10
39.59135299999999
 20
232.9821429999999
 30
0.0
 40
8.4
100
AcDbArc
 50
180.0
 51
0.0
  0
LINE
  5
C8FC
330
C86C
100
AcDbEntity
  8
1
  6
Continuous
100
AcDbLine
 10
31.091353
 20
224.582143
 30
0.0
 11
48.09135300000001
 21
224.582143
 31
0.0
  0
LINE
  5
C8FD
330
C86C
100
AcDbEntity
  8
1
  6
Continuous
100
AcDbLine
 10
31.69135300000001
 20
248.082143
 30
0.0
 11
47.49135299999998
 21
248.082143
 31
0.0
  0
LINE
  5
C8FE
330
C86C
100
AcDbEntity
  8
1
  6
Continuous
100
AcDbLine
 10
48.09135300000001
 20
248.582143
 30
0.0
 11
31.091353
 21
248.582143
 31
0.0
  0
LINE
  5
C8FF
330
C86C
100
AcDbEntity
  8
1
  6
Continuous
100
AcDbLine
 10
31.69135300000001
 20
248.082143
 30
0.0
 11
47.49135299999998
 21
248.082143
 31
0.0
  0
LINE
  5
C900
330
C86C
100
AcDbEntity
  8
1
  6
Continuous
100
AcDbLine
 10
31.69135300000001
 20
232.9821429999999
 30
0.0
 11
31.69135300000001
 21
248.082143
 31
0.0
  0
LINE
  5
C901
330
C86C
100
AcDbEntity
  8
1
  6
Continuous
100
AcDbLine
 10
31.19135299999999
 20
232.9821429999999
 30
0.0
 11
31.19135299999999
 21
248.082143
 31
0.0
  0
LINE
  5
C902
330
C86C
100
AcDbEntity
  8
1
  6
Continuous
100
AcDbLine
 10
31.69135300000001
 20
237.082143
 30
0.0
 11
32.20284799999999
 21
237.082143
 31
0.0
  0
LINE
  5
C903
330
C86C
100
AcDbEntity
  8
1
  6
Continuous
100
AcDbLine
 10
32.16976300000001
 20
241.982143
 30
0.0
 11
32.327573
 21
241.982143
 31
0.0
  0
LINE
  5
C904
330
C86C
100
AcDbEntity
  8
1
  6
Continuous
100
AcDbLine
 10
31.85572099999999
 20
240.582143
 30
0.0
 11
32.00699399999999
 21
240.582143
 31
0.0
  0
LINE
  5
C905
330
C86C
100
AcDbEntity
  8
1
  6
Continuous
100
AcDbLine
 10
31.69135300000001
 20
240.082143
 30
0.0
 11
31.807395
 21
240.082143
 31
0.0
  0
LINE
  5
C906
330
C86C
100
AcDbEntity
  8
1
  6
Continuous
100
AcDbLine
 10
31.69135300000001
 20
241.082143
 30
0.0
 11
31.936943
 21
241.082143
 31
0.0
  0
LINE
  5
C907
330
C86C
100
AcDbEntity
  8
1
  6
Continuous
100
AcDbLine
 10
31.69135300000001
 20
239.082143
 30
0.0
 11
31.807395
 21
239.082143
 31
0.0
  0
LINE
  5
C908
330
C86C
100
AcDbEntity
  8
1
  6
Continuous
100
AcDbLine
 10
31.69135300000001
 20
238.0821430000001
 30
0.0
 11
31.936943
 21
238.0821430000001
 31
0.0
  0
ARC
  5
C909
330
C86C
100
AcDbEntity
  8
1
  6
Continuous
100
AcDbCircle
 10
39.59135299999999
 20
236.582143
 30
0.0
 40
8.5
100
AcDbArc
 50
180.0
 51
188.7974109999998
  0
ARC
  5
C90A
330
C86C
100
AcDbEntity
  8
1
  6
Continuous
100
AcDbCircle
 10
31.69135300000001
 20
248.082143
 30
0.0
 40
0.5
100
AcDbArc
 50
90.0
 51
180.0
  0
LINE
  5
C90B
330
C86C
100
AcDbEntity
  8
1
  6
Continuous
100
AcDbLine
 10
31.69135300000001
 20
242.082143
 30
0.0
 11
32.20284799999999
 21
242.082143
 31
0.0
  0
LINE
  5
C90C
330
C86C
100
AcDbEntity
  8
1
  6
Continuous
100
AcDbLine
 10
47.49135299999998
 20
232.9821429999999
 30
0.0
 11
47.49135299999998
 21
248.082143
 31
0.0
  0
LINE
  5
C90D
330
C86C
100
AcDbEntity
  8
1
  6
Continuous
100
AcDbLine
 10
47.99135299999998
 20
232.9821429999999
 30
0.0
 11
47.99135299999998
 21
248.082143
 31
0.0
  0
LINE
  5
C90E
330
C86C
100
AcDbEntity
  8
1
  6
Continuous
100
AcDbLine
 10
40.641353
 20
236.232143
 30
0.0
 11
40.641353
 21
243.232143
 31
0.0
  0
LINE
  5
C90F
330
C86C
100
AcDbEntity
  8
1
  6
Continuous
100
AcDbLine
 10
38.541353
 20
236.232143
 30
0.0
 11
38.541353
 21
243.232143
 31
0.0
  0
LINE
  5
C911
330
C86C
100
AcDbEntity
  8
1
  6
Continuous
100
AcDbLine
 10
35.74427599999999
 20
226.082143
 30
0.0
 11
43.438429
 21
226.082143
 31
0.0
  0
LINE
  5
C912
330
C86C
100
AcDbEntity
  8
1
  6
Continuous
100
AcDbLine
 10
34.33778199999999
 20
227.082143
 30
0.0
 11
44.844923
 21
227.082143
 31
0.0
  0
LINE
  5
C913
330
C86C
100
AcDbEntity
  8
1
  6
Continuous
100
AcDbLine
 10
33.394579
 20
228.082143
 30
0.0
 11
45.788126
 21
228.082143
 31
0.0
  0
LINE
  5
C914
330
C86C
100
AcDbEntity
  8
1
  6
Continuous
100
AcDbLine
 10
32.721127
 20
229.082143
 30
0.0
 11
46.461578
 21
229.082143
 31
0.0
  0
LINE
  5
C915
330
C86C
100
AcDbEntity
  8
1
  6
Continuous
100
AcDbLine
 10
47.49135299999998
 20
235.082143
 30
0.0
 11
45.96238099999999
 21
235.082143
 31
0.0
  0
LINE
  5
C916
330
C86C
100
AcDbEntity
  8
1
  6
Continuous
100
AcDbLine
 10
47.49135299999998
 20
234.082143
 30
0.0
 11
45.122175
 21
234.082143
 31
0.0
  0
LINE
  5
C917
330
C86C
100
AcDbEntity
  8
1
  6
Continuous
100
AcDbLine
 10
47.49135299999998
 20
233.082143
 30
0.0
 11
43.902965
 21
233.082143
 31
0.0
  0
LINE
  5
C918
330
C86C
100
AcDbEntity
  8
1
  6
Continuous
100
AcDbLine
 10
47.439919
 20
232.082143
 30
0.0
 11
41.73378099999999
 21
232.082143
 31
0.0
  0
LINE
  5
C919
330
C86C
100
AcDbEntity
  8
1
  6
Continuous
100
AcDbLine
 10
47.49135299999998
 20
236.082143
 30
0.0
 11
46.56200499999999
 21
236.082143
 31
0.0
  0
LINE
  5
C91A
330
C86C
100
AcDbEntity
  8
1
  6
Continuous
100
AcDbLine
 10
47.49135299999998
 20
237.082143
 30
0.0
 11
46.979857
 21
237.082143
 31
0.0
  0
LINE
  5
C91B
330
C86C
100
AcDbEntity
  8
1
  6
Continuous
100
AcDbLine
 10
47.49135299999998
 20
238.0821430000001
 30
0.0
 11
47.24576299999998
 21
238.0821430000001
 31
0.0
  0
LINE
  5
C91C
330
C86C
100
AcDbEntity
  8
1
  6
Continuous
100
AcDbLine
 10
47.49135299999998
 20
239.082143
 30
0.0
 11
47.37531099999999
 21
239.082143
 31
0.0
  0
LINE
  5
C91D
330
C86C
100
AcDbEntity
  8
1
  6
Continuous
100
AcDbLine
 10
47.49135299999998
 20
240.082143
 30
0.0
 11
47.37531099999999
 21
240.082143
 31
0.0
  0
LINE
  5
C91E
330
C86C
100
AcDbEntity
  8
1
  6
Continuous
100
AcDbLine
 10
47.49135299999998
 20
241.082143
 30
0.0
 11
47.24576299999998
 21
241.082143
 31
0.0
  0
ARC
  5
C91F
330
C86C
100
AcDbEntity
  8
1
  6
Continuous
100
AcDbCircle
 10
38.006275
 20
222.582103
 30
0.0
 40
1.185078
100
AcDbArc
 50
321.3401919999999
 51
38.65980799999999
  0
LINE
  5
C920
330
C86C
100
AcDbEntity
  8
1
  6
Continuous
100
AcDbLine
 10
41.09135300000001
 20
221.5821029999999
 30
0.0
 11
41.59135299999999
 21
223.5821029999999
 31
0.0
  0
LINE
  5
C921
330
C86C
100
AcDbEntity
  8
1
  6
Continuous
100
AcDbLine
 10
40.591353
 20
223.5821029999999
 30
0.0
 11
41.09135300000001
 21
221.5821029999999
 31
0.0
  0
LINE
  5
C922
330
C86C
100
AcDbEntity
  8
1
  6
Continuous
100
AcDbLine
 10
40.09135299999999
 20
221.5821029999999
 30
0.0
 11
40.591353
 21
223.5821029999999
 31
0.0
  0
LINE
  5
C923
330
C86C
100
AcDbEntity
  8
1
  6
Continuous
100
AcDbLine
 10
39.59135299999999
 20
223.5821029999999
 30
0.0
 11
40.09135299999999
 21
221.5821029999999
 31
0.0
  0
LINE
  5
C924
330
C86C
100
AcDbEntity
  8
1
  6
Continuous
100
AcDbLine
 10
41.991353
 20
223.5821029999999
 30
0.0
 11
43.59135300000001
 21
221.5821029999999
 31
0.0
  0
LINE
  5
C925
330
C86C
100
AcDbEntity
  8
1
  6
Continuous
100
AcDbLine
 10
41.991353
 20
223.5821029999999
 30
0.0
 11
41.991353
 21
221.5821029999999
 31
0.0
  0
LINE
  5
C926
330
C86C
100
AcDbEntity
  8
1
  6
Continuous
100
AcDbLine
 10
43.59135300000001
 20
223.5821029999999
 30
0.0
 11
43.59135300000001
 21
221.5821029999999
 31
0.0
  0
LINE
  5
C927
330
C86C
100
AcDbEntity
  8
1
  6
Continuous
100
AcDbLine
 10
35.59135299999999
 20
223.5821029999999
 30
0.0
 11
36.19135299999999
 21
223.5821029999999
 31
0.0
  0
LINE
  5
C928
330
C86C
100
AcDbEntity
  8
1
  6
Continuous
100
AcDbLine
 10
36.19135299999999
 20
221.5821029999999
 30
0.0
 11
35.59135299999999
 21
221.5821029999999
 31
0.0
  0
LINE
  5
C929
330
C86C
100
AcDbEntity
  8
1
  6
Continuous
100
AcDbLine
 10
35.59135299999999
 20
221.5821029999999
 30
0.0
 11
35.59135299999999
 21
223.5821029999999
 31
0.0
  0
ARC
  5
C92A
330
C86C
100
AcDbEntity
  8
1
  6
Continuous
100
AcDbCircle
 10
36.19135299999999
 20
222.582103
 30
0.0
 40
1.0
100
AcDbArc
 50
270.0
 51
90.0
  0
ARC
  5
C92B
330
C86C
100
AcDbEntity
  8
1
  6
Continuous
100
AcDbCircle
 10
38.776431
 20
222.582103
 30
0.0
 40
1.185078
100
AcDbArc
 50
141.340192
 51
218.6598079999999
  0
ARC
  5
C92C
330
C86C
100
AcDbEntity
  8
1
  6
Continuous
100
AcDbCircle
 10
38.391353
 20
222.2740399999999
 30
0.0
 40
0.6919380000000001
100
AcDbArc
 50
218.6598079999999
 51
321.3401919999999
  0
ARC
  5
C92D
330
C86C
100
AcDbEntity
  8
1
  6
Continuous
100
AcDbCircle
 10
38.391353
 20
222.890165
 30
0.0
 40
0.6919380000000001
100
AcDbArc
 50
38.65980799999999
 51
141.340192
  0
LINE
  5
C92E
330
C86C
100
AcDbEntity
  8
4
  6
CENTER
100
AcDbLine
 10
45.570902
 20
221.582143
 30
0.0
 11
33.79234499999999
 21
221.582143
 31
0.0
  0
LINE
  5
C92F
330
C86C
100
AcDbEntity
  8
1
  6
Continuous
100
AcDbLine
 10
46.855133
 20
241.982143
 30
0.0
 11
47.01294299999999
 21
241.982143
 31
0.0
  0
ARC
  5
C930
330
C86C
100
AcDbEntity
  8
1
  6
Continuous
100
AcDbCircle
 10
39.59135299999999
 20
236.582143
 30
0.0
 40
8.5
100
AcDbArc
 50
351.202589
 51
0.0
  0
LINE
  5
C931
330
C86C
100
AcDbEntity
  8
1
  6
Continuous
100
AcDbLine
 10
46.855133
 20
237.182143
 30
0.0
 11
47.01294299999999
 21
237.182143
 31
0.0
  0
LINE
  5
C939
330
C86C
100
AcDbEntity
  8
1
  6
Continuous
100
AcDbLine
 10
40.641353
 20
236.232143
 30
0.0
 11
38.541353
 21
236.232143
 31
0.0
  0
LINE
  5
C93B
330
C86C
100
AcDbEntity
  8
1
  6
Continuous
100
AcDbLine
 10
41.991353
 20
232.3183629999999
 30
0.0
 11
41.991353
 21
232.1605529999999
 31
0.0
  0
LINE
  5
C93C
330
C86C
100
AcDbEntity
  8
1
  6
Continuous
100
AcDbLine
 10
40.591353
 20
231.9977839999999
 30
0.0
 11
40.591353
 21
231.8465109999999
 31
0.0
  0
ARC
  5
C93D
330
C86C
100
AcDbEntity
  8
1
  6
Continuous
100
AcDbCircle
 10
46.491353
 20
250.082143
 30
0.0
 40
1.5
100
AcDbArc
 50
270.0
 51
0.0
  0
LINE
  5
C93E
330
C86C
100
AcDbEntity
  8
1
  6
Continuous
100
AcDbLine
 10
46.562006
 20
243.082143
 30
0.0
 11
47.49135299999998
 21
243.082143
 31
0.0
  0
LINE
  5
C93F
330
C86C
100
AcDbEntity
  8
1
  6
Continuous
100
AcDbLine
 10
45.96238099999999
 20
244.082143
 30
0.0
 11
47.49135299999998
 21
244.082143
 31
0.0
  0
LINE
  5
C940
330
C86C
100
AcDbEntity
  8
1
  6
Continuous
100
AcDbLine
 10
45.122176
 20
245.082143
 30
0.0
 11
47.49135299999998
 21
245.082143
 31
0.0
  0
LINE
  5
C941
330
C86C
100
AcDbEntity
  8
1
  6
Continuous
100
AcDbLine
 10
43.902965
 20
246.082143
 30
0.0
 11
47.49135299999998
 21
246.082143
 31
0.0
  0
ARC
  5
C942
330
C86C
100
AcDbEntity
  8
1
  6
Continuous
100
AcDbCircle
 10
47.49135299999998
 20
248.082143
 30
0.0
 40
0.5
100
AcDbArc
 50
0.0
 51
90.0
  0
LINE
  5
C943
330
C86C
100
AcDbEntity
  8
1
  6
Continuous
100
AcDbLine
 10
46.979858
 20
242.082143
 30
0.0
 11
47.49135299999998
 21
242.082143
 31
0.0
  0
CIRCLE
  5
C944
330
C86C
100
AcDbEntity
  8
1
  6
Continuous
100
AcDbCircle
 10
39.59135299999999
 20
245.2821429999999
 30
0.0
 40
0.45
  0
LINE
  5
C945
330
C86C
100
AcDbEntity
  8
1
  6
Continuous
100
AcDbLine
 10
40.641353
 20
243.232143
 30
0.0
 11
38.541353
 21
243.232143
 31
0.0
  0
LINE
  5
C947
330
C86C
100
AcDbEntity
  8
1
  6
Continuous
100
AcDbLine
 10
41.991353
 20
247.003733
 30
0.0
 11
41.991353
 21
246.845923
 31
0.0
  0
LINE
  5
C948
330
C86C
100
AcDbEntity
  8
1
  6
Continuous
100
AcDbLine
 10
37.191353
 20
247.003733
 30
0.0
 11
37.191353
 21
246.845923
 31
0.0
  0
LINE
  5
C949
330
C86C
100
AcDbEntity
  8
1
  6
Continuous
100
AcDbLine
 10
41.733782
 20
247.082143
 30
0.0
 11
47.49135299999998
 21
247.082143
 31
0.0
  0
LINE
  5
C94A
330
C86C
100
AcDbEntity
  8
4
  6
CENTER
100
AcDbLine
 10
56.29699300000001
 20
307.5821429999998
 30
0.0
 11
23.41819899999999
 21
307.5821429999998
 31
0.0
  0
LINE
  5
C94B
330
C86C
100
AcDbEntity
  8
1
  6
Continuous
100
AcDbLine
 10
31.19135299999999
 20
302.5821429999998
 30
0.0
 11
31.091353
 21
302.5821429999998
 31
0.0
  0
LINE
  5
C94C
330
C86C
100
AcDbEntity
  8
1
  6
Continuous
100
AcDbLine
 10
31.091353
 20
306.0821429999998
 30
0.0
 11
31.19135299999999
 21
306.0821429999998
 31
0.0
  0
ARC
  5
C94D
330
C86C
100
AcDbEntity
  8
1
  6
Continuous
100
AcDbCircle
 10
31.091353
 20
307.5821429999998
 30
0.0
 40
1.620999999999999
100
AcDbArc
 50
270.0
 51
273.53684
  0
LINE
  5
C94E
330
C86C
100
AcDbEntity
  8
1
  6
Continuous
100
AcDbLine
 10
48.09135300000001
 20
302.5821429999998
 30
0.0
 11
47.99135299999998
 21
302.5821429999998
 31
0.0
  0
LINE
  5
C94F
330
C86C
100
AcDbEntity
  8
1
  6
Continuous
100
AcDbLine
 10
47.99135299999998
 20
306.0821429999998
 30
0.0
 11
48.09135300000001
 21
306.0821429999998
 31
0.0
  0
ARC
  5
C950
330
C86C
100
AcDbEntity
  8
1
  6
Continuous
100
AcDbCircle
 10
48.09135300000001
 20
307.5821429999998
 30
0.0
 40
1.620999999999999
100
AcDbArc
 50
266.46316
 51
270.0
  0
ARC
  5
C951
330
C86C
100
AcDbEntity
  8
1
  6
Continuous
100
AcDbCircle
 10
39.59135299999999
 20
309.1821429999999
 30
0.0
 40
8.4
100
AcDbArc
 50
0.0
 51
180.0
  0
ARC
  5
C952
330
C86C
100
AcDbEntity
  8
1
  6
Continuous
100
AcDbCircle
 10
39.59135299999999
 20
310.5821429999998
 30
0.0
 40
8.5
100
AcDbArc
 50
0.0
 51
180.0
  0
LINE
  5
C953
330
C86C
100
AcDbEntity
  8
1
  6
Continuous
100
AcDbLine
 10
30.591353
 20
330.5821429999998
 30
0.0
 11
48.59135300000001
 21
330.5821429999998
 31
0.0
  0
LINE
  5
C954
330
C86C
100
AcDbEntity
  8
1
  6
Continuous
100
AcDbLine
 10
30.591353
 20
332.5821429999998
 30
0.0
 11
48.59135300000001
 21
332.5821429999998
 31
0.0
  0
ARC
  5
C955
330
C86C
100
AcDbEntity
  8
1
  6
Continuous
100
AcDbCircle
 10
30.591353
 20
327.5821429999998
 30
0.0
 40
5.0
100
AcDbArc
 50
90.0
 51
180.0
  0
ARC
  5
C956
330
C86C
100
AcDbEntity
  8
1
  6
Continuous
100
AcDbCircle
 10
30.591353
 20
327.5821429999998
 30
0.0
 40
3.0
100
AcDbArc
 50
90.0
 51
180.0
  0
LINE
  5
C957
330
C86C
100
AcDbEntity
  8
1
  6
Continuous
100
AcDbLine
 10
31.091353
 20
309.0821429999998
 30
0.0
 11
31.19135299999999
 21
309.0821429999998
 31
0.0
  0
ARC
  5
C958
330
C86C
100
AcDbEntity
  8
1
  6
Continuous
100
AcDbCircle
 10
31.091353
 20
307.5821429999998
 30
0.0
 40
1.620999999999999
100
AcDbArc
 50
86.46316
 51
90.0
  0
LINE
  5
C959
330
C86C
100
AcDbEntity
  8
1
  6
Continuous
100
AcDbLine
 10
31.091353
 20
310.5821429999998
 30
0.0
 11
31.19135299999999
 21
310.5821429999998
 31
0.0
  0
ARC
  5
C95A
330
C86C
100
AcDbEntity
  8
1
  6
Continuous
100
AcDbCircle
 10
39.59135299999999
 20
311.1821429999999
 30
0.0
 40
8.4
100
AcDbArc
 50
172.418031
 51
180.0
  0
ARC
  5
C95B
330
C86C
100
AcDbEntity
  8
1
  6
Continuous
100
AcDbCircle
 10
48.59135300000001
 20
327.5821429999998
 30
0.0
 40
5.0
100
AcDbArc
 50
0.0
 51
90.0
  0
ARC
  5
C95C
330
C86C
100
AcDbEntity
  8
1
  6
Continuous
100
AcDbCircle
 10
48.59135300000001
 20
327.5821429999998
 30
0.0
 40
3.0
100
AcDbArc
 50
0.0
 51
90.0
  0
LINE
  5
C95D
330
C86C
100
AcDbEntity
  8
4
  6
CENTER
100
AcDbLine
 10
44.0752
 20
326.5821429999998
 30
0.0
 11
34.8465
 21
326.5821429999998
 31
0.0
  0
LINE
  5
C95E
330
C86C
100
AcDbEntity
  8
1
  6
Continuous
100
AcDbLine
 10
47.99135299999998
 20
309.0821429999998
 30
0.0
 11
48.09135300000001
 21
309.0821429999998
 31
0.0
  0
ARC
  5
C95F
330
C86C
100
AcDbEntity
  8
1
  6
Continuous
100
AcDbCircle
 10
48.09135300000001
 20
307.5821429999998
 30
0.0
 40
1.620999999999999
100
AcDbArc
 50
90.0
 51
93.53683999999999
  0
LINE
  5
C960
330
C86C
100
AcDbEntity
  8
1
  6
Continuous
100
AcDbLine
 10
47.99135299999998
 20
310.5821429999998
 30
0.0
 11
48.09135300000001
 21
310.5821429999998
 31
0.0
  0
ARC
  5
C961
330
C86C
100
AcDbEntity
  8
1
  6
Continuous
100
AcDbCircle
 10
39.59135299999999
 20
311.1821429999999
 30
0.0
 40
8.4
100
AcDbArc
 50
0.0
 51
7.581968999999999
  0
LINE
  5
C962
330
C86C
100
AcDbEntity
  8
1
  6
Continuous
100
AcDbLine
 10
203.2597379999999
 20
229.082143
 30
0.0
 11
203.2597379999999
 21
302.5821429999998
 31
0.0
  0
LINE
  5
C963
330
C86C
100
AcDbEntity
  8
1
  6
Continuous
100
AcDbLine
 10
190.2597379999999
 20
215.582143
 30
0.0
 11
190.2597379999999
 21
332.5821429999998
 31
0.0
  0
LINE
  5
C964
330
C86C
100
AcDbEntity
  8
1
  6
Continuous
100
AcDbLine
 10
191.259738
 20
215.582143
 30
0.0
 11
191.259738
 21
332.5821429999998
 31
0.0
  0
LINE
  5
C965
330
C86C
100
AcDbEntity
  8
1
  6
Continuous
100
AcDbLine
 10
188.759738
 20
217.582143
 30
0.0
 11
188.759738
 21
330.5821429999998
 31
0.0
  0
LINE
  5
C966
330
C86C
100
AcDbEntity
  8
4
  6
CENTER
100
AcDbLine
 10
186.1127729999996
 20
221.582143
 30
0.0
 11
198.378242
 21
221.582143
 31
0.0
  0
LINE
  5
C967
330
C86C
100
AcDbEntity
  8
1
  6
Continuous
100
AcDbLine
 10
191.259738
 20
225.082143
 30
0.0
 11
196.7597379999999
 21
225.082143
 31
0.0
  0
LINE
  5
C968
330
C86C
100
AcDbEntity
  8
1
  6
Continuous
100
AcDbLine
 10
191.259738
 20
226.582143
 30
0.0
 11
201.9597379999999
 21
226.582143
 31
0.0
  0
LINE
  5
C969
330
C86C
100
AcDbEntity
  8
1
  6
Continuous
100
AcDbLine
 10
191.259738
 20
218.082143
 30
0.0
 11
196.7597379999999
 21
218.082143
 31
0.0
  0
LINE
  5
C96A
330
C86C
100
AcDbEntity
  8
1
  6
Continuous
100
AcDbLine
 10
190.2597379999999
 20
215.582143
 30
0.0
 11
191.259738
 21
215.582143
 31
0.0
  0
LINE
  5
C96B
330
C86C
100
AcDbEntity
  8
1
  6
Continuous
100
AcDbLine
 10
188.759738
 20
217.582143
 30
0.0
 11
190.2597379999999
 21
215.582143
 31
0.0
  0
LINE
  5
C96C
330
C86C
100
AcDbEntity
  8
1
  6
Continuous
100
AcDbLine
 10
186.259738
 20
224.582143
 30
0.0
 11
188.759738
 21
248.582143
 31
0.0
  0
LINE
  5
C96D
330
C86C
100
AcDbEntity
  8
1
  6
Continuous
100
AcDbLine
 10
188.4597379999999
 20
230.582143
 30
0.0
 11
188.759738
 21
230.582143
 31
0.0
  0
LINE
  5
C96E
330
C86C
100
AcDbEntity
  8
1
  6
Continuous
100
AcDbLine
 10
186.259738
 20
224.582143
 30
0.0
 11
188.4597379999999
 21
224.582143
 31
0.0
  0
ARC
  5
C96F
330
C86C
100
AcDbEntity
  8
1
  6
Continuous
100
AcDbCircle
 10
187.9597379999999
 20
225.082143
 30
0.0
 40
0.5
100
AcDbArc
 50
270.0
 51
0.0
  0
ARC
  5
C970
330
C86C
100
AcDbEntity
  8
1
  6
Continuous
100
AcDbCircle
 10
188.4597379999999
 20
224.782143
 30
0.0
 40
0.2
100
AcDbArc
 50
270.0
 51
0.0
  0
LINE
  5
C971
330
C86C
100
AcDbEntity
  8
1
  6
Continuous
100
AcDbLine
 10
188.6597379999995
 20
230.582143
 30
0.0
 11
188.6597379999995
 21
224.782143
 31
0.0
  0
LINE
  5
C972
330
C86C
100
AcDbEntity
  8
1
  6
Continuous
100
AcDbLine
 10
188.4597379999999
 20
238.982143
 30
0.0
 11
188.4597379999999
 21
225.082143
 31
0.0
  0
LINE
  5
C973
330
C86C
100
AcDbEntity
  8
1
  6
Continuous
100
AcDbLine
 10
196.7597379999999
 20
218.082143
 30
0.0
 11
196.7597379999999
 21
225.082143
 31
0.0
  0
LINE
  5
C974
330
C86C
100
AcDbEntity
  8
1
  6
Continuous
100
AcDbLine
 10
197.259738
 20
224.582143
 30
0.0
 11
197.259738
 21
218.582143
 31
0.0
  0
LINE
  5
C975
330
C86C
100
AcDbEntity
  8
1
  6
Continuous
100
AcDbLine
 10
197.259738
 20
218.582143
 30
0.0
 11
196.7597379999999
 21
218.082143
 31
0.0
  0
LINE
  5
C976
330
C86C
100
AcDbEntity
  8
1
  6
Continuous
100
AcDbLine
 10
201.9597379999999
 20
226.790855
 30
0.0
 11
201.9597379999999
 21
248.582143
 31
0.0
  0
LINE
  5
C977
330
C86C
100
AcDbEntity
  8
1
  6
Continuous
100
AcDbLine
 10
202.259738
 20
229.082143
 30
0.0
 11
202.259738
 21
248.582143
 31
0.0
  0
LINE
  5
C978
330
C86C
100
AcDbEntity
  8
1
  6
Continuous
100
AcDbLine
 10
202.1597379999998
 20
226.590156
 30
0.0
 11
202.1597379999998
 21
248.582143
 31
0.0
  0
LINE
  5
C979
330
C86C
100
AcDbEntity
  8
1
  6
Continuous
100
AcDbLine
 10
202.1597379999998
 20
237.582143
 30
0.0
 11
202.259738
 21
237.582143
 31
0.0
  0
LINE
  5
C97A
330
C86C
100
AcDbEntity
  8
1
  6
Continuous
100
AcDbLine
 10
202.1597379999998
 20
241.582143
 30
0.0
 11
202.1597379999998
 21
241.982143
 31
0.0
  0
LINE
  5
C97B
330
C86C
100
AcDbEntity
  8
1
  6
Continuous
100
AcDbLine
 10
202.1597379999998
 20
241.582143
 30
0.0
 11
202.259738
 21
241.582143
 31
0.0
  0
LINE
  5
C97C
330
C86C
100
AcDbEntity
  8
1
  6
Continuous
100
AcDbLine
 10
202.259738
 20
241.982143
 30
0.0
 11
202.1597379999998
 21
241.982143
 31
0.0
  0
LINE
  5
C97D
330
C86C
100
AcDbEntity
  8
1
  6
Continuous
100
AcDbLine
 10
203.2597379999999
 20
229.082143
 30
0.0
 11
202.259738
 21
229.082143
 31
0.0
  0
ARC
  5
C97E
330
C86C
100
AcDbEntity
  8
1
  6
Continuous
100
AcDbCircle
 10
202.1216599999999
 20
226.712694
 30
0.0
 40
0.038088
100
AcDbArc
 50
1.361898999999999
 51
53.128986
  0
ARC
  5
C97F
330
C86C
100
AcDbEntity
  8
1
  6
Continuous
100
AcDbCircle
 10
202.062028
 20
226.6505089999999
 30
0.0
 40
0.124052
100
AcDbArc
 50
48.323202
 51
71.61228
  0
ARC
  5
C980
330
C86C
100
AcDbEntity
  8
1
  6
Continuous
100
AcDbCircle
 10
201.992057
 20
226.479584
 30
0.0
 40
0.308575
100
AcDbArc
 50
69.294066
 51
81.76123299999998
  0
ARC
  5
C981
330
C86C
100
AcDbEntity
  8
1
  6
Continuous
100
AcDbCircle
 10
201.9612919999999
 20
226.310096
 30
0.0
 40
0.480762
100
AcDbArc
 50
81.02705699999999
 51
90.18514999999997
  0
ARC
  5
C982
330
C86C
100
AcDbEntity
  8
1
  6
Continuous
100
AcDbCircle
 10
201.9601
 20
231.3385849999999
 30
0.0
 40
4.756441999999998
100
AcDbArc
 50
269.9956379999999
 51
270.917637
  0
ARC
  5
C983
330
C86C
100
AcDbEntity
  8
1
  6
Continuous
100
AcDbCircle
 10
201.987582
 20
229.6144109999999
 30
0.0
 40
3.032049
100
AcDbArc
 50
270.920179
 51
272.1467549999999
  0
ARC
  5
C984
330
C86C
100
AcDbEntity
  8
1
  6
Continuous
100
AcDbCircle
 10
202.0643559999999
 20
227.561319
 30
0.0
 40
0.9775229999999998
100
AcDbArc
 50
272.157735
 51
274.7036259999998
  0
ARC
  5
C985
330
C86C
100
AcDbEntity
  8
1
  6
Continuous
100
AcDbCircle
 10
202.140826
 20
226.644712
 30
0.0
 40
0.057741
100
AcDbArc
 50
273.661784
 51
289.1187089999999
  0
LINE
  5
C986
330
C86C
100
AcDbEntity
  8
1
  6
Continuous
100
AcDbLine
 10
196.7597379999999
 20
225.082143
 30
0.0
 11
197.259738
 21
224.582143
 31
0.0
  0
LINE
  5
C987
330
C86C
100
AcDbEntity
  8
4
  6
CENTER
100
AcDbLine
 10
206.164074
 20
246.082143
 30
0.0
 11
199.217207
 21
246.082143
 31
0.0
  0
LINE
  5
C988
330
C86C
100
AcDbEntity
  8
1
  6
Continuous
100
AcDbLine
 10
201.9597379999999
 20
248.582143
 30
0.0
 11
203.2597379999999
 21
248.582143
 31
0.0
  0
LINE
  5
C989
330
C86C
100
AcDbEntity
  8
1
  6
Continuous
100
AcDbLine
 10
202.1597379999998
 20
247.382143
 30
0.0
 11
202.259738
 21
247.382143
 31
0.0
  0
LINE
  5
C98A
330
C86C
100
AcDbEntity
  8
1
  6
Continuous
100
AcDbLine
 10
202.1597379999998
 20
247.003733
 30
0.0
 11
202.259738
 21
247.003733
 31
0.0
  0
LINE
  5
C98B
330
C86C
100
AcDbEntity
  8
1
  6
Continuous
100
AcDbLine
 10
202.259738
 20
245.407089
 30
0.0
 11
202.1597379999998
 21
245.407089
 31
0.0
  0
LINE
  5
C98C
330
C86C
100
AcDbEntity
  8
1
  6
Continuous
100
AcDbLine
 10
202.259738
 20
244.582143
 30
0.0
 11
202.1597379999998
 21
244.582143
 31
0.0
  0
LINE
  5
C98D
330
C86C
100
AcDbEntity
  8
1
  6
Continuous
100
AcDbLine
 10
191.259738
 20
330.0821429999998
 30
0.0
 11
196.7597379999999
 21
330.0821429999998
 31
0.0
  0
LINE
  5
C98E
330
C86C
100
AcDbEntity
  8
1
  6
Continuous
100
AcDbLine
 10
191.259738
 20
323.0821429999998
 30
0.0
 11
196.7597379999999
 21
323.0821429999998
 31
0.0
  0
LINE
  5
C98F
330
C86C
100
AcDbEntity
  8
4
  6
CENTER
100
AcDbLine
 10
186.1127729999996
 20
326.5821429999998
 30
0.0
 11
198.7597379999998
 21
326.5821429999998
 31
0.0
  0
LINE
  5
C990
330
C86C
100
AcDbEntity
  8
1
  6
Continuous
100
AcDbLine
 10
191.259738
 20
321.5821429999998
 30
0.0
 11
203.759738
 21
321.5821429999998
 31
0.0
  0
LINE
  5
C991
330
C86C
100
AcDbEntity
  8
5
  6
PHANTOM
100
AcDbLine
 10
188.759738
 20
310.4187519999998
 30
0.0
 11
144.221675
 21
278.7257349999998
 31
0.0
  0
LINE
  5
C992
330
C86C
100
AcDbEntity
  8
5
  6
PHANTOM
100
AcDbLine
 10
183.534571
 20
299.3365079999998
 30
0.0
 11
153.39661
 21
277.8905169999998
 31
0.0
  0
LINE
  5
C993
330
C86C
100
AcDbEntity
  8
5
  6
PHANTOM
100
AcDbLine
 10
188.759738
 20
306.736729
 30
0.0
 11
144.738876
 21
275.411749
 31
0.0
  0
ARC
  5
C994
330
C86C
100
AcDbEntity
  8
5
  6
PHANTOM
100
AcDbCircle
 10
145.091353
 20
277.5035809999998
 30
0.0
 40
1.5
100
AcDbArc
 50
125.4354249999999
 51
215.435425
  0
LINE
  5
C995
330
C86C
100
AcDbEntity
  8
5
  6
PHANTOM
100
AcDbLine
 10
144.738875
 20
275.411749
 30
0.0
 11
143.869198
 21
276.6339039999999
 31
0.0
  0
ARC
  5
C996
330
C86C
100
AcDbEntity
  8
5
  6
PHANTOM
100
AcDbCircle
 10
153.487182
 20
271.2045919999998
 30
0.0
 40
1.0
100
AcDbArc
 50
305.435425
 51
23.546767
  0
ARC
  5
C997
330
C86C
100
AcDbEntity
  8
5
  6
PHANTOM
100
AcDbCircle
 10
154.55618
 20
276.2609779999999
 30
0.0
 40
2.0
100
AcDbArc
 50
125.4354249999999
 51
203.546767
  0
ARC
  5
C998
330
C86C
100
AcDbEntity
  8
5
  6
PHANTOM
100
AcDbCircle
 10
153.3314159999999
 20
279.0714659999998
 30
0.0
 40
2.0
100
AcDbArc
 50
125.4354249999999
 51
203.546767
  0
ARC
  5
C999
330
C86C
100
AcDbEntity
  8
5
  6
PHANTOM
100
AcDbCircle
 10
149.8073639999998
 20
270.4270669999999
 30
0.0
 40
0.5
100
AcDbArc
 50
125.4354249999999
 51
221.444431
  0
LINE
  5
C99A
330
C86C
100
AcDbEntity
  8
5
  6
PHANTOM
100
AcDbLine
 10
151.3591719999998
 20
272.1449949999998
 30
0.0
 11
149.517471
 21
270.834452
 31
0.0
  0
ARC
  5
C99B
330
C86C
100
AcDbEntity
  8
5
  6
PHANTOM
100
AcDbCircle
 10
151.215324
 20
269.5879519999999
 30
0.0
 40
1.0
100
AcDbArc
 50
221.444431
 51
305.435425
  0
LINE
  5
C99C
330
C86C
100
AcDbEntity
  8
5
  6
PHANTOM
100
AcDbLine
 10
149.4325649999999
 20
270.09612
 30
0.0
 11
150.4657259999999
 21
268.9260589999999
 31
0.0
  0
LINE
  5
C99D
330
C86C
100
AcDbEntity
  8
5
  6
PHANTOM
100
AcDbLine
 10
151.3591719999998
 20
272.1449949999998
 30
0.0
 11
145.9610309999999
 21
276.281427
 31
0.0
  0
LINE
  5
C99E
330
C86C
100
AcDbEntity
  8
5
  6
PHANTOM
100
AcDbLine
 10
151.497947
 20
278.272472
 30
0.0
 11
154.4039159999998
 21
271.6040899999999
 31
0.0
  0
LINE
  5
C99F
330
C86C
100
AcDbEntity
  8
5
  6
PHANTOM
100
AcDbLine
 10
151.7951089999999
 20
268.773183
 30
0.0
 11
154.0669669999996
 21
270.3898229999999
 31
0.0
  0
LINE
  5
C9A0
330
C86C
100
AcDbEntity
  8
5
  6
PHANTOM
100
AcDbLine
 10
188.759738
 20
301.8933359999998
 30
0.0
 11
186.465416
 21
301.620679
 31
0.0
  0
LINE
  5
C9A1
330
C86C
100
AcDbEntity
  8
5
  6
PHANTOM
100
AcDbLine
 10
186.8004599999999
 20
301.660495
 30
0.0
 11
186.1145129999999
 21
301.172379
 31
0.0
  0
ARC
  5
C9A2
330
C86C
100
AcDbEntity
  8
5
  6
PHANTOM
100
AcDbCircle
 10
183.848677
 20
299.0077209999999
 30
0.0
 40
0.45
100
AcDbArc
 50
141.9481529999998
 51
321.9481529999999
  0
LINE
  5
C9A3
330
C86C
100
AcDbEntity
  8
5
  6
PHANTOM
100
AcDbLine
 10
183.693005
 20
303.131272
 30
0.0
 11
184.9002909999999
 21
301.4346779999999
 31
0.0
  0
LINE
  5
C9A4
330
C86C
100
AcDbEntity
  8
5
  6
PHANTOM
100
AcDbLine
 10
183.494323
 20
299.2850890000001
 30
0.0
 11
188.759738
 21
306.0119579999998
 31
0.0
  0
LINE
  5
C9A5
330
C86C
100
AcDbEntity
  8
5
  6
PHANTOM
100
AcDbLine
 10
188.759738
 20
304.551806
 30
0.0
 11
184.203031
 21
298.7303529999998
 31
0.0
  0
LINE
  5
C9A6
330
C86C
100
AcDbEntity
  8
5
  6
PHANTOM
100
AcDbLine
 10
185.205271
 20
301.4709219999998
 30
0.0
 11
184.9002909999999
 21
301.4346779999999
 31
0.0
  0
LINE
  5
C9A7
330
C86C
100
AcDbEntity
  8
5
  6
PHANTOM
100
AcDbLine
 10
184.9002909999999
 20
301.4346779999999
 30
0.0
 11
185.069966
 21
304.111109
 31
0.0
  0
LINE
  5
C9A8
330
C86C
100
AcDbEntity
  8
1
  6
Continuous
100
AcDbLine
 10
190.2597379999999
 20
332.5821429999998
 30
0.0
 11
191.259738
 21
332.5821429999998
 31
0.0
  0
LINE
  5
C9A9
330
C86C
100
AcDbEntity
  8
1
  6
Continuous
100
AcDbLine
 10
188.759738
 20
330.5821429999998
 30
0.0
 11
190.2597379999999
 21
332.5821429999998
 31
0.0
  0
LINE
  5
C9AA
330
C86C
100
AcDbEntity
  8
1
  6
Continuous
100
AcDbLine
 10
206.8597379999999
 20
307.5821429999998
 30
0.0
 11
207.859738
 21
308.5821429999998
 31
0.0
  0
LINE
  5
C9AB
330
C86C
100
AcDbEntity
  8
1
  6
Continuous
100
AcDbLine
 10
203.759738
 20
297.5821429999998
 30
0.0
 11
203.759738
 21
332.5821429999998
 31
0.0
  0
LINE
  5
C9AC
330
C86C
100
AcDbEntity
  8
1
  6
Continuous
100
AcDbLine
 10
206.0597379999999
 20
302.5821429999998
 30
0.0
 11
206.0597379999999
 21
312.5821429999998
 31
0.0
  0
LINE
  5
C9AD
330
C86C
100
AcDbEntity
  8
1
  6
Continuous
100
AcDbLine
 10
206.8597379999999
 20
302.5821429999998
 30
0.0
 11
206.8597379999999
 21
312.5821429999998
 31
0.0
  0
ARC
  5
C9AE
330
C86C
100
AcDbEntity
  8
1
  6
Continuous
100
AcDbCircle
 10
201.459738
 20
307.5821429999998
 30
0.0
 40
9.0
100
AcDbArc
 50
344.1191499999998
 51
15.88085
  0
LINE
  5
C9AF
330
C86C
100
AcDbEntity
  8
1
  6
Continuous
100
AcDbLine
 10
207.859738
 20
303.782143
 30
0.0
 11
207.859738
 21
311.3821429999998
 31
0.0
  0
LINE
  5
C9B0
330
C86C
100
AcDbEntity
  8
1
  6
Continuous
100
AcDbLine
 10
205.7597379999999
 20
297.5821429999998
 30
0.0
 11
205.7597379999999
 21
332.5821429999998
 31
0.0
  0
LINE
  5
C9B1
330
C86C
100
AcDbEntity
  8
1
  6
Continuous
100
AcDbLine
 10
207.859738
 20
304.0821429999998
 30
0.0
 11
208.9791539999999
 21
304.1800789999998
 31
0.0
  0
LINE
  5
C9B2
330
C86C
100
AcDbEntity
  8
1
  6
Continuous
100
AcDbLine
 10
207.859738
 20
307.5821429999998
 30
0.0
 11
206.8597379999999
 21
306.5821429999998
 31
0.0
  0
LINE
  5
C9B3
330
C86C
100
AcDbEntity
  8
1
  6
Continuous
100
AcDbLine
 10
206.0597379999999
 20
302.5821429999998
 30
0.0
 11
206.8597379999999
 21
302.5821429999998
 31
0.0
  0
LINE
  5
C9B4
330
C86C
100
AcDbEntity
  8
1
  6
Continuous
100
AcDbLine
 10
206.8597379999999
 20
303.782143
 30
0.0
 11
207.859738
 21
303.782143
 31
0.0
  0
LINE
  5
C9B5
330
C86C
100
AcDbEntity
  8
1
  6
Continuous
100
AcDbLine
 10
205.7597379999999
 20
304.8821429999998
 30
0.0
 11
206.0597379999999
 21
304.8821429999998
 31
0.0
  0
LINE
  5
C9B6
330
C86C
100
AcDbEntity
  8
1
  6
Continuous
100
AcDbLine
 10
203.2597379999999
 20
300.5821429999998
 30
0.0
 11
203.759738
 21
300.5821429999998
 31
0.0
  0
LINE
  5
C9B7
330
C86C
100
AcDbEntity
  8
1
  6
Continuous
100
AcDbLine
 10
203.759738
 20
297.5821429999998
 30
0.0
 11
205.7597379999999
 21
297.5821429999998
 31
0.0
  0
ARC
  5
C9B8
330
C86C
100
AcDbEntity
  8
1
  6
Continuous
100
AcDbCircle
 10
208.865851
 20
305.4751319999998
 30
0.0
 40
1.3
100
AcDbArc
 50
275.0
 51
344.1191499999998
  0
LINE
  5
C9B9
330
C86C
100
AcDbEntity
  8
1
  6
Continuous
100
AcDbLine
 10
196.7597379999999
 20
330.0821429999998
 30
0.0
 11
197.259738
 21
329.5821429999998
 31
0.0
  0
LINE
  5
C9BA
330
C86C
100
AcDbEntity
  8
1
  6
Continuous
100
AcDbLine
 10
196.7597379999999
 20
323.0821429999998
 30
0.0
 11
196.7597379999999
 21
330.0821429999998
 31
0.0
  0
ARC
  5
C9BB
330
C86C
100
AcDbEntity
  8
1
  6
Continuous
100
AcDbCircle
 10
207.7597379999999
 20
317.5821429999998
 30
0.0
 40
1.0
100
AcDbArc
 50
0.0
 51
90.0
  0
LINE
  5
C9BC
330
C86C
100
AcDbEntity
  8
1
  6
Continuous
100
AcDbLine
 10
206.8597379999999
 20
311.582143
 30
0.0
 11
208.2254849999999
 21
312.3009569999998
 31
0.0
  0
LINE
  5
C9BD
330
C86C
100
AcDbEntity
  8
1
  6
Continuous
100
AcDbLine
 10
207.859738
 20
311.0821429999998
 30
0.0
 11
208.9791539999999
 21
310.9842069999999
 31
0.0
  0
LINE
  5
C9BE
330
C86C
100
AcDbEntity
  8
4
  6
CENTER
100
AcDbLine
 10
202.259738
 20
327.5821429999998
 30
0.0
 11
207.2597379999999
 21
327.5821429999998
 31
0.0
  0
LINE
  5
C9BF
330
C86C
100
AcDbEntity
  8
1
  6
Continuous
100
AcDbLine
 10
207.7597379999999
 20
318.5821429999998
 30
0.0
 11
205.7597379999999
 21
318.5821429999998
 31
0.0
  0
LINE
  5
C9C0
330
C86C
100
AcDbEntity
  8
1
  6
Continuous
100
AcDbLine
 10
203.759738
 20
317.5821429999998
 30
0.0
 11
205.7597379999999
 21
317.5821429999998
 31
0.0
  0
LINE
  5
C9C1
330
C86C
100
AcDbEntity
  8
1
  6
Continuous
100
AcDbLine
 10
206.0597379999999
 20
312.5821429999998
 30
0.0
 11
206.8597379999999
 21
312.5821429999998
 31
0.0
  0
LINE
  5
C9C2
330
C86C
100
AcDbEntity
  8
1
  6
Continuous
100
AcDbLine
 10
205.7597379999999
 20
311.003196
 30
0.0
 11
206.0597379999999
 21
311.16109
 31
0.0
  0
LINE
  5
C9C3
330
C86C
100
AcDbEntity
  8
1
  6
Continuous
100
AcDbLine
 10
206.8597379999999
 20
311.3821429999998
 30
0.0
 11
207.859738
 21
311.3821429999998
 31
0.0
  0
LINE
  5
C9C4
330
C86C
100
AcDbEntity
  8
1
  6
Continuous
100
AcDbLine
 10
205.7597379999999
 20
310.282143
 30
0.0
 11
206.0597379999999
 21
310.282143
 31
0.0
  0
LINE
  5
C9C5
330
C86C
100
AcDbEntity
  8
1
  6
Continuous
100
AcDbLine
 10
196.7597379999999
 20
323.0821429999998
 30
0.0
 11
197.259738
 21
323.5821429999998
 31
0.0
  0
LINE
  5
C9C6
330
C86C
100
AcDbEntity
  8
1
  6
Continuous
100
AcDbLine
 10
197.259738
 20
329.5821429999998
 30
0.0
 11
197.259738
 21
323.5821429999998
 31
0.0
  0
ARC
  5
C9C7
330
C86C
100
AcDbEntity
  8
1
  6
Continuous
100
AcDbCircle
 10
207.7597379999999
 20
313.185875
 30
0.0
 40
1.0
100
AcDbArc
 50
297.7585410000001
 51
0.0
  0
ARC
  5
C9C8
330
C86C
100
AcDbEntity
  8
1
  6
Continuous
100
AcDbCircle
 10
208.865851
 20
309.6891539999998
 30
0.0
 40
1.3
100
AcDbArc
 50
15.88085
 51
85.0
  0
LINE
  5
C9C9
330
C86C
100
AcDbEntity
  8
1
  6
Continuous
100
AcDbLine
 10
208.759738
 20
317.5821429999998
 30
0.0
 11
208.759738
 21
313.185875
 31
0.0
  0
LINE
  5
C9CA
330
C86C
100
AcDbEntity
  8
1
  6
Continuous
100
AcDbLine
 10
203.759738
 20
332.5821429999998
 30
0.0
 11
205.7597379999999
 21
332.5821429999998
 31
0.0
  0
LINE
  5
C9CB
330
C86C
100
AcDbEntity
  8
1
  6
Continuous
100
AcDbLine
 10
240.948019
 20
105.9020399999996
 30
0.0
 11
239.8286189999999
 21
106.0000399999996
 31
0.0
  0
LINE
  5
C9CC
330
C86C
100
AcDbEntity
  8
1
  6
Continuous
100
AcDbLine
 10
240.948019
 20
99.09704000000001
 30
0.0
 11
239.8285189999997
 21
99.00004
 31
0.0
  0
LINE
  5
C9CD
330
C86C
100
AcDbEntity
  8
4
  6
CENTER
100
AcDbLine
 10
230.3286190000167
 20
102.5000399999999
 30
0.0
 11
245.4286189999999
 21
102.5000399999999
 31
0.0
  0
ARC
  5
C9D7
330
C86C
100
AcDbEntity
  8
1
  6
Continuous
100
AcDbCircle
 10
233.4286189999999
 20
102.5000399999999
 30
0.0
 40
9.0
100
AcDbArc
 50
344.1192
 51
15.88099999999999
  0
ARC
  5
C9D8
330
C86C
100
AcDbEntity
  8
1
  6
Continuous
100
AcDbCircle
 10
240.834719
 20
104.60704
 30
0.0
 40
1.3
100
AcDbArc
 50
15.88099999999999
 51
85.0
  0
ARC
  5
C9D9
330
C86C
100
AcDbEntity
  8
1
  6
Continuous
100
AcDbCircle
 10
240.834719
 20
100.39304
 30
0.0
 40
1.3
100
AcDbArc
 50
275.0000999999999
 51
344.1192
  0
LINE
  5
C9DA
330
C86C
100
AcDbEntity
  8
5
  6
PHANTOM
100
AcDbLine
 10
376.066339
 20
332.3308809999998
 30
0.0
 11
404.350611
 21
304.0466089999998
 31
0.0
  0
LINE
  5
C9DB
330
C86C
100
AcDbEntity
  8
5
  6
PHANTOM
100
AcDbLine
 10
333.6399319999998
 20
325.2598129999999
 30
0.0
 11
404.350611
 21
254.549135
 31
0.0
  0
ARC
  5
C9DC
330
C86C
100
AcDbEntity
  8
1
  6
Continuous
100
AcDbCircle
 10
382.459738
 20
307.5821429999998
 30
0.0
 40
2.1
100
AcDbArc
 50
28.32825099999999
 51
61.671749
  0
ARC
  5
C9DD
330
C86C
100
AcDbEntity
  8
1
  6
Continuous
100
AcDbCircle
 10
365.459738
 20
307.5821429999998
 30
0.0
 40
19.8
100
AcDbArc
 50
12.96436
 51
45.0
  0
ARC
  5
C9DE
330
C86C
100
AcDbEntity
  8
1
  6
Continuous
100
AcDbCircle
 10
373.959738
 20
312.0821429999998
 30
0.0
 40
8.5
100
AcDbArc
 50
3.372139999999999
 51
84.05093800000001
  0
LINE
  5
C9DF
330
C86C
100
AcDbEntity
  8
4
  6
CENTER
100
AcDbLine
 10
357.953683
 20
307.5821429999998
 30
0.0
 11
388.959738
 21
307.5821429999998
 31
0.0
  0
LINE
  5
C9E0
330
C86C
100
AcDbEntity
  8
1
  6
Continuous
100
AcDbLine
 10
355.459738
 20
332.5821429999998
 30
0.0
 11
395.459738
 21
332.5821429999998
 31
0.0
  0
ARC
  5
C9E1
330
C86C
100
AcDbEntity
  8
1
  6
Continuous
100
AcDbCircle
 10
382.459738
 20
307.5821429999998
 30
0.0
 40
2.1
100
AcDbArc
 50
298.3282509999999
 51
331.6717489999998
  0
ARC
  5
C9E2
330
C86C
100
AcDbEntity
  8
1
  6
Continuous
100
AcDbCircle
 10
382.959738
 20
246.082143
 30
0.0
 40
2.5
100
AcDbArc
 50
0.0
 51
90.0
  0
ARC
  5
C9E3
330
C86C
100
AcDbEntity
  8
1
  6
Continuous
100
AcDbCircle
 10
382.959738
 20
231.582143
 30
0.0
 40
2.5
100
AcDbArc
 50
270.0
 51
0.0
  0
ARC
  5
C9E4
330
C86C
100
AcDbEntity
  8
1
  6
Continuous
100
AcDbCircle
 10
382.959738
 20
229.082143
 30
0.0
 40
2.5
100
AcDbArc
 50
270.0
 51
0.0
  0
LINE
  5
C9E5
330
C86C
100
AcDbEntity
  8
1
  6
Continuous
100
AcDbLine
 10
330.459738
 20
297.5821429999998
 30
0.0
 11
430.459738
 21
297.5821429999998
 31
0.0
  0
LINE
  5
C9E6
330
C86C
100
AcDbEntity
  8
1
  6
Continuous
100
AcDbLine
 10
362.459738
 20
248.582143
 30
0.0
 11
385.459738
 21
248.582143
 31
0.0
  0
LINE
  5
C9E7
330
C86C
100
AcDbEntity
  8
1
  6
Continuous
100
AcDbLine
 10
363.959738
 20
251.582143
 30
0.0
 11
383.959738
 21
251.582143
 31
0.0
  0
ARC
  5
C9E8
330
C86C
100
AcDbEntity
  8
1
  6
Continuous
100
AcDbCircle
 10
382.959738
 20
220.582143
 30
0.0
 40
5.0
100
AcDbArc
 50
270.0
 51
0.0
  0
CIRCLE
  5
C9E9
330
C86C
100
AcDbEntity
  8
1
  6
Continuous
100
AcDbCircle
 10
382.459738
 20
307.5821429999998
 30
0.0
 40
3.5
  0
CIRCLE
  5
C9EA
330
C86C
100
AcDbEntity
  8
1
  6
Continuous
100
AcDbCircle
 10
382.459738
 20
307.5821429999998
 30
0.0
 40
5.0
  0
CIRCLE
  5
C9EB
330
C86C
100
AcDbEntity
  8
1
  6
Continuous
100
AcDbCircle
 10
382.459738
 20
307.5821429999998
 30
0.0
 40
3.799999999999998
  0
LINE
  5
C9EC
330
C86C
100
AcDbEntity
  8
1
  6
Continuous
100
AcDbLine
 10
362.459738
 20
297.5821429999998
 30
0.0
 11
362.459738
 21
229.082143
 31
0.0
  0
LINE
  5
C9ED
330
C86C
100
AcDbEntity
  8
1
  6
Continuous
100
AcDbLine
 10
363.959738
 20
251.582143
 30
0.0
 11
363.959738
 21
297.5821429999998
 31
0.0
  0
LINE
  5
C9EE
330
C86C
100
AcDbEntity
  8
1
  6
Continuous
100
AcDbLine
 10
359.959738
 20
297.5821429999998
 30
0.0
 11
359.959738
 21
220.582143
 31
0.0
  0
LINE
  5
C9EF
330
C86C
100
AcDbEntity
  8
4
  6
CENTER
100
AcDbLine
 10
373.959738
 20
211.275175
 30
0.0
 11
373.959738
 21
335.5821429999998
 31
0.0
  0
ARC
  5
C9F3
330
C86C
100
AcDbEntity
  8
1
  6
Continuous
100
AcDbCircle
 10
232.928618
 20
221.5821039999999
 30
0.0
 40
9.0
100
AcDbArc
 50
344.1190000000001
 51
15.8808
  0
ARC
  5
C9F4
330
C86C
100
AcDbEntity
  8
1
  6
Continuous
100
AcDbCircle
 10
240.334718
 20
219.4751039999999
 30
0.0
 40
1.3
100
AcDbArc
 50
275.0
 51
344.1190000000001
  0
LINE
  5
C9F6
330
C86C
100
AcDbEntity
  8
1
  6
Continuous
100
AcDbLine
 10
240.448018
 20
218.1801039999998
 30
0.0
 11
239.3286179999999
 21
218.082104
 31
0.0
  0
ARC
  5
C9F8
330
C86C
100
AcDbEntity
  8
1
  6
Continuous
100
AcDbCircle
 10
240.334718
 20
223.6891039999999
 30
0.0
 40
1.3
100
AcDbArc
 50
15.8808
 51
84.99990000000002
  0
LINE
  5
C9F9
330
C86C
100
AcDbEntity
  8
4
  6
CENTER
100
AcDbLine
 10
229.8286180000168
 20
221.5821039999999
 30
0.0
 11
244.928618
 21
221.5821039999999
 31
0.0
  0
LINE
  5
C9FD
330
C86C
100
AcDbEntity
  8
1
  6
Continuous
100
AcDbLine
 10
240.448018
 20
224.985104
 30
0.0
 11
239.328518
 21
225.0821039999999
 31
0.0
  0
LINE
  5
C9FF
330
C86C
100
AcDbEntity
  8
1
  6
Continuous
100
AcDbLine
 10
373.434357
 20
220.441156
 30
0.0
 11
372.8017799999999
 21
219.830216
 31
0.0
  0
LINE
  5
CA00
330
C86C
100
AcDbEntity
  8
1
  6
Continuous
100
AcDbLine
 10
374.4851179999998
 20
220.441156
 30
0.0
 11
375.117696
 21
219.830216
 31
0.0
  0
ARC
  5
CA01
330
C86C
100
AcDbEntity
  8
1
  6
Continuous
100
AcDbCircle
 10
373.959738
 20
221.582143
 30
0.0
 40
2.1
100
AcDbArc
 50
213.463
 51
236.5369999999999
  0
ARC
  5
CA02
330
C86C
100
AcDbEntity
  8
1
  6
Continuous
100
AcDbCircle
 10
373.959738
 20
221.582143
 30
0.0
 40
2.1
100
AcDbArc
 50
303.4629999999999
 51
326.5369999999998
  0
CIRCLE
  5
CA03
330
C86C
100
AcDbEntity
  8
1
  6
Continuous
100
AcDbCircle
 10
373.959738
 20
221.582143
 30
0.0
 40
3.5
  0
ARC
  5
CA09
330
C86C
100
AcDbEntity
  8
1
  6
Continuous
100
AcDbCircle
 10
364.959738
 20
220.582143
 30
0.0
 40
5.0
100
AcDbArc
 50
180.0
 51
270.0
  0
LINE
  5
CA0A
330
C86C
100
AcDbEntity
  8
1
  6
Continuous
100
AcDbLine
 10
382.959738
 20
215.582143
 30
0.0
 11
364.959738
 21
215.582143
 31
0.0
  0
ARC
  5
CA0E
330
C86C
100
AcDbEntity
  8
1
  6
Continuous
100
AcDbCircle
 10
373.959738
 20
239.582143
 30
0.0
 40
5.7
100
AcDbArc
 50
0.0
 51
90.0
  0
ARC
  5
CA0F
330
C86C
100
AcDbEntity
  8
1
  6
Continuous
100
AcDbCircle
 10
373.959738
 20
243.082143
 30
0.0
 40
2.2
100
AcDbArc
 50
90.0
 51
270.0
  0
LINE
  5
CA10
330
C86C
100
AcDbEntity
  8
1
  6
Continuous
100
AcDbLine
 10
364.959738
 20
229.082143
 30
0.0
 11
382.959738
 21
229.082143
 31
0.0
  0
LINE
  5
CA11
330
C86C
100
AcDbEntity
  8
1
  6
Continuous
100
AcDbLine
 10
364.959738
 20
226.582143
 30
0.0
 11
382.959738
 21
226.582143
 31
0.0
  0
LINE
  5
CA12
330
C86C
100
AcDbEntity
  8
4
  6
CENTER
100
AcDbLine
 10
382.299509
 20
221.582143
 30
0.0
 11
366.073595
 21
221.582143
 31
0.0
  0
ARC
  5
CA13
330
C86C
100
AcDbEntity
  8
1
  6
Continuous
100
AcDbCircle
 10
364.959738
 20
231.582143
 30
0.0
 40
2.5
100
AcDbArc
 50
180.0
 51
270.0
  0
ARC
  5
CA14
330
C86C
100
AcDbEntity
  8
1
  6
Continuous
100
AcDbCircle
 10
364.959738
 20
229.082143
 30
0.0
 40
2.5
100
AcDbArc
 50
180.0
 51
270.0
  0
LINE
  5
CA15
330
C86C
100
AcDbEntity
  8
1
  6
Continuous
100
AcDbLine
 10
363.959738
 20
226.790855
 30
0.0
 11
363.959738
 21
229.2908549999999
 31
0.0
  0
LINE
  5
CA16
330
C86C
100
AcDbEntity
  8
1
  6
Continuous
100
AcDbLine
 10
364.959738
 20
226.582143
 30
0.0
 11
364.959738
 21
229.082143
 31
0.0
  0
LINE
  5
CA17
330
C86C
100
AcDbEntity
  8
1
  6
Continuous
100
AcDbLine
 10
374.909523
 20
221.582143
 30
0.0
 11
375.1007959999999
 21
222.1075939999999
 31
0.0
  0
LINE
  5
CA18
330
C86C
100
AcDbEntity
  8
1
  6
Continuous
100
AcDbLine
 10
375.1007959999999
 20
222.1075939999999
 30
0.0
 11
375.7116649999999
 21
222.7401009999999
 31
0.0
  0
LINE
  5
CA19
330
C86C
100
AcDbEntity
  8
1
  6
Continuous
100
AcDbLine
 10
374.4851179999998
 20
222.7232719999999
 30
0.0
 11
375.117696
 21
223.3340709999999
 31
0.0
  0
LINE
  5
CA1A
330
C86C
100
AcDbEntity
  8
1
  6
Continuous
100
AcDbLine
 10
373.959738
 20
222.5319289999999
 30
0.0
 11
374.4851179999998
 21
222.7232719999999
 31
0.0
  0
LINE
  5
CA1B
330
C86C
100
AcDbEntity
  8
1
  6
Continuous
100
AcDbLine
 10
373.009952
 20
221.582143
 30
0.0
 11
372.8186789999999
 21
222.1075939999999
 31
0.0
  0
LINE
  5
CA1C
330
C86C
100
AcDbEntity
  8
1
  6
Continuous
100
AcDbLine
 10
372.81875
 20
222.107524
 30
0.0
 11
372.20781
 21
222.7401009999999
 31
0.0
  0
LINE
  5
CA1D
330
C86C
100
AcDbEntity
  8
1
  6
Continuous
100
AcDbLine
 10
373.434357
 20
222.7232719999999
 30
0.0
 11
372.8017799999999
 21
223.3340709999999
 31
0.0
  0
LINE
  5
CA1E
330
C86C
100
AcDbEntity
  8
1
  6
Continuous
100
AcDbLine
 10
373.959738
 20
222.5319289999999
 30
0.0
 11
373.4344279999998
 21
222.7232019999999
 31
0.0
  0
LINE
  5
CA1F
330
C86C
100
AcDbEntity
  8
1
  6
Continuous
100
AcDbLine
 10
373.959738
 20
220.6323569999999
 30
0.0
 11
373.434357
 21
220.441156
 31
0.0
  0
LINE
  5
CA20
330
C86C
100
AcDbEntity
  8
1
  6
Continuous
100
AcDbLine
 10
372.8186789999999
 20
221.056834
 30
0.0
 11
372.20781
 21
220.4241849999999
 31
0.0
  0
LINE
  5
CA21
330
C86C
100
AcDbEntity
  8
1
  6
Continuous
100
AcDbLine
 10
373.009952
 20
221.582143
 30
0.0
 11
372.8186789999999
 21
221.056834
 31
0.0
  0
LINE
  5
CA22
330
C86C
100
AcDbEntity
  8
1
  6
Continuous
100
AcDbLine
 10
374.909523
 20
221.582143
 30
0.0
 11
375.1007959999999
 21
221.056834
 31
0.0
  0
LINE
  5
CA23
330
C86C
100
AcDbEntity
  8
1
  6
Continuous
100
AcDbLine
 10
375.1007959999999
 20
221.056834
 30
0.0
 11
375.7116649999999
 21
220.4241849999999
 31
0.0
  0
LINE
  5
CA24
330
C86C
100
AcDbEntity
  8
1
  6
Continuous
100
AcDbLine
 10
373.959738
 20
220.6323569999999
 30
0.0
 11
374.4851179999998
 21
220.441156
 31
0.0
  0
ARC
  5
CA25
330
C86C
100
AcDbEntity
  8
1
  6
Continuous
100
AcDbCircle
 10
373.959738
 20
221.582143
 30
0.0
 40
2.1
100
AcDbArc
 50
33.463
 51
56.537
  0
ARC
  5
CA26
330
C86C
100
AcDbEntity
  8
1
  6
Continuous
100
AcDbCircle
 10
373.959738
 20
221.582143
 30
0.0
 40
2.1
100
AcDbArc
 50
123.4629999999998
 51
146.537
  0
ARC
  5
CA2A
330
C86C
100
AcDbEntity
  8
1
  6
Continuous
100
AcDbCircle
 10
373.959738
 20
239.582143
 30
0.0
 40
1.3
100
AcDbArc
 50
0.0
 51
90.0
  0
CIRCLE
  5
CA2B
330
C86C
100
AcDbEntity
  8
1
  6
Continuous
100
AcDbCircle
 10
377.459738
 20
239.582143
 30
0.0
 40
2.0
  0
ARC
  5
CA2C
330
C86C
100
AcDbEntity
  8
1
  6
Continuous
100
AcDbCircle
 10
377.459738
 20
239.582143
 30
0.0
 40
2.2
100
AcDbArc
 50
180.0
 51
0.0
  0
LINE
  5
CA2D
330
C86C
100
AcDbEntity
  8
1
  6
Continuous
100
AcDbLine
 10
382.959738
 20
226.582143
 30
0.0
 11
382.959738
 21
229.082143
 31
0.0
  0
LINE
  5
CA2E
330
C86C
100
AcDbEntity
  8
1
  6
Continuous
100
AcDbLine
 10
374.959738
 20
228.1411709999999
 30
0.0
 11
374.959738
 21
229.082143
 31
0.0
  0
ARC
  5
CA2F
330
C86C
100
AcDbEntity
  8
1
  6
Continuous
100
AcDbCircle
 10
373.959738
 20
236.582143
 30
0.0
 40
8.5
100
AcDbArc
 50
276.756327
 51
298.072487
  0
ARC
  5
CA30
330
C86C
100
AcDbEntity
  8
1
  6
Continuous
100
AcDbCircle
 10
368.459738
 20
246.082143
 30
0.0
 40
1.199999999999999
100
AcDbArc
 50
208.328251
 51
241.6717489999999
  0
ARC
  5
CA31
330
C86C
100
AcDbEntity
  8
1
  6
Continuous
100
AcDbCircle
 10
368.459738
 20
246.082143
 30
0.0
 40
1.199999999999999
100
AcDbArc
 50
118.3282509999999
 51
151.671749
  0
LINE
  5
CA32
330
C86C
100
AcDbEntity
  8
1
  6
Continuous
100
AcDbLine
 10
367.7110349999999
 20
245.8312339999999
 30
0.0
 11
367.4034459999999
 21
245.5127159999999
 31
0.0
  0
LINE
  5
CA33
330
C86C
100
AcDbEntity
  8
1
  6
Continuous
100
AcDbLine
 10
367.7110349999999
 20
246.3330519999999
 30
0.0
 11
367.4034459999999
 21
246.6515699999999
 31
0.0
  0
CIRCLE
  5
CA34
330
C86C
100
AcDbEntity
  8
1
  6
Continuous
100
AcDbCircle
 10
368.459738
 20
246.082143
 30
0.0
 40
2.299999999999998
  0
LINE
  5
CA35
330
C86C
100
AcDbEntity
  8
4
  6
CENTER
100
AcDbLine
 10
372.459738
 20
246.082143
 30
0.0
 11
364.459738
 21
246.082143
 31
0.0
  0
CIRCLE
  5
CA36
330
C86C
100
AcDbEntity
  8
1
  6
Continuous
100
AcDbCircle
 10
368.459738
 20
246.082143
 30
0.0
 40
2.5
  0
ARC
  5
CA37
330
C86C
100
AcDbEntity
  8
1
  6
Continuous
100
AcDbCircle
 10
364.959738
 20
246.082143
 30
0.0
 40
2.5
100
AcDbArc
 50
90.0
 51
180.0
  0
LINE
  5
CA38
330
C86C
100
AcDbEntity
  8
1
  6
Continuous
100
AcDbLine
 10
379.710647
 20
245.33344
 30
0.0
 11
380.0291649999999
 21
245.0258509999999
 31
0.0
  0
LINE
  5
CA39
330
C86C
100
AcDbEntity
  8
1
  6
Continuous
100
AcDbLine
 10
379.710647
 20
246.830846
 30
0.0
 11
380.0291649999999
 21
247.138435
 31
0.0
  0
ARC
  5
CA3A
330
C86C
100
AcDbEntity
  8
1
  6
Continuous
100
AcDbCircle
 10
379.459738
 20
246.082143
 30
0.0
 40
1.199999999999999
100
AcDbArc
 50
208.328251
 51
241.6717489999999
  0
ARC
  5
CA3B
330
C86C
100
AcDbEntity
  8
1
  6
Continuous
100
AcDbCircle
 10
379.459738
 20
246.082143
 30
0.0
 40
1.199999999999999
100
AcDbArc
 50
118.3282509999999
 51
151.671749
  0
LINE
  5
CA3C
330
C86C
100
AcDbEntity
  8
1
  6
Continuous
100
AcDbLine
 10
379.2088289999999
 20
245.33344
 30
0.0
 11
378.890312
 21
245.0258509999999
 31
0.0
  0
LINE
  5
CA3D
330
C86C
100
AcDbEntity
  8
1
  6
Continuous
100
AcDbLine
 10
379.459738
 20
245.4297549999997
 30
0.0
 11
379.2088289999999
 21
245.33344
 31
0.0
  0
LINE
  5
CA3E
330
C86C
100
AcDbEntity
  8
1
  6
Continuous
100
AcDbLine
 10
379.459738
 20
245.4297549999997
 30
0.0
 11
379.710647
 21
245.33344
 31
0.0
  0
LINE
  5
CA3F
330
C86C
100
AcDbEntity
  8
1
  6
Continuous
100
AcDbLine
 10
379.459738
 20
246.734531
 30
0.0
 11
379.710647
 21
246.830846
 31
0.0
  0
LINE
  5
CA40
330
C86C
100
AcDbEntity
  8
1
  6
Continuous
100
AcDbLine
 10
379.459738
 20
246.734531
 30
0.0
 11
379.2088289999999
 21
246.830846
 31
0.0
  0
LINE
  5
CA41
330
C86C
100
AcDbEntity
  8
1
  6
Continuous
100
AcDbLine
 10
379.2088289999999
 20
246.830846
 30
0.0
 11
378.890312
 21
247.138435
 31
0.0
  0
LINE
  5
CA42
330
C86C
100
AcDbEntity
  8
1
  6
Continuous
100
AcDbLine
 10
378.7110349999999
 20
245.8312339999999
 30
0.0
 11
378.4034459999999
 21
245.5127159999999
 31
0.0
  0
LINE
  5
CA43
330
C86C
100
AcDbEntity
  8
1
  6
Continuous
100
AcDbLine
 10
378.7110349999999
 20
246.3330519999999
 30
0.0
 11
378.4034459999999
 21
246.6515699999999
 31
0.0
  0
LINE
  5
CA44
330
C86C
100
AcDbEntity
  8
1
  6
Continuous
100
AcDbLine
 10
378.8073499999999
 20
246.082143
 30
0.0
 11
378.7110349999999
 21
245.8312339999999
 31
0.0
  0
LINE
  5
CA45
330
C86C
100
AcDbEntity
  8
1
  6
Continuous
100
AcDbLine
 10
378.8073499999999
 20
246.082143
 30
0.0
 11
378.7110349999999
 21
246.3330519999999
 31
0.0
  0
ARC
  5
CA46
330
C86C
100
AcDbEntity
  8
1
  6
Continuous
100
AcDbCircle
 10
379.459738
 20
246.082143
 30
0.0
 40
1.199999999999999
100
AcDbArc
 50
298.3282509999999
 51
331.6717489999998
  0
ARC
  5
CA47
330
C86C
100
AcDbEntity
  8
1
  6
Continuous
100
AcDbCircle
 10
379.459738
 20
246.082143
 30
0.0
 40
1.199999999999999
100
AcDbArc
 50
28.32825099999999
 51
61.671749
  0
LINE
  5
CA48
330
C86C
100
AcDbEntity
  8
1
  6
Continuous
100
AcDbLine
 10
380.2084419999998
 20
245.8312339999999
 30
0.0
 11
380.51603
 21
245.5127159999999
 31
0.0
  0
LINE
  5
CA49
330
C86C
100
AcDbEntity
  8
1
  6
Continuous
100
AcDbLine
 10
380.1121269999999
 20
246.082143
 30
0.0
 11
380.2084419999998
 21
245.8312339999999
 31
0.0
  0
LINE
  5
CA4A
330
C86C
100
AcDbEntity
  8
1
  6
Continuous
100
AcDbLine
 10
380.1121269999999
 20
246.082143
 30
0.0
 11
380.2084419999998
 21
246.3330519999999
 31
0.0
  0
LINE
  5
CA4B
330
C86C
100
AcDbEntity
  8
1
  6
Continuous
100
AcDbLine
 10
380.2084419999998
 20
246.3330519999999
 30
0.0
 11
380.51603
 21
246.6515699999999
 31
0.0
  0
CIRCLE
  5
CA4C
330
C86C
100
AcDbEntity
  8
1
  6
Continuous
100
AcDbCircle
 10
379.459738
 20
246.082143
 30
0.0
 40
2.299999999999998
  0
LINE
  5
CA4D
330
C86C
100
AcDbEntity
  8
4
  6
CENTER
100
AcDbLine
 10
383.459738
 20
246.082143
 30
0.0
 11
375.459738
 21
246.082143
 31
0.0
  0
CIRCLE
  5
CA4E
330
C86C
100
AcDbEntity
  8
1
  6
Continuous
100
AcDbCircle
 10
379.459738
 20
246.082143
 30
0.0
 40
2.5
  0
LINE
  5
CA4F
330
C86C
100
AcDbEntity
  8
4
  6
CENTER
100
AcDbLine
 10
379.459738
 20
250.082143
 30
0.0
 11
379.459738
 21
242.082143
 31
0.0
  0
ARC
  5
CA50
330
C86C
100
AcDbEntity
  8
1
  6
Continuous
100
AcDbCircle
 10
368.459738
 20
246.082143
 30
0.0
 40
1.199999999999999
100
AcDbArc
 50
298.3282509999999
 51
331.6717489999998
  0
ARC
  5
CA51
330
C86C
100
AcDbEntity
  8
1
  6
Continuous
100
AcDbCircle
 10
368.459738
 20
246.082143
 30
0.0
 40
1.199999999999999
100
AcDbArc
 50
28.32825099999999
 51
61.671749
  0
LINE
  5
CA52
330
C86C
100
AcDbEntity
  8
1
  6
Continuous
100
AcDbLine
 10
368.2088289999999
 20
245.33344
 30
0.0
 11
367.890312
 21
245.0258509999999
 31
0.0
  0
LINE
  5
CA53
330
C86C
100
AcDbEntity
  8
1
  6
Continuous
100
AcDbLine
 10
368.459738
 20
245.4297549999997
 30
0.0
 11
368.2088289999999
 21
245.33344
 31
0.0
  0
LINE
  5
CA54
330
C86C
100
AcDbEntity
  8
1
  6
Continuous
100
AcDbLine
 10
368.459738
 20
245.4297549999997
 30
0.0
 11
368.7106469999998
 21
245.33344
 31
0.0
  0
LINE
  5
CA55
330
C86C
100
AcDbEntity
  8
1
  6
Continuous
100
AcDbLine
 10
368.7106469999998
 20
245.33344
 30
0.0
 11
369.0291649999999
 21
245.0258509999999
 31
0.0
  0
LINE
  5
CA56
330
C86C
100
AcDbEntity
  8
1
  6
Continuous
100
AcDbLine
 10
369.208442
 20
245.8312339999999
 30
0.0
 11
369.5160299999998
 21
245.5127159999999
 31
0.0
  0
LINE
  5
CA57
330
C86C
100
AcDbEntity
  8
1
  6
Continuous
100
AcDbLine
 10
369.112127
 20
246.082143
 30
0.0
 11
369.208442
 21
245.8312339999999
 31
0.0
  0
LINE
  5
CA58
330
C86C
100
AcDbEntity
  8
1
  6
Continuous
100
AcDbLine
 10
369.112127
 20
246.082143
 30
0.0
 11
369.208442
 21
246.3330519999999
 31
0.0
  0
LINE
  5
CA59
330
C86C
100
AcDbEntity
  8
1
  6
Continuous
100
AcDbLine
 10
369.208442
 20
246.3330519999999
 30
0.0
 11
369.5160299999998
 21
246.6515699999999
 31
0.0
  0
LINE
  5
CA5A
330
C86C
100
AcDbEntity
  8
1
  6
Continuous
100
AcDbLine
 10
368.7106469999998
 20
246.830846
 30
0.0
 11
369.0291649999999
 21
247.138435
 31
0.0
  0
LINE
  5
CA5B
330
C86C
100
AcDbEntity
  8
1
  6
Continuous
100
AcDbLine
 10
368.459738
 20
246.734531
 30
0.0
 11
368.7106469999998
 21
246.830846
 31
0.0
  0
LINE
  5
CA5C
330
C86C
100
AcDbEntity
  8
1
  6
Continuous
100
AcDbLine
 10
368.459738
 20
246.734531
 30
0.0
 11
368.2088289999999
 21
246.830846
 31
0.0
  0
LINE
  5
CA5D
330
C86C
100
AcDbEntity
  8
1
  6
Continuous
100
AcDbLine
 10
368.2088289999999
 20
246.830846
 30
0.0
 11
367.890312
 21
247.138435
 31
0.0
  0
LINE
  5
CA5E
330
C86C
100
AcDbEntity
  8
1
  6
Continuous
100
AcDbLine
 10
367.8073499999999
 20
246.082143
 30
0.0
 11
367.7110349999999
 21
245.8312339999999
 31
0.0
  0
LINE
  5
CA5F
330
C86C
100
AcDbEntity
  8
1
  6
Continuous
100
AcDbLine
 10
367.8073499999999
 20
246.082143
 30
0.0
 11
367.7110349999999
 21
246.3330519999999
 31
0.0
  0
LINE
  5
CA60
330
C86C
100
AcDbEntity
  8
4
  6
CENTER
100
AcDbLine
 10
368.459738
 20
250.082143
 30
0.0
 11
368.459738
 21
242.082143
 31
0.0
  0
LINE
  5
CA70
330
C86C
100
AcDbEntity
  8
1
  6
Continuous
100
AcDbLine
 10
381.3180589999998
 20
307.5821429999998
 30
0.0
 11
381.149508
 21
308.021234
 31
0.0
  0
LINE
  5
CA71
330
C86C
100
AcDbEntity
  8
1
  6
Continuous
100
AcDbLine
 10
377.459738
 20
312.0821429999998
 30
0.0
 11
377.459738
 21
307.6529759999999
 31
0.0
  0
LINE
  5
CA72
330
C86C
100
AcDbEntity
  8
1
  6
Continuous
100
AcDbLine
 10
366.601418
 20
307.5821429999998
 30
0.0
 11
366.769969
 21
308.021234
 31
0.0
  0
LINE
  5
CA73
330
C86C
100
AcDbEntity
  8
1
  6
Continuous
100
AcDbLine
 10
364.318059
 20
307.5821429999998
 30
0.0
 11
364.149508
 21
308.021234
 31
0.0
  0
ARC
  5
CA74
330
C86C
100
AcDbEntity
  8
1
  6
Continuous
100
AcDbCircle
 10
373.959738
 20
310.5821429999998
 30
0.0
 40
3.0
100
AcDbArc
 50
180.0
 51
0.0
  0
CIRCLE
  5
CA75
330
C86C
100
AcDbEntity
  8
1
  6
Continuous
100
AcDbCircle
 10
365.459738
 20
307.5821429999998
 30
0.0
 40
3.5
  0
CIRCLE
  5
CA76
330
C86C
100
AcDbEntity
  8
1
  6
Continuous
100
AcDbCircle
 10
365.459738
 20
307.5821429999998
 30
0.0
 40
5.0
  0
CIRCLE
  5
CA77
330
C86C
100
AcDbEntity
  8
1
  6
Continuous
100
AcDbCircle
 10
365.459738
 20
307.5821429999998
 30
0.0
 40
3.799999999999998
  0
LINE
  5
CA78
330
C86C
100
AcDbEntity
  8
4
  6
CENTER
100
AcDbLine
 10
330.459738
 20
310.5821429999998
 30
0.0
 11
330.459738
 21
304.5821429999998
 31
0.0
  0
LINE
  5
CA79
330
C86C
100
AcDbEntity
  8
1
  6
Continuous
100
AcDbLine
 10
325.459738
 20
302.5821429999998
 30
0.0
 11
325.459738
 21
312.5821429999998
 31
0.0
  0
CIRCLE
  5
CA7A
330
C86C
100
AcDbEntity
  8
1
  6
Continuous
100
AcDbCircle
 10
330.459738
 20
307.5821429999998
 30
0.0
 40
1.5
  0
LINE
  5
CA7B
330
C86C
100
AcDbEntity
  8
4
  6
CENTER
100
AcDbLine
 10
382.459738
 20
312.5821429999998
 30
0.0
 11
382.459738
 21
301.082143
 31
0.0
  0
LINE
  5
CA7C
330
C86C
100
AcDbEntity
  8
4
  6
CENTER
100
AcDbLine
 10
365.459738
 20
314.0821429999998
 30
0.0
 11
365.459738
 21
301.082143
 31
0.0
  0
ARC
  5
CA7D
330
C86C
100
AcDbEntity
  8
1
  6
Continuous
100
AcDbCircle
 10
373.959738
 20
310.5821429999998
 30
0.0
 40
4.0
100
AcDbArc
 50
199.440035
 51
291.288043
  0
LINE
  5
CA7E
330
C86C
100
AcDbEntity
  8
4
  6
CENTER
100
AcDbLine
 10
327.459738
 20
307.5821429999998
 30
0.0
 11
334.1019279999998
 21
307.5821429999998
 31
0.0
  0
ARC
  5
CA7F
330
C86C
100
AcDbEntity
  8
1
  6
Continuous
100
AcDbCircle
 10
330.459738
 20
302.5821429999998
 30
0.0
 40
5.0
100
AcDbArc
 50
180.0
 51
270.0
  0
ARC
  5
CA80
330
C86C
100
AcDbEntity
  8
1
  6
Continuous
100
AcDbCircle
 10
376.1426
 20
284.841425
 30
0.0
 40
1.225184
100
AcDbArc
 50
70.80719999999998
 51
138.9319999999997
  0
LINE
  5
CA81
330
C86C
100
AcDbEntity
  8
1
  6
Continuous
100
AcDbLine
 10
378.2067599999999
 20
286.2104569999999
 30
0.0
 11
378.2067599999999
 21
282.8481529999999
 31
0.0
  0
LINE
  5
CA82
330
C86C
100
AcDbEntity
  8
1
  6
Continuous
100
AcDbLine
 10
374.333705
 20
286.1848679999998
 30
0.0
 11
374.333705
 21
282.8225639999999
 31
0.0
  0
LINE
  5
CA83
330
C86C
100
AcDbEntity
  8
1
  6
Continuous
100
AcDbLine
 10
381.7298839999999
 20
286.1271119999999
 30
0.0
 11
380.460364
 21
282.85748
 31
0.0
  0
LINE
  5
CA84
330
C86C
100
AcDbEntity
  8
1
  6
Continuous
100
AcDbLine
 10
381.7298839999999
 20
286.1328639999998
 30
0.0
 11
382.941564
 21
282.8574719999998
 31
0.0
  0
LINE
  5
CA85
330
C86C
100
AcDbEntity
  8
1
  6
Continuous
100
AcDbLine
 10
379.744444
 20
284.353136
 30
0.0
 11
380.830204
 21
286.233696
 31
0.0
  0
ARC
  5
CA86
330
C86C
100
AcDbEntity
  8
1
  6
Continuous
100
AcDbCircle
 10
376.2754799999996
 20
285.223113
 30
0.0
 40
0.8210319999999999
100
AcDbArc
 50
5.659239999999998
 51
70.80719999999998
  0
LINE
  5
CA87
330
C86C
100
AcDbEntity
  8
1
  6
Continuous
100
AcDbLine
 10
379.744444
 20
284.3589119999998
 30
0.0
 11
378.666524
 21
286.2316799999998
 31
0.0
  0
ARC
  5
CA88
330
C86C
100
AcDbEntity
  8
1
  6
Continuous
100
AcDbCircle
 10
370.856859
 20
284.8963409999999
 30
0.0
 40
1.225184
100
AcDbArc
 50
70.80719999999998
 51
138.9319999999997
  0
ARC
  5
CA89
330
C86C
100
AcDbEntity
  8
1
  6
Continuous
100
AcDbCircle
 10
367.799059
 20
284.879381
 30
0.0
 40
1.225184
100
AcDbArc
 50
41.0679
 51
138.9319999999997
  0
LINE
  5
CA8A
330
C86C
100
AcDbEntity
  8
1
  6
Continuous
100
AcDbLine
 10
373.7014449999999
 20
286.2148179999998
 30
0.0
 11
373.7014449999999
 21
282.8525139999998
 31
0.0
  0
LINE
  5
CA8B
330
C86C
100
AcDbEntity
  8
1
  6
Continuous
100
AcDbLine
 10
372.1261399999999
 20
286.2083529999998
 30
0.0
 11
372.1261399999999
 21
282.8460489999999
 31
0.0
  0
LINE
  5
CA8C
330
C86C
100
AcDbEntity
  8
1
  6
Continuous
100
AcDbLine
 10
365.864482
 20
286.066843
 30
0.0
 11
365.864482
 21
282.866843
 31
0.0
  0
ARC
  5
CA8D
330
C86C
100
AcDbEntity
  8
1
  6
Continuous
100
AcDbCircle
 10
370.989739
 20
285.278029
 30
0.0
 40
0.8210319999999999
100
AcDbArc
 50
5.659239999999998
 51
70.80719999999998
  0
ARC
  5
CA8E
330
C86C
100
AcDbEntity
  8
1
  6
Continuous
100
AcDbCircle
 10
367.799059
 20
284.244949
 30
0.0
 40
1.225184
100
AcDbArc
 50
221.0679999999999
 51
318.932
  0
LINE
  5
CA8F
330
C86C
100
AcDbEntity
  8
1
  6
Continuous
100
AcDbLine
 10
366.160793
 20
281.005754
 30
0.0
 11
366.160793
 21
277.8057539999999
 31
0.0
  0
LINE
  5
CA90
330
C86C
100
AcDbEntity
  8
1
  6
Continuous
100
AcDbLine
 10
364.906385
 20
281.005754
 30
0.0
 11
367.426345
 21
281.005754
 31
0.0
  0
ARC
  5
CA91
330
C86C
100
AcDbEntity
  8
1
  6
Continuous
100
AcDbCircle
 10
368.1630989999999
 20
284.562165
 30
0.0
 40
1.708047999999998
100
AcDbArc
 50
138.9319999999997
 51
221.0679999999999
  0
ARC
  5
CA92
330
C86C
100
AcDbEntity
  8
1
  6
Continuous
100
AcDbCircle
 10
382.5747279999998
 20
280.04194
 30
0.0
 40
1.000599999999999
100
AcDbArc
 50
47.1304
 51
132.8699999999996
  0
LINE
  5
CA93
330
C86C
100
AcDbEntity
  8
1
  6
Continuous
100
AcDbLine
 10
381.6250079999999
 20
277.8425399999998
 30
0.0
 11
383.2978319999999
 21
279.5915319999999
 31
0.0
  0
LINE
  5
CA94
330
C86C
100
AcDbEntity
  8
1
  6
Continuous
100
AcDbLine
 10
381.6250079999999
 20
277.8425399999998
 30
0.0
 11
383.524448
 21
277.8425399999998
 31
0.0
  0
ARC
  5
CA95
330
C86C
100
AcDbEntity
  8
1
  6
Continuous
100
AcDbCircle
 10
382.6866799999999
 20
280.1625399999999
 30
0.0
 40
0.8360479999999999
100
AcDbArc
 50
312.87
 51
47.1304
  0
ARC
  5
CA96
330
C86C
100
AcDbEntity
  8
1
  6
Continuous
100
AcDbCircle
 10
382.4627759999998
 20
280.1625399999999
 30
0.0
 40
0.8360479999999999
100
AcDbArc
 50
132.8699999999996
 51
204.2769999999999
  0
LINE
  5
CA97
330
C86C
100
AcDbEntity
  8
1
  6
Continuous
100
AcDbLine
 10
379.744444
 20
284.3531439999998
 30
0.0
 11
379.744444
 21
282.84596
 31
0.0
  0
ARC
  5
CA98
330
C86C
100
AcDbEntity
  8
1
  6
Continuous
100
AcDbCircle
 10
379.396023
 20
280.1030959999998
 30
0.0
 40
0.9267839999999999
100
AcDbArc
 50
44.0725
 51
135.928
  0
LINE
  5
CA99
330
C86C
100
AcDbEntity
  8
1
  6
Continuous
100
AcDbLine
 10
377.27924
 20
283.890081
 30
0.0
 11
377.27924
 21
282.871313
 31
0.0
  0
LINE
  5
CA9A
330
C86C
100
AcDbEntity
  8
1
  6
Continuous
100
AcDbLine
 10
374.3441789999998
 20
280.977048
 30
0.0
 11
376.009859
 21
280.977048
 31
0.0
  0
ARC
  5
CA9B
330
C86C
100
AcDbEntity
  8
1
  6
Continuous
100
AcDbCircle
 10
376.1426
 20
284.2069849999998
 30
0.0
 40
1.225184
100
AcDbArc
 50
221.0679999999999
 51
276.591
  0
LINE
  5
CA9C
330
C86C
100
AcDbEntity
  8
1
  6
Continuous
100
AcDbLine
 10
376.1546
 20
284.3670009999996
 30
0.0
 11
377.27924
 21
284.3670009999996
 31
0.0
  0
ARC
  5
CA9D
330
C86C
100
AcDbEntity
  8
1
  6
Continuous
100
AcDbCircle
 10
376.151
 20
284.134289
 30
0.0
 40
1.151999999999999
100
AcDbArc
 50
269.5819999999998
 51
11.6541
  0
ARC
  5
CA9E
330
C86C
100
AcDbEntity
  8
1
  6
Continuous
100
AcDbCircle
 10
379.396023
 20
278.7569839999998
 30
0.0
 40
0.9267839999999999
100
AcDbArc
 50
224.072
 51
315.927
  0
LINE
  5
CA9F
330
C86C
100
AcDbEntity
  8
1
  6
Continuous
100
AcDbLine
 10
378.4480229999999
 20
280.0506799999999
 30
0.0
 11
378.4480229999999
 21
278.8094
 31
0.0
  0
ARC
  5
CAA0
330
C86C
100
AcDbEntity
  8
1
  6
Continuous
100
AcDbCircle
 10
379.4501829999999
 20
278.8094
 30
0.0
 40
1.002143999999999
100
AcDbArc
 50
180.0
 51
224.072
  0
LINE
  5
CAA1
330
C86C
100
AcDbEntity
  8
1
  6
Continuous
100
AcDbLine
 10
380.3440229999998
 20
280.0506799999999
 30
0.0
 11
380.3440229999998
 21
278.8094
 31
0.0
  0
ARC
  5
CAA2
330
C86C
100
AcDbEntity
  8
1
  6
Continuous
100
AcDbCircle
 10
379.341863
 20
278.8094
 30
0.0
 40
1.002143999999999
100
AcDbArc
 50
315.927
 51
0.0
  0
ARC
  5
CAA3
330
C86C
100
AcDbEntity
  8
1
  6
Continuous
100
AcDbCircle
 10
375.183539
 20
279.0191279999999
 30
0.0
 40
0.7530210000000001
100
AcDbArc
 50
40.0559
 51
90.10099999999999
  0
ARC
  5
CAA4
330
C86C
100
AcDbEntity
  8
1
  6
Continuous
100
AcDbCircle
 10
375.182179
 20
278.5576879999999
 30
0.0
 40
1.215543999999997
100
AcDbArc
 50
90.0
 51
121.845
  0
ARC
  5
CAA5
330
C86C
100
AcDbEntity
  8
1
  6
Continuous
100
AcDbCircle
 10
375.482979
 20
278.767288
 30
0.0
 40
1.144263999999999
100
AcDbArc
 50
189.307
 51
220.0559999999999
  0
ARC
  5
CAA6
330
C86C
100
AcDbEntity
  8
1
  6
Continuous
100
AcDbCircle
 10
375.183539
 20
278.5155279999999
 30
0.0
 40
0.7530210000000001
100
AcDbArc
 50
220.0559999999999
 51
319.944
  0
ARC
  5
CAA7
330
C86C
100
AcDbEntity
  8
1
  6
Continuous
100
AcDbCircle
 10
374.8840189999999
 20
278.767288
 30
0.0
 40
1.144263999999999
100
AcDbArc
 50
319.944
 51
40.0559
  0
ARC
  5
CAA8
330
C86C
100
AcDbEntity
  8
1
  6
Continuous
100
AcDbCircle
 10
374.745219
 20
279.261208
 30
0.0
 40
0.387335
100
AcDbArc
 50
121.845
 51
180.0
  0
LINE
  5
CAA9
330
C86C
100
AcDbEntity
  8
1
  6
Continuous
100
AcDbLine
 10
376.259704
 20
278.527933
 30
0.0
 11
378.3413039999999
 21
278.527933
 31
0.0
  0
LINE
  5
CAAA
330
C86C
100
AcDbEntity
  8
1
  6
Continuous
100
AcDbLine
 10
378.017464
 20
280.9944009999999
 30
0.0
 11
378.017464
 21
277.794401
 31
0.0
  0
LINE
  5
CAAB
330
C86C
100
AcDbEntity
  8
1
  6
Continuous
100
AcDbLine
 10
378.017464
 20
280.9944009999999
 30
0.0
 11
376.259704
 21
278.527933
 31
0.0
  0
LINE
  5
CAAC
330
C86C
100
AcDbEntity
  8
1
  6
Continuous
100
AcDbLine
 10
374.3567389999999
 20
280.977048
 30
0.0
 11
374.3567389999999
 21
279.261208
 31
0.0
  0
ARC
  5
CAAD
330
C86C
100
AcDbEntity
  8
1
  6
Continuous
100
AcDbCircle
 10
379.4501829999999
 20
280.0506799999999
 30
0.0
 40
1.002143999999999
100
AcDbArc
 50
135.928
 51
180.0
  0
ARC
  5
CAAE
330
C86C
100
AcDbEntity
  8
1
  6
Continuous
100
AcDbCircle
 10
379.341863
 20
280.0506799999999
 30
0.0
 40
1.002143999999999
100
AcDbArc
 50
0.0
 51
44.0725
  0
LINE
  5
CAAF
330
C86C
100
AcDbEntity
  8
1
  6
Continuous
100
AcDbLine
 10
380.6812009999999
 20
279.4403799999999
 30
0.0
 11
381.6836809999998
 21
279.4403799999999
 31
0.0
  0
LINE
  5
CAB0
330
C86C
100
AcDbEntity
  8
1
  6
Continuous
100
AcDbLine
 10
380.843004
 20
283.819768
 30
0.0
 11
382.5878839999999
 21
283.819768
 31
0.0
  0
ARC
  5
CAB1
330
C86C
100
AcDbEntity
  8
1
  6
Continuous
100
AcDbCircle
 10
376.5066
 20
284.5242089999998
 30
0.0
 40
1.708047999999998
100
AcDbArc
 50
138.9319999999997
 51
221.0679999999999
  0
ARC
  5
CAB2
330
C86C
100
AcDbEntity
  8
1
  6
Continuous
100
AcDbCircle
 10
370.989739
 20
283.880221
 30
0.0
 40
0.8210319999999999
100
AcDbArc
 50
289.1929999999998
 51
354.341
  0
ARC
  5
CAB3
330
C86C
100
AcDbEntity
  8
1
  6
Continuous
100
AcDbCircle
 10
370.856859
 20
284.2619089999999
 30
0.0
 40
1.225184
100
AcDbArc
 50
221.0679999999999
 51
289.1929999999998
  0
LINE
  5
CAB4
330
C86C
100
AcDbEntity
  8
1
  6
Continuous
100
AcDbLine
 10
372.1261399999999
 20
284.527201
 30
0.0
 11
373.7014449999999
 21
284.527201
 31
0.0
  0
LINE
  5
CAB5
330
C86C
100
AcDbEntity
  8
1
  6
Continuous
100
AcDbLine
 10
372.4597269999999
 20
279.377048
 30
0.0
 11
373.4622069999999
 21
279.377048
 31
0.0
  0
LINE
  5
CAB6
330
C86C
100
AcDbEntity
  8
1
  6
Continuous
100
AcDbLine
 10
370.4040439999998
 20
278.763187
 30
0.0
 11
372.089644
 21
278.763187
 31
0.0
  0
LINE
  5
CAB7
330
C86C
100
AcDbEntity
  8
1
  6
Continuous
100
AcDbLine
 10
367.6584759999999
 20
279.3948669999999
 30
0.0
 11
369.363244
 21
279.3948669999999
 31
0.0
  0
LINE
  5
CAB8
330
C86C
100
AcDbEntity
  8
1
  6
Continuous
100
AcDbLine
 10
371.260844
 20
280.997675
 30
0.0
 11
372.444604
 21
277.797667
 31
0.0
  0
LINE
  5
CAB9
330
C86C
100
AcDbEntity
  8
1
  6
Continuous
100
AcDbLine
 10
367.6584759999999
 20
281.0187949999999
 30
0.0
 11
367.6584759999999
 21
277.818787
 31
0.0
  0
LINE
  5
CABA
330
C86C
100
AcDbEntity
  8
1
  6
Continuous
100
AcDbLine
 10
369.363244
 20
281.0187949999999
 30
0.0
 11
369.363244
 21
277.818787
 31
0.0
  0
LINE
  5
CABB
330
C86C
100
AcDbEntity
  8
1
  6
Continuous
100
AcDbLine
 10
371.260844
 20
280.9920509999999
 30
0.0
 11
370.0203639999998
 21
277.797667
 31
0.0
  0
ARC
  5
CABC
330
C86C
100
AcDbEntity
  8
1
  6
Continuous
100
AcDbCircle
 10
371.2209389999999
 20
284.5791249999998
 30
0.0
 40
1.708047999999998
100
AcDbArc
 50
138.9319999999997
 51
221.0679999999999
  0
ARC
  5
CABD
330
C86C
100
AcDbEntity
  8
1
  6
Continuous
100
AcDbCircle
 10
367.4350109999999
 20
284.562165
 30
0.0
 40
1.708047999999998
100
AcDbArc
 50
318.932
 51
41.0679
  0
LINE
  5
CABE
330
C86C
100
AcDbEntity
  8
1
  6
Continuous
100
AcDbLine
 10
366.601418
 20
307.5821429999998
 30
0.0
 11
366.769969
 21
307.143052
 31
0.0
  0
LINE
  5
CABF
330
C86C
100
AcDbEntity
  8
1
  6
Continuous
100
AcDbLine
 10
364.318059
 20
307.5821429999998
 30
0.0
 11
364.149508
 21
307.143052
 31
0.0
  0
ARC
  5
CAC0
330
C86C
100
AcDbEntity
  8
1
  6
Continuous
100
AcDbCircle
 10
365.459738
 20
307.5821429999998
 30
0.0
 40
2.1
100
AcDbArc
 50
298.3282509999999
 51
331.6717489999998
  0
ARC
  5
CAC1
330
C86C
100
AcDbEntity
  8
1
  6
Continuous
100
AcDbCircle
 10
365.459738
 20
307.5821429999998
 30
0.0
 40
2.1
100
AcDbArc
 50
208.328251
 51
241.6717489999999
  0
LINE
  5
CAC2
330
C86C
100
AcDbEntity
  8
1
  6
Continuous
100
AcDbLine
 10
365.020647
 20
306.271912
 30
0.0
 11
364.4632419999999
 21
305.733632
 31
0.0
  0
LINE
  5
CAC3
330
C86C
100
AcDbEntity
  8
1
  6
Continuous
100
AcDbLine
 10
365.459738
 20
306.440464
 30
0.0
 11
365.020647
 21
306.271912
 31
0.0
  0
LINE
  5
CAC4
330
C86C
100
AcDbEntity
  8
1
  6
Continuous
100
AcDbLine
 10
365.459738
 20
306.440464
 30
0.0
 11
365.8988289999999
 21
306.271912
 31
0.0
  0
LINE
  5
CAC5
330
C86C
100
AcDbEntity
  8
1
  6
Continuous
100
AcDbLine
 10
365.8988289999999
 20
306.271912
 30
0.0
 11
366.456235
 21
305.733632
 31
0.0
  0
LINE
  5
CAC6
330
C86C
100
AcDbEntity
  8
1
  6
Continuous
100
AcDbLine
 10
364.937411
 20
286.066843
 30
0.0
 11
366.9245619999998
 21
286.066843
 31
0.0
  0
LINE
  5
CAC7
330
C86C
100
AcDbEntity
  8
1
  6
Continuous
100
AcDbLine
 10
364.149508
 20
307.143052
 30
0.0
 11
363.6112269999999
 21
306.585646
 31
0.0
  0
LINE
  5
CAC8
330
C86C
100
AcDbEntity
  8
1
  6
Continuous
100
AcDbLine
 10
366.769969
 20
307.143052
 30
0.0
 11
367.30825
 21
306.585646
 31
0.0
  0
LINE
  5
CAC9
330
C86C
100
AcDbEntity
  8
1
  6
Continuous
100
AcDbLine
 10
381.3180589999998
 20
307.5821429999998
 30
0.0
 11
381.149508
 21
307.143052
 31
0.0
  0
LINE
  5
CACA
330
C86C
100
AcDbEntity
  8
1
  6
Continuous
100
AcDbLine
 10
375.411965
 20
306.8550749999999
 30
0.0
 11
377.4602429999998
 21
307.6531729999998
 31
0.0
  0
LINE
  5
CACB
330
C86C
100
AcDbEntity
  8
1
  6
Continuous
100
AcDbLine
 10
382.020647
 20
306.271912
 30
0.0
 11
381.4632419999999
 21
305.733632
 31
0.0
  0
LINE
  5
CACC
330
C86C
100
AcDbEntity
  8
1
  6
Continuous
100
AcDbLine
 10
382.459738
 20
306.440464
 30
0.0
 11
382.020647
 21
306.271912
 31
0.0
  0
LINE
  5
CACD
330
C86C
100
AcDbEntity
  8
1
  6
Continuous
100
AcDbLine
 10
382.459738
 20
306.440464
 30
0.0
 11
382.8988289999998
 21
306.271912
 31
0.0
  0
LINE
  5
CACE
330
C86C
100
AcDbEntity
  8
1
  6
Continuous
100
AcDbLine
 10
382.8988289999998
 20
306.271912
 30
0.0
 11
383.456235
 21
305.733632
 31
0.0
  0
ARC
  5
CACF
330
C86C
100
AcDbEntity
  8
1
  6
Continuous
100
AcDbCircle
 10
382.459738
 20
307.5821429999998
 30
0.0
 40
2.1
100
AcDbArc
 50
208.328251
 51
241.6717489999999
  0
ARC
  5
CAD0
330
C86C
100
AcDbEntity
  8
1
  6
Continuous
100
AcDbCircle
 10
375.0717209999999
 20
292.018722
 30
0.0
 40
0.277826
100
AcDbArc
 50
0.0
 51
79.896
  0
LINE
  5
CAD1
330
C86C
100
AcDbEntity
  8
1
  6
Continuous
100
AcDbLine
 10
375.349152
 20
291.1176329999999
 30
0.0
 11
375.349152
 21
292.018722
 31
0.0
  0
ARC
  5
CAD2
330
C86C
100
AcDbEntity
  8
1
  6
Continuous
100
AcDbCircle
 10
374.84955
 20
292.279237
 30
0.0
 40
0.055565
100
AcDbArc
 50
82.20699999999999
 51
180.0
  0
ARC
  5
CAD3
330
C86C
100
AcDbEntity
  8
1
  6
Continuous
100
AcDbCircle
 10
373.959738
 20
285.7844019999999
 30
0.0
 40
6.610656999999998
100
AcDbArc
 50
79.896
 51
82.20699999999999
  0
ARC
  5
CAD4
330
C86C
100
AcDbEntity
  8
1
  6
Continuous
100
AcDbCircle
 10
377.29343
 20
290.4511199999999
 30
0.0
 40
1.431648999999999
100
AcDbArc
 50
305.5379999999999
 51
315.699
  0
LINE
  5
CAD5
330
C86C
100
AcDbEntity
  8
1
  6
Continuous
100
AcDbLine
 10
375.349152
 20
288.8823899999998
 30
0.0
 11
375.349152
 21
290.4511199999999
 31
0.0
  0
LINE
  5
CAD6
330
C86C
100
AcDbEntity
  8
1
  6
Continuous
100
AcDbLine
 10
376.737439
 20
290.4511199999999
 30
0.0
 11
376.737439
 21
289.1180939999998
 31
0.0
  0
ARC
  5
CAD7
330
C86C
100
AcDbEntity
  8
1
  6
Continuous
100
AcDbCircle
 10
375.0717209999999
 20
288.8823899999998
 30
0.0
 40
0.277826
100
AcDbArc
 50
280.104
 51
0.0
  0
ARC
  5
CAD8
330
C86C
100
AcDbEntity
  8
1
  6
Continuous
100
AcDbCircle
 10
374.84955
 20
288.6218749999999
 30
0.0
 40
0.055565
100
AcDbArc
 50
180.0
 51
277.793
  0
ARC
  5
CAD9
330
C86C
100
AcDbEntity
  8
1
  6
Continuous
100
AcDbCircle
 10
373.959738
 20
295.11671
 30
0.0
 40
6.610656999999998
100
AcDbArc
 50
277.793
 51
280.104
  0
ARC
  5
CADA
330
C86C
100
AcDbEntity
  8
1
  6
Continuous
100
AcDbCircle
 10
376.737439
 20
290.7285519999998
 30
0.0
 40
0.277826
100
AcDbArc
 50
180.0
 51
0.0
  0
LINE
  5
CADB
330
C86C
100
AcDbEntity
  8
1
  6
Continuous
100
AcDbLine
 10
375.349152
 20
290.4511199999999
 30
0.0
 11
375.0717209999999
 21
290.4511199999999
 31
0.0
  0
LINE
  5
CADC
330
C86C
100
AcDbEntity
  8
1
  6
Continuous
100
AcDbLine
 10
378.724572
 20
290.4511199999999
 30
0.0
 11
377.5765
 21
290.4511199999999
 31
0.0
  0
LINE
  5
CADD
330
C86C
100
AcDbEntity
  8
1
  6
Continuous
100
AcDbLine
 10
375.904016
 20
292.2769819999998
 30
0.0
 11
375.904016
 21
288.7989349999998
 31
0.0
  0
LINE
  5
CADE
330
C86C
100
AcDbEntity
  8
1
  6
Continuous
100
AcDbLine
 10
374.793161
 20
292.279237
 30
0.0
 11
374.793161
 21
288.6218749999999
 31
0.0
  0
LINE
  5
CADF
330
C86C
100
AcDbEntity
  8
1
  6
Continuous
100
AcDbLine
 10
374.2382979999999
 20
292.3886309999998
 30
0.0
 11
374.2382979999999
 21
288.5124809999998
 31
0.0
  0
ARC
  5
CAE0
330
C86C
100
AcDbEntity
  8
1
  6
Continuous
100
AcDbCircle
 10
377.29343
 20
290.4511199999999
 30
0.0
 40
1.431648999999999
100
AcDbArc
 50
332.25
 51
54.46200000000001
  0
LINE
  5
CAE1
330
C86C
100
AcDbEntity
  8
1
  6
Continuous
100
AcDbLine
 10
377.297941
 20
289.4113149999999
 30
0.0
 11
377.9261099999998
 21
291.752568
 31
0.0
  0
LINE
  5
CAE2
330
C86C
100
AcDbEntity
  8
1
  6
Continuous
100
AcDbLine
 10
377.015998
 20
290.7285519999998
 30
0.0
 11
377.015998
 21
291.9149669999999
 31
0.0
  0
LINE
  5
CAE3
330
C86C
100
AcDbEntity
  8
1
  6
Continuous
100
AcDbLine
 10
376.4600069999998
 20
292.0153389999999
 30
0.0
 11
376.4600069999998
 21
290.7285519999998
 31
0.0
  0
ARC
  5
CAE4
330
C86C
100
AcDbEntity
  8
1
  6
Continuous
100
AcDbCircle
 10
372.29402
 20
291.8935389999998
 30
0.0
 40
0.277826
100
AcDbArc
 50
105.2575
 51
180.0
  0
ARC
  5
CAE5
330
C86C
100
AcDbEntity
  8
1
  6
Continuous
100
AcDbCircle
 10
373.959738
 20
285.7844019999999
 30
0.0
 40
6.610656999999998
100
AcDbArc
 50
103.2680999999999
 51
105.2575
  0
ARC
  5
CAE6
330
C86C
100
AcDbEntity
  8
1
  6
Continuous
100
AcDbCircle
 10
373.959738
 20
285.7844019999999
 30
0.0
 40
6.610656999999998
100
AcDbArc
 50
102.7288999999999
 51
103.2680999999999
  0
ARC
  5
CAE7
330
C86C
100
AcDbEntity
  8
1
  6
Continuous
100
AcDbCircle
 10
372.516191
 20
292.1777379999998
 30
0.0
 40
0.055565
100
AcDbArc
 50
0.0
 51
102.7288999999999
  0
ARC
  5
CAE8
330
C86C
100
AcDbEntity
  8
1
  6
Continuous
100
AcDbCircle
 10
371.4053359999998
 20
291.821362
 30
0.0
 40
0.055565
100
AcDbArc
 50
0.0
 51
112.9439999999999
  0
LINE
  5
CAE9
330
C86C
100
AcDbEntity
  8
1
  6
Continuous
100
AcDbLine
 10
372.571452
 20
291.1176329999999
 30
0.0
 11
372.571452
 21
292.1777379999998
 31
0.0
  0
ARC
  5
CAEA
330
C86C
100
AcDbEntity
  8
1
  6
Continuous
100
AcDbCircle
 10
371.1831649999999
 20
291.4751359999996
 30
0.0
 40
0.277826
100
AcDbArc
 50
116.0144
 51
180.0
  0
ARC
  5
CAEB
330
C86C
100
AcDbEntity
  8
1
  6
Continuous
100
AcDbCircle
 10
373.959738
 20
285.7844019999999
 30
0.0
 40
6.610656999999998
100
AcDbArc
 50
112.9439999999999
 51
116.0144
  0
ARC
  5
CAEC
330
C86C
100
AcDbEntity
  8
1
  6
Continuous
100
AcDbCircle
 10
370.627174
 20
290.4511199999999
 30
0.0
 40
1.431648999999999
100
AcDbArc
 50
125.5376999999999
 51
166.5373999999999
  0
LINE
  5
CAED
330
C86C
100
AcDbEntity
  8
1
  6
Continuous
100
AcDbLine
 10
372.571452
 20
288.7233739999998
 30
0.0
 11
372.571452
 21
289.7846069999999
 31
0.0
  0
ARC
  5
CAEE
330
C86C
100
AcDbEntity
  8
1
  6
Continuous
100
AcDbCircle
 10
371.4053359999998
 20
289.080878
 30
0.0
 40
0.055565
100
AcDbArc
 50
247.0559999999999
 51
0.0
  0
ARC
  5
CAEF
330
C86C
100
AcDbEntity
  8
1
  6
Continuous
100
AcDbCircle
 10
372.516191
 20
288.7233739999998
 30
0.0
 40
0.055565
100
AcDbArc
 50
257.2709999999996
 51
0.0
  0
ARC
  5
CAF0
330
C86C
100
AcDbEntity
  8
1
  6
Continuous
100
AcDbCircle
 10
373.959738
 20
295.11671
 30
0.0
 40
6.610656999999998
100
AcDbArc
 50
254.794
 51
257.2709999999996
  0
ARC
  5
CAF1
330
C86C
100
AcDbEntity
  8
1
  6
Continuous
100
AcDbCircle
 10
373.959738
 20
295.11671
 30
0.0
 40
6.610656999999998
100
AcDbArc
 50
254.742
 51
254.794
  0
ARC
  5
CAF2
330
C86C
100
AcDbEntity
  8
1
  6
Continuous
100
AcDbCircle
 10
372.29402
 20
289.0075729999998
 30
0.0
 40
0.277826
100
AcDbArc
 50
180.0
 51
254.742
  0
LINE
  5
CAF3
330
C86C
100
AcDbEntity
  8
1
  6
Continuous
100
AcDbLine
 10
373.6823059999999
 20
290.4511199999999
 30
0.0
 11
373.127443
 21
290.4511199999999
 31
0.0
  0
ARC
  5
CAF4
330
C86C
100
AcDbEntity
  8
1
  6
Continuous
100
AcDbCircle
 10
371.1831649999999
 20
289.425976
 30
0.0
 40
0.277826
100
AcDbArc
 50
180.0
 51
243.9859999999999
  0
ARC
  5
CAF5
330
C86C
100
AcDbEntity
  8
1
  6
Continuous
100
AcDbCircle
 10
373.959738
 20
295.11671
 30
0.0
 40
6.610656999999998
100
AcDbArc
 50
243.9859999999999
 51
247.0559999999999
  0
ARC
  5
CAF6
330
C86C
100
AcDbEntity
  8
1
  6
Continuous
100
AcDbCircle
 10
370.627174
 20
290.4511199999999
 30
0.0
 40
1.431648999999999
100
AcDbArc
 50
180.0
 51
234.4619999999999
  0
LINE
  5
CAF7
330
C86C
100
AcDbEntity
  8
1
  6
Continuous
100
AcDbLine
 10
372.01546
 20
291.8935389999998
 30
0.0
 11
372.01546
 21
289.0075729999998
 31
0.0
  0
LINE
  5
CAF8
330
C86C
100
AcDbEntity
  8
1
  6
Continuous
100
AcDbLine
 10
371.460597
 20
291.821362
 30
0.0
 11
371.460597
 21
289.080878
 31
0.0
  0
LINE
  5
CAF9
330
C86C
100
AcDbEntity
  8
1
  6
Continuous
100
AcDbLine
 10
373.6823059999999
 20
292.3886309999998
 30
0.0
 11
373.6823059999999
 21
288.5124809999998
 31
0.0
  0
LINE
  5
CAFA
330
C86C
100
AcDbEntity
  8
1
  6
Continuous
100
AcDbLine
 10
373.127443
 20
292.342392
 30
0.0
 11
373.127443
 21
288.5587199999998
 31
0.0
  0
LINE
  5
CAFB
330
C86C
100
AcDbEntity
  8
1
  6
Continuous
100
AcDbLine
 10
370.9046059999999
 20
289.425976
 30
0.0
 11
370.9046059999999
 21
291.4751359999996
 31
0.0
  0
LINE
  5
CAFC
330
C86C
100
AcDbEntity
  8
1
  6
Continuous
100
AcDbLine
 10
370.349742
 20
291.9747389999999
 30
0.0
 11
370.349742
 21
289.5793529999999
 31
0.0
  0
ARC
  5
CAFD
330
C86C
100
AcDbEntity
  8
1
  6
Continuous
100
AcDbCircle
 10
373.959738
 20
285.7844019999999
 30
0.0
 40
7.166163
100
AcDbArc
 50
54.46200000000001
 51
125.5376999999999
  0
ARC
  5
CAFE
330
C86C
100
AcDbEntity
  8
1
  6
Continuous
100
AcDbCircle
 10
373.959738
 20
295.11671
 30
0.0
 40
7.166163
100
AcDbArc
 50
234.4619999999999
 51
305.5379999999999
  0
LINE
  5
CAFF
330
C86C
100
AcDbEntity
  8
1
  6
Continuous
100
AcDbLine
 10
381.149508
 20
307.143052
 30
0.0
 11
380.6112269999999
 21
306.585646
 31
0.0
  0
LINE
  5
CB00
330
C86C
100
AcDbEntity
  8
5
  6
PHANTOM
100
AcDbLine
 10
347.7820679999999
 20
339.401948
 30
0.0
 11
358.3886699999998
 21
328.795347
 31
0.0
  0
ARC
  5
CB01
330
C86C
100
AcDbEntity
  8
1
  6
Continuous
100
AcDbCircle
 10
355.459738
 20
327.5821429999998
 30
0.0
 40
5.0
100
AcDbArc
 50
90.0
 51
180.0
  0
ARC
  5
CB02
330
C86C
100
AcDbEntity
  8
5
  6
PHANTOM
100
AcDbCircle
 10
337.1754659999998
 20
328.795347
 30
0.0
 40
5.0
100
AcDbArc
 50
135.0
 51
225.0
  0
LINE
  5
CB03
330
C86C
100
AcDbEntity
  8
4
  6
CENTER
100
AcDbLine
 10
338.5896799999998
 20
334.4522009999999
 30
0.0
 11
343.2864180000001
 21
329.7554629999999
 31
0.0
  0
LINE
  5
CB04
330
C86C
100
AcDbEntity
  8
1
  6
Continuous
100
AcDbLine
 10
330.459738
 20
317.5821429999998
 30
0.0
 11
345.459738
 21
317.5821429999998
 31
0.0
  0
ARC
  5
CB05
330
C86C
100
AcDbEntity
  8
1
  6
Continuous
100
AcDbCircle
 10
330.459738
 20
312.5821429999998
 30
0.0
 40
5.0
100
AcDbArc
 50
90.0
 51
180.0
  0
LINE
  5
CB06
330
C86C
100
AcDbEntity
  8
1
  6
Continuous
100
AcDbLine
 10
350.459738
 20
322.5821429999998
 30
0.0
 11
350.459738
 21
327.5821429999998
 31
0.0
  0
ARC
  5
CB07
330
C86C
100
AcDbEntity
  8
1
  6
Continuous
100
AcDbCircle
 10
345.459738
 20
322.5821429999998
 30
0.0
 40
5.0
100
AcDbArc
 50
270.0
 51
0.0
  0
LINE
  5
CB08
330
C86C
100
AcDbEntity
  8
5
  6
PHANTOM
100
AcDbLine
 10
333.6399319999998
 20
332.3308809999998
 30
0.0
 11
340.711
 21
339.401948
 31
0.0
  0
LINE
  5
CB09
330
C86C
100
AcDbEntity
  8
4
  6
CENTER
100
AcDbLine
 10
342.8323209999998
 20
334.4522009999999
 30
0.0
 11
338.5896799999998
 21
330.20956
 31
0.0
  0
CIRCLE
  5
CB0A
330
C86C
100
AcDbEntity
  8
5
  6
PHANTOM
100
AcDbCircle
 10
340.711
 20
332.3308809999998
 30
0.0
 40
1.5
  0
ARC
  5
CB0B
330
C86C
100
AcDbEntity
  8
5
  6
PHANTOM
100
AcDbCircle
 10
344.246534
 20
335.866415
 30
0.0
 40
5.0
100
AcDbArc
 50
45.0
 51
135.0
  0
LINE
  5
CB0C
330
C86C
100
AcDbEntity
  8
5
  6
PHANTOM
100
AcDbLine
 10
365.459738
 20
328.795347
 30
0.0
 11
368.9952719999998
 21
332.3308809999998
 31
0.0
  0
ARC
  5
CB0D
330
C86C
100
AcDbEntity
  8
1
  6
Continuous
100
AcDbCircle
 10
365.459738
 20
307.5821429999998
 30
0.0
 40
5.013878
100
AcDbArc
 50
19.440035
 51
67.97444
  0
ARC
  5
CB0E
330
C86C
100
AcDbEntity
  8
1
  6
Continuous
100
AcDbCircle
 10
373.959738
 20
311.1821429999999
 30
0.0
 40
8.4
100
AcDbArc
 50
128.986858
 51
142.450126
  0
ARC
  5
CB0F
330
C86C
100
AcDbEntity
  8
1
  6
Continuous
100
AcDbCircle
 10
370.7630389999998
 20
314.2996569999999
 30
0.0
 40
4.0
100
AcDbArc
 50
97.58847900000004
 51
211.157439
  0
ARC
  5
CB10
330
C86C
100
AcDbEntity
  8
5
  6
PHANTOM
100
AcDbCircle
 10
361.9242039999999
 20
332.3308809999998
 30
0.0
 40
5.0
100
AcDbArc
 50
225.0
 51
315.0
  0
ARC
  5
CB11
330
C86C
100
AcDbEntity
  8
1
  6
Continuous
100
AcDbCircle
 10
365.459738
 20
307.5821429999998
 30
0.0
 40
2.1
100
AcDbArc
 50
28.32825099999999
 51
61.671749
  0
LINE
  5
CB12
330
C86C
100
AcDbEntity
  8
1
  6
Continuous
100
AcDbLine
 10
366.769969
 20
308.021234
 30
0.0
 11
367.30825
 21
308.5786399999999
 31
0.0
  0
ARC
  5
CB13
330
C86C
100
AcDbEntity
  8
1
  6
Continuous
100
AcDbCircle
 10
365.459738
 20
307.5821429999998
 30
0.0
 40
2.1
100
AcDbArc
 50
118.3282509999999
 51
151.671749
  0
LINE
  5
CB14
330
C86C
100
AcDbEntity
  8
1
  6
Continuous
100
AcDbLine
 10
364.149508
 20
308.021234
 30
0.0
 11
363.6112269999999
 21
308.5786399999999
 31
0.0
  0
LINE
  5
CB15
330
C86C
100
AcDbEntity
  8
1
  6
Continuous
100
AcDbLine
 10
365.459738
 20
308.7238219999998
 30
0.0
 11
365.8988289999999
 21
308.892374
 31
0.0
  0
LINE
  5
CB16
330
C86C
100
AcDbEntity
  8
1
  6
Continuous
100
AcDbLine
 10
365.459738
 20
308.7238219999998
 30
0.0
 11
365.020647
 21
308.892374
 31
0.0
  0
LINE
  5
CB17
330
C86C
100
AcDbEntity
  8
1
  6
Continuous
100
AcDbLine
 10
365.020647
 20
308.892374
 30
0.0
 11
364.4632419999999
 21
309.430654
 31
0.0
  0
LINE
  5
CB18
330
C86C
100
AcDbEntity
  8
1
  6
Continuous
100
AcDbLine
 10
365.8988289999999
 20
308.892374
 30
0.0
 11
366.456235
 21
309.430654
 31
0.0
  0
LINE
  5
CB19
330
C86C
100
AcDbEntity
  8
4
  6
CENTER
100
AcDbLine
 10
369.3638729999996
 20
326.5821429999998
 30
0.0
 11
378.6004419999999
 21
326.5821429999998
 31
0.0
  0
LINE
  5
CB1A
330
C86C
100
AcDbEntity
  8
1
  6
Continuous
100
AcDbLine
 10
374.6805539999999
 20
319.602958
 30
0.0
 11
374.6805539999999
 21
318.8569049999998
 31
0.0
  0
LINE
  5
CB1B
330
C86C
100
AcDbEntity
  8
1
  6
Continuous
100
AcDbLine
 10
376.83202
 20
320.0821429999998
 30
0.0
 11
380.815193
 21
320.0821429999998
 31
0.0
  0
LINE
  5
CB1C
330
C86C
100
AcDbEntity
  8
1
  6
Continuous
100
AcDbLine
 10
375.4999409999999
 20
321.5821429999998
 30
0.0
 11
379.4604529999999
 21
321.5821429999998
 31
0.0
  0
ARC
  5
CB1D
330
C86C
100
AcDbEntity
  8
1
  6
Continuous
100
AcDbCircle
 10
377.480554
 20
319.602958
 30
0.0
 40
2.799999999999998
100
AcDbArc
 50
45.0
 51
180.0
  0
LINE
  5
CB1E
330
C86C
100
AcDbEntity
  8
1
  6
Continuous
100
AcDbLine
 10
382.8988289999998
 20
308.892374
 30
0.0
 11
383.456235
 21
309.430654
 31
0.0
  0
LINE
  5
CB1F
330
C86C
100
AcDbEntity
  8
1
  6
Continuous
100
AcDbLine
 10
382.459738
 20
308.7238219999998
 30
0.0
 11
382.8988289999998
 21
308.892374
 31
0.0
  0
LINE
  5
CB20
330
C86C
100
AcDbEntity
  8
1
  6
Continuous
100
AcDbLine
 10
382.459738
 20
308.7238219999998
 30
0.0
 11
382.020647
 21
308.892374
 31
0.0
  0
LINE
  5
CB21
330
C86C
100
AcDbEntity
  8
1
  6
Continuous
100
AcDbLine
 10
382.020647
 20
308.892374
 30
0.0
 11
381.4632419999999
 21
309.430654
 31
0.0
  0
LINE
  5
CB22
330
C86C
100
AcDbEntity
  8
1
  6
Continuous
100
AcDbLine
 10
381.149508
 20
308.021234
 30
0.0
 11
380.6112269999999
 21
308.5786399999999
 31
0.0
  0
LINE
  5
CB23
330
C86C
100
AcDbEntity
  8
1
  6
Continuous
100
AcDbLine
 10
377.459738
 20
309.0821429999998
 30
0.0
 11
377.690042
 21
309.0821429999998
 31
0.0
  0
LINE
  5
CB24
330
C86C
100
AcDbEntity
  8
1
  6
Continuous
100
AcDbLine
 10
376.959738
 20
316.5821429999998
 30
0.0
 11
376.959738
 21
310.5821429999998
 31
0.0
  0
ARC
  5
CB25
330
C86C
100
AcDbEntity
  8
1
  6
Continuous
100
AcDbCircle
 10
376.959738
 20
312.0821429999998
 30
0.0
 40
0.5
100
AcDbArc
 50
0.0
 51
90.0
  0
ARC
  5
CB26
330
C86C
100
AcDbEntity
  8
1
  6
Continuous
100
AcDbCircle
 10
382.459738
 20
307.5821429999998
 30
0.0
 40
2.1
100
AcDbArc
 50
118.3282509999999
 51
151.671749
  0
ARC
  5
CB27
330
C86C
100
AcDbEntity
  8
1
  6
Continuous
100
AcDbCircle
 10
373.959738
 20
311.1821429999999
 30
0.0
 40
8.4
100
AcDbArc
 50
9.561571
 51
85.077318
  0
ARC
  5
CB28
330
C86C
100
AcDbEntity
  8
1
  6
Continuous
100
AcDbCircle
 10
374.959738
 20
316.5821429999998
 30
0.0
 40
2.0
100
AcDbArc
 50
0.0
 51
90.0
  0
LINE
  5
CB29
330
C86C
100
AcDbEntity
  8
1
  6
Continuous
100
AcDbLine
 10
382.459738
 20
312.5821429999998
 30
0.0
 11
382.459738
 21
317.733005
 31
0.0
  0
LINE
  5
CB2A
330
C86C
100
AcDbEntity
  8
1
  6
Continuous
100
AcDbLine
 10
370.2516389999996
 20
309.0821429999998
 30
0.0
 11
370.459738
 21
309.0821429999998
 31
0.0
  0
LINE
  5
CB2B
330
C86C
100
AcDbEntity
  8
1
  6
Continuous
100
AcDbLine
 10
370.459738
 20
312.0821429999998
 30
0.0
 11
370.459738
 21
308.645651
 31
0.0
  0
LINE
  5
CB2C
330
C86C
100
AcDbEntity
  8
1
  6
Continuous
100
AcDbLine
 10
370.959738
 20
316.5821429999998
 30
0.0
 11
370.959738
 21
310.5821429999998
 31
0.0
  0
ARC
  5
CB2D
330
C86C
100
AcDbEntity
  8
1
  6
Continuous
100
AcDbCircle
 10
370.959738
 20
312.0821429999998
 30
0.0
 40
0.5
100
AcDbArc
 50
90.0
 51
180.0
  0
ARC
  5
CB2E
330
C86C
100
AcDbEntity
  8
1
  6
Continuous
100
AcDbCircle
 10
372.959738
 20
316.5821429999998
 30
0.0
 40
2.0
100
AcDbArc
 50
90.0
 51
180.0
  0
LINE
  5
CB2F
330
C86C
100
AcDbEntity
  8
1
  6
Continuous
100
AcDbLine
 10
370.2348109999999
 20
318.2646259999996
 30
0.0
 11
374.6805539999999
 21
318.8569049999998
 31
0.0
  0
ARC
  5
CB30
330
C86C
100
AcDbEntity
  8
1
  6
Continuous
100
AcDbCircle
 10
373.959738
 20
315.5821429999998
 30
0.0
 40
3.0
100
AcDbArc
 50
180.0
 51
0.0
  0
LINE
  5
CB31
330
C86C
100
AcDbEntity
  8
1
  6
Continuous
100
AcDbLine
 10
372.959738
 20
318.5821429999998
 30
0.0
 11
374.959738
 21
318.5821429999998
 31
0.0
  0
ARC
  5
CB32
330
C86C
100
AcDbEntity
  8
5
  6
PHANTOM
100
AcDbCircle
 10
372.5308049999999
 20
328.795347
 30
0.0
 40
5.0
100
AcDbArc
 50
45.0
 51
135.0
  0
LINE
  5
CB33
330
C86C
100
AcDbEntity
  8
5
  6
PHANTOM
100
AcDbLine
 10
414.957212
 20
272.226804
 30
0.0
 11
414.957212
 21
258.084669
 31
0.0
  0
LINE
  5
CB34
330
C86C
100
AcDbEntity
  8
1
  6
Continuous
100
AcDbLine
 10
385.459738
 20
297.5821429999998
 30
0.0
 11
385.459738
 21
229.082143
 31
0.0
  0
LINE
  5
CB35
330
C86C
100
AcDbEntity
  8
1
  6
Continuous
100
AcDbLine
 10
383.959738
 20
251.582143
 30
0.0
 11
383.959738
 21
297.5821429999998
 31
0.0
  0
LINE
  5
CB36
330
C86C
100
AcDbEntity
  8
1
  6
Continuous
100
AcDbLine
 10
387.959738
 20
297.5821429999998
 30
0.0
 11
387.959738
 21
220.582143
 31
0.0
  0
LINE
  5
CB37
330
C86C
100
AcDbEntity
  8
1
  6
Continuous
100
AcDbLine
 10
383.959738
 20
226.790855
 30
0.0
 11
383.959738
 21
229.2908549999999
 31
0.0
  0
LINE
  5
CB38
330
C86C
100
AcDbEntity
  8
5
  6
PHANTOM
100
AcDbLine
 10
411.4216779999998
 20
254.549135
 30
0.0
 11
414.957212
 21
258.084669
 31
0.0
  0
ARC
  5
CB39
330
C86C
100
AcDbEntity
  8
5
  6
PHANTOM
100
AcDbCircle
 10
407.8861439999998
 20
258.084669
 30
0.0
 40
5.0
100
AcDbArc
 50
225.0
 51
315.0
  0
ARC
  5
CB49
330
C86C
100
AcDbEntity
  8
1
  6
Continuous
100
AcDbCircle
 10
426.7585969999998
 20
307.82725
 30
0.0
 40
1.002143999999999
100
AcDbArc
 50
0.0
 51
44.0725
  0
ARC
  5
CB4A
330
C86C
100
AcDbEntity
  8
1
  6
Continuous
100
AcDbCircle
 10
426.8669169999998
 20
307.82725
 30
0.0
 40
1.002143999999999
100
AcDbArc
 50
135.928
 51
180.0
  0
LINE
  5
CB4B
330
C86C
100
AcDbEntity
  8
1
  6
Continuous
100
AcDbLine
 10
425.4597379999998
 20
317.5821429999998
 30
0.0
 11
435.459738
 21
307.5821429999998
 31
0.0
  0
ARC
  5
CB4C
330
C86C
100
AcDbEntity
  8
1
  6
Continuous
100
AcDbCircle
 10
416.323134
 20
307.9266099999998
 30
0.0
 40
0.8360479999999999
100
AcDbArc
 50
312.87
 51
47.1304
  0
ARC
  5
CB4D
330
C86C
100
AcDbEntity
  8
1
  6
Continuous
100
AcDbCircle
 10
419.346787
 20
307.82725
 30
0.0
 40
1.002143999999999
100
AcDbArc
 50
135.928
 51
180.0
  0
ARC
  5
CB4E
330
C86C
100
AcDbEntity
  8
1
  6
Continuous
100
AcDbCircle
 10
416.09923
 20
307.9266099999998
 30
0.0
 40
0.8360479999999999
100
AcDbArc
 50
132.8699999999996
 51
198.208
  0
ARC
  5
CB4F
330
C86C
100
AcDbEntity
  8
1
  6
Continuous
100
AcDbCircle
 10
419.238467
 20
307.82725
 30
0.0
 40
1.002143999999999
100
AcDbArc
 50
0.0
 51
44.0725
  0
LINE
  5
CB50
330
C86C
100
AcDbEntity
  8
1
  6
Continuous
100
AcDbLine
 10
401.281431
 20
307.6974789999998
 30
0.0
 11
401.281431
 21
309.121178
 31
0.0
  0
LINE
  5
CB51
330
C86C
100
AcDbEntity
  8
1
  6
Continuous
100
AcDbLine
 10
400.6142419999997
 20
309.2416229999999
 30
0.0
 11
400.6142419999997
 21
307.6974789999998
 31
0.0
  0
ARC
  5
CB52
330
C86C
100
AcDbEntity
  8
1
  6
Continuous
100
AcDbCircle
 10
393.614842
 20
307.3645609999998
 30
0.0
 40
1.717978999999996
100
AcDbArc
 50
125.5376999999999
 51
166.5373999999999
  0
LINE
  5
CB53
330
C86C
100
AcDbEntity
  8
1
  6
Continuous
100
AcDbLine
 10
383.601418
 20
307.5821429999998
 30
0.0
 11
383.7699689999998
 21
308.021234
 31
0.0
  0
ARC
  5
CB54
330
C86C
100
AcDbEntity
  8
1
  6
Continuous
100
AcDbCircle
 10
408.442797
 20
307.3006259999999
 30
0.0
 40
1.708047999999998
100
AcDbArc
 50
318.932
 51
41.0679
  0
ARC
  5
CB55
330
C86C
100
AcDbEntity
  8
1
  6
Continuous
100
AcDbCircle
 10
409.1708849999998
 20
307.3006259999999
 30
0.0
 40
1.708047999999998
100
AcDbArc
 50
138.9319999999997
 51
221.0679999999999
  0
LINE
  5
CB56
330
C86C
100
AcDbEntity
  8
1
  6
Continuous
100
AcDbLine
 10
405.622269
 20
308.8066099999998
 30
0.0
 11
405.622269
 21
305.6066099999998
 31
0.0
  0
LINE
  5
CB57
330
C86C
100
AcDbEntity
  8
1
  6
Continuous
100
AcDbLine
 10
422.2219769999998
 20
308.806618
 30
0.0
 11
422.2219769999998
 21
305.6066099999998
 31
0.0
  0
LINE
  5
CB58
330
C86C
100
AcDbEntity
  8
1
  6
Continuous
100
AcDbLine
 10
397.948191
 20
309.6895739999999
 30
0.0
 11
397.948191
 21
305.0381939999998
 31
0.0
  0
LINE
  5
CB59
330
C86C
100
AcDbEntity
  8
1
  6
Continuous
100
AcDbLine
 10
398.614027
 20
309.558302
 30
0.0
 11
398.614027
 21
305.1694669999998
 31
0.0
  0
LINE
  5
CB5A
330
C86C
100
AcDbEntity
  8
1
  6
Continuous
100
AcDbLine
 10
401.6197629999998
 20
306.116795
 30
0.0
 11
402.3735649999998
 21
308.9262989999998
 31
0.0
  0
ARC
  5
CB5B
330
C86C
100
AcDbEntity
  8
1
  6
Continuous
100
AcDbCircle
 10
401.614349
 20
307.3645609999998
 30
0.0
 40
1.717978999999996
100
AcDbArc
 50
332.25
 51
54.46200000000001
  0
LINE
  5
CB5C
330
C86C
100
AcDbEntity
  8
1
  6
Continuous
100
AcDbLine
 10
399.947052
 20
309.555595
 30
0.0
 11
399.947052
 21
305.381939
 31
0.0
  0
LINE
  5
CB5D
330
C86C
100
AcDbEntity
  8
1
  6
Continuous
100
AcDbLine
 10
393.281924
 20
309.192904
 30
0.0
 11
393.281924
 21
306.31844
 31
0.0
  0
LINE
  5
CB5E
330
C86C
100
AcDbEntity
  8
1
  6
Continuous
100
AcDbLine
 10
393.94776
 20
306.1343879999999
 30
0.0
 11
393.94776
 21
308.593381
 31
0.0
  0
LINE
  5
CB5F
330
C86C
100
AcDbEntity
  8
1
  6
Continuous
100
AcDbLine
 10
394.61495
 20
309.008851
 30
0.0
 11
394.61495
 21
305.7202709999998
 31
0.0
  0
LINE
  5
CB60
330
C86C
100
AcDbEntity
  8
1
  6
Continuous
100
AcDbLine
 10
395.280786
 20
309.095464
 30
0.0
 11
395.280786
 21
305.6323039999998
 31
0.0
  0
LINE
  5
CB61
330
C86C
100
AcDbEntity
  8
1
  6
Continuous
100
AcDbLine
 10
396.615165
 20
309.6340879999999
 30
0.0
 11
396.615165
 21
305.093681
 31
0.0
  0
LINE
  5
CB62
330
C86C
100
AcDbEntity
  8
1
  6
Continuous
100
AcDbLine
 10
397.281001
 20
309.6895739999999
 30
0.0
 11
397.281001
 21
305.0381939999998
 31
0.0
  0
ARC
  5
CB63
330
C86C
100
AcDbEntity
  8
1
  6
Continuous
100
AcDbCircle
 10
416.09923
 20
306.4866099999998
 30
0.0
 40
0.8360479999999999
100
AcDbArc
 50
193.0139999999999
 51
227.13
  0
LINE
  5
CB64
330
C86C
100
AcDbEntity
  8
5
  6
PHANTOM
100
AcDbLine
 10
400.8150769999998
 20
286.36894
 30
0.0
 11
414.957212
 21
272.226804
 31
0.0
  0
ARC
  5
CB65
330
C86C
100
AcDbEntity
  8
5
  6
PHANTOM
100
AcDbCircle
 10
404.350611
 20
289.9044739999999
 30
0.0
 40
5.0
100
AcDbArc
 50
135.0
 51
225.0
  0
LINE
  5
CB66
330
C86C
100
AcDbEntity
  8
4
  6
CENTER
100
AcDbLine
 10
401.875737
 20
303.693056
 30
0.0
 11
397.633096
 21
299.4504149999999
 31
0.0
  0
CIRCLE
  5
CB67
330
C86C
100
AcDbEntity
  8
5
  6
PHANTOM
100
AcDbCircle
 10
399.7544169999999
 20
301.571736
 30
0.0
 40
1.5
  0
LINE
  5
CB68
330
C86C
100
AcDbEntity
  8
4
  6
CENTER
100
AcDbLine
 10
401.875737
 20
299.4504149999999
 30
0.0
 11
397.633096
 21
303.693056
 31
0.0
  0
ARC
  5
CB69
330
C86C
100
AcDbEntity
  8
1
  6
Continuous
100
AcDbCircle
 10
397.6139189999996
 20
312.9632689999999
 30
0.0
 40
8.599396
100
AcDbArc
 50
234.4619999999999
 51
305.5379999999999
  0
LINE
  5
CB6A
330
C86C
100
AcDbEntity
  8
1
  6
Continuous
100
AcDbLine
 10
399.2812159999999
 20
307.3645609999998
 30
0.0
 11
398.948298
 21
307.3645609999998
 31
0.0
  0
LINE
  5
CB6B
330
C86C
100
AcDbEntity
  8
1
  6
Continuous
100
AcDbLine
 10
397.281001
 20
307.3645609999998
 30
0.0
 11
396.615165
 21
307.3645609999998
 31
0.0
  0
LINE
  5
CB6C
330
C86C
100
AcDbEntity
  8
1
  6
Continuous
100
AcDbLine
 10
383.601418
 20
307.5821429999998
 30
0.0
 11
383.7699689999998
 21
307.143052
 31
0.0
  0
ARC
  5
CB6D
330
C86C
100
AcDbEntity
  8
1
  6
Continuous
100
AcDbCircle
 10
397.6139189999996
 20
312.9632689999999
 30
0.0
 40
7.932788
100
AcDbArc
 50
277.793
 51
280.104
  0
ARC
  5
CB6E
330
C86C
100
AcDbEntity
  8
1
  6
Continuous
100
AcDbCircle
 10
398.681693
 20
305.1694669999998
 30
0.0
 40
0.066678
100
AcDbArc
 50
180.0
 51
277.793
  0
ARC
  5
CB6F
330
C86C
100
AcDbEntity
  8
1
  6
Continuous
100
AcDbCircle
 10
398.948298
 20
305.482085
 30
0.0
 40
0.333392
100
AcDbArc
 50
280.104
 51
0.0
  0
ARC
  5
CB70
330
C86C
100
AcDbEntity
  8
1
  6
Continuous
100
AcDbCircle
 10
394.2820319999997
 20
306.1343879999999
 30
0.0
 40
0.333392
100
AcDbArc
 50
180.0
 51
243.9859999999999
  0
ARC
  5
CB71
330
C86C
100
AcDbEntity
  8
1
  6
Continuous
100
AcDbCircle
 10
395.6150569999999
 20
305.6323039999998
 30
0.0
 40
0.333392
100
AcDbArc
 50
180.0
 51
254.742
  0
ARC
  5
CB72
330
C86C
100
AcDbEntity
  8
1
  6
Continuous
100
AcDbCircle
 10
397.6139189999996
 20
312.9632689999999
 30
0.0
 40
7.932788
100
AcDbArc
 50
254.742
 51
254.794
  0
ARC
  5
CB73
330
C86C
100
AcDbEntity
  8
1
  6
Continuous
100
AcDbCircle
 10
397.6139189999996
 20
312.9632689999999
 30
0.0
 40
7.932788
100
AcDbArc
 50
254.794
 51
257.2709999999996
  0
ARC
  5
CB74
330
C86C
100
AcDbEntity
  8
1
  6
Continuous
100
AcDbCircle
 10
395.881663
 20
305.291266
 30
0.0
 40
0.066678
100
AcDbArc
 50
257.2709999999996
 51
0.0
  0
LINE
  5
CB75
330
C86C
100
AcDbEntity
  8
1
  6
Continuous
100
AcDbLine
 10
395.9479759999999
 20
305.291266
 30
0.0
 11
395.9479759999999
 21
306.564746
 31
0.0
  0
ARC
  5
CB76
330
C86C
100
AcDbEntity
  8
1
  6
Continuous
100
AcDbCircle
 10
394.5486369999999
 20
305.7202709999998
 30
0.0
 40
0.066678
100
AcDbArc
 50
247.0559999999999
 51
0.0
  0
ARC
  5
CB77
330
C86C
100
AcDbEntity
  8
1
  6
Continuous
100
AcDbCircle
 10
397.6139189999996
 20
312.9632689999999
 30
0.0
 40
7.932788
100
AcDbArc
 50
243.9859999999999
 51
247.0559999999999
  0
LINE
  5
CB78
330
C86C
100
AcDbEntity
  8
1
  6
Continuous
100
AcDbLine
 10
383.7699689999998
 20
307.143052
 30
0.0
 11
384.3082499999999
 21
306.585646
 31
0.0
  0
LINE
  5
CB79
330
C86C
100
AcDbEntity
  8
1
  6
Continuous
100
AcDbLine
 10
399.2812159999999
 20
305.482085
 30
0.0
 11
399.2812159999999
 21
307.3645609999998
 31
0.0
  0
ARC
  5
CB7A
330
C86C
100
AcDbEntity
  8
1
  6
Continuous
100
AcDbCircle
 10
393.614842
 20
307.3645609999998
 30
0.0
 40
1.717978999999996
100
AcDbArc
 50
180.0
 51
234.4619999999999
  0
LINE
  5
CB7B
330
C86C
100
AcDbEntity
  8
5
  6
PHANTOM
100
AcDbLine
 10
400.8150769999998
 20
293.4400079999998
 30
0.0
 11
404.350611
 21
296.975542
 31
0.0
  0
ARC
  5
CB7C
330
C86C
100
AcDbEntity
  8
5
  6
PHANTOM
100
AcDbCircle
 10
400.8150769999998
 20
300.511075
 30
0.0
 40
5.0
100
AcDbArc
 50
315.0
 51
45.0
  0
LINE
  5
CB7D
330
C86C
100
AcDbEntity
  8
1
  6
Continuous
100
AcDbLine
 10
411.4176279999998
 20
307.20661
 30
0.0
 11
412.420108
 21
307.20661
 31
0.0
  0
LINE
  5
CB7E
330
C86C
100
AcDbEntity
  8
1
  6
Continuous
100
AcDbLine
 10
403.3317189999998
 20
307.3645609999998
 30
0.0
 11
401.9540339999998
 21
307.3645609999998
 31
0.0
  0
ARC
  5
CB7F
330
C86C
100
AcDbEntity
  8
1
  6
Continuous
100
AcDbCircle
 10
400.94716
 20
307.6974789999998
 30
0.0
 40
0.333392
100
AcDbArc
 50
180.0
 51
0.0
  0
ARC
  5
CB80
330
C86C
100
AcDbEntity
  8
1
  6
Continuous
100
AcDbCircle
 10
408.8068449999997
 20
306.98341
 30
0.0
 40
1.225184
100
AcDbArc
 50
221.0679999999999
 51
318.932
  0
ARC
  5
CB81
330
C86C
100
AcDbEntity
  8
1
  6
Continuous
100
AcDbCircle
 10
401.614349
 20
307.3645609999998
 30
0.0
 40
1.717978999999996
100
AcDbArc
 50
305.5379999999999
 51
315.699
  0
LINE
  5
CB82
330
C86C
100
AcDbEntity
  8
1
  6
Continuous
100
AcDbLine
 10
400.94716
 20
307.3645609999998
 30
0.0
 11
400.94716
 21
305.76493
 31
0.0
  0
ARC
  5
CB83
330
C86C
100
AcDbEntity
  8
1
  6
Continuous
100
AcDbCircle
 10
430.459738
 20
302.5821429999998
 30
0.0
 40
5.0
100
AcDbArc
 50
270.0
 51
0.0
  0
LINE
  5
CB84
330
C86C
100
AcDbEntity
  8
1
  6
Continuous
100
AcDbLine
 10
424.0456909999998
 20
307.20661
 30
0.0
 11
425.0481709999998
 21
307.20661
 31
0.0
  0
LINE
  5
CB85
330
C86C
100
AcDbEntity
  8
1
  6
Continuous
100
AcDbLine
 10
416.285614
 20
307.20661
 30
0.0
 11
416.75395
 21
307.20661
 31
0.0
  0
ARC
  5
CB86
330
C86C
100
AcDbEntity
  8
1
  6
Continuous
100
AcDbCircle
 10
416.2111819999998
 20
308.04721
 30
0.0
 40
1.000599999999999
100
AcDbArc
 50
302.85
 51
312.87
  0
ARC
  5
CB87
330
C86C
100
AcDbEntity
  8
1
  6
Continuous
100
AcDbCircle
 10
416.2111819999998
 20
306.3660069999999
 30
0.0
 40
1.000599999999999
100
AcDbArc
 50
47.1304
 51
57.1503
  0
ARC
  5
CB88
330
C86C
100
AcDbEntity
  8
1
  6
Continuous
100
AcDbCircle
 10
426.7585969999998
 20
306.5859699999998
 30
0.0
 40
1.002143999999999
100
AcDbArc
 50
315.927
 51
0.0
  0
ARC
  5
CB89
330
C86C
100
AcDbEntity
  8
1
  6
Continuous
100
AcDbCircle
 10
426.8669169999998
 20
306.5859699999998
 30
0.0
 40
1.002143999999999
100
AcDbArc
 50
180.0
 51
224.072
  0
ARC
  5
CB8A
330
C86C
100
AcDbEntity
  8
1
  6
Continuous
100
AcDbCircle
 10
426.8127569999998
 20
306.5335539999998
 30
0.0
 40
0.9267839999999999
100
AcDbArc
 50
224.072
 51
315.927
  0
ARC
  5
CB8B
330
C86C
100
AcDbEntity
  8
1
  6
Continuous
100
AcDbCircle
 10
419.346787
 20
306.5859699999998
 30
0.0
 40
1.002143999999999
100
AcDbArc
 50
180.0
 51
224.072
  0
ARC
  5
CB8C
330
C86C
100
AcDbEntity
  8
1
  6
Continuous
100
AcDbCircle
 10
419.292627
 20
306.5335539999998
 30
0.0
 40
0.9267839999999999
100
AcDbArc
 50
224.072
 51
315.927
  0
ARC
  5
CB8D
330
C86C
100
AcDbEntity
  8
1
  6
Continuous
100
AcDbCircle
 10
416.2111819999998
 20
306.6072099999999
 30
0.0
 40
1.000599999999999
100
AcDbArc
 50
227.13
 51
312.87
  0
ARC
  5
CB8E
330
C86C
100
AcDbEntity
  8
1
  6
Continuous
100
AcDbCircle
 10
419.238467
 20
306.5859699999998
 30
0.0
 40
1.002143999999999
100
AcDbArc
 50
315.927
 51
0.0
  0
LINE
  5
CB8F
330
C86C
100
AcDbEntity
  8
1
  6
Continuous
100
AcDbLine
 10
425.864757
 20
307.82725
 30
0.0
 11
425.864757
 21
306.5859699999998
 31
0.0
  0
LINE
  5
CB90
330
C86C
100
AcDbEntity
  8
1
  6
Continuous
100
AcDbLine
 10
420.2406269999998
 20
307.82725
 30
0.0
 11
420.2406269999998
 21
306.5859699999998
 31
0.0
  0
ARC
  5
CB91
330
C86C
100
AcDbEntity
  8
1
  6
Continuous
100
AcDbCircle
 10
416.323134
 20
306.4866099999998
 30
0.0
 40
0.8360479999999999
100
AcDbArc
 50
312.87
 51
47.1304
  0
LINE
  5
CB92
330
C86C
100
AcDbEntity
  8
1
  6
Continuous
100
AcDbLine
 10
418.344627
 20
307.82725
 30
0.0
 11
418.344627
 21
306.5859699999998
 31
0.0
  0
LINE
  5
CB93
330
C86C
100
AcDbEntity
  8
1
  6
Continuous
100
AcDbLine
 10
427.7607569999998
 20
307.82725
 30
0.0
 11
427.7607569999998
 21
306.5859699999998
 31
0.0
  0
LINE
  5
CB94
330
C86C
100
AcDbEntity
  8
1
  6
Continuous
100
AcDbLine
 10
435.459738
 20
302.5821429999998
 30
0.0
 11
435.459738
 21
307.5821429999998
 31
0.0
  0
LINE
  5
CB95
330
C86C
100
AcDbEntity
  8
1
  6
Continuous
100
AcDbLine
 10
405.459738
 20
317.5821429999998
 30
0.0
 11
425.4597379999998
 21
317.5821429999998
 31
0.0
  0
ARC
  5
CB96
330
C86C
100
AcDbEntity
  8
1
  6
Continuous
100
AcDbCircle
 10
395.459738
 20
327.5821429999998
 30
0.0
 40
5.0
100
AcDbArc
 50
0.0
 51
90.0
  0
LINE
  5
CB97
330
C86C
100
AcDbEntity
  8
4
  6
CENTER
100
AcDbLine
 10
393.959738
 20
330.5821429999998
 30
0.0
 11
393.959738
 21
324.5821429999998
 31
0.0
  0
ARC
  5
CB98
330
C86C
100
AcDbEntity
  8
1
  6
Continuous
100
AcDbCircle
 10
397.6139189999996
 20
301.7644999999999
 30
0.0
 40
8.599396
100
AcDbArc
 50
54.46200000000001
 51
125.5376999999999
  0
ARC
  5
CB99
330
C86C
100
AcDbEntity
  8
1
  6
Continuous
100
AcDbCircle
 10
405.459738
 20
322.5821429999998
 30
0.0
 40
5.0
100
AcDbArc
 50
180.0
 51
270.0
  0
LINE
  5
CB9A
330
C86C
100
AcDbEntity
  8
4
  6
CENTER
100
AcDbLine
 10
396.959738
 20
327.5821429999998
 30
0.0
 11
390.959738
 21
327.5821429999998
 31
0.0
  0
ARC
  5
CB9B
330
C86C
100
AcDbEntity
  8
1
  6
Continuous
100
AcDbCircle
 10
397.6139189999996
 20
301.7644999999999
 30
0.0
 40
7.932788
100
AcDbArc
 50
79.896
 51
82.20699999999999
  0
ARC
  5
CB9C
330
C86C
100
AcDbEntity
  8
1
  6
Continuous
100
AcDbCircle
 10
398.681693
 20
309.558302
 30
0.0
 40
0.066678
100
AcDbArc
 50
82.20699999999999
 51
180.0
  0
LINE
  5
CB9D
330
C86C
100
AcDbEntity
  8
1
  6
Continuous
100
AcDbLine
 10
399.2812159999999
 20
308.1643759999999
 30
0.0
 11
399.2812159999999
 21
309.2456829999998
 31
0.0
  0
ARC
  5
CB9E
330
C86C
100
AcDbEntity
  8
1
  6
Continuous
100
AcDbCircle
 10
398.948298
 20
309.2456829999998
 30
0.0
 40
0.333392
100
AcDbArc
 50
0.0
 51
79.896
  0
LINE
  5
CB9F
330
C86C
100
AcDbEntity
  8
1
  6
Continuous
100
AcDbLine
 10
395.9479759999999
 20
308.1643759999999
 30
0.0
 11
395.9479759999999
 21
309.436502
 31
0.0
  0
ARC
  5
CBA0
330
C86C
100
AcDbEntity
  8
1
  6
Continuous
100
AcDbCircle
 10
394.2820319999997
 20
308.593381
 30
0.0
 40
0.333392
100
AcDbArc
 50
116.0144
 51
180.0
  0
ARC
  5
CBA1
330
C86C
100
AcDbEntity
  8
1
  6
Continuous
100
AcDbCircle
 10
397.6139189999996
 20
301.7644999999999
 30
0.0
 40
7.932788
100
AcDbArc
 50
112.9439999999999
 51
116.0144
  0
ARC
  5
CBA2
330
C86C
100
AcDbEntity
  8
1
  6
Continuous
100
AcDbCircle
 10
394.5486369999999
 20
309.008851
 30
0.0
 40
0.066678
100
AcDbArc
 50
0.0
 51
112.9439999999999
  0
ARC
  5
CBA3
330
C86C
100
AcDbEntity
  8
1
  6
Continuous
100
AcDbCircle
 10
395.881663
 20
309.436502
 30
0.0
 40
0.066678
100
AcDbArc
 50
0.0
 51
102.7288999999999
  0
ARC
  5
CBA4
330
C86C
100
AcDbEntity
  8
1
  6
Continuous
100
AcDbCircle
 10
397.6139189999996
 20
301.7644999999999
 30
0.0
 40
7.932788
100
AcDbArc
 50
102.7288999999999
 51
103.2680999999999
  0
ARC
  5
CBA5
330
C86C
100
AcDbEntity
  8
1
  6
Continuous
100
AcDbCircle
 10
396.6661779999999
 20
305.6330809999999
 30
0.0
 40
3.950108999999999
100
AcDbArc
 50
102.7666109999997
 51
121.284226
  0
ARC
  5
CBA6
330
C86C
100
AcDbEntity
  8
1
  6
Continuous
100
AcDbCircle
 10
395.6150569999999
 20
309.095464
 30
0.0
 40
0.333392
100
AcDbArc
 50
105.2575
 51
180.0
  0
LINE
  5
CBA7
330
C86C
100
AcDbEntity
  8
1
  6
Continuous
100
AcDbLine
 10
383.7699689999998
 20
308.021234
 30
0.0
 11
384.3082499999999
 21
308.5786399999999
 31
0.0
  0
CIRCLE
  5
CBA8
330
C86C
100
AcDbEntity
  8
1
  6
Continuous
100
AcDbCircle
 10
393.959738
 20
327.5821429999998
 30
0.0
 40
1.5
  0
ARC
  5
CBA9
330
C86C
100
AcDbEntity
  8
1
  6
Continuous
100
AcDbCircle
 10
408.8068449999997
 20
307.617842
 30
0.0
 40
1.225184
100
AcDbArc
 50
41.0679
 51
138.9319999999997
  0
LINE
  5
CBAA
330
C86C
100
AcDbEntity
  8
1
  6
Continuous
100
AcDbLine
 10
400.4597379999998
 20
322.5821429999998
 30
0.0
 11
400.4597379999998
 21
327.5821429999998
 31
0.0
  0
LINE
  5
CBAB
330
C86C
100
AcDbEntity
  8
1
  6
Continuous
100
AcDbLine
 10
404.3678609999998
 20
308.8066099999998
 30
0.0
 11
406.8878209999998
 21
308.8066099999998
 31
0.0
  0
ARC
  5
CBAC
330
C86C
100
AcDbEntity
  8
1
  6
Continuous
100
AcDbCircle
 10
426.8127569999998
 20
307.879666
 30
0.0
 40
0.9267839999999999
100
AcDbArc
 50
44.0725
 51
135.928
  0
LINE
  5
CBAD
330
C86C
100
AcDbEntity
  8
1
  6
Continuous
100
AcDbLine
 10
422.2219769999998
 20
308.8066099999998
 30
0.0
 11
421.868857
 21
308.46461
 31
0.0
  0
ARC
  5
CBAE
330
C86C
100
AcDbEntity
  8
1
  6
Continuous
100
AcDbCircle
 10
419.292627
 20
307.879666
 30
0.0
 40
0.9267839999999999
100
AcDbArc
 50
44.0725
 51
135.928
  0
ARC
  5
CBAF
330
C86C
100
AcDbEntity
  8
1
  6
Continuous
100
AcDbCircle
 10
416.2111819999998
 20
307.80601
 30
0.0
 40
1.000599999999999
100
AcDbArc
 50
47.1304
 51
132.8699999999996
  0
LINE
  5
CBBF
330
C86C
100
AcDbEntity
  8
1
  6
Continuous
100
AcDbLine
 10
50.091353
 20
422.0821429999999
 30
0.0
 11
72.86279899999998
 21
422.0821429999999
 31
0.0
  0
LINE
  5
CBC0
330
C86C
100
AcDbEntity
  8
1
  6
Continuous
100
AcDbLine
 10
50.091353
 20
423.2821429999998
 30
0.0
 11
73.49862299999998
 21
423.2821429999998
 31
0.0
  0
LINE
  5
CBC1
330
C86C
100
AcDbEntity
  8
1
  6
Continuous
100
AcDbLine
 10
53.59135300000001
 20
425.682143
 30
0.0
 11
71.091353
 21
425.682143
 31
0.0
  0
LINE
  5
CBC2
330
C86C
100
AcDbEntity
  8
1
  6
Continuous
100
AcDbLine
 10
53.59135300000001
 20
419.4821429999998
 30
0.0
 11
70.091353
 21
419.4821429999998
 31
0.0
  0
LINE
  5
CBC3
330
C86C
100
AcDbEntity
  8
4
  6
CENTER
100
AcDbLine
 10
23.845804
 20
422.5821429999998
 30
0.0
 11
74.88022499999998
 21
422.5821429999998
 31
0.0
  0
LINE
  5
CBC4
330
C86C
100
AcDbEntity
  8
1
  6
Continuous
100
AcDbLine
 10
31.66171999999999
 20
433.582143
 30
0.0
 11
35.924686
 21
433.582143
 31
0.0
  0
LINE
  5
CBC5
330
C86C
100
AcDbEntity
  8
1
  6
Continuous
100
AcDbLine
 10
35.924686
 20
411.5821429999998
 30
0.0
 11
31.66171999999999
 21
411.5821429999998
 31
0.0
  0
LINE
  5
CBC6
330
C86C
100
AcDbEntity
  8
1
  6
Continuous
100
AcDbLine
 10
31.66171999999999
 20
434.5821429999999
 30
0.0
 11
35.924686
 21
434.5821429999999
 31
0.0
  0
LINE
  5
CBC7
330
C86C
100
AcDbEntity
  8
1
  6
Continuous
100
AcDbLine
 10
31.66171999999999
 20
410.5821429999998
 30
0.0
 11
35.924686
 21
410.5821429999998
 31
0.0
  0
LINE
  5
CBC8
330
C86C
100
AcDbEntity
  8
1
  6
Continuous
100
AcDbLine
 10
30.82967
 20
412.027443
 30
0.0
 11
26.759303
 21
418.132994
 31
0.0
  0
ARC
  5
CBC9
330
C86C
100
AcDbEntity
  8
1
  6
Continuous
100
AcDbCircle
 10
27.591353
 20
418.687694
 30
0.0
 40
2.0
100
AcDbArc
 50
180.0
 51
213.690068
  0
ARC
  5
CBCA
330
C86C
100
AcDbEntity
  8
1
  6
Continuous
100
AcDbCircle
 10
31.66171999999999
 20
412.582143
 30
0.0
 40
1.0
100
AcDbArc
 50
213.690068
 51
270.0
  0
ARC
  5
CBCB
330
C86C
100
AcDbEntity
  8
1
  6
Continuous
100
AcDbCircle
 10
31.66171999999999
 20
412.582143
 30
0.0
 40
2.0
100
AcDbArc
 50
213.690068
 51
270.0
  0
LINE
  5
CBCC
330
C86C
100
AcDbEntity
  8
1
  6
Continuous
100
AcDbLine
 10
25.927252
 20
417.5782939999998
 30
0.0
 11
29.99762
 21
411.472743
 31
0.0
  0
ARC
  5
CBCD
330
C86C
100
AcDbEntity
  8
1
  6
Continuous
100
AcDbCircle
 10
31.66171999999999
 20
432.5821429999998
 30
0.0
 40
1.0
100
AcDbArc
 50
90.0
 51
146.3099319999996
  0
ARC
  5
CBCE
330
C86C
100
AcDbEntity
  8
1
  6
Continuous
100
AcDbCircle
 10
31.66171999999999
 20
432.5821429999998
 30
0.0
 40
2.0
100
AcDbArc
 50
90.0
 51
146.3099319999996
  0
ARC
  5
CBCF
330
C86C
100
AcDbEntity
  8
1
  6
Continuous
100
AcDbCircle
 10
27.591353
 20
426.476592
 30
0.0
 40
1.0
100
AcDbArc
 50
146.3099319999996
 51
180.0
  0
LINE
  5
CBD0
330
C86C
100
AcDbEntity
  8
1
  6
Continuous
100
AcDbLine
 10
26.591353
 20
418.687694
 30
0.0
 11
26.591353
 21
426.476592
 31
0.0
  0
ARC
  5
CBD1
330
C86C
100
AcDbEntity
  8
1
  6
Continuous
100
AcDbCircle
 10
27.591353
 20
418.687694
 30
0.0
 40
1.0
100
AcDbArc
 50
180.0
 51
213.690068
  0
ARC
  5
CBD2
330
C86C
100
AcDbEntity
  8
1
  6
Continuous
100
AcDbCircle
 10
28.091353
 20
426.082143
 30
0.0
 40
0.5
100
AcDbArc
 50
90.0
 51
180.0
  0
ARC
  5
CBD3
330
C86C
100
AcDbEntity
  8
1
  6
Continuous
100
AcDbCircle
 10
27.591353
 20
426.476592
 30
0.0
 40
2.0
100
AcDbArc
 50
146.3099319999996
 51
180.0
  0
ARC
  5
CBD4
330
C86C
100
AcDbEntity
  8
1
  6
Continuous
100
AcDbCircle
 10
31.091353
 20
426.082143
 30
0.0
 40
0.5
100
AcDbArc
 50
0.0
 51
90.0
  0
ARC
  5
CBD5
330
C86C
100
AcDbEntity
  8
1
  6
Continuous
100
AcDbCircle
 10
31.091353
 20
419.0821429999998
 30
0.0
 40
0.5
100
AcDbArc
 50
270.0
 51
0.0
  0
ARC
  5
CBD6
330
C86C
100
AcDbEntity
  8
1
  6
Continuous
100
AcDbCircle
 10
28.091353
 20
419.0821429999998
 30
0.0
 40
0.5
100
AcDbArc
 50
180.0
 51
270.0
  0
LINE
  5
CBD7
330
C86C
100
AcDbEntity
  8
1
  6
Continuous
100
AcDbLine
 10
28.091353
 20
426.5821429999999
 30
0.0
 11
31.091353
 21
426.5821429999999
 31
0.0
  0
LINE
  5
CBD8
330
C86C
100
AcDbEntity
  8
1
  6
Continuous
100
AcDbLine
 10
28.091353
 20
418.5821429999998
 30
0.0
 11
31.091353
 21
418.5821429999998
 31
0.0
  0
LINE
  5
CBD9
330
C86C
100
AcDbEntity
  8
1
  6
Continuous
100
AcDbLine
 10
31.591353
 20
426.082143
 30
0.0
 11
31.591353
 21
419.0821429999998
 31
0.0
  0
LINE
  5
CBDA
330
C86C
100
AcDbEntity
  8
1
  6
Continuous
100
AcDbLine
 10
27.591353
 20
426.082143
 30
0.0
 11
27.591353
 21
419.0821429999998
 31
0.0
  0
LINE
  5
CBDB
330
C86C
100
AcDbEntity
  8
1
  6
Continuous
100
AcDbLine
 10
25.591353
 20
426.476592
 30
0.0
 11
25.591353
 21
418.687694
 31
0.0
  0
LINE
  5
CBDC
330
C86C
100
AcDbEntity
  8
1
  6
Continuous
100
AcDbLine
 10
30.82967
 20
433.1368429999998
 30
0.0
 11
26.759303
 21
427.031292
 31
0.0
  0
LINE
  5
CBDD
330
C86C
100
AcDbEntity
  8
1
  6
Continuous
100
AcDbLine
 10
25.927252
 20
427.585992
 30
0.0
 11
29.99762
 21
433.6915429999998
 31
0.0
  0
ARC
  5
CBDE
330
C86C
100
AcDbEntity
  8
1
  6
Continuous
100
AcDbCircle
 10
53.291353
 20
418.382143
 30
0.0
 40
0.3
100
AcDbArc
 50
270.0
 51
0.0
  0
LINE
  5
CBDF
330
C86C
100
AcDbEntity
  8
1
  6
Continuous
100
AcDbLine
 10
46.59135299999999
 20
419.332143
 30
0.0
 11
36.52468599999997
 21
411.782143
 31
0.0
  0
LINE
  5
CBE0
330
C86C
100
AcDbEntity
  8
1
  6
Continuous
100
AcDbLine
 10
37.12468599999999
 20
410.982143
 30
0.0
 11
46.59135299999999
 21
418.0821429999999
 31
0.0
  0
ARC
  5
CBE1
330
C86C
100
AcDbEntity
  8
1
  6
Continuous
100
AcDbCircle
 10
30.058738
 20
422.5821429999998
 30
0.0
 40
10.032628
100
AcDbArc
 50
324.4619999999998
 51
35.53799999999997
  0
ARC
  5
CBE2
330
C86C
100
AcDbEntity
  8
1
  6
Continuous
100
AcDbCircle
 10
43.123968
 20
422.5821429999998
 30
0.0
 40
10.032628
100
AcDbArc
 50
144.462
 51
215.5377
  0
ARC
  5
CBE3
330
C86C
100
AcDbEntity
  8
1
  6
Continuous
100
AcDbCircle
 10
35.924686
 20
412.582143
 30
0.0
 40
1.0
100
AcDbArc
 50
270.0
 51
306.8698979999998
  0
ARC
  5
CBE4
330
C86C
100
AcDbEntity
  8
1
  6
Continuous
100
AcDbCircle
 10
35.924686
 20
412.582143
 30
0.0
 40
2.0
100
AcDbArc
 50
270.0
 51
306.8698979999998
  0
ARC
  5
CBE5
330
C86C
100
AcDbEntity
  8
1
  6
Continuous
100
AcDbCircle
 10
36.590563
 20
417.916554
 30
0.0
 40
2.004309
100
AcDbArc
 50
270.0
 51
324.4619999999998
  0
LINE
  5
CBE6
330
C86C
100
AcDbEntity
  8
1
  6
Continuous
100
AcDbLine
 10
34.45749699999999
 20
417.5281489999998
 30
0.0
 11
37.811037
 21
417.5281489999998
 31
0.0
  0
ARC
  5
CBE7
330
C86C
100
AcDbEntity
  8
1
  6
Continuous
100
AcDbCircle
 10
36.590563
 20
417.916554
 30
0.0
 40
2.004309
100
AcDbArc
 50
215.5377
 51
256.5374
  0
LINE
  5
CBE8
330
C86C
100
AcDbEntity
  8
1
  6
Continuous
100
AcDbLine
 10
46.59135299999999
 20
427.0821429999998
 30
0.0
 11
53.291353
 21
427.0821429999998
 31
0.0
  0
LINE
  5
CBE9
330
C86C
100
AcDbEntity
  8
1
  6
Continuous
100
AcDbLine
 10
46.59135299999999
 20
418.0821429999999
 30
0.0
 11
53.291353
 21
418.0821429999999
 31
0.0
  0
ARC
  5
CBEA
330
C86C
100
AcDbEntity
  8
1
  6
Continuous
100
AcDbCircle
 10
35.924686
 20
432.5821429999998
 30
0.0
 40
1.0
100
AcDbArc
 50
53.130102
 51
90.0
  0
ARC
  5
CBEB
330
C86C
100
AcDbEntity
  8
1
  6
Continuous
100
AcDbCircle
 10
35.924686
 20
432.5821429999998
 30
0.0
 40
2.0
100
AcDbArc
 50
53.130102
 51
90.0
  0
LINE
  5
CBEC
330
C86C
100
AcDbEntity
  8
1
  6
Continuous
100
AcDbLine
 10
46.59135299999999
 20
419.332143
 30
0.0
 11
46.59135299999999
 21
425.8321429999998
 31
0.0
  0
LINE
  5
CBED
330
C86C
100
AcDbEntity
  8
1
  6
Continuous
100
AcDbLine
 10
33.878048
 20
422.9721269999997
 30
0.0
 11
39.304657
 21
422.9721269999997
 31
0.0
  0
LINE
  5
CBEE
330
C86C
100
AcDbEntity
  8
1
  6
Continuous
100
AcDbLine
 10
38.025765
 20
418.304958
 30
0.0
 11
35.15693999999999
 21
418.304958
 31
0.0
  0
LINE
  5
CBEF
330
C86C
100
AcDbEntity
  8
1
  6
Continuous
100
AcDbLine
 10
34.672224
 20
419.083346
 30
0.0
 11
38.508902
 21
419.083346
 31
0.0
  0
LINE
  5
CBF0
330
C86C
100
AcDbEntity
  8
1
  6
Continuous
100
AcDbLine
 10
35.657445
 20
420.638542
 30
0.0
 11
34.17329799999999
 21
420.638542
 31
0.0
  0
LINE
  5
CBF1
330
C86C
100
AcDbEntity
  8
1
  6
Continuous
100
AcDbLine
 10
36.590563
 20
422.1937389999998
 30
0.0
 11
36.590563
 21
421.41693
 31
0.0
  0
ARC
  5
CBF2
330
C86C
100
AcDbEntity
  8
1
  6
Continuous
100
AcDbCircle
 10
35.15693999999999
 20
418.6949409999998
 30
0.0
 40
0.388957
100
AcDbArc
 50
206.0144
 51
270.0
  0
ARC
  5
CBF3
330
C86C
100
AcDbEntity
  8
1
  6
Continuous
100
AcDbCircle
 10
43.123968
 20
422.5821429999998
 30
0.0
 40
9.254918999999999
100
AcDbArc
 50
202.944
 51
206.0144
  0
ARC
  5
CBF4
330
C86C
100
AcDbEntity
  8
1
  6
Continuous
100
AcDbCircle
 10
34.672224
 20
419.005981
 30
0.0
 40
0.077791
100
AcDbArc
 50
90.0
 51
202.944
  0
ARC
  5
CBF5
330
C86C
100
AcDbEntity
  8
1
  6
Continuous
100
AcDbCircle
 10
38.025765
 20
418.6949409999998
 30
0.0
 40
0.388957
100
AcDbArc
 50
270.0
 51
333.9859999999998
  0
ARC
  5
CBF6
330
C86C
100
AcDbEntity
  8
1
  6
Continuous
100
AcDbCircle
 10
34.17329799999999
 20
420.5611769999999
 30
0.0
 40
0.077791
100
AcDbArc
 50
90.0
 51
192.7289
  0
ARC
  5
CBF7
330
C86C
100
AcDbEntity
  8
1
  6
Continuous
100
AcDbCircle
 10
43.123968
 20
422.5821429999998
 30
0.0
 40
9.254918999999999
100
AcDbArc
 50
192.7289
 51
193.2680999999999
  0
ARC
  5
CBF8
330
C86C
100
AcDbEntity
  8
1
  6
Continuous
100
AcDbCircle
 10
43.123968
 20
422.5821429999998
 30
0.0
 40
9.254918999999999
100
AcDbArc
 50
193.2680999999999
 51
195.2574999999999
  0
ARC
  5
CBF9
330
C86C
100
AcDbEntity
  8
1
  6
Continuous
100
AcDbCircle
 10
34.571176
 20
420.250138
 30
0.0
 40
0.388957
100
AcDbArc
 50
195.2574999999999
 51
270.0
  0
ARC
  5
CBFA
330
C86C
100
AcDbEntity
  8
1
  6
Continuous
100
AcDbCircle
 10
38.611529
 20
420.250138
 30
0.0
 40
0.388957
100
AcDbArc
 50
270.0
 51
344.7419999999997
  0
ARC
  5
CBFB
330
C86C
100
AcDbEntity
  8
1
  6
Continuous
100
AcDbCircle
 10
30.058738
 20
422.5821429999998
 30
0.0
 40
9.254918999999999
100
AcDbArc
 50
344.7419999999997
 51
344.794
  0
ARC
  5
CBFC
330
C86C
100
AcDbEntity
  8
1
  6
Continuous
100
AcDbCircle
 10
30.058738
 20
422.5821429999998
 30
0.0
 40
9.254918999999999
100
AcDbArc
 50
344.794
 51
347.2709999999996
  0
ARC
  5
CBFD
330
C86C
100
AcDbEntity
  8
1
  6
Continuous
100
AcDbCircle
 10
39.00940700000001
 20
420.5611769999999
 30
0.0
 40
0.077791
100
AcDbArc
 50
347.2709999999996
 51
90.0
  0
LINE
  5
CBFE
330
C86C
100
AcDbEntity
  8
1
  6
Continuous
100
AcDbLine
 10
34.571176
 20
419.8601549999998
 30
0.0
 11
38.611529
 21
419.8601549999998
 31
0.0
  0
LINE
  5
CBFF
330
C86C
100
AcDbEntity
  8
1
  6
Continuous
100
AcDbLine
 10
39.00940700000001
 20
420.638542
 30
0.0
 11
37.52368099999999
 21
420.638542
 31
0.0
  0
LINE
  5
CC00
330
C86C
100
AcDbEntity
  8
1
  6
Continuous
100
AcDbLine
 10
33.942782
 20
421.41693
 30
0.0
 11
39.239923
 21
421.41693
 31
0.0
  0
LINE
  5
CC01
330
C86C
100
AcDbEntity
  8
1
  6
Continuous
100
AcDbLine
 10
33.878048
 20
422.1937389999998
 30
0.0
 11
39.304657
 21
422.1937389999998
 31
0.0
  0
ARC
  5
CC02
330
C86C
100
AcDbEntity
  8
1
  6
Continuous
100
AcDbCircle
 10
38.508902
 20
419.005981
 30
0.0
 40
0.077791
100
AcDbArc
 50
337.0559999999998
 51
90.0
  0
ARC
  5
CC03
330
C86C
100
AcDbEntity
  8
1
  6
Continuous
100
AcDbCircle
 10
30.058738
 20
422.5821429999998
 30
0.0
 40
9.254918999999999
100
AcDbArc
 50
333.9859999999998
 51
337.0559999999998
  0
LINE
  5
CC04
330
C86C
100
AcDbEntity
  8
1
  6
Continuous
100
AcDbLine
 10
35.657445
 20
424.527323
 30
0.0
 11
34.39591999999999
 21
424.527323
 31
0.0
  0
LINE
  5
CC05
330
C86C
100
AcDbEntity
  8
1
  6
Continuous
100
AcDbLine
 10
36.590563
 20
424.527323
 30
0.0
 11
36.590563
 21
424.1389189999998
 31
0.0
  0
LINE
  5
CC06
330
C86C
100
AcDbEntity
  8
1
  6
Continuous
100
AcDbLine
 10
34.400657
 20
426.08252
 30
0.0
 11
36.202159
 21
426.08252
 31
0.0
  0
LINE
  5
CC07
330
C86C
100
AcDbEntity
  8
1
  6
Continuous
100
AcDbLine
 10
36.202159
 20
426.8609070000001
 30
0.0
 11
34.54117699999999
 21
426.8609070000001
 31
0.0
  0
LINE
  5
CC08
330
C86C
100
AcDbEntity
  8
1
  6
Continuous
100
AcDbLine
 10
36.590563
 20
426.470924
 30
0.0
 11
38.456799
 21
426.470924
 31
0.0
  0
LINE
  5
CC09
330
C86C
100
AcDbEntity
  8
1
  6
Continuous
100
AcDbLine
 10
38.04629
 20
427.2556269999998
 30
0.0
 11
34.768536
 21
428.135063
 31
0.0
  0
LINE
  5
CC0A
330
C86C
100
AcDbEntity
  8
1
  6
Continuous
100
AcDbLine
 10
36.590563
 20
429.25291
 30
0.0
 11
36.590563
 21
427.6456109999998
 31
0.0
  0
ARC
  5
CC0B
330
C86C
100
AcDbEntity
  8
1
  6
Continuous
100
AcDbCircle
 10
36.202159
 20
426.470924
 30
0.0
 40
0.388957
100
AcDbArc
 50
270.0
 51
90.0
  0
ARC
  5
CC0C
330
C86C
100
AcDbEntity
  8
1
  6
Continuous
100
AcDbCircle
 10
36.590563
 20
427.249312
 30
0.0
 40
2.004309
100
AcDbArc
 50
62.24999999999999
 51
144.462
  0
ARC
  5
CC0D
330
C86C
100
AcDbEntity
  8
1
  6
Continuous
100
AcDbCircle
 10
36.590563
 20
427.249312
 30
0.0
 40
2.004309
100
AcDbArc
 50
35.53799999999997
 51
45.69899999999999
  0
ARC
  5
CC0E
330
C86C
100
AcDbEntity
  8
1
  6
Continuous
100
AcDbCircle
 10
34.39591999999999
 20
424.1389189999998
 30
0.0
 40
0.388957
100
AcDbArc
 50
90.0
 51
169.896
  0
ARC
  5
CC0F
330
C86C
100
AcDbEntity
  8
1
  6
Continuous
100
AcDbCircle
 10
43.123968
 20
422.5821429999998
 30
0.0
 40
9.254918999999999
100
AcDbArc
 50
169.896
 51
172.2069999999999
  0
ARC
  5
CC10
330
C86C
100
AcDbEntity
  8
1
  6
Continuous
100
AcDbCircle
 10
34.031199
 20
423.8278789999998
 30
0.0
 40
0.077791
100
AcDbArc
 50
172.2069999999999
 51
270.0
  0
ARC
  5
CC11
330
C86C
100
AcDbEntity
  8
1
  6
Continuous
100
AcDbCircle
 10
38.78678499999999
 20
424.1389189999998
 30
0.0
 40
0.388957
100
AcDbArc
 50
10.10399999999999
 51
90.0
  0
ARC
  5
CC12
330
C86C
100
AcDbEntity
  8
1
  6
Continuous
100
AcDbCircle
 10
39.151506
 20
423.8278789999998
 30
0.0
 40
0.077791
100
AcDbArc
 50
270.0
 51
7.792999999999999
  0
ARC
  5
CC13
330
C86C
100
AcDbEntity
  8
1
  6
Continuous
100
AcDbCircle
 10
30.058738
 20
422.5821429999998
 30
0.0
 40
9.254918999999999
100
AcDbArc
 50
7.792999999999999
 51
10.10399999999999
  0
LINE
  5
CC14
330
C86C
100
AcDbEntity
  8
1
  6
Continuous
100
AcDbLine
 10
34.031199
 20
423.7489349999997
 30
0.0
 11
39.151506
 21
423.7489349999997
 31
0.0
  0
LINE
  5
CC15
330
C86C
100
AcDbEntity
  8
1
  6
Continuous
100
AcDbLine
 10
38.78678499999999
 20
424.527323
 30
0.0
 11
36.590563
 21
424.527323
 31
0.0
  0
LINE
  5
CC16
330
C86C
100
AcDbEntity
  8
1
  6
Continuous
100
AcDbLine
 10
34.034357
 20
425.3041319999998
 30
0.0
 11
38.903622
 21
425.3041319999998
 31
0.0
  0
LINE
  5
CC17
330
C86C
100
AcDbEntity
  8
1
  6
Continuous
100
AcDbLine
 10
36.52468599999997
 20
433.3821429999998
 30
0.0
 11
46.59135299999999
 21
425.8321429999998
 31
0.0
  0
LINE
  5
CC18
330
C86C
100
AcDbEntity
  8
1
  6
Continuous
100
AcDbLine
 10
37.12468599999999
 20
434.182143
 30
0.0
 11
46.59135299999999
 21
427.0821429999998
 31
0.0
  0
ARC
  5
CC19
330
C86C
100
AcDbEntity
  8
1
  6
Continuous
100
AcDbCircle
 10
53.291353
 20
426.7821429999997
 30
0.0
 40
0.3
100
AcDbArc
 50
0.0
 51
90.0
  0
LINE
  5
CC1A
330
C86C
100
AcDbEntity
  8
1
  6
Continuous
100
AcDbLine
 10
53.59135300000001
 20
419.4821429999998
 30
0.0
 11
53.59135300000001
 21
418.382143
 31
0.0
  0
LINE
  5
CC1B
330
C86C
100
AcDbEntity
  8
1
  6
Continuous
100
AcDbLine
 10
53.59135300000001
 20
426.7821429999997
 30
0.0
 11
53.59135300000001
 21
425.682143
 31
0.0
  0
LINE
  5
CC1C
330
C86C
100
AcDbEntity
  8
1
  6
Continuous
100
AcDbLine
 10
50.091353
 20
423.2821429999998
 30
0.0
 11
50.091353
 21
422.0821429999999
 31
0.0
  0
LINE
  5
CC1D
330
C86C
100
AcDbEntity
  8
1
  6
Continuous
100
AcDbLine
 10
70.091353
 20
419.4821429999998
 30
0.0
 11
73.433447
 21
422.61749
 31
0.0
  0
LINE
  5
CC1E
330
C86C
100
AcDbEntity
  8
1
  6
Continuous
100
AcDbLine
 10
71.091353
 20
425.682143
 30
0.0
 11
73.44437099999997
 21
423.3362309999998
 31
0.0
  0
ARC
  5
CC1F
330
C86C
100
AcDbEntity
  8
1
  6
Continuous
100
AcDbCircle
 10
73.091353
 20
422.9821429999998
 30
0.0
 40
0.5
100
AcDbArc
 50
313.1718549999998
 51
45.08664600000001
  0
LINE
  5
CC20
330
C86C
100
AcDbEntity
  8
1
  6
Continuous
100
AcDbLine
 10
205.7597379999999
 20
374.082143
 30
0.0
 11
205.7597379999999
 21
484.082143
 31
0.0
  0
LINE
  5
CC21
330
C86C
100
AcDbEntity
  8
1
  6
Continuous
100
AcDbLine
 10
203.759738
 20
374.082143
 30
0.0
 11
203.759738
 21
484.082143
 31
0.0
  0
LINE
  5
CC22
330
C86C
100
AcDbEntity
  8
1
  6
Continuous
100
AcDbLine
 10
191.259738
 20
411.0821429999998
 30
0.0
 11
203.759738
 21
411.0821429999998
 31
0.0
  0
LINE
  5
CC23
330
C86C
100
AcDbEntity
  8
1
  6
Continuous
100
AcDbLine
 10
191.259738
 20
434.082143
 30
0.0
 11
203.759738
 21
434.082143
 31
0.0
  0
LINE
  5
CC24
330
C86C
100
AcDbEntity
  8
1
  6
Continuous
100
AcDbLine
 10
191.259738
 20
426.082143
 30
0.0
 11
196.7597379999999
 21
426.082143
 31
0.0
  0
LINE
  5
CC25
330
C86C
100
AcDbEntity
  8
1
  6
Continuous
100
AcDbLine
 10
191.259738
 20
419.0821429999998
 30
0.0
 11
196.7597379999999
 21
419.0821429999998
 31
0.0
  0
LINE
  5
CC26
330
C86C
100
AcDbEntity
  8
4
  6
CENTER
100
AcDbLine
 10
183.5529339999999
 20
422.5821429999998
 30
0.0
 11
211.369527
 21
422.5821429999998
 31
0.0
  0
ARC
  5
CC27
330
C86C
100
AcDbEntity
  8
1
  6
Continuous
100
AcDbCircle
 10
227.0172379999999
 20
422.5821429999998
 30
0.0
 40
40.7575
100
AcDbArc
 50
168.1062739999999
 51
191.893726
  0
ARC
  5
CC28
330
C86C
100
AcDbEntity
  8
1
  6
Continuous
100
AcDbCircle
 10
239.212117
 20
422.5821429999998
 30
0.0
 40
52.18675499999999
100
AcDbArc
 50
171.972762
 51
188.0272379999999
  0
LINE
  5
CC29
330
C86C
100
AcDbEntity
  8
1
  6
Continuous
100
AcDbLine
 10
188.759738
 20
410.5821429999998
 30
0.0
 11
188.759738
 21
434.5821429999999
 31
0.0
  0
LINE
  5
CC2A
330
C86C
100
AcDbEntity
  8
1
  6
Continuous
100
AcDbLine
 10
191.259738
 20
408.582143
 30
0.0
 11
191.259738
 21
436.5821429999998
 31
0.0
  0
LINE
  5
CC2B
330
C86C
100
AcDbEntity
  8
1
  6
Continuous
100
AcDbLine
 10
190.2597379999999
 20
408.582143
 30
0.0
 11
190.2597379999999
 21
436.5821429999998
 31
0.0
  0
ARC
  5
CC2C
330
C86C
100
AcDbEntity
  8
1
  6
Continuous
100
AcDbCircle
 10
137.038608
 20
422.5821429999998
 30
0.0
 40
52.18675499999999
100
AcDbArc
 50
351.972762
 51
352.340524
  0
ARC
  5
CC2D
330
C86C
100
AcDbEntity
  8
1
  6
Continuous
100
AcDbCircle
 10
137.038608
 20
422.5821429999998
 30
0.0
 40
52.18675499999999
100
AcDbArc
 50
351.972762
 51
352.340524
  0
ARC
  5
CC2E
330
C86C
100
AcDbEntity
  8
1
  6
Continuous
100
AcDbCircle
 10
188.1253629999999
 20
415.3776009999998
 30
0.0
 40
0.595458
100
AcDbArc
 50
188.0272379999999
 51
351.972762
  0
LINE
  5
CC2F
330
C86C
100
AcDbEntity
  8
1
  6
Continuous
100
AcDbLine
 10
187.032693
 20
414.682143
 30
0.0
 11
188.759738
 21
414.682143
 31
0.0
  0
LINE
  5
CC30
330
C86C
100
AcDbEntity
  8
1
  6
Continuous
100
AcDbLine
 10
187.1347379999999
 20
414.182143
 30
0.0
 11
188.759738
 21
414.182143
 31
0.0
  0
LINE
  5
CC31
330
C86C
100
AcDbEntity
  8
1
  6
Continuous
100
AcDbLine
 10
190.2597379999999
 20
408.582143
 30
0.0
 11
191.259738
 21
408.582143
 31
0.0
  0
LINE
  5
CC32
330
C86C
100
AcDbEntity
  8
1
  6
Continuous
100
AcDbLine
 10
188.759738
 20
410.5821429999998
 30
0.0
 11
190.2597379999999
 21
408.582143
 31
0.0
  0
ARC
  5
CC33
330
C86C
100
AcDbEntity
  8
1
  6
Continuous
100
AcDbCircle
 10
137.038608
 20
422.5821429999998
 30
0.0
 40
52.18675499999999
100
AcDbArc
 50
7.659475999999997
 51
8.027238
  0
ARC
  5
CC34
330
C86C
100
AcDbEntity
  8
1
  6
Continuous
100
AcDbCircle
 10
188.1253629999999
 20
429.786686
 30
0.0
 40
0.595458
100
AcDbArc
 50
8.027238
 51
171.972762
  0
LINE
  5
CC35
330
C86C
100
AcDbEntity
  8
1
  6
Continuous
100
AcDbLine
 10
187.032693
 20
430.4821429999998
 30
0.0
 11
188.759738
 21
430.4821429999998
 31
0.0
  0
LINE
  5
CC36
330
C86C
100
AcDbEntity
  8
1
  6
Continuous
100
AcDbLine
 10
187.1347379999999
 20
430.9821429999998
 30
0.0
 11
188.759738
 21
430.9821429999998
 31
0.0
  0
LINE
  5
CC37
330
C86C
100
AcDbEntity
  8
1
  6
Continuous
100
AcDbLine
 10
188.759738
 20
434.5821429999999
 30
0.0
 11
190.2597379999999
 21
436.5821429999998
 31
0.0
  0
LINE
  5
CC38
330
C86C
100
AcDbEntity
  8
1
  6
Continuous
100
AcDbLine
 10
190.2597379999999
 20
436.5821429999998
 30
0.0
 11
191.259738
 21
436.5821429999998
 31
0.0
  0
LINE
  5
CC39
330
C86C
100
AcDbEntity
  8
4
  6
CENTER
100
AcDbLine
 10
202.7147429999998
 20
379.0820309999999
 30
0.0
 11
207.178682
 21
379.0820309999999
 31
0.0
  0
LINE
  5
CC3A
330
C86C
100
AcDbEntity
  8
1
  6
Continuous
100
AcDbLine
 10
203.759738
 20
374.082143
 30
0.0
 11
205.7597379999999
 21
374.082143
 31
0.0
  0
LINE
  5
CC3B
330
C86C
100
AcDbEntity
  8
1
  6
Continuous
100
AcDbLine
 10
206.8597379999999
 20
409.082143
 30
0.0
 11
206.8597379999999
 21
419.0821429999998
 31
0.0
  0
LINE
  5
CC3C
330
C86C
100
AcDbEntity
  8
1
  6
Continuous
100
AcDbLine
 10
206.0597379999999
 20
409.082143
 30
0.0
 11
206.0597379999999
 21
419.0821429999998
 31
0.0
  0
LINE
  5
CC3D
330
C86C
100
AcDbEntity
  8
4
  6
CENTER
100
AcDbLine
 10
202.259738
 20
414.0821429999999
 30
0.0
 11
211.959738
 21
414.0821429999999
 31
0.0
  0
LINE
  5
CC3E
330
C86C
100
AcDbEntity
  8
1
  6
Continuous
100
AcDbLine
 10
207.859738
 20
410.5821429999998
 30
0.0
 11
208.9791539999999
 21
410.6800789999998
 31
0.0
  0
LINE
  5
CC3F
330
C86C
100
AcDbEntity
  8
1
  6
Continuous
100
AcDbLine
 10
207.859738
 20
417.582143
 30
0.0
 11
208.9791539999999
 21
417.4842069999998
 31
0.0
  0
LINE
  5
CC40
330
C86C
100
AcDbEntity
  8
4
  6
CENTER
100
AcDbLine
 10
194.259738
 20
436.874285
 30
0.0
 11
194.259738
 21
408.290002
 31
0.0
  0
LINE
  5
CC41
330
C86C
100
AcDbEntity
  8
1
  6
Continuous
100
AcDbLine
 10
203.759738
 20
399.082143
 30
0.0
 11
205.7597379999999
 21
399.082143
 31
0.0
  0
LINE
  5
CC42
330
C86C
100
AcDbEntity
  8
1
  6
Continuous
100
AcDbLine
 10
207.859738
 20
410.282143
 30
0.0
 11
207.859738
 21
417.882143
 31
0.0
  0
LINE
  5
CC43
330
C86C
100
AcDbEntity
  8
1
  6
Continuous
100
AcDbLine
 10
206.8597379999999
 20
410.282143
 30
0.0
 11
207.859738
 21
410.282143
 31
0.0
  0
LINE
  5
CC44
330
C86C
100
AcDbEntity
  8
1
  6
Continuous
100
AcDbLine
 10
206.8597379999999
 20
417.882143
 30
0.0
 11
207.859738
 21
417.882143
 31
0.0
  0
LINE
  5
CC45
330
C86C
100
AcDbEntity
  8
1
  6
Continuous
100
AcDbLine
 10
206.8597379999999
 20
414.0821429999999
 30
0.0
 11
207.859738
 21
415.0821429999998
 31
0.0
  0
LINE
  5
CC46
330
C86C
100
AcDbEntity
  8
1
  6
Continuous
100
AcDbLine
 10
207.859738
 20
414.0821429999999
 30
0.0
 11
206.8597379999999
 21
413.082143
 31
0.0
  0
LINE
  5
CC47
330
C86C
100
AcDbEntity
  8
1
  6
Continuous
100
AcDbLine
 10
205.7597379999999
 20
411.3821429999998
 30
0.0
 11
206.0597379999999
 21
411.3821429999998
 31
0.0
  0
LINE
  5
CC48
330
C86C
100
AcDbEntity
  8
1
  6
Continuous
100
AcDbLine
 10
205.7597379999999
 20
416.782143
 30
0.0
 11
206.0597379999999
 21
416.782143
 31
0.0
  0
LINE
  5
CC49
330
C86C
100
AcDbEntity
  8
1
  6
Continuous
100
AcDbLine
 10
206.0597379999999
 20
409.082143
 30
0.0
 11
206.8597379999999
 21
409.082143
 31
0.0
  0
ARC
  5
CC4A
330
C86C
100
AcDbEntity
  8
1
  6
Continuous
100
AcDbCircle
 10
201.459738
 20
414.0821429999999
 30
0.0
 40
9.0
100
AcDbArc
 50
344.1191499999998
 51
15.88085
  0
ARC
  5
CC4B
330
C86C
100
AcDbEntity
  8
1
  6
Continuous
100
AcDbCircle
 10
208.865851
 20
411.9751319999998
 30
0.0
 40
1.3
100
AcDbArc
 50
275.0
 51
344.1191499999998
  0
ARC
  5
CC4C
330
C86C
100
AcDbEntity
  8
1
  6
Continuous
100
AcDbCircle
 10
208.865851
 20
416.189154
 30
0.0
 40
1.3
100
AcDbArc
 50
15.88085
 51
85.0
  0
LINE
  5
CC4D
330
C86C
100
AcDbEntity
  8
1
  6
Continuous
100
AcDbLine
 10
207.7597379999999
 20
425.082143
 30
0.0
 11
208.259738
 21
425.582143
 31
0.0
  0
LINE
  5
CC4E
330
C86C
100
AcDbEntity
  8
1
  6
Continuous
100
AcDbLine
 10
207.7597379999999
 20
420.0821429999998
 30
0.0
 11
208.259738
 21
419.5821429999998
 31
0.0
  0
ARC
  5
CC4F
330
C86C
100
AcDbEntity
  8
1
  6
Continuous
100
AcDbCircle
 10
207.7597379999999
 20
420.0821429999998
 30
0.0
 40
1.0
100
AcDbArc
 50
270.0
 51
0.0
  0
ARC
  5
CC50
330
C86C
100
AcDbEntity
  8
1
  6
Continuous
100
AcDbCircle
 10
207.7597379999999
 20
425.082143
 30
0.0
 40
1.0
100
AcDbArc
 50
0.0
 51
90.0
  0
LINE
  5
CC51
330
C86C
100
AcDbEntity
  8
4
  6
CENTER
100
AcDbLine
 10
202.259738
 20
431.0821429999998
 30
0.0
 11
211.959738
 21
431.0821429999998
 31
0.0
  0
LINE
  5
CC52
330
C86C
100
AcDbEntity
  8
1
  6
Continuous
100
AcDbLine
 10
207.859738
 20
434.5821429999999
 30
0.0
 11
208.9791539999999
 21
434.484207
 31
0.0
  0
LINE
  5
CC53
330
C86C
100
AcDbEntity
  8
1
  6
Continuous
100
AcDbLine
 10
207.859738
 20
427.5821429999998
 30
0.0
 11
208.9791539999999
 21
427.680079
 31
0.0
  0
ARC
  5
CC54
330
C86C
100
AcDbEntity
  8
1
  6
Continuous
100
AcDbCircle
 10
207.2597379999999
 20
420.5821429999998
 30
0.0
 40
0.5
100
AcDbArc
 50
270.0
 51
0.0
  0
ARC
  5
CC55
330
C86C
100
AcDbEntity
  8
1
  6
Continuous
100
AcDbCircle
 10
207.2597379999999
 20
424.5821429999998
 30
0.0
 40
0.5
100
AcDbArc
 50
0.0
 51
90.0
  0
LINE
  5
CC56
330
C86C
100
AcDbEntity
  8
1
  6
Continuous
100
AcDbLine
 10
207.2597379999999
 20
420.0821429999998
 30
0.0
 11
205.7597379999999
 21
420.0821429999998
 31
0.0
  0
LINE
  5
CC57
330
C86C
100
AcDbEntity
  8
1
  6
Continuous
100
AcDbLine
 10
207.2597379999999
 20
425.082143
 30
0.0
 11
205.7597379999999
 21
425.082143
 31
0.0
  0
LINE
  5
CC58
330
C86C
100
AcDbEntity
  8
1
  6
Continuous
100
AcDbLine
 10
205.7597379999999
 20
419.0821429999998
 30
0.0
 11
207.7597379999999
 21
419.0821429999998
 31
0.0
  0
LINE
  5
CC59
330
C86C
100
AcDbEntity
  8
1
  6
Continuous
100
AcDbLine
 10
207.7597379999999
 20
420.5821429999998
 30
0.0
 11
207.7597379999999
 21
424.5821429999998
 31
0.0
  0
LINE
  5
CC5A
330
C86C
100
AcDbEntity
  8
1
  6
Continuous
100
AcDbLine
 10
205.7597379999999
 20
426.082143
 30
0.0
 11
207.7597379999999
 21
426.082143
 31
0.0
  0
LINE
  5
CC5B
330
C86C
100
AcDbEntity
  8
1
  6
Continuous
100
AcDbLine
 10
206.8597379999999
 20
434.882143
 30
0.0
 11
207.859738
 21
434.882143
 31
0.0
  0
LINE
  5
CC5C
330
C86C
100
AcDbEntity
  8
1
  6
Continuous
100
AcDbLine
 10
206.8597379999999
 20
431.0821429999998
 30
0.0
 11
207.859738
 21
432.0821429999998
 31
0.0
  0
LINE
  5
CC5D
330
C86C
100
AcDbEntity
  8
1
  6
Continuous
100
AcDbLine
 10
207.859738
 20
431.0821429999998
 30
0.0
 11
206.8597379999999
 21
430.082143
 31
0.0
  0
LINE
  5
CC5E
330
C86C
100
AcDbEntity
  8
1
  6
Continuous
100
AcDbLine
 10
205.7597379999999
 20
433.7821429999998
 30
0.0
 11
206.0597379999999
 21
433.7821429999998
 31
0.0
  0
LINE
  5
CC5F
330
C86C
100
AcDbEntity
  8
1
  6
Continuous
100
AcDbLine
 10
206.0597379999999
 20
436.0821429999998
 30
0.0
 11
206.8597379999999
 21
436.0821429999998
 31
0.0
  0
LINE
  5
CC60
330
C86C
100
AcDbEntity
  8
1
  6
Continuous
100
AcDbLine
 10
206.8597379999999
 20
427.2821429999998
 30
0.0
 11
207.859738
 21
427.2821429999998
 31
0.0
  0
LINE
  5
CC61
330
C86C
100
AcDbEntity
  8
1
  6
Continuous
100
AcDbLine
 10
205.7597379999999
 20
428.3821429999998
 30
0.0
 11
206.0597379999999
 21
428.3821429999998
 31
0.0
  0
LINE
  5
CC62
330
C86C
100
AcDbEntity
  8
1
  6
Continuous
100
AcDbLine
 10
206.0597379999999
 20
426.082143
 30
0.0
 11
206.8597379999999
 21
426.082143
 31
0.0
  0
LINE
  5
CC63
330
C86C
100
AcDbEntity
  8
1
  6
Continuous
100
AcDbLine
 10
207.859738
 20
427.2821429999998
 30
0.0
 11
207.859738
 21
434.882143
 31
0.0
  0
LINE
  5
CC64
330
C86C
100
AcDbEntity
  8
1
  6
Continuous
100
AcDbLine
 10
206.8597379999999
 20
426.082143
 30
0.0
 11
206.8597379999999
 21
436.0821429999998
 31
0.0
  0
LINE
  5
CC65
330
C86C
100
AcDbEntity
  8
1
  6
Continuous
100
AcDbLine
 10
206.0597379999999
 20
426.082143
 30
0.0
 11
206.0597379999999
 21
436.0821429999998
 31
0.0
  0
LINE
  5
CC66
330
C86C
100
AcDbEntity
  8
1
  6
Continuous
100
AcDbLine
 10
206.0597379999999
 20
419.0821429999998
 30
0.0
 11
206.8597379999999
 21
419.0821429999998
 31
0.0
  0
LINE
  5
CC67
330
C86C
100
AcDbEntity
  8
1
  6
Continuous
100
AcDbLine
 10
196.7597379999999
 20
426.082143
 30
0.0
 11
197.259738
 21
425.582143
 31
0.0
  0
LINE
  5
CC68
330
C86C
100
AcDbEntity
  8
1
  6
Continuous
100
AcDbLine
 10
196.7597379999999
 20
419.0821429999998
 30
0.0
 11
197.259738
 21
419.5821429999998
 31
0.0
  0
LINE
  5
CC69
330
C86C
100
AcDbEntity
  8
1
  6
Continuous
100
AcDbLine
 10
197.259738
 20
425.582143
 30
0.0
 11
197.259738
 21
419.5821429999998
 31
0.0
  0
LINE
  5
CC6A
330
C86C
100
AcDbEntity
  8
1
  6
Continuous
100
AcDbLine
 10
196.7597379999999
 20
419.0821429999998
 30
0.0
 11
196.7597379999999
 21
426.082143
 31
0.0
  0
LINE
  5
CC6B
330
C86C
100
AcDbEntity
  8
1
  6
Continuous
100
AcDbLine
 10
208.759738
 20
420.0821429999998
 30
0.0
 11
208.759738
 21
425.082143
 31
0.0
  0
ARC
  5
CC6C
330
C86C
100
AcDbEntity
  8
1
  6
Continuous
100
AcDbCircle
 10
208.865851
 20
433.1891539999999
 30
0.0
 40
1.3
100
AcDbArc
 50
15.88085
 51
85.0
  0
ARC
  5
CC6D
330
C86C
100
AcDbEntity
  8
1
  6
Continuous
100
AcDbCircle
 10
208.865851
 20
428.9751319999998
 30
0.0
 40
1.3
100
AcDbArc
 50
275.0
 51
344.1191499999998
  0
ARC
  5
CC6E
330
C86C
100
AcDbEntity
  8
1
  6
Continuous
100
AcDbCircle
 10
201.459738
 20
431.0821429999998
 30
0.0
 40
9.0
100
AcDbArc
 50
344.1191499999998
 51
15.88085
  0
LINE
  5
CC6F
330
C86C
100
AcDbEntity
  8
1
  6
Continuous
100
AcDbLine
 10
203.759738
 20
449.0821429999998
 30
0.0
 11
205.7597379999999
 21
449.0821429999998
 31
0.0
  0
LINE
  5
CC70
330
C86C
100
AcDbEntity
  8
4
  6
CENTER
100
AcDbLine
 10
202.7147429999998
 20
442.5820309999998
 30
0.0
 11
207.178682
 21
442.5820309999998
 31
0.0
  0
LINE
  5
CC71
330
C86C
100
AcDbEntity
  8
1
  6
Continuous
100
AcDbLine
 10
203.759738
 20
474.0821429999998
 30
0.0
 11
205.7597379999999
 21
474.0821429999998
 31
0.0
  0
LINE
  5
CC72
330
C86C
100
AcDbEntity
  8
1
  6
Continuous
100
AcDbLine
 10
203.759738
 20
484.082143
 30
0.0
 11
205.7597379999999
 21
484.082143
 31
0.0
  0
LINE
  5
CC82
330
C86C
100
AcDbEntity
  8
1
  6
Continuous
100
AcDbLine
 10
568.1597379999998
 20
217.582143
 30
0.0
 11
568.1597379999998
 21
330.5821429999998
 31
0.0
  0
LINE
  5
CC83
330
C86C
100
AcDbEntity
  8
1
  6
Continuous
100
AcDbLine
 10
565.659738
 20
215.582143
 30
0.0
 11
565.659738
 21
332.5821429999998
 31
0.0
  0
LINE
  5
CC84
330
C86C
100
AcDbEntity
  8
1
  6
Continuous
100
AcDbLine
 10
566.6597379999998
 20
215.582143
 30
0.0
 11
566.6597379999998
 21
332.5821429999998
 31
0.0
  0
LINE
  5
CC85
330
C86C
100
AcDbEntity
  8
1
  6
Continuous
100
AcDbLine
 10
553.6597379999998
 20
229.082143
 30
0.0
 11
553.6597379999998
 21
302.5821429999998
 31
0.0
  0
LINE
  5
CC86
330
C86C
100
AcDbEntity
  8
1
  6
Continuous
100
AcDbLine
 10
566.6597379999998
 20
215.582143
 30
0.0
 11
565.659738
 21
215.582143
 31
0.0
  0
LINE
  5
CC87
330
C86C
100
AcDbEntity
  8
4
  6
CENTER
100
AcDbLine
 10
570.8067019999997
 20
221.582143
 30
0.0
 11
558.5412340000001
 21
221.582143
 31
0.0
  0
LINE
  5
CC88
330
C86C
100
AcDbEntity
  8
1
  6
Continuous
100
AcDbLine
 10
559.6597379999998
 20
224.582143
 30
0.0
 11
559.6597379999998
 21
218.582143
 31
0.0
  0
LINE
  5
CC89
330
C86C
100
AcDbEntity
  8
1
  6
Continuous
100
AcDbLine
 10
560.1597379999998
 20
218.082143
 30
0.0
 11
560.1597379999998
 21
225.082143
 31
0.0
  0
LINE
  5
CC8A
330
C86C
100
AcDbEntity
  8
1
  6
Continuous
100
AcDbLine
 10
559.6597379999998
 20
218.582143
 30
0.0
 11
560.1597379999998
 21
218.082143
 31
0.0
  0
LINE
  5
CC8B
330
C86C
100
AcDbEntity
  8
1
  6
Continuous
100
AcDbLine
 10
565.659738
 20
218.082143
 30
0.0
 11
560.1597379999998
 21
218.082143
 31
0.0
  0
LINE
  5
CC8C
330
C86C
100
AcDbEntity
  8
1
  6
Continuous
100
AcDbLine
 10
554.7597379999998
 20
226.590156
 30
0.0
 11
554.7597379999998
 21
248.582143
 31
0.0
  0
LINE
  5
CC8D
330
C86C
100
AcDbEntity
  8
1
  6
Continuous
100
AcDbLine
 10
554.6597379999998
 20
229.082143
 30
0.0
 11
554.6597379999998
 21
248.582143
 31
0.0
  0
LINE
  5
CC8E
330
C86C
100
AcDbEntity
  8
1
  6
Continuous
100
AcDbLine
 10
554.9597380000001
 20
226.790855
 30
0.0
 11
554.9597380000001
 21
248.582143
 31
0.0
  0
LINE
  5
CC8F
330
C86C
100
AcDbEntity
  8
1
  6
Continuous
100
AcDbLine
 10
560.1597379999998
 20
225.082143
 30
0.0
 11
559.6597379999998
 21
224.582143
 31
0.0
  0
ARC
  5
CC90
330
C86C
100
AcDbEntity
  8
1
  6
Continuous
100
AcDbCircle
 10
554.7786499999997
 20
226.644712
 30
0.0
 40
0.057741
100
AcDbArc
 50
250.881291
 51
266.3382159999998
  0
ARC
  5
CC91
330
C86C
100
AcDbEntity
  8
1
  6
Continuous
100
AcDbCircle
 10
554.8551200000003
 20
227.561319
 30
0.0
 40
0.9775229999999998
100
AcDbArc
 50
265.296374
 51
267.8422649999999
  0
ARC
  5
CC92
330
C86C
100
AcDbEntity
  8
1
  6
Continuous
100
AcDbCircle
 10
554.9318940000001
 20
229.6144109999999
 30
0.0
 40
3.032049
100
AcDbArc
 50
267.853245
 51
269.079821
  0
ARC
  5
CC93
330
C86C
100
AcDbEntity
  8
1
  6
Continuous
100
AcDbCircle
 10
554.9593760000001
 20
231.3385849999999
 30
0.0
 40
4.756441999999998
100
AcDbArc
 50
269.082363
 51
270.004362
  0
ARC
  5
CC94
330
C86C
100
AcDbEntity
  8
1
  6
Continuous
100
AcDbCircle
 10
554.9581839999998
 20
226.310096
 30
0.0
 40
0.480762
100
AcDbArc
 50
89.81485000000004
 51
98.97294299999998
  0
ARC
  5
CC95
330
C86C
100
AcDbEntity
  8
1
  6
Continuous
100
AcDbCircle
 10
554.9274190000001
 20
226.479584
 30
0.0
 40
0.308575
100
AcDbArc
 50
98.23876699999999
 51
110.705934
  0
ARC
  5
CC96
330
C86C
100
AcDbEntity
  8
1
  6
Continuous
100
AcDbCircle
 10
554.857448
 20
226.6505089999999
 30
0.0
 40
0.124052
100
AcDbArc
 50
108.38772
 51
131.6767979999999
  0
ARC
  5
CC97
330
C86C
100
AcDbEntity
  8
1
  6
Continuous
100
AcDbCircle
 10
554.7978160000001
 20
226.712694
 30
0.0
 40
0.038088
100
AcDbArc
 50
126.8710139999999
 51
178.638101
  0
LINE
  5
CC98
330
C86C
100
AcDbEntity
  8
1
  6
Continuous
100
AcDbLine
 10
553.6597379999998
 20
229.082143
 30
0.0
 11
554.6597379999998
 21
229.082143
 31
0.0
  0
LINE
  5
CC99
330
C86C
100
AcDbEntity
  8
1
  6
Continuous
100
AcDbLine
 10
554.6597379999998
 20
241.982143
 30
0.0
 11
554.7597379999998
 21
241.982143
 31
0.0
  0
LINE
  5
CC9A
330
C86C
100
AcDbEntity
  8
1
  6
Continuous
100
AcDbLine
 10
554.7597379999998
 20
241.582143
 30
0.0
 11
554.6597379999998
 21
241.582143
 31
0.0
  0
LINE
  5
CC9B
330
C86C
100
AcDbEntity
  8
1
  6
Continuous
100
AcDbLine
 10
554.7597379999998
 20
241.582143
 30
0.0
 11
554.7597379999998
 21
241.982143
 31
0.0
  0
LINE
  5
CC9C
330
C86C
100
AcDbEntity
  8
1
  6
Continuous
100
AcDbLine
 10
554.7597379999998
 20
237.582143
 30
0.0
 11
554.6597379999998
 21
237.582143
 31
0.0
  0
LINE
  5
CC9D
330
C86C
100
AcDbEntity
  8
1
  6
Continuous
100
AcDbLine
 10
565.659738
 20
226.582143
 30
0.0
 11
554.9597380000001
 21
226.582143
 31
0.0
  0
LINE
  5
CC9E
330
C86C
100
AcDbEntity
  8
1
  6
Continuous
100
AcDbLine
 10
565.659738
 20
225.082143
 30
0.0
 11
560.1597379999998
 21
225.082143
 31
0.0
  0
LINE
  5
CC9F
330
C86C
100
AcDbEntity
  8
1
  6
Continuous
100
AcDbLine
 10
554.6597379999998
 20
244.582143
 30
0.0
 11
554.7597379999998
 21
244.582143
 31
0.0
  0
LINE
  5
CCA0
330
C86C
100
AcDbEntity
  8
1
  6
Continuous
100
AcDbLine
 10
554.6597379999998
 20
245.407089
 30
0.0
 11
554.7597379999998
 21
245.407089
 31
0.0
  0
LINE
  5
CCA1
330
C86C
100
AcDbEntity
  8
1
  6
Continuous
100
AcDbLine
 10
554.7597379999998
 20
247.003733
 30
0.0
 11
554.6597379999998
 21
247.003733
 31
0.0
  0
LINE
  5
CCA2
330
C86C
100
AcDbEntity
  8
1
  6
Continuous
100
AcDbLine
 10
554.7597379999998
 20
247.382143
 30
0.0
 11
554.6597379999998
 21
247.382143
 31
0.0
  0
LINE
  5
CCA3
330
C86C
100
AcDbEntity
  8
1
  6
Continuous
100
AcDbLine
 10
554.9597380000001
 20
248.582143
 30
0.0
 11
553.6597379999998
 21
248.582143
 31
0.0
  0
LINE
  5
CCA4
330
C86C
100
AcDbEntity
  8
4
  6
CENTER
100
AcDbLine
 10
550.7554020000001
 20
246.082143
 30
0.0
 11
557.7022690000001
 21
246.082143
 31
0.0
  0
LINE
  5
CCA5
330
C86C
100
AcDbEntity
  8
1
  6
Continuous
100
AcDbLine
 10
568.1597379999998
 20
217.582143
 30
0.0
 11
566.6597379999998
 21
215.582143
 31
0.0
  0
LINE
  5
CCA6
330
C86C
100
AcDbEntity
  8
1
  6
Continuous
100
AcDbLine
 10
570.6597379999998
 20
224.582143
 30
0.0
 11
568.1597379999998
 21
248.582143
 31
0.0
  0
LINE
  5
CCA7
330
C86C
100
AcDbEntity
  8
1
  6
Continuous
100
AcDbLine
 10
568.4597380000001
 20
238.982143
 30
0.0
 11
568.4597380000001
 21
225.082143
 31
0.0
  0
LINE
  5
CCA8
330
C86C
100
AcDbEntity
  8
1
  6
Continuous
100
AcDbLine
 10
568.2597379999997
 20
230.582143
 30
0.0
 11
568.2597379999997
 21
224.782143
 31
0.0
  0
ARC
  5
CCA9
330
C86C
100
AcDbEntity
  8
1
  6
Continuous
100
AcDbCircle
 10
568.4597380000001
 20
224.782143
 30
0.0
 40
0.2
100
AcDbArc
 50
180.0
 51
270.0
  0
ARC
  5
CCAA
330
C86C
100
AcDbEntity
  8
1
  6
Continuous
100
AcDbCircle
 10
568.9597380000001
 20
225.082143
 30
0.0
 40
0.5
100
AcDbArc
 50
180.0
 51
270.0
  0
LINE
  5
CCAB
330
C86C
100
AcDbEntity
  8
1
  6
Continuous
100
AcDbLine
 10
570.6597379999998
 20
224.582143
 30
0.0
 11
568.4597380000001
 21
224.582143
 31
0.0
  0
LINE
  5
CCAC
330
C86C
100
AcDbEntity
  8
1
  6
Continuous
100
AcDbLine
 10
568.4597380000001
 20
230.582143
 30
0.0
 11
568.1597379999998
 21
230.582143
 31
0.0
  0
LINE
  5
CCAD
330
C86C
100
AcDbEntity
  8
1
  6
Continuous
100
AcDbLine
 10
566.6597379999998
 20
332.5821429999998
 30
0.0
 11
565.659738
 21
332.5821429999998
 31
0.0
  0
LINE
  5
CCAE
330
C86C
100
AcDbEntity
  8
4
  6
CENTER
100
AcDbLine
 10
570.8067019999997
 20
326.5821429999998
 30
0.0
 11
558.1597379999998
 21
326.5821429999998
 31
0.0
  0
LINE
  5
CCAF
330
C86C
100
AcDbEntity
  8
1
  6
Continuous
100
AcDbLine
 10
549.0597380000001
 20
307.5821429999998
 30
0.0
 11
550.0597380000001
 21
308.5821429999998
 31
0.0
  0
LINE
  5
CCB0
330
C86C
100
AcDbEntity
  8
1
  6
Continuous
100
AcDbLine
 10
551.1597379999998
 20
297.5821429999998
 30
0.0
 11
551.1597379999998
 21
332.5821429999998
 31
0.0
  0
LINE
  5
CCB1
330
C86C
100
AcDbEntity
  8
1
  6
Continuous
100
AcDbLine
 10
549.0597380000001
 20
303.782143
 30
0.0
 11
549.0597380000001
 21
311.3821429999998
 31
0.0
  0
ARC
  5
CCB2
330
C86C
100
AcDbEntity
  8
1
  6
Continuous
100
AcDbCircle
 10
555.4597380000001
 20
307.5821429999998
 30
0.0
 40
9.0
100
AcDbArc
 50
164.1191499999998
 51
195.88085
  0
LINE
  5
CCB3
330
C86C
100
AcDbEntity
  8
1
  6
Continuous
100
AcDbLine
 10
550.0597380000001
 20
302.5821429999998
 30
0.0
 11
550.0597380000001
 21
312.5821429999998
 31
0.0
  0
LINE
  5
CCB4
330
C86C
100
AcDbEntity
  8
1
  6
Continuous
100
AcDbLine
 10
550.8597380000001
 20
302.5821429999998
 30
0.0
 11
550.8597380000001
 21
312.5821429999998
 31
0.0
  0
LINE
  5
CCB5
330
C86C
100
AcDbEntity
  8
1
  6
Continuous
100
AcDbLine
 10
553.159738
 20
297.5821429999998
 30
0.0
 11
553.159738
 21
332.5821429999998
 31
0.0
  0
LINE
  5
CCB6
330
C86C
100
AcDbEntity
  8
1
  6
Continuous
100
AcDbLine
 10
550.8597380000001
 20
302.5821429999998
 30
0.0
 11
550.0597380000001
 21
302.5821429999998
 31
0.0
  0
ARC
  5
CCB7
330
C86C
100
AcDbEntity
  8
1
  6
Continuous
100
AcDbCircle
 10
548.053625
 20
305.4751319999998
 30
0.0
 40
1.3
100
AcDbArc
 50
195.88085
 51
265.0
  0
LINE
  5
CCB8
330
C86C
100
AcDbEntity
  8
1
  6
Continuous
100
AcDbLine
 10
550.0597380000001
 20
303.782143
 30
0.0
 11
549.0597380000001
 21
303.782143
 31
0.0
  0
LINE
  5
CCB9
330
C86C
100
AcDbEntity
  8
1
  6
Continuous
100
AcDbLine
 10
549.0597380000001
 20
304.0821429999998
 30
0.0
 11
547.9403219999998
 21
304.1800789999998
 31
0.0
  0
LINE
  5
CCBA
330
C86C
100
AcDbEntity
  8
1
  6
Continuous
100
AcDbLine
 10
550.0597380000001
 20
307.5821429999998
 30
0.0
 11
549.0597380000001
 21
306.5821429999998
 31
0.0
  0
LINE
  5
CCBB
330
C86C
100
AcDbEntity
  8
1
  6
Continuous
100
AcDbLine
 10
553.159738
 20
307.5821429999998
 30
0.0
 11
551.1597379999998
 21
307.5821429999998
 31
0.0
  0
LINE
  5
CCBC
330
C86C
100
AcDbEntity
  8
1
  6
Continuous
100
AcDbLine
 10
553.159738
 20
297.5821429999998
 30
0.0
 11
551.1597379999998
 21
297.5821429999998
 31
0.0
  0
LINE
  5
CCBD
330
C86C
100
AcDbEntity
  8
1
  6
Continuous
100
AcDbLine
 10
553.6597379999998
 20
300.5821429999998
 30
0.0
 11
553.159738
 21
300.5821429999998
 31
0.0
  0
LINE
  5
CCBE
330
C86C
100
AcDbEntity
  8
1
  6
Continuous
100
AcDbLine
 10
551.1597379999998
 20
304.8821429999998
 30
0.0
 11
550.8597380000001
 21
304.8821429999998
 31
0.0
  0
LINE
  5
CCBF
330
C86C
100
AcDbEntity
  8
1
  6
Continuous
100
AcDbLine
 10
560.1597379999998
 20
323.0821429999998
 30
0.0
 11
560.1597379999998
 21
330.0821429999998
 31
0.0
  0
LINE
  5
CCC0
330
C86C
100
AcDbEntity
  8
1
  6
Continuous
100
AcDbLine
 10
560.1597379999998
 20
330.0821429999998
 30
0.0
 11
559.6597379999998
 21
329.5821429999998
 31
0.0
  0
LINE
  5
CCC1
330
C86C
100
AcDbEntity
  8
1
  6
Continuous
100
AcDbLine
 10
550.8597380000001
 20
312.5821429999998
 30
0.0
 11
550.0597380000001
 21
312.5821429999998
 31
0.0
  0
LINE
  5
CCC2
330
C86C
100
AcDbEntity
  8
1
  6
Continuous
100
AcDbLine
 10
549.1597379999998
 20
318.5821429999998
 30
0.0
 11
551.1597379999998
 21
318.5821429999998
 31
0.0
  0
LINE
  5
CCC3
330
C86C
100
AcDbEntity
  8
4
  6
CENTER
100
AcDbLine
 10
554.6597379999998
 20
327.5821429999998
 30
0.0
 11
549.6597379999998
 21
327.5821429999998
 31
0.0
  0
LINE
  5
CCC4
330
C86C
100
AcDbEntity
  8
1
  6
Continuous
100
AcDbLine
 10
548.1597379999998
 20
317.5821429999998
 30
0.0
 11
548.1597379999998
 21
313.185875
 31
0.0
  0
ARC
  5
CCC5
330
C86C
100
AcDbEntity
  8
1
  6
Continuous
100
AcDbCircle
 10
548.053625
 20
309.6891539999998
 30
0.0
 40
1.3
100
AcDbArc
 50
95.0
 51
164.1191499999998
  0
ARC
  5
CCC6
330
C86C
100
AcDbEntity
  8
1
  6
Continuous
100
AcDbCircle
 10
549.1597379999998
 20
313.185875
 30
0.0
 40
1.0
100
AcDbArc
 50
180.0
 51
242.2414589999999
  0
LINE
  5
CCC7
330
C86C
100
AcDbEntity
  8
1
  6
Continuous
100
AcDbLine
 10
550.0597380000001
 20
311.3821429999998
 30
0.0
 11
549.0597380000001
 21
311.3821429999998
 31
0.0
  0
LINE
  5
CCC8
330
C86C
100
AcDbEntity
  8
1
  6
Continuous
100
AcDbLine
 10
549.0597380000001
 20
311.0821429999998
 30
0.0
 11
547.9403219999998
 21
310.9842069999999
 31
0.0
  0
LINE
  5
CCC9
330
C86C
100
AcDbEntity
  8
1
  6
Continuous
100
AcDbLine
 10
550.0597380000001
 20
311.582143
 30
0.0
 11
548.6939910000001
 21
312.3009569999998
 31
0.0
  0
ARC
  5
CCCA
330
C86C
100
AcDbEntity
  8
1
  6
Continuous
100
AcDbCircle
 10
549.1597379999998
 20
317.5821429999998
 30
0.0
 40
1.0
100
AcDbArc
 50
90.0
 51
180.0
  0
LINE
  5
CCCB
330
C86C
100
AcDbEntity
  8
1
  6
Continuous
100
AcDbLine
 10
559.6597379999998
 20
329.5821429999998
 30
0.0
 11
559.6597379999998
 21
323.5821429999998
 31
0.0
  0
LINE
  5
CCCC
330
C86C
100
AcDbEntity
  8
1
  6
Continuous
100
AcDbLine
 10
560.1597379999998
 20
323.0821429999998
 30
0.0
 11
559.6597379999998
 21
323.5821429999998
 31
0.0
  0
LINE
  5
CCCD
330
C86C
100
AcDbEntity
  8
1
  6
Continuous
100
AcDbLine
 10
551.1597379999998
 20
310.282143
 30
0.0
 11
550.8597380000001
 21
310.282143
 31
0.0
  0
LINE
  5
CCCE
330
C86C
100
AcDbEntity
  8
1
  6
Continuous
100
AcDbLine
 10
551.1597379999998
 20
311.003196
 30
0.0
 11
550.8597380000001
 21
311.16109
 31
0.0
  0
LINE
  5
CCCF
330
C86C
100
AcDbEntity
  8
1
  6
Continuous
100
AcDbLine
 10
553.159738
 20
317.5821429999998
 30
0.0
 11
551.1597379999998
 21
317.5821429999998
 31
0.0
  0
LINE
  5
CCD0
330
C86C
100
AcDbEntity
  8
1
  6
Continuous
100
AcDbLine
 10
565.659738
 20
321.5821429999998
 30
0.0
 11
553.159738
 21
321.5821429999998
 31
0.0
  0
LINE
  5
CCD1
330
C86C
100
AcDbEntity
  8
1
  6
Continuous
100
AcDbLine
 10
565.659738
 20
323.0821429999998
 30
0.0
 11
560.1597379999998
 21
323.0821429999998
 31
0.0
  0
LINE
  5
CCD2
330
C86C
100
AcDbEntity
  8
1
  6
Continuous
100
AcDbLine
 10
553.159738
 20
332.5821429999998
 30
0.0
 11
551.1597379999998
 21
332.5821429999998
 31
0.0
  0
LINE
  5
CCD3
330
C86C
100
AcDbEntity
  8
1
  6
Continuous
100
AcDbLine
 10
565.659738
 20
330.0821429999998
 30
0.0
 11
560.1597379999998
 21
330.0821429999998
 31
0.0
  0
LINE
  5
CCEB
330
C86C
100
AcDbEntity
  8
1
  6
Continuous
100
AcDbLine
 10
568.1597379999998
 20
330.5821429999998
 30
0.0
 11
566.6597379999998
 21
332.5821429999998
 31
0.0
  0
LINE
  5
CCEC
330
C86C
100
AcDbEntity
  8
4
  6
CENTER
100
AcDbLine
 10
189.7597379999999
 20
307.5821429999888
 30
0.0
 11
211.959738
 21
307.5821430000082
 31
0.0
  0
CIRCLE
  5
CCED
330
C86C
100
AcDbEntity
  8
1
  6
Continuous
100
AcDbCircle
 10
194.2597379999999
 20
307.5821429999928
 30
0.0
 40
3.0
  0
LINE
  5
CCEE
330
C86C
100
AcDbEntity
  8
4
  6
CENTER
100
AcDbLine
 10
194.2597379999999
 20
312.0821429999927
 30
0.0
 11
194.2597379999999
 21
303.0821429999928
 31
0.0
  0
LINE
  5
CCEF
330
C86C
100
AcDbEntity
  8
1
  6
Continuous
100
AcDbLine
 10
192.6014256048188
 20
305.082142999995
 30
0.0
 11
191.2597379999994
 21
305.0821429999968
 31
0.0
  0
LINE
  5
CCF0
330
C86C
100
AcDbEntity
  8
1
  6
Continuous
100
AcDbLine
 10
194.259738
 20
304.5821429999928
 30
0.0
 11
191.2597379999985
 21
304.5821429999969
 31
0.0
  0
LINE
  5
CCF1
330
C86C
100
AcDbEntity
  8
1
  6
Continuous
100
AcDbLine
 10
192.6014256048255
 20
310.0821429999951
 30
0.0
 11
191.2597380000064
 21
310.0821429999967
 31
0.0
  0
LINE
  5
CCF2
330
C86C
100
AcDbEntity
  8
1
  6
Continuous
100
AcDbLine
 10
194.2597379999999
 20
310.5821429999928
 30
0.0
 11
191.2597379999985
 21
310.5821429999896
 31
0.0
  0
LINE
  5
CCF3
330
C86C
100
AcDbEntity
  8
4
  6
CENTER
100
AcDbLine
 10
567.1597379999998
 20
307.5821429999888
 30
0.0
 11
544.959738
 21
307.5821430000082
 31
0.0
  0
CIRCLE
  5
CCF4
330
C86C
100
AcDbEntity
  8
1
  6
Continuous
100
AcDbCircle
 10
562.6597379999998
 20
307.5821429999928
 30
0.0
 40
2.0
  0
LINE
  5
CCF5
330
C86C
100
AcDbEntity
  8
4
  6
CENTER
100
AcDbLine
 10
562.6597379999998
 20
312.0821429999927
 30
0.0
 11
562.6597379999998
 21
303.0821429999928
 31
0.0
  0
LINE
  5
CD35
330
C86C
100
AcDbEntity
  8
1
  6
Continuous
100
AcDbLine
 10
232.8286180000012
 20
216.7321039999955
 30
0.0
 11
233.328618000003
 21
216.7321039999959
 31
0.0
  0
LINE
  5
CD37
330
C86C
100
AcDbEntity
  8
1
  6
Continuous
100
AcDbLine
 10
232.8286179999947
 20
226.4321039999956
 30
0.0
 11
233.3286179999965
 21
226.432103999996
 31
0.0
  0
LINE
  5
CD38
330
C86C
100
AcDbEntity
  8
1
  6
Continuous
100
AcDbLine
 10
232.8286180000012
 20
216.7321039999955
 30
0.0
 11
232.8286180000322
 21
226.4321039999956
 31
0.0
  0
LINE
  5
CD39
330
C86C
100
AcDbEntity
  8
1
  6
Continuous
100
AcDbLine
 10
239.328617999997
 20
217.7821039999999
 30
0.0
 11
239.3286180000029
 21
225.382104
 31
0.0
  0
LINE
  5
CD3A
330
C86C
100
AcDbEntity
  8
1
  6
Continuous
100
AcDbLine
 10
233.3286180000012
 20
216.7321039999939
 30
0.0
 11
233.3286180000322
 21
226.432103999996
 31
0.0
  0
ARC
  5
CD3B
330
C86C
100
AcDbEntity
  8
1
  6
Continuous
100
AcDbCircle
 10
238.8286179999919
 20
225.3321039999962
 30
0.0
 40
0.5
100
AcDbArc
 50
0.0000000000781399
 51
85.23635830928297
  0
ARC
  5
CD3C
330
C86C
100
AcDbEntity
  8
1
  6
Continuous
100
AcDbCircle
 10
233.7037791291748
 20
226.7626401207961
 30
0.0
 40
0.5
100
AcDbArc
 50
221.3816993826119
 51
265.236358309283
  0
LINE
  5
CD3D
330
C86C
100
AcDbEntity
  8
1
  6
Continuous
100
AcDbLine
 10
233.6622563892481
 20
226.2643672416736
 30
0.0
 11
238.8701407399187
 21
225.8303768791185
 31
0.0
  0
ARC
  5
CD3E
330
C86C
100
AcDbEntity
  8
1
  6
Continuous
100
AcDbCircle
 10
238.828617999997
 20
217.832104000003
 30
0.0
 40
0.5
100
AcDbArc
 50
274.7636416907937
 51
0.0
  0
ARC
  5
CD3F
330
C86C
100
AcDbEntity
  8
1
  6
Continuous
100
AcDbCircle
 10
233.7037791291818
 20
216.4015678791962
 30
0.0
 40
0.5
100
AcDbArc
 50
94.76364169079374
 51
138.6183006174653
  0
LINE
  5
CD40
330
C86C
100
AcDbEntity
  8
1
  6
Continuous
100
AcDbLine
 10
233.6622563892544
 20
216.8998407583186
 30
0.0
 11
238.8701407399244
 21
217.3338311208806
 31
0.0
  0
ARC
  5
CD42
330
C86C
100
AcDbEntity
  8
1
  6
Continuous
100
AcDbCircle
 10
372.9597380000008
 20
221.5821430000036
 30
0.0
 40
4.850000000015738
100
AcDbArc
 50
90.0
 51
270.0
  0
ARC
  5
CD44
330
C86C
100
AcDbEntity
  8
1
  6
Continuous
100
AcDbCircle
 10
374.959737999999
 20
221.5821430000022
 30
0.0
 40
4.850000000015738
100
AcDbArc
 50
270.0
 51
90.0
  0
ARC
  5
CD45
330
C86C
100
AcDbEntity
  8
1
  6
Continuous
100
AcDbCircle
 10
374.959737999999
 20
221.5821430000022
 30
0.0
 40
3.749999999980401
100
AcDbArc
 50
270.0
 51
90.0
  0
LINE
  5
CD46
330
C86C
100
AcDbEntity
  8
1
  6
Continuous
100
AcDbLine
 10
374.9597380000015
 20
225.3321429999826
 30
0.0
 11
372.9597380000035
 21
225.3321429999839
 31
0.0
  0
LINE
  5
CD47
330
C86C
100
AcDbEntity
  8
1
  6
Continuous
100
AcDbLine
 10
374.9597379999965
 20
217.8321430000218
 30
0.0
 11
372.9597379999983
 21
217.8321430000231
 31
0.0
  0
ARC
  5
CD49
330
C86C
100
AcDbEntity
  8
1
  6
Continuous
100
AcDbCircle
 10
372.9597380000008
 20
221.5821430000036
 30
0.0
 40
3.749999999980401
100
AcDbArc
 50
90.0
 51
270.0
  0
LINE
  5
CD4A
330
C86C
100
AcDbEntity
  8
1
  6
Continuous
100
AcDbLine
 10
374.9597379999958
 20
216.7321429999864
 30
0.0
 11
372.9597379999976
 21
216.7321429999879
 31
0.0
  0
LINE
  5
CD4B
330
C86C
100
AcDbEntity
  8
1
  6
Continuous
100
AcDbLine
 10
374.9597380000023
 20
226.432143000018
 30
0.0
 11
372.9597380000041
 21
226.4321430000193
 31
0.0
  0
LINE
  5
CD4C
330
C86C
100
AcDbEntity
  8
1
  6
Continuous
100
AcDbLine
 10
233.8286189999991
 20
108.3500400000058
 30
0.0
 11
233.8286190000342
 21
96.65004000000401
 31
0.0
  0
LINE
  5
CD4D
330
C86C
100
AcDbEntity
  8
1
  6
Continuous
100
AcDbLine
 10
234.1622573892522
 20
108.1823032416811
 30
0.0
 11
239.3701417399221
 21
107.7483128791191
 31
0.0
  0
LINE
  5
CD4E
330
C86C
100
AcDbEntity
  8
1
  6
Continuous
100
AcDbLine
 10
233.3286189999992
 20
108.3500400000042
 30
0.0
 11
233.3286190000341
 21
96.65004000000436
 31
0.0
  0
LINE
  5
CD4F
330
C86C
100
AcDbEntity
  8
1
  6
Continuous
100
AcDbLine
 10
233.3286189999992
 20
108.3500400000042
 30
0.0
 11
233.8286189999993
 21
108.3500400000039
 31
0.0
  0
ARC
  5
CD50
330
C86C
100
AcDbEntity
  8
1
  6
Continuous
100
AcDbCircle
 10
234.2037801291797
 20
108.6805761208035
 30
0.0
 40
0.5
100
AcDbArc
 50
221.3816993825473
 51
265.2363583092061
  0
LINE
  5
CD51
330
C86C
100
AcDbEntity
  8
1
  6
Continuous
100
AcDbLine
 10
233.3286189999913
 20
96.65004000000436
 30
0.0
 11
233.8286189999914
 21
96.65004000000401
 31
0.0
  0
LINE
  5
CD53
330
C86C
100
AcDbEntity
  8
1
  6
Continuous
100
AcDbLine
 10
239.8286189999947
 20
107.2500399999972
 30
0.0
 11
239.828619000005
 21
97.75003999999732
 31
0.0
  0
ARC
  5
CD54
330
C86C
100
AcDbEntity
  8
1
  6
Continuous
100
AcDbCircle
 10
239.3286189999948
 20
107.2500399999967
 30
0.0
 40
0.5
100
AcDbArc
 50
0.0
 51
85.23635830920619
  0
ARC
  5
CD55
330
C86C
100
AcDbEntity
  8
1
  6
Continuous
100
AcDbCircle
 10
239.328618999994
 20
97.75004000000368
 30
0.0
 40
0.5
100
AcDbArc
 50
274.7636416907169
 51
359.9999999999218
  0
ARC
  5
CD56
330
C86C
100
AcDbEntity
  8
1
  6
Continuous
100
AcDbCircle
 10
234.2037801291714
 20
96.3195038792039
 30
0.0
 40
0.5
100
AcDbArc
 50
94.76364169071695
 51
138.6183006173753
  0
LINE
  5
CD57
330
C86C
100
AcDbEntity
  8
1
  6
Continuous
100
AcDbLine
 10
234.1622573892446
 20
96.8177767583257
 30
0.0
 11
239.3701417399208
 21
97.25176712088121
 31
0.0
  0
ARC
  5
CF6A
330
C86C
100
AcDbEntity
  8
1
  6
Continuous
100
AcDbCircle
 10
240.334718
 20
328.6891039999997
 30
0.0
 40
1.3
100
AcDbArc
 50
15.8808
 51
84.99990000000002
  0
ARC
  5
CF6B
330
C86C
100
AcDbEntity
  8
1
  6
Continuous
100
AcDbCircle
 10
240.334718
 20
324.4751039999997
 30
0.0
 40
1.3
100
AcDbArc
 50
275.0
 51
344.1190000000001
  0
LINE
  5
CF6C
330
C86C
100
AcDbEntity
  8
4
  6
CENTER
100
AcDbLine
 10
229.8286180000168
 20
326.5821039999997
 30
0.0
 11
244.928618
 21
326.5821039999997
 31
0.0
  0
LINE
  5
CF6F
330
C86C
100
AcDbEntity
  8
1
  6
Continuous
100
AcDbLine
 10
233.3286180000012
 20
321.7321039999937
 30
0.0
 11
233.3286180000322
 21
331.4321039999958
 31
0.0
  0
LINE
  5
CF70
330
C86C
100
AcDbEntity
  8
1
  6
Continuous
100
AcDbLine
 10
239.328617999997
 20
322.7821039999998
 30
0.0
 11
239.3286180000029
 21
330.3821039999998
 31
0.0
  0
LINE
  5
CF71
330
C86C
100
AcDbEntity
  8
1
  6
Continuous
100
AcDbLine
 10
232.8286180000012
 20
321.7321039999954
 30
0.0
 11
232.8286180000322
 21
331.4321039999954
 31
0.0
  0
ARC
  5
CF72
330
C86C
100
AcDbEntity
  8
1
  6
Continuous
100
AcDbCircle
 10
233.7037791291818
 20
321.401567879196
 30
0.0
 40
0.5
100
AcDbArc
 50
94.76364169079374
 51
138.6183006174653
  0
LINE
  5
CF73
330
C86C
100
AcDbEntity
  8
1
  6
Continuous
100
AcDbLine
 10
232.8286180000012
 20
321.7321039999954
 30
0.0
 11
233.328618000003
 21
321.7321039999957
 31
0.0
  0
LINE
  5
CF74
330
C86C
100
AcDbEntity
  8
1
  6
Continuous
100
AcDbLine
 10
240.448018
 20
323.1801039999997
 30
0.0
 11
239.3286179999999
 21
323.0821039999998
 31
0.0
  0
LINE
  5
CF75
330
C86C
100
AcDbEntity
  8
1
  6
Continuous
100
AcDbLine
 10
233.6622563892544
 20
321.8998407583185
 30
0.0
 11
238.8701407399244
 21
322.3338311208805
 31
0.0
  0
ARC
  5
CF76
330
C86C
100
AcDbEntity
  8
1
  6
Continuous
100
AcDbCircle
 10
238.828617999997
 20
322.8321040000029
 30
0.0
 40
0.5
100
AcDbArc
 50
274.7636416907937
 51
0.0
  0
ARC
  5
CF77
330
C86C
100
AcDbEntity
  8
1
  6
Continuous
100
AcDbCircle
 10
233.7037791291748
 20
331.7626401207959
 30
0.0
 40
0.5
100
AcDbArc
 50
221.3816993826119
 51
265.236358309283
  0
LINE
  5
CF78
330
C86C
100
AcDbEntity
  8
1
  6
Continuous
100
AcDbLine
 10
232.8286179999947
 20
331.4321039999954
 30
0.0
 11
233.3286179999965
 21
331.4321039999958
 31
0.0
  0
LINE
  5
CF79
330
C86C
100
AcDbEntity
  8
1
  6
Continuous
100
AcDbLine
 10
240.448018
 20
329.9851039999998
 30
0.0
 11
239.328518
 21
330.0821039999997
 31
0.0
  0
LINE
  5
CF7A
330
C86C
100
AcDbEntity
  8
1
  6
Continuous
100
AcDbLine
 10
233.6622563892481
 20
331.2643672416734
 30
0.0
 11
238.8701407399187
 21
330.8303768791184
 31
0.0
  0
ARC
  5
CF7B
330
C86C
100
AcDbEntity
  8
1
  6
Continuous
100
AcDbCircle
 10
238.8286179999919
 20
330.332103999996
 30
0.0
 40
0.5
100
AcDbArc
 50
0.0000000000781399
 51
85.23635830928297
  0
ARC
  5
CF7C
330
C86C
100
AcDbEntity
  8
1
  6
Continuous
100
AcDbCircle
 10
232.928618
 20
326.5821039999997
 30
0.0
 40
9.0
100
AcDbArc
 50
344.1190000000001
 51
15.8808
  0
ARC
  5
CFAB
330
C86C
100
AcDbEntity
  8
1
  6
Continuous
100
AcDbCircle
 10
233.4286189999999
 20
422.5821819999997
 30
0.0
 40
9.0
100
AcDbArc
 50
344.1192
 51
15.88099999999999
  0
LINE
  5
CFAD
330
C86C
100
AcDbEntity
  8
1
  6
Continuous
100
AcDbLine
 10
239.8286189999947
 20
427.332181999997
 30
0.0
 11
239.828619000005
 21
417.832181999997
 31
0.0
  0
LINE
  5
CFAE
330
C86C
100
AcDbEntity
  8
1
  6
Continuous
100
AcDbLine
 10
233.3286189999992
 20
428.4321820000041
 30
0.0
 11
233.3286190000341
 21
416.7321820000041
 31
0.0
  0
LINE
  5
CFAF
330
C86C
100
AcDbEntity
  8
1
  6
Continuous
100
AcDbLine
 10
233.8286189999991
 20
428.4321820000057
 30
0.0
 11
233.8286190000342
 21
416.7321820000038
 31
0.0
  0
ARC
  5
CFB0
330
C86C
100
AcDbEntity
  8
1
  6
Continuous
100
AcDbCircle
 10
240.834719
 20
420.4751819999998
 30
0.0
 40
1.3
100
AcDbArc
 50
275.0000999999999
 51
344.1192
  0
LINE
  5
CFB1
330
C86C
100
AcDbEntity
  8
1
  6
Continuous
100
AcDbLine
 10
233.3286189999913
 20
416.7321820000041
 30
0.0
 11
233.8286189999914
 21
416.7321820000038
 31
0.0
  0
LINE
  5
CFB2
330
C86C
100
AcDbEntity
  8
1
  6
Continuous
100
AcDbLine
 10
240.948019
 20
419.1791819999998
 30
0.0
 11
239.8285189999997
 21
419.0821819999999
 31
0.0
  0
LINE
  5
CFB3
330
C86C
100
AcDbEntity
  8
1
  6
Continuous
100
AcDbLine
 10
234.1622573892446
 20
416.8999187583255
 30
0.0
 11
239.3701417399208
 21
417.3339091208811
 31
0.0
  0
ARC
  5
CFB4
330
C86C
100
AcDbEntity
  8
1
  6
Continuous
100
AcDbCircle
 10
234.2037801291714
 20
416.4016458792038
 30
0.0
 40
0.5
100
AcDbArc
 50
94.76364169071695
 51
138.6183006173753
  0
ARC
  5
CFB5
330
C86C
100
AcDbEntity
  8
1
  6
Continuous
100
AcDbCircle
 10
239.328618999994
 20
417.8321820000035
 30
0.0
 40
0.5
100
AcDbArc
 50
274.7636416907169
 51
359.9999999999218
  0
ARC
  5
CFB6
330
C86C
100
AcDbEntity
  8
1
  6
Continuous
100
AcDbCircle
 10
240.834719
 20
424.6891819999998
 30
0.0
 40
1.3
100
AcDbArc
 50
15.88099999999999
 51
85.0
  0
LINE
  5
CFB7
330
C86C
100
AcDbEntity
  8
4
  6
CENTER
100
AcDbLine
 10
230.3286190000167
 20
422.5821819999997
 30
0.0
 11
245.4286189999999
 21
422.5821819999997
 31
0.0
  0
LINE
  5
CFB9
330
C86C
100
AcDbEntity
  8
1
  6
Continuous
100
AcDbLine
 10
233.3286189999992
 20
428.4321820000041
 30
0.0
 11
233.8286189999993
 21
428.4321820000037
 31
0.0
  0
LINE
  5
CFBA
330
C86C
100
AcDbEntity
  8
1
  6
Continuous
100
AcDbLine
 10
240.948019
 20
425.9841819999994
 30
0.0
 11
239.8286189999999
 21
426.0821819999994
 31
0.0
  0
ARC
  5
CFBB
330
C86C
100
AcDbEntity
  8
1
  6
Continuous
100
AcDbCircle
 10
239.3286189999948
 20
427.3321819999964
 30
0.0
 40
0.5
100
AcDbArc
 50
0.0
 51
85.23635830920619
  0
ARC
  5
CFBC
330
C86C
100
AcDbEntity
  8
1
  6
Continuous
100
AcDbCircle
 10
234.2037801291797
 20
428.7627181208033
 30
0.0
 40
0.5
100
AcDbArc
 50
221.3816993825473
 51
265.2363583092061
  0
LINE
  5
CFBD
330
C86C
100
AcDbEntity
  8
1
  6
Continuous
100
AcDbLine
 10
234.1622573892522
 20
428.2644452416811
 30
0.0
 11
239.3701417399221
 21
427.8304548791188
 31
0.0
  0
ARC
  5
CFEC
330
C86C
100
AcDbEntity
  8
1
  6
Continuous
100
AcDbCircle
 10
507.584758
 20
223.6891039999999
 30
0.0
 40
1.3
100
AcDbArc
 50
95.00009999999996
 51
164.1191999999999
  0
ARC
  5
CFED
330
C86C
100
AcDbEntity
  8
1
  6
Continuous
100
AcDbCircle
 10
507.584758
 20
219.4751039999999
 30
0.0
 40
1.3
100
AcDbArc
 50
195.8809999999998
 51
265.0
  0
LINE
  5
CFEE
330
C86C
100
AcDbEntity
  8
4
  6
CENTER
100
AcDbLine
 10
518.090857999983
 20
221.5821039999999
 30
0.0
 11
502.9908579999998
 21
221.5821039999999
 31
0.0
  0
LINE
  5
CFF1
330
C86C
100
AcDbEntity
  8
1
  6
Continuous
100
AcDbLine
 10
514.5908579999987
 20
216.7321039999939
 30
0.0
 11
514.5908579999676
 21
226.432103999996
 31
0.0
  0
LINE
  5
CFF2
330
C86C
100
AcDbEntity
  8
1
  6
Continuous
100
AcDbLine
 10
508.590858000003
 20
217.7821039999999
 30
0.0
 11
508.590857999997
 21
225.382104
 31
0.0
  0
LINE
  5
CFF3
330
C86C
100
AcDbEntity
  8
1
  6
Continuous
100
AcDbLine
 10
515.0908579999986
 20
216.7321039999955
 30
0.0
 11
515.0908579999676
 21
226.4321039999956
 31
0.0
  0
ARC
  5
CFF4
330
C86C
100
AcDbEntity
  8
1
  6
Continuous
100
AcDbCircle
 10
514.2156968708182
 20
216.4015678791962
 30
0.0
 40
0.5
100
AcDbArc
 50
41.38169938253462
 51
85.23635830920627
  0
LINE
  5
CFF5
330
C86C
100
AcDbEntity
  8
1
  6
Continuous
100
AcDbLine
 10
515.0908579999986
 20
216.7321039999955
 30
0.0
 11
514.5908579999971
 21
216.7321039999959
 31
0.0
  0
LINE
  5
CFF6
330
C86C
100
AcDbEntity
  8
1
  6
Continuous
100
AcDbLine
 10
507.471458
 20
218.1801039999998
 30
0.0
 11
508.5908580000001
 21
218.082104
 31
0.0
  0
LINE
  5
CFF7
330
C86C
100
AcDbEntity
  8
1
  6
Continuous
100
AcDbLine
 10
514.2572196107454
 20
216.8998407583186
 30
0.0
 11
509.0493352600756
 21
217.3338311208806
 31
0.0
  0
ARC
  5
CFF8
330
C86C
100
AcDbEntity
  8
1
  6
Continuous
100
AcDbCircle
 10
509.0908580000029
 20
217.832104000003
 30
0.0
 40
0.5
100
AcDbArc
 50
180.0
 51
265.2363583092061
  0
ARC
  5
CFF9
330
C86C
100
AcDbEntity
  8
1
  6
Continuous
100
AcDbCircle
 10
514.2156968708252
 20
226.7626401207961
 30
0.0
 40
0.5
100
AcDbArc
 50
274.7636416907169
 51
318.618300617388
  0
LINE
  5
CFFA
330
C86C
100
AcDbEntity
  8
1
  6
Continuous
100
AcDbLine
 10
515.0908580000051
 20
226.4321039999956
 30
0.0
 11
514.5908580000033
 21
226.432103999996
 31
0.0
  0
LINE
  5
CFFB
330
C86C
100
AcDbEntity
  8
1
  6
Continuous
100
AcDbLine
 10
507.471458
 20
224.985104
 30
0.0
 11
508.590958
 21
225.0821039999999
 31
0.0
  0
LINE
  5
CFFC
330
C86C
100
AcDbEntity
  8
1
  6
Continuous
100
AcDbLine
 10
514.2572196107519
 20
226.2643672416736
 30
0.0
 11
509.0493352600812
 21
225.8303768791185
 31
0.0
  0
ARC
  5
CFFD
330
C86C
100
AcDbEntity
  8
1
  6
Continuous
100
AcDbCircle
 10
509.0908580000081
 20
225.3321039999962
 30
0.0
 40
0.5
100
AcDbArc
 50
94.76364169071699
 51
179.9999999999218
  0
ARC
  5
CFFE
330
C86C
100
AcDbEntity
  8
1
  6
Continuous
100
AcDbCircle
 10
514.9908579999999
 20
221.5821039999999
 30
0.0
 40
9.0
100
AcDbArc
 50
164.1191999999999
 51
195.8809999999998
  0
LINE
  5
D000
330
C86C
100
AcDbEntity
  8
4
  6
CENTER
100
AcDbLine
 10
518.090857999983
 20
326.5821039999997
 30
0.0
 11
502.9908579999998
 21
326.5821039999997
 31
0.0
  0
ARC
  5
D001
330
C86C
100
AcDbEntity
  8
1
  6
Continuous
100
AcDbCircle
 10
507.584758
 20
324.4751039999997
 30
0.0
 40
1.3
100
AcDbArc
 50
195.8809999999998
 51
265.0
  0
ARC
  5
D002
330
C86C
100
AcDbEntity
  8
1
  6
Continuous
100
AcDbCircle
 10
507.584758
 20
328.6891039999997
 30
0.0
 40
1.3
100
AcDbArc
 50
95.00009999999996
 51
164.1191999999999
  0
LINE
  5
D004
330
C86C
100
AcDbEntity
  8
1
  6
Continuous
100
AcDbLine
 10
515.0908579999986
 20
321.7321039999954
 30
0.0
 11
515.0908579999676
 21
331.4321039999954
 31
0.0
  0
LINE
  5
D005
330
C86C
100
AcDbEntity
  8
1
  6
Continuous
100
AcDbLine
 10
508.590858000003
 20
322.7821039999998
 30
0.0
 11
508.590857999997
 21
330.3821039999998
 31
0.0
  0
LINE
  5
D006
330
C86C
100
AcDbEntity
  8
1
  6
Continuous
100
AcDbLine
 10
514.5908579999987
 20
321.7321039999937
 30
0.0
 11
514.5908579999676
 21
331.4321039999958
 31
0.0
  0
ARC
  5
D007
330
C86C
100
AcDbEntity
  8
1
  6
Continuous
100
AcDbCircle
 10
514.2156968708182
 20
321.401567879196
 30
0.0
 40
0.5
100
AcDbArc
 50
41.38169938253462
 51
85.23635830920627
  0
LINE
  5
D008
330
C86C
100
AcDbEntity
  8
1
  6
Continuous
100
AcDbLine
 10
515.0908579999986
 20
321.7321039999954
 30
0.0
 11
514.5908579999971
 21
321.7321039999957
 31
0.0
  0
ARC
  5
D009
330
C86C
100
AcDbEntity
  8
1
  6
Continuous
100
AcDbCircle
 10
509.0908580000029
 20
322.8321040000029
 30
0.0
 40
0.5
100
AcDbArc
 50
180.0
 51
265.2363583092061
  0
LINE
  5
D00A
330
C86C
100
AcDbEntity
  8
1
  6
Continuous
100
AcDbLine
 10
514.2572196107454
 20
321.8998407583185
 30
0.0
 11
509.0493352600756
 21
322.3338311208805
 31
0.0
  0
LINE
  5
D00B
330
C86C
100
AcDbEntity
  8
1
  6
Continuous
100
AcDbLine
 10
507.471458
 20
323.1801039999997
 30
0.0
 11
508.5908580000001
 21
323.0821039999998
 31
0.0
  0
ARC
  5
D00C
330
C86C
100
AcDbEntity
  8
1
  6
Continuous
100
AcDbCircle
 10
514.2156968708252
 20
331.7626401207959
 30
0.0
 40
0.5
100
AcDbArc
 50
274.7636416907169
 51
318.618300617388
  0
LINE
  5
D00D
330
C86C
100
AcDbEntity
  8
1
  6
Continuous
100
AcDbLine
 10
515.0908580000051
 20
331.4321039999954
 30
0.0
 11
514.5908580000033
 21
331.4321039999958
 31
0.0
  0
ARC
  5
D00E
330
C86C
100
AcDbEntity
  8
1
  6
Continuous
100
AcDbCircle
 10
509.0908580000081
 20
330.332103999996
 30
0.0
 40
0.5
100
AcDbArc
 50
94.76364169071699
 51
179.9999999999218
  0
LINE
  5
D00F
330
C86C
100
AcDbEntity
  8
1
  6
Continuous
100
AcDbLine
 10
514.2572196107519
 20
331.2643672416734
 30
0.0
 11
509.0493352600812
 21
330.8303768791184
 31
0.0
  0
LINE
  5
D010
330
C86C
100
AcDbEntity
  8
1
  6
Continuous
100
AcDbLine
 10
507.471458
 20
329.9851039999998
 30
0.0
 11
508.590958
 21
330.0821039999997
 31
0.0
  0
ARC
  5
D011
330
C86C
100
AcDbEntity
  8
1
  6
Continuous
100
AcDbCircle
 10
514.9908579999999
 20
326.5821039999997
 30
0.0
 40
9.0
100
AcDbArc
 50
164.1191999999999
 51
195.8809999999998
  0
ENDSEC
  0
SECTION
  2
OBJECTS
  0
DICTIONARY
  5
C85A
330
0
100
AcDbDictionary
281
     1
  3
ACAD_CIP_PREVIOUS_PRODUCT_INFO
350
D0D3
  3
ACAD_COLOR
350
D0B5
  3
ACAD_DETAILVIEWSTYLE
350
D0CE
  3
ACAD_GROUP
350
C85B
  3
ACAD_LAYOUT
350
C867
  3
ACAD_MATERIAL
350
D083
  3
ACAD_MLEADERSTYLE
350
D0CA
  3
ACAD_MLINESTYLE
350
C864
  3
ACAD_PLOTSETTINGS
350
C866
  3
ACAD_PLOTSTYLENAME
350
D081
  3
ACAD_SCALELIST
350
D0B8
  3
ACAD_SECTIONVIEWSTYLE
350
D0CC
  3
ACAD_TABLESTYLE
350
D0B6
  3
ACAD_VISUALSTYLE
350
D09C
  3
ACDB_RECOMPOSE_DATA
350
D0F1
  3
AcDbVariableDictionary
350
D0E4
  3
DWGPROPS
350
D0F2
  0
DICTIONARY
  5
D0D4
330
C85E
100
AcDbDictionary
280
     1
281
     1
  3
ADSK_XREC_LAYER_RECONCILED
360
D0D5
  0
DICTIONARY
  5
D0D6
330
C874
100
AcDbDictionary
280
     1
281
     1
  3
ADSK_XREC_LAYER_RECONCILED
360
D0D7
  0
DICTIONARY
  5
D0D8
330
C875
100
AcDbDictionary
280
     1
281
     1
  3
ADSK_XREC_LAYER_RECONCILED
360
D0D9
  0
DICTIONARY
  5
D0DA
330
C876
100
AcDbDictionary
280
     1
281
     1
  3
ADSK_XREC_LAYER_RECONCILED
360
D0DB
  0
DICTIONARY
  5
D0DC
330
C877
100
AcDbDictionary
280
     1
281
     1
  3
ADSK_XREC_LAYER_RECONCILED
360
D0DD
  0
DICTIONARY
  5
D0DE
330
C878
100
AcDbDictionary
280
     1
281
     1
  3
ADSK_XREC_LAYER_RECONCILED
360
D0DF
  0
DICTIONARY
  5
D0E0
330
C879
100
AcDbDictionary
280
     1
281
     1
  3
ADSK_XREC_LAYER_RECONCILED
360
D0E1
  0
DICTIONARY
  5
D0E2
330
C87A
100
AcDbDictionary
280
     1
281
     1
  3
ADSK_XREC_LAYER_RECONCILED
360
D0E3
  0
DICTIONARY
  5
CD04
330
C86C
100
AcDbDictionary
281
     1
  3
ACAD_LAYOUTSELFREF
350
D07D
  0
DICTIONARY
  5
CD02
330
C868
100
AcDbDictionary
281
     1
  3
ACAD_LAYOUTSELFREF
350
D07C
  0
XRECORD
  5
D0D3
102
{ACAD_REACTORS
330
C85A
102
}
330
C85A
100
AcDbXrecord
280
     1
300
ACDLT
300
2014
300
ACDLT_F_S
  0
DICTIONARY
  5
D0B5
102
{ACAD_REACTORS
330
C85A
102
}
330
C85A
100
AcDbDictionary
281
     1
  0
DICTIONARY
  5
D0CE
102
{ACAD_REACTORS
330
C85A
102
}
330
C85A
100
AcDbDictionary
281
     1
  3
Imperial24
350
D0CF
  0
DICTIONARY
  5
C85B
102
{ACAD_REACTORS
330
C85A
102
}
330
C85A
100
AcDbDictionary
281
     1
  0
DICTIONARY
  5
C867
102
{ACAD_REACTORS
330
C85A
102
}
330
C85A
100
AcDbDictionary
281
     1
  3
Model
350
D0D0
  3
レイアウト1
350
D0D1
  0
DICTIONARY
  5
D083
102
{ACAD_REACTORS
330
C85A
102
}
330
C85A
100
AcDbDictionary
281
     1
  3
ByBlock
350
D08C
  3
ByLayer
350
D084
  3
Global
350
D094
  0
DICTIONARY
  5
D0CA
102
{ACAD_REACTORS
330
C85A
102
}
330
C85A
100
AcDbDictionary
281
     1
  3
Standard
350
D0CB
  0
DICTIONARY
  5
C864
102
{ACAD_REACTORS
330
C85A
102
}
330
C85A
100
AcDbDictionary
281
     1
  3
STANDARD
350
C865
  0
DICTIONARY
  5
C866
102
{ACAD_REACTORS
330
C85A
102
}
330
C85A
100
AcDbDictionary
281
     1
  0
ACDBDICTIONARYWDFLT
  5
D081
102
{ACAD_REACTORS
330
C85A
102
}
330
C85A
100
AcDbDictionary
281
     1
  3
Normal
350
D082
100
AcDbDictionaryWithDefault
340
D082
  0
DICTIONARY
  5
D0B8
102
{ACAD_REACTORS
330
C85A
102
}
330
C85A
100
AcDbDictionary
281
     1
  3
A0
350
D0B9
  3
A1
350
D0BA
  3
A2
350
D0BB
  3
A3
350
D0BC
  3
A4
350
D0BD
  3
A5
350
D0BE
  3
A6
350
D0BF
  3
A7
350
D0C0
  3
A8
350
D0C1
  3
A9
350
D0C2
  3
B0
350
D0C3
  3
B1
350
D0C4
  3
B2
350
D0C5
  3
B3
350
D0C6
  3
B4
350
D0C7
  3
B5
350
D0C8
  3
B6
350
D0C9
  0
DICTIONARY
  5
D0CC
102
{ACAD_REACTORS
330
C85A
102
}
330
C85A
100
AcDbDictionary
281
     1
  3
Imperial24
350
D0CD
  0
DICTIONARY
  5
D0B6
102
{ACAD_REACTORS
330
C85A
102
}
330
C85A
100
AcDbDictionary
281
     1
  3
Standard
350
D0B7
  0
DICTIONARY
  5
D09C
102
{ACAD_REACTORS
330
C85A
102
}
330
C85A
100
AcDbDictionary
281
     1
  3
2dWireframe
350
D0A2
  3
Basic
350
D0A1
  3
Brighten
350
D0A8
  3
ColorChange
350
D0AC
  3
Conceptual
350
D0A5
  3
Dim
350
D0A7
  3
EdgeColorOff
350
D0B4
  3
Facepattern
350
D0AB
  3
Flat
350
D09D
  3
FlatWithEdges
350
D09E
  3
Gouraud
350
D09F
  3
GouraudWithEdges
350
D0A0
  3
Hidden
350
D0A4
  3
JitterOff
350
D0B2
  3
Linepattern
350
D0AA
  3
OverhangOff
350
D0B3
  3
Realistic
350
D0A6
  3
Shaded
350
D0B1
  3
Shaded with edges
350
D0B0
  3
Shades of Gray
350
D0AD
  3
Sketchy
350
D0AE
  3
Thicken
350
D0A9
  3
Wireframe
350
D0A3
  3
X-Ray
350
D0AF
  0
XRECORD
  5
D0F1
102
{ACAD_REACTORS
330
C85A
102
}
330
C85A
100
AcDbXrecord
280
     1
 90
        1
330
D0B7
  0
DICTIONARY
  5
D0E4
102
{ACAD_REACTORS
330
C85A
102
}
330
C85A
100
AcDbDictionary
281
     1
  3
CANNOSCALE
350
D0E9
  3
CMLEADERSTYLE
350
D0E6
  3
CTABLESTYLE
350
D0E5
  3
CVIEWDETAILSTYLE
350
D0E7
  3
CVIEWSECTIONSTYLE
350
D0E8
  3
DIMASSOC
350
D0EC
  3
INDEXCTL
350
D0EB
  3
SORTENTS
350
D0EA
  3
XCLIPFRAME
350
D0ED
  0
XRECORD
  5
D0F2
102
{ACAD_REACTORS
330
C85A
102
}
330
C85A
100
AcDbXrecord
280
     1
  1
DWGPROPS COOKIE
  2

  3

  4

  6

  7

  8
Yoshitsune
  9

300
=
301
=
302
=
303
=
304
=
305
=
306
=
307
=
308
=
309
=
 40
0.0492889699074074
 41
2451347.384590973
 42
2457192.643787431
  1

 90
        0
  0
XRECORD
  5
D0D5
102
{ACAD_REACTORS
330
D0D4
102
}
330
D0D4
100
AcDbXrecord
280
     1
290
     1
  0
XRECORD
  5
D0D7
102
{ACAD_REACTORS
330
D0D6
102
}
330
D0D6
100
AcDbXrecord
280
     1
290
     1
  0
XRECORD
  5
D0D9
102
{ACAD_REACTORS
330
D0D8
102
}
330
D0D8
100
AcDbXrecord
280
     1
290
     1
  0
XRECORD
  5
D0DB
102
{ACAD_REACTORS
330
D0DA
102
}
330
D0DA
100
AcDbXrecord
280
     1
290
     1
  0
XRECORD
  5
D0DD
102
{ACAD_REACTORS
330
D0DC
102
}
330
D0DC
100
AcDbXrecord
280
     1
290
     1
  0
XRECORD
  5
D0DF
102
{ACAD_REACTORS
330
D0DE
102
}
330
D0DE
100
AcDbXrecord
280
     1
290
     1
  0
XRECORD
  5
D0E1
102
{ACAD_REACTORS
330
D0E0
102
}
330
D0E0
100
AcDbXrecord
280
     1
290
     1
  0
XRECORD
  5
D0E3
102
{ACAD_REACTORS
330
D0E2
102
}
330
D0E2
100
AcDbXrecord
280
     1
290
     1
  0
XRECORD
  5
D07D
102
{ACAD_REACTORS
330
CD04
102
}
330
CD04
100
AcDbXrecord
280
     1
340
C86C
  0
XRECORD
  5
D07C
102
{ACAD_REACTORS
330
CD02
102
}
330
CD02
100
AcDbXrecord
280
     1
340
C868
  0
ACDBDETAILVIEWSTYLE
  5
D0CF
102
{ACAD_XDICTIONARY
360
D12A
102
}
102
{ACAD_REACTORS
330
D0CE
102
}
330
D0CE
100
AcDbModelDocViewStyle
 70
     0
  3
Imperial24
290
     0
100
AcDbDetailViewStyle
 70
     0
 71
     0
 90
        3
 71
     1
340
C85F
 40
0.24
340
0
 40
0.24
300

 40
0.36
280
     3
 71
     2
340
C863
 90
       25
 71
     3
340
C85F
 40
0.24
 90
        1
 40
0.75
 90
        1
300
%<\AcVar ViewType \f "%tc1">% %<\AcVar ViewDetailId>%\PSCALE %<\AcVar ViewScale \f "%sn">%
 71
     4
340
C863
 90
       25
340
C863
 90
       25
280
     0
  0
LAYOUT
  5
D0D0
102
{ACAD_XDICTIONARY
360
D12C
102
}
102
{ACAD_REACTORS
330
C867
102
}
330
C867
100
AcDbPlotSettings
  1

  2
Canon LBP9100C
  4

  6

 40
0.0
 41
0.0
 42
0.0
 43
0.0
 44
0.0
 45
0.0
 46
0.0
 47
0.0
 48
0.0
 49
0.0
140
0.0
141
0.0
142
1.0
143
1.0
 70
  1712
 72
     0
 73
     0
 74
     0
  7

 75
     0
147
1.0
148
0.0
149
0.0
100
AcDbLayout
  1
Model
 70
     1
 71
     0
 10
0.0
 20
0.0
 11
12.0
 21
9.0
 12
0.0
 22
0.0
 32
0.0
 14
0.0
 24
0.0
 34
0.0
 15
0.0
 25
0.0
 35
0.0
146
0.0
 13
0.0
 23
0.0
 33
0.0
 16
1.0
 26
0.0
 36
0.0
 17
0.0
 27
1.0
 37
0.0
 76
     0
330
C86C
331
D07B
  0
LAYOUT
  5
D0D1
102
{ACAD_XDICTIONARY
360
D12E
102
}
102
{ACAD_REACTORS
330
C867
102
}
330
C867
100
AcDbPlotSettings
  1

  2
Canon LBP9100C
  4

  6

 40
0.0
 41
0.0
 42
0.0
 43
0.0
 44
0.0
 45
0.0
 46
0.0
 47
0.0
 48
0.0
 49
0.0
140
0.0
141
0.0
142
1.0
143
1.0
 70
   688
 72
     0
 73
     0
 74
     5
  7

 75
    16
147
1.0
148
0.0
149
0.0
100
AcDbLayout
  1
レイアウト1
 70
     0
 71
     1
 10
0.0
 20
0.0
 11
420.0
 21
297.0
 12
0.0
 22
0.0
 32
0.0
 14
1.000000000000000E+20
 24
1.000000000000000E+20
 34
1.000000000000000E+20
 15
-1.000000000000000E+20
 25
-1.000000000000000E+20
 35
-1.000000000000000E+20
146
0.0
 13
0.0
 23
0.0
 33
0.0
 16
1.0
 26
0.0
 36
0.0
 17
0.0
 27
1.0
 37
0.0
 76
     0
330
C868
  0
MATERIAL
  5
D08C
102
{ACAD_XDICTIONARY
360
D08D
102
}
102
{ACAD_REACTORS
330
D083
102
}
330
D083
100
AcDbMaterial
  1
ByBlock
 72
     0
 43
0.0208333333333333
 43
0.0
 43
0.0
 43
0.0
 43
0.0
 43
0.0208333333333333
 43
0.0
 43
0.0
 43
0.0
 43
0.0
 43
1.0
 43
0.0
 43
0.0
 43
0.0
 43
0.0
 43
1.0
 77
     0
 47
0.0208333333333333
 47
0.0
 47
0.0
 47
0.0
 47
0.0
 47
0.0208333333333333
 47
0.0
 47
0.0
 47
0.0
 47
0.0
 47
1.0
 47
0.0
 47
0.0
 47
0.0
 47
0.0
 47
1.0
171
     0
 49
0.0208333333333333
 49
0.0
 49
0.0
 49
0.0
 49
0.0
 49
0.0208333333333333
 49
0.0
 49
0.0
 49
0.0
 49
0.0
 49
1.0
 49
0.0
 49
0.0
 49
0.0
 49
0.0
 49
1.0
175
     0
142
0.0208333333333333
142
0.0
142
0.0
142
0.0
142
0.0
142
0.0208333333333333
142
0.0
142
0.0
142
0.0
142
0.0
142
1.0
142
0.0
142
0.0
142
0.0
142
0.0
142
1.0
179
     0
144
0.0208333333333333
144
0.0
144
0.0
144
0.0
144
0.0
144
0.0208333333333333
144
0.0
144
0.0
144
0.0
144
0.0
144
1.0
144
0.0
144
0.0
144
0.0
144
0.0
144
1.0
147
0.0208333333333333
147
0.0
147
0.0
147
0.0
147
0.0
147
0.0208333333333333
147
0.0
147
0.0
147
0.0
147
0.0
147
1.0
147
0.0
147
0.0
147
0.0
147
0.0
147
1.0
  0
MATERIAL
  5
D084
102
{ACAD_XDICTIONARY
360
D085
102
}
102
{ACAD_REACTORS
330
D083
102
}
330
D083
100
AcDbMaterial
  1
ByLayer
 72
     0
 43
0.0208333333333333
 43
0.0
 43
0.0
 43
0.0
 43
0.0
 43
0.0208333333333333
 43
0.0
 43
0.0
 43
0.0
 43
0.0
 43
1.0
 43
0.0
 43
0.0
 43
0.0
 43
0.0
 43
1.0
 77
     0
 47
0.0208333333333333
 47
0.0
 47
0.0
 47
0.0
 47
0.0
 47
0.0208333333333333
 47
0.0
 47
0.0
 47
0.0
 47
0.0
 47
1.0
 47
0.0
 47
0.0
 47
0.0
 47
0.0
 47
1.0
171
     0
 49
0.0208333333333333
 49
0.0
 49
0.0
 49
0.0
 49
0.0
 49
0.0208333333333333
 49
0.0
 49
0.0
 49
0.0
 49
0.0
 49
1.0
 49
0.0
 49
0.0
 49
0.0
 49
0.0
 49
1.0
175
     0
142
0.0208333333333333
142
0.0
142
0.0
142
0.0
142
0.0
142
0.0208333333333333
142
0.0
142
0.0
142
0.0
142
0.0
142
1.0
142
0.0
142
0.0
142
0.0
142
0.0
142
1.0
179
     0
144
0.0208333333333333
144
0.0
144
0.0
144
0.0
144
0.0
144
0.0208333333333333
144
0.0
144
0.0
144
0.0
144
0.0
144
1.0
144
0.0
144
0.0
144
0.0
144
0.0
144
1.0
147
0.0208333333333333
147
0.0
147
0.0
147
0.0
147
0.0
147
0.0208333333333333
147
0.0
147
0.0
147
0.0
147
0.0
147
1.0
147
0.0
147
0.0
147
0.0
147
0.0
147
1.0
  0
MATERIAL
  5
D094
102
{ACAD_XDICTIONARY
360
D095
102
}
102
{ACAD_REACTORS
330
D083
102
}
330
D083
100
AcDbMaterial
  1
Global
 72
     0
 43
0.0208333333333333
 43
0.0
 43
0.0
 43
0.0
 43
0.0
 43
0.0208333333333333
 43
0.0
 43
0.0
 43
0.0
 43
0.0
 43
1.0
 43
0.0
 43
0.0
 43
0.0
 43
0.0
 43
1.0
 77
     0
 47
0.0208333333333333
 47
0.0
 47
0.0
 47
0.0
 47
0.0
 47
0.0208333333333333
 47
0.0
 47
0.0
 47
0.0
 47
0.0
 47
1.0
 47
0.0
 47
0.0
 47
0.0
 47
0.0
 47
1.0
171
     0
 49
0.0208333333333333
 49
0.0
 49
0.0
 49
0.0
 49
0.0
 49
0.0208333333333333
 49
0.0
 49
0.0
 49
0.0
 49
0.0
 49
1.0
 49
0.0
 49
0.0
 49
0.0
 49
0.0
 49
1.0
175
     0
142
0.0208333333333333
142
0.0
142
0.0
142
0.0
142
0.0
142
0.0208333333333333
142
0.0
142
0.0
142
0.0
142
0.0
142
1.0
142
0.0
142
0.0
142
0.0
142
0.0
142
1.0
179
     0
144
0.0208333333333333
144
0.0
144
0.0
144
0.0
144
0.0
144
0.0208333333333333
144
0.0
144
0.0
144
0.0
144
0.0
144
1.0
144
0.0
144
0.0
144
0.0
144
0.0
144
1.0
147
0.0208333333333333
147
0.0
147
0.0
147
0.0
147
0.0
147
0.0208333333333333
147
0.0
147
0.0
147
0.0
147
0.0
147
1.0
147
0.0
147
0.0
147
0.0
147
0.0
147
1.0
  0
MLEADERSTYLE
  5
D0CB
102
{ACAD_REACTORS
330
D0CA
102
}
330
D0CA
100
AcDbMLeaderStyle
170
     2
171
     1
172
     0
 90
        2
 40
0.0
 41
0.0
173
     1
 91
-1056964608
340
C861
 92
       -2
290
     1
 42
0.09
291
     1
 43
0.36
  3
Standard
 44
0.18
300

342
C85F
174
     1
178
     6
175
     1
176
     0
 93
-1056964608
 45
0.18
292
     0
297
     0
 46
0.18
 94
-1056964608
 47
1.0
 49
1.0
140
1.0
293
     1
141
0.0
294
     1
177
     0
142
1.0
295
     0
296
     0
143
0.125
1001
ACAD_MLEADERVER
1070
     2
  0
MLINESTYLE
  5
C865
102
{ACAD_REACTORS
330
C864
102
}
330
C864
100
AcDbMlineStyle
  2
STANDARD
 70
     0
  3

 62
   256
 51
90.0
 52
90.0
 71
     2
 49
0.5
 62
   256
  6
BYLAYER
 49
-0.5
 62
   256
  6
BYLAYER
  0
ACDBPLACEHOLDER
  5
D082
102
{ACAD_REACTORS
330
D081
102
}
330
D081
  0
SCALE
  5
D0B9
102
{ACAD_REACTORS
330
D0B8
102
}
330
D0B8
100
AcDbScale
 70
     0
300
1:1
140
1.0
141
1.0
290
     1
  0
SCALE
  5
D0BA
102
{ACAD_REACTORS
330
D0B8
102
}
330
D0B8
100
AcDbScale
 70
     0
300
1/128" = 1'-0"
140
0.0078125
141
12.0
290
     0
  0
SCALE
  5
D0BB
102
{ACAD_REACTORS
330
D0B8
102
}
330
D0B8
100
AcDbScale
 70
     0
300
1/64" = 1'-0"
140
0.015625
141
12.0
290
     0
  0
SCALE
  5
D0BC
102
{ACAD_REACTORS
330
D0B8
102
}
330
D0B8
100
AcDbScale
 70
     0
300
1/32" = 1'-0"
140
0.03125
141
12.0
290
     0
  0
SCALE
  5
D0BD
102
{ACAD_REACTORS
330
D0B8
102
}
330
D0B8
100
AcDbScale
 70
     0
300
1/16" = 1'-0"
140
0.0625
141
12.0
290
     0
  0
SCALE
  5
D0BE
102
{ACAD_REACTORS
330
D0B8
102
}
330
D0B8
100
AcDbScale
 70
     0
300
3/32" = 1'-0"
140
0.09375
141
12.0
290
     0
  0
SCALE
  5
D0BF
102
{ACAD_REACTORS
330
D0B8
102
}
330
D0B8
100
AcDbScale
 70
     0
300
1/8" = 1'-0"
140
0.125
141
12.0
290
     0
  0
SCALE
  5
D0C0
102
{ACAD_REACTORS
330
D0B8
102
}
330
D0B8
100
AcDbScale
 70
     0
300
3/16" = 1'-0"
140
0.1875
141
12.0
290
     0
  0
SCALE
  5
D0C1
102
{ACAD_REACTORS
330
D0B8
102
}
330
D0B8
100
AcDbScale
 70
     0
300
1/4" = 1'-0"
140
0.25
141
12.0
290
     0
  0
SCALE
  5
D0C2
102
{ACAD_REACTORS
330
D0B8
102
}
330
D0B8
100
AcDbScale
 70
     0
300
3/8" = 1'-0"
140
0.375
141
12.0
290
     0
  0
SCALE
  5
D0C3
102
{ACAD_REACTORS
330
D0B8
102
}
330
D0B8
100
AcDbScale
 70
     0
300
1/2" = 1'-0"
140
0.5
141
12.0
290
     0
  0
SCALE
  5
D0C4
102
{ACAD_REACTORS
330
D0B8
102
}
330
D0B8
100
AcDbScale
 70
     0
300
3/4" = 1'-0"
140
0.75
141
12.0
290
     0
  0
SCALE
  5
D0C5
102
{ACAD_REACTORS
330
D0B8
102
}
330
D0B8
100
AcDbScale
 70
     0
300
1" = 1'-0"
140
1.0
141
12.0
290
     0
  0
SCALE
  5
D0C6
102
{ACAD_REACTORS
330
D0B8
102
}
330
D0B8
100
AcDbScale
 70
     0
300
1-1/2" = 1'-0"
140
1.5
141
12.0
290
     0
  0
SCALE
  5
D0C7
102
{ACAD_REACTORS
330
D0B8
102
}
330
D0B8
100
AcDbScale
 70
     0
300
3" = 1'-0"
140
3.0
141
12.0
290
     0
  0
SCALE
  5
D0C8
102
{ACAD_REACTORS
330
D0B8
102
}
330
D0B8
100
AcDbScale
 70
     0
300
6" = 1'-0"
140
6.0
141
12.0
290
     0
  0
SCALE
  5
D0C9
102
{ACAD_REACTORS
330
D0B8
102
}
330
D0B8
100
AcDbScale
 70
     0
300
1'-0" = 1'-0"
140
12.0
141
12.0
290
     0
  0
ACDBSECTIONVIEWSTYLE
  5
D0CD
102
{ACAD_XDICTIONARY
360
D128
102
}
102
{ACAD_REACTORS
330
D0CC
102
}
330
D0CC
100
AcDbModelDocViewStyle
 70
     0
  3
Imperial24
290
     0
100
AcDbSectionViewStyle
 70
     0
 71
     0
 90
       78
 71
     1
340
C85F
 40
0.24
340
0
340
0
 40
0.24
300
I, O, Q, S, X, Z
 40
0.48
 90
        3
 40
0.18
 90
        1
 71
     2
340
C863
 90
       25
340
C863
 90
       50
 40
0.24
 40
0.0
 40
0.24
 71
     3
340
C85F
 40
0.24
 90
        1
 40
0.75
 90
        1
300
%<\AcVar ViewType \f "%tc1">% %<\AcVar ViewSectionStartId>%-%<\AcVar ViewSectionEndId>%\PSCALE %<\AcVar ViewScale \f "%sn">%
 71
     4
300
ANSI31
 40
1.0
 90
        0
290
     0
290
     0
 90
        6
 40
0.0
 40
1.570796326794896
 40
0.2617993877991494
 40
1.308996938995747
 40
-0.2617993877991494
 40
1.832595714594046
  0
TABLESTYLE
  5
D0B7
102
{ACAD_XDICTIONARY
360
D0EF
102
}
102
{ACAD_REACTORS
330
D0B6
102
}
330
D0B6
100
AcDbTableStyle
  3
Standard
 70
     0
 71
     0
 40
0.06
 41
0.06
280
     0
281
     0
  7
STANDARD
140
0.18
170
     2
 62
     0
 63
     7
283
     0
274
    -2
284
     1
 64
     0
275
    -2
285
     1
 65
     0
276
    -2
286
     1
 66
     0
277
    -2
287
     1
 67
     0
278
    -2
288
     1
 68
     0
279
    -2
289
     1
 69
     0
  7
STANDARD
140
0.25
170
     5
 62
     0
 63
     7
283
     0
274
    -2
284
     1
 64
     0
275
    -2
285
     1
 65
     0
276
    -2
286
     1
 66
     0
277
    -2
287
     1
 67
     0
278
    -2
288
     1
 68
     0
279
    -2
289
     1
 69
     0
  7
STANDARD
140
0.18
170
     5
 62
     0
 63
     7
283
     0
274
    -2
284
     1
 64
     0
275
    -2
285
     1
 65
     0
276
    -2
286
     1
 66
     0
277
    -2
287
     1
 67
     0
278
    -2
288
     1
 68
     0
279
    -2
289
     1
 69
     0
  0
VISUALSTYLE
  5
D0A2
102
{ACAD_XDICTIONARY
360
D100
102
}
102
{ACAD_REACTORS
330
D09C
102
}
330
D09C
100
AcDbVisualStyle
  2
2dWireframe
 70
     4
 71
     0
 72
     2
 73
     0
 90
        0
 40
-0.6
 41
-30.0
 62
     5
 63
     7
 74
     1
 91
        4
 64
     7
 65
   257
 75
     1
175
     1
 42
1.0
 92
        0
 66
   257
 43
1.0
 76
     1
 77
     6
 78
     2
 67
     7
 79
     5
170
     0
171
     0
290
     0
174
     0
 93
        1
 44
0.0
173
     0
291
     0
 45
0.0
1001
ACAD
1000
AcDbSavedByObjectVersion
1070
     0
  0
VISUALSTYLE
  5
D0A1
102
{ACAD_XDICTIONARY
360
D0FE
102
}
102
{ACAD_REACTORS
330
D09C
102
}
330
D09C
100
AcDbVisualStyle
  2
Basic
 70
     7
 71
     1
 72
     0
 73
     1
 90
        0
 40
-0.6
 41
-30.0
 62
     5
 63
     7
 74
     0
 91
        4
 64
     7
 65
   257
 75
     1
175
     1
 42
1.0
 92
        8
 66
     7
 43
1.0
 76
     1
 77
     6
 78
     2
 67
     7
 79
     5
170
     0
171
     0
290
     0
174
     0
 93
        1
 44
0.0
173
     0
291
     1
 45
0.0
1001
ACAD
1000
AcDbSavedByObjectVersion
1070
     0
  0
VISUALSTYLE
  5
D0A8
102
{ACAD_XDICTIONARY
360
D10C
102
}
102
{ACAD_REACTORS
330
D09C
102
}
330
D09C
100
AcDbVisualStyle
  2
Brighten
 70
    12
 71
     2
 72
     2
 73
     0
 90
        0
 40
-0.6
 41
-30.0
 62
     5
 63
     7
 74
     1
 91
        4
 64
     7
 65
   257
 75
     1
175
     1
 42
1.0
 92
        8
 66
     7
 43
1.0
 76
     1
 77
     6
 78
     2
 67
     7
 79
     5
170
     0
171
     0
290
     0
174
     0
 93
        1
 44
50.0
173
     0
291
     1
 45
0.0
1001
ACAD
1000
AcDbSavedByObjectVersion
1070
     0
  0
VISUALSTYLE
  5
D0AC
102
{ACAD_XDICTIONARY
360
D114
102
}
102
{ACAD_REACTORS
330
D09C
102
}
330
D09C
100
AcDbVisualStyle
  2
ColorChange
 70
    16
 71
     2
 72
     2
 73
     3
 90
        0
 40
-0.6
 41
-30.0
 62
     5
 63
     8
 74
     1
 91
        4
 64
     7
 65
   257
 75
     1
175
     1
 42
1.0
 92
        8
 66
     8
 43
1.0
 76
     1
 77
     6
 78
     2
 67
     7
 79
     5
170
     0
171
     0
290
     0
174
     0
 93
        1
 44
0.0
173
     0
291
     1
 45
0.0
1001
ACAD
1000
AcDbSavedByObjectVersion
1070
     0
  0
VISUALSTYLE
  5
D0A5
102
{ACAD_XDICTIONARY
360
D106
102
}
102
{ACAD_REACTORS
330
D09C
102
}
330
D09C
100
AcDbVisualStyle
  2
Conceptual
 70
     9
 71
     3
 72
     2
 73
     0
 90
        0
 40
-0.6
 41
-30.0
 62
     5
 63
     7
 74
     2
 91
        2
 64
     7
 65
   257
 75
     1
175
     1
 42
179.0
 92
        8
 66
     7
 43
1.0
 76
     1
 77
     6
 78
     2
 67
     7
 79
     3
170
     0
171
     0
290
     0
174
     0
 93
        1
 44
0.0
173
     0
291
     0
 45
0.0
1001
ACAD
1000
AcDbSavedByObjectVersion
1070
     0
  0
VISUALSTYLE
  5
D0A7
102
{ACAD_XDICTIONARY
360
D10A
102
}
102
{ACAD_REACTORS
330
D09C
102
}
330
D09C
100
AcDbVisualStyle
  2
Dim
 70
    11
 71
     2
 72
     2
 73
     0
 90
        0
 40
-0.6
 41
-30.0
 62
     5
 63
     7
 74
     1
 91
        4
 64
     7
 65
   257
 75
     1
175
     1
 42
1.0
 92
        8
 66
     7
 43
1.0
 76
     1
 77
     6
 78
     2
 67
     7
 79
     5
170
     0
171
     0
290
     0
174
     0
 93
        1
 44
-50.0
173
     0
291
     1
 45
0.0
1001
ACAD
1000
AcDbSavedByObjectVersion
1070
     0
  0
VISUALSTYLE
  5
D0B4
102
{ACAD_XDICTIONARY
360
D124
102
}
102
{ACAD_REACTORS
330
D09C
102
}
330
D09C
100
AcDbVisualStyle
  2
EdgeColorOff
 70
    22
 71
     2
 72
     2
 73
     0
 90
        0
 40
-0.6
 41
-30.0
 62
     5
 63
     7
 74
     1
 91
        4
 64
     7
 65
   257
 75
     1
175
     1
 42
1.0
 92
        8
 66
     7
 43
1.0
 76
     1
 77
     6
 78
     2
 67
     7
 79
     5
170
     0
171
     0
290
     0
174
     0
 93
        1
 44
0.0
173
     0
291
     1
 45
0.0
1001
ACAD
1000
AcDbSavedByObjectVersion
1070
     0
  0
VISUALSTYLE
  5
D0AB
102
{ACAD_XDICTIONARY
360
D112
102
}
102
{ACAD_REACTORS
330
D09C
102
}
330
D09C
100
AcDbVisualStyle
  2
Facepattern
 70
    15
 71
     2
 72
     2
 73
     0
 90
        0
 40
-0.6
 41
-30.0
 62
     5
 63
     7
 74
     1
 91
        4
 64
     7
 65
   257
 75
     1
175
     1
 42
1.0
 92
        8
 66
     7
 43
1.0
 76
     1
 77
     6
 78
     2
 67
     7
 79
     5
170
     0
171
     0
290
     0
174
     0
 93
        1
 44
0.0
173
     0
291
     1
 45
0.0
1001
ACAD
1000
AcDbSavedByObjectVersion
1070
     0
  0
VISUALSTYLE
  5
D09D
102
{ACAD_XDICTIONARY
360
D0F6
102
}
102
{ACAD_REACTORS
330
D09C
102
}
330
D09C
100
AcDbVisualStyle
  2
Flat
 70
     0
 71
     2
 72
     1
 73
     1
 90
        2
 40
-0.6
 41
30.0
 62
     5
 63
     7
 74
     0
 91
        0
 64
     7
 65
   257
 75
     1
175
     1
 42
1.0
 92
        8
 66
     7
 43
1.0
 76
     1
 77
     6
 78
     2
 67
     7
 79
     5
170
     0
171
     0
290
     0
174
     0
 93
       13
 44
0.0
173
     0
291
     1
 45
0.0
1001
ACAD
1000
AcDbSavedByObjectVersion
1070
     0
  0
VISUALSTYLE
  5
D09E
102
{ACAD_XDICTIONARY
360
D0F8
102
}
102
{ACAD_REACTORS
330
D09C
102
}
330
D09C
100
AcDbVisualStyle
  2
FlatWithEdges
 70
     1
 71
     2
 72
     1
 73
     1
 90
        2
 40
-0.6
 41
30.0
 62
     5
 63
     7
 74
     1
 91
        0
 64
     7
 65
   257
 75
     1
175
     1
 42
1.0
 92
        0
 66
   257
 43
1.0
 76
     1
 77
     6
 78
     2
 67
     7
 79
     5
170
     0
171
     0
290
     0
174
     0
 93
       13
 44
0.0
173
     0
291
     1
 45
0.0
1001
ACAD
1000
AcDbSavedByObjectVersion
1070
     0
  0
VISUALSTYLE
  5
D09F
102
{ACAD_XDICTIONARY
360
D0FA
102
}
102
{ACAD_REACTORS
330
D09C
102
}
330
D09C
100
AcDbVisualStyle
  2
Gouraud
 70
     2
 71
     2
 72
     2
 73
     1
 90
        2
 40
-0.6
 41
30.0
 62
     5
 63
     7
 74
     0
 91
        0
 64
     7
 65
   257
 75
     1
175
     1
 42
1.0
 92
        0
 66
     7
 43
1.0
 76
     1
 77
     6
 78
     2
 67
     7
 79
     5
170
     0
171
     0
290
     0
174
     0
 93
       13
 44
0.0
173
     0
291
     1
 45
0.0
1001
ACAD
1000
AcDbSavedByObjectVersion
1070
     0
  0
VISUALSTYLE
  5
D0A0
102
{ACAD_XDICTIONARY
360
D0FC
102
}
102
{ACAD_REACTORS
330
D09C
102
}
330
D09C
100
AcDbVisualStyle
  2
GouraudWithEdges
 70
     3
 71
     2
 72
     2
 73
     1
 90
        2
 40
-0.6
 41
30.0
 62
     5
 63
     7
 74
     1
 91
        0
 64
     7
 65
   257
 75
     1
175
     1
 42
1.0
 92
        0
 66
   257
 43
1.0
 76
     1
 77
     6
 78
     2
 67
     7
 79
     5
170
     0
171
     0
290
     0
174
     0
 93
       13
 44
0.0
173
     0
291
     1
 45
0.0
1001
ACAD
1000
AcDbSavedByObjectVersion
1070
     0
  0
VISUALSTYLE
  5
D0A4
102
{ACAD_XDICTIONARY
360
D104
102
}
102
{ACAD_REACTORS
330
D09C
102
}
330
D09C
100
AcDbVisualStyle
  2
Hidden
 70
     6
 71
     1
 72
     2
 73
     2
 90
        0
 40
-0.6
 41
-30.0
 62
     5
 63
     7
 74
     2
 91
        2
 64
     7
 65
   257
 75
     2
175
     1
 42
40.0
 92
        0
 66
   257
 43
1.0
 76
     1
 77
     6
 78
     2
 67
     7
 79
     3
170
     0
171
     0
290
     0
174
     0
 93
        1
 44
0.0
173
     0
291
     0
 45
0.0
1001
ACAD
1000
AcDbSavedByObjectVersion
1070
     0
  0
VISUALSTYLE
  5
D0B2
102
{ACAD_XDICTIONARY
360
D120
102
}
102
{ACAD_REACTORS
330
D09C
102
}
330
D09C
100
AcDbVisualStyle
  2
JitterOff
 70
    20
 71
     2
 72
     2
 73
     0
 90
        0
 40
-0.6
 41
-30.0
 62
     5
 63
     7
 74
     1
 91
        4
 64
     7
 65
   257
 75
     1
175
     1
 42
1.0
 92
       10
 66
     7
 43
1.0
 76
     1
 77
     6
 78
     2
 67
     7
 79
     5
170
     0
171
     0
290
     0
174
     0
 93
        1
 44
0.0
173
     0
291
     1
 45
0.0
1001
ACAD
1000
AcDbSavedByObjectVersion
1070
     0
  0
VISUALSTYLE
  5
D0AA
102
{ACAD_XDICTIONARY
360
D110
102
}
102
{ACAD_REACTORS
330
D09C
102
}
330
D09C
100
AcDbVisualStyle
  2
Linepattern
 70
    14
 71
     2
 72
     2
 73
     0
 90
        0
 40
-0.6
 41
-30.0
 62
     5
 63
     7
 74
     1
 91
        4
 64
     7
 65
   257
 75
     7
175
     7
 42
1.0
 92
        8
 66
     7
 43
1.0
 76
     1
 77
     6
 78
     2
 67
     7
 79
     5
170
     0
171
     0
290
     0
174
     0
 93
        1
 44
0.0
173
     0
291
     1
 45
0.0
1001
ACAD
1000
AcDbSavedByObjectVersion
1070
     0
  0
VISUALSTYLE
  5
D0B3
102
{ACAD_XDICTIONARY
360
D122
102
}
102
{ACAD_REACTORS
330
D09C
102
}
330
D09C
100
AcDbVisualStyle
  2
OverhangOff
 70
    21
 71
     2
 72
     2
 73
     0
 90
        0
 40
-0.6
 41
-30.0
 62
     5
 63
     7
 74
     1
 91
        4
 64
     7
 65
   257
 75
     1
175
     1
 42
1.0
 92
        9
 66
     7
 43
1.0
 76
     1
 77
     6
 78
     2
 67
     7
 79
     5
170
     0
171
     0
290
     0
174
     0
 93
        1
 44
0.0
173
     0
291
     1
 45
0.0
1001
ACAD
1000
AcDbSavedByObjectVersion
1070
     0
  0
VISUALSTYLE
  5
D0A6
102
{ACAD_XDICTIONARY
360
D108
102
}
102
{ACAD_REACTORS
330
D09C
102
}
330
D09C
100
AcDbVisualStyle
  2
Realistic
 70
     8
 71
     2
 72
     3
 73
     0
 90
        2
 40
-0.6
 41
30.0
 62
     5
 63
     7
 74
     0
 91
        0
 64
     7
 65
   257
 75
     1
175
     1
 42
1.0
 92
        8
 66
   257
 43
1.0
 76
     1
 77
     6
 78
     2
 67
     7
 79
     3
170
     0
171
     0
290
     0
174
     0
 93
       13
 44
0.0
173
     0
291
     0
 45
0.0
1001
ACAD
1000
AcDbSavedByObjectVersion
1070
     0
  0
VISUALSTYLE
  5
D0B1
102
{ACAD_XDICTIONARY
360
D11E
102
}
102
{ACAD_REACTORS
330
D09C
102
}
330
D09C
100
AcDbVisualStyle
  2
Shaded
 70
    27
 71
     2
 72
     2
 73
     1
 90
        2
 40
-0.6
 41
30.0
 62
     5
 63
     7
 74
     0
 91
        4
 64
     7
 65
   257
 75
     1
175
     1
 42
1.0
 92
        8
 66
   257
 43
1.0
 76
     1
 77
     6
 78
     2
 67
     8
 79
     3
170
     0
171
     0
290
     0
174
     0
 93
        5
 44
0.0
173
     0
291
     0
 45
0.0
1001
ACAD
1000
AcDbSavedByObjectVersion
1070
     0
  0
VISUALSTYLE
  5
D0B0
102
{ACAD_XDICTIONARY
360
D11C
102
}
102
{ACAD_REACTORS
330
D09C
102
}
330
D09C
100
AcDbVisualStyle
  2
Shaded with edges
 70
    26
 71
     2
 72
     2
 73
     1
 90
        2
 40
-0.6
 41
30.0
 62
     5
 63
     7
 74
     1
 91
       10
 64
     7
 65
   257
 75
     2
175
     1
 42
1.0
 92
        8
 66
   257
 43
1.0
 76
     1
 77
     6
 78
     2
 67
     7
 79
     3
170
     0
171
     0
290
     0
174
     0
 93
        5
 44
0.0
173
     0
291
     0
 45
0.0
1001
ACAD
1000
AcDbSavedByObjectVersion
1070
     0
  0
VISUALSTYLE
  5
D0AD
102
{ACAD_XDICTIONARY
360
D116
102
}
102
{ACAD_REACTORS
330
D09C
102
}
330
D09C
100
AcDbVisualStyle
  2
Shades of Gray
 70
    23
 71
     2
 72
     2
 73
     3
 90
        0
 40
-0.6
 41
-30.0
 62
     5
 63
     7
 74
     2
 91
        2
 64
     7
 65
     7
 75
     1
175
     1
 42
40.0
 92
        8
 66
     7
 43
1.0
 76
     1
 77
     6
 78
     2
 67
     7
 79
     3
170
     0
171
     0
290
     0
174
     0
 93
        1
 44
0.0
173
     0
291
     0
 45
0.0
1001
ACAD
1000
AcDbSavedByObjectVersion
1070
     0
  0
VISUALSTYLE
  5
D0AE
102
{ACAD_XDICTIONARY
360
D118
102
}
102
{ACAD_REACTORS
330
D09C
102
}
330
D09C
100
AcDbVisualStyle
  2
Sketchy
 70
    24
 71
     1
 72
     2
 73
     2
 90
        0
 40
-0.6
 41
-30.0
 62
     5
 63
     7
 74
     2
 91
        2
 64
     7
 65
     7
 75
     1
175
     1
 42
40.0
 92
       11
 66
     7
 43
1.0
 76
     1
 77
     6
 78
     2
 67
     7
 79
     6
170
     0
171
     0
290
     0
174
     0
 93
        1
 44
0.0
173
     0
291
     0
 45
0.0
1001
ACAD
1000
AcDbSavedByObjectVersion
1070
     0
  0
VISUALSTYLE
  5
D0A9
102
{ACAD_XDICTIONARY
360
D10E
102
}
102
{ACAD_REACTORS
330
D09C
102
}
330
D09C
100
AcDbVisualStyle
  2
Thicken
 70
    13
 71
     2
 72
     2
 73
     0
 90
        0
 40
-0.6
 41
-30.0
 62
     5
 63
     7
 74
     1
 91
        4
 64
     7
 65
   257
 75
     1
175
     1
 42
1.0
 92
       12
 66
     7
 43
1.0
 76
     1
 77
     6
 78
     2
 67
     7
 79
     5
170
     0
171
     0
290
     0
174
     0
 93
        1
 44
0.0
173
     0
291
     1
 45
0.0
1001
ACAD
1000
AcDbSavedByObjectVersion
1070
     0
  0
VISUALSTYLE
  5
D0A3
102
{ACAD_XDICTIONARY
360
D102
102
}
102
{ACAD_REACTORS
330
D09C
102
}
330
D09C
100
AcDbVisualStyle
  2
Wireframe
 70
     5
 71
     0
 72
     2
 73
     0
 90
        0
 40
-0.6
 41
-30.0
 62
     5
 63
     7
 74
     1
 91
        4
 64
     7
 65
   257
 75
     1
175
     1
 42
1.0
 92
        0
 66
   257
 43
1.0
 76
     1
 77
     6
 78
     2
 67
     7
 79
     3
170
     0
171
     0
290
     0
174
     0
 93
        1
 44
0.0
173
     0
291
     0
 45
0.0
1001
ACAD
1000
AcDbSavedByObjectVersion
1070
     0
  0
VISUALSTYLE
  5
D0AF
102
{ACAD_XDICTIONARY
360
D11A
102
}
102
{ACAD_REACTORS
330
D09C
102
}
330
D09C
100
AcDbVisualStyle
  2
X-Ray
 70
    25
 71
     2
 72
     2
 73
     1
 90
        1
 40
0.5
 41
-30.0
 62
     5
 63
     7
 74
     1
 91
        0
 64
     7
 65
   257
 75
     1
175
     1
 42
1.0
 92
        8
 66
     7
 43
1.0
 76
     1
 77
     6
 78
     2
 67
     7
 79
     3
170
     0
171
     0
290
     0
174
     0
 93
       13
 44
0.0
173
     0
291
     0
 45
0.0
1001
ACAD
1000
AcDbSavedByObjectVersion
1070
     0
  0
DICTIONARYVAR
  5
D0E9
102
{ACAD_REACTORS
330
D0E4
102
}
330
D0E4
100
DictionaryVariables
280
     0
  1
1:1
  0
DICTIONARYVAR
  5
D0E6
102
{ACAD_REACTORS
330
D0E4
102
}
330
D0E4
100
DictionaryVariables
280
     0
  1
STANDARD
  0
DICTIONARYVAR
  5
D0E5
102
{ACAD_REACTORS
330
D0E4
102
}
330
D0E4
100
DictionaryVariables
280
     0
  1
STANDARD
  0
DICTIONARYVAR
  5
D0E7
102
{ACAD_REACTORS
330
D0E4
102
}
330
D0E4
100
DictionaryVariables
280
     0
  1
Imperial24
  0
DICTIONARYVAR
  5
D0E8
102
{ACAD_REACTORS
330
D0E4
102
}
330
D0E4
100
DictionaryVariables
280
     0
  1
Imperial24
  0
DICTIONARYVAR
  5
D0EC
102
{ACAD_REACTORS
330
D0E4
102
}
330
D0E4
100
DictionaryVariables
280
     0
  1
1
  0
DICTIONARYVAR
  5
D0EB
102
{ACAD_REACTORS
330
D0E4
102
}
330
D0E4
100
DictionaryVariables
280
     0
  1
0
  0
DICTIONARYVAR
  5
D0EA
102
{ACAD_REACTORS
330
D0E4
102
}
330
D0E4
100
DictionaryVariables
280
     0
  1
127
  0
DICTIONARYVAR
  5
D0ED
102
{ACAD_REACTORS
330
D0E4
102
}
330
D0E4
100
DictionaryVariables
280
     0
  1
2
  0
DICTIONARY
  5
D12A
330
D0CF
100
AcDbDictionary
280
     1
281
     1
  3
ACAD_XREC_ROUNDTRIP
360
D12B
  0
DICTIONARY
  5
D12C
330
D0D0
100
AcDbDictionary
280
     1
281
     1
  3
ACAD_XREC_ROUNDTRIP
360
D12D
  0
DICTIONARY
  5
D12E
330
D0D1
100
AcDbDictionary
280
     1
281
     1
  3
ACAD_XREC_ROUNDTRIP
360
D12F
  0
DICTIONARY
  5
D08D
330
D08C
100
AcDbDictionary
280
     1
281
     1
  3
ACAD_XREC_ROUNDTRIP
360
D0F4
  3
BUMPTILE
360
D08F
  3
DIFFUSETILE
360
D08E
  3
OPACITYTILE
360
D092
  3
REFLECTIONTILE
360
D091
  3
REFRACTIONTILE
360
D093
  3
SPECULARTILE
360
D090
  0
DICTIONARY
  5
D085
330
D084
100
AcDbDictionary
280
     1
281
     1
  3
ACAD_XREC_ROUNDTRIP
360
D0F3
  3
BUMPTILE
360
D087
  3
DIFFUSETILE
360
D086
  3
OPACITYTILE
360
D08A
  3
REFLECTIONTILE
360
D089
  3
REFRACTIONTILE
360
D08B
  3
SPECULARTILE
360
D088
  0
DICTIONARY
  5
D095
330
D094
100
AcDbDictionary
280
     1
281
     1
  3
ACAD_XREC_ROUNDTRIP
360
D0F5
  3
BUMPTILE
360
D097
  3
DIFFUSETILE
360
D096
  3
OPACITYTILE
360
D09A
  3
REFLECTIONTILE
360
D099
  3
REFRACTIONTILE
360
D09B
  3
SPECULARTILE
360
D098
  0
DICTIONARY
  5
D128
330
D0CD
100
AcDbDictionary
280
     1
281
     1
  3
ACAD_XREC_ROUNDTRIP
360
D129
  0
DICTIONARY
  5
D0EF
330
D0B7
100
AcDbDictionary
280
     1
281
     1
  3
ACAD_ROUNDTRIP_2008_TABLESTYLE_CELLSTYLEMAP
360
D0F0
  3
ACAD_XREC_ROUNDTRIP
360
D126
  0
DICTIONARY
  5
D100
330
D0A2
100
AcDbDictionary
280
     1
281
     1
  3
ACAD_XREC_ROUNDTRIP
360
D101
  0
DICTIONARY
  5
D0FE
330
D0A1
100
AcDbDictionary
280
     1
281
     1
  3
ACAD_XREC_ROUNDTRIP
360
D0FF
  0
DICTIONARY
  5
D10C
330
D0A8
100
AcDbDictionary
280
     1
281
     1
  3
ACAD_XREC_ROUNDTRIP
360
D10D
  0
DICTIONARY
  5
D114
330
D0AC
100
AcDbDictionary
280
     1
281
     1
  3
ACAD_XREC_ROUNDTRIP
360
D115
  0
DICTIONARY
  5
D106
330
D0A5
100
AcDbDictionary
280
     1
281
     1
  3
ACAD_XREC_ROUNDTRIP
360
D107
  0
DICTIONARY
  5
D10A
330
D0A7
100
AcDbDictionary
280
     1
281
     1
  3
ACAD_XREC_ROUNDTRIP
360
D10B
  0
DICTIONARY
  5
D124
330
D0B4
100
AcDbDictionary
280
     1
281
     1
  3
ACAD_XREC_ROUNDTRIP
360
D125
  0
DICTIONARY
  5
D112
330
D0AB
100
AcDbDictionary
280
     1
281
     1
  3
ACAD_XREC_ROUNDTRIP
360
D113
  0
DICTIONARY
  5
D0F6
330
D09D
100
AcDbDictionary
280
     1
281
     1
  3
ACAD_XREC_ROUNDTRIP
360
D0F7
  0
DICTIONARY
  5
D0F8
330
D09E
100
AcDbDictionary
280
     1
281
     1
  3
ACAD_XREC_ROUNDTRIP
360
D0F9
  0
DICTIONARY
  5
D0FA
330
D09F
100
AcDbDictionary
280
     1
281
     1
  3
ACAD_XREC_ROUNDTRIP
360
D0FB
  0
DICTIONARY
  5
D0FC
330
D0A0
100
AcDbDictionary
280
     1
281
     1
  3
ACAD_XREC_ROUNDTRIP
360
D0FD
  0
DICTIONARY
  5
D104
330
D0A4
100
AcDbDictionary
280
     1
281
     1
  3
ACAD_XREC_ROUNDTRIP
360
D105
  0
DICTIONARY
  5
D120
330
D0B2
100
AcDbDictionary
280
     1
281
     1
  3
ACAD_XREC_ROUNDTRIP
360
D121
  0
DICTIONARY
  5
D110
330
D0AA
100
AcDbDictionary
280
     1
281
     1
  3
ACAD_XREC_ROUNDTRIP
360
D111
  0
DICTIONARY
  5
D122
330
D0B3
100
AcDbDictionary
280
     1
281
     1
  3
ACAD_XREC_ROUNDTRIP
360
D123
  0
DICTIONARY
  5
D108
330
D0A6
100
AcDbDictionary
280
     1
281
     1
  3
ACAD_XREC_ROUNDTRIP
360
D109
  0
DICTIONARY
  5
D11E
330
D0B1
100
AcDbDictionary
280
     1
281
     1
  3
ACAD_XREC_ROUNDTRIP
360
D11F
  0
DICTIONARY
  5
D11C
330
D0B0
100
AcDbDictionary
280
     1
281
     1
  3
ACAD_XREC_ROUNDTRIP
360
D11D
  0
DICTIONARY
  5
D116
330
D0AD
100
AcDbDictionary
280
     1
281
     1
  3
ACAD_XREC_ROUNDTRIP
360
D117
  0
DICTIONARY
  5
D118
330
D0AE
100
AcDbDictionary
280
     1
281
     1
  3
ACAD_XREC_ROUNDTRIP
360
D119
  0
DICTIONARY
  5
D10E
330
D0A9
100
AcDbDictionary
280
     1
281
     1
  3
ACAD_XREC_ROUNDTRIP
360
D10F
  0
DICTIONARY
  5
D102
330
D0A3
100
AcDbDictionary
280
     1
281
     1
  3
ACAD_XREC_ROUNDTRIP
360
D103
  0
DICTIONARY
  5
D11A
330
D0AF
100
AcDbDictionary
280
     1
281
     1
  3
ACAD_XREC_ROUNDTRIP
360
D11B
  0
XRECORD
  5
D12B
102
{ACAD_REACTORS
330
D12A
102
}
330
D12A
100
AcDbXrecord
280
     1
102
DISPLAYNAME
  1
Imperial24
102
FLAGS
 90
        0
  0
XRECORD
  5
D12D
102
{ACAD_REACTORS
330
D12C
102
}
330
D12C
100
AcDbXrecord
280
     1
102
SHADEPLOT
 70
     0
102
SHADEPLOTRESLEVEL
 70
     2
102
SHADEPLOTCUSTOMDPI
 70
   300
  0
XRECORD
  5
D12F
102
{ACAD_REACTORS
330
D12E
102
}
330
D12E
100
AcDbXrecord
280
     1
102
SHADEPLOT
 70
     0
102
SHADEPLOTRESLEVEL
 70
     2
102
SHADEPLOTCUSTOMDPI
 70
   300
  0
XRECORD
  5
D0F4
102
{ACAD_REACTORS
330
D08D
102
}
330
D08D
100
AcDbXrecord
280
     1
102
MATERIAL
148
0.0
149
0.0
149
0.0
 93
        0
 94
      127
282
     0
 72
     0
 77
     0
171
     0
175
     0
179
     0
273
     0
  0
XRECORD
  5
D08F
102
{ACAD_REACTORS
330
D08D
102
}
330
D08D
100
AcDbXrecord
280
     1
270
     1
271
     1
  0
XRECORD
  5
D08E
102
{ACAD_REACTORS
330
D08D
102
}
330
D08D
100
AcDbXrecord
280
     1
270
     1
271
     1
  0
XRECORD
  5
D092
102
{ACAD_REACTORS
330
D08D
102
}
330
D08D
100
AcDbXrecord
280
     1
270
     1
271
     1
  0
XRECORD
  5
D091
102
{ACAD_REACTORS
330
D08D
102
}
330
D08D
100
AcDbXrecord
280
     1
270
     1
271
     1
  0
XRECORD
  5
D093
102
{ACAD_REACTORS
330
D08D
102
}
330
D08D
100
AcDbXrecord
280
     1
270
     1
271
     1
  0
XRECORD
  5
D090
102
{ACAD_REACTORS
330
D08D
102
}
330
D08D
100
AcDbXrecord
280
     1
270
     1
271
     1
  0
XRECORD
  5
D0F3
102
{ACAD_REACTORS
330
D085
102
}
330
D085
100
AcDbXrecord
280
     1
102
MATERIAL
148
0.0
149
0.0
149
0.0
 93
        0
 94
      127
282
     0
 72
     0
 77
     0
171
     0
175
     0
179
     0
273
     0
  0
XRECORD
  5
D087
102
{ACAD_REACTORS
330
D085
102
}
330
D085
100
AcDbXrecord
280
     1
270
     1
271
     1
  0
XRECORD
  5
D086
102
{ACAD_REACTORS
330
D085
102
}
330
D085
100
AcDbXrecord
280
     1
270
     1
271
     1
  0
XRECORD
  5
D08A
102
{ACAD_REACTORS
330
D085
102
}
330
D085
100
AcDbXrecord
280
     1
270
     1
271
     1
  0
XRECORD
  5
D089
102
{ACAD_REACTORS
330
D085
102
}
330
D085
100
AcDbXrecord
280
     1
270
     1
271
     1
  0
XRECORD
  5
D08B
102
{ACAD_REACTORS
330
D085
102
}
330
D085
100
AcDbXrecord
280
     1
270
     1
271
     1
  0
XRECORD
  5
D088
102
{ACAD_REACTORS
330
D085
102
}
330
D085
100
AcDbXrecord
280
     1
270
     1
271
     1
  0
XRECORD
  5
D0F5
102
{ACAD_REACTORS
330
D095
102
}
330
D095
100
AcDbXrecord
280
     1
102
MATERIAL
148
0.0
149
0.0
149
0.0
 93
        0
 94
      127
282
     0
 72
     0
 77
     0
171
     0
175
     0
179
     0
273
     0
  0
XRECORD
  5
D097
102
{ACAD_REACTORS
330
D095
102
}
330
D095
100
AcDbXrecord
280
     1
270
     1
271
     1
  0
XRECORD
  5
D096
102
{ACAD_REACTORS
330
D095
102
}
330
D095
100
AcDbXrecord
280
     1
270
     1
271
     1
  0
XRECORD
  5
D09A
102
{ACAD_REACTORS
330
D095
102
}
330
D095
100
AcDbXrecord
280
     1
270
     1
271
     1
  0
XRECORD
  5
D099
102
{ACAD_REACTORS
330
D095
102
}
330
D095
100
AcDbXrecord
280
     1
270
     1
271
     1
  0
XRECORD
  5
D09B
102
{ACAD_REACTORS
330
D095
102
}
330
D095
100
AcDbXrecord
280
     1
270
     1
271
     1
  0
XRECORD
  5
D098
102
{ACAD_REACTORS
330
D095
102
}
330
D095
100
AcDbXrecord
280
     1
270
     1
271
     1
  0
XRECORD
  5
D129
102
{ACAD_REACTORS
330
D128
102
}
330
D128
100
AcDbXrecord
280
     1
102
DISPLAYNAME
  1
Imperial24
102
FLAGS
 90
        0
  0
CELLSTYLEMAP
  5
D0F0
102
{ACAD_REACTORS
330
D0EF
102
}
330
D0EF
100
AcDbCellStyleMap
 90
        3
300
CELLSTYLE
  1
TABLEFORMAT_BEGIN
 90
        5
170
     1
 91
        0
 92
    32768
 62
   257
 93
        1
300
CONTENTFORMAT
  1
CONTENTFORMAT_BEGIN
 90
        0
 91
        0
 92
      512
 93
        0
300

 40
0.0
140
1.0
 94
        5
 62
     0
340
C85F
144
0.25
309
CONTENTFORMAT_END
171
     0
 94
        0
309
TABLEFORMAT_END
  1
CELLSTYLE_BEGIN
 90
        1
 91
        1
300
_TITLE
309
CELLSTYLE_END
300
CELLSTYLE
  1
TABLEFORMAT_BEGIN
 90
        5
170
     1
 91
        0
 92
        0
 62
   257
 93
        1
300
CONTENTFORMAT
  1
CONTENTFORMAT_BEGIN
 90
        0
 91
        0
 92
      512
 93
        0
300

 40
0.0
140
1.0
 94
        5
 62
     0
340
C85F
144
0.18
309
CONTENTFORMAT_END
171
     0
 94
        0
309
TABLEFORMAT_END
  1
CELLSTYLE_BEGIN
 90
        2
 91
        1
300
_HEADER
309
CELLSTYLE_END
300
CELLSTYLE
  1
TABLEFORMAT_BEGIN
 90
        5
170
     1
 91
        0
 92
        0
 62
   257
 93
        1
300
CONTENTFORMAT
  1
CONTENTFORMAT_BEGIN
 90
        0
 91
        0
 92
      512
 93
        0
300

 40
0.0
140
1.0
 94
        2
 62
     0
340
C85F
144
0.18
309
CONTENTFORMAT_END
171
     0
 94
        0
309
TABLEFORMAT_END
  1
CELLSTYLE_BEGIN
 90
        3
 91
        2
300
_DATA
309
CELLSTYLE_END
  0
XRECORD
  5
D126
102
{ACAD_REACTORS
330
D0EF
102
}
330
D0EF
100
AcDbXrecord
280
     1
102
ACAD_ROUNDTRIP_PRE2007_TABLESTYLE
 90
      512
 91
        0
  1

 92
      512
 93
        0
  2

 94
      512
 95
        0
  3

  0
XRECORD
  5
D101
102
{ACAD_REACTORS
330
D100
102
}
330
D100
100
AcDbXrecord
280
     1
102
RTVSPost2010Prop28
280
     1
102
RTVSPost2010PropOp28
 70
     1
102
RTVSPost2010Prop29
280
     1
102
RTVSPost2010PropOp29
 70
     1
102
RTVSPost2010Prop30
280
     0
102
RTVSPost2010PropOp30
 70
     1
102
RTVSPost2010Prop31
280
     0
102
RTVSPost2010PropOp31
 70
     1
102
RTVSPost2010Prop32
280
     0
102
RTVSPost2010PropOp32
 70
     1
102
RTVSPost2010Prop33
280
     0
102
RTVSPost2010PropOp33
 70
     1
102
RTVSPost2010Prop34
280
     0
102
RTVSPost2010PropOp34
 70
     1
102
RTVSPost2010Prop35
280
     0
102
RTVSPost2010PropOp35
 70
     1
102
RTVSPost2010Prop36
280
     0
102
RTVSPost2010PropOp36
 70
     1
102
RTVSPost2010Prop37
 90
       50
102
RTVSPost2010PropOp37
 70
     1
102
RTVSPost2010Prop38
140
0.0
102
RTVSPost2010PropOp38
 70
     1
102
RTVSPost2010Prop39
140
1.0
102
RTVSPost2010PropOp39
 70
     1
102
RTVSPost2010Prop40
 90
        0
102
RTVSPost2010PropOp40
 70
     1
102
RTVSPost2010Prop41ColorIndex
 90
       18
102
RTVSPost2010Prop41ColorRGB
 90
        0
102
RTVSPost2010PropOp41
 70
     1
102
RTVSPost2010Prop42
 90
       50
102
RTVSPost2010PropOp42
 70
     1
102
RTVSPost2010Prop43
 90
        3
102
RTVSPost2010PropOp43
 70
     1
102
RTVSPost2010Prop44ColorIndex
 90
        5
102
RTVSPost2010Prop44ColorRGB
 90
      255
102
RTVSPost2010PropOp44
 70
     1
102
RTVSPost2010Prop45
280
     0
102
RTVSPost2010PropOp45
 70
     1
102
RTVSPost2010Prop46
 90
       50
102
RTVSPost2010PropOp46
 70
     1
102
RTVSPost2010Prop47
 90
       50
102
RTVSPost2010PropOp47
 70
     1
102
RTVSPost2010Prop48
 90
       50
102
RTVSPost2010PropOp48
 70
     1
102
RTVSPost2010Prop49
280
     0
102
RTVSPost2010PropOp49
 70
     1
102
RTVSPost2010Prop50
 90
       50
102
RTVSPost2010PropOp50
 70
     1
102
RTVSPost2010Prop51ColorIndex
 90
      256
102
RTVSPost2010Prop51ColorRGB
 90
-16777216
102
RTVSPost2010PropOp51
 70
     0
102
RTVSPost2010Prop52
140
1.0
102
RTVSPost2010PropOp52
 70
     0
102
RTVSPost2010Prop53
 90
        2
102
RTVSPost2010PropOp53
 70
     1
102
RTVSPost2010Prop54
  1
strokes_ogs.tif
102
RTVSPost2010PropOp54
 70
     1
102
RTVSPost2010Prop55
280
     0
102
RTVSPost2010PropOp55
 70
     1
102
RTVSPost2010Prop56
140
1.0
102
RTVSPost2010PropOp56
 70
     1
102
RTVSPost2010Prop57
140
1.0
102
RTVSPost2010PropOp57
 70
     1
102
RTVSPropertyOp0
 70
     1
102
RTVSPropertyOp1
 70
     1
102
RTVSPropertyOp2
 70
     1
102
RTVSPropertyOp3
 70
     1
102
RTVSPropertyOp4
 70
     1
102
RTVSPropertyOp5
 70
     1
102
RTVSPropertyOp6
 70
     1
102
RTVSPropertyOp7
 70
     1
102
RTVSPropertyOp8
 70
     1
102
RTVSPropertyOp9
 70
     1
102
RTVSPropertyOp10
 70
     1
102
RTVSPropertyOp11
 70
     1
102
RTVSPropertyOp12
 70
     1
102
RTVSPropertyOp13
 70
     1
102
RTVSPropertyOp14
 70
     1
102
RTVSPropertyOp15
 70
     1
102
RTVSPropertyOp16
 70
     1
102
RTVSPropertyOp17
 70
     1
102
RTVSPropertyOp18
 70
     1
102
RTVSPropertyOp19
 70
     1
102
RTVSPropertyOp20
 70
     1
102
RTVSPropertyOp21
 70
     1
102
RTVSPropertyOp22
 70
     1
102
RTVSPropertyOp23
 70
     1
102
RTVSPropertyOp24
 70
     1
102
RTVSPropertyOp25
 70
     1
102
RTVSPropertyOp26
 70
     1
102
RTVSPropertyOp27
 70
     1
102
RTVSPropertyOp28
 70
     1
102
RTVSPropertyOp29
 70
     1
102
RTVSPropertyOp30
 70
     1
102
RTVSPropertyOp31
 70
     1
102
RTVSPropertyOp32
 70
     1
102
RTVSPropertyOp33
 70
     1
102
RTVSPropertyOp34
 70
     1
102
RTVSPropertyOp35
 70
     1
102
RTVSPropertyOp36
 70
     1
102
RTVSPropertyOp37
 70
     1
102
RTVSPropertyOp38
 70
     1
102
RTVSPropertyOp39
 70
     1
102
RTVSPropertyOp40
 70
     1
102
RTVSPropertyOp41
 70
     1
102
RTVSPropertyOp42
 70
     1
102
RTVSPropertyOp43
 70
     1
102
RTVSPropertyOp44
 70
     1
102
RTVSPropertyOp45
 70
     1
102
RTVSPropertyOp46
 70
     1
102
RTVSPropertyOp47
 70
     1
102
RTVSPropertyOp48
 70
     1
102
RTVSPropertyOp49
 70
     1
102
RTVSPropertyOp50
 70
     1
102
RTVSPropertyOp51
 70
     0
102
RTVSPropertyOp52
 70
     0
102
RTVSPropertyOp53
 70
     1
102
RTVSPropertyOp54
 70
     1
102
RTVSPropertyOp55
 70
     1
102
RTVSPropertyOp56
 70
     1
102
RTVSPropertyOp57
 70
     1
102
RTVSPropertyOp58
 70
     1
102
RTVSPropertyOp59
 70
     1
102
RTVSPropertyOp60
 70
     1
102
RTVSPropertyOp61
 70
     1
102
RTVSPropertyOp62
 70
     1
  0
XRECORD
  5
D0FF
102
{ACAD_REACTORS
330
D0FE
102
}
330
D0FE
100
AcDbXrecord
280
     1
102
RTVSPost2010Prop28
280
     0
102
RTVSPost2010PropOp28
 70
     1
102
RTVSPost2010Prop29
280
     1
102
RTVSPost2010PropOp29
 70
     1
102
RTVSPost2010Prop30
280
     1
102
RTVSPost2010PropOp30
 70
     1
102
RTVSPost2010Prop31
280
     0
102
RTVSPost2010PropOp31
 70
     1
102
RTVSPost2010Prop32
280
     0
102
RTVSPost2010PropOp32
 70
     1
102
RTVSPost2010Prop33
280
     0
102
RTVSPost2010PropOp33
 70
     1
102
RTVSPost2010Prop34
280
     0
102
RTVSPost2010PropOp34
 70
     1
102
RTVSPost2010Prop35
280
     0
102
RTVSPost2010PropOp35
 70
     1
102
RTVSPost2010Prop36
280
     0
102
RTVSPost2010PropOp36
 70
     1
102
RTVSPost2010Prop37
 90
       50
102
RTVSPost2010PropOp37
 70
     1
102
RTVSPost2010Prop38
140
0.0
102
RTVSPost2010PropOp38
 70
     1
102
RTVSPost2010Prop39
140
1.0
102
RTVSPost2010PropOp39
 70
     1
102
RTVSPost2010Prop40
 90
        0
102
RTVSPost2010PropOp40
 70
     1
102
RTVSPost2010Prop41ColorIndex
 90
       18
102
RTVSPost2010Prop41ColorRGB
 90
        0
102
RTVSPost2010PropOp41
 70
     1
102
RTVSPost2010Prop42
 90
       50
102
RTVSPost2010PropOp42
 70
     1
102
RTVSPost2010Prop43
 90
        3
102
RTVSPost2010PropOp43
 70
     1
102
RTVSPost2010Prop44ColorIndex
 90
        5
102
RTVSPost2010Prop44ColorRGB
 90
      255
102
RTVSPost2010PropOp44
 70
     1
102
RTVSPost2010Prop45
280
     0
102
RTVSPost2010PropOp45
 70
     1
102
RTVSPost2010Prop46
 90
       50
102
RTVSPost2010PropOp46
 70
     1
102
RTVSPost2010Prop47
 90
       50
102
RTVSPost2010PropOp47
 70
     1
102
RTVSPost2010Prop48
 90
       50
102
RTVSPost2010PropOp48
 70
     1
102
RTVSPost2010Prop49
280
     0
102
RTVSPost2010PropOp49
 70
     1
102
RTVSPost2010Prop50
 90
       50
102
RTVSPost2010PropOp50
 70
     1
102
RTVSPost2010Prop51ColorIndex
 90
      256
102
RTVSPost2010Prop51ColorRGB
 90
-16777216
102
RTVSPost2010PropOp51
 70
     0
102
RTVSPost2010Prop52
140
1.0
102
RTVSPost2010PropOp52
 70
     0
102
RTVSPost2010Prop53
 90
        2
102
RTVSPost2010PropOp53
 70
     1
102
RTVSPost2010Prop54
  1
strokes_ogs.tif
102
RTVSPost2010PropOp54
 70
     1
102
RTVSPost2010Prop55
280
     0
102
RTVSPost2010PropOp55
 70
     1
102
RTVSPost2010Prop56
140
1.0
102
RTVSPost2010PropOp56
 70
     1
102
RTVSPost2010Prop57
140
1.0
102
RTVSPost2010PropOp57
 70
     1
102
RTVSPropertyOp0
 70
     1
102
RTVSPropertyOp1
 70
     1
102
RTVSPropertyOp2
 70
     1
102
RTVSPropertyOp3
 70
     1
102
RTVSPropertyOp4
 70
     1
102
RTVSPropertyOp5
 70
     1
102
RTVSPropertyOp6
 70
     1
102
RTVSPropertyOp7
 70
     1
102
RTVSPropertyOp8
 70
     1
102
RTVSPropertyOp9
 70
     1
102
RTVSPropertyOp10
 70
     1
102
RTVSPropertyOp11
 70
     1
102
RTVSPropertyOp12
 70
     1
102
RTVSPropertyOp13
 70
     1
102
RTVSPropertyOp14
 70
     1
102
RTVSPropertyOp15
 70
     1
102
RTVSPropertyOp16
 70
     1
102
RTVSPropertyOp17
 70
     1
102
RTVSPropertyOp18
 70
     1
102
RTVSPropertyOp19
 70
     1
102
RTVSPropertyOp20
 70
     1
102
RTVSPropertyOp21
 70
     1
102
RTVSPropertyOp22
 70
     1
102
RTVSPropertyOp23
 70
     1
102
RTVSPropertyOp24
 70
     1
102
RTVSPropertyOp25
 70
     1
102
RTVSPropertyOp26
 70
     1
102
RTVSPropertyOp27
 70
     1
102
RTVSPropertyOp28
 70
     1
102
RTVSPropertyOp29
 70
     1
102
RTVSPropertyOp30
 70
     1
102
RTVSPropertyOp31
 70
     1
102
RTVSPropertyOp32
 70
     1
102
RTVSPropertyOp33
 70
     1
102
RTVSPropertyOp34
 70
     1
102
RTVSPropertyOp35
 70
     1
102
RTVSPropertyOp36
 70
     1
102
RTVSPropertyOp37
 70
     1
102
RTVSPropertyOp38
 70
     1
102
RTVSPropertyOp39
 70
     1
102
RTVSPropertyOp40
 70
     1
102
RTVSPropertyOp41
 70
     1
102
RTVSPropertyOp42
 70
     1
102
RTVSPropertyOp43
 70
     1
102
RTVSPropertyOp44
 70
     1
102
RTVSPropertyOp45
 70
     1
102
RTVSPropertyOp46
 70
     1
102
RTVSPropertyOp47
 70
     1
102
RTVSPropertyOp48
 70
     1
102
RTVSPropertyOp49
 70
     1
102
RTVSPropertyOp50
 70
     1
102
RTVSPropertyOp51
 70
     0
102
RTVSPropertyOp52
 70
     0
102
RTVSPropertyOp53
 70
     1
102
RTVSPropertyOp54
 70
     1
102
RTVSPropertyOp55
 70
     1
102
RTVSPropertyOp56
 70
     1
102
RTVSPropertyOp57
 70
     1
102
RTVSPropertyOp58
 70
     1
102
RTVSPropertyOp59
 70
     1
102
RTVSPropertyOp60
 70
     1
102
RTVSPropertyOp61
 70
     1
102
RTVSPropertyOp62
 70
     1
  0
XRECORD
  5
D10D
102
{ACAD_REACTORS
330
D10C
102
}
330
D10C
100
AcDbXrecord
280
     1
102
RTVSPost2010Prop28
280
     0
102
RTVSPost2010PropOp28
 70
     1
102
RTVSPost2010Prop29
280
     1
102
RTVSPost2010PropOp29
 70
     1
102
RTVSPost2010Prop30
280
     1
102
RTVSPost2010PropOp30
 70
     1
102
RTVSPost2010Prop31
280
     0
102
RTVSPost2010PropOp31
 70
     1
102
RTVSPost2010Prop32
280
     0
102
RTVSPost2010PropOp32
 70
     1
102
RTVSPost2010Prop33
280
     0
102
RTVSPost2010PropOp33
 70
     1
102
RTVSPost2010Prop34
280
     0
102
RTVSPost2010PropOp34
 70
     1
102
RTVSPost2010Prop35
280
     0
102
RTVSPost2010PropOp35
 70
     1
102
RTVSPost2010Prop36
280
     0
102
RTVSPost2010PropOp36
 70
     1
102
RTVSPost2010Prop37
 90
       50
102
RTVSPost2010PropOp37
 70
     1
102
RTVSPost2010Prop38
140
0.0
102
RTVSPost2010PropOp38
 70
     1
102
RTVSPost2010Prop39
140
1.0
102
RTVSPost2010PropOp39
 70
     1
102
RTVSPost2010Prop40
 90
        0
102
RTVSPost2010PropOp40
 70
     1
102
RTVSPost2010Prop41ColorIndex
 90
       18
102
RTVSPost2010Prop41ColorRGB
 90
        0
102
RTVSPost2010PropOp41
 70
     1
102
RTVSPost2010Prop42
 90
       50
102
RTVSPost2010PropOp42
 70
     1
102
RTVSPost2010Prop43
 90
        3
102
RTVSPost2010PropOp43
 70
     1
102
RTVSPost2010Prop44ColorIndex
 90
        5
102
RTVSPost2010Prop44ColorRGB
 90
      255
102
RTVSPost2010PropOp44
 70
     1
102
RTVSPost2010Prop45
280
     0
102
RTVSPost2010PropOp45
 70
     1
102
RTVSPost2010Prop46
 90
       50
102
RTVSPost2010PropOp46
 70
     1
102
RTVSPost2010Prop47
 90
       50
102
RTVSPost2010PropOp47
 70
     1
102
RTVSPost2010Prop48
 90
       50
102
RTVSPost2010PropOp48
 70
     1
102
RTVSPost2010Prop49
280
     0
102
RTVSPost2010PropOp49
 70
     1
102
RTVSPost2010Prop50
 90
       50
102
RTVSPost2010PropOp50
 70
     1
102
RTVSPost2010Prop51ColorIndex
 90
      256
102
RTVSPost2010Prop51ColorRGB
 90
-16777216
102
RTVSPost2010PropOp51
 70
     0
102
RTVSPost2010Prop52
140
1.0
102
RTVSPost2010PropOp52
 70
     0
102
RTVSPost2010Prop53
 90
        2
102
RTVSPost2010PropOp53
 70
     1
102
RTVSPost2010Prop54
  1
strokes_ogs.tif
102
RTVSPost2010PropOp54
 70
     1
102
RTVSPost2010Prop55
280
     0
102
RTVSPost2010PropOp55
 70
     1
102
RTVSPost2010Prop56
140
1.0
102
RTVSPost2010PropOp56
 70
     1
102
RTVSPost2010Prop57
140
1.0
102
RTVSPost2010PropOp57
 70
     1
102
RTVSPropertyOp0
 70
     1
102
RTVSPropertyOp1
 70
     1
102
RTVSPropertyOp2
 70
     1
102
RTVSPropertyOp3
 70
     1
102
RTVSPropertyOp4
 70
     1
102
RTVSPropertyOp5
 70
     1
102
RTVSPropertyOp6
 70
     1
102
RTVSPropertyOp7
 70
     1
102
RTVSPropertyOp8
 70
     1
102
RTVSPropertyOp9
 70
     1
102
RTVSPropertyOp10
 70
     1
102
RTVSPropertyOp11
 70
     1
102
RTVSPropertyOp12
 70
     1
102
RTVSPropertyOp13
 70
     1
102
RTVSPropertyOp14
 70
     1
102
RTVSPropertyOp15
 70
     1
102
RTVSPropertyOp16
 70
     1
102
RTVSPropertyOp17
 70
     1
102
RTVSPropertyOp18
 70
     1
102
RTVSPropertyOp19
 70
     1
102
RTVSPropertyOp20
 70
     1
102
RTVSPropertyOp21
 70
     1
102
RTVSPropertyOp22
 70
     1
102
RTVSPropertyOp23
 70
     1
102
RTVSPropertyOp24
 70
     1
102
RTVSPropertyOp25
 70
     1
102
RTVSPropertyOp26
 70
     1
102
RTVSPropertyOp27
 70
     1
102
RTVSPropertyOp28
 70
     1
102
RTVSPropertyOp29
 70
     1
102
RTVSPropertyOp30
 70
     1
102
RTVSPropertyOp31
 70
     1
102
RTVSPropertyOp32
 70
     1
102
RTVSPropertyOp33
 70
     1
102
RTVSPropertyOp34
 70
     1
102
RTVSPropertyOp35
 70
     1
102
RTVSPropertyOp36
 70
     1
102
RTVSPropertyOp37
 70
     1
102
RTVSPropertyOp38
 70
     1
102
RTVSPropertyOp39
 70
     1
102
RTVSPropertyOp40
 70
     1
102
RTVSPropertyOp41
 70
     1
102
RTVSPropertyOp42
 70
     1
102
RTVSPropertyOp43
 70
     1
102
RTVSPropertyOp44
 70
     1
102
RTVSPropertyOp45
 70
     1
102
RTVSPropertyOp46
 70
     1
102
RTVSPropertyOp47
 70
     1
102
RTVSPropertyOp48
 70
     1
102
RTVSPropertyOp49
 70
     1
102
RTVSPropertyOp50
 70
     1
102
RTVSPropertyOp51
 70
     0
102
RTVSPropertyOp52
 70
     0
102
RTVSPropertyOp53
 70
     1
102
RTVSPropertyOp54
 70
     1
102
RTVSPropertyOp55
 70
     1
102
RTVSPropertyOp56
 70
     1
102
RTVSPropertyOp57
 70
     1
102
RTVSPropertyOp58
 70
     1
102
RTVSPropertyOp59
 70
     1
102
RTVSPropertyOp60
 70
     1
102
RTVSPropertyOp61
 70
     1
102
RTVSPropertyOp62
 70
     1
  0
XRECORD
  5
D115
102
{ACAD_REACTORS
330
D114
102
}
330
D114
100
AcDbXrecord
280
     1
102
RTVSPost2010Prop28
280
     0
102
RTVSPost2010PropOp28
 70
     1
102
RTVSPost2010Prop29
280
     1
102
RTVSPost2010PropOp29
 70
     1
102
RTVSPost2010Prop30
280
     1
102
RTVSPost2010PropOp30
 70
     1
102
RTVSPost2010Prop31
280
     0
102
RTVSPost2010PropOp31
 70
     1
102
RTVSPost2010Prop32
280
     0
102
RTVSPost2010PropOp32
 70
     1
102
RTVSPost2010Prop33
280
     0
102
RTVSPost2010PropOp33
 70
     1
102
RTVSPost2010Prop34
280
     0
102
RTVSPost2010PropOp34
 70
     1
102
RTVSPost2010Prop35
280
     0
102
RTVSPost2010PropOp35
 70
     1
102
RTVSPost2010Prop36
280
     0
102
RTVSPost2010PropOp36
 70
     1
102
RTVSPost2010Prop37
 90
       50
102
RTVSPost2010PropOp37
 70
     1
102
RTVSPost2010Prop38
140
0.0
102
RTVSPost2010PropOp38
 70
     1
102
RTVSPost2010Prop39
140
1.0
102
RTVSPost2010PropOp39
 70
     1
102
RTVSPost2010Prop40
 90
        0
102
RTVSPost2010PropOp40
 70
     1
102
RTVSPost2010Prop41ColorIndex
 90
       18
102
RTVSPost2010Prop41ColorRGB
 90
        0
102
RTVSPost2010PropOp41
 70
     1
102
RTVSPost2010Prop42
 90
       50
102
RTVSPost2010PropOp42
 70
     1
102
RTVSPost2010Prop43
 90
        3
102
RTVSPost2010PropOp43
 70
     1
102
RTVSPost2010Prop44ColorIndex
 90
        5
102
RTVSPost2010Prop44ColorRGB
 90
      255
102
RTVSPost2010PropOp44
 70
     1
102
RTVSPost2010Prop45
280
     0
102
RTVSPost2010PropOp45
 70
     1
102
RTVSPost2010Prop46
 90
       50
102
RTVSPost2010PropOp46
 70
     1
102
RTVSPost2010Prop47
 90
       50
102
RTVSPost2010PropOp47
 70
     1
102
RTVSPost2010Prop48
 90
       50
102
RTVSPost2010PropOp48
 70
     1
102
RTVSPost2010Prop49
280
     0
102
RTVSPost2010PropOp49
 70
     1
102
RTVSPost2010Prop50
 90
       50
102
RTVSPost2010PropOp50
 70
     1
102
RTVSPost2010Prop51ColorIndex
 90
      256
102
RTVSPost2010Prop51ColorRGB
 90
-16777216
102
RTVSPost2010PropOp51
 70
     0
102
RTVSPost2010Prop52
140
1.0
102
RTVSPost2010PropOp52
 70
     0
102
RTVSPost2010Prop53
 90
        2
102
RTVSPost2010PropOp53
 70
     1
102
RTVSPost2010Prop54
  1
strokes_ogs.tif
102
RTVSPost2010PropOp54
 70
     1
102
RTVSPost2010Prop55
280
     0
102
RTVSPost2010PropOp55
 70
     1
102
RTVSPost2010Prop56
140
1.0
102
RTVSPost2010PropOp56
 70
     1
102
RTVSPost2010Prop57
140
1.0
102
RTVSPost2010PropOp57
 70
     1
102
RTVSPropertyOp0
 70
     1
102
RTVSPropertyOp1
 70
     1
102
RTVSPropertyOp2
 70
     1
102
RTVSPropertyOp3
 70
     1
102
RTVSPropertyOp4
 70
     1
102
RTVSPropertyOp5
 70
     1
102
RTVSPropertyOp6
 70
     1
102
RTVSPropertyOp7
 70
     1
102
RTVSPropertyOp8
 70
     1
102
RTVSPropertyOp9
 70
     1
102
RTVSPropertyOp10
 70
     1
102
RTVSPropertyOp11
 70
     1
102
RTVSPropertyOp12
 70
     1
102
RTVSPropertyOp13
 70
     1
102
RTVSPropertyOp14
 70
     1
102
RTVSPropertyOp15
 70
     1
102
RTVSPropertyOp16
 70
     1
102
RTVSPropertyOp17
 70
     1
102
RTVSPropertyOp18
 70
     1
102
RTVSPropertyOp19
 70
     1
102
RTVSPropertyOp20
 70
     1
102
RTVSPropertyOp21
 70
     1
102
RTVSPropertyOp22
 70
     1
102
RTVSPropertyOp23
 70
     1
102
RTVSPropertyOp24
 70
     1
102
RTVSPropertyOp25
 70
     1
102
RTVSPropertyOp26
 70
     1
102
RTVSPropertyOp27
 70
     1
102
RTVSPropertyOp28
 70
     1
102
RTVSPropertyOp29
 70
     1
102
RTVSPropertyOp30
 70
     1
102
RTVSPropertyOp31
 70
     1
102
RTVSPropertyOp32
 70
     1
102
RTVSPropertyOp33
 70
     1
102
RTVSPropertyOp34
 70
     1
102
RTVSPropertyOp35
 70
     1
102
RTVSPropertyOp36
 70
     1
102
RTVSPropertyOp37
 70
     1
102
RTVSPropertyOp38
 70
     1
102
RTVSPropertyOp39
 70
     1
102
RTVSPropertyOp40
 70
     1
102
RTVSPropertyOp41
 70
     1
102
RTVSPropertyOp42
 70
     1
102
RTVSPropertyOp43
 70
     1
102
RTVSPropertyOp44
 70
     1
102
RTVSPropertyOp45
 70
     1
102
RTVSPropertyOp46
 70
     1
102
RTVSPropertyOp47
 70
     1
102
RTVSPropertyOp48
 70
     1
102
RTVSPropertyOp49
 70
     1
102
RTVSPropertyOp50
 70
     1
102
RTVSPropertyOp51
 70
     0
102
RTVSPropertyOp52
 70
     0
102
RTVSPropertyOp53
 70
     1
102
RTVSPropertyOp54
 70
     1
102
RTVSPropertyOp55
 70
     1
102
RTVSPropertyOp56
 70
     1
102
RTVSPropertyOp57
 70
     1
102
RTVSPropertyOp58
 70
     1
102
RTVSPropertyOp59
 70
     1
102
RTVSPropertyOp60
 70
     1
102
RTVSPropertyOp61
 70
     1
102
RTVSPropertyOp62
 70
     1
  0
XRECORD
  5
D107
102
{ACAD_REACTORS
330
D106
102
}
330
D106
100
AcDbXrecord
280
     1
102
RTVSPost2010Prop28
280
     0
102
RTVSPost2010PropOp28
 70
     1
102
RTVSPost2010Prop29
280
     1
102
RTVSPost2010PropOp29
 70
     1
102
RTVSPost2010Prop30
280
     1
102
RTVSPost2010PropOp30
 70
     1
102
RTVSPost2010Prop31
280
     0
102
RTVSPost2010PropOp31
 70
     1
102
RTVSPost2010Prop32
280
     0
102
RTVSPost2010PropOp32
 70
     1
102
RTVSPost2010Prop33
280
     0
102
RTVSPost2010PropOp33
 70
     1
102
RTVSPost2010Prop34
280
     0
102
RTVSPost2010PropOp34
 70
     1
102
RTVSPost2010Prop35
280
     0
102
RTVSPost2010PropOp35
 70
     1
102
RTVSPost2010Prop36
280
     0
102
RTVSPost2010PropOp36
 70
     1
102
RTVSPost2010Prop37
 90
       50
102
RTVSPost2010PropOp37
 70
     1
102
RTVSPost2010Prop38
140
0.0
102
RTVSPost2010PropOp38
 70
     1
102
RTVSPost2010Prop39
140
1.0
102
RTVSPost2010PropOp39
 70
     1
102
RTVSPost2010Prop40
 90
        0
102
RTVSPost2010PropOp40
 70
     1
102
RTVSPost2010Prop41ColorIndex
 90
       18
102
RTVSPost2010Prop41ColorRGB
 90
        0
102
RTVSPost2010PropOp41
 70
     1
102
RTVSPost2010Prop42
 90
       50
102
RTVSPost2010PropOp42
 70
     1
102
RTVSPost2010Prop43
 90
        3
102
RTVSPost2010PropOp43
 70
     1
102
RTVSPost2010Prop44ColorIndex
 90
        5
102
RTVSPost2010Prop44ColorRGB
 90
      255
102
RTVSPost2010PropOp44
 70
     1
102
RTVSPost2010Prop45
280
     0
102
RTVSPost2010PropOp45
 70
     1
102
RTVSPost2010Prop46
 90
       50
102
RTVSPost2010PropOp46
 70
     1
102
RTVSPost2010Prop47
 90
       50
102
RTVSPost2010PropOp47
 70
     1
102
RTVSPost2010Prop48
 90
       50
102
RTVSPost2010PropOp48
 70
     1
102
RTVSPost2010Prop49
280
     0
102
RTVSPost2010PropOp49
 70
     1
102
RTVSPost2010Prop50
 90
       50
102
RTVSPost2010PropOp50
 70
     1
102
RTVSPost2010Prop51ColorIndex
 90
      256
102
RTVSPost2010Prop51ColorRGB
 90
-16777216
102
RTVSPost2010PropOp51
 70
     0
102
RTVSPost2010Prop52
140
1.0
102
RTVSPost2010PropOp52
 70
     0
102
RTVSPost2010Prop53
 90
        2
102
RTVSPost2010PropOp53
 70
     1
102
RTVSPost2010Prop54
  1
strokes_ogs.tif
102
RTVSPost2010PropOp54
 70
     1
102
RTVSPost2010Prop55
280
     0
102
RTVSPost2010PropOp55
 70
     1
102
RTVSPost2010Prop56
140
1.0
102
RTVSPost2010PropOp56
 70
     1
102
RTVSPost2010Prop57
140
1.0
102
RTVSPost2010PropOp57
 70
     1
102
RTVSPropertyOp0
 70
     1
102
RTVSPropertyOp1
 70
     1
102
RTVSPropertyOp2
 70
     1
102
RTVSPropertyOp3
 70
     1
102
RTVSPropertyOp4
 70
     1
102
RTVSPropertyOp5
 70
     1
102
RTVSPropertyOp6
 70
     1
102
RTVSPropertyOp7
 70
     1
102
RTVSPropertyOp8
 70
     1
102
RTVSPropertyOp9
 70
     1
102
RTVSPropertyOp10
 70
     1
102
RTVSPropertyOp11
 70
     1
102
RTVSPropertyOp12
 70
     1
102
RTVSPropertyOp13
 70
     1
102
RTVSPropertyOp14
 70
     1
102
RTVSPropertyOp15
 70
     1
102
RTVSPropertyOp16
 70
     1
102
RTVSPropertyOp17
 70
     1
102
RTVSPropertyOp18
 70
     1
102
RTVSPropertyOp19
 70
     1
102
RTVSPropertyOp20
 70
     1
102
RTVSPropertyOp21
 70
     1
102
RTVSPropertyOp22
 70
     1
102
RTVSPropertyOp23
 70
     1
102
RTVSPropertyOp24
 70
     1
102
RTVSPropertyOp25
 70
     1
102
RTVSPropertyOp26
 70
     1
102
RTVSPropertyOp27
 70
     1
102
RTVSPropertyOp28
 70
     1
102
RTVSPropertyOp29
 70
     1
102
RTVSPropertyOp30
 70
     1
102
RTVSPropertyOp31
 70
     1
102
RTVSPropertyOp32
 70
     1
102
RTVSPropertyOp33
 70
     1
102
RTVSPropertyOp34
 70
     1
102
RTVSPropertyOp35
 70
     1
102
RTVSPropertyOp36
 70
     1
102
RTVSPropertyOp37
 70
     1
102
RTVSPropertyOp38
 70
     1
102
RTVSPropertyOp39
 70
     1
102
RTVSPropertyOp40
 70
     1
102
RTVSPropertyOp41
 70
     1
102
RTVSPropertyOp42
 70
     1
102
RTVSPropertyOp43
 70
     1
102
RTVSPropertyOp44
 70
     1
102
RTVSPropertyOp45
 70
     1
102
RTVSPropertyOp46
 70
     1
102
RTVSPropertyOp47
 70
     1
102
RTVSPropertyOp48
 70
     1
102
RTVSPropertyOp49
 70
     1
102
RTVSPropertyOp50
 70
     1
102
RTVSPropertyOp51
 70
     0
102
RTVSPropertyOp52
 70
     0
102
RTVSPropertyOp53
 70
     1
102
RTVSPropertyOp54
 70
     1
102
RTVSPropertyOp55
 70
     1
102
RTVSPropertyOp56
 70
     1
102
RTVSPropertyOp57
 70
     1
102
RTVSPropertyOp58
 70
     1
102
RTVSPropertyOp59
 70
     1
102
RTVSPropertyOp60
 70
     1
102
RTVSPropertyOp61
 70
     1
102
RTVSPropertyOp62
 70
     1
  0
XRECORD
  5
D10B
102
{ACAD_REACTORS
330
D10A
102
}
330
D10A
100
AcDbXrecord
280
     1
102
RTVSPost2010Prop28
280
     0
102
RTVSPost2010PropOp28
 70
     1
102
RTVSPost2010Prop29
280
     1
102
RTVSPost2010PropOp29
 70
     1
102
RTVSPost2010Prop30
280
     1
102
RTVSPost2010PropOp30
 70
     1
102
RTVSPost2010Prop31
280
     0
102
RTVSPost2010PropOp31
 70
     1
102
RTVSPost2010Prop32
280
     0
102
RTVSPost2010PropOp32
 70
     1
102
RTVSPost2010Prop33
280
     0
102
RTVSPost2010PropOp33
 70
     1
102
RTVSPost2010Prop34
280
     0
102
RTVSPost2010PropOp34
 70
     1
102
RTVSPost2010Prop35
280
     0
102
RTVSPost2010PropOp35
 70
     1
102
RTVSPost2010Prop36
280
     0
102
RTVSPost2010PropOp36
 70
     1
102
RTVSPost2010Prop37
 90
       50
102
RTVSPost2010PropOp37
 70
     1
102
RTVSPost2010Prop38
140
0.0
102
RTVSPost2010PropOp38
 70
     1
102
RTVSPost2010Prop39
140
1.0
102
RTVSPost2010PropOp39
 70
     1
102
RTVSPost2010Prop40
 90
        0
102
RTVSPost2010PropOp40
 70
     1
102
RTVSPost2010Prop41ColorIndex
 90
       18
102
RTVSPost2010Prop41ColorRGB
 90
        0
102
RTVSPost2010PropOp41
 70
     1
102
RTVSPost2010Prop42
 90
       50
102
RTVSPost2010PropOp42
 70
     1
102
RTVSPost2010Prop43
 90
        3
102
RTVSPost2010PropOp43
 70
     1
102
RTVSPost2010Prop44ColorIndex
 90
        5
102
RTVSPost2010Prop44ColorRGB
 90
      255
102
RTVSPost2010PropOp44
 70
     1
102
RTVSPost2010Prop45
280
     0
102
RTVSPost2010PropOp45
 70
     1
102
RTVSPost2010Prop46
 90
       50
102
RTVSPost2010PropOp46
 70
     1
102
RTVSPost2010Prop47
 90
       50
102
RTVSPost2010PropOp47
 70
     1
102
RTVSPost2010Prop48
 90
       50
102
RTVSPost2010PropOp48
 70
     1
102
RTVSPost2010Prop49
280
     0
102
RTVSPost2010PropOp49
 70
     1
102
RTVSPost2010Prop50
 90
       50
102
RTVSPost2010PropOp50
 70
     1
102
RTVSPost2010Prop51ColorIndex
 90
      256
102
RTVSPost2010Prop51ColorRGB
 90
-16777216
102
RTVSPost2010PropOp51
 70
     0
102
RTVSPost2010Prop52
140
1.0
102
RTVSPost2010PropOp52
 70
     0
102
RTVSPost2010Prop53
 90
        2
102
RTVSPost2010PropOp53
 70
     1
102
RTVSPost2010Prop54
  1
strokes_ogs.tif
102
RTVSPost2010PropOp54
 70
     1
102
RTVSPost2010Prop55
280
     0
102
RTVSPost2010PropOp55
 70
     1
102
RTVSPost2010Prop56
140
1.0
102
RTVSPost2010PropOp56
 70
     1
102
RTVSPost2010Prop57
140
1.0
102
RTVSPost2010PropOp57
 70
     1
102
RTVSPropertyOp0
 70
     1
102
RTVSPropertyOp1
 70
     1
102
RTVSPropertyOp2
 70
     1
102
RTVSPropertyOp3
 70
     1
102
RTVSPropertyOp4
 70
     1
102
RTVSPropertyOp5
 70
     1
102
RTVSPropertyOp6
 70
     1
102
RTVSPropertyOp7
 70
     1
102
RTVSPropertyOp8
 70
     1
102
RTVSPropertyOp9
 70
     1
102
RTVSPropertyOp10
 70
     1
102
RTVSPropertyOp11
 70
     1
102
RTVSPropertyOp12
 70
     1
102
RTVSPropertyOp13
 70
     1
102
RTVSPropertyOp14
 70
     1
102
RTVSPropertyOp15
 70
     1
102
RTVSPropertyOp16
 70
     1
102
RTVSPropertyOp17
 70
     1
102
RTVSPropertyOp18
 70
     1
102
RTVSPropertyOp19
 70
     1
102
RTVSPropertyOp20
 70
     1
102
RTVSPropertyOp21
 70
     1
102
RTVSPropertyOp22
 70
     1
102
RTVSPropertyOp23
 70
     1
102
RTVSPropertyOp24
 70
     1
102
RTVSPropertyOp25
 70
     1
102
RTVSPropertyOp26
 70
     1
102
RTVSPropertyOp27
 70
     1
102
RTVSPropertyOp28
 70
     1
102
RTVSPropertyOp29
 70
     1
102
RTVSPropertyOp30
 70
     1
102
RTVSPropertyOp31
 70
     1
102
RTVSPropertyOp32
 70
     1
102
RTVSPropertyOp33
 70
     1
102
RTVSPropertyOp34
 70
     1
102
RTVSPropertyOp35
 70
     1
102
RTVSPropertyOp36
 70
     1
102
RTVSPropertyOp37
 70
     1
102
RTVSPropertyOp38
 70
     1
102
RTVSPropertyOp39
 70
     1
102
RTVSPropertyOp40
 70
     1
102
RTVSPropertyOp41
 70
     1
102
RTVSPropertyOp42
 70
     1
102
RTVSPropertyOp43
 70
     1
102
RTVSPropertyOp44
 70
     1
102
RTVSPropertyOp45
 70
     1
102
RTVSPropertyOp46
 70
     1
102
RTVSPropertyOp47
 70
     1
102
RTVSPropertyOp48
 70
     1
102
RTVSPropertyOp49
 70
     1
102
RTVSPropertyOp50
 70
     1
102
RTVSPropertyOp51
 70
     0
102
RTVSPropertyOp52
 70
     0
102
RTVSPropertyOp53
 70
     1
102
RTVSPropertyOp54
 70
     1
102
RTVSPropertyOp55
 70
     1
102
RTVSPropertyOp56
 70
     1
102
RTVSPropertyOp57
 70
     1
102
RTVSPropertyOp58
 70
     1
102
RTVSPropertyOp59
 70
     1
102
RTVSPropertyOp60
 70
     1
102
RTVSPropertyOp61
 70
     1
102
RTVSPropertyOp62
 70
     1
  0
XRECORD
  5
D125
102
{ACAD_REACTORS
330
D124
102
}
330
D124
100
AcDbXrecord
280
     1
102
RTVSPost2010Prop28
280
     0
102
RTVSPost2010PropOp28
 70
     1
102
RTVSPost2010Prop29
280
     1
102
RTVSPost2010PropOp29
 70
     1
102
RTVSPost2010Prop30
280
     1
102
RTVSPost2010PropOp30
 70
     1
102
RTVSPost2010Prop31
280
     0
102
RTVSPost2010PropOp31
 70
     1
102
RTVSPost2010Prop32
280
     0
102
RTVSPost2010PropOp32
 70
     1
102
RTVSPost2010Prop33
280
     0
102
RTVSPost2010PropOp33
 70
     1
102
RTVSPost2010Prop34
280
     0
102
RTVSPost2010PropOp34
 70
     1
102
RTVSPost2010Prop35
280
     0
102
RTVSPost2010PropOp35
 70
     1
102
RTVSPost2010Prop36
280
     0
102
RTVSPost2010PropOp36
 70
     1
102
RTVSPost2010Prop37
 90
       50
102
RTVSPost2010PropOp37
 70
     0
102
RTVSPost2010Prop38
140
0.0
102
RTVSPost2010PropOp38
 70
     0
102
RTVSPost2010Prop39
140
1.0
102
RTVSPost2010PropOp39
 70
     0
102
RTVSPost2010Prop40
 90
        0
102
RTVSPost2010PropOp40
 70
     0
102
RTVSPost2010Prop41ColorIndex
 90
       18
102
RTVSPost2010Prop41ColorRGB
 90
        0
102
RTVSPost2010PropOp41
 70
     0
102
RTVSPost2010Prop42
 90
       50
102
RTVSPost2010PropOp42
 70
     0
102
RTVSPost2010Prop43
 90
        3
102
RTVSPost2010PropOp43
 70
     0
102
RTVSPost2010Prop44ColorIndex
 90
        5
102
RTVSPost2010Prop44ColorRGB
 90
      255
102
RTVSPost2010PropOp44
 70
     0
102
RTVSPost2010Prop45
280
     0
102
RTVSPost2010PropOp45
 70
     1
102
RTVSPost2010Prop46
 90
       50
102
RTVSPost2010PropOp46
 70
     0
102
RTVSPost2010Prop47
 90
       50
102
RTVSPost2010PropOp47
 70
     0
102
RTVSPost2010Prop48
 90
       50
102
RTVSPost2010PropOp48
 70
     0
102
RTVSPost2010Prop49
280
     0
102
RTVSPost2010PropOp49
 70
     1
102
RTVSPost2010Prop50
 90
       50
102
RTVSPost2010PropOp50
 70
     0
102
RTVSPost2010Prop51ColorIndex
 90
      256
102
RTVSPost2010Prop51ColorRGB
 90
-16777216
102
RTVSPost2010PropOp51
 70
     0
102
RTVSPost2010Prop52
140
1.0
102
RTVSPost2010PropOp52
 70
     0
102
RTVSPost2010Prop53
 90
        2
102
RTVSPost2010PropOp53
 70
     0
102
RTVSPost2010Prop54
  1
strokes_ogs.tif
102
RTVSPost2010PropOp54
 70
     0
102
RTVSPost2010Prop55
280
     0
102
RTVSPost2010PropOp55
 70
     1
102
RTVSPost2010Prop56
140
1.0
102
RTVSPost2010PropOp56
 70
     0
102
RTVSPost2010Prop57
140
1.0
102
RTVSPost2010PropOp57
 70
     0
102
RTVSPropertyOp0
 70
     0
102
RTVSPropertyOp1
 70
     0
102
RTVSPropertyOp2
 70
     0
102
RTVSPropertyOp3
 70
     0
102
RTVSPropertyOp4
 70
     0
102
RTVSPropertyOp5
 70
     0
102
RTVSPropertyOp6
 70
     0
102
RTVSPropertyOp7
 70
     0
102
RTVSPropertyOp8
 70
     0
102
RTVSPropertyOp9
 70
     0
102
RTVSPropertyOp10
 70
     0
102
RTVSPropertyOp11
 70
     0
102
RTVSPropertyOp12
 70
     0
102
RTVSPropertyOp13
 70
     0
102
RTVSPropertyOp14
 70
     2
102
RTVSPropertyOp15
 70
     0
102
RTVSPropertyOp16
 70
     0
102
RTVSPropertyOp17
 70
     0
102
RTVSPropertyOp18
 70
     0
102
RTVSPropertyOp19
 70
     0
102
RTVSPropertyOp20
 70
     0
102
RTVSPropertyOp21
 70
     0
102
RTVSPropertyOp22
 70
     0
102
RTVSPropertyOp23
 70
     0
102
RTVSPropertyOp24
 70
     0
102
RTVSPropertyOp25
 70
     0
102
RTVSPropertyOp26
 70
     0
102
RTVSPropertyOp27
 70
     0
102
RTVSPropertyOp28
 70
     1
102
RTVSPropertyOp29
 70
     1
102
RTVSPropertyOp30
 70
     1
102
RTVSPropertyOp31
 70
     1
102
RTVSPropertyOp32
 70
     1
102
RTVSPropertyOp33
 70
     1
102
RTVSPropertyOp34
 70
     1
102
RTVSPropertyOp35
 70
     1
102
RTVSPropertyOp36
 70
     1
102
RTVSPropertyOp37
 70
     0
102
RTVSPropertyOp38
 70
     0
102
RTVSPropertyOp39
 70
     0
102
RTVSPropertyOp40
 70
     0
102
RTVSPropertyOp41
 70
     0
102
RTVSPropertyOp42
 70
     0
102
RTVSPropertyOp43
 70
     0
102
RTVSPropertyOp44
 70
     0
102
RTVSPropertyOp45
 70
     1
102
RTVSPropertyOp46
 70
     0
102
RTVSPropertyOp47
 70
     0
102
RTVSPropertyOp48
 70
     0
102
RTVSPropertyOp49
 70
     1
102
RTVSPropertyOp50
 70
     0
102
RTVSPropertyOp51
 70
     0
102
RTVSPropertyOp52
 70
     0
102
RTVSPropertyOp53
 70
     0
102
RTVSPropertyOp54
 70
     0
102
RTVSPropertyOp55
 70
     1
102
RTVSPropertyOp56
 70
     0
102
RTVSPropertyOp57
 70
     0
102
RTVSPropertyOp58
 70
     0
102
RTVSPropertyOp59
 70
     0
102
RTVSPropertyOp60
 70
     0
102
RTVSPropertyOp61
 70
     0
102
RTVSPropertyOp62
 70
     0
  0
XRECORD
  5
D113
102
{ACAD_REACTORS
330
D112
102
}
330
D112
100
AcDbXrecord
280
     1
102
RTVSPost2010Prop28
280
     0
102
RTVSPost2010PropOp28
 70
     1
102
RTVSPost2010Prop29
280
     1
102
RTVSPost2010PropOp29
 70
     1
102
RTVSPost2010Prop30
280
     1
102
RTVSPost2010PropOp30
 70
     1
102
RTVSPost2010Prop31
280
     0
102
RTVSPost2010PropOp31
 70
     1
102
RTVSPost2010Prop32
280
     0
102
RTVSPost2010PropOp32
 70
     1
102
RTVSPost2010Prop33
280
     0
102
RTVSPost2010PropOp33
 70
     1
102
RTVSPost2010Prop34
280
     0
102
RTVSPost2010PropOp34
 70
     1
102
RTVSPost2010Prop35
280
     0
102
RTVSPost2010PropOp35
 70
     1
102
RTVSPost2010Prop36
280
     0
102
RTVSPost2010PropOp36
 70
     1
102
RTVSPost2010Prop37
 90
       50
102
RTVSPost2010PropOp37
 70
     1
102
RTVSPost2010Prop38
140
0.0
102
RTVSPost2010PropOp38
 70
     1
102
RTVSPost2010Prop39
140
1.0
102
RTVSPost2010PropOp39
 70
     1
102
RTVSPost2010Prop40
 90
        0
102
RTVSPost2010PropOp40
 70
     1
102
RTVSPost2010Prop41ColorIndex
 90
       18
102
RTVSPost2010Prop41ColorRGB
 90
        0
102
RTVSPost2010PropOp41
 70
     1
102
RTVSPost2010Prop42
 90
       50
102
RTVSPost2010PropOp42
 70
     1
102
RTVSPost2010Prop43
 90
        3
102
RTVSPost2010PropOp43
 70
     1
102
RTVSPost2010Prop44ColorIndex
 90
        5
102
RTVSPost2010Prop44ColorRGB
 90
      255
102
RTVSPost2010PropOp44
 70
     1
102
RTVSPost2010Prop45
280
     0
102
RTVSPost2010PropOp45
 70
     1
102
RTVSPost2010Prop46
 90
       50
102
RTVSPost2010PropOp46
 70
     1
102
RTVSPost2010Prop47
 90
       50
102
RTVSPost2010PropOp47
 70
     1
102
RTVSPost2010Prop48
 90
       50
102
RTVSPost2010PropOp48
 70
     1
102
RTVSPost2010Prop49
280
     0
102
RTVSPost2010PropOp49
 70
     1
102
RTVSPost2010Prop50
 90
       50
102
RTVSPost2010PropOp50
 70
     1
102
RTVSPost2010Prop51ColorIndex
 90
      256
102
RTVSPost2010Prop51ColorRGB
 90
-16777216
102
RTVSPost2010PropOp51
 70
     0
102
RTVSPost2010Prop52
140
1.0
102
RTVSPost2010PropOp52
 70
     0
102
RTVSPost2010Prop53
 90
        2
102
RTVSPost2010PropOp53
 70
     1
102
RTVSPost2010Prop54
  1
strokes_ogs.tif
102
RTVSPost2010PropOp54
 70
     1
102
RTVSPost2010Prop55
280
     0
102
RTVSPost2010PropOp55
 70
     1
102
RTVSPost2010Prop56
140
1.0
102
RTVSPost2010PropOp56
 70
     1
102
RTVSPost2010Prop57
140
1.0
102
RTVSPost2010PropOp57
 70
     1
102
RTVSPropertyOp0
 70
     1
102
RTVSPropertyOp1
 70
     1
102
RTVSPropertyOp2
 70
     1
102
RTVSPropertyOp3
 70
     1
102
RTVSPropertyOp4
 70
     1
102
RTVSPropertyOp5
 70
     1
102
RTVSPropertyOp6
 70
     1
102
RTVSPropertyOp7
 70
     1
102
RTVSPropertyOp8
 70
     1
102
RTVSPropertyOp9
 70
     1
102
RTVSPropertyOp10
 70
     1
102
RTVSPropertyOp11
 70
     1
102
RTVSPropertyOp12
 70
     1
102
RTVSPropertyOp13
 70
     1
102
RTVSPropertyOp14
 70
     1
102
RTVSPropertyOp15
 70
     1
102
RTVSPropertyOp16
 70
     1
102
RTVSPropertyOp17
 70
     1
102
RTVSPropertyOp18
 70
     1
102
RTVSPropertyOp19
 70
     1
102
RTVSPropertyOp20
 70
     1
102
RTVSPropertyOp21
 70
     1
102
RTVSPropertyOp22
 70
     1
102
RTVSPropertyOp23
 70
     1
102
RTVSPropertyOp24
 70
     1
102
RTVSPropertyOp25
 70
     1
102
RTVSPropertyOp26
 70
     1
102
RTVSPropertyOp27
 70
     1
102
RTVSPropertyOp28
 70
     1
102
RTVSPropertyOp29
 70
     1
102
RTVSPropertyOp30
 70
     1
102
RTVSPropertyOp31
 70
     1
102
RTVSPropertyOp32
 70
     1
102
RTVSPropertyOp33
 70
     1
102
RTVSPropertyOp34
 70
     1
102
RTVSPropertyOp35
 70
     1
102
RTVSPropertyOp36
 70
     1
102
RTVSPropertyOp37
 70
     1
102
RTVSPropertyOp38
 70
     1
102
RTVSPropertyOp39
 70
     1
102
RTVSPropertyOp40
 70
     1
102
RTVSPropertyOp41
 70
     1
102
RTVSPropertyOp42
 70
     1
102
RTVSPropertyOp43
 70
     1
102
RTVSPropertyOp44
 70
     1
102
RTVSPropertyOp45
 70
     1
102
RTVSPropertyOp46
 70
     1
102
RTVSPropertyOp47
 70
     1
102
RTVSPropertyOp48
 70
     1
102
RTVSPropertyOp49
 70
     1
102
RTVSPropertyOp50
 70
     1
102
RTVSPropertyOp51
 70
     0
102
RTVSPropertyOp52
 70
     0
102
RTVSPropertyOp53
 70
     1
102
RTVSPropertyOp54
 70
     1
102
RTVSPropertyOp55
 70
     1
102
RTVSPropertyOp56
 70
     1
102
RTVSPropertyOp57
 70
     1
102
RTVSPropertyOp58
 70
     1
102
RTVSPropertyOp59
 70
     1
102
RTVSPropertyOp60
 70
     1
102
RTVSPropertyOp61
 70
     1
102
RTVSPropertyOp62
 70
     1
  0
XRECORD
  5
D0F7
102
{ACAD_REACTORS
330
D0F6
102
}
330
D0F6
100
AcDbXrecord
280
     1
102
RTVSPost2010Prop28
280
     0
102
RTVSPost2010PropOp28
 70
     1
102
RTVSPost2010Prop29
280
     1
102
RTVSPost2010PropOp29
 70
     1
102
RTVSPost2010Prop30
280
     1
102
RTVSPost2010PropOp30
 70
     1
102
RTVSPost2010Prop31
280
     0
102
RTVSPost2010PropOp31
 70
     1
102
RTVSPost2010Prop32
280
     0
102
RTVSPost2010PropOp32
 70
     1
102
RTVSPost2010Prop33
280
     0
102
RTVSPost2010PropOp33
 70
     1
102
RTVSPost2010Prop34
280
     0
102
RTVSPost2010PropOp34
 70
     1
102
RTVSPost2010Prop35
280
     0
102
RTVSPost2010PropOp35
 70
     1
102
RTVSPost2010Prop36
280
     0
102
RTVSPost2010PropOp36
 70
     1
102
RTVSPost2010Prop37
 90
       50
102
RTVSPost2010PropOp37
 70
     1
102
RTVSPost2010Prop38
140
0.0
102
RTVSPost2010PropOp38
 70
     1
102
RTVSPost2010Prop39
140
1.0
102
RTVSPost2010PropOp39
 70
     1
102
RTVSPost2010Prop40
 90
        0
102
RTVSPost2010PropOp40
 70
     1
102
RTVSPost2010Prop41ColorIndex
 90
       18
102
RTVSPost2010Prop41ColorRGB
 90
        0
102
RTVSPost2010PropOp41
 70
     1
102
RTVSPost2010Prop42
 90
       50
102
RTVSPost2010PropOp42
 70
     1
102
RTVSPost2010Prop43
 90
        3
102
RTVSPost2010PropOp43
 70
     1
102
RTVSPost2010Prop44ColorIndex
 90
        5
102
RTVSPost2010Prop44ColorRGB
 90
      255
102
RTVSPost2010PropOp44
 70
     1
102
RTVSPost2010Prop45
280
     0
102
RTVSPost2010PropOp45
 70
     1
102
RTVSPost2010Prop46
 90
       50
102
RTVSPost2010PropOp46
 70
     1
102
RTVSPost2010Prop47
 90
       50
102
RTVSPost2010PropOp47
 70
     1
102
RTVSPost2010Prop48
 90
       50
102
RTVSPost2010PropOp48
 70
     1
102
RTVSPost2010Prop49
280
     0
102
RTVSPost2010PropOp49
 70
     1
102
RTVSPost2010Prop50
 90
       50
102
RTVSPost2010PropOp50
 70
     1
102
RTVSPost2010Prop51ColorIndex
 90
      256
102
RTVSPost2010Prop51ColorRGB
 90
-16777216
102
RTVSPost2010PropOp51
 70
     0
102
RTVSPost2010Prop52
140
1.0
102
RTVSPost2010PropOp52
 70
     0
102
RTVSPost2010Prop53
 90
        2
102
RTVSPost2010PropOp53
 70
     1
102
RTVSPost2010Prop54
  1
strokes_ogs.tif
102
RTVSPost2010PropOp54
 70
     1
102
RTVSPost2010Prop55
280
     0
102
RTVSPost2010PropOp55
 70
     1
102
RTVSPost2010Prop56
140
1.0
102
RTVSPost2010PropOp56
 70
     1
102
RTVSPost2010Prop57
140
1.0
102
RTVSPost2010PropOp57
 70
     1
102
RTVSPropertyOp0
 70
     1
102
RTVSPropertyOp1
 70
     1
102
RTVSPropertyOp2
 70
     1
102
RTVSPropertyOp3
 70
     1
102
RTVSPropertyOp4
 70
     1
102
RTVSPropertyOp5
 70
     1
102
RTVSPropertyOp6
 70
     1
102
RTVSPropertyOp7
 70
     1
102
RTVSPropertyOp8
 70
     1
102
RTVSPropertyOp9
 70
     1
102
RTVSPropertyOp10
 70
     1
102
RTVSPropertyOp11
 70
     1
102
RTVSPropertyOp12
 70
     1
102
RTVSPropertyOp13
 70
     1
102
RTVSPropertyOp14
 70
     1
102
RTVSPropertyOp15
 70
     1
102
RTVSPropertyOp16
 70
     1
102
RTVSPropertyOp17
 70
     1
102
RTVSPropertyOp18
 70
     1
102
RTVSPropertyOp19
 70
     1
102
RTVSPropertyOp20
 70
     1
102
RTVSPropertyOp21
 70
     1
102
RTVSPropertyOp22
 70
     1
102
RTVSPropertyOp23
 70
     1
102
RTVSPropertyOp24
 70
     1
102
RTVSPropertyOp25
 70
     1
102
RTVSPropertyOp26
 70
     1
102
RTVSPropertyOp27
 70
     1
102
RTVSPropertyOp28
 70
     1
102
RTVSPropertyOp29
 70
     1
102
RTVSPropertyOp30
 70
     1
102
RTVSPropertyOp31
 70
     1
102
RTVSPropertyOp32
 70
     1
102
RTVSPropertyOp33
 70
     1
102
RTVSPropertyOp34
 70
     1
102
RTVSPropertyOp35
 70
     1
102
RTVSPropertyOp36
 70
     1
102
RTVSPropertyOp37
 70
     1
102
RTVSPropertyOp38
 70
     1
102
RTVSPropertyOp39
 70
     1
102
RTVSPropertyOp40
 70
     1
102
RTVSPropertyOp41
 70
     1
102
RTVSPropertyOp42
 70
     1
102
RTVSPropertyOp43
 70
     1
102
RTVSPropertyOp44
 70
     1
102
RTVSPropertyOp45
 70
     1
102
RTVSPropertyOp46
 70
     1
102
RTVSPropertyOp47
 70
     1
102
RTVSPropertyOp48
 70
     1
102
RTVSPropertyOp49
 70
     1
102
RTVSPropertyOp50
 70
     1
102
RTVSPropertyOp51
 70
     0
102
RTVSPropertyOp52
 70
     0
102
RTVSPropertyOp53
 70
     1
102
RTVSPropertyOp54
 70
     1
102
RTVSPropertyOp55
 70
     1
102
RTVSPropertyOp56
 70
     1
102
RTVSPropertyOp57
 70
     1
102
RTVSPropertyOp58
 70
     1
102
RTVSPropertyOp59
 70
     1
102
RTVSPropertyOp60
 70
     1
102
RTVSPropertyOp61
 70
     1
102
RTVSPropertyOp62
 70
     1
  0
XRECORD
  5
D0F9
102
{ACAD_REACTORS
330
D0F8
102
}
330
D0F8
100
AcDbXrecord
280
     1
102
RTVSPost2010Prop28
280
     0
102
RTVSPost2010PropOp28
 70
     1
102
RTVSPost2010Prop29
280
     1
102
RTVSPost2010PropOp29
 70
     1
102
RTVSPost2010Prop30
280
     1
102
RTVSPost2010PropOp30
 70
     1
102
RTVSPost2010Prop31
280
     0
102
RTVSPost2010PropOp31
 70
     1
102
RTVSPost2010Prop32
280
     0
102
RTVSPost2010PropOp32
 70
     1
102
RTVSPost2010Prop33
280
     0
102
RTVSPost2010PropOp33
 70
     1
102
RTVSPost2010Prop34
280
     0
102
RTVSPost2010PropOp34
 70
     1
102
RTVSPost2010Prop35
280
     0
102
RTVSPost2010PropOp35
 70
     1
102
RTVSPost2010Prop36
280
     0
102
RTVSPost2010PropOp36
 70
     1
102
RTVSPost2010Prop37
 90
       50
102
RTVSPost2010PropOp37
 70
     1
102
RTVSPost2010Prop38
140
0.0
102
RTVSPost2010PropOp38
 70
     1
102
RTVSPost2010Prop39
140
1.0
102
RTVSPost2010PropOp39
 70
     1
102
RTVSPost2010Prop40
 90
        0
102
RTVSPost2010PropOp40
 70
     1
102
RTVSPost2010Prop41ColorIndex
 90
       18
102
RTVSPost2010Prop41ColorRGB
 90
        0
102
RTVSPost2010PropOp41
 70
     1
102
RTVSPost2010Prop42
 90
       50
102
RTVSPost2010PropOp42
 70
     1
102
RTVSPost2010Prop43
 90
        3
102
RTVSPost2010PropOp43
 70
     1
102
RTVSPost2010Prop44ColorIndex
 90
        5
102
RTVSPost2010Prop44ColorRGB
 90
      255
102
RTVSPost2010PropOp44
 70
     1
102
RTVSPost2010Prop45
280
     0
102
RTVSPost2010PropOp45
 70
     1
102
RTVSPost2010Prop46
 90
       50
102
RTVSPost2010PropOp46
 70
     1
102
RTVSPost2010Prop47
 90
       50
102
RTVSPost2010PropOp47
 70
     1
102
RTVSPost2010Prop48
 90
       50
102
RTVSPost2010PropOp48
 70
     1
102
RTVSPost2010Prop49
280
     0
102
RTVSPost2010PropOp49
 70
     1
102
RTVSPost2010Prop50
 90
       50
102
RTVSPost2010PropOp50
 70
     1
102
RTVSPost2010Prop51ColorIndex
 90
      256
102
RTVSPost2010Prop51ColorRGB
 90
-16777216
102
RTVSPost2010PropOp51
 70
     0
102
RTVSPost2010Prop52
140
1.0
102
RTVSPost2010PropOp52
 70
     0
102
RTVSPost2010Prop53
 90
        2
102
RTVSPost2010PropOp53
 70
     1
102
RTVSPost2010Prop54
  1
strokes_ogs.tif
102
RTVSPost2010PropOp54
 70
     1
102
RTVSPost2010Prop55
280
     0
102
RTVSPost2010PropOp55
 70
     1
102
RTVSPost2010Prop56
140
1.0
102
RTVSPost2010PropOp56
 70
     1
102
RTVSPost2010Prop57
140
1.0
102
RTVSPost2010PropOp57
 70
     1
102
RTVSPropertyOp0
 70
     1
102
RTVSPropertyOp1
 70
     1
102
RTVSPropertyOp2
 70
     1
102
RTVSPropertyOp3
 70
     1
102
RTVSPropertyOp4
 70
     1
102
RTVSPropertyOp5
 70
     1
102
RTVSPropertyOp6
 70
     1
102
RTVSPropertyOp7
 70
     1
102
RTVSPropertyOp8
 70
     1
102
RTVSPropertyOp9
 70
     1
102
RTVSPropertyOp10
 70
     1
102
RTVSPropertyOp11
 70
     1
102
RTVSPropertyOp12
 70
     1
102
RTVSPropertyOp13
 70
     1
102
RTVSPropertyOp14
 70
     1
102
RTVSPropertyOp15
 70
     1
102
RTVSPropertyOp16
 70
     1
102
RTVSPropertyOp17
 70
     1
102
RTVSPropertyOp18
 70
     1
102
RTVSPropertyOp19
 70
     1
102
RTVSPropertyOp20
 70
     1
102
RTVSPropertyOp21
 70
     1
102
RTVSPropertyOp22
 70
     1
102
RTVSPropertyOp23
 70
     1
102
RTVSPropertyOp24
 70
     1
102
RTVSPropertyOp25
 70
     1
102
RTVSPropertyOp26
 70
     1
102
RTVSPropertyOp27
 70
     1
102
RTVSPropertyOp28
 70
     1
102
RTVSPropertyOp29
 70
     1
102
RTVSPropertyOp30
 70
     1
102
RTVSPropertyOp31
 70
     1
102
RTVSPropertyOp32
 70
     1
102
RTVSPropertyOp33
 70
     1
102
RTVSPropertyOp34
 70
     1
102
RTVSPropertyOp35
 70
     1
102
RTVSPropertyOp36
 70
     1
102
RTVSPropertyOp37
 70
     1
102
RTVSPropertyOp38
 70
     1
102
RTVSPropertyOp39
 70
     1
102
RTVSPropertyOp40
 70
     1
102
RTVSPropertyOp41
 70
     1
102
RTVSPropertyOp42
 70
     1
102
RTVSPropertyOp43
 70
     1
102
RTVSPropertyOp44
 70
     1
102
RTVSPropertyOp45
 70
     1
102
RTVSPropertyOp46
 70
     1
102
RTVSPropertyOp47
 70
     1
102
RTVSPropertyOp48
 70
     1
102
RTVSPropertyOp49
 70
     1
102
RTVSPropertyOp50
 70
     1
102
RTVSPropertyOp51
 70
     0
102
RTVSPropertyOp52
 70
     0
102
RTVSPropertyOp53
 70
     1
102
RTVSPropertyOp54
 70
     1
102
RTVSPropertyOp55
 70
     1
102
RTVSPropertyOp56
 70
     1
102
RTVSPropertyOp57
 70
     1
102
RTVSPropertyOp58
 70
     1
102
RTVSPropertyOp59
 70
     1
102
RTVSPropertyOp60
 70
     1
102
RTVSPropertyOp61
 70
     1
102
RTVSPropertyOp62
 70
     1
  0
XRECORD
  5
D0FB
102
{ACAD_REACTORS
330
D0FA
102
}
330
D0FA
100
AcDbXrecord
280
     1
102
RTVSPost2010Prop28
280
     0
102
RTVSPost2010PropOp28
 70
     1
102
RTVSPost2010Prop29
280
     1
102
RTVSPost2010PropOp29
 70
     1
102
RTVSPost2010Prop30
280
     1
102
RTVSPost2010PropOp30
 70
     1
102
RTVSPost2010Prop31
280
     0
102
RTVSPost2010PropOp31
 70
     1
102
RTVSPost2010Prop32
280
     0
102
RTVSPost2010PropOp32
 70
     1
102
RTVSPost2010Prop33
280
     0
102
RTVSPost2010PropOp33
 70
     1
102
RTVSPost2010Prop34
280
     0
102
RTVSPost2010PropOp34
 70
     1
102
RTVSPost2010Prop35
280
     0
102
RTVSPost2010PropOp35
 70
     1
102
RTVSPost2010Prop36
280
     0
102
RTVSPost2010PropOp36
 70
     1
102
RTVSPost2010Prop37
 90
       50
102
RTVSPost2010PropOp37
 70
     1
102
RTVSPost2010Prop38
140
0.0
102
RTVSPost2010PropOp38
 70
     1
102
RTVSPost2010Prop39
140
1.0
102
RTVSPost2010PropOp39
 70
     1
102
RTVSPost2010Prop40
 90
        0
102
RTVSPost2010PropOp40
 70
     1
102
RTVSPost2010Prop41ColorIndex
 90
       18
102
RTVSPost2010Prop41ColorRGB
 90
        0
102
RTVSPost2010PropOp41
 70
     1
102
RTVSPost2010Prop42
 90
       50
102
RTVSPost2010PropOp42
 70
     1
102
RTVSPost2010Prop43
 90
        3
102
RTVSPost2010PropOp43
 70
     1
102
RTVSPost2010Prop44ColorIndex
 90
        5
102
RTVSPost2010Prop44ColorRGB
 90
      255
102
RTVSPost2010PropOp44
 70
     1
102
RTVSPost2010Prop45
280
     0
102
RTVSPost2010PropOp45
 70
     1
102
RTVSPost2010Prop46
 90
       50
102
RTVSPost2010PropOp46
 70
     1
102
RTVSPost2010Prop47
 90
       50
102
RTVSPost2010PropOp47
 70
     1
102
RTVSPost2010Prop48
 90
       50
102
RTVSPost2010PropOp48
 70
     1
102
RTVSPost2010Prop49
280
     0
102
RTVSPost2010PropOp49
 70
     1
102
RTVSPost2010Prop50
 90
       50
102
RTVSPost2010PropOp50
 70
     1
102
RTVSPost2010Prop51ColorIndex
 90
      256
102
RTVSPost2010Prop51ColorRGB
 90
-16777216
102
RTVSPost2010PropOp51
 70
     0
102
RTVSPost2010Prop52
140
1.0
102
RTVSPost2010PropOp52
 70
     0
102
RTVSPost2010Prop53
 90
        2
102
RTVSPost2010PropOp53
 70
     1
102
RTVSPost2010Prop54
  1
strokes_ogs.tif
102
RTVSPost2010PropOp54
 70
     1
102
RTVSPost2010Prop55
280
     0
102
RTVSPost2010PropOp55
 70
     1
102
RTVSPost2010Prop56
140
1.0
102
RTVSPost2010PropOp56
 70
     1
102
RTVSPost2010Prop57
140
1.0
102
RTVSPost2010PropOp57
 70
     1
102
RTVSPropertyOp0
 70
     1
102
RTVSPropertyOp1
 70
     1
102
RTVSPropertyOp2
 70
     1
102
RTVSPropertyOp3
 70
     1
102
RTVSPropertyOp4
 70
     1
102
RTVSPropertyOp5
 70
     1
102
RTVSPropertyOp6
 70
     1
102
RTVSPropertyOp7
 70
     1
102
RTVSPropertyOp8
 70
     1
102
RTVSPropertyOp9
 70
     1
102
RTVSPropertyOp10
 70
     1
102
RTVSPropertyOp11
 70
     1
102
RTVSPropertyOp12
 70
     1
102
RTVSPropertyOp13
 70
     1
102
RTVSPropertyOp14
 70
     1
102
RTVSPropertyOp15
 70
     1
102
RTVSPropertyOp16
 70
     1
102
RTVSPropertyOp17
 70
     1
102
RTVSPropertyOp18
 70
     1
102
RTVSPropertyOp19
 70
     1
102
RTVSPropertyOp20
 70
     1
102
RTVSPropertyOp21
 70
     1
102
RTVSPropertyOp22
 70
     1
102
RTVSPropertyOp23
 70
     1
102
RTVSPropertyOp24
 70
     1
102
RTVSPropertyOp25
 70
     1
102
RTVSPropertyOp26
 70
     1
102
RTVSPropertyOp27
 70
     1
102
RTVSPropertyOp28
 70
     1
102
RTVSPropertyOp29
 70
     1
102
RTVSPropertyOp30
 70
     1
102
RTVSPropertyOp31
 70
     1
102
RTVSPropertyOp32
 70
     1
102
RTVSPropertyOp33
 70
     1
102
RTVSPropertyOp34
 70
     1
102
RTVSPropertyOp35
 70
     1
102
RTVSPropertyOp36
 70
     1
102
RTVSPropertyOp37
 70
     1
102
RTVSPropertyOp38
 70
     1
102
RTVSPropertyOp39
 70
     1
102
RTVSPropertyOp40
 70
     1
102
RTVSPropertyOp41
 70
     1
102
RTVSPropertyOp42
 70
     1
102
RTVSPropertyOp43
 70
     1
102
RTVSPropertyOp44
 70
     1
102
RTVSPropertyOp45
 70
     1
102
RTVSPropertyOp46
 70
     1
102
RTVSPropertyOp47
 70
     1
102
RTVSPropertyOp48
 70
     1
102
RTVSPropertyOp49
 70
     1
102
RTVSPropertyOp50
 70
     1
102
RTVSPropertyOp51
 70
     0
102
RTVSPropertyOp52
 70
     0
102
RTVSPropertyOp53
 70
     1
102
RTVSPropertyOp54
 70
     1
102
RTVSPropertyOp55
 70
     1
102
RTVSPropertyOp56
 70
     1
102
RTVSPropertyOp57
 70
     1
102
RTVSPropertyOp58
 70
     1
102
RTVSPropertyOp59
 70
     1
102
RTVSPropertyOp60
 70
     1
102
RTVSPropertyOp61
 70
     1
102
RTVSPropertyOp62
 70
     1
  0
XRECORD
  5
D0FD
102
{ACAD_REACTORS
330
D0FC
102
}
330
D0FC
100
AcDbXrecord
280
     1
102
RTVSPost2010Prop28
280
     0
102
RTVSPost2010PropOp28
 70
     1
102
RTVSPost2010Prop29
280
     1
102
RTVSPost2010PropOp29
 70
     1
102
RTVSPost2010Prop30
280
     1
102
RTVSPost2010PropOp30
 70
     1
102
RTVSPost2010Prop31
280
     0
102
RTVSPost2010PropOp31
 70
     1
102
RTVSPost2010Prop32
280
     0
102
RTVSPost2010PropOp32
 70
     1
102
RTVSPost2010Prop33
280
     0
102
RTVSPost2010PropOp33
 70
     1
102
RTVSPost2010Prop34
280
     0
102
RTVSPost2010PropOp34
 70
     1
102
RTVSPost2010Prop35
280
     0
102
RTVSPost2010PropOp35
 70
     1
102
RTVSPost2010Prop36
280
     0
102
RTVSPost2010PropOp36
 70
     1
102
RTVSPost2010Prop37
 90
       50
102
RTVSPost2010PropOp37
 70
     1
102
RTVSPost2010Prop38
140
0.0
102
RTVSPost2010PropOp38
 70
     1
102
RTVSPost2010Prop39
140
1.0
102
RTVSPost2010PropOp39
 70
     1
102
RTVSPost2010Prop40
 90
        0
102
RTVSPost2010PropOp40
 70
     1
102
RTVSPost2010Prop41ColorIndex
 90
       18
102
RTVSPost2010Prop41ColorRGB
 90
        0
102
RTVSPost2010PropOp41
 70
     1
102
RTVSPost2010Prop42
 90
       50
102
RTVSPost2010PropOp42
 70
     1
102
RTVSPost2010Prop43
 90
        3
102
RTVSPost2010PropOp43
 70
     1
102
RTVSPost2010Prop44ColorIndex
 90
        5
102
RTVSPost2010Prop44ColorRGB
 90
      255
102
RTVSPost2010PropOp44
 70
     1
102
RTVSPost2010Prop45
280
     0
102
RTVSPost2010PropOp45
 70
     1
102
RTVSPost2010Prop46
 90
       50
102
RTVSPost2010PropOp46
 70
     1
102
RTVSPost2010Prop47
 90
       50
102
RTVSPost2010PropOp47
 70
     1
102
RTVSPost2010Prop48
 90
       50
102
RTVSPost2010PropOp48
 70
     1
102
RTVSPost2010Prop49
280
     0
102
RTVSPost2010PropOp49
 70
     1
102
RTVSPost2010Prop50
 90
       50
102
RTVSPost2010PropOp50
 70
     1
102
RTVSPost2010Prop51ColorIndex
 90
      256
102
RTVSPost2010Prop51ColorRGB
 90
-16777216
102
RTVSPost2010PropOp51
 70
     0
102
RTVSPost2010Prop52
140
1.0
102
RTVSPost2010PropOp52
 70
     0
102
RTVSPost2010Prop53
 90
        2
102
RTVSPost2010PropOp53
 70
     1
102
RTVSPost2010Prop54
  1
strokes_ogs.tif
102
RTVSPost2010PropOp54
 70
     1
102
RTVSPost2010Prop55
280
     0
102
RTVSPost2010PropOp55
 70
     1
102
RTVSPost2010Prop56
140
1.0
102
RTVSPost2010PropOp56
 70
     1
102
RTVSPost2010Prop57
140
1.0
102
RTVSPost2010PropOp57
 70
     1
102
RTVSPropertyOp0
 70
     1
102
RTVSPropertyOp1
 70
     1
102
RTVSPropertyOp2
 70
     1
102
RTVSPropertyOp3
 70
     1
102
RTVSPropertyOp4
 70
     1
102
RTVSPropertyOp5
 70
     1
102
RTVSPropertyOp6
 70
     1
102
RTVSPropertyOp7
 70
     1
102
RTVSPropertyOp8
 70
     1
102
RTVSPropertyOp9
 70
     1
102
RTVSPropertyOp10
 70
     1
102
RTVSPropertyOp11
 70
     1
102
RTVSPropertyOp12
 70
     1
102
RTVSPropertyOp13
 70
     1
102
RTVSPropertyOp14
 70
     1
102
RTVSPropertyOp15
 70
     1
102
RTVSPropertyOp16
 70
     1
102
RTVSPropertyOp17
 70
     1
102
RTVSPropertyOp18
 70
     1
102
RTVSPropertyOp19
 70
     1
102
RTVSPropertyOp20
 70
     1
102
RTVSPropertyOp21
 70
     1
102
RTVSPropertyOp22
 70
     1
102
RTVSPropertyOp23
 70
     1
102
RTVSPropertyOp24
 70
     1
102
RTVSPropertyOp25
 70
     1
102
RTVSPropertyOp26
 70
     1
102
RTVSPropertyOp27
 70
     1
102
RTVSPropertyOp28
 70
     1
102
RTVSPropertyOp29
 70
     1
102
RTVSPropertyOp30
 70
     1
102
RTVSPropertyOp31
 70
     1
102
RTVSPropertyOp32
 70
     1
102
RTVSPropertyOp33
 70
     1
102
RTVSPropertyOp34
 70
     1
102
RTVSPropertyOp35
 70
     1
102
RTVSPropertyOp36
 70
     1
102
RTVSPropertyOp37
 70
     1
102
RTVSPropertyOp38
 70
     1
102
RTVSPropertyOp39
 70
     1
102
RTVSPropertyOp40
 70
     1
102
RTVSPropertyOp41
 70
     1
102
RTVSPropertyOp42
 70
     1
102
RTVSPropertyOp43
 70
     1
102
RTVSPropertyOp44
 70
     1
102
RTVSPropertyOp45
 70
     1
102
RTVSPropertyOp46
 70
     1
102
RTVSPropertyOp47
 70
     1
102
RTVSPropertyOp48
 70
     1
102
RTVSPropertyOp49
 70
     1
102
RTVSPropertyOp50
 70
     1
102
RTVSPropertyOp51
 70
     0
102
RTVSPropertyOp52
 70
     0
102
RTVSPropertyOp53
 70
     1
102
RTVSPropertyOp54
 70
     1
102
RTVSPropertyOp55
 70
     1
102
RTVSPropertyOp56
 70
     1
102
RTVSPropertyOp57
 70
     1
102
RTVSPropertyOp58
 70
     1
102
RTVSPropertyOp59
 70
     1
102
RTVSPropertyOp60
 70
     1
102
RTVSPropertyOp61
 70
     1
102
RTVSPropertyOp62
 70
     1
  0
XRECORD
  5
D105
102
{ACAD_REACTORS
330
D104
102
}
330
D104
100
AcDbXrecord
280
     1
102
RTVSPost2010Prop28
280
     0
102
RTVSPost2010PropOp28
 70
     1
102
RTVSPost2010Prop29
280
     1
102
RTVSPost2010PropOp29
 70
     1
102
RTVSPost2010Prop30
280
     1
102
RTVSPost2010PropOp30
 70
     1
102
RTVSPost2010Prop31
280
     0
102
RTVSPost2010PropOp31
 70
     1
102
RTVSPost2010Prop32
280
     0
102
RTVSPost2010PropOp32
 70
     1
102
RTVSPost2010Prop33
280
     0
102
RTVSPost2010PropOp33
 70
     1
102
RTVSPost2010Prop34
280
     0
102
RTVSPost2010PropOp34
 70
     1
102
RTVSPost2010Prop35
280
     0
102
RTVSPost2010PropOp35
 70
     1
102
RTVSPost2010Prop36
280
     0
102
RTVSPost2010PropOp36
 70
     1
102
RTVSPost2010Prop37
 90
       50
102
RTVSPost2010PropOp37
 70
     1
102
RTVSPost2010Prop38
140
0.0
102
RTVSPost2010PropOp38
 70
     1
102
RTVSPost2010Prop39
140
1.0
102
RTVSPost2010PropOp39
 70
     1
102
RTVSPost2010Prop40
 90
        0
102
RTVSPost2010PropOp40
 70
     1
102
RTVSPost2010Prop41ColorIndex
 90
       18
102
RTVSPost2010Prop41ColorRGB
 90
        0
102
RTVSPost2010PropOp41
 70
     1
102
RTVSPost2010Prop42
 90
       50
102
RTVSPost2010PropOp42
 70
     1
102
RTVSPost2010Prop43
 90
        3
102
RTVSPost2010PropOp43
 70
     1
102
RTVSPost2010Prop44ColorIndex
 90
        5
102
RTVSPost2010Prop44ColorRGB
 90
      255
102
RTVSPost2010PropOp44
 70
     1
102
RTVSPost2010Prop45
280
     0
102
RTVSPost2010PropOp45
 70
     1
102
RTVSPost2010Prop46
 90
       50
102
RTVSPost2010PropOp46
 70
     1
102
RTVSPost2010Prop47
 90
       50
102
RTVSPost2010PropOp47
 70
     1
102
RTVSPost2010Prop48
 90
       50
102
RTVSPost2010PropOp48
 70
     1
102
RTVSPost2010Prop49
280
     0
102
RTVSPost2010PropOp49
 70
     1
102
RTVSPost2010Prop50
 90
       50
102
RTVSPost2010PropOp50
 70
     1
102
RTVSPost2010Prop51ColorIndex
 90
      256
102
RTVSPost2010Prop51ColorRGB
 90
-16777216
102
RTVSPost2010PropOp51
 70
     0
102
RTVSPost2010Prop52
140
1.0
102
RTVSPost2010PropOp52
 70
     0
102
RTVSPost2010Prop53
 90
        2
102
RTVSPost2010PropOp53
 70
     1
102
RTVSPost2010Prop54
  1
strokes_ogs.tif
102
RTVSPost2010PropOp54
 70
     1
102
RTVSPost2010Prop55
280
     0
102
RTVSPost2010PropOp55
 70
     1
102
RTVSPost2010Prop56
140
1.0
102
RTVSPost2010PropOp56
 70
     1
102
RTVSPost2010Prop57
140
1.0
102
RTVSPost2010PropOp57
 70
     1
102
RTVSPropertyOp0
 70
     1
102
RTVSPropertyOp1
 70
     1
102
RTVSPropertyOp2
 70
     1
102
RTVSPropertyOp3
 70
     1
102
RTVSPropertyOp4
 70
     1
102
RTVSPropertyOp5
 70
     1
102
RTVSPropertyOp6
 70
     1
102
RTVSPropertyOp7
 70
     1
102
RTVSPropertyOp8
 70
     1
102
RTVSPropertyOp9
 70
     1
102
RTVSPropertyOp10
 70
     1
102
RTVSPropertyOp11
 70
     1
102
RTVSPropertyOp12
 70
     1
102
RTVSPropertyOp13
 70
     1
102
RTVSPropertyOp14
 70
     1
102
RTVSPropertyOp15
 70
     1
102
RTVSPropertyOp16
 70
     1
102
RTVSPropertyOp17
 70
     1
102
RTVSPropertyOp18
 70
     1
102
RTVSPropertyOp19
 70
     1
102
RTVSPropertyOp20
 70
     1
102
RTVSPropertyOp21
 70
     1
102
RTVSPropertyOp22
 70
     1
102
RTVSPropertyOp23
 70
     1
102
RTVSPropertyOp24
 70
     1
102
RTVSPropertyOp25
 70
     1
102
RTVSPropertyOp26
 70
     1
102
RTVSPropertyOp27
 70
     1
102
RTVSPropertyOp28
 70
     1
102
RTVSPropertyOp29
 70
     1
102
RTVSPropertyOp30
 70
     1
102
RTVSPropertyOp31
 70
     1
102
RTVSPropertyOp32
 70
     1
102
RTVSPropertyOp33
 70
     1
102
RTVSPropertyOp34
 70
     1
102
RTVSPropertyOp35
 70
     1
102
RTVSPropertyOp36
 70
     1
102
RTVSPropertyOp37
 70
     1
102
RTVSPropertyOp38
 70
     1
102
RTVSPropertyOp39
 70
     1
102
RTVSPropertyOp40
 70
     1
102
RTVSPropertyOp41
 70
     1
102
RTVSPropertyOp42
 70
     1
102
RTVSPropertyOp43
 70
     1
102
RTVSPropertyOp44
 70
     1
102
RTVSPropertyOp45
 70
     1
102
RTVSPropertyOp46
 70
     1
102
RTVSPropertyOp47
 70
     1
102
RTVSPropertyOp48
 70
     1
102
RTVSPropertyOp49
 70
     1
102
RTVSPropertyOp50
 70
     1
102
RTVSPropertyOp51
 70
     0
102
RTVSPropertyOp52
 70
     0
102
RTVSPropertyOp53
 70
     1
102
RTVSPropertyOp54
 70
     1
102
RTVSPropertyOp55
 70
     1
102
RTVSPropertyOp56
 70
     1
102
RTVSPropertyOp57
 70
     1
102
RTVSPropertyOp58
 70
     1
102
RTVSPropertyOp59
 70
     1
102
RTVSPropertyOp60
 70
     1
102
RTVSPropertyOp61
 70
     1
102
RTVSPropertyOp62
 70
     1
  0
XRECORD
  5
D121
102
{ACAD_REACTORS
330
D120
102
}
330
D120
100
AcDbXrecord
280
     1
102
RTVSPost2010Prop28
280
     0
102
RTVSPost2010PropOp28
 70
     1
102
RTVSPost2010Prop29
280
     1
102
RTVSPost2010PropOp29
 70
     1
102
RTVSPost2010Prop30
280
     1
102
RTVSPost2010PropOp30
 70
     1
102
RTVSPost2010Prop31
280
     0
102
RTVSPost2010PropOp31
 70
     1
102
RTVSPost2010Prop32
280
     0
102
RTVSPost2010PropOp32
 70
     1
102
RTVSPost2010Prop33
280
     0
102
RTVSPost2010PropOp33
 70
     1
102
RTVSPost2010Prop34
280
     0
102
RTVSPost2010PropOp34
 70
     1
102
RTVSPost2010Prop35
280
     0
102
RTVSPost2010PropOp35
 70
     1
102
RTVSPost2010Prop36
280
     0
102
RTVSPost2010PropOp36
 70
     1
102
RTVSPost2010Prop37
 90
       50
102
RTVSPost2010PropOp37
 70
     0
102
RTVSPost2010Prop38
140
0.0
102
RTVSPost2010PropOp38
 70
     0
102
RTVSPost2010Prop39
140
1.0
102
RTVSPost2010PropOp39
 70
     0
102
RTVSPost2010Prop40
 90
        0
102
RTVSPost2010PropOp40
 70
     0
102
RTVSPost2010Prop41ColorIndex
 90
       18
102
RTVSPost2010Prop41ColorRGB
 90
        0
102
RTVSPost2010PropOp41
 70
     0
102
RTVSPost2010Prop42
 90
       50
102
RTVSPost2010PropOp42
 70
     0
102
RTVSPost2010Prop43
 90
        3
102
RTVSPost2010PropOp43
 70
     0
102
RTVSPost2010Prop44ColorIndex
 90
        5
102
RTVSPost2010Prop44ColorRGB
 90
      255
102
RTVSPost2010PropOp44
 70
     0
102
RTVSPost2010Prop45
280
     0
102
RTVSPost2010PropOp45
 70
     1
102
RTVSPost2010Prop46
 90
       50
102
RTVSPost2010PropOp46
 70
     0
102
RTVSPost2010Prop47
 90
       50
102
RTVSPost2010PropOp47
 70
     0
102
RTVSPost2010Prop48
 90
       50
102
RTVSPost2010PropOp48
 70
     0
102
RTVSPost2010Prop49
280
     0
102
RTVSPost2010PropOp49
 70
     1
102
RTVSPost2010Prop50
 90
       50
102
RTVSPost2010PropOp50
 70
     0
102
RTVSPost2010Prop51ColorIndex
 90
      256
102
RTVSPost2010Prop51ColorRGB
 90
-16777216
102
RTVSPost2010PropOp51
 70
     0
102
RTVSPost2010Prop52
140
1.0
102
RTVSPost2010PropOp52
 70
     0
102
RTVSPost2010Prop53
 90
        2
102
RTVSPost2010PropOp53
 70
     0
102
RTVSPost2010Prop54
  1
strokes_ogs.tif
102
RTVSPost2010PropOp54
 70
     0
102
RTVSPost2010Prop55
280
     0
102
RTVSPost2010PropOp55
 70
     1
102
RTVSPost2010Prop56
140
1.0
102
RTVSPost2010PropOp56
 70
     0
102
RTVSPost2010Prop57
140
1.0
102
RTVSPost2010PropOp57
 70
     0
102
RTVSPropertyOp0
 70
     0
102
RTVSPropertyOp1
 70
     0
102
RTVSPropertyOp2
 70
     0
102
RTVSPropertyOp3
 70
     0
102
RTVSPropertyOp4
 70
     0
102
RTVSPropertyOp5
 70
     0
102
RTVSPropertyOp6
 70
     0
102
RTVSPropertyOp7
 70
     0
102
RTVSPropertyOp8
 70
     0
102
RTVSPropertyOp9
 70
     0
102
RTVSPropertyOp10
 70
     0
102
RTVSPropertyOp11
 70
     0
102
RTVSPropertyOp12
 70
     0
102
RTVSPropertyOp13
 70
     0
102
RTVSPropertyOp14
 70
     2
102
RTVSPropertyOp15
 70
     0
102
RTVSPropertyOp16
 70
     0
102
RTVSPropertyOp17
 70
     0
102
RTVSPropertyOp18
 70
     0
102
RTVSPropertyOp19
 70
     0
102
RTVSPropertyOp20
 70
     0
102
RTVSPropertyOp21
 70
     0
102
RTVSPropertyOp22
 70
     0
102
RTVSPropertyOp23
 70
     0
102
RTVSPropertyOp24
 70
     0
102
RTVSPropertyOp25
 70
     0
102
RTVSPropertyOp26
 70
     0
102
RTVSPropertyOp27
 70
     0
102
RTVSPropertyOp28
 70
     1
102
RTVSPropertyOp29
 70
     1
102
RTVSPropertyOp30
 70
     1
102
RTVSPropertyOp31
 70
     1
102
RTVSPropertyOp32
 70
     1
102
RTVSPropertyOp33
 70
     1
102
RTVSPropertyOp34
 70
     1
102
RTVSPropertyOp35
 70
     1
102
RTVSPropertyOp36
 70
     1
102
RTVSPropertyOp37
 70
     0
102
RTVSPropertyOp38
 70
     0
102
RTVSPropertyOp39
 70
     0
102
RTVSPropertyOp40
 70
     0
102
RTVSPropertyOp41
 70
     0
102
RTVSPropertyOp42
 70
     0
102
RTVSPropertyOp43
 70
     0
102
RTVSPropertyOp44
 70
     0
102
RTVSPropertyOp45
 70
     1
102
RTVSPropertyOp46
 70
     0
102
RTVSPropertyOp47
 70
     0
102
RTVSPropertyOp48
 70
     0
102
RTVSPropertyOp49
 70
     1
102
RTVSPropertyOp50
 70
     0
102
RTVSPropertyOp51
 70
     0
102
RTVSPropertyOp52
 70
     0
102
RTVSPropertyOp53
 70
     0
102
RTVSPropertyOp54
 70
     0
102
RTVSPropertyOp55
 70
     1
102
RTVSPropertyOp56
 70
     0
102
RTVSPropertyOp57
 70
     0
102
RTVSPropertyOp58
 70
     0
102
RTVSPropertyOp59
 70
     0
102
RTVSPropertyOp60
 70
     0
102
RTVSPropertyOp61
 70
     0
102
RTVSPropertyOp62
 70
     0
  0
XRECORD
  5
D111
102
{ACAD_REACTORS
330
D110
102
}
330
D110
100
AcDbXrecord
280
     1
102
RTVSPost2010Prop28
280
     0
102
RTVSPost2010PropOp28
 70
     1
102
RTVSPost2010Prop29
280
     1
102
RTVSPost2010PropOp29
 70
     1
102
RTVSPost2010Prop30
280
     1
102
RTVSPost2010PropOp30
 70
     1
102
RTVSPost2010Prop31
280
     0
102
RTVSPost2010PropOp31
 70
     1
102
RTVSPost2010Prop32
280
     0
102
RTVSPost2010PropOp32
 70
     1
102
RTVSPost2010Prop33
280
     0
102
RTVSPost2010PropOp33
 70
     1
102
RTVSPost2010Prop34
280
     0
102
RTVSPost2010PropOp34
 70
     1
102
RTVSPost2010Prop35
280
     0
102
RTVSPost2010PropOp35
 70
     1
102
RTVSPost2010Prop36
280
     0
102
RTVSPost2010PropOp36
 70
     1
102
RTVSPost2010Prop37
 90
       50
102
RTVSPost2010PropOp37
 70
     1
102
RTVSPost2010Prop38
140
0.0
102
RTVSPost2010PropOp38
 70
     1
102
RTVSPost2010Prop39
140
1.0
102
RTVSPost2010PropOp39
 70
     1
102
RTVSPost2010Prop40
 90
        0
102
RTVSPost2010PropOp40
 70
     1
102
RTVSPost2010Prop41ColorIndex
 90
       18
102
RTVSPost2010Prop41ColorRGB
 90
        0
102
RTVSPost2010PropOp41
 70
     1
102
RTVSPost2010Prop42
 90
       50
102
RTVSPost2010PropOp42
 70
     1
102
RTVSPost2010Prop43
 90
        3
102
RTVSPost2010PropOp43
 70
     1
102
RTVSPost2010Prop44ColorIndex
 90
        5
102
RTVSPost2010Prop44ColorRGB
 90
      255
102
RTVSPost2010PropOp44
 70
     1
102
RTVSPost2010Prop45
280
     0
102
RTVSPost2010PropOp45
 70
     1
102
RTVSPost2010Prop46
 90
       50
102
RTVSPost2010PropOp46
 70
     1
102
RTVSPost2010Prop47
 90
       50
102
RTVSPost2010PropOp47
 70
     1
102
RTVSPost2010Prop48
 90
       50
102
RTVSPost2010PropOp48
 70
     1
102
RTVSPost2010Prop49
280
     0
102
RTVSPost2010PropOp49
 70
     1
102
RTVSPost2010Prop50
 90
       50
102
RTVSPost2010PropOp50
 70
     1
102
RTVSPost2010Prop51ColorIndex
 90
      256
102
RTVSPost2010Prop51ColorRGB
 90
-16777216
102
RTVSPost2010PropOp51
 70
     0
102
RTVSPost2010Prop52
140
1.0
102
RTVSPost2010PropOp52
 70
     0
102
RTVSPost2010Prop53
 90
        2
102
RTVSPost2010PropOp53
 70
     1
102
RTVSPost2010Prop54
  1
strokes_ogs.tif
102
RTVSPost2010PropOp54
 70
     1
102
RTVSPost2010Prop55
280
     0
102
RTVSPost2010PropOp55
 70
     1
102
RTVSPost2010Prop56
140
1.0
102
RTVSPost2010PropOp56
 70
     1
102
RTVSPost2010Prop57
140
1.0
102
RTVSPost2010PropOp57
 70
     1
102
RTVSPropertyOp0
 70
     1
102
RTVSPropertyOp1
 70
     1
102
RTVSPropertyOp2
 70
     1
102
RTVSPropertyOp3
 70
     1
102
RTVSPropertyOp4
 70
     1
102
RTVSPropertyOp5
 70
     1
102
RTVSPropertyOp6
 70
     1
102
RTVSPropertyOp7
 70
     1
102
RTVSPropertyOp8
 70
     1
102
RTVSPropertyOp9
 70
     1
102
RTVSPropertyOp10
 70
     1
102
RTVSPropertyOp11
 70
     1
102
RTVSPropertyOp12
 70
     1
102
RTVSPropertyOp13
 70
     1
102
RTVSPropertyOp14
 70
     1
102
RTVSPropertyOp15
 70
     1
102
RTVSPropertyOp16
 70
     1
102
RTVSPropertyOp17
 70
     1
102
RTVSPropertyOp18
 70
     1
102
RTVSPropertyOp19
 70
     1
102
RTVSPropertyOp20
 70
     1
102
RTVSPropertyOp21
 70
     1
102
RTVSPropertyOp22
 70
     1
102
RTVSPropertyOp23
 70
     1
102
RTVSPropertyOp24
 70
     1
102
RTVSPropertyOp25
 70
     1
102
RTVSPropertyOp26
 70
     1
102
RTVSPropertyOp27
 70
     1
102
RTVSPropertyOp28
 70
     1
102
RTVSPropertyOp29
 70
     1
102
RTVSPropertyOp30
 70
     1
102
RTVSPropertyOp31
 70
     1
102
RTVSPropertyOp32
 70
     1
102
RTVSPropertyOp33
 70
     1
102
RTVSPropertyOp34
 70
     1
102
RTVSPropertyOp35
 70
     1
102
RTVSPropertyOp36
 70
     1
102
RTVSPropertyOp37
 70
     1
102
RTVSPropertyOp38
 70
     1
102
RTVSPropertyOp39
 70
     1
102
RTVSPropertyOp40
 70
     1
102
RTVSPropertyOp41
 70
     1
102
RTVSPropertyOp42
 70
     1
102
RTVSPropertyOp43
 70
     1
102
RTVSPropertyOp44
 70
     1
102
RTVSPropertyOp45
 70
     1
102
RTVSPropertyOp46
 70
     1
102
RTVSPropertyOp47
 70
     1
102
RTVSPropertyOp48
 70
     1
102
RTVSPropertyOp49
 70
     1
102
RTVSPropertyOp50
 70
     1
102
RTVSPropertyOp51
 70
     0
102
RTVSPropertyOp52
 70
     0
102
RTVSPropertyOp53
 70
     1
102
RTVSPropertyOp54
 70
     1
102
RTVSPropertyOp55
 70
     1
102
RTVSPropertyOp56
 70
     1
102
RTVSPropertyOp57
 70
     1
102
RTVSPropertyOp58
 70
     1
102
RTVSPropertyOp59
 70
     1
102
RTVSPropertyOp60
 70
     1
102
RTVSPropertyOp61
 70
     1
102
RTVSPropertyOp62
 70
     1
  0
XRECORD
  5
D123
102
{ACAD_REACTORS
330
D122
102
}
330
D122
100
AcDbXrecord
280
     1
102
RTVSPost2010Prop28
280
     0
102
RTVSPost2010PropOp28
 70
     1
102
RTVSPost2010Prop29
280
     1
102
RTVSPost2010PropOp29
 70
     1
102
RTVSPost2010Prop30
280
     1
102
RTVSPost2010PropOp30
 70
     1
102
RTVSPost2010Prop31
280
     0
102
RTVSPost2010PropOp31
 70
     1
102
RTVSPost2010Prop32
280
     0
102
RTVSPost2010PropOp32
 70
     1
102
RTVSPost2010Prop33
280
     0
102
RTVSPost2010PropOp33
 70
     1
102
RTVSPost2010Prop34
280
     0
102
RTVSPost2010PropOp34
 70
     1
102
RTVSPost2010Prop35
280
     0
102
RTVSPost2010PropOp35
 70
     1
102
RTVSPost2010Prop36
280
     0
102
RTVSPost2010PropOp36
 70
     1
102
RTVSPost2010Prop37
 90
       50
102
RTVSPost2010PropOp37
 70
     0
102
RTVSPost2010Prop38
140
0.0
102
RTVSPost2010PropOp38
 70
     0
102
RTVSPost2010Prop39
140
1.0
102
RTVSPost2010PropOp39
 70
     0
102
RTVSPost2010Prop40
 90
        0
102
RTVSPost2010PropOp40
 70
     0
102
RTVSPost2010Prop41ColorIndex
 90
       18
102
RTVSPost2010Prop41ColorRGB
 90
        0
102
RTVSPost2010PropOp41
 70
     0
102
RTVSPost2010Prop42
 90
       50
102
RTVSPost2010PropOp42
 70
     0
102
RTVSPost2010Prop43
 90
        3
102
RTVSPost2010PropOp43
 70
     0
102
RTVSPost2010Prop44ColorIndex
 90
        5
102
RTVSPost2010Prop44ColorRGB
 90
      255
102
RTVSPost2010PropOp44
 70
     0
102
RTVSPost2010Prop45
280
     0
102
RTVSPost2010PropOp45
 70
     1
102
RTVSPost2010Prop46
 90
       50
102
RTVSPost2010PropOp46
 70
     0
102
RTVSPost2010Prop47
 90
       50
102
RTVSPost2010PropOp47
 70
     0
102
RTVSPost2010Prop48
 90
       50
102
RTVSPost2010PropOp48
 70
     0
102
RTVSPost2010Prop49
280
     0
102
RTVSPost2010PropOp49
 70
     1
102
RTVSPost2010Prop50
 90
       50
102
RTVSPost2010PropOp50
 70
     0
102
RTVSPost2010Prop51ColorIndex
 90
      256
102
RTVSPost2010Prop51ColorRGB
 90
-16777216
102
RTVSPost2010PropOp51
 70
     0
102
RTVSPost2010Prop52
140
1.0
102
RTVSPost2010PropOp52
 70
     0
102
RTVSPost2010Prop53
 90
        2
102
RTVSPost2010PropOp53
 70
     0
102
RTVSPost2010Prop54
  1
strokes_ogs.tif
102
RTVSPost2010PropOp54
 70
     0
102
RTVSPost2010Prop55
280
     0
102
RTVSPost2010PropOp55
 70
     1
102
RTVSPost2010Prop56
140
1.0
102
RTVSPost2010PropOp56
 70
     0
102
RTVSPost2010Prop57
140
1.0
102
RTVSPost2010PropOp57
 70
     0
102
RTVSPropertyOp0
 70
     0
102
RTVSPropertyOp1
 70
     0
102
RTVSPropertyOp2
 70
     0
102
RTVSPropertyOp3
 70
     0
102
RTVSPropertyOp4
 70
     0
102
RTVSPropertyOp5
 70
     0
102
RTVSPropertyOp6
 70
     0
102
RTVSPropertyOp7
 70
     0
102
RTVSPropertyOp8
 70
     0
102
RTVSPropertyOp9
 70
     0
102
RTVSPropertyOp10
 70
     0
102
RTVSPropertyOp11
 70
     0
102
RTVSPropertyOp12
 70
     0
102
RTVSPropertyOp13
 70
     0
102
RTVSPropertyOp14
 70
     2
102
RTVSPropertyOp15
 70
     0
102
RTVSPropertyOp16
 70
     0
102
RTVSPropertyOp17
 70
     0
102
RTVSPropertyOp18
 70
     0
102
RTVSPropertyOp19
 70
     0
102
RTVSPropertyOp20
 70
     0
102
RTVSPropertyOp21
 70
     0
102
RTVSPropertyOp22
 70
     0
102
RTVSPropertyOp23
 70
     0
102
RTVSPropertyOp24
 70
     0
102
RTVSPropertyOp25
 70
     0
102
RTVSPropertyOp26
 70
     0
102
RTVSPropertyOp27
 70
     0
102
RTVSPropertyOp28
 70
     1
102
RTVSPropertyOp29
 70
     1
102
RTVSPropertyOp30
 70
     1
102
RTVSPropertyOp31
 70
     1
102
RTVSPropertyOp32
 70
     1
102
RTVSPropertyOp33
 70
     1
102
RTVSPropertyOp34
 70
     1
102
RTVSPropertyOp35
 70
     1
102
RTVSPropertyOp36
 70
     1
102
RTVSPropertyOp37
 70
     0
102
RTVSPropertyOp38
 70
     0
102
RTVSPropertyOp39
 70
     0
102
RTVSPropertyOp40
 70
     0
102
RTVSPropertyOp41
 70
     0
102
RTVSPropertyOp42
 70
     0
102
RTVSPropertyOp43
 70
     0
102
RTVSPropertyOp44
 70
     0
102
RTVSPropertyOp45
 70
     1
102
RTVSPropertyOp46
 70
     0
102
RTVSPropertyOp47
 70
     0
102
RTVSPropertyOp48
 70
     0
102
RTVSPropertyOp49
 70
     1
102
RTVSPropertyOp50
 70
     0
102
RTVSPropertyOp51
 70
     0
102
RTVSPropertyOp52
 70
     0
102
RTVSPropertyOp53
 70
     0
102
RTVSPropertyOp54
 70
     0
102
RTVSPropertyOp55
 70
     1
102
RTVSPropertyOp56
 70
     0
102
RTVSPropertyOp57
 70
     0
102
RTVSPropertyOp58
 70
     0
102
RTVSPropertyOp59
 70
     0
102
RTVSPropertyOp60
 70
     0
102
RTVSPropertyOp61
 70
     0
102
RTVSPropertyOp62
 70
     0
  0
XRECORD
  5
D109
102
{ACAD_REACTORS
330
D108
102
}
330
D108
100
AcDbXrecord
280
     1
102
RTVSPost2010Prop28
280
     0
102
RTVSPost2010PropOp28
 70
     1
102
RTVSPost2010Prop29
280
     1
102
RTVSPost2010PropOp29
 70
     1
102
RTVSPost2010Prop30
280
     1
102
RTVSPost2010PropOp30
 70
     1
102
RTVSPost2010Prop31
280
     0
102
RTVSPost2010PropOp31
 70
     1
102
RTVSPost2010Prop32
280
     0
102
RTVSPost2010PropOp32
 70
     1
102
RTVSPost2010Prop33
280
     0
102
RTVSPost2010PropOp33
 70
     1
102
RTVSPost2010Prop34
280
     0
102
RTVSPost2010PropOp34
 70
     1
102
RTVSPost2010Prop35
280
     0
102
RTVSPost2010PropOp35
 70
     1
102
RTVSPost2010Prop36
280
     0
102
RTVSPost2010PropOp36
 70
     1
102
RTVSPost2010Prop37
 90
       50
102
RTVSPost2010PropOp37
 70
     1
102
RTVSPost2010Prop38
140
0.0
102
RTVSPost2010PropOp38
 70
     1
102
RTVSPost2010Prop39
140
1.0
102
RTVSPost2010PropOp39
 70
     1
102
RTVSPost2010Prop40
 90
        0
102
RTVSPost2010PropOp40
 70
     1
102
RTVSPost2010Prop41ColorIndex
 90
       18
102
RTVSPost2010Prop41ColorRGB
 90
        0
102
RTVSPost2010PropOp41
 70
     1
102
RTVSPost2010Prop42
 90
       50
102
RTVSPost2010PropOp42
 70
     1
102
RTVSPost2010Prop43
 90
        3
102
RTVSPost2010PropOp43
 70
     1
102
RTVSPost2010Prop44ColorIndex
 90
        5
102
RTVSPost2010Prop44ColorRGB
 90
      255
102
RTVSPost2010PropOp44
 70
     1
102
RTVSPost2010Prop45
280
     0
102
RTVSPost2010PropOp45
 70
     1
102
RTVSPost2010Prop46
 90
       50
102
RTVSPost2010PropOp46
 70
     1
102
RTVSPost2010Prop47
 90
       50
102
RTVSPost2010PropOp47
 70
     1
102
RTVSPost2010Prop48
 90
       50
102
RTVSPost2010PropOp48
 70
     1
102
RTVSPost2010Prop49
280
     0
102
RTVSPost2010PropOp49
 70
     1
102
RTVSPost2010Prop50
 90
       50
102
RTVSPost2010PropOp50
 70
     1
102
RTVSPost2010Prop51ColorIndex
 90
      256
102
RTVSPost2010Prop51ColorRGB
 90
-16777216
102
RTVSPost2010PropOp51
 70
     0
102
RTVSPost2010Prop52
140
1.0
102
RTVSPost2010PropOp52
 70
     0
102
RTVSPost2010Prop53
 90
        2
102
RTVSPost2010PropOp53
 70
     1
102
RTVSPost2010Prop54
  1
strokes_ogs.tif
102
RTVSPost2010PropOp54
 70
     1
102
RTVSPost2010Prop55
280
     0
102
RTVSPost2010PropOp55
 70
     1
102
RTVSPost2010Prop56
140
1.0
102
RTVSPost2010PropOp56
 70
     1
102
RTVSPost2010Prop57
140
1.0
102
RTVSPost2010PropOp57
 70
     1
102
RTVSPropertyOp0
 70
     1
102
RTVSPropertyOp1
 70
     1
102
RTVSPropertyOp2
 70
     1
102
RTVSPropertyOp3
 70
     1
102
RTVSPropertyOp4
 70
     1
102
RTVSPropertyOp5
 70
     1
102
RTVSPropertyOp6
 70
     1
102
RTVSPropertyOp7
 70
     1
102
RTVSPropertyOp8
 70
     1
102
RTVSPropertyOp9
 70
     1
102
RTVSPropertyOp10
 70
     1
102
RTVSPropertyOp11
 70
     1
102
RTVSPropertyOp12
 70
     1
102
RTVSPropertyOp13
 70
     1
102
RTVSPropertyOp14
 70
     1
102
RTVSPropertyOp15
 70
     1
102
RTVSPropertyOp16
 70
     1
102
RTVSPropertyOp17
 70
     1
102
RTVSPropertyOp18
 70
     1
102
RTVSPropertyOp19
 70
     1
102
RTVSPropertyOp20
 70
     1
102
RTVSPropertyOp21
 70
     1
102
RTVSPropertyOp22
 70
     1
102
RTVSPropertyOp23
 70
     1
102
RTVSPropertyOp24
 70
     1
102
RTVSPropertyOp25
 70
     1
102
RTVSPropertyOp26
 70
     1
102
RTVSPropertyOp27
 70
     1
102
RTVSPropertyOp28
 70
     1
102
RTVSPropertyOp29
 70
     1
102
RTVSPropertyOp30
 70
     1
102
RTVSPropertyOp31
 70
     1
102
RTVSPropertyOp32
 70
     1
102
RTVSPropertyOp33
 70
     1
102
RTVSPropertyOp34
 70
     1
102
RTVSPropertyOp35
 70
     1
102
RTVSPropertyOp36
 70
     1
102
RTVSPropertyOp37
 70
     1
102
RTVSPropertyOp38
 70
     1
102
RTVSPropertyOp39
 70
     1
102
RTVSPropertyOp40
 70
     1
102
RTVSPropertyOp41
 70
     1
102
RTVSPropertyOp42
 70
     1
102
RTVSPropertyOp43
 70
     1
102
RTVSPropertyOp44
 70
     1
102
RTVSPropertyOp45
 70
     1
102
RTVSPropertyOp46
 70
     1
102
RTVSPropertyOp47
 70
     1
102
RTVSPropertyOp48
 70
     1
102
RTVSPropertyOp49
 70
     1
102
RTVSPropertyOp50
 70
     1
102
RTVSPropertyOp51
 70
     0
102
RTVSPropertyOp52
 70
     0
102
RTVSPropertyOp53
 70
     1
102
RTVSPropertyOp54
 70
     1
102
RTVSPropertyOp55
 70
     1
102
RTVSPropertyOp56
 70
     1
102
RTVSPropertyOp57
 70
     1
102
RTVSPropertyOp58
 70
     1
102
RTVSPropertyOp59
 70
     1
102
RTVSPropertyOp60
 70
     1
102
RTVSPropertyOp61
 70
     1
102
RTVSPropertyOp62
 70
     1
  0
XRECORD
  5
D11F
102
{ACAD_REACTORS
330
D11E
102
}
330
D11E
100
AcDbXrecord
280
     1
102
RTVSPost2010Prop28
280
     0
102
RTVSPost2010PropOp28
 70
     1
102
RTVSPost2010Prop29
280
     1
102
RTVSPost2010PropOp29
 70
     1
102
RTVSPost2010Prop30
280
     1
102
RTVSPost2010PropOp30
 70
     1
102
RTVSPost2010Prop31
280
     0
102
RTVSPost2010PropOp31
 70
     1
102
RTVSPost2010Prop32
280
     0
102
RTVSPost2010PropOp32
 70
     1
102
RTVSPost2010Prop33
280
     0
102
RTVSPost2010PropOp33
 70
     1
102
RTVSPost2010Prop34
280
     0
102
RTVSPost2010PropOp34
 70
     1
102
RTVSPost2010Prop35
280
     0
102
RTVSPost2010PropOp35
 70
     1
102
RTVSPost2010Prop36
280
     0
102
RTVSPost2010PropOp36
 70
     1
102
RTVSPost2010Prop37
 90
       50
102
RTVSPost2010PropOp37
 70
     1
102
RTVSPost2010Prop38
140
0.0
102
RTVSPost2010PropOp38
 70
     1
102
RTVSPost2010Prop39
140
1.0
102
RTVSPost2010PropOp39
 70
     1
102
RTVSPost2010Prop40
 90
        0
102
RTVSPost2010PropOp40
 70
     1
102
RTVSPost2010Prop41ColorIndex
 90
       18
102
RTVSPost2010Prop41ColorRGB
 90
        0
102
RTVSPost2010PropOp41
 70
     1
102
RTVSPost2010Prop42
 90
       50
102
RTVSPost2010PropOp42
 70
     1
102
RTVSPost2010Prop43
 90
        3
102
RTVSPost2010PropOp43
 70
     1
102
RTVSPost2010Prop44ColorIndex
 90
        5
102
RTVSPost2010Prop44ColorRGB
 90
      255
102
RTVSPost2010PropOp44
 70
     1
102
RTVSPost2010Prop45
280
     0
102
RTVSPost2010PropOp45
 70
     1
102
RTVSPost2010Prop46
 90
       50
102
RTVSPost2010PropOp46
 70
     1
102
RTVSPost2010Prop47
 90
       50
102
RTVSPost2010PropOp47
 70
     1
102
RTVSPost2010Prop48
 90
       50
102
RTVSPost2010PropOp48
 70
     1
102
RTVSPost2010Prop49
280
     0
102
RTVSPost2010PropOp49
 70
     1
102
RTVSPost2010Prop50
 90
       50
102
RTVSPost2010PropOp50
 70
     1
102
RTVSPost2010Prop51ColorIndex
 90
      256
102
RTVSPost2010Prop51ColorRGB
 90
-16777216
102
RTVSPost2010PropOp51
 70
     0
102
RTVSPost2010Prop52
140
1.0
102
RTVSPost2010PropOp52
 70
     0
102
RTVSPost2010Prop53
 90
        2
102
RTVSPost2010PropOp53
 70
     1
102
RTVSPost2010Prop54
  1
strokes_ogs.tif
102
RTVSPost2010PropOp54
 70
     1
102
RTVSPost2010Prop55
280
     0
102
RTVSPost2010PropOp55
 70
     1
102
RTVSPost2010Prop56
140
1.0
102
RTVSPost2010PropOp56
 70
     1
102
RTVSPost2010Prop57
140
1.0
102
RTVSPost2010PropOp57
 70
     1
102
RTVSPropertyOp0
 70
     1
102
RTVSPropertyOp1
 70
     1
102
RTVSPropertyOp2
 70
     1
102
RTVSPropertyOp3
 70
     1
102
RTVSPropertyOp4
 70
     1
102
RTVSPropertyOp5
 70
     1
102
RTVSPropertyOp6
 70
     1
102
RTVSPropertyOp7
 70
     1
102
RTVSPropertyOp8
 70
     1
102
RTVSPropertyOp9
 70
     1
102
RTVSPropertyOp10
 70
     1
102
RTVSPropertyOp11
 70
     1
102
RTVSPropertyOp12
 70
     1
102
RTVSPropertyOp13
 70
     1
102
RTVSPropertyOp14
 70
     1
102
RTVSPropertyOp15
 70
     1
102
RTVSPropertyOp16
 70
     1
102
RTVSPropertyOp17
 70
     1
102
RTVSPropertyOp18
 70
     1
102
RTVSPropertyOp19
 70
     1
102
RTVSPropertyOp20
 70
     1
102
RTVSPropertyOp21
 70
     1
102
RTVSPropertyOp22
 70
     1
102
RTVSPropertyOp23
 70
     1
102
RTVSPropertyOp24
 70
     1
102
RTVSPropertyOp25
 70
     1
102
RTVSPropertyOp26
 70
     1
102
RTVSPropertyOp27
 70
     1
102
RTVSPropertyOp28
 70
     1
102
RTVSPropertyOp29
 70
     1
102
RTVSPropertyOp30
 70
     1
102
RTVSPropertyOp31
 70
     1
102
RTVSPropertyOp32
 70
     1
102
RTVSPropertyOp33
 70
     1
102
RTVSPropertyOp34
 70
     1
102
RTVSPropertyOp35
 70
     1
102
RTVSPropertyOp36
 70
     1
102
RTVSPropertyOp37
 70
     1
102
RTVSPropertyOp38
 70
     1
102
RTVSPropertyOp39
 70
     1
102
RTVSPropertyOp40
 70
     1
102
RTVSPropertyOp41
 70
     1
102
RTVSPropertyOp42
 70
     1
102
RTVSPropertyOp43
 70
     1
102
RTVSPropertyOp44
 70
     1
102
RTVSPropertyOp45
 70
     1
102
RTVSPropertyOp46
 70
     1
102
RTVSPropertyOp47
 70
     1
102
RTVSPropertyOp48
 70
     1
102
RTVSPropertyOp49
 70
     1
102
RTVSPropertyOp50
 70
     1
102
RTVSPropertyOp51
 70
     0
102
RTVSPropertyOp52
 70
     0
102
RTVSPropertyOp53
 70
     1
102
RTVSPropertyOp54
 70
     1
102
RTVSPropertyOp55
 70
     1
102
RTVSPropertyOp56
 70
     1
102
RTVSPropertyOp57
 70
     1
102
RTVSPropertyOp58
 70
     1
102
RTVSPropertyOp59
 70
     1
102
RTVSPropertyOp60
 70
     1
102
RTVSPropertyOp61
 70
     1
102
RTVSPropertyOp62
 70
     1
  0
XRECORD
  5
D11D
102
{ACAD_REACTORS
330
D11C
102
}
330
D11C
100
AcDbXrecord
280
     1
102
RTVSPost2010Prop28
280
     0
102
RTVSPost2010PropOp28
 70
     1
102
RTVSPost2010Prop29
280
     1
102
RTVSPost2010PropOp29
 70
     1
102
RTVSPost2010Prop30
280
     1
102
RTVSPost2010PropOp30
 70
     1
102
RTVSPost2010Prop31
280
     0
102
RTVSPost2010PropOp31
 70
     1
102
RTVSPost2010Prop32
280
     0
102
RTVSPost2010PropOp32
 70
     1
102
RTVSPost2010Prop33
280
     0
102
RTVSPost2010PropOp33
 70
     1
102
RTVSPost2010Prop34
280
     0
102
RTVSPost2010PropOp34
 70
     1
102
RTVSPost2010Prop35
280
     0
102
RTVSPost2010PropOp35
 70
     1
102
RTVSPost2010Prop36
280
     0
102
RTVSPost2010PropOp36
 70
     1
102
RTVSPost2010Prop37
 90
       50
102
RTVSPost2010PropOp37
 70
     1
102
RTVSPost2010Prop38
140
0.0
102
RTVSPost2010PropOp38
 70
     1
102
RTVSPost2010Prop39
140
1.0
102
RTVSPost2010PropOp39
 70
     1
102
RTVSPost2010Prop40
 90
        0
102
RTVSPost2010PropOp40
 70
     1
102
RTVSPost2010Prop41ColorIndex
 90
       18
102
RTVSPost2010Prop41ColorRGB
 90
        0
102
RTVSPost2010PropOp41
 70
     1
102
RTVSPost2010Prop42
 90
       50
102
RTVSPost2010PropOp42
 70
     1
102
RTVSPost2010Prop43
 90
        3
102
RTVSPost2010PropOp43
 70
     1
102
RTVSPost2010Prop44ColorIndex
 90
        5
102
RTVSPost2010Prop44ColorRGB
 90
      255
102
RTVSPost2010PropOp44
 70
     1
102
RTVSPost2010Prop45
280
     0
102
RTVSPost2010PropOp45
 70
     1
102
RTVSPost2010Prop46
 90
       50
102
RTVSPost2010PropOp46
 70
     1
102
RTVSPost2010Prop47
 90
       50
102
RTVSPost2010PropOp47
 70
     1
102
RTVSPost2010Prop48
 90
       50
102
RTVSPost2010PropOp48
 70
     1
102
RTVSPost2010Prop49
280
     0
102
RTVSPost2010PropOp49
 70
     1
102
RTVSPost2010Prop50
 90
       50
102
RTVSPost2010PropOp50
 70
     1
102
RTVSPost2010Prop51ColorIndex
 90
      256
102
RTVSPost2010Prop51ColorRGB
 90
-16777216
102
RTVSPost2010PropOp51
 70
     0
102
RTVSPost2010Prop52
140
1.0
102
RTVSPost2010PropOp52
 70
     0
102
RTVSPost2010Prop53
 90
        2
102
RTVSPost2010PropOp53
 70
     1
102
RTVSPost2010Prop54
  1
strokes_ogs.tif
102
RTVSPost2010PropOp54
 70
     1
102
RTVSPost2010Prop55
280
     0
102
RTVSPost2010PropOp55
 70
     1
102
RTVSPost2010Prop56
140
1.0
102
RTVSPost2010PropOp56
 70
     1
102
RTVSPost2010Prop57
140
1.0
102
RTVSPost2010PropOp57
 70
     1
102
RTVSPropertyOp0
 70
     1
102
RTVSPropertyOp1
 70
     1
102
RTVSPropertyOp2
 70
     1
102
RTVSPropertyOp3
 70
     1
102
RTVSPropertyOp4
 70
     1
102
RTVSPropertyOp5
 70
     1
102
RTVSPropertyOp6
 70
     1
102
RTVSPropertyOp7
 70
     1
102
RTVSPropertyOp8
 70
     1
102
RTVSPropertyOp9
 70
     1
102
RTVSPropertyOp10
 70
     1
102
RTVSPropertyOp11
 70
     1
102
RTVSPropertyOp12
 70
     1
102
RTVSPropertyOp13
 70
     1
102
RTVSPropertyOp14
 70
     1
102
RTVSPropertyOp15
 70
     1
102
RTVSPropertyOp16
 70
     1
102
RTVSPropertyOp17
 70
     1
102
RTVSPropertyOp18
 70
     1
102
RTVSPropertyOp19
 70
     1
102
RTVSPropertyOp20
 70
     1
102
RTVSPropertyOp21
 70
     1
102
RTVSPropertyOp22
 70
     1
102
RTVSPropertyOp23
 70
     1
102
RTVSPropertyOp24
 70
     1
102
RTVSPropertyOp25
 70
     1
102
RTVSPropertyOp26
 70
     1
102
RTVSPropertyOp27
 70
     1
102
RTVSPropertyOp28
 70
     1
102
RTVSPropertyOp29
 70
     1
102
RTVSPropertyOp30
 70
     1
102
RTVSPropertyOp31
 70
     1
102
RTVSPropertyOp32
 70
     1
102
RTVSPropertyOp33
 70
     1
102
RTVSPropertyOp34
 70
     1
102
RTVSPropertyOp35
 70
     1
102
RTVSPropertyOp36
 70
     1
102
RTVSPropertyOp37
 70
     1
102
RTVSPropertyOp38
 70
     1
102
RTVSPropertyOp39
 70
     1
102
RTVSPropertyOp40
 70
     1
102
RTVSPropertyOp41
 70
     1
102
RTVSPropertyOp42
 70
     1
102
RTVSPropertyOp43
 70
     1
102
RTVSPropertyOp44
 70
     1
102
RTVSPropertyOp45
 70
     1
102
RTVSPropertyOp46
 70
     1
102
RTVSPropertyOp47
 70
     1
102
RTVSPropertyOp48
 70
     1
102
RTVSPropertyOp49
 70
     1
102
RTVSPropertyOp50
 70
     1
102
RTVSPropertyOp51
 70
     0
102
RTVSPropertyOp52
 70
     0
102
RTVSPropertyOp53
 70
     1
102
RTVSPropertyOp54
 70
     1
102
RTVSPropertyOp55
 70
     1
102
RTVSPropertyOp56
 70
     1
102
RTVSPropertyOp57
 70
     1
102
RTVSPropertyOp58
 70
     1
102
RTVSPropertyOp59
 70
     1
102
RTVSPropertyOp60
 70
     1
102
RTVSPropertyOp61
 70
     1
102
RTVSPropertyOp62
 70
     1
  0
XRECORD
  5
D117
102
{ACAD_REACTORS
330
D116
102
}
330
D116
100
AcDbXrecord
280
     1
102
RTVSPost2010Prop28
280
     0
102
RTVSPost2010PropOp28
 70
     1
102
RTVSPost2010Prop29
280
     1
102
RTVSPost2010PropOp29
 70
     1
102
RTVSPost2010Prop30
280
     1
102
RTVSPost2010PropOp30
 70
     1
102
RTVSPost2010Prop31
280
     0
102
RTVSPost2010PropOp31
 70
     1
102
RTVSPost2010Prop32
280
     0
102
RTVSPost2010PropOp32
 70
     1
102
RTVSPost2010Prop33
280
     0
102
RTVSPost2010PropOp33
 70
     1
102
RTVSPost2010Prop34
280
     0
102
RTVSPost2010PropOp34
 70
     1
102
RTVSPost2010Prop35
280
     0
102
RTVSPost2010PropOp35
 70
     1
102
RTVSPost2010Prop36
280
     0
102
RTVSPost2010PropOp36
 70
     1
102
RTVSPost2010Prop37
 90
       50
102
RTVSPost2010PropOp37
 70
     1
102
RTVSPost2010Prop38
140
0.0
102
RTVSPost2010PropOp38
 70
     1
102
RTVSPost2010Prop39
140
1.0
102
RTVSPost2010PropOp39
 70
     1
102
RTVSPost2010Prop40
 90
        0
102
RTVSPost2010PropOp40
 70
     1
102
RTVSPost2010Prop41ColorIndex
 90
       18
102
RTVSPost2010Prop41ColorRGB
 90
        0
102
RTVSPost2010PropOp41
 70
     1
102
RTVSPost2010Prop42
 90
       50
102
RTVSPost2010PropOp42
 70
     1
102
RTVSPost2010Prop43
 90
        3
102
RTVSPost2010PropOp43
 70
     1
102
RTVSPost2010Prop44ColorIndex
 90
        5
102
RTVSPost2010Prop44ColorRGB
 90
      255
102
RTVSPost2010PropOp44
 70
     1
102
RTVSPost2010Prop45
280
     0
102
RTVSPost2010PropOp45
 70
     1
102
RTVSPost2010Prop46
 90
       50
102
RTVSPost2010PropOp46
 70
     1
102
RTVSPost2010Prop47
 90
       50
102
RTVSPost2010PropOp47
 70
     1
102
RTVSPost2010Prop48
 90
       50
102
RTVSPost2010PropOp48
 70
     1
102
RTVSPost2010Prop49
280
     0
102
RTVSPost2010PropOp49
 70
     1
102
RTVSPost2010Prop50
 90
       50
102
RTVSPost2010PropOp50
 70
     1
102
RTVSPost2010Prop51ColorIndex
 90
      256
102
RTVSPost2010Prop51ColorRGB
 90
-16777216
102
RTVSPost2010PropOp51
 70
     0
102
RTVSPost2010Prop52
140
1.0
102
RTVSPost2010PropOp52
 70
     0
102
RTVSPost2010Prop53
 90
        2
102
RTVSPost2010PropOp53
 70
     1
102
RTVSPost2010Prop54
  1
strokes_ogs.tif
102
RTVSPost2010PropOp54
 70
     1
102
RTVSPost2010Prop55
280
     0
102
RTVSPost2010PropOp55
 70
     1
102
RTVSPost2010Prop56
140
1.0
102
RTVSPost2010PropOp56
 70
     1
102
RTVSPost2010Prop57
140
1.0
102
RTVSPost2010PropOp57
 70
     1
102
RTVSPropertyOp0
 70
     1
102
RTVSPropertyOp1
 70
     1
102
RTVSPropertyOp2
 70
     1
102
RTVSPropertyOp3
 70
     1
102
RTVSPropertyOp4
 70
     1
102
RTVSPropertyOp5
 70
     1
102
RTVSPropertyOp6
 70
     1
102
RTVSPropertyOp7
 70
     1
102
RTVSPropertyOp8
 70
     1
102
RTVSPropertyOp9
 70
     1
102
RTVSPropertyOp10
 70
     1
102
RTVSPropertyOp11
 70
     1
102
RTVSPropertyOp12
 70
     1
102
RTVSPropertyOp13
 70
     1
102
RTVSPropertyOp14
 70
     1
102
RTVSPropertyOp15
 70
     1
102
RTVSPropertyOp16
 70
     1
102
RTVSPropertyOp17
 70
     1
102
RTVSPropertyOp18
 70
     1
102
RTVSPropertyOp19
 70
     1
102
RTVSPropertyOp20
 70
     1
102
RTVSPropertyOp21
 70
     1
102
RTVSPropertyOp22
 70
     1
102
RTVSPropertyOp23
 70
     1
102
RTVSPropertyOp24
 70
     1
102
RTVSPropertyOp25
 70
     1
102
RTVSPropertyOp26
 70
     1
102
RTVSPropertyOp27
 70
     1
102
RTVSPropertyOp28
 70
     1
102
RTVSPropertyOp29
 70
     1
102
RTVSPropertyOp30
 70
     1
102
RTVSPropertyOp31
 70
     1
102
RTVSPropertyOp32
 70
     1
102
RTVSPropertyOp33
 70
     1
102
RTVSPropertyOp34
 70
     1
102
RTVSPropertyOp35
 70
     1
102
RTVSPropertyOp36
 70
     1
102
RTVSPropertyOp37
 70
     1
102
RTVSPropertyOp38
 70
     1
102
RTVSPropertyOp39
 70
     1
102
RTVSPropertyOp40
 70
     1
102
RTVSPropertyOp41
 70
     1
102
RTVSPropertyOp42
 70
     1
102
RTVSPropertyOp43
 70
     1
102
RTVSPropertyOp44
 70
     1
102
RTVSPropertyOp45
 70
     1
102
RTVSPropertyOp46
 70
     1
102
RTVSPropertyOp47
 70
     1
102
RTVSPropertyOp48
 70
     1
102
RTVSPropertyOp49
 70
     1
102
RTVSPropertyOp50
 70
     1
102
RTVSPropertyOp51
 70
     0
102
RTVSPropertyOp52
 70
     0
102
RTVSPropertyOp53
 70
     1
102
RTVSPropertyOp54
 70
     1
102
RTVSPropertyOp55
 70
     1
102
RTVSPropertyOp56
 70
     1
102
RTVSPropertyOp57
 70
     1
102
RTVSPropertyOp58
 70
     1
102
RTVSPropertyOp59
 70
     1
102
RTVSPropertyOp60
 70
     1
102
RTVSPropertyOp61
 70
     1
102
RTVSPropertyOp62
 70
     1
  0
XRECORD
  5
D119
102
{ACAD_REACTORS
330
D118
102
}
330
D118
100
AcDbXrecord
280
     1
102
RTVSPost2010Prop28
280
     0
102
RTVSPost2010PropOp28
 70
     1
102
RTVSPost2010Prop29
280
     1
102
RTVSPost2010PropOp29
 70
     1
102
RTVSPost2010Prop30
280
     1
102
RTVSPost2010PropOp30
 70
     1
102
RTVSPost2010Prop31
280
     0
102
RTVSPost2010PropOp31
 70
     1
102
RTVSPost2010Prop32
280
     0
102
RTVSPost2010PropOp32
 70
     1
102
RTVSPost2010Prop33
280
     0
102
RTVSPost2010PropOp33
 70
     1
102
RTVSPost2010Prop34
280
     0
102
RTVSPost2010PropOp34
 70
     1
102
RTVSPost2010Prop35
280
     0
102
RTVSPost2010PropOp35
 70
     1
102
RTVSPost2010Prop36
280
     0
102
RTVSPost2010PropOp36
 70
     1
102
RTVSPost2010Prop37
 90
       50
102
RTVSPost2010PropOp37
 70
     1
102
RTVSPost2010Prop38
140
0.0
102
RTVSPost2010PropOp38
 70
     1
102
RTVSPost2010Prop39
140
1.0
102
RTVSPost2010PropOp39
 70
     1
102
RTVSPost2010Prop40
 90
        0
102
RTVSPost2010PropOp40
 70
     1
102
RTVSPost2010Prop41ColorIndex
 90
       18
102
RTVSPost2010Prop41ColorRGB
 90
        0
102
RTVSPost2010PropOp41
 70
     1
102
RTVSPost2010Prop42
 90
       50
102
RTVSPost2010PropOp42
 70
     1
102
RTVSPost2010Prop43
 90
        3
102
RTVSPost2010PropOp43
 70
     1
102
RTVSPost2010Prop44ColorIndex
 90
        5
102
RTVSPost2010Prop44ColorRGB
 90
      255
102
RTVSPost2010PropOp44
 70
     1
102
RTVSPost2010Prop45
280
     0
102
RTVSPost2010PropOp45
 70
     1
102
RTVSPost2010Prop46
 90
       50
102
RTVSPost2010PropOp46
 70
     1
102
RTVSPost2010Prop47
 90
       50
102
RTVSPost2010PropOp47
 70
     1
102
RTVSPost2010Prop48
 90
       50
102
RTVSPost2010PropOp48
 70
     1
102
RTVSPost2010Prop49
280
     0
102
RTVSPost2010PropOp49
 70
     1
102
RTVSPost2010Prop50
 90
       50
102
RTVSPost2010PropOp50
 70
     1
102
RTVSPost2010Prop51ColorIndex
 90
      256
102
RTVSPost2010Prop51ColorRGB
 90
-16777216
102
RTVSPost2010PropOp51
 70
     0
102
RTVSPost2010Prop52
140
1.0
102
RTVSPost2010PropOp52
 70
     0
102
RTVSPost2010Prop53
 90
        2
102
RTVSPost2010PropOp53
 70
     1
102
RTVSPost2010Prop54
  1
strokes_ogs.tif
102
RTVSPost2010PropOp54
 70
     1
102
RTVSPost2010Prop55
280
     0
102
RTVSPost2010PropOp55
 70
     1
102
RTVSPost2010Prop56
140
1.0
102
RTVSPost2010PropOp56
 70
     1
102
RTVSPost2010Prop57
140
1.0
102
RTVSPost2010PropOp57
 70
     1
102
RTVSPropertyOp0
 70
     1
102
RTVSPropertyOp1
 70
     1
102
RTVSPropertyOp2
 70
     1
102
RTVSPropertyOp3
 70
     1
102
RTVSPropertyOp4
 70
     1
102
RTVSPropertyOp5
 70
     1
102
RTVSPropertyOp6
 70
     1
102
RTVSPropertyOp7
 70
     1
102
RTVSPropertyOp8
 70
     1
102
RTVSPropertyOp9
 70
     1
102
RTVSPropertyOp10
 70
     1
102
RTVSPropertyOp11
 70
     1
102
RTVSPropertyOp12
 70
     1
102
RTVSPropertyOp13
 70
     1
102
RTVSPropertyOp14
 70
     1
102
RTVSPropertyOp15
 70
     1
102
RTVSPropertyOp16
 70
     1
102
RTVSPropertyOp17
 70
     1
102
RTVSPropertyOp18
 70
     1
102
RTVSPropertyOp19
 70
     1
102
RTVSPropertyOp20
 70
     1
102
RTVSPropertyOp21
 70
     1
102
RTVSPropertyOp22
 70
     1
102
RTVSPropertyOp23
 70
     1
102
RTVSPropertyOp24
 70
     1
102
RTVSPropertyOp25
 70
     1
102
RTVSPropertyOp26
 70
     1
102
RTVSPropertyOp27
 70
     1
102
RTVSPropertyOp28
 70
     1
102
RTVSPropertyOp29
 70
     1
102
RTVSPropertyOp30
 70
     1
102
RTVSPropertyOp31
 70
     1
102
RTVSPropertyOp32
 70
     1
102
RTVSPropertyOp33
 70
     1
102
RTVSPropertyOp34
 70
     1
102
RTVSPropertyOp35
 70
     1
102
RTVSPropertyOp36
 70
     1
102
RTVSPropertyOp37
 70
     1
102
RTVSPropertyOp38
 70
     1
102
RTVSPropertyOp39
 70
     1
102
RTVSPropertyOp40
 70
     1
102
RTVSPropertyOp41
 70
     1
102
RTVSPropertyOp42
 70
     1
102
RTVSPropertyOp43
 70
     1
102
RTVSPropertyOp44
 70
     1
102
RTVSPropertyOp45
 70
     1
102
RTVSPropertyOp46
 70
     1
102
RTVSPropertyOp47
 70
     1
102
RTVSPropertyOp48
 70
     1
102
RTVSPropertyOp49
 70
     1
102
RTVSPropertyOp50
 70
     1
102
RTVSPropertyOp51
 70
     0
102
RTVSPropertyOp52
 70
     0
102
RTVSPropertyOp53
 70
     1
102
RTVSPropertyOp54
 70
     1
102
RTVSPropertyOp55
 70
     1
102
RTVSPropertyOp56
 70
     1
102
RTVSPropertyOp57
 70
     1
102
RTVSPropertyOp58
 70
     1
102
RTVSPropertyOp59
 70
     1
102
RTVSPropertyOp60
 70
     1
102
RTVSPropertyOp61
 70
     1
102
RTVSPropertyOp62
 70
     1
  0
XRECORD
  5
D10F
102
{ACAD_REACTORS
330
D10E
102
}
330
D10E
100
AcDbXrecord
280
     1
102
RTVSPost2010Prop28
280
     0
102
RTVSPost2010PropOp28
 70
     1
102
RTVSPost2010Prop29
280
     1
102
RTVSPost2010PropOp29
 70
     1
102
RTVSPost2010Prop30
280
     1
102
RTVSPost2010PropOp30
 70
     1
102
RTVSPost2010Prop31
280
     0
102
RTVSPost2010PropOp31
 70
     1
102
RTVSPost2010Prop32
280
     0
102
RTVSPost2010PropOp32
 70
     1
102
RTVSPost2010Prop33
280
     0
102
RTVSPost2010PropOp33
 70
     1
102
RTVSPost2010Prop34
280
     0
102
RTVSPost2010PropOp34
 70
     1
102
RTVSPost2010Prop35
280
     0
102
RTVSPost2010PropOp35
 70
     1
102
RTVSPost2010Prop36
280
     0
102
RTVSPost2010PropOp36
 70
     1
102
RTVSPost2010Prop37
 90
       50
102
RTVSPost2010PropOp37
 70
     1
102
RTVSPost2010Prop38
140
0.0
102
RTVSPost2010PropOp38
 70
     1
102
RTVSPost2010Prop39
140
1.0
102
RTVSPost2010PropOp39
 70
     1
102
RTVSPost2010Prop40
 90
        0
102
RTVSPost2010PropOp40
 70
     1
102
RTVSPost2010Prop41ColorIndex
 90
       18
102
RTVSPost2010Prop41ColorRGB
 90
        0
102
RTVSPost2010PropOp41
 70
     1
102
RTVSPost2010Prop42
 90
       50
102
RTVSPost2010PropOp42
 70
     1
102
RTVSPost2010Prop43
 90
        3
102
RTVSPost2010PropOp43
 70
     1
102
RTVSPost2010Prop44ColorIndex
 90
        5
102
RTVSPost2010Prop44ColorRGB
 90
      255
102
RTVSPost2010PropOp44
 70
     1
102
RTVSPost2010Prop45
280
     0
102
RTVSPost2010PropOp45
 70
     1
102
RTVSPost2010Prop46
 90
       50
102
RTVSPost2010PropOp46
 70
     1
102
RTVSPost2010Prop47
 90
       50
102
RTVSPost2010PropOp47
 70
     1
102
RTVSPost2010Prop48
 90
       50
102
RTVSPost2010PropOp48
 70
     1
102
RTVSPost2010Prop49
280
     0
102
RTVSPost2010PropOp49
 70
     1
102
RTVSPost2010Prop50
 90
       50
102
RTVSPost2010PropOp50
 70
     1
102
RTVSPost2010Prop51ColorIndex
 90
      256
102
RTVSPost2010Prop51ColorRGB
 90
-16777216
102
RTVSPost2010PropOp51
 70
     0
102
RTVSPost2010Prop52
140
1.0
102
RTVSPost2010PropOp52
 70
     0
102
RTVSPost2010Prop53
 90
        2
102
RTVSPost2010PropOp53
 70
     1
102
RTVSPost2010Prop54
  1
strokes_ogs.tif
102
RTVSPost2010PropOp54
 70
     1
102
RTVSPost2010Prop55
280
     0
102
RTVSPost2010PropOp55
 70
     1
102
RTVSPost2010Prop56
140
1.0
102
RTVSPost2010PropOp56
 70
     1
102
RTVSPost2010Prop57
140
1.0
102
RTVSPost2010PropOp57
 70
     1
102
RTVSPropertyOp0
 70
     1
102
RTVSPropertyOp1
 70
     1
102
RTVSPropertyOp2
 70
     1
102
RTVSPropertyOp3
 70
     1
102
RTVSPropertyOp4
 70
     1
102
RTVSPropertyOp5
 70
     1
102
RTVSPropertyOp6
 70
     1
102
RTVSPropertyOp7
 70
     1
102
RTVSPropertyOp8
 70
     1
102
RTVSPropertyOp9
 70
     1
102
RTVSPropertyOp10
 70
     1
102
RTVSPropertyOp11
 70
     1
102
RTVSPropertyOp12
 70
     1
102
RTVSPropertyOp13
 70
     1
102
RTVSPropertyOp14
 70
     1
102
RTVSPropertyOp15
 70
     1
102
RTVSPropertyOp16
 70
     1
102
RTVSPropertyOp17
 70
     1
102
RTVSPropertyOp18
 70
     1
102
RTVSPropertyOp19
 70
     1
102
RTVSPropertyOp20
 70
     1
102
RTVSPropertyOp21
 70
     1
102
RTVSPropertyOp22
 70
     1
102
RTVSPropertyOp23
 70
     1
102
RTVSPropertyOp24
 70
     1
102
RTVSPropertyOp25
 70
     1
102
RTVSPropertyOp26
 70
     1
102
RTVSPropertyOp27
 70
     1
102
RTVSPropertyOp28
 70
     1
102
RTVSPropertyOp29
 70
     1
102
RTVSPropertyOp30
 70
     1
102
RTVSPropertyOp31
 70
     1
102
RTVSPropertyOp32
 70
     1
102
RTVSPropertyOp33
 70
     1
102
RTVSPropertyOp34
 70
     1
102
RTVSPropertyOp35
 70
     1
102
RTVSPropertyOp36
 70
     1
102
RTVSPropertyOp37
 70
     1
102
RTVSPropertyOp38
 70
     1
102
RTVSPropertyOp39
 70
     1
102
RTVSPropertyOp40
 70
     1
102
RTVSPropertyOp41
 70
     1
102
RTVSPropertyOp42
 70
     1
102
RTVSPropertyOp43
 70
     1
102
RTVSPropertyOp44
 70
     1
102
RTVSPropertyOp45
 70
     1
102
RTVSPropertyOp46
 70
     1
102
RTVSPropertyOp47
 70
     1
102
RTVSPropertyOp48
 70
     1
102
RTVSPropertyOp49
 70
     1
102
RTVSPropertyOp50
 70
     1
102
RTVSPropertyOp51
 70
     0
102
RTVSPropertyOp52
 70
     0
102
RTVSPropertyOp53
 70
     1
102
RTVSPropertyOp54
 70
     1
102
RTVSPropertyOp55
 70
     1
102
RTVSPropertyOp56
 70
     1
102
RTVSPropertyOp57
 70
     1
102
RTVSPropertyOp58
 70
     1
102
RTVSPropertyOp59
 70
     1
102
RTVSPropertyOp60
 70
     1
102
RTVSPropertyOp61
 70
     1
102
RTVSPropertyOp62
 70
     1
  0
XRECORD
  5
D103
102
{ACAD_REACTORS
330
D102
102
}
330
D102
100
AcDbXrecord
280
     1
102
RTVSPost2010Prop28
280
     0
102
RTVSPost2010PropOp28
 70
     1
102
RTVSPost2010Prop29
280
     1
102
RTVSPost2010PropOp29
 70
     1
102
RTVSPost2010Prop30
280
     1
102
RTVSPost2010PropOp30
 70
     1
102
RTVSPost2010Prop31
280
     0
102
RTVSPost2010PropOp31
 70
     1
102
RTVSPost2010Prop32
280
     0
102
RTVSPost2010PropOp32
 70
     1
102
RTVSPost2010Prop33
280
     0
102
RTVSPost2010PropOp33
 70
     1
102
RTVSPost2010Prop34
280
     0
102
RTVSPost2010PropOp34
 70
     1
102
RTVSPost2010Prop35
280
     0
102
RTVSPost2010PropOp35
 70
     1
102
RTVSPost2010Prop36
280
     0
102
RTVSPost2010PropOp36
 70
     1
102
RTVSPost2010Prop37
 90
       50
102
RTVSPost2010PropOp37
 70
     1
102
RTVSPost2010Prop38
140
0.0
102
RTVSPost2010PropOp38
 70
     1
102
RTVSPost2010Prop39
140
1.0
102
RTVSPost2010PropOp39
 70
     1
102
RTVSPost2010Prop40
 90
        0
102
RTVSPost2010PropOp40
 70
     1
102
RTVSPost2010Prop41ColorIndex
 90
       18
102
RTVSPost2010Prop41ColorRGB
 90
        0
102
RTVSPost2010PropOp41
 70
     1
102
RTVSPost2010Prop42
 90
       50
102
RTVSPost2010PropOp42
 70
     1
102
RTVSPost2010Prop43
 90
        3
102
RTVSPost2010PropOp43
 70
     1
102
RTVSPost2010Prop44ColorIndex
 90
        5
102
RTVSPost2010Prop44ColorRGB
 90
      255
102
RTVSPost2010PropOp44
 70
     1
102
RTVSPost2010Prop45
280
     0
102
RTVSPost2010PropOp45
 70
     1
102
RTVSPost2010Prop46
 90
       50
102
RTVSPost2010PropOp46
 70
     1
102
RTVSPost2010Prop47
 90
       50
102
RTVSPost2010PropOp47
 70
     1
102
RTVSPost2010Prop48
 90
       50
102
RTVSPost2010PropOp48
 70
     1
102
RTVSPost2010Prop49
280
     0
102
RTVSPost2010PropOp49
 70
     1
102
RTVSPost2010Prop50
 90
       50
102
RTVSPost2010PropOp50
 70
     1
102
RTVSPost2010Prop51ColorIndex
 90
      256
102
RTVSPost2010Prop51ColorRGB
 90
-16777216
102
RTVSPost2010PropOp51
 70
     0
102
RTVSPost2010Prop52
140
1.0
102
RTVSPost2010PropOp52
 70
     0
102
RTVSPost2010Prop53
 90
        2
102
RTVSPost2010PropOp53
 70
     1
102
RTVSPost2010Prop54
  1
strokes_ogs.tif
102
RTVSPost2010PropOp54
 70
     1
102
RTVSPost2010Prop55
280
     0
102
RTVSPost2010PropOp55
 70
     1
102
RTVSPost2010Prop56
140
1.0
102
RTVSPost2010PropOp56
 70
     1
102
RTVSPost2010Prop57
140
1.0
102
RTVSPost2010PropOp57
 70
     1
102
RTVSPropertyOp0
 70
     1
102
RTVSPropertyOp1
 70
     1
102
RTVSPropertyOp2
 70
     1
102
RTVSPropertyOp3
 70
     1
102
RTVSPropertyOp4
 70
     1
102
RTVSPropertyOp5
 70
     1
102
RTVSPropertyOp6
 70
     1
102
RTVSPropertyOp7
 70
     1
102
RTVSPropertyOp8
 70
     1
102
RTVSPropertyOp9
 70
     1
102
RTVSPropertyOp10
 70
     1
102
RTVSPropertyOp11
 70
     1
102
RTVSPropertyOp12
 70
     1
102
RTVSPropertyOp13
 70
     1
102
RTVSPropertyOp14
 70
     1
102
RTVSPropertyOp15
 70
     1
102
RTVSPropertyOp16
 70
     1
102
RTVSPropertyOp17
 70
     1
102
RTVSPropertyOp18
 70
     1
102
RTVSPropertyOp19
 70
     1
102
RTVSPropertyOp20
 70
     1
102
RTVSPropertyOp21
 70
     1
102
RTVSPropertyOp22
 70
     1
102
RTVSPropertyOp23
 70
     1
102
RTVSPropertyOp24
 70
     1
102
RTVSPropertyOp25
 70
     1
102
RTVSPropertyOp26
 70
     1
102
RTVSPropertyOp27
 70
     1
102
RTVSPropertyOp28
 70
     1
102
RTVSPropertyOp29
 70
     1
102
RTVSPropertyOp30
 70
     1
102
RTVSPropertyOp31
 70
     1
102
RTVSPropertyOp32
 70
     1
102
RTVSPropertyOp33
 70
     1
102
RTVSPropertyOp34
 70
     1
102
RTVSPropertyOp35
 70
     1
102
RTVSPropertyOp36
 70
     1
102
RTVSPropertyOp37
 70
     1
102
RTVSPropertyOp38
 70
     1
102
RTVSPropertyOp39
 70
     1
102
RTVSPropertyOp40
 70
     1
102
RTVSPropertyOp41
 70
     1
102
RTVSPropertyOp42
 70
     1
102
RTVSPropertyOp43
 70
     1
102
RTVSPropertyOp44
 70
     1
102
RTVSPropertyOp45
 70
     1
102
RTVSPropertyOp46
 70
     1
102
RTVSPropertyOp47
 70
     1
102
RTVSPropertyOp48
 70
     1
102
RTVSPropertyOp49
 70
     1
102
RTVSPropertyOp50
 70
     1
102
RTVSPropertyOp51
 70
     0
102
RTVSPropertyOp52
 70
     0
102
RTVSPropertyOp53
 70
     1
102
RTVSPropertyOp54
 70
     1
102
RTVSPropertyOp55
 70
     1
102
RTVSPropertyOp56
 70
     1
102
RTVSPropertyOp57
 70
     1
102
RTVSPropertyOp58
 70
     1
102
RTVSPropertyOp59
 70
     1
102
RTVSPropertyOp60
 70
     1
102
RTVSPropertyOp61
 70
     1
102
RTVSPropertyOp62
 70
     1
  0
XRECORD
  5
D11B
102
{ACAD_REACTORS
330
D11A
102
}
330
D11A
100
AcDbXrecord
280
     1
102
RTVSPost2010Prop28
280
     0
102
RTVSPost2010PropOp28
 70
     1
102
RTVSPost2010Prop29
280
     1
102
RTVSPost2010PropOp29
 70
     1
102
RTVSPost2010Prop30
280
     1
102
RTVSPost2010PropOp30
 70
     1
102
RTVSPost2010Prop31
280
     0
102
RTVSPost2010PropOp31
 70
     1
102
RTVSPost2010Prop32
280
     0
102
RTVSPost2010PropOp32
 70
     1
102
RTVSPost2010Prop33
280
     0
102
RTVSPost2010PropOp33
 70
     1
102
RTVSPost2010Prop34
280
     0
102
RTVSPost2010PropOp34
 70
     1
102
RTVSPost2010Prop35
280
     0
102
RTVSPost2010PropOp35
 70
     1
102
RTVSPost2010Prop36
280
     0
102
RTVSPost2010PropOp36
 70
     1
102
RTVSPost2010Prop37
 90
       50
102
RTVSPost2010PropOp37
 70
     1
102
RTVSPost2010Prop38
140
0.0
102
RTVSPost2010PropOp38
 70
     1
102
RTVSPost2010Prop39
140
1.0
102
RTVSPost2010PropOp39
 70
     1
102
RTVSPost2010Prop40
 90
        0
102
RTVSPost2010PropOp40
 70
     1
102
RTVSPost2010Prop41ColorIndex
 90
       18
102
RTVSPost2010Prop41ColorRGB
 90
        0
102
RTVSPost2010PropOp41
 70
     1
102
RTVSPost2010Prop42
 90
       50
102
RTVSPost2010PropOp42
 70
     1
102
RTVSPost2010Prop43
 90
        3
102
RTVSPost2010PropOp43
 70
     1
102
RTVSPost2010Prop44ColorIndex
 90
        5
102
RTVSPost2010Prop44ColorRGB
 90
      255
102
RTVSPost2010PropOp44
 70
     1
102
RTVSPost2010Prop45
280
     0
102
RTVSPost2010PropOp45
 70
     1
102
RTVSPost2010Prop46
 90
       50
102
RTVSPost2010PropOp46
 70
     1
102
RTVSPost2010Prop47
 90
       50
102
RTVSPost2010PropOp47
 70
     1
102
RTVSPost2010Prop48
 90
       50
102
RTVSPost2010PropOp48
 70
     1
102
RTVSPost2010Prop49
280
     0
102
RTVSPost2010PropOp49
 70
     1
102
RTVSPost2010Prop50
 90
       50
102
RTVSPost2010PropOp50
 70
     1
102
RTVSPost2010Prop51ColorIndex
 90
      256
102
RTVSPost2010Prop51ColorRGB
 90
-16777216
102
RTVSPost2010PropOp51
 70
     0
102
RTVSPost2010Prop52
140
1.0
102
RTVSPost2010PropOp52
 70
     0
102
RTVSPost2010Prop53
 90
        2
102
RTVSPost2010PropOp53
 70
     1
102
RTVSPost2010Prop54
  1
strokes_ogs.tif
102
RTVSPost2010PropOp54
 70
     1
102
RTVSPost2010Prop55
280
     0
102
RTVSPost2010PropOp55
 70
     1
102
RTVSPost2010Prop56
140
1.0
102
RTVSPost2010PropOp56
 70
     1
102
RTVSPost2010Prop57
140
1.0
102
RTVSPost2010PropOp57
 70
     1
102
RTVSPropertyOp0
 70
     1
102
RTVSPropertyOp1
 70
     1
102
RTVSPropertyOp2
 70
     1
102
RTVSPropertyOp3
 70
     1
102
RTVSPropertyOp4
 70
     1
102
RTVSPropertyOp5
 70
     1
102
RTVSPropertyOp6
 70
     1
102
RTVSPropertyOp7
 70
     1
102
RTVSPropertyOp8
 70
     1
102
RTVSPropertyOp9
 70
     1
102
RTVSPropertyOp10
 70
     1
102
RTVSPropertyOp11
 70
     1
102
RTVSPropertyOp12
 70
     1
102
RTVSPropertyOp13
 70
     1
102
RTVSPropertyOp14
 70
     1
102
RTVSPropertyOp15
 70
     1
102
RTVSPropertyOp16
 70
     1
102
RTVSPropertyOp17
 70
     1
102
RTVSPropertyOp18
 70
     1
102
RTVSPropertyOp19
 70
     1
102
RTVSPropertyOp20
 70
     1
102
RTVSPropertyOp21
 70
     1
102
RTVSPropertyOp22
 70
     1
102
RTVSPropertyOp23
 70
     1
102
RTVSPropertyOp24
 70
     1
102
RTVSPropertyOp25
 70
     1
102
RTVSPropertyOp26
 70
     1
102
RTVSPropertyOp27
 70
     1
102
RTVSPropertyOp28
 70
     1
102
RTVSPropertyOp29
 70
     1
102
RTVSPropertyOp30
 70
     1
102
RTVSPropertyOp31
 70
     1
102
RTVSPropertyOp32
 70
     1
102
RTVSPropertyOp33
 70
     1
102
RTVSPropertyOp34
 70
     1
102
RTVSPropertyOp35
 70
     1
102
RTVSPropertyOp36
 70
     1
102
RTVSPropertyOp37
 70
     1
102
RTVSPropertyOp38
 70
     1
102
RTVSPropertyOp39
 70
     1
102
RTVSPropertyOp40
 70
     1
102
RTVSPropertyOp41
 70
     1
102
RTVSPropertyOp42
 70
     1
102
RTVSPropertyOp43
 70
     1
102
RTVSPropertyOp44
 70
     1
102
RTVSPropertyOp45
 70
     1
102
RTVSPropertyOp46
 70
     1
102
RTVSPropertyOp47
 70
     1
102
RTVSPropertyOp48
 70
     1
102
RTVSPropertyOp49
 70
     1
102
RTVSPropertyOp50
 70
     1
102
RTVSPropertyOp51
 70
     0
102
RTVSPropertyOp52
 70
     0
102
RTVSPropertyOp53
 70
     1
102
RTVSPropertyOp54
 70
     1
102
RTVSPropertyOp55
 70
     1
102
RTVSPropertyOp56
 70
     1
102
RTVSPropertyOp57
 70
     1
102
RTVSPropertyOp58
 70
     1
102
RTVSPropertyOp59
 70
     1
102
RTVSPropertyOp60
 70
     1
102
RTVSPropertyOp61
 70
     1
102
RTVSPropertyOp62
 70
     1
  0
ENDSEC
  0
EOF
