  0
SECTION
  2
HEADER
  9
$ACADVER
  1
AC1015
  9
$ACADMAINTVER
 70
    20
  9
$DWGCODEPAGE
  3
ANSI_932
  9
$INSBASE
 10
0.0
 20
0.0
 30
0.0
  9
$EXTMIN
 10
10.918821
 20
9.999999999999998
 30
0.0
  9
$EXTMAX
 10
535.5545449999997
 20
443.860724
 30
0.0
  9
$LIMMIN
 10
0.0
 20
0.0
  9
$LIMMAX
 10
792.0
 20
546.0
  9
$ORTHOMODE
 70
     1
  9
$REGENMODE
 70
     1
  9
$FILLMODE
 70
     1
  9
$QTEXTMODE
 70
     0
  9
$MIRRTEXT
 70
     1
  9
$LTSCALE
 40
20.0
  9
$ATTMODE
 70
     1
  9
$TEXTSIZE
 40
5.0
  9
$TRACEWID
 40
1.0
  9
$TEXTSTYLE
  7
STANDARD
  9
$CLAYER
  8
0
  9
$CELTYPE
  6
BYLAYER
  9
$CECOLOR
 62
   256
  9
$CELTSCALE
 40
1.0
  9
$DISPSILH
 70
     0
  9
$DIMSCALE
 40
1.0
  9
$DIMASZ
 40
2.5
  9
$DIMEXO
 40
1.0
  9
$DIMDLI
 40
10.0
  9
$DIMRND
 40
0.0
  9
$DIMDLE
 40
0.0
  9
$DIMEXE
 40
1.0
  9
$DIMTP
 40
0.0
  9
$DIMTM
 40
0.0
  9
$DIMTXT
 40
3.2
  9
$DIMCEN
 40
0.0
  9
$DIMTSZ
 40
0.0
  9
$DIMTOL
 70
     0
  9
$DIMLIM
 70
     0
  9
$DIMTIH
 70
     0
  9
$DIMTOH
 70
     0
  9
$DIMSE1
 70
     0
  9
$DIMSE2
 70
     0
  9
$DIMTAD
 70
     3
  9
$DIMZIN
 70
     8
  9
$DIMBLK
  1

  9
$DIMASO
 70
     1
  9
$DIMSHO
 70
     1
  9
$DIMPOST
  1

  9
$DIMAPOST
  1

  9
$DIMALT
 70
     0
  9
$DIMALTD
 70
     2
  9
$DIMALTF
 40
25.4
  9
$DIMLFAC
 40
1.0
  9
$DIMTOFL
 70
     1
  9
$DIMTVP
 40
0.0
  9
$DIMTIX
 70
     0
  9
$DIMSOXD
 70
     0
  9
$DIMSAH
 70
     1
  9
$DIMBLK1
  1
OPEN
  9
$DIMBLK2
  1
OPEN
  9
$DIMSTYLE
  2
STANDARD
  9
$DIMCLRD
 70
     0
  9
$DIMCLRE
 70
     0
  9
$DIMCLRT
 70
     0
  9
$DIMTFAC
 40
1.0
  9
$DIMGAP
 40
1.0
  9
$DIMJUST
 70
     0
  9
$DIMSD1
 70
     0
  9
$DIMSD2
 70
     0
  9
$DIMTOLJ
 70
     1
  9
$DIMTZIN
 70
     0
  9
$DIMALTZ
 70
     0
  9
$DIMALTTZ
 70
     0
  9
$DIMUPT
 70
     0
  9
$DIMDEC
 70
     4
  9
$DIMTDEC
 70
     4
  9
$DIMALTU
 70
     2
  9
$DIMALTTD
 70
     2
  9
$DIMTXSTY
  7
STANDARD
  9
$DIMAUNIT
 70
     0
  9
$DIMADEC
 70
     0
  9
$DIMALTRND
 40
0.0
  9
$DIMAZIN
 70
     0
  9
$DIMDSEP
 70
    46
  9
$DIMATFIT
 70
     3
  9
$DIMFRAC
 70
     0
  9
$DIMLDRBLK
  1
OPEN
  9
$DIMLUNIT
 70
     2
  9
$DIMLWD
 70
    -2
  9
$DIMLWE
 70
    -2
  9
$DIMTMOVE
 70
     0
  9
$LUNITS
 70
     2
  9
$LUPREC
 70
     4
  9
$SKETCHINC
 40
1.0
  9
$FILLETRAD
 40
0.0
  9
$AUNITS
 70
     0
  9
$AUPREC
 70
     2
  9
$MENU
  1
.
  9
$ELEVATION
 40
0.0
  9
$PELEVATION
 40
0.0
  9
$THICKNESS
 40
0.0
  9
$LIMCHECK
 70
     0
  9
$CHAMFERA
 40
10.0
  9
$CHAMFERB
 40
10.0
  9
$CHAMFERC
 40
0.0
  9
$CHAMFERD
 40
0.0
  9
$SKPOLY
 70
     0
  9
$TDCREATE
 40
2451347.381037963
  9
$TDUCREATE
 40
2451347.006037963
  9
$TDUPDATE
 40
2457192.643822720
  9
$TDUUPDATE
 40
2457192.268822720
  9
$TDINDWG
 40
0.0453779167
  9
$TDUSRTIMER
 40
0.0453774190
  9
$USRTIMER
 70
     1
  9
$ANGBASE
 50
0.0
  9
$ANGDIR
 70
     0
  9
$PDMODE
 70
     0
  9
$PDSIZE
 40
0.0
  9
$PLINEWID
 40
0.0
  9
$SPLFRAME
 70
     0
  9
$SPLINETYPE
 70
     6
  9
$SPLINESEGS
 70
     8
  9
$HANDSEED
  5
CEB8
  9
$SURFTAB1
 70
     6
  9
$SURFTAB2
 70
     6
  9
$SURFTYPE
 70
     6
  9
$SURFU
 70
     6
  9
$SURFV
 70
     6
  9
$UCSBASE
  2

  9
$UCSNAME
  2

  9
$UCSORG
 10
0.0
 20
0.0
 30
0.0
  9
$UCSXDIR
 10
1.0
 20
0.0
 30
0.0
  9
$UCSYDIR
 10
0.0
 20
1.0
 30
0.0
  9
$UCSORTHOREF
  2

  9
$UCSORTHOVIEW
 70
     0
  9
$UCSORGTOP
 10
0.0
 20
0.0
 30
0.0
  9
$UCSORGBOTTOM
 10
0.0
 20
0.0
 30
0.0
  9
$UCSORGLEFT
 10
0.0
 20
0.0
 30
0.0
  9
$UCSORGRIGHT
 10
0.0
 20
0.0
 30
0.0
  9
$UCSORGFRONT
 10
0.0
 20
0.0
 30
0.0
  9
$UCSORGBACK
 10
0.0
 20
0.0
 30
0.0
  9
$PUCSBASE
  2

  9
$PUCSNAME
  2

  9
$PUCSORG
 10
0.0
 20
0.0
 30
0.0
  9
$PUCSXDIR
 10
1.0
 20
0.0
 30
0.0
  9
$PUCSYDIR
 10
0.0
 20
1.0
 30
0.0
  9
$PUCSORTHOREF
  2

  9
$PUCSORTHOVIEW
 70
     0
  9
$PUCSORGTOP
 10
0.0
 20
0.0
 30
0.0
  9
$PUCSORGBOTTOM
 10
0.0
 20
0.0
 30
0.0
  9
$PUCSORGLEFT
 10
0.0
 20
0.0
 30
0.0
  9
$PUCSORGRIGHT
 10
0.0
 20
0.0
 30
0.0
  9
$PUCSORGFRONT
 10
0.0
 20
0.0
 30
0.0
  9
$PUCSORGBACK
 10
0.0
 20
0.0
 30
0.0
  9
$USERI1
 70
     0
  9
$USERI2
 70
     0
  9
$USERI3
 70
     0
  9
$USERI4
 70
     0
  9
$USERI5
 70
     0
  9
$USERR1
 40
0.0
  9
$USERR2
 40
0.0
  9
$USERR3
 40
0.0
  9
$USERR4
 40
0.0
  9
$USERR5
 40
0.0
  9
$WORLDVIEW
 70
     1
  9
$SHADEDGE
 70
     3
  9
$SHADEDIF
 70
    70
  9
$TILEMODE
 70
     1
  9
$MAXACTVP
 70
    16
  9
$PINSBASE
 10
0.0
 20
0.0
 30
0.0
  9
$PLIMCHECK
 70
     0
  9
$PEXTMIN
 10
1.000000000000000E+20
 20
1.000000000000000E+20
 30
1.000000000000000E+20
  9
$PEXTMAX
 10
-1.000000000000000E+20
 20
-1.000000000000000E+20
 30
-1.000000000000000E+20
  9
$PLIMMIN
 10
0.0
 20
0.0
  9
$PLIMMAX
 10
420.0
 20
297.0
  9
$UNITMODE
 70
     0
  9
$VISRETAIN
 70
     0
  9
$PLINEGEN
 70
     0
  9
$PSLTSCALE
 70
     0
  9
$TREEDEPTH
 70
  3020
  9
$CMLSTYLE
  2
STANDARD
  9
$CMLJUST
 70
     0
  9
$CMLSCALE
 40
1.0
  9
$PROXYGRAPHICS
 70
     1
  9
$MEASUREMENT
 70
     0
  9
$CELWEIGHT
370
    -1
  9
$ENDCAPS
280
     0
  9
$JOINSTYLE
280
     0
  9
$LWDISPLAY
290
     0
  9
$INSUNITS
 70
     0
  9
$HYPERLINKBASE
  1

  9
$STYLESHEET
  1

  9
$XEDIT
290
     1
  9
$CEPSNTYPE
380
     0
  9
$PSTYLEMODE
290
     1
  9
$FINGERPRINTGUID
  2
{A75F4949-79D8-41AB-A5E2-ED22DC475AA7}
  9
$VERSIONGUID
  2
{C78BDB34-6EC7-4D3A-AE3C-6ECD97B4EFEF}
  9
$EXTNAMES
290
     1
  9
$PSVPSCALE
 40
0.0
  9
$OLESTARTUP
290
     0
  0
ENDSEC
  0
SECTION
  2
CLASSES
  0
CLASS
  1
ACDBDICTIONARYWDFLT
  2
AcDbDictionaryWithDefault
  3
ObjectDBX Classes
 90
        0
280
     0
281
     0
  0
CLASS
  1
ACDBPLACEHOLDER
  2
AcDbPlaceHolder
  3
ObjectDBX Classes
 90
        0
280
     0
281
     0
  0
CLASS
  1
LAYOUT
  2
AcDbLayout
  3
ObjectDBX Classes
 90
        0
280
     0
281
     0
  0
CLASS
  1
DICTIONARYVAR
  2
AcDbDictionaryVar
  3
ObjectDBX Classes
 90
        0
280
     0
281
     0
  0
CLASS
  1
MATERIAL
  2
AcDbMaterial
  3
ObjectDBX Classes
 90
     1153
280
     0
281
     0
  0
CLASS
  1
VISUALSTYLE
  2
AcDbVisualStyle
  3
ObjectDBX Classes
 90
     4095
280
     0
281
     0
  0
CLASS
  1
TABLESTYLE
  2
AcDbTableStyle
  3
ObjectDBX Classes
 90
     4095
280
     0
281
     0
  0
CLASS
  1
SCALE
  2
AcDbScale
  3
ObjectDBX Classes
 90
     1153
280
     0
281
     0
  0
CLASS
  1
MLEADERSTYLE
  2
AcDbMLeaderStyle
  3
ACDB_MLEADERSTYLE_CLASS
 90
     4095
280
     0
281
     0
  0
CLASS
  1
ACDBSECTIONVIEWSTYLE
  2
AcDbSectionViewStyle
  3
ObjectDBX Classes
 90
     1025
280
     0
281
     0
  0
CLASS
  1
ACDBDETAILVIEWSTYLE
  2
AcDbDetailViewStyle
  3
ObjectDBX Classes
 90
     1025
280
     0
281
     0
  0
CLASS
  1
CELLSTYLEMAP
  2
AcDbCellStyleMap
  3
ObjectDBX Classes
 90
     1152
280
     0
281
     0
  0
ENDSEC
  0
SECTION
  2
TABLES
  0
TABLE
  2
VPORT
  5
C571
330
0
100
AcDbSymbolTable
 70
     1
  0
VPORT
  5
CE03
330
C571
100
AcDbSymbolTableRecord
100
AcDbViewportTableRecord
  2
*ACTIVE
 70
     0
 10
0.0
 20
0.0
 11
1.0
 21
1.0
 12
412.6926618558437
 22
226.9279186980889
 13
0.0
 23
0.0
 14
10.0
 24
10.0
 15
10.0
 25
10.0
 16
0.0
 26
0.0
 36
1.0
 17
0.0
 27
0.0
 37
0.0
 40
438.0912922908662
 41
1.899603698811096
 42
50.0
 43
0.0
 44
0.0
 50
0.0
 51
0.0
 71
     0
 72
   100
 73
     1
 74
     0
 75
     0
 76
     0
 77
     0
 78
     0
281
     0
 65
     1
110
0.0
120
0.0
130
0.0
111
1.0
121
0.0
131
0.0
112
0.0
122
1.0
132
0.0
 79
     0
146
0.0
1001
ACAD_NAV_VCDISPLAY
1070
     3
  0
ENDTAB
  0
TABLE
  2
LTYPE
  5
C56E
330
0
100
AcDbSymbolTable
 70
     4
  0
LTYPE
  5
C57C
330
C56E
100
AcDbSymbolTableRecord
100
AcDbLinetypeTableRecord
  2
BYBLOCK
 70
     0
  3

 72
    65
 73
     0
 40
0.0
  0
LTYPE
  5
C57D
330
C56E
100
AcDbSymbolTableRecord
100
AcDbLinetypeTableRecord
  2
BYLAYER
 70
     0
  3

 72
    65
 73
     0
 40
0.0
  0
LTYPE
  5
C57E
330
C56E
100
AcDbSymbolTableRecord
100
AcDbLinetypeTableRecord
  2
CONTINUOUS
 70
     0
  3
Solid line
 72
    65
 73
     0
 40
0.0
  0
LTYPE
  5
C58C
330
C56E
100
AcDbSymbolTableRecord
100
AcDbLinetypeTableRecord
  2
DASHED
 70
     0
  3
__ __ __ __ __ __ __ __ __ __ __ __ __ __ __ __
 72
    65
 73
     2
 40
0.75
 49
0.5
 74
     0
 49
-0.25
 74
     0
  0
LTYPE
  5
C58D
330
C56E
100
AcDbSymbolTableRecord
100
AcDbLinetypeTableRecord
  2
CENTER
 70
     0
  3
____ _ ____ _ ____ _ ____ _ ____ _ ____ _ ____ 
 72
    65
 73
     4
 40
2.0
 49
1.25
 74
     0
 49
-0.25
 74
     0
 49
0.25
 74
     0
 49
-0.25
 74
     0
  0
LTYPE
  5
C58E
330
C56E
100
AcDbSymbolTableRecord
100
AcDbLinetypeTableRecord
  2
PHANTOM
 70
     0
  3
______  __  __  ______  __  __  ______  __  __ 
 72
    65
 73
     6
 40
2.5
 49
1.25
 74
     0
 49
-0.25
 74
     0
 49
0.25
 74
     0
 49
-0.25
 74
     0
 49
0.25
 74
     0
 49
-0.25
 74
     0
  0
ENDTAB
  0
TABLE
  2
LAYER
  5
C56B
330
0
100
AcDbSymbolTable
 70
     8
  0
LAYER
  5
C579
102
{ACAD_XDICTIONARY
360
CE5C
102
}
330
C56B
100
AcDbSymbolTableRecord
100
AcDbLayerTableRecord
  2
0
 70
     0
 62
     7
  6
CONTINUOUS
370
    -3
390
CE0A
  0
LAYER
  5
C58F
102
{ACAD_XDICTIONARY
360
CE5E
102
}
330
C56B
100
AcDbSymbolTableRecord
100
AcDbLayerTableRecord
  2
4
 70
     0
 62
     1
  6
CENTER
370
    -3
390
CE0A
  0
LAYER
  5
C590
102
{ACAD_XDICTIONARY
360
CE60
102
}
330
C56B
100
AcDbSymbolTableRecord
100
AcDbLayerTableRecord
  2
5
 70
     0
 62
     6
  6
PHANTOM
370
    -3
390
CE0A
  0
LAYER
  5
C591
102
{ACAD_XDICTIONARY
360
CE62
102
}
330
C56B
100
AcDbSymbolTableRecord
100
AcDbLayerTableRecord
  2
1
 70
     0
 62
     7
  6
CONTINUOUS
370
    -3
390
CE0A
  0
LAYER
  5
C592
102
{ACAD_XDICTIONARY
360
CE64
102
}
330
C56B
100
AcDbSymbolTableRecord
100
AcDbLayerTableRecord
  2
2
 70
     0
 62
     4
  6
CONTINUOUS
370
    -3
390
CE0A
  0
LAYER
  5
C593
102
{ACAD_XDICTIONARY
360
CE66
102
}
330
C56B
100
AcDbSymbolTableRecord
100
AcDbLayerTableRecord
  2
3
 70
     0
 62
     2
  6
DASHED
370
    -3
390
CE0A
  0
LAYER
  5
C594
102
{ACAD_XDICTIONARY
360
CE68
102
}
330
C56B
100
AcDbSymbolTableRecord
100
AcDbLayerTableRecord
  2
6
 70
     0
 62
     5
  6
CONTINUOUS
370
    -3
390
CE0A
  0
LAYER
  5
C595
102
{ACAD_XDICTIONARY
360
CE6A
102
}
330
C56B
100
AcDbSymbolTableRecord
100
AcDbLayerTableRecord
  2
7
 70
     0
 62
     3
  6
CONTINUOUS
370
    -3
390
CE0A
  0
ENDTAB
  0
TABLE
  2
STYLE
  5
C56C
330
0
100
AcDbSymbolTable
 70
     1
  0
STYLE
  5
C57A
330
C56C
100
AcDbSymbolTableRecord
100
AcDbTextStyleTableRecord
  2
STANDARD
 70
     0
 40
0.0
 41
1.0
 50
0.0
 71
     0
 42
5.0
  3
txt
  4

  0
ENDTAB
  0
TABLE
  2
VIEW
  5
C56F
330
0
100
AcDbSymbolTable
 70
     0
  0
ENDTAB
  0
TABLE
  2
UCS
  5
C570
330
0
100
AcDbSymbolTable
 70
     0
  0
ENDTAB
  0
TABLE
  2
APPID
  5
C572
330
0
100
AcDbSymbolTable
 70
     3
  0
APPID
  5
C57B
330
C572
100
AcDbSymbolTableRecord
100
AcDbRegAppTableRecord
  2
ACAD
 70
     0
  0
APPID
  5
CE76
330
C572
100
AcDbSymbolTableRecord
100
AcDbRegAppTableRecord
  2
ACAD_NAV_VCDISPLAY
 70
     0
  0
APPID
  5
CEAF
330
C572
100
AcDbSymbolTableRecord
100
AcDbRegAppTableRecord
  2
ACAD_MLEADERVER
 70
     0
  0
ENDTAB
  0
TABLE
  2
DIMSTYLE
  5
C573
330
0
100
AcDbSymbolTable
 70
     1
100
AcDbDimStyleTable
 71
     0
  0
DIMSTYLE
105
C597
330
C573
100
AcDbSymbolTableRecord
100
AcDbDimStyleTableRecord
  2
STANDARD
 70
     0
 41
2.5
 42
1.0
 43
10.0
 44
1.0
 73
     0
 74
     0
 77
     3
 78
     8
140
3.2
141
0.0
147
1.0
172
     1
173
     1
284
     8
285
     8
286
     8
340
C57A
  0
ENDTAB
  0
TABLE
  2
BLOCK_RECORD
  5
C56A
330
0
100
AcDbSymbolTable
 70
     1
  0
BLOCK_RECORD
  5
C587
102
{ACAD_XDICTIONARY
360
CA04
102
}
330
C56A
100
AcDbSymbolTableRecord
100
AcDbBlockTableRecord
  2
*MODEL_SPACE
340
CE58
  0
BLOCK_RECORD
  5
C583
102
{ACAD_XDICTIONARY
360
CA02
102
}
330
C56A
100
AcDbSymbolTableRecord
100
AcDbBlockTableRecord
  2
*PAPER_SPACE
340
CE59
  0
BLOCK_RECORD
  5
C59F
330
C56A
100
AcDbSymbolTableRecord
100
AcDbBlockTableRecord
  2
_OPEN
340
0
  0
ENDTAB
  0
ENDSEC
  0
SECTION
  2
BLOCKS
  0
BLOCK
  5
C588
330
C587
100
AcDbEntity
  8
0
100
AcDbBlockBegin
  2
*MODEL_SPACE
 70
     0
 10
0.0
 20
0.0
 30
0.0
  3
*MODEL_SPACE
  1

  0
ENDBLK
  5
C589
330
C587
100
AcDbEntity
  8
0
100
AcDbBlockEnd
  0
BLOCK
  5
C584
330
C583
100
AcDbEntity
 67
     1
  8
0
100
AcDbBlockBegin
  2
*PAPER_SPACE
 70
     0
 10
0.0
 20
0.0
 30
0.0
  3
*PAPER_SPACE
  1

  0
ENDBLK
  5
C585
330
C583
100
AcDbEntity
 67
     1
  8
0
100
AcDbBlockEnd
  0
BLOCK
  5
C5A0
330
C59F
100
AcDbEntity
  8
0
100
AcDbBlockBegin
  2
_OPEN
 70
     0
 10
0.0
 20
0.0
 30
0.0
  3
_OPEN
  1

  0
LINE
  5
C5A1
330
C59F
100
AcDbEntity
  8
0
  6
ByBlock
 62
     0
100
AcDbLine
 10
-1.0
 20
0.166667
 30
0.0
 11
0.0
 21
0.0
 31
0.0
  0
LINE
  5
C5A2
330
C59F
100
AcDbEntity
  8
0
  6
ByBlock
 62
     0
100
AcDbLine
 10
0.0
 20
0.0
 30
0.0
 11
-1.0
 21
-0.166667
 31
0.0
  0
LINE
  5
C5A3
330
C59F
100
AcDbEntity
  8
0
  6
ByBlock
 62
     0
100
AcDbLine
 10
0.0
 20
0.0
 30
0.0
 11
-1.0
 21
0.0
 31
0.0
  0
ENDBLK
  5
C5A4
330
C59F
100
AcDbEntity
  8
0
100
AcDbBlockEnd
  0
ENDSEC
  0
SECTION
  2
ENTITIES
  0
TEXT
  5
C5A5
330
C587
100
AcDbEntity
  8
7
  6
Continuous
100
AcDbText
 10
10.918821
 20
18.0
 30
0.0
 40
3.0
  1
TYPE No.THA-540-3K(No.200)
100
AcDbText
  0
TEXT
  5
C5A6
330
C587
100
AcDbEntity
  8
7
  6
Continuous
100
AcDbText
 10
10.918821
 20
26.0
 30
0.0
 40
3.0
  1
CODE No.3189
100
AcDbText
  0
TEXT
  5
C5A7
330
C587
100
AcDbEntity
  8
1
  6
Continuous
100
AcDbText
 10
10.918821
 20
10.0
 30
0.0
 40
1.399999999999999
  1
LAYER
100
AcDbText
  0
TEXT
  5
C5A8
330
C587
100
AcDbEntity
  8
7
  6
Continuous
100
AcDbText
 10
30.898332
 20
10.04873699999998
 30
0.0
 40
1.399999999999999
  1
7
100
AcDbText
  0
TEXT
  5
C5A9
330
C587
100
AcDbEntity
  8
6
  6
Continuous
100
AcDbText
 10
28.89833199999999
 20
10.04873699999998
 30
0.0
 40
1.399999999999999
  1
6
100
AcDbText
  0
TEXT
  5
C5AA
330
C587
100
AcDbEntity
  8
4
  6
CENTER
100
AcDbText
 10
24.898332
 20
10.04873699999998
 30
0.0
 40
1.399999999999999
  1
4
100
AcDbText
  0
TEXT
  5
C5AB
330
C587
100
AcDbEntity
  8
5
  6
PHANTOM
100
AcDbText
 10
26.898332
 20
10.04873699999998
 30
0.0
 40
1.399999999999999
  1
5
100
AcDbText
  0
TEXT
  5
C5AC
330
C587
100
AcDbEntity
  8
3
  6
DASHED
100
AcDbText
 10
22.89833199999999
 20
10.04873699999998
 30
0.0
 40
1.399999999999999
  1
3
100
AcDbText
  0
TEXT
  5
C5AD
330
C587
100
AcDbEntity
  8
1
  6
Continuous
100
AcDbText
 10
18.89833199999999
 20
10.04873699999998
 30
0.0
 40
1.399999999999999
  1
1
100
AcDbText
  0
TEXT
  5
C5AE
330
C587
100
AcDbEntity
  8
2
  6
Continuous
100
AcDbText
 10
20.898332
 20
10.04873699999998
 30
0.0
 40
1.399999999999999
  1
2
100
AcDbText
  0
LINE
  5
C5AF
330
C587
100
AcDbEntity
  8
1
  6
Continuous
100
AcDbLine
 10
191.4045449999999
 20
126.0000009999998
 30
0.0
 11
191.4045449999999
 21
41.00000099999999
 31
0.0
  0
LINE
  5
C5B0
330
C587
100
AcDbEntity
  8
1
  6
Continuous
100
AcDbLine
 10
189.4045449999999
 20
126.0000009999998
 30
0.0
 11
189.4045449999999
 21
41.00000099999999
 31
0.0
  0
LINE
  5
C5B1
330
C587
100
AcDbEntity
  8
1
  6
Continuous
100
AcDbLine
 10
189.4045449999999
 20
41.00000099999999
 30
0.0
 11
191.4045449999999
 21
41.00000099999999
 31
0.0
  0
LINE
  5
C5B2
330
C587
100
AcDbEntity
  8
4
  6
CENTER
100
AcDbLine
 10
169.1977409999998
 20
102.500001
 30
0.0
 11
194.6051289999999
 21
102.500001
 31
0.0
  0
LINE
  5
C5B3
330
C587
100
AcDbEntity
  8
1
  6
Continuous
100
AcDbLine
 10
176.9045449999999
 20
114.000001
 30
0.0
 11
189.4045449999999
 21
114.000001
 31
0.0
  0
LINE
  5
C5B4
330
C587
100
AcDbEntity
  8
1
  6
Continuous
100
AcDbLine
 10
176.9045449999999
 20
91.000001
 30
0.0
 11
189.4045449999999
 21
91.000001
 31
0.0
  0
LINE
  5
C5B5
330
C587
100
AcDbEntity
  8
1
  6
Continuous
100
AcDbLine
 10
174.104545
 20
110.900001
 30
0.0
 11
174.104545
 21
94.10000100000001
 31
0.0
  0
LINE
  5
C5B6
330
C587
100
AcDbEntity
  8
1
  6
Continuous
100
AcDbLine
 10
174.4045449999999
 20
114.5000009999999
 30
0.0
 11
174.4045449999999
 21
90.500001
 31
0.0
  0
LINE
  5
C5B7
330
C587
100
AcDbEntity
  8
1
  6
Continuous
100
AcDbLine
 10
176.9045449999999
 20
116.5000009999999
 30
0.0
 11
176.9045449999999
 21
88.50000099999999
 31
0.0
  0
LINE
  5
C5B8
330
C587
100
AcDbEntity
  8
1
  6
Continuous
100
AcDbLine
 10
175.9045449999999
 20
116.5000009999999
 30
0.0
 11
175.9045449999999
 21
88.50000099999999
 31
0.0
  0
ARC
  5
C5B9
330
C587
100
AcDbEntity
  8
1
  6
Continuous
100
AcDbCircle
 10
212.6620449999999
 20
102.500001
 30
0.0
 40
40.7575
100
AcDbArc
 50
168.1062739999999
 51
191.893726
  0
LINE
  5
C5BA
330
C587
100
AcDbEntity
  8
1
  6
Continuous
100
AcDbLine
 10
182.9045449999999
 20
99.500001
 30
0.0
 11
182.9045449999999
 21
105.500001
 31
0.0
  0
LINE
  5
C5BB
330
C587
100
AcDbEntity
  8
1
  6
Continuous
100
AcDbLine
 10
172.7795449999999
 20
94.10000100000001
 30
0.0
 11
174.4045449999999
 21
94.10000100000001
 31
0.0
  0
LINE
  5
C5BC
330
C587
100
AcDbEntity
  8
1
  6
Continuous
100
AcDbLine
 10
176.9045449999999
 20
99.00000099999999
 30
0.0
 11
182.4045449999999
 21
99.00000099999999
 31
0.0
  0
LINE
  5
C5BD
330
C587
100
AcDbEntity
  8
1
  6
Continuous
100
AcDbLine
 10
175.9045449999999
 20
88.50000099999999
 30
0.0
 11
176.9045449999999
 21
88.50000099999999
 31
0.0
  0
LINE
  5
C5BE
330
C587
100
AcDbEntity
  8
1
  6
Continuous
100
AcDbLine
 10
174.4045449999999
 20
90.500001
 30
0.0
 11
175.9045449999999
 21
88.50000099999999
 31
0.0
  0
LINE
  5
C5BF
330
C587
100
AcDbEntity
  8
1
  6
Continuous
100
AcDbLine
 10
176.9045449999999
 20
106.0000009999999
 30
0.0
 11
182.4045449999999
 21
106.0000009999999
 31
0.0
  0
LINE
  5
C5C0
330
C587
100
AcDbEntity
  8
1
  6
Continuous
100
AcDbLine
 10
182.4045449999999
 20
106.0000009999999
 30
0.0
 11
182.4045449999999
 21
99.00000099999999
 31
0.0
  0
LINE
  5
C5C1
330
C587
100
AcDbEntity
  8
1
  6
Continuous
100
AcDbLine
 10
182.4045449999999
 20
99.00000099999999
 30
0.0
 11
182.9045449999999
 21
99.500001
 31
0.0
  0
LINE
  5
C5C2
330
C587
100
AcDbEntity
  8
1
  6
Continuous
100
AcDbLine
 10
182.4045449999999
 20
106.0000009999999
 30
0.0
 11
182.9045449999999
 21
105.500001
 31
0.0
  0
LINE
  5
C5C3
330
C587
100
AcDbEntity
  8
1
  6
Continuous
100
AcDbLine
 10
175.9045449999999
 20
116.5000009999999
 30
0.0
 11
176.9045449999999
 21
116.5000009999999
 31
0.0
  0
LINE
  5
C5C4
330
C587
100
AcDbEntity
  8
1
  6
Continuous
100
AcDbLine
 10
174.4045449999999
 20
114.5000009999999
 30
0.0
 11
175.9045449999999
 21
116.5000009999999
 31
0.0
  0
LINE
  5
C5C5
330
C587
100
AcDbEntity
  8
1
  6
Continuous
100
AcDbLine
 10
172.7795449999999
 20
110.900001
 30
0.0
 11
174.4045449999999
 21
110.900001
 31
0.0
  0
LINE
  5
C5C6
330
C587
100
AcDbEntity
  8
4
  6
CENTER
100
AcDbLine
 10
179.9045449999999
 20
117.482361
 30
0.0
 11
179.9045449999999
 21
87.51763999999999
 31
0.0
  0
LINE
  5
C5C7
330
C587
100
AcDbEntity
  8
1
  6
Continuous
100
AcDbLine
 10
188.9045449999999
 20
114.000001
 30
0.0
 11
188.9045449999999
 21
91.000001
 31
0.0
  0
LINE
  5
C5C8
330
C587
100
AcDbEntity
  8
1
  6
Continuous
100
AcDbLine
 10
187.6045449999998
 20
114.000001
 30
0.0
 11
187.6045449999998
 21
91.000001
 31
0.0
  0
LINE
  5
C5C9
330
C587
100
AcDbEntity
  8
1
  6
Continuous
100
AcDbLine
 10
187.8045449999999
 20
114.000001
 30
0.0
 11
187.8045449999999
 21
91.000001
 31
0.0
  0
LINE
  5
C5CA
330
C587
100
AcDbEntity
  8
1
  6
Continuous
100
AcDbLine
 10
193.504545
 20
114.800001
 30
0.0
 11
193.504545
 21
107.200001
 31
0.0
  0
LINE
  5
C5CB
330
C587
100
AcDbEntity
  8
1
  6
Continuous
100
AcDbLine
 10
192.5045449999999
 20
116.000001
 30
0.0
 11
192.5045449999999
 21
106.0000009999999
 31
0.0
  0
ARC
  5
C5CC
330
C587
100
AcDbEntity
  8
1
  6
Continuous
100
AcDbCircle
 10
187.104545
 20
111.000001
 30
0.0
 40
9.0
100
AcDbArc
 50
344.1191499999998
 51
15.88085
  0
LINE
  5
C5CD
330
C587
100
AcDbEntity
  8
1
  6
Continuous
100
AcDbLine
 10
191.7045449999999
 20
116.000001
 30
0.0
 11
191.7045449999999
 21
106.0000009999999
 31
0.0
  0
LINE
  5
C5CE
330
C587
100
AcDbEntity
  8
1
  6
Continuous
100
AcDbLine
 10
193.504545
 20
111.000001
 30
0.0
 11
192.5045449999999
 21
110.000001
 31
0.0
  0
ARC
  5
C5CF
330
C587
100
AcDbEntity
  8
1
  6
Continuous
100
AcDbCircle
 10
194.510658
 20
91.89299
 30
0.0
 40
1.3
100
AcDbArc
 50
275.0
 51
344.1191499999998
  0
LINE
  5
C5D0
330
C587
100
AcDbEntity
  8
1
  6
Continuous
100
AcDbLine
 10
193.504545
 20
97.800001
 30
0.0
 11
193.504545
 21
90.200001
 31
0.0
  0
LINE
  5
C5D1
330
C587
100
AcDbEntity
  8
1
  6
Continuous
100
AcDbLine
 10
192.5045449999999
 20
99.00000099999999
 30
0.0
 11
192.5045449999999
 21
89.00000099999996
 31
0.0
  0
LINE
  5
C5D2
330
C587
100
AcDbEntity
  8
1
  6
Continuous
100
AcDbLine
 10
191.7045449999999
 20
99.00000099999999
 30
0.0
 11
191.7045449999999
 21
89.00000099999996
 31
0.0
  0
LINE
  5
C5D3
330
C587
100
AcDbEntity
  8
1
  6
Continuous
100
AcDbLine
 10
191.7045449999999
 20
99.00000099999999
 30
0.0
 11
192.5045449999999
 21
99.00000099999999
 31
0.0
  0
LINE
  5
C5D4
330
C587
100
AcDbEntity
  8
1
  6
Continuous
100
AcDbLine
 10
191.4045449999999
 20
91.300001
 30
0.0
 11
191.7045449999999
 21
91.300001
 31
0.0
  0
LINE
  5
C5D5
330
C587
100
AcDbEntity
  8
1
  6
Continuous
100
AcDbLine
 10
191.4045449999999
 20
96.70000100000001
 30
0.0
 11
191.7045449999999
 21
96.70000100000001
 31
0.0
  0
LINE
  5
C5D6
330
C587
100
AcDbEntity
  8
1
  6
Continuous
100
AcDbLine
 10
192.5045449999999
 20
94.00000099999996
 30
0.0
 11
193.504545
 21
95.00000099999999
 31
0.0
  0
LINE
  5
C5D7
330
C587
100
AcDbEntity
  8
1
  6
Continuous
100
AcDbLine
 10
193.504545
 20
94.00000099999996
 30
0.0
 11
192.5045449999999
 21
93.000001
 31
0.0
  0
LINE
  5
C5D8
330
C587
100
AcDbEntity
  8
1
  6
Continuous
100
AcDbLine
 10
193.504545
 20
97.50000100000001
 30
0.0
 11
194.623961
 21
97.40206499999999
 31
0.0
  0
LINE
  5
C5D9
330
C587
100
AcDbEntity
  8
1
  6
Continuous
100
AcDbLine
 10
192.5045449999999
 20
97.800001
 30
0.0
 11
193.504545
 21
97.800001
 31
0.0
  0
ARC
  5
C5DA
330
C587
100
AcDbEntity
  8
1
  6
Continuous
100
AcDbCircle
 10
194.510658
 20
96.10701200000001
 30
0.0
 40
1.3
100
AcDbArc
 50
15.88085
 51
85.0
  0
ARC
  5
C5DB
330
C587
100
AcDbEntity
  8
1
  6
Continuous
100
AcDbCircle
 10
187.104545
 20
94.00000099999996
 30
0.0
 40
9.0
100
AcDbArc
 50
344.1191499999998
 51
15.88085
  0
LINE
  5
C5DC
330
C587
100
AcDbEntity
  8
1
  6
Continuous
100
AcDbLine
 10
191.7045449999999
 20
89.00000099999996
 30
0.0
 11
192.5045449999999
 21
89.00000099999996
 31
0.0
  0
LINE
  5
C5DD
330
C587
100
AcDbEntity
  8
1
  6
Continuous
100
AcDbLine
 10
193.504545
 20
90.500001
 30
0.0
 11
194.623961
 21
90.597937
 31
0.0
  0
LINE
  5
C5DE
330
C587
100
AcDbEntity
  8
1
  6
Continuous
100
AcDbLine
 10
192.5045449999999
 20
90.200001
 30
0.0
 11
193.504545
 21
90.200001
 31
0.0
  0
ARC
  5
C5DF
330
C587
100
AcDbEntity
  8
1
  6
Continuous
100
AcDbCircle
 10
189.9045449999999
 20
102.500001
 30
0.0
 40
3.0
100
AcDbArc
 50
300.0
 51
60.0
  0
LINE
  5
C5E0
330
C587
100
AcDbEntity
  8
4
  6
CENTER
100
AcDbLine
 10
187.9045449999999
 20
94.00000099999996
 30
0.0
 11
197.6045449999999
 21
94.00000099999996
 31
0.0
  0
LINE
  5
C5E1
330
C587
100
AcDbEntity
  8
1
  6
Continuous
100
AcDbLine
 10
191.7045449999999
 20
106.0000009999999
 30
0.0
 11
192.5045449999999
 21
106.0000009999999
 31
0.0
  0
LINE
  5
C5E2
330
C587
100
AcDbEntity
  8
1
  6
Continuous
100
AcDbLine
 10
191.4045449999999
 20
108.3000009999999
 30
0.0
 11
191.7045449999999
 21
108.3000009999999
 31
0.0
  0
LINE
  5
C5E3
330
C587
100
AcDbEntity
  8
1
  6
Continuous
100
AcDbLine
 10
193.504545
 20
107.5000009999999
 30
0.0
 11
194.623961
 21
107.597937
 31
0.0
  0
LINE
  5
C5E4
330
C587
100
AcDbEntity
  8
1
  6
Continuous
100
AcDbLine
 10
192.5045449999999
 20
107.200001
 30
0.0
 11
193.504545
 21
107.200001
 31
0.0
  0
ARC
  5
C5E5
330
C587
100
AcDbEntity
  8
1
  6
Continuous
100
AcDbCircle
 10
194.510658
 20
108.8929899999999
 30
0.0
 40
1.3
100
AcDbArc
 50
275.0
 51
344.1191499999998
  0
LINE
  5
C5E6
330
C587
100
AcDbEntity
  8
4
  6
CENTER
100
AcDbLine
 10
188.35955
 20
121.0001129999998
 30
0.0
 11
192.8234889999998
 21
121.0001129999998
 31
0.0
  0
LINE
  5
C5E7
330
C587
100
AcDbEntity
  8
1
  6
Continuous
100
AcDbLine
 10
189.4045449999999
 20
126.0000009999998
 30
0.0
 11
191.4045449999999
 21
126.0000009999998
 31
0.0
  0
LINE
  5
C5E8
330
C587
100
AcDbEntity
  8
1
  6
Continuous
100
AcDbLine
 10
191.7045449999999
 20
116.000001
 30
0.0
 11
192.5045449999999
 21
116.000001
 31
0.0
  0
LINE
  5
C5E9
330
C587
100
AcDbEntity
  8
1
  6
Continuous
100
AcDbLine
 10
191.4045449999999
 20
113.7000009999999
 30
0.0
 11
191.7045449999999
 21
113.7000009999999
 31
0.0
  0
LINE
  5
C5EA
330
C587
100
AcDbEntity
  8
1
  6
Continuous
100
AcDbLine
 10
193.504545
 20
114.5000009999999
 30
0.0
 11
194.623961
 21
114.4020649999996
 31
0.0
  0
LINE
  5
C5EB
330
C587
100
AcDbEntity
  8
1
  6
Continuous
100
AcDbLine
 10
192.5045449999999
 20
114.800001
 30
0.0
 11
193.504545
 21
114.800001
 31
0.0
  0
ARC
  5
C5EC
330
C587
100
AcDbEntity
  8
1
  6
Continuous
100
AcDbCircle
 10
194.510658
 20
113.107012
 30
0.0
 40
1.3
100
AcDbArc
 50
15.88085
 51
85.0
  0
LINE
  5
C5ED
330
C587
100
AcDbEntity
  8
1
  6
Continuous
100
AcDbLine
 10
192.5045449999999
 20
111.000001
 30
0.0
 11
193.504545
 21
112.000001
 31
0.0
  0
LINE
  5
C5EE
330
C587
100
AcDbEntity
  8
4
  6
CENTER
100
AcDbLine
 10
187.9045449999999
 20
111.000001
 30
0.0
 11
197.6045449999999
 21
111.000001
 31
0.0
  0
ARC
  5
C5EF
330
C587
100
AcDbEntity
  8
1
  6
Continuous
100
AcDbCircle
 10
39.918821
 20
263.960724
 30
0.0
 40
8.4
100
AcDbArc
 50
0.0
 51
180.0
  0
LINE
  5
C5F0
330
C587
100
AcDbEntity
  8
1
  6
Continuous
100
AcDbLine
 10
48.318821
 20
265.960724
 30
0.0
 11
48.318821
 21
237.860724
 31
0.0
  0
LINE
  5
C5F1
330
C587
100
AcDbEntity
  8
1
  6
Continuous
100
AcDbLine
 10
31.51882099999999
 20
265.960724
 30
0.0
 11
31.51882099999999
 21
237.860724
 31
0.0
  0
LINE
  5
C5F2
330
C587
100
AcDbEntity
  8
1
  6
Continuous
100
AcDbLine
 10
31.418821
 20
224.360724
 30
0.0
 11
31.418821
 21
265.3607239999999
 31
0.0
  0
LINE
  5
C5F3
330
C587
100
AcDbEntity
  8
1
  6
Continuous
100
AcDbLine
 10
48.418821
 20
224.360724
 30
0.0
 11
48.418821
 21
265.3607239999999
 31
0.0
  0
LINE
  5
C5F4
330
C587
100
AcDbEntity
  8
4
  6
CENTER
100
AcDbLine
 10
39.918821
 20
290.3607239999999
 30
0.0
 11
39.918821
 21
200.360724
 31
0.0
  0
LINE
  5
C5F5
330
C587
100
AcDbEntity
  8
1
  6
Continuous
100
AcDbLine
 10
53.918821
 20
282.360724
 30
0.0
 11
53.918821
 21
208.360724
 31
0.0
  0
LINE
  5
C5F6
330
C587
100
AcDbEntity
  8
1
  6
Continuous
100
AcDbLine
 10
27.918821
 20
282.360724
 30
0.0
 11
27.918821
 21
208.360724
 31
0.0
  0
LINE
  5
C5F7
330
C587
100
AcDbEntity
  8
1
  6
Continuous
100
AcDbLine
 10
51.918821
 20
282.360724
 30
0.0
 11
51.918821
 21
208.360724
 31
0.0
  0
LINE
  5
C5F8
330
C587
100
AcDbEntity
  8
1
  6
Continuous
100
AcDbLine
 10
25.91882099999999
 20
282.360724
 30
0.0
 11
25.91882099999999
 21
208.360724
 31
0.0
  0
LINE
  5
C5F9
330
C587
100
AcDbEntity
  8
1
  6
Continuous
100
AcDbLine
 10
42.31882099999999
 20
220.096944
 30
0.0
 11
42.31882099999999
 21
219.939134
 31
0.0
  0
ARC
  5
C5FA
330
C587
100
AcDbEntity
  8
1
  6
Continuous
100
AcDbCircle
 10
39.918821
 20
220.760724
 30
0.0
 40
7.9
100
AcDbArc
 50
180.0
 51
0.0
  0
ARC
  5
C5FB
330
C587
100
AcDbEntity
  8
1
  6
Continuous
100
AcDbCircle
 10
39.918821
 20
220.760724
 30
0.0
 40
8.4
100
AcDbArc
 50
180.0
 51
0.0
  0
CIRCLE
  5
C5FC
330
C587
100
AcDbEntity
  8
1
  6
Continuous
100
AcDbCircle
 10
39.918821
 20
227.360724
 30
0.0
 40
7.65
  0
CIRCLE
  5
C5FD
330
C587
100
AcDbEntity
  8
1
  6
Continuous
100
AcDbCircle
 10
39.918821
 20
227.360724
 30
0.0
 40
7.799999999999998
  0
LINE
  5
C5FE
330
C587
100
AcDbEntity
  8
1
  6
Continuous
100
AcDbLine
 10
47.26729
 20
217.860724
 30
0.0
 11
32.570351
 21
217.860724
 31
0.0
  0
LINE
  5
C5FF
330
C587
100
AcDbEntity
  8
1
  6
Continuous
100
AcDbLine
 10
32.070254
 20
219.860724
 30
0.0
 11
37.776392
 21
219.860724
 31
0.0
  0
LINE
  5
C600
330
C587
100
AcDbEntity
  8
1
  6
Continuous
100
AcDbLine
 10
47.58693599999999
 20
218.860724
 30
0.0
 11
32.25070499999999
 21
218.860724
 31
0.0
  0
LINE
  5
C601
330
C587
100
AcDbEntity
  8
4
  6
CENTER
100
AcDbLine
 10
48.418821
 20
209.3607239999998
 30
0.0
 11
31.418821
 21
209.3607239999998
 31
0.0
  0
LINE
  5
C602
330
C587
100
AcDbEntity
  8
1
  6
Continuous
100
AcDbLine
 10
31.418821
 20
212.3607240000001
 30
0.0
 11
48.418821
 21
212.3607240000001
 31
0.0
  0
LINE
  5
C603
330
C587
100
AcDbEntity
  8
1
  6
Continuous
100
AcDbLine
 10
48.918821
 20
205.360724
 30
0.0
 11
30.918821
 21
205.360724
 31
0.0
  0
LINE
  5
C604
330
C587
100
AcDbEntity
  8
1
  6
Continuous
100
AcDbLine
 10
30.918821
 20
203.360724
 30
0.0
 11
48.918821
 21
203.360724
 31
0.0
  0
LINE
  5
C605
330
C587
100
AcDbEntity
  8
1
  6
Continuous
100
AcDbLine
 10
31.418821
 20
212.3607240000001
 30
0.0
 11
39.918821
 21
205.360724
 31
0.0
  0
ARC
  5
C606
330
C587
100
AcDbEntity
  8
1
  6
Continuous
100
AcDbCircle
 10
30.918821
 20
208.360724
 30
0.0
 40
3.0
100
AcDbArc
 50
180.0
 51
270.0
  0
ARC
  5
C607
330
C587
100
AcDbEntity
  8
1
  6
Continuous
100
AcDbCircle
 10
30.918821
 20
208.360724
 30
0.0
 40
5.0
100
AcDbArc
 50
180.0
 51
270.0
  0
LINE
  5
C608
330
C587
100
AcDbEntity
  8
1
  6
Continuous
100
AcDbLine
 10
43.76589699999999
 20
213.860724
 30
0.0
 11
36.071744
 21
213.860724
 31
0.0
  0
LINE
  5
C609
330
C587
100
AcDbEntity
  8
1
  6
Continuous
100
AcDbLine
 10
45.172391
 20
214.860724
 30
0.0
 11
34.66525
 21
214.860724
 31
0.0
  0
LINE
  5
C60A
330
C587
100
AcDbEntity
  8
1
  6
Continuous
100
AcDbLine
 10
46.11559399999999
 20
215.860724
 30
0.0
 11
33.72204699999999
 21
215.860724
 31
0.0
  0
LINE
  5
C60B
330
C587
100
AcDbEntity
  8
1
  6
Continuous
100
AcDbLine
 10
46.789046
 20
216.860724
 30
0.0
 11
33.048595
 21
216.860724
 31
0.0
  0
LINE
  5
C60C
330
C587
100
AcDbEntity
  8
1
  6
Continuous
100
AcDbLine
 10
47.767387
 20
219.860724
 30
0.0
 11
42.06124899999998
 21
219.860724
 31
0.0
  0
ARC
  5
C60D
330
C587
100
AcDbEntity
  8
1
  6
Continuous
100
AcDbCircle
 10
38.333742
 20
210.3606829999999
 30
0.0
 40
1.185078
100
AcDbArc
 50
321.3401919999999
 51
38.65980799999999
  0
LINE
  5
C60E
330
C587
100
AcDbEntity
  8
1
  6
Continuous
100
AcDbLine
 10
41.418821
 20
209.360683
 30
0.0
 11
41.91882099999999
 21
211.360683
 31
0.0
  0
LINE
  5
C60F
330
C587
100
AcDbEntity
  8
1
  6
Continuous
100
AcDbLine
 10
40.918821
 20
211.360683
 30
0.0
 11
41.418821
 21
209.360683
 31
0.0
  0
LINE
  5
C610
330
C587
100
AcDbEntity
  8
1
  6
Continuous
100
AcDbLine
 10
40.418821
 20
209.360683
 30
0.0
 11
40.918821
 21
211.360683
 31
0.0
  0
LINE
  5
C611
330
C587
100
AcDbEntity
  8
1
  6
Continuous
100
AcDbLine
 10
39.918821
 20
211.360683
 30
0.0
 11
40.418821
 21
209.360683
 31
0.0
  0
LINE
  5
C612
330
C587
100
AcDbEntity
  8
1
  6
Continuous
100
AcDbLine
 10
42.31882099999999
 20
211.360683
 30
0.0
 11
43.918821
 21
209.360683
 31
0.0
  0
LINE
  5
C613
330
C587
100
AcDbEntity
  8
1
  6
Continuous
100
AcDbLine
 10
42.31882099999999
 20
211.360683
 30
0.0
 11
42.31882099999999
 21
209.360683
 31
0.0
  0
LINE
  5
C614
330
C587
100
AcDbEntity
  8
1
  6
Continuous
100
AcDbLine
 10
43.918821
 20
211.360683
 30
0.0
 11
43.918821
 21
209.360683
 31
0.0
  0
LINE
  5
C615
330
C587
100
AcDbEntity
  8
1
  6
Continuous
100
AcDbLine
 10
35.918821
 20
211.360683
 30
0.0
 11
36.518821
 21
211.360683
 31
0.0
  0
LINE
  5
C616
330
C587
100
AcDbEntity
  8
1
  6
Continuous
100
AcDbLine
 10
36.518821
 20
209.360683
 30
0.0
 11
35.918821
 21
209.360683
 31
0.0
  0
LINE
  5
C617
330
C587
100
AcDbEntity
  8
1
  6
Continuous
100
AcDbLine
 10
35.918821
 20
209.360683
 30
0.0
 11
35.918821
 21
211.360683
 31
0.0
  0
ARC
  5
C618
330
C587
100
AcDbEntity
  8
1
  6
Continuous
100
AcDbCircle
 10
36.518821
 20
210.3606829999999
 30
0.0
 40
1.0
100
AcDbArc
 50
270.0
 51
90.0
  0
ARC
  5
C619
330
C587
100
AcDbEntity
  8
1
  6
Continuous
100
AcDbCircle
 10
39.103899
 20
210.3606829999999
 30
0.0
 40
1.185078
100
AcDbArc
 50
141.340192
 51
218.6598079999999
  0
ARC
  5
C61A
330
C587
100
AcDbEntity
  8
1
  6
Continuous
100
AcDbCircle
 10
38.718821
 20
210.0526209999999
 30
0.0
 40
0.6919380000000001
100
AcDbArc
 50
218.6598079999999
 51
321.3401919999999
  0
ARC
  5
C61B
330
C587
100
AcDbEntity
  8
1
  6
Continuous
100
AcDbCircle
 10
38.718821
 20
210.6687459999998
 30
0.0
 40
0.6919380000000001
100
AcDbArc
 50
38.65980799999999
 51
141.340192
  0
LINE
  5
C61C
330
C587
100
AcDbEntity
  8
1
  6
Continuous
100
AcDbLine
 10
40.918821
 20
219.776365
 30
0.0
 11
40.918821
 21
219.625092
 31
0.0
  0
LINE
  5
C61D
330
C587
100
AcDbEntity
  8
1
  6
Continuous
100
AcDbLine
 10
39.918821
 20
205.360724
 30
0.0
 11
48.418821
 21
212.3607240000001
 31
0.0
  0
ARC
  5
C61E
330
C587
100
AcDbEntity
  8
1
  6
Continuous
100
AcDbCircle
 10
48.918821
 20
208.360724
 30
0.0
 40
5.0
100
AcDbArc
 50
270.0
 51
0.0
  0
ARC
  5
C61F
330
C587
100
AcDbEntity
  8
1
  6
Continuous
100
AcDbCircle
 10
48.918821
 20
208.360724
 30
0.0
 40
3.0
100
AcDbArc
 50
270.0
 51
0.0
  0
LINE
  5
C620
330
C587
100
AcDbEntity
  8
1
  6
Continuous
100
AcDbLine
 10
32.01882100000001
 20
220.860724
 30
0.0
 11
35.607208
 21
220.860724
 31
0.0
  0
LINE
  5
C621
330
C587
100
AcDbEntity
  8
1
  6
Continuous
100
AcDbLine
 10
32.01882100000001
 20
221.860724
 30
0.0
 11
34.38799799999999
 21
221.860724
 31
0.0
  0
LINE
  5
C622
330
C587
100
AcDbEntity
  8
1
  6
Continuous
100
AcDbLine
 10
32.01882100000001
 20
222.860724
 30
0.0
 11
33.547792
 21
222.860724
 31
0.0
  0
LINE
  5
C623
330
C587
100
AcDbEntity
  8
1
  6
Continuous
100
AcDbLine
 10
32.01882100000001
 20
223.860724
 30
0.0
 11
32.948168
 21
223.860724
 31
0.0
  0
LINE
  5
C624
330
C587
100
AcDbEntity
  8
4
  6
CENTER
100
AcDbLine
 10
50.14237099999999
 20
262.360724
 30
0.0
 11
29.65569799999999
 21
262.360724
 31
0.0
  0
LINE
  5
C625
330
C587
100
AcDbEntity
  8
1
  6
Continuous
100
AcDbLine
 10
32.01882100000001
 20
232.860724
 30
0.0
 11
34.38799799999999
 21
232.860724
 31
0.0
  0
ARC
  5
C626
330
C587
100
AcDbEntity
  8
1
  6
Continuous
100
AcDbCircle
 10
33.018821
 20
237.860724
 30
0.0
 40
1.5
100
AcDbArc
 50
180.0
 51
270.0
  0
LINE
  5
C627
330
C587
100
AcDbEntity
  8
1
  6
Continuous
100
AcDbLine
 10
32.01882100000001
 20
233.860724
 30
0.0
 11
35.60720899999999
 21
233.860724
 31
0.0
  0
LINE
  5
C628
330
C587
100
AcDbEntity
  8
1
  6
Continuous
100
AcDbLine
 10
32.01882100000001
 20
234.860724
 30
0.0
 11
37.776392
 21
234.860724
 31
0.0
  0
LINE
  5
C629
330
C587
100
AcDbEntity
  8
1
  6
Continuous
100
AcDbLine
 10
32.01882100000001
 20
230.860724
 30
0.0
 11
32.948168
 21
230.860724
 31
0.0
  0
LINE
  5
C62A
330
C587
100
AcDbEntity
  8
1
  6
Continuous
100
AcDbLine
 10
32.01882100000001
 20
231.860724
 30
0.0
 11
33.547793
 21
231.860724
 31
0.0
  0
LINE
  5
C62B
330
C587
100
AcDbEntity
  8
1
  6
Continuous
100
AcDbLine
 10
32.01882100000001
 20
235.860724
 30
0.0
 11
47.81882099999999
 21
235.860724
 31
0.0
  0
LINE
  5
C62C
330
C587
100
AcDbEntity
  8
1
  6
Continuous
100
AcDbLine
 10
48.418821
 20
236.360724
 30
0.0
 11
31.418821
 21
236.360724
 31
0.0
  0
LINE
  5
C62D
330
C587
100
AcDbEntity
  8
4
  6
CENTER
100
AcDbLine
 10
50.14237099999999
 20
227.360724
 30
0.0
 11
29.65569799999999
 21
227.360724
 31
0.0
  0
LINE
  5
C62E
330
C587
100
AcDbEntity
  8
1
  6
Continuous
100
AcDbLine
 10
32.01882100000001
 20
235.860724
 30
0.0
 11
47.81882099999999
 21
235.860724
 31
0.0
  0
LINE
  5
C62F
330
C587
100
AcDbEntity
  8
1
  6
Continuous
100
AcDbLine
 10
32.01882100000001
 20
224.8607240000001
 30
0.0
 11
32.53031599999999
 21
224.8607240000001
 31
0.0
  0
LINE
  5
C630
330
C587
100
AcDbEntity
  8
1
  6
Continuous
100
AcDbLine
 10
32.01882100000001
 20
225.860724
 30
0.0
 11
32.26440999999999
 21
225.860724
 31
0.0
  0
LINE
  5
C631
330
C587
100
AcDbEntity
  8
1
  6
Continuous
100
AcDbLine
 10
32.01882100000001
 20
226.8607240000001
 30
0.0
 11
32.134863
 21
226.8607240000001
 31
0.0
  0
LINE
  5
C632
330
C587
100
AcDbEntity
  8
1
  6
Continuous
100
AcDbLine
 10
32.01882100000001
 20
227.860724
 30
0.0
 11
32.134863
 21
227.860724
 31
0.0
  0
LINE
  5
C633
330
C587
100
AcDbEntity
  8
1
  6
Continuous
100
AcDbLine
 10
32.01882100000001
 20
228.8607240000001
 30
0.0
 11
32.26440999999999
 21
228.8607240000001
 31
0.0
  0
ARC
  5
C634
330
C587
100
AcDbEntity
  8
1
  6
Continuous
100
AcDbCircle
 10
32.01882100000001
 20
235.860724
 30
0.0
 40
0.5
100
AcDbArc
 50
90.0
 51
180.0
  0
LINE
  5
C635
330
C587
100
AcDbEntity
  8
1
  6
Continuous
100
AcDbLine
 10
32.497231
 20
229.760724
 30
0.0
 11
32.65504099999999
 21
229.760724
 31
0.0
  0
LINE
  5
C636
330
C587
100
AcDbEntity
  8
1
  6
Continuous
100
AcDbLine
 10
32.18318899999999
 20
228.360724
 30
0.0
 11
32.334462
 21
228.360724
 31
0.0
  0
LINE
  5
C637
330
C587
100
AcDbEntity
  8
1
  6
Continuous
100
AcDbLine
 10
32.01882100000001
 20
229.860724
 30
0.0
 11
32.53031599999999
 21
229.860724
 31
0.0
  0
ARC
  5
C638
330
C587
100
AcDbEntity
  8
1
  6
Continuous
100
AcDbCircle
 10
39.918821
 20
224.360724
 30
0.0
 40
8.5
100
AcDbArc
 50
180.0
 51
188.7974109999998
  0
LINE
  5
C639
330
C587
100
AcDbEntity
  8
1
  6
Continuous
100
AcDbLine
 10
31.51882099999999
 20
220.760724
 30
0.0
 11
31.51882099999999
 21
235.860724
 31
0.0
  0
LINE
  5
C63A
330
C587
100
AcDbEntity
  8
1
  6
Continuous
100
AcDbLine
 10
32.01882100000001
 20
220.760724
 30
0.0
 11
32.01882100000001
 21
235.860724
 31
0.0
  0
ARC
  5
C63B
330
C587
100
AcDbEntity
  8
1
  6
Continuous
100
AcDbCircle
 10
31.418821
 20
262.360724
 30
0.0
 40
1.620999999999999
100
AcDbArc
 50
86.46316
 51
90.0
  0
LINE
  5
C63C
330
C587
100
AcDbEntity
  8
1
  6
Continuous
100
AcDbLine
 10
31.418821
 20
263.860724
 30
0.0
 11
31.51882099999999
 21
263.860724
 31
0.0
  0
LINE
  5
C63D
330
C587
100
AcDbEntity
  8
1
  6
Continuous
100
AcDbLine
 10
31.418821
 20
260.8607239999999
 30
0.0
 11
31.51882099999999
 21
260.8607239999999
 31
0.0
  0
ARC
  5
C63E
330
C587
100
AcDbEntity
  8
1
  6
Continuous
100
AcDbCircle
 10
31.418821
 20
262.360724
 30
0.0
 40
1.620999999999999
100
AcDbArc
 50
270.0
 51
273.53684
  0
LINE
  5
C63F
330
C587
100
AcDbEntity
  8
1
  6
Continuous
100
AcDbLine
 10
31.51882099999999
 20
257.360724
 30
0.0
 11
31.418821
 21
257.360724
 31
0.0
  0
LINE
  5
C640
330
C587
100
AcDbEntity
  8
1
  6
Continuous
100
AcDbLine
 10
47.81882099999999
 20
221.860724
 30
0.0
 11
45.449643
 21
221.860724
 31
0.0
  0
LINE
  5
C641
330
C587
100
AcDbEntity
  8
1
  6
Continuous
100
AcDbLine
 10
47.81882099999999
 20
220.860724
 30
0.0
 11
44.23043299999998
 21
220.860724
 31
0.0
  0
LINE
  5
C642
330
C587
100
AcDbEntity
  8
1
  6
Continuous
100
AcDbLine
 10
47.81882099999999
 20
222.860724
 30
0.0
 11
46.28984899999998
 21
222.860724
 31
0.0
  0
LINE
  5
C643
330
C587
100
AcDbEntity
  8
1
  6
Continuous
100
AcDbLine
 10
47.81882099999999
 20
224.8607240000001
 30
0.0
 11
47.307326
 21
224.8607240000001
 31
0.0
  0
LINE
  5
C644
330
C587
100
AcDbEntity
  8
1
  6
Continuous
100
AcDbLine
 10
47.81882099999999
 20
227.860724
 30
0.0
 11
47.702778
 21
227.860724
 31
0.0
  0
LINE
  5
C645
330
C587
100
AcDbEntity
  8
1
  6
Continuous
100
AcDbLine
 10
47.81882099999999
 20
226.8607240000001
 30
0.0
 11
47.702778
 21
226.8607240000001
 31
0.0
  0
LINE
  5
C646
330
C587
100
AcDbEntity
  8
1
  6
Continuous
100
AcDbLine
 10
47.81882099999999
 20
225.860724
 30
0.0
 11
47.57323099999999
 21
225.860724
 31
0.0
  0
LINE
  5
C647
330
C587
100
AcDbEntity
  8
1
  6
Continuous
100
AcDbLine
 10
47.81882099999999
 20
223.860724
 30
0.0
 11
46.88947299999997
 21
223.860724
 31
0.0
  0
LINE
  5
C648
330
C587
100
AcDbEntity
  8
1
  6
Continuous
100
AcDbLine
 10
47.81882099999999
 20
228.8607240000001
 30
0.0
 11
47.57323099999999
 21
228.8607240000001
 31
0.0
  0
ARC
  5
C649
330
C587
100
AcDbEntity
  8
1
  6
Continuous
100
AcDbCircle
 10
47.81882099999999
 20
235.860724
 30
0.0
 40
0.5
100
AcDbArc
 50
0.0
 51
90.0
  0
LINE
  5
C64A
330
C587
100
AcDbEntity
  8
1
  6
Continuous
100
AcDbLine
 10
45.449644
 20
232.860724
 30
0.0
 11
47.81882099999999
 21
232.860724
 31
0.0
  0
LINE
  5
C64B
330
C587
100
AcDbEntity
  8
1
  6
Continuous
100
AcDbLine
 10
44.23043299999998
 20
233.860724
 30
0.0
 11
47.81882099999999
 21
233.860724
 31
0.0
  0
ARC
  5
C64C
330
C587
100
AcDbEntity
  8
1
  6
Continuous
100
AcDbCircle
 10
46.818821
 20
237.860724
 30
0.0
 40
1.5
100
AcDbArc
 50
270.0
 51
0.0
  0
LINE
  5
C64D
330
C587
100
AcDbEntity
  8
1
  6
Continuous
100
AcDbLine
 10
47.182601
 20
229.760724
 30
0.0
 11
47.34041099999998
 21
229.760724
 31
0.0
  0
LINE
  5
C64E
330
C587
100
AcDbEntity
  8
1
  6
Continuous
100
AcDbLine
 10
47.307326
 20
229.860724
 30
0.0
 11
47.81882099999999
 21
229.860724
 31
0.0
  0
LINE
  5
C64F
330
C587
100
AcDbEntity
  8
1
  6
Continuous
100
AcDbLine
 10
46.88947399999999
 20
230.860724
 30
0.0
 11
47.81882099999999
 21
230.860724
 31
0.0
  0
LINE
  5
C650
330
C587
100
AcDbEntity
  8
1
  6
Continuous
100
AcDbLine
 10
46.28984899999998
 20
231.860724
 30
0.0
 11
47.81882099999999
 21
231.860724
 31
0.0
  0
LINE
  5
C651
330
C587
100
AcDbEntity
  8
1
  6
Continuous
100
AcDbLine
 10
47.182601
 20
224.960724
 30
0.0
 11
47.34041099999998
 21
224.960724
 31
0.0
  0
ARC
  5
C652
330
C587
100
AcDbEntity
  8
1
  6
Continuous
100
AcDbCircle
 10
39.918821
 20
224.360724
 30
0.0
 40
8.5
100
AcDbArc
 50
351.202589
 51
0.0
  0
LINE
  5
C653
330
C587
100
AcDbEntity
  8
1
  6
Continuous
100
AcDbLine
 10
47.81882099999999
 20
220.760724
 30
0.0
 11
47.81882099999999
 21
235.860724
 31
0.0
  0
LINE
  5
C654
330
C587
100
AcDbEntity
  8
1
  6
Continuous
100
AcDbLine
 10
48.318821
 20
220.760724
 30
0.0
 11
48.318821
 21
235.860724
 31
0.0
  0
CIRCLE
  5
C655
330
C587
100
AcDbEntity
  8
1
  6
Continuous
100
AcDbCircle
 10
39.918821
 20
233.0607239999999
 30
0.0
 40
0.45
  0
LINE
  5
C656
330
C587
100
AcDbEntity
  8
1
  6
Continuous
100
AcDbLine
 10
42.31882099999999
 20
234.782314
 30
0.0
 11
42.31882099999999
 21
234.6245039999999
 31
0.0
  0
LINE
  5
C657
330
C587
100
AcDbEntity
  8
1
  6
Continuous
100
AcDbLine
 10
37.518821
 20
234.782314
 30
0.0
 11
37.518821
 21
234.6245039999999
 31
0.0
  0
LINE
  5
C658
330
C587
100
AcDbEntity
  8
1
  6
Continuous
100
AcDbLine
 10
40.96882100000001
 20
231.010724
 30
0.0
 11
38.86882099999999
 21
231.010724
 31
0.0
  0
LINE
  5
C65F
330
C587
100
AcDbEntity
  8
1
  6
Continuous
100
AcDbLine
 10
40.96882100000001
 20
224.0107239999999
 30
0.0
 11
38.86882099999999
 21
224.0107239999999
 31
0.0
  0
LINE
  5
C664
330
C587
100
AcDbEntity
  8
1
  6
Continuous
100
AcDbLine
 10
40.96882100000001
 20
224.0107239999999
 30
0.0
 11
40.96882100000001
 21
231.010724
 31
0.0
  0
LINE
  5
C665
330
C587
100
AcDbEntity
  8
1
  6
Continuous
100
AcDbLine
 10
38.86882099999999
 20
224.0107239999999
 30
0.0
 11
38.86882099999999
 21
231.010724
 31
0.0
  0
LINE
  5
C666
330
C587
100
AcDbEntity
  8
1
  6
Continuous
100
AcDbLine
 10
42.06125
 20
234.860724
 30
0.0
 11
47.81882099999999
 21
234.860724
 31
0.0
  0
ARC
  5
C667
330
C587
100
AcDbEntity
  8
1
  6
Continuous
100
AcDbCircle
 10
48.418821
 20
262.360724
 30
0.0
 40
1.620999999999999
100
AcDbArc
 50
90.0
 51
93.53683999999999
  0
LINE
  5
C668
330
C587
100
AcDbEntity
  8
1
  6
Continuous
100
AcDbLine
 10
48.318821
 20
263.860724
 30
0.0
 11
48.418821
 21
263.860724
 31
0.0
  0
LINE
  5
C669
330
C587
100
AcDbEntity
  8
1
  6
Continuous
100
AcDbLine
 10
48.318821
 20
260.8607239999999
 30
0.0
 11
48.418821
 21
260.8607239999999
 31
0.0
  0
ARC
  5
C66A
330
C587
100
AcDbEntity
  8
1
  6
Continuous
100
AcDbCircle
 10
48.418821
 20
262.360724
 30
0.0
 40
1.620999999999999
100
AcDbArc
 50
266.46316
 51
270.0
  0
LINE
  5
C66B
330
C587
100
AcDbEntity
  8
1
  6
Continuous
100
AcDbLine
 10
48.418821
 20
257.360724
 30
0.0
 11
48.318821
 21
257.360724
 31
0.0
  0
LINE
  5
C66C
330
C587
100
AcDbEntity
  8
1
  6
Continuous
100
AcDbLine
 10
30.918821
 20
285.360724
 30
0.0
 11
48.918821
 21
285.360724
 31
0.0
  0
LINE
  5
C66D
330
C587
100
AcDbEntity
  8
1
  6
Continuous
100
AcDbLine
 10
30.918821
 20
287.360724
 30
0.0
 11
48.918821
 21
287.360724
 31
0.0
  0
ARC
  5
C66E
330
C587
100
AcDbEntity
  8
1
  6
Continuous
100
AcDbCircle
 10
39.918821
 20
265.3607239999999
 30
0.0
 40
8.5
100
AcDbArc
 50
0.0
 51
180.0
  0
ARC
  5
C66F
330
C587
100
AcDbEntity
  8
1
  6
Continuous
100
AcDbCircle
 10
30.918821
 20
282.360724
 30
0.0
 40
5.0
100
AcDbArc
 50
90.0
 51
180.0
  0
ARC
  5
C670
330
C587
100
AcDbEntity
  8
1
  6
Continuous
100
AcDbCircle
 10
30.918821
 20
282.360724
 30
0.0
 40
3.0
100
AcDbArc
 50
90.0
 51
180.0
  0
ARC
  5
C671
330
C587
100
AcDbEntity
  8
1
  6
Continuous
100
AcDbCircle
 10
39.918821
 20
265.960724
 30
0.0
 40
8.4
100
AcDbArc
 50
172.418031
 51
180.0
  0
LINE
  5
C672
330
C587
100
AcDbEntity
  8
1
  6
Continuous
100
AcDbLine
 10
31.418821
 20
265.3607239999999
 30
0.0
 11
31.51882099999999
 21
265.3607239999999
 31
0.0
  0
ARC
  5
C673
330
C587
100
AcDbEntity
  8
1
  6
Continuous
100
AcDbCircle
 10
48.918821
 20
282.360724
 30
0.0
 40
5.0
100
AcDbArc
 50
0.0
 51
90.0
  0
LINE
  5
C674
330
C587
100
AcDbEntity
  8
4
  6
CENTER
100
AcDbLine
 10
43.801258
 20
281.3607239999999
 30
0.0
 11
35.34644399999999
 21
281.3607239999999
 31
0.0
  0
ARC
  5
C675
330
C587
100
AcDbEntity
  8
1
  6
Continuous
100
AcDbCircle
 10
39.918821
 20
265.960724
 30
0.0
 40
8.4
100
AcDbArc
 50
0.0
 51
7.581968999999999
  0
LINE
  5
C676
330
C587
100
AcDbEntity
  8
1
  6
Continuous
100
AcDbLine
 10
48.318821
 20
265.3607239999999
 30
0.0
 11
48.418821
 21
265.3607239999999
 31
0.0
  0
ARC
  5
C677
330
C587
100
AcDbEntity
  8
1
  6
Continuous
100
AcDbCircle
 10
48.918821
 20
282.360724
 30
0.0
 40
3.0
100
AcDbArc
 50
0.0
 51
90.0
  0
ARC
  5
C678
330
C587
100
AcDbEntity
  8
1
  6
Continuous
100
AcDbCircle
 10
187.104545
 20
262.360724
 30
0.0
 40
9.0
100
AcDbArc
 50
344.1191499999998
 51
15.88085
  0
LINE
  5
C679
330
C587
100
AcDbEntity
  8
1
  6
Continuous
100
AcDbLine
 10
191.7045449999999
 20
257.360724
 30
0.0
 11
191.7045449999999
 21
267.3607239999999
 31
0.0
  0
LINE
  5
C67A
330
C587
100
AcDbEntity
  8
1
  6
Continuous
100
AcDbLine
 10
192.5045449999999
 20
257.360724
 30
0.0
 11
192.5045449999999
 21
267.3607239999999
 31
0.0
  0
LINE
  5
C67B
330
C587
100
AcDbEntity
  8
1
  6
Continuous
100
AcDbLine
 10
193.504545
 20
258.5607239999998
 30
0.0
 11
193.504545
 21
266.160724
 31
0.0
  0
LINE
  5
C67C
330
C587
100
AcDbEntity
  8
1
  6
Continuous
100
AcDbLine
 10
189.4045449999999
 20
252.360724
 30
0.0
 11
189.4045449999999
 21
287.360724
 31
0.0
  0
LINE
  5
C67D
330
C587
100
AcDbEntity
  8
1
  6
Continuous
100
AcDbLine
 10
191.4045449999999
 20
252.360724
 30
0.0
 11
191.4045449999999
 21
287.360724
 31
0.0
  0
LINE
  5
C67E
330
C587
100
AcDbEntity
  8
5
  6
PHANTOM
100
AcDbLine
 10
174.4045449999999
 20
266.3021499999999
 30
0.0
 11
154.936723
 21
259.694664
 31
0.0
  0
LINE
  5
C67F
330
C587
100
AcDbEntity
  8
1
  6
Continuous
100
AcDbLine
 10
175.9045449999999
 20
203.360724
 30
0.0
 11
175.9045449999999
 21
287.360724
 31
0.0
  0
LINE
  5
C680
330
C587
100
AcDbEntity
  8
1
  6
Continuous
100
AcDbLine
 10
176.9045449999999
 20
203.360724
 30
0.0
 11
176.9045449999999
 21
287.360724
 31
0.0
  0
LINE
  5
C681
330
C587
100
AcDbEntity
  8
1
  6
Continuous
100
AcDbLine
 10
174.4045449999999
 20
205.360724
 30
0.0
 11
174.4045449999999
 21
285.360724
 31
0.0
  0
LINE
  5
C682
330
C587
100
AcDbEntity
  8
1
  6
Continuous
100
AcDbLine
 10
176.9045449999999
 20
214.3607240000001
 30
0.0
 11
187.6045449999998
 21
214.3607240000001
 31
0.0
  0
LINE
  5
C683
330
C587
100
AcDbEntity
  8
4
  6
CENTER
100
AcDbLine
 10
171.976186
 20
209.3607239999998
 30
0.0
 11
184.9938829999999
 21
209.3607239999998
 31
0.0
  0
LINE
  5
C684
330
C587
100
AcDbEntity
  8
1
  6
Continuous
100
AcDbLine
 10
174.104545
 20
226.760724
 30
0.0
 11
174.104545
 21
212.860724
 31
0.0
  0
LINE
  5
C685
330
C587
100
AcDbEntity
  8
1
  6
Continuous
100
AcDbLine
 10
171.9045449999999
 20
212.3607240000001
 30
0.0
 11
174.4045449999999
 21
236.360724
 31
0.0
  0
LINE
  5
C686
330
C587
100
AcDbEntity
  8
1
  6
Continuous
100
AcDbLine
 10
174.104545
 20
218.360724
 30
0.0
 11
174.4045449999999
 21
218.360724
 31
0.0
  0
LINE
  5
C687
330
C587
100
AcDbEntity
  8
1
  6
Continuous
100
AcDbLine
 10
176.9045449999999
 20
212.860724
 30
0.0
 11
182.4045449999999
 21
212.860724
 31
0.0
  0
ARC
  5
C688
330
C587
100
AcDbEntity
  8
1
  6
Continuous
100
AcDbCircle
 10
173.604545
 20
212.860724
 30
0.0
 40
0.5
100
AcDbArc
 50
270.0
 51
0.0
  0
ARC
  5
C689
330
C587
100
AcDbEntity
  8
1
  6
Continuous
100
AcDbCircle
 10
174.104545
 20
212.5607239999999
 30
0.0
 40
0.2
100
AcDbArc
 50
270.0
 51
0.0
  0
LINE
  5
C68A
330
C587
100
AcDbEntity
  8
1
  6
Continuous
100
AcDbLine
 10
174.3045449999999
 20
218.360724
 30
0.0
 11
174.3045449999999
 21
212.5607239999999
 31
0.0
  0
LINE
  5
C68B
330
C587
100
AcDbEntity
  8
1
  6
Continuous
100
AcDbLine
 10
171.9045449999999
 20
212.3607240000001
 30
0.0
 11
174.104545
 21
212.3607240000001
 31
0.0
  0
LINE
  5
C68C
330
C587
100
AcDbEntity
  8
1
  6
Continuous
100
AcDbLine
 10
182.4045449999999
 20
212.860724
 30
0.0
 11
182.9045449999999
 21
212.3607240000001
 31
0.0
  0
LINE
  5
C68D
330
C587
100
AcDbEntity
  8
1
  6
Continuous
100
AcDbLine
 10
176.9045449999999
 20
205.860724
 30
0.0
 11
182.4045449999999
 21
205.860724
 31
0.0
  0
LINE
  5
C68E
330
C587
100
AcDbEntity
  8
1
  6
Continuous
100
AcDbLine
 10
175.9045449999999
 20
203.360724
 30
0.0
 11
176.9045449999999
 21
203.360724
 31
0.0
  0
LINE
  5
C68F
330
C587
100
AcDbEntity
  8
1
  6
Continuous
100
AcDbLine
 10
174.4045449999999
 20
205.360724
 30
0.0
 11
175.9045449999999
 21
203.360724
 31
0.0
  0
LINE
  5
C690
330
C587
100
AcDbEntity
  8
1
  6
Continuous
100
AcDbLine
 10
182.9045449999999
 20
206.360724
 30
0.0
 11
182.4045449999999
 21
205.860724
 31
0.0
  0
LINE
  5
C691
330
C587
100
AcDbEntity
  8
1
  6
Continuous
100
AcDbLine
 10
182.4045449999999
 20
205.860724
 30
0.0
 11
182.4045449999999
 21
212.860724
 31
0.0
  0
LINE
  5
C692
330
C587
100
AcDbEntity
  8
1
  6
Continuous
100
AcDbLine
 10
182.9045449999999
 20
212.3607240000001
 30
0.0
 11
182.9045449999999
 21
206.360724
 31
0.0
  0
LINE
  5
C693
330
C587
100
AcDbEntity
  8
5
  6
PHANTOM
100
AcDbLine
 10
170.4649189999998
 20
261.7969339999999
 30
0.0
 11
154.4805009999997
 21
256.371734
 31
0.0
  0
LINE
  5
C694
330
C587
100
AcDbEntity
  8
5
  6
PHANTOM
100
AcDbLine
 10
168.870208
 20
258.087595
 30
0.0
 11
163.952737
 21
256.4185779999998
 31
0.0
  0
ARC
  5
C695
330
C587
100
AcDbEntity
  8
5
  6
PHANTOM
100
AcDbCircle
 10
164.5955339999999
 20
254.5246879999999
 30
0.0
 40
2.0
100
AcDbArc
 50
108.7474959999999
 51
192.7384909999999
  0
ARC
  5
C696
330
C587
100
AcDbEntity
  8
5
  6
PHANTOM
100
AcDbCircle
 10
163.9303749999999
 20
257.467015
 30
0.0
 40
2.0
100
AcDbArc
 50
108.7474959999999
 51
192.7384909999999
  0
LINE
  5
C697
330
C587
100
AcDbEntity
  8
5
  6
PHANTOM
100
AcDbLine
 10
153.9984049999999
 20
257.792149
 30
0.0
 11
154.4805009999997
 21
256.371734
 31
0.0
  0
ARC
  5
C698
330
C587
100
AcDbEntity
  8
5
  6
PHANTOM
100
AcDbCircle
 10
155.4188209999999
 20
258.2742459999999
 30
0.0
 40
1.5
100
AcDbArc
 50
108.7474999999999
 51
198.7475
  0
ARC
  5
C699
330
C587
100
AcDbEntity
  8
5
  6
PHANTOM
100
AcDbCircle
 10
162.515025
 20
250.122452
 30
0.0
 40
1.0
100
AcDbArc
 50
288.747496
 51
12.738491
  0
ARC
  5
C69A
330
C587
100
AcDbEntity
  8
5
  6
PHANTOM
100
AcDbCircle
 10
159.6471449999999
 20
249.1490779999999
 30
0.0
 40
1.0
100
AcDbArc
 50
213.747496
 51
288.747496
  0
LINE
  5
C69B
330
C587
100
AcDbEntity
  8
5
  6
PHANTOM
100
AcDbLine
 10
157.8785269999998
 20
249.9961819999998
 30
0.0
 11
158.8156509999997
 21
248.5935439999999
 31
0.0
  0
ARC
  5
C69C
330
C587
100
AcDbEntity
  8
5
  6
PHANTOM
100
AcDbCircle
 10
158.2942739999999
 20
250.2739489999999
 30
0.0
 40
0.5
100
AcDbArc
 50
108.7474959999999
 51
213.747496
  0
LINE
  5
C69D
330
C587
100
AcDbEntity
  8
5
  6
PHANTOM
100
AcDbLine
 10
159.8838939999999
 20
251.341489
 30
0.0
 11
158.133575
 21
250.747421
 31
0.0
  0
LINE
  5
C69E
330
C587
100
AcDbEntity
  8
5
  6
PHANTOM
100
AcDbLine
 10
162.8364239999999
 20
249.175508
 30
0.0
 11
159.9685429999999
 21
248.2021339999996
 31
0.0
  0
LINE
  5
C69F
330
C587
100
AcDbEntity
  8
5
  6
PHANTOM
100
AcDbLine
 10
155.427446
 20
256.693131
 30
0.0
 11
159.8838939999999
 21
251.341489
 31
0.0
  0
LINE
  5
C6A0
330
C587
100
AcDbEntity
  8
5
  6
PHANTOM
100
AcDbLine
 10
161.9796019999996
 20
257.0260119999999
 30
0.0
 11
163.4904119999999
 21
250.3429539999999
 31
0.0
  0
LINE
  5
C6A1
330
C587
100
AcDbEntity
  8
5
  6
PHANTOM
100
AcDbLine
 10
171.13353
 20
259.8269879999999
 30
0.0
 11
174.4045449999999
 21
263.8385089999998
 31
0.0
  0
LINE
  5
C6A2
330
C587
100
AcDbEntity
  8
5
  6
PHANTOM
100
AcDbLine
 10
171.133529
 20
259.826989
 30
0.0
 11
170.3042209999999
 21
262.2704049999999
 31
0.0
  0
LINE
  5
C6A3
330
C587
100
AcDbEntity
  8
5
  6
PHANTOM
100
AcDbLine
 10
172.0777379999999
 20
259.5366149999999
 30
0.0
 11
174.4045449999999
 21
258.821049
 31
0.0
  0
LINE
  5
C6A4
330
C587
100
AcDbEntity
  8
5
  6
PHANTOM
100
AcDbLine
 10
171.133529
 20
259.826989
 30
0.0
 11
171.238609
 21
259.7946739999998
 31
0.0
  0
LINE
  5
C6A5
330
C587
100
AcDbEntity
  8
5
  6
PHANTOM
100
AcDbLine
 10
172.6347739999999
 20
259.3653089999999
 30
0.0
 11
171.1328029999999
 21
258.8555319999999
 31
0.0
  0
LINE
  5
C6A6
330
C587
100
AcDbEntity
  8
5
  6
PHANTOM
100
AcDbLine
 10
174.4045449999999
 20
263.6620759999999
 30
0.0
 11
170.3042209999999
 21
262.2704049999999
 31
0.0
  0
ARC
  5
C6A7
330
C587
100
AcDbEntity
  8
5
  6
PHANTOM
100
AcDbCircle
 10
169.0323349999999
 20
257.773012
 30
0.0
 40
0.35
100
AcDbArc
 50
125.7830389999996
 51
305.7830389999998
  0
LINE
  5
C6A8
330
C587
100
AcDbEntity
  8
5
  6
PHANTOM
100
AcDbLine
 10
174.4045449999999
 20
262.076594
 30
0.0
 11
168.8276839999998
 21
258.056945
 31
0.0
  0
LINE
  5
C6A9
330
C587
100
AcDbEntity
  8
5
  6
PHANTOM
100
AcDbLine
 10
174.4045449999999
 20
261.2137149999999
 30
0.0
 11
169.2369859999997
 21
257.4890789999999
 31
0.0
  0
LINE
  5
C6AA
330
C587
100
AcDbEntity
  8
1
  6
Continuous
100
AcDbLine
 10
187.6045449999998
 20
214.5694359999999
 30
0.0
 11
187.6045449999998
 21
236.360724
 31
0.0
  0
LINE
  5
C6AB
330
C587
100
AcDbEntity
  8
1
  6
Continuous
100
AcDbLine
 10
187.8045449999999
 20
214.368737
 30
0.0
 11
187.8045449999999
 21
236.360724
 31
0.0
  0
LINE
  5
C6AC
330
C587
100
AcDbEntity
  8
1
  6
Continuous
100
AcDbLine
 10
187.9045449999999
 20
216.860724
 30
0.0
 11
187.9045449999999
 21
236.360724
 31
0.0
  0
LINE
  5
C6AD
330
C587
100
AcDbEntity
  8
1
  6
Continuous
100
AcDbLine
 10
188.9045449999999
 20
216.860724
 30
0.0
 11
188.9045449999999
 21
257.360724
 31
0.0
  0
ARC
  5
C6AE
330
C587
100
AcDbEntity
  8
1
  6
Continuous
100
AcDbCircle
 10
187.604907
 20
219.117166
 30
0.0
 40
4.756441999999998
100
AcDbArc
 50
269.9956379999999
 51
270.917637
  0
ARC
  5
C6AF
330
C587
100
AcDbEntity
  8
1
  6
Continuous
100
AcDbCircle
 10
187.6323889999999
 20
217.3929919999999
 30
0.0
 40
3.032049
100
AcDbArc
 50
270.920179
 51
272.1467549999999
  0
ARC
  5
C6B0
330
C587
100
AcDbEntity
  8
1
  6
Continuous
100
AcDbCircle
 10
187.7091399999999
 20
215.3399009999999
 30
0.0
 40
0.977524
100
AcDbArc
 50
272.1590519999999
 51
274.704943
  0
ARC
  5
C6B1
330
C587
100
AcDbEntity
  8
1
  6
Continuous
100
AcDbCircle
 10
187.7856369999997
 20
214.423293
 30
0.0
 40
0.05774
100
AcDbArc
 50
273.658168
 51
289.115092
  0
ARC
  5
C6B2
330
C587
100
AcDbEntity
  8
1
  6
Continuous
100
AcDbCircle
 10
187.766467
 20
214.491274
 30
0.0
 40
0.038088
100
AcDbArc
 50
1.361898999999999
 51
53.128986
  0
ARC
  5
C6B3
330
C587
100
AcDbEntity
  8
1
  6
Continuous
100
AcDbCircle
 10
187.706835
 20
214.429089
 30
0.0
 40
0.124052
100
AcDbArc
 50
48.323202
 51
71.61228
  0
ARC
  5
C6B4
330
C587
100
AcDbEntity
  8
1
  6
Continuous
100
AcDbCircle
 10
187.6368629999998
 20
214.2581649999999
 30
0.0
 40
0.308575
100
AcDbArc
 50
69.294066
 51
81.76123299999998
  0
ARC
  5
C6B5
330
C587
100
AcDbEntity
  8
1
  6
Continuous
100
AcDbCircle
 10
187.6060979999998
 20
214.0886769999999
 30
0.0
 40
0.480762
100
AcDbArc
 50
81.02705699999999
 51
90.18514999999997
  0
LINE
  5
C6B6
330
C587
100
AcDbEntity
  8
1
  6
Continuous
100
AcDbLine
 10
188.9045449999999
 20
216.860724
 30
0.0
 11
187.9045449999999
 21
216.860724
 31
0.0
  0
LINE
  5
C6B7
330
C587
100
AcDbEntity
  8
4
  6
CENTER
100
AcDbLine
 10
189.9002489999999
 20
233.860724
 30
0.0
 11
186.7067179999999
 21
233.860724
 31
0.0
  0
LINE
  5
C6B8
330
C587
100
AcDbEntity
  8
1
  6
Continuous
100
AcDbLine
 10
187.8045449999999
 20
235.1607239999999
 30
0.0
 11
187.9045449999999
 21
235.1607239999999
 31
0.0
  0
LINE
  5
C6B9
330
C587
100
AcDbEntity
  8
1
  6
Continuous
100
AcDbLine
 10
187.8045449999999
 20
234.782314
 30
0.0
 11
187.9045449999999
 21
234.782314
 31
0.0
  0
LINE
  5
C6BA
330
C587
100
AcDbEntity
  8
1
  6
Continuous
100
AcDbLine
 10
187.9045449999999
 20
233.1856699999999
 30
0.0
 11
187.8045449999999
 21
233.1856699999999
 31
0.0
  0
LINE
  5
C6BB
330
C587
100
AcDbEntity
  8
1
  6
Continuous
100
AcDbLine
 10
187.9045449999999
 20
232.360724
 30
0.0
 11
187.8045449999999
 21
232.360724
 31
0.0
  0
LINE
  5
C6BC
330
C587
100
AcDbEntity
  8
1
  6
Continuous
100
AcDbLine
 10
187.6045449999998
 20
236.360724
 30
0.0
 11
188.9045449999999
 21
236.360724
 31
0.0
  0
LINE
  5
C6BD
330
C587
100
AcDbEntity
  8
1
  6
Continuous
100
AcDbLine
 10
187.8045449999999
 20
229.360724
 30
0.0
 11
187.8045449999999
 21
229.760724
 31
0.0
  0
LINE
  5
C6BE
330
C587
100
AcDbEntity
  8
1
  6
Continuous
100
AcDbLine
 10
187.8045449999999
 20
229.360724
 30
0.0
 11
187.9045449999999
 21
229.360724
 31
0.0
  0
LINE
  5
C6BF
330
C587
100
AcDbEntity
  8
1
  6
Continuous
100
AcDbLine
 10
187.9045449999999
 20
229.760724
 30
0.0
 11
187.8045449999999
 21
229.760724
 31
0.0
  0
LINE
  5
C6C0
330
C587
100
AcDbEntity
  8
1
  6
Continuous
100
AcDbLine
 10
187.8045449999999
 20
225.360724
 30
0.0
 11
187.9045449999999
 21
225.360724
 31
0.0
  0
LINE
  5
C6C1
330
C587
100
AcDbEntity
  8
1
  6
Continuous
100
AcDbLine
 10
193.504545
 20
262.360724
 30
0.0
 11
192.5045449999999
 21
261.3607239999997
 31
0.0
  0
LINE
  5
C6C2
330
C587
100
AcDbEntity
  8
1
  6
Continuous
100
AcDbLine
 10
192.5045449999999
 20
262.360724
 30
0.0
 11
193.504545
 21
263.3607239999999
 31
0.0
  0
ARC
  5
C6C3
330
C587
100
AcDbEntity
  8
1
  6
Continuous
100
AcDbCircle
 10
194.510658
 20
260.2537129999999
 30
0.0
 40
1.3
100
AcDbArc
 50
275.0
 51
344.1191499999998
  0
LINE
  5
C6C4
330
C587
100
AcDbEntity
  8
1
  6
Continuous
100
AcDbLine
 10
193.504545
 20
258.8607239999999
 30
0.0
 11
194.623961
 21
258.95866
 31
0.0
  0
LINE
  5
C6C5
330
C587
100
AcDbEntity
  8
1
  6
Continuous
100
AcDbLine
 10
192.5045449999999
 20
258.5607239999998
 30
0.0
 11
193.504545
 21
258.5607239999998
 31
0.0
  0
LINE
  5
C6C6
330
C587
100
AcDbEntity
  8
1
  6
Continuous
100
AcDbLine
 10
191.4045449999999
 20
259.660724
 30
0.0
 11
191.7045449999999
 21
259.660724
 31
0.0
  0
LINE
  5
C6C7
330
C587
100
AcDbEntity
  8
1
  6
Continuous
100
AcDbLine
 10
188.9045449999999
 20
255.360724
 30
0.0
 11
189.4045449999999
 21
255.360724
 31
0.0
  0
LINE
  5
C6C8
330
C587
100
AcDbEntity
  8
1
  6
Continuous
100
AcDbLine
 10
191.7045449999999
 20
257.360724
 30
0.0
 11
192.5045449999999
 21
257.360724
 31
0.0
  0
LINE
  5
C6C9
330
C587
100
AcDbEntity
  8
4
  6
CENTER
100
AcDbLine
 10
187.9045449999999
 20
257.360724
 30
0.0
 11
191.7045449999999
 21
257.360724
 31
0.0
  0
LINE
  5
C6CA
330
C587
100
AcDbEntity
  8
1
  6
Continuous
100
AcDbLine
 10
189.4045449999999
 20
252.360724
 30
0.0
 11
191.4045449999999
 21
252.360724
 31
0.0
  0
LINE
  5
C6CB
330
C587
100
AcDbEntity
  8
4
  6
CENTER
100
AcDbLine
 10
172.3449939999999
 20
281.3607239999999
 30
0.0
 11
184.4045449999999
 21
281.3607239999999
 31
0.0
  0
LINE
  5
C6CC
330
C587
100
AcDbEntity
  8
1
  6
Continuous
100
AcDbLine
 10
176.9045449999999
 20
276.360724
 30
0.0
 11
189.4045449999999
 21
276.360724
 31
0.0
  0
LINE
  5
C6CD
330
C587
100
AcDbEntity
  8
1
  6
Continuous
100
AcDbLine
 10
174.4045449999999
 20
285.360724
 30
0.0
 11
175.9045449999999
 21
287.360724
 31
0.0
  0
LINE
  5
C6CE
330
C587
100
AcDbEntity
  8
1
  6
Continuous
100
AcDbLine
 10
182.9045449999999
 20
284.360724
 30
0.0
 11
182.9045449999999
 21
278.360724
 31
0.0
  0
LINE
  5
C6CF
330
C587
100
AcDbEntity
  8
1
  6
Continuous
100
AcDbLine
 10
176.9045449999999
 20
284.860724
 30
0.0
 11
182.4045449999999
 21
284.860724
 31
0.0
  0
LINE
  5
C6D0
330
C587
100
AcDbEntity
  8
1
  6
Continuous
100
AcDbLine
 10
176.9045449999999
 20
277.8607239999999
 30
0.0
 11
182.4045449999999
 21
277.8607239999999
 31
0.0
  0
LINE
  5
C6D1
330
C587
100
AcDbEntity
  8
1
  6
Continuous
100
AcDbLine
 10
182.4045449999999
 20
277.8607239999999
 30
0.0
 11
182.4045449999999
 21
284.860724
 31
0.0
  0
LINE
  5
C6D2
330
C587
100
AcDbEntity
  8
1
  6
Continuous
100
AcDbLine
 10
182.4045449999999
 20
277.8607239999999
 30
0.0
 11
182.9045449999999
 21
278.360724
 31
0.0
  0
LINE
  5
C6D3
330
C587
100
AcDbEntity
  8
1
  6
Continuous
100
AcDbLine
 10
182.4045449999999
 20
284.860724
 30
0.0
 11
182.9045449999999
 21
284.360724
 31
0.0
  0
LINE
  5
C6D4
330
C587
100
AcDbEntity
  8
1
  6
Continuous
100
AcDbLine
 10
175.9045449999999
 20
287.360724
 30
0.0
 11
176.9045449999999
 21
287.360724
 31
0.0
  0
LINE
  5
C6D5
330
C587
100
AcDbEntity
  8
1
  6
Continuous
100
AcDbLine
 10
192.9045449999999
 20
273.3607239999999
 30
0.0
 11
192.9045449999999
 21
271.875443
 31
0.0
  0
LINE
  5
C6D6
330
C587
100
AcDbEntity
  8
1
  6
Continuous
100
AcDbLine
 10
192.9045449999999
 20
273.3607239999999
 30
0.0
 11
191.4045449999999
 21
273.3607239999999
 31
0.0
  0
LINE
  5
C6D7
330
C587
100
AcDbEntity
  8
1
  6
Continuous
100
AcDbLine
 10
191.4045449999999
 20
270.375443
 30
0.0
 11
192.9045449999999
 21
271.875443
 31
0.0
  0
ARC
  5
C6D8
330
C587
100
AcDbEntity
  8
1
  6
Continuous
100
AcDbCircle
 10
190.4919769999999
 20
285.2877689999999
 30
0.0
 40
12.91440399999999
100
AcDbArc
 50
274.0520549999998
 51
280.7668029999999
  0
ARC
  5
C6D9
330
C587
100
AcDbEntity
  8
1
  6
Continuous
100
AcDbCircle
 10
194.510658
 20
264.467735
 30
0.0
 40
1.3
100
AcDbArc
 50
15.88085
 51
85.0
  0
LINE
  5
C6DA
330
C587
100
AcDbEntity
  8
1
  6
Continuous
100
AcDbLine
 10
193.504545
 20
265.860724
 30
0.0
 11
194.623961
 21
265.762788
 31
0.0
  0
LINE
  5
C6DB
330
C587
100
AcDbEntity
  8
1
  6
Continuous
100
AcDbLine
 10
192.5045449999999
 20
266.160724
 30
0.0
 11
193.504545
 21
266.160724
 31
0.0
  0
LINE
  5
C6DC
330
C587
100
AcDbEntity
  8
1
  6
Continuous
100
AcDbLine
 10
191.4045449999999
 20
265.0607239999998
 30
0.0
 11
191.7045449999999
 21
265.0607239999998
 31
0.0
  0
LINE
  5
C6DD
330
C587
100
AcDbEntity
  8
1
  6
Continuous
100
AcDbLine
 10
191.7045449999999
 20
267.3607239999999
 30
0.0
 11
192.5045449999999
 21
267.3607239999999
 31
0.0
  0
LINE
  5
C6DE
330
C587
100
AcDbEntity
  8
1
  6
Continuous
100
AcDbLine
 10
189.4045449999999
 20
287.360724
 30
0.0
 11
191.4045449999999
 21
287.360724
 31
0.0
  0
LINE
  5
C6DF
330
C587
100
AcDbEntity
  8
4
  6
CENTER
100
AcDbLine
 10
230.9468610000168
 20
102.500001
 30
0.0
 11
246.0468609999998
 21
102.500001
 31
0.0
  0
ARC
  5
C6E0
330
C587
100
AcDbEntity
  8
1
  6
Continuous
100
AcDbCircle
 10
234.0468609999998
 20
102.500001
 30
0.0
 40
9.0
100
AcDbArc
 50
344.1192
 51
15.88099999999999
  0
ARC
  5
C6E1
330
C587
100
AcDbEntity
  8
1
  6
Continuous
100
AcDbCircle
 10
241.4529609999998
 20
100.3930009999999
 30
0.0
 40
1.3
100
AcDbArc
 50
275.0000999999999
 51
344.1192
  0
LINE
  5
C6E3
330
C587
100
AcDbEntity
  8
1
  6
Continuous
100
AcDbLine
 10
241.566261
 20
99.09700100000002
 30
0.0
 11
240.4467609999999
 21
99.00000099999999
 31
0.0
  0
LINE
  5
C6E8
330
C587
100
AcDbEntity
  8
1
  6
Continuous
100
AcDbLine
 10
241.566261
 20
105.902001
 30
0.0
 11
240.446861
 21
106.0000009999999
 31
0.0
  0
ARC
  5
C6ED
330
C587
100
AcDbEntity
  8
1
  6
Continuous
100
AcDbCircle
 10
241.4529609999998
 20
104.6070009999999
 30
0.0
 40
1.3
100
AcDbArc
 50
15.88099999999999
 51
85.0
  0
LINE
  5
C6EE
330
C587
100
AcDbEntity
  8
5
  6
PHANTOM
100
AcDbLine
 10
326.9624089999998
 20
262.360724
 30
0.0
 11
379.9954179999998
 21
209.327715
 31
0.0
  0
LINE
  5
C6EF
330
C587
100
AcDbEntity
  8
5
  6
PHANTOM
100
AcDbLine
 10
351.7111459999999
 20
287.109461
 30
0.0
 11
379.9954179999998
 21
258.8251899999999
 31
0.0
  0
LINE
  5
C6F0
330
C587
100
AcDbEntity
  8
4
  6
CENTER
100
AcDbLine
 10
334.6045449999998
 20
262.360724
 30
0.0
 11
364.6045449999999
 21
262.360724
 31
0.0
  0
LINE
  5
C6F1
330
C587
100
AcDbEntity
  8
1
  6
Continuous
100
AcDbLine
 10
331.1045449999998
 20
252.360724
 30
0.0
 11
406.1045449999999
 21
252.360724
 31
0.0
  0
LINE
  5
C6F2
330
C587
100
AcDbEntity
  8
1
  6
Continuous
100
AcDbLine
 10
331.1045449999998
 20
287.360724
 30
0.0
 11
371.1045449999998
 21
287.360724
 31
0.0
  0
ARC
  5
C6F3
330
C587
100
AcDbEntity
  8
1
  6
Continuous
100
AcDbCircle
 10
358.6045449999998
 20
208.360724
 30
0.0
 40
5.0
100
AcDbArc
 50
270.0
 51
0.0
  0
ARC
  5
C6F4
330
C587
100
AcDbEntity
  8
1
  6
Continuous
100
AcDbCircle
 10
349.6045449999999
 20
266.7320549999999
 30
0.0
 40
3.037755999999999
100
AcDbArc
 50
189.0428889999999
 51
350.9571109999998
  0
LINE
  5
C6F5
330
C587
100
AcDbEntity
  8
4
  6
CENTER
100
AcDbLine
 10
332.972817
 20
268.371131
 30
0.0
 11
328.023069
 21
263.421384
 31
0.0
  0
CIRCLE
  5
C6F6
330
C587
100
AcDbEntity
  8
5
  6
PHANTOM
100
AcDbCircle
 10
330.497943
 20
265.8962579999998
 30
0.0
 40
2.0
  0
LINE
  5
C6F7
330
C587
100
AcDbEntity
  8
4
  6
CENTER
100
AcDbLine
 10
332.972817
 20
263.421384
 30
0.0
 11
328.023069
 21
268.371131
 31
0.0
  0
ARC
  5
C6F8
330
C587
100
AcDbEntity
  8
5
  6
PHANTOM
100
AcDbCircle
 10
330.497943
 20
265.8962579999998
 30
0.0
 40
5.0
100
AcDbArc
 50
135.0
 51
225.0
  0
LINE
  5
C6F9
330
C587
100
AcDbEntity
  8
4
  6
CENTER
100
AcDbLine
 10
358.1045449999999
 20
267.3607239999999
 30
0.0
 11
358.1045449999999
 21
255.860724
 31
0.0
  0
CIRCLE
  5
C6FA
330
C587
100
AcDbEntity
  8
1
  6
Continuous
100
AcDbCircle
 10
358.1045449999999
 20
262.360724
 30
0.0
 40
3.5
  0
CIRCLE
  5
C6FB
330
C587
100
AcDbEntity
  8
1
  6
Continuous
100
AcDbCircle
 10
358.1045449999999
 20
262.360724
 30
0.0
 40
3.799999999999998
  0
ARC
  5
C6FC
330
C587
100
AcDbEntity
  8
1
  6
Continuous
100
AcDbCircle
 10
358.1045449999999
 20
262.360724
 30
0.0
 40
2.1
100
AcDbArc
 50
118.3282509999999
 51
151.671749
  0
ARC
  5
C6FD
330
C587
100
AcDbEntity
  8
1
  6
Continuous
100
AcDbCircle
 10
358.1045449999999
 20
262.360724
 30
0.0
 40
2.1
100
AcDbArc
 50
28.32825099999999
 51
61.671749
  0
LINE
  5
C6FE
330
C587
100
AcDbEntity
  8
1
  6
Continuous
100
AcDbLine
 10
358.5436359999998
 20
263.6709549999998
 30
0.0
 11
359.1010419999999
 21
264.2092349999999
 31
0.0
  0
LINE
  5
C6FF
330
C587
100
AcDbEntity
  8
1
  6
Continuous
100
AcDbLine
 10
357.665454
 20
263.6709549999998
 30
0.0
 11
357.1080489999998
 21
264.2092349999999
 31
0.0
  0
ARC
  5
C700
330
C587
100
AcDbEntity
  8
1
  6
Continuous
100
AcDbCircle
 10
349.6045449999999
 20
265.3607239999999
 30
0.0
 40
4.0
100
AcDbArc
 50
199.440035
 51
291.288043
  0
LINE
  5
C701
330
C587
100
AcDbEntity
  8
4
  6
CENTER
100
AcDbLine
 10
341.1045449999998
 20
268.860724
 30
0.0
 11
341.1045449999998
 21
255.860724
 31
0.0
  0
ARC
  5
C702
330
C587
100
AcDbEntity
  8
1
  6
Continuous
100
AcDbCircle
 10
341.1045449999998
 20
262.360724
 30
0.0
 40
2.1
100
AcDbArc
 50
118.3282509999999
 51
151.671749
  0
ARC
  5
C703
330
C587
100
AcDbEntity
  8
1
  6
Continuous
100
AcDbCircle
 10
341.1045449999998
 20
262.360724
 30
0.0
 40
2.1
100
AcDbArc
 50
28.32825099999999
 51
61.671749
  0
LINE
  5
C704
330
C587
100
AcDbEntity
  8
1
  6
Continuous
100
AcDbLine
 10
341.5436359999998
 20
263.6709549999998
 30
0.0
 11
342.1010419999999
 21
264.2092349999999
 31
0.0
  0
LINE
  5
C705
330
C587
100
AcDbEntity
  8
1
  6
Continuous
100
AcDbLine
 10
340.665454
 20
263.6709549999998
 30
0.0
 11
340.108049
 21
264.2092349999999
 31
0.0
  0
LINE
  5
C706
330
C587
100
AcDbEntity
  8
1
  6
Continuous
100
AcDbLine
 10
346.1045449999998
 20
266.860724
 30
0.0
 11
346.1045449999998
 21
263.4242319999996
 31
0.0
  0
LINE
  5
C707
330
C587
100
AcDbEntity
  8
1
  6
Continuous
100
AcDbLine
 10
353.1045449999999
 20
266.860724
 30
0.0
 11
353.1045449999999
 21
262.4315569999998
 31
0.0
  0
CIRCLE
  5
C708
330
C587
100
AcDbEntity
  8
1
  6
Continuous
100
AcDbCircle
 10
358.1045449999999
 20
262.360724
 30
0.0
 40
5.0
  0
LINE
  5
C709
330
C587
100
AcDbEntity
  8
1
  6
Continuous
100
AcDbLine
 10
326.1045449999998
 20
257.360724
 30
0.0
 11
326.1045449999998
 21
282.360724
 31
0.0
  0
CIRCLE
  5
C70A
330
C587
100
AcDbEntity
  8
1
  6
Continuous
100
AcDbCircle
 10
341.1045449999998
 20
262.360724
 30
0.0
 40
3.5
  0
CIRCLE
  5
C70B
330
C587
100
AcDbEntity
  8
1
  6
Continuous
100
AcDbCircle
 10
341.1045449999998
 20
262.360724
 30
0.0
 40
5.0
  0
CIRCLE
  5
C70C
330
C587
100
AcDbEntity
  8
1
  6
Continuous
100
AcDbCircle
 10
341.1045449999998
 20
262.360724
 30
0.0
 40
3.799999999999998
  0
LINE
  5
C70D
330
C587
100
AcDbEntity
  8
4
  6
CENTER
100
AcDbLine
 10
349.6045449999999
 20
200.360724
 30
0.0
 11
349.6045449999999
 21
292.078599
 31
0.0
  0
LINE
  5
C711
330
C587
100
AcDbEntity
  8
1
  6
Continuous
100
AcDbLine
 10
239.946861
 20
213.160724
 30
0.0
 11
239.946861
 21
205.560724
 31
0.0
  0
LINE
  5
C714
330
C587
100
AcDbEntity
  8
1
  6
Continuous
100
AcDbLine
 10
241.066261
 20
212.763724
 30
0.0
 11
239.9467609999999
 21
212.860724
 31
0.0
  0
LINE
  5
C716
330
C587
100
AcDbEntity
  8
1
  6
Continuous
100
AcDbLine
 10
241.066261
 20
205.9587239999999
 30
0.0
 11
239.9468609999999
 21
205.860724
 31
0.0
  0
ARC
  5
C719
330
C587
100
AcDbEntity
  8
1
  6
Continuous
100
AcDbCircle
 10
240.9529609999996
 20
207.2537239999999
 30
0.0
 40
1.3
100
AcDbArc
 50
275.0
 51
344.1190000000001
  0
ARC
  5
C71A
330
C587
100
AcDbEntity
  8
1
  6
Continuous
100
AcDbCircle
 10
233.5468609999999
 20
209.3607239999998
 30
0.0
 40
9.0
100
AcDbArc
 50
344.1190000000001
 51
15.8808
  0
ARC
  5
C71B
330
C587
100
AcDbEntity
  8
1
  6
Continuous
100
AcDbCircle
 10
240.9529609999996
 20
211.467724
 30
0.0
 40
1.3
100
AcDbArc
 50
15.8808
 51
84.99990000000002
  0
LINE
  5
C71C
330
C587
100
AcDbEntity
  8
4
  6
CENTER
100
AcDbLine
 10
230.4468610000167
 20
209.3607239999997
 30
0.0
 11
245.5468609999999
 21
209.3607239999997
 31
0.0
  0
LINE
  5
C71D
330
C587
100
AcDbEntity
  8
1
  6
Continuous
100
AcDbLine
 10
361.1045449999999
 20
252.360724
 30
0.0
 11
361.1045449999999
 21
216.860724
 31
0.0
  0
LINE
  5
C71E
330
C587
100
AcDbEntity
  8
1
  6
Continuous
100
AcDbLine
 10
338.1045449999998
 20
252.360724
 30
0.0
 11
338.1045449999998
 21
216.860724
 31
0.0
  0
LINE
  5
C71F
330
C587
100
AcDbEntity
  8
1
  6
Continuous
100
AcDbLine
 10
335.6045449999998
 20
252.360724
 30
0.0
 11
335.6045449999998
 21
208.360724
 31
0.0
  0
LINE
  5
C720
330
C587
100
AcDbEntity
  8
1
  6
Continuous
100
AcDbLine
 10
363.6045449999999
 20
252.360724
 30
0.0
 11
363.6045449999999
 21
208.360724
 31
0.0
  0
ARC
  5
C721
330
C587
100
AcDbEntity
  8
1
  6
Continuous
100
AcDbCircle
 10
349.6045449999999
 20
209.3607239999998
 30
0.0
 40
2.1
100
AcDbArc
 50
213.463
 51
236.5369999999999
  0
ARC
  5
C722
330
C587
100
AcDbEntity
  8
1
  6
Continuous
100
AcDbCircle
 10
349.6045449999999
 20
209.3607239999998
 30
0.0
 40
2.1
100
AcDbArc
 50
123.4629999999998
 51
146.537
  0
LINE
  5
C723
330
C587
100
AcDbEntity
  8
1
  6
Continuous
100
AcDbLine
 10
348.4634859999999
 20
208.8354139999999
 30
0.0
 11
347.852617
 21
208.202766
 31
0.0
  0
LINE
  5
C724
330
C587
100
AcDbEntity
  8
1
  6
Continuous
100
AcDbLine
 10
348.4635569999999
 20
209.886104
 30
0.0
 11
347.852617
 21
210.5186819999999
 31
0.0
  0
CIRCLE
  5
C728
330
C587
100
AcDbEntity
  8
1
  6
Continuous
100
AcDbCircle
 10
349.6045449999999
 20
209.3607239999998
 30
0.0
 40
3.5
  0
LINE
  5
C729
330
C587
100
AcDbEntity
  8
1
  6
Continuous
100
AcDbLine
 10
340.6045449999998
 20
216.860724
 30
0.0
 11
358.6045449999998
 21
216.860724
 31
0.0
  0
LINE
  5
C72A
330
C587
100
AcDbEntity
  8
1
  6
Continuous
100
AcDbLine
 10
340.6045449999998
 20
214.3607240000001
 30
0.0
 11
358.6045449999998
 21
214.3607240000001
 31
0.0
  0
LINE
  5
C72B
330
C587
100
AcDbEntity
  8
1
  6
Continuous
100
AcDbLine
 10
358.6045449999998
 20
203.360724
 30
0.0
 11
340.6045449999998
 21
203.360724
 31
0.0
  0
LINE
  5
C72C
330
C587
100
AcDbEntity
  8
4
  6
CENTER
100
AcDbLine
 10
357.0687209999999
 20
209.3607239999998
 30
0.0
 11
342.5221369999998
 21
209.3607239999998
 31
0.0
  0
LINE
  5
C731
330
C587
100
AcDbEntity
  8
1
  6
Continuous
100
AcDbLine
 10
340.6045449999998
 20
214.3607240000001
 30
0.0
 11
340.6045449999998
 21
216.860724
 31
0.0
  0
LINE
  5
C732
330
C587
100
AcDbEntity
  8
1
  6
Continuous
100
AcDbLine
 10
339.6045449999998
 20
214.5694359999999
 30
0.0
 11
339.6045449999998
 21
217.069436
 31
0.0
  0
ARC
  5
C733
330
C587
100
AcDbEntity
  8
1
  6
Continuous
100
AcDbCircle
 10
340.6045449999998
 20
219.360724
 30
0.0
 40
2.5
100
AcDbArc
 50
180.0
 51
270.0
  0
ARC
  5
C734
330
C587
100
AcDbEntity
  8
1
  6
Continuous
100
AcDbCircle
 10
340.6045449999998
 20
216.860724
 30
0.0
 40
2.5
100
AcDbArc
 50
180.0
 51
270.0
  0
ARC
  5
C735
330
C587
100
AcDbEntity
  8
1
  6
Continuous
100
AcDbCircle
 10
340.6045449999998
 20
208.360724
 30
0.0
 40
5.0
100
AcDbArc
 50
180.0
 51
270.0
  0
ARC
  5
C73A
330
C587
100
AcDbEntity
  8
1
  6
Continuous
100
AcDbCircle
 10
349.6045449999999
 20
209.3607239999998
 30
0.0
 40
2.1
100
AcDbArc
 50
303.4629999999999
 51
326.5369999999998
  0
ARC
  5
C73B
330
C587
100
AcDbEntity
  8
1
  6
Continuous
100
AcDbCircle
 10
349.6045449999999
 20
209.3607239999998
 30
0.0
 40
2.1
100
AcDbArc
 50
33.463
 51
56.537
  0
LINE
  5
C73C
330
C587
100
AcDbEntity
  8
1
  6
Continuous
100
AcDbLine
 10
349.6045449999999
 20
208.410938
 30
0.0
 11
350.129925
 21
208.219736
 31
0.0
  0
LINE
  5
C73D
330
C587
100
AcDbEntity
  8
1
  6
Continuous
100
AcDbLine
 10
350.129925
 20
208.219736
 30
0.0
 11
350.7625029999999
 21
207.6087959999999
 31
0.0
  0
LINE
  5
C73E
330
C587
100
AcDbEntity
  8
1
  6
Continuous
100
AcDbLine
 10
350.7456029999998
 20
208.8354139999999
 30
0.0
 11
351.3564719999998
 21
208.202766
 31
0.0
  0
LINE
  5
C73F
330
C587
100
AcDbEntity
  8
1
  6
Continuous
100
AcDbLine
 10
350.5543299999998
 20
209.3607239999998
 30
0.0
 11
350.7456029999998
 21
208.8354139999999
 31
0.0
  0
LINE
  5
C740
330
C587
100
AcDbEntity
  8
1
  6
Continuous
100
AcDbLine
 10
348.6547589999996
 20
209.3607239999998
 30
0.0
 11
348.4634859999999
 21
208.8354139999999
 31
0.0
  0
LINE
  5
C741
330
C587
100
AcDbEntity
  8
1
  6
Continuous
100
AcDbLine
 10
349.0791639999998
 20
208.219736
 30
0.0
 11
348.446587
 21
207.6087959999999
 31
0.0
  0
LINE
  5
C742
330
C587
100
AcDbEntity
  8
1
  6
Continuous
100
AcDbLine
 10
349.6045449999999
 20
208.410938
 30
0.0
 11
349.0791639999998
 21
208.219736
 31
0.0
  0
LINE
  5
C743
330
C587
100
AcDbEntity
  8
1
  6
Continuous
100
AcDbLine
 10
349.6045449999999
 20
210.31051
 30
0.0
 11
349.0792349999999
 21
210.501782
 31
0.0
  0
LINE
  5
C744
330
C587
100
AcDbEntity
  8
1
  6
Continuous
100
AcDbLine
 10
349.0791639999998
 20
210.5018529999999
 30
0.0
 11
348.446587
 21
211.112652
 31
0.0
  0
LINE
  5
C745
330
C587
100
AcDbEntity
  8
1
  6
Continuous
100
AcDbLine
 10
348.6547589999996
 20
209.3607239999998
 30
0.0
 11
348.4634859999999
 21
209.886175
 31
0.0
  0
LINE
  5
C746
330
C587
100
AcDbEntity
  8
1
  6
Continuous
100
AcDbLine
 10
349.6045449999999
 20
210.31051
 30
0.0
 11
350.129925
 21
210.5018529999999
 31
0.0
  0
LINE
  5
C747
330
C587
100
AcDbEntity
  8
1
  6
Continuous
100
AcDbLine
 10
350.129925
 20
210.5018529999999
 30
0.0
 11
350.7625029999999
 21
211.112652
 31
0.0
  0
LINE
  5
C748
330
C587
100
AcDbEntity
  8
1
  6
Continuous
100
AcDbLine
 10
350.7456029999998
 20
209.886175
 30
0.0
 11
351.3564719999998
 21
210.5186819999999
 31
0.0
  0
LINE
  5
C749
330
C587
100
AcDbEntity
  8
1
  6
Continuous
100
AcDbLine
 10
350.5543299999998
 20
209.3607239999998
 30
0.0
 11
350.7456029999998
 21
209.886175
 31
0.0
  0
LINE
  5
C74A
330
C587
100
AcDbEntity
  8
1
  6
Continuous
100
AcDbLine
 10
359.6045449999999
 20
214.5694359999999
 30
0.0
 11
359.6045449999999
 21
217.069436
 31
0.0
  0
LINE
  5
C74B
330
C587
100
AcDbEntity
  8
1
  6
Continuous
100
AcDbLine
 10
358.6045449999998
 20
214.3607240000001
 30
0.0
 11
358.6045449999998
 21
216.860724
 31
0.0
  0
ARC
  5
C74C
330
C587
100
AcDbEntity
  8
1
  6
Continuous
100
AcDbCircle
 10
358.6045449999998
 20
219.360724
 30
0.0
 40
2.5
100
AcDbArc
 50
270.0
 51
0.0
  0
ARC
  5
C74D
330
C587
100
AcDbEntity
  8
1
  6
Continuous
100
AcDbCircle
 10
358.6045449999998
 20
216.860724
 30
0.0
 40
2.5
100
AcDbArc
 50
270.0
 51
0.0
  0
LINE
  5
C74E
330
C587
100
AcDbEntity
  8
1
  6
Continuous
100
AcDbLine
 10
350.6045449999998
 20
215.9197529999999
 30
0.0
 11
350.6045449999998
 21
216.860724
 31
0.0
  0
ARC
  5
C74F
330
C587
100
AcDbEntity
  8
1
  6
Continuous
100
AcDbCircle
 10
349.6045449999999
 20
224.360724
 30
0.0
 40
8.5
100
AcDbArc
 50
276.756327
 51
298.072487
  0
LINE
  5
C750
330
C587
100
AcDbEntity
  8
4
  6
CENTER
100
AcDbLine
 10
334.6045449999998
 20
257.360724
 30
0.0
 11
327.6045449999998
 21
257.360724
 31
0.0
  0
CIRCLE
  5
C751
330
C587
100
AcDbEntity
  8
1
  6
Continuous
100
AcDbCircle
 10
331.1045449999998
 20
257.360724
 30
0.0
 40
2.0
  0
LINE
  5
C752
330
C587
100
AcDbEntity
  8
4
  6
CENTER
100
AcDbLine
 10
331.1045449999998
 20
260.8607239999999
 30
0.0
 11
331.1045449999998
 21
253.8607240000001
 31
0.0
  0
ARC
  5
C753
330
C587
100
AcDbEntity
  8
1
  6
Continuous
100
AcDbCircle
 10
331.1045449999998
 20
257.360724
 30
0.0
 40
5.0
100
AcDbArc
 50
180.0
 51
270.0
  0
ARC
  5
C754
330
C587
100
AcDbEntity
  8
1
  6
Continuous
100
AcDbCircle
 10
358.4031240000001
 20
241.548224
 30
0.0
 40
0.8360479999999999
100
AcDbArc
 50
312.87
 51
47.1304
  0
LINE
  5
C755
330
C587
100
AcDbEntity
  8
1
  6
Continuous
100
AcDbLine
 10
356.0888299999998
 20
242.878622
 30
0.0
 11
356.0888299999998
 21
241.6373419999999
 31
0.0
  0
LINE
  5
C756
330
C587
100
AcDbEntity
  8
1
  6
Continuous
100
AcDbLine
 10
354.1928299999996
 20
242.878622
 30
0.0
 11
354.1928299999996
 21
241.6373419999999
 31
0.0
  0
LINE
  5
C757
330
C587
100
AcDbEntity
  8
1
  6
Continuous
100
AcDbLine
 10
353.7622709999998
 20
243.8223429999999
 30
0.0
 11
353.7622709999998
 21
240.622343
 31
0.0
  0
LINE
  5
C758
330
C587
100
AcDbEntity
  8
1
  6
Continuous
100
AcDbLine
 10
359.6045449999999
 20
239.3607240000001
 30
0.0
 11
359.6045449999999
 21
252.360724
 31
0.0
  0
ARC
  5
C759
330
C587
100
AcDbEntity
  8
1
  6
Continuous
100
AcDbCircle
 10
350.5288249999999
 20
241.5952299999999
 30
0.0
 40
1.144263999999999
100
AcDbArc
 50
319.944
 51
40.0559
  0
LINE
  5
C75A
330
C587
100
AcDbEntity
  8
1
  6
Continuous
100
AcDbLine
 10
346.9056509999999
 20
243.825616
 30
0.0
 11
348.0894109999999
 21
240.6256079999999
 31
0.0
  0
LINE
  5
C75B
330
C587
100
AcDbEntity
  8
1
  6
Continuous
100
AcDbLine
 10
345.0080509999998
 20
243.846736
 30
0.0
 11
345.0080509999998
 21
240.6467279999999
 31
0.0
  0
LINE
  5
C75C
330
C587
100
AcDbEntity
  8
1
  6
Continuous
100
AcDbLine
 10
346.9056509999999
 20
243.8199919999999
 30
0.0
 11
345.6651709999999
 21
240.6256079999999
 31
0.0
  0
LINE
  5
C75D
330
C587
100
AcDbEntity
  8
1
  6
Continuous
100
AcDbLine
 10
343.303283
 20
243.846736
 30
0.0
 11
343.303283
 21
240.6467279999999
 31
0.0
  0
LINE
  5
C75E
330
C587
100
AcDbEntity
  8
1
  6
Continuous
100
AcDbLine
 10
341.8055989999998
 20
243.8336959999999
 30
0.0
 11
341.8055989999998
 21
240.6336959999999
 31
0.0
  0
LINE
  5
C75F
330
C587
100
AcDbEntity
  8
1
  6
Continuous
100
AcDbLine
 10
339.6045449999998
 20
239.3607240000001
 30
0.0
 11
339.6045449999998
 21
252.360724
 31
0.0
  0
LINE
  5
C760
330
C587
100
AcDbEntity
  8
1
  6
Continuous
100
AcDbLine
 10
353.7622709999998
 20
243.8223429999999
 30
0.0
 11
352.0045109999998
 21
241.3558749999999
 31
0.0
  0
LINE
  5
C761
330
C587
100
AcDbEntity
  8
4
  6
CENTER
100
AcDbLine
 10
348.1045449999998
 20
233.860724
 30
0.0
 11
340.1045449999998
 21
233.860724
 31
0.0
  0
LINE
  5
C762
330
C587
100
AcDbEntity
  8
1
  6
Continuous
100
AcDbLine
 10
339.6045449999998
 20
239.3607240000001
 30
0.0
 11
359.6045449999999
 21
239.3607240000001
 31
0.0
  0
ARC
  5
C763
330
C587
100
AcDbEntity
  8
1
  6
Continuous
100
AcDbCircle
 10
349.6045449999999
 20
230.860724
 30
0.0
 40
2.2
100
AcDbArc
 50
90.0
 51
270.0
  0
LINE
  5
C764
330
C587
100
AcDbEntity
  8
1
  6
Continuous
100
AcDbLine
 10
338.1045449999998
 20
236.360724
 30
0.0
 11
361.1045449999999
 21
236.360724
 31
0.0
  0
LINE
  5
C765
330
C587
100
AcDbEntity
  8
1
  6
Continuous
100
AcDbLine
 10
346.0488509999996
 20
241.5911279999999
 30
0.0
 11
347.7344509999999
 21
241.5911279999999
 31
0.0
  0
ARC
  5
C766
330
C587
100
AcDbEntity
  8
1
  6
Continuous
100
AcDbCircle
 10
344.104545
 20
233.860724
 30
0.0
 40
1.199999999999999
100
AcDbArc
 50
208.328251
 51
241.6717489999999
  0
ARC
  5
C767
330
C587
100
AcDbEntity
  8
1
  6
Continuous
100
AcDbCircle
 10
344.104545
 20
233.860724
 30
0.0
 40
1.199999999999999
100
AcDbArc
 50
118.3282509999999
 51
151.671749
  0
ARC
  5
C768
330
C587
100
AcDbEntity
  8
1
  6
Continuous
100
AcDbCircle
 10
344.104545
 20
233.860724
 30
0.0
 40
1.199999999999999
100
AcDbArc
 50
298.3282509999999
 51
331.6717489999998
  0
ARC
  5
C769
330
C587
100
AcDbEntity
  8
1
  6
Continuous
100
AcDbCircle
 10
344.104545
 20
233.860724
 30
0.0
 40
1.199999999999999
100
AcDbArc
 50
28.32825099999999
 51
61.671749
  0
LINE
  5
C76A
330
C587
100
AcDbEntity
  8
1
  6
Continuous
100
AcDbLine
 10
343.8536359999998
 20
233.1120209999999
 30
0.0
 11
343.5351189999999
 21
232.804432
 31
0.0
  0
LINE
  5
C76B
330
C587
100
AcDbEntity
  8
1
  6
Continuous
100
AcDbLine
 10
344.104545
 20
233.2083359999999
 30
0.0
 11
343.8536359999998
 21
233.1120209999999
 31
0.0
  0
LINE
  5
C76C
330
C587
100
AcDbEntity
  8
1
  6
Continuous
100
AcDbLine
 10
344.104545
 20
233.2083359999999
 30
0.0
 11
344.355454
 21
233.1120209999999
 31
0.0
  0
LINE
  5
C76D
330
C587
100
AcDbEntity
  8
1
  6
Continuous
100
AcDbLine
 10
344.355454
 20
233.1120209999999
 30
0.0
 11
344.6739719999998
 21
232.804432
 31
0.0
  0
LINE
  5
C76E
330
C587
100
AcDbEntity
  8
1
  6
Continuous
100
AcDbLine
 10
344.853249
 20
233.609815
 30
0.0
 11
345.160838
 21
233.2912969999999
 31
0.0
  0
LINE
  5
C76F
330
C587
100
AcDbEntity
  8
1
  6
Continuous
100
AcDbLine
 10
344.7569339999998
 20
233.860724
 30
0.0
 11
344.853249
 21
233.609815
 31
0.0
  0
LINE
  5
C770
330
C587
100
AcDbEntity
  8
1
  6
Continuous
100
AcDbLine
 10
344.7569339999998
 20
233.860724
 30
0.0
 11
344.853249
 21
234.111633
 31
0.0
  0
LINE
  5
C771
330
C587
100
AcDbEntity
  8
1
  6
Continuous
100
AcDbLine
 10
344.853249
 20
234.111633
 30
0.0
 11
345.160838
 21
234.4301509999999
 31
0.0
  0
LINE
  5
C772
330
C587
100
AcDbEntity
  8
1
  6
Continuous
100
AcDbLine
 10
344.355454
 20
234.609427
 30
0.0
 11
344.6739719999998
 21
234.9170159999999
 31
0.0
  0
LINE
  5
C773
330
C587
100
AcDbEntity
  8
1
  6
Continuous
100
AcDbLine
 10
344.104545
 20
234.513112
 30
0.0
 11
344.355454
 21
234.609427
 31
0.0
  0
LINE
  5
C774
330
C587
100
AcDbEntity
  8
1
  6
Continuous
100
AcDbLine
 10
344.104545
 20
234.513112
 30
0.0
 11
343.8536359999998
 21
234.609427
 31
0.0
  0
LINE
  5
C775
330
C587
100
AcDbEntity
  8
1
  6
Continuous
100
AcDbLine
 10
343.8536359999998
 20
234.609427
 30
0.0
 11
343.5351189999999
 21
234.9170159999999
 31
0.0
  0
LINE
  5
C776
330
C587
100
AcDbEntity
  8
1
  6
Continuous
100
AcDbLine
 10
343.3558419999998
 20
233.609815
 30
0.0
 11
343.0482529999999
 21
233.2912969999999
 31
0.0
  0
LINE
  5
C777
330
C587
100
AcDbEntity
  8
1
  6
Continuous
100
AcDbLine
 10
343.3558419999998
 20
234.111633
 30
0.0
 11
343.0482529999999
 21
234.4301509999999
 31
0.0
  0
LINE
  5
C778
330
C587
100
AcDbEntity
  8
1
  6
Continuous
100
AcDbLine
 10
343.4521569999998
 20
233.860724
 30
0.0
 11
343.3558419999998
 21
233.609815
 31
0.0
  0
LINE
  5
C779
330
C587
100
AcDbEntity
  8
1
  6
Continuous
100
AcDbLine
 10
343.4521569999998
 20
233.860724
 30
0.0
 11
343.3558419999998
 21
234.111633
 31
0.0
  0
LINE
  5
C77A
330
C587
100
AcDbEntity
  8
4
  6
CENTER
100
AcDbLine
 10
344.104545
 20
237.860724
 30
0.0
 11
344.104545
 21
229.860724
 31
0.0
  0
CIRCLE
  5
C77B
330
C587
100
AcDbEntity
  8
1
  6
Continuous
100
AcDbCircle
 10
344.104545
 20
233.860724
 30
0.0
 40
2.5
  0
CIRCLE
  5
C77C
330
C587
100
AcDbEntity
  8
1
  6
Continuous
100
AcDbCircle
 10
344.104545
 20
233.860724
 30
0.0
 40
2.299999999999998
  0
ARC
  5
C77D
330
C587
100
AcDbEntity
  8
1
  6
Continuous
100
AcDbCircle
 10
340.6045449999998
 20
233.860724
 30
0.0
 40
2.5
100
AcDbArc
 50
90.0
 51
180.0
  0
ARC
  5
C77E
330
C587
100
AcDbEntity
  8
1
  6
Continuous
100
AcDbCircle
 10
358.291172
 20
241.668824
 30
0.0
 40
1.000599999999999
100
AcDbArc
 50
227.13
 51
312.87
  0
ARC
  5
C77F
330
C587
100
AcDbEntity
  8
1
  6
Continuous
100
AcDbCircle
 10
355.08667
 20
241.6373419999999
 30
0.0
 40
1.002143999999999
100
AcDbArc
 50
315.927
 51
0.0
  0
ARC
  5
C780
330
C587
100
AcDbEntity
  8
1
  6
Continuous
100
AcDbCircle
 10
355.19499
 20
241.6373419999999
 30
0.0
 40
1.002143999999999
100
AcDbArc
 50
180.0
 51
224.072
  0
ARC
  5
C781
330
C587
100
AcDbEntity
  8
1
  6
Continuous
100
AcDbCircle
 10
355.1408299999998
 20
241.5849259999998
 30
0.0
 40
0.9267839999999999
100
AcDbArc
 50
224.072
 51
315.927
  0
ARC
  5
C782
330
C587
100
AcDbEntity
  8
1
  6
Continuous
100
AcDbCircle
 10
358.1792199999999
 20
241.548224
 30
0.0
 40
0.8360479999999999
100
AcDbArc
 50
193.0139999999999
 51
227.13
  0
ARC
  5
C783
330
C587
100
AcDbEntity
  8
1
  6
Continuous
100
AcDbCircle
 10
355.1045449999999
 20
233.860724
 30
0.0
 40
1.199999999999999
100
AcDbArc
 50
208.328251
 51
241.6717489999999
  0
ARC
  5
C784
330
C587
100
AcDbEntity
  8
1
  6
Continuous
100
AcDbCircle
 10
355.1045449999999
 20
233.860724
 30
0.0
 40
1.199999999999999
100
AcDbArc
 50
118.3282509999999
 51
151.671749
  0
ARC
  5
C785
330
C587
100
AcDbEntity
  8
1
  6
Continuous
100
AcDbCircle
 10
355.1045449999999
 20
233.860724
 30
0.0
 40
1.199999999999999
100
AcDbArc
 50
298.3282509999999
 51
331.6717489999998
  0
ARC
  5
C786
330
C587
100
AcDbEntity
  8
1
  6
Continuous
100
AcDbCircle
 10
355.1045449999999
 20
233.860724
 30
0.0
 40
1.199999999999999
100
AcDbArc
 50
28.32825099999999
 51
61.671749
  0
LINE
  5
C787
330
C587
100
AcDbEntity
  8
1
  6
Continuous
100
AcDbLine
 10
354.8536359999998
 20
233.1120209999999
 30
0.0
 11
354.535119
 21
232.804432
 31
0.0
  0
LINE
  5
C788
330
C587
100
AcDbEntity
  8
1
  6
Continuous
100
AcDbLine
 10
355.1045449999999
 20
233.2083359999999
 30
0.0
 11
354.8536359999998
 21
233.1120209999999
 31
0.0
  0
LINE
  5
C789
330
C587
100
AcDbEntity
  8
1
  6
Continuous
100
AcDbLine
 10
355.1045449999999
 20
233.2083359999999
 30
0.0
 11
355.355454
 21
233.1120209999999
 31
0.0
  0
LINE
  5
C78A
330
C587
100
AcDbEntity
  8
1
  6
Continuous
100
AcDbLine
 10
355.355454
 20
233.1120209999999
 30
0.0
 11
355.673972
 21
232.804432
 31
0.0
  0
LINE
  5
C78B
330
C587
100
AcDbEntity
  8
1
  6
Continuous
100
AcDbLine
 10
355.853249
 20
233.609815
 30
0.0
 11
356.160838
 21
233.2912969999999
 31
0.0
  0
LINE
  5
C78C
330
C587
100
AcDbEntity
  8
1
  6
Continuous
100
AcDbLine
 10
355.7569339999998
 20
233.860724
 30
0.0
 11
355.853249
 21
233.609815
 31
0.0
  0
LINE
  5
C78D
330
C587
100
AcDbEntity
  8
1
  6
Continuous
100
AcDbLine
 10
355.7569339999998
 20
233.860724
 30
0.0
 11
355.853249
 21
234.111633
 31
0.0
  0
LINE
  5
C78E
330
C587
100
AcDbEntity
  8
1
  6
Continuous
100
AcDbLine
 10
355.853249
 20
234.111633
 30
0.0
 11
356.160838
 21
234.4301509999999
 31
0.0
  0
LINE
  5
C78F
330
C587
100
AcDbEntity
  8
1
  6
Continuous
100
AcDbLine
 10
355.355454
 20
234.609427
 30
0.0
 11
355.673972
 21
234.9170159999999
 31
0.0
  0
LINE
  5
C790
330
C587
100
AcDbEntity
  8
1
  6
Continuous
100
AcDbLine
 10
355.1045449999999
 20
234.513112
 30
0.0
 11
355.355454
 21
234.609427
 31
0.0
  0
LINE
  5
C791
330
C587
100
AcDbEntity
  8
1
  6
Continuous
100
AcDbLine
 10
355.1045449999999
 20
234.513112
 30
0.0
 11
354.8536359999998
 21
234.609427
 31
0.0
  0
LINE
  5
C792
330
C587
100
AcDbEntity
  8
1
  6
Continuous
100
AcDbLine
 10
354.8536359999998
 20
234.609427
 30
0.0
 11
354.535119
 21
234.9170159999999
 31
0.0
  0
LINE
  5
C793
330
C587
100
AcDbEntity
  8
1
  6
Continuous
100
AcDbLine
 10
354.3558419999998
 20
233.609815
 30
0.0
 11
354.0482529999999
 21
233.2912969999999
 31
0.0
  0
LINE
  5
C794
330
C587
100
AcDbEntity
  8
1
  6
Continuous
100
AcDbLine
 10
354.3558419999998
 20
234.111633
 30
0.0
 11
354.0482529999999
 21
234.4301509999999
 31
0.0
  0
LINE
  5
C795
330
C587
100
AcDbEntity
  8
1
  6
Continuous
100
AcDbLine
 10
354.4521569999998
 20
233.860724
 30
0.0
 11
354.3558419999998
 21
233.609815
 31
0.0
  0
LINE
  5
C796
330
C587
100
AcDbEntity
  8
1
  6
Continuous
100
AcDbLine
 10
354.4521569999998
 20
233.860724
 30
0.0
 11
354.3558419999998
 21
234.111633
 31
0.0
  0
ARC
  5
C797
330
C587
100
AcDbEntity
  8
1
  6
Continuous
100
AcDbCircle
 10
358.6045449999998
 20
233.860724
 30
0.0
 40
2.5
100
AcDbArc
 50
0.0
 51
90.0
  0
ARC
  5
C798
330
C587
100
AcDbEntity
  8
1
  6
Continuous
100
AcDbCircle
 10
351.127785
 20
241.5952299999999
 30
0.0
 40
1.144263999999999
100
AcDbArc
 50
189.307
 51
220.0559999999999
  0
ARC
  5
C799
330
C587
100
AcDbEntity
  8
1
  6
Continuous
100
AcDbCircle
 10
350.828345
 20
241.34347
 30
0.0
 40
0.7530210000000001
100
AcDbArc
 50
220.0559999999999
 51
319.944
  0
LINE
  5
C79A
330
C587
100
AcDbEntity
  8
4
  6
CENTER
100
AcDbLine
 10
359.1045449999999
 20
233.860724
 30
0.0
 11
351.1045449999999
 21
233.860724
 31
0.0
  0
LINE
  5
C79B
330
C587
100
AcDbEntity
  8
1
  6
Continuous
100
AcDbLine
 10
352.0045109999998
 20
241.3558749999999
 30
0.0
 11
354.0861109999996
 21
241.3558749999999
 31
0.0
  0
ARC
  5
C79C
330
C587
100
AcDbEntity
  8
1
  6
Continuous
100
AcDbCircle
 10
349.6045449999999
 20
227.360724
 30
0.0
 40
1.3
100
AcDbArc
 50
0.0
 51
90.0
  0
CIRCLE
  5
C79D
330
C587
100
AcDbEntity
  8
1
  6
Continuous
100
AcDbCircle
 10
353.1045449999999
 20
227.360724
 30
0.0
 40
2.0
  0
ARC
  5
C79E
330
C587
100
AcDbEntity
  8
1
  6
Continuous
100
AcDbCircle
 10
353.1045449999999
 20
227.360724
 30
0.0
 40
2.2
100
AcDbArc
 50
180.0
 51
0.0
  0
LINE
  5
C79F
330
C587
100
AcDbEntity
  8
4
  6
CENTER
100
AcDbLine
 10
355.1045449999999
 20
237.860724
 30
0.0
 11
355.1045449999999
 21
229.860724
 31
0.0
  0
CIRCLE
  5
C7A0
330
C587
100
AcDbEntity
  8
1
  6
Continuous
100
AcDbCircle
 10
355.1045449999999
 20
233.860724
 30
0.0
 40
2.5
  0
CIRCLE
  5
C7A1
330
C587
100
AcDbEntity
  8
1
  6
Continuous
100
AcDbCircle
 10
355.1045449999999
 20
233.860724
 30
0.0
 40
2.299999999999998
  0
ARC
  5
C7A2
330
C587
100
AcDbEntity
  8
1
  6
Continuous
100
AcDbCircle
 10
349.6045449999999
 20
227.360724
 30
0.0
 40
5.7
100
AcDbArc
 50
0.0
 51
90.0
  0
ARC
  5
C7A3
330
C587
100
AcDbEntity
  8
1
  6
Continuous
100
AcDbCircle
 10
349.634814
 20
245.713235
 30
0.0
 40
6.610656999999998
100
AcDbArc
 50
103.2680999999999
 51
105.2575
  0
ARC
  5
C7A4
330
C587
100
AcDbEntity
  8
1
  6
Continuous
100
AcDbCircle
 10
349.634814
 20
255.0455419999999
 30
0.0
 40
6.610656999999998
100
AcDbArc
 50
254.794
 51
257.2709999999996
  0
LINE
  5
C7A5
330
C587
100
AcDbEntity
  8
1
  6
Continuous
100
AcDbLine
 10
347.7729629999998
 20
245.8469749999999
 30
0.0
 11
349.5481629999999
 21
245.8469749999999
 31
0.0
  0
ARC
  5
C7A6
330
C587
100
AcDbEntity
  8
1
  6
Continuous
100
AcDbCircle
 10
349.634814
 20
255.0455419999999
 30
0.0
 40
7.166163
100
AcDbArc
 50
234.4619999999999
 51
305.5379999999999
  0
LINE
  5
C7A7
330
C587
100
AcDbEntity
  8
1
  6
Continuous
100
AcDbLine
 10
345.8742409999999
 20
263.860724
 30
0.0
 11
346.1045449999998
 21
263.860724
 31
0.0
  0
ARC
  5
C7A8
330
C587
100
AcDbEntity
  8
1
  6
Continuous
100
AcDbCircle
 10
341.1045449999998
 20
262.360724
 30
0.0
 40
2.1
100
AcDbArc
 50
298.3282509999999
 51
331.6717489999998
  0
LINE
  5
C7A9
330
C587
100
AcDbEntity
  8
1
  6
Continuous
100
AcDbLine
 10
342.4147759999996
 20
261.9216329999998
 30
0.0
 11
342.953057
 21
261.364227
 31
0.0
  0
LINE
  5
C7AA
330
C587
100
AcDbEntity
  8
1
  6
Continuous
100
AcDbLine
 10
342.2462249999998
 20
262.360724
 30
0.0
 11
342.4147759999996
 21
261.9216329999998
 31
0.0
  0
LINE
  5
C7AB
330
C587
100
AcDbEntity
  8
1
  6
Continuous
100
AcDbLine
 10
342.2462249999998
 20
262.360724
 30
0.0
 11
342.4147759999996
 21
262.7998149999999
 31
0.0
  0
LINE
  5
C7AC
330
C587
100
AcDbEntity
  8
1
  6
Continuous
100
AcDbLine
 10
342.4147759999996
 20
262.7998149999999
 30
0.0
 11
342.953057
 21
263.357221
 31
0.0
  0
ARC
  5
C7AD
330
C587
100
AcDbEntity
  8
1
  6
Continuous
100
AcDbCircle
 10
341.1045449999998
 20
262.360724
 30
0.0
 40
2.1
100
AcDbArc
 50
208.328251
 51
241.6717489999999
  0
LINE
  5
C7AE
330
C587
100
AcDbEntity
  8
1
  6
Continuous
100
AcDbLine
 10
340.665454
 20
261.050493
 30
0.0
 11
340.108049
 21
260.5122129999999
 31
0.0
  0
LINE
  5
C7AF
330
C587
100
AcDbEntity
  8
1
  6
Continuous
100
AcDbLine
 10
341.1045449999998
 20
261.2190449999999
 30
0.0
 11
340.665454
 21
261.050493
 31
0.0
  0
LINE
  5
C7B0
330
C587
100
AcDbEntity
  8
1
  6
Continuous
100
AcDbLine
 10
341.1045449999998
 20
261.2190449999999
 30
0.0
 11
341.5436359999998
 21
261.050493
 31
0.0
  0
LINE
  5
C7B1
330
C587
100
AcDbEntity
  8
1
  6
Continuous
100
AcDbLine
 10
341.1045449999998
 20
263.502404
 30
0.0
 11
341.5436359999998
 21
263.6709549999998
 31
0.0
  0
LINE
  5
C7B2
330
C587
100
AcDbEntity
  8
1
  6
Continuous
100
AcDbLine
 10
341.1045449999998
 20
263.502404
 30
0.0
 11
340.665454
 21
263.6709549999998
 31
0.0
  0
LINE
  5
C7B3
330
C587
100
AcDbEntity
  8
1
  6
Continuous
100
AcDbLine
 10
339.7943149999998
 20
261.9216329999998
 30
0.0
 11
339.2560339999997
 21
261.364227
 31
0.0
  0
LINE
  5
C7B4
330
C587
100
AcDbEntity
  8
1
  6
Continuous
100
AcDbLine
 10
339.7943149999998
 20
262.7998149999999
 30
0.0
 11
339.2560339999997
 21
263.357221
 31
0.0
  0
LINE
  5
C7B5
330
C587
100
AcDbEntity
  8
1
  6
Continuous
100
AcDbLine
 10
339.962866
 20
262.360724
 30
0.0
 11
339.7943149999998
 21
261.9216329999998
 31
0.0
  0
LINE
  5
C7B6
330
C587
100
AcDbEntity
  8
1
  6
Continuous
100
AcDbLine
 10
339.962866
 20
262.360724
 30
0.0
 11
339.7943149999998
 21
262.7998149999999
 31
0.0
  0
LINE
  5
C7B7
330
C587
100
AcDbEntity
  8
1
  6
Continuous
100
AcDbLine
 10
341.5436359999998
 20
261.050493
 30
0.0
 11
342.1010419999999
 21
260.5122129999999
 31
0.0
  0
LINE
  5
C7B8
330
C587
100
AcDbEntity
  8
1
  6
Continuous
100
AcDbLine
 10
346.0248179999999
 20
251.903572
 30
0.0
 11
346.0248179999999
 21
249.5081859999999
 31
0.0
  0
LINE
  5
C7B9
330
C587
100
AcDbEntity
  8
1
  6
Continuous
100
AcDbLine
 10
346.5796809999998
 20
249.3548089999999
 30
0.0
 11
346.5796809999998
 21
251.4039689999999
 31
0.0
  0
LINE
  5
C7BA
330
C587
100
AcDbEntity
  8
1
  6
Continuous
100
AcDbLine
 10
347.1356719999998
 20
251.7501949999999
 30
0.0
 11
347.1356719999998
 21
249.0097109999999
 31
0.0
  0
ARC
  5
C7BB
330
C587
100
AcDbEntity
  8
1
  6
Continuous
100
AcDbCircle
 10
346.858241
 20
251.4039689999999
 30
0.0
 40
0.277826
100
AcDbArc
 50
116.0144
 51
180.0
  0
ARC
  5
C7BC
330
C587
100
AcDbEntity
  8
1
  6
Continuous
100
AcDbCircle
 10
349.634814
 20
245.713235
 30
0.0
 40
6.610656999999998
100
AcDbArc
 50
112.9439999999999
 51
116.0144
  0
ARC
  5
C7BD
330
C587
100
AcDbEntity
  8
1
  6
Continuous
100
AcDbCircle
 10
347.080412
 20
251.7501949999999
 30
0.0
 40
0.055565
100
AcDbArc
 50
0.0
 51
112.9439999999999
  0
ARC
  5
C7BE
330
C587
100
AcDbEntity
  8
1
  6
Continuous
100
AcDbCircle
 10
346.858241
 20
249.3548089999999
 30
0.0
 40
0.277826
100
AcDbArc
 50
180.0
 51
243.9859999999999
  0
ARC
  5
C7BF
330
C587
100
AcDbEntity
  8
1
  6
Continuous
100
AcDbCircle
 10
347.9690949999999
 20
251.822372
 30
0.0
 40
0.277826
100
AcDbArc
 50
105.2575
 51
180.0
  0
ARC
  5
C7C0
330
C587
100
AcDbEntity
  8
1
  6
Continuous
100
AcDbCircle
 10
347.9690949999999
 20
248.936406
 30
0.0
 40
0.277826
100
AcDbArc
 50
180.0
 51
254.742
  0
ARC
  5
C7C1
330
C587
100
AcDbEntity
  8
1
  6
Continuous
100
AcDbCircle
 10
349.634814
 20
255.0455419999999
 30
0.0
 40
6.610656999999998
100
AcDbArc
 50
254.742
 51
254.794
  0
LINE
  5
C7C2
330
C587
100
AcDbEntity
  8
1
  6
Continuous
100
AcDbLine
 10
347.6905359999999
 20
251.822372
 30
0.0
 11
347.6905359999999
 21
248.936406
 31
0.0
  0
ARC
  5
C7C3
330
C587
100
AcDbEntity
  8
1
  6
Continuous
100
AcDbCircle
 10
347.080412
 20
249.0097109999999
 30
0.0
 40
0.055565
100
AcDbArc
 50
247.0559999999999
 51
0.0
  0
ARC
  5
C7C4
330
C587
100
AcDbEntity
  8
1
  6
Continuous
100
AcDbCircle
 10
349.634814
 20
255.0455419999999
 30
0.0
 40
6.610656999999998
100
AcDbArc
 50
243.9859999999999
 51
247.0559999999999
  0
LINE
  5
C7C5
330
C587
100
AcDbEntity
  8
1
  6
Continuous
100
AcDbLine
 10
347.7729629999998
 20
247.5281269999999
 30
0.0
 11
347.7729629999998
 21
244.1658229999999
 31
0.0
  0
ARC
  5
C7C6
330
C587
100
AcDbEntity
  8
1
  6
Continuous
100
AcDbCircle
 10
346.636562
 20
245.199995
 30
0.0
 40
0.8210319999999999
100
AcDbArc
 50
289.1929999999998
 51
354.341
  0
ARC
  5
C7C7
330
C587
100
AcDbEntity
  8
1
  6
Continuous
100
AcDbCircle
 10
346.636562
 20
246.5978029999998
 30
0.0
 40
0.8210319999999999
100
AcDbArc
 50
5.659239999999998
 51
70.80719999999998
  0
ARC
  5
C7C8
330
C587
100
AcDbEntity
  8
1
  6
Continuous
100
AcDbCircle
 10
346.30225
 20
250.3799529999996
 30
0.0
 40
1.431648999999999
100
AcDbArc
 50
125.5376999999999
 51
166.5373999999999
  0
ARC
  5
C7C9
330
C587
100
AcDbEntity
  8
1
  6
Continuous
100
AcDbCircle
 10
346.30225
 20
250.3799529999996
 30
0.0
 40
1.431648999999999
100
AcDbArc
 50
180.0
 51
234.4619999999999
  0
ARC
  5
C7CA
330
C587
100
AcDbEntity
  8
1
  6
Continuous
100
AcDbCircle
 10
346.867762
 20
245.898899
 30
0.0
 40
1.708047999999998
100
AcDbArc
 50
138.9319999999997
 51
221.0679999999999
  0
ARC
  5
C7CB
330
C587
100
AcDbEntity
  8
1
  6
Continuous
100
AcDbCircle
 10
343.0818339999998
 20
245.8819389999999
 30
0.0
 40
1.708047999999998
100
AcDbArc
 50
318.932
 51
41.0679
  0
ARC
  5
C7CC
330
C587
100
AcDbEntity
  8
1
  6
Continuous
100
AcDbCircle
 10
343.8099219999998
 20
245.8819389999999
 30
0.0
 40
1.708047999999998
100
AcDbArc
 50
138.9319999999997
 51
221.0679999999999
  0
ARC
  5
C7CD
330
C587
100
AcDbEntity
  8
1
  6
Continuous
100
AcDbCircle
 10
343.4458819999998
 20
245.5647229999999
 30
0.0
 40
1.225184
100
AcDbArc
 50
221.0679999999999
 51
318.932
  0
ARC
  5
C7CE
330
C587
100
AcDbEntity
  8
1
  6
Continuous
100
AcDbCircle
 10
343.4458819999998
 20
246.199155
 30
0.0
 40
1.225184
100
AcDbArc
 50
41.0679
 51
138.9319999999997
  0
LINE
  5
C7CF
330
C587
100
AcDbEntity
  8
1
  6
Continuous
100
AcDbLine
 10
341.2613039999998
 20
247.3866169999999
 30
0.0
 11
341.2613039999998
 21
244.1866169999999
 31
0.0
  0
LINE
  5
C7D0
330
C587
100
AcDbEntity
  8
1
  6
Continuous
100
AcDbLine
 10
340.551191
 20
243.8336959999999
 30
0.0
 11
343.0711509999998
 21
243.8336959999999
 31
0.0
  0
LINE
  5
C7D1
330
C587
100
AcDbEntity
  8
1
  6
Continuous
100
AcDbLine
 10
339.962712
 20
247.3866169999999
 30
0.0
 11
342.5713839999998
 21
247.3866169999999
 31
0.0
  0
ARC
  5
C7D2
330
C587
100
AcDbEntity
  8
1
  6
Continuous
100
AcDbCircle
 10
346.5036819999999
 20
245.5816829999998
 30
0.0
 40
1.225184
100
AcDbArc
 50
221.0679999999999
 51
289.1929999999998
  0
ARC
  5
C7D3
330
C587
100
AcDbEntity
  8
1
  6
Continuous
100
AcDbCircle
 10
346.5036819999999
 20
246.216115
 30
0.0
 40
1.225184
100
AcDbArc
 50
70.80719999999998
 51
138.9319999999997
  0
ARC
  5
C7D4
330
C587
100
AcDbEntity
  8
1
  6
Continuous
100
AcDbCircle
 10
349.634814
 20
245.713235
 30
0.0
 40
7.166163
100
AcDbArc
 50
111.932933
 51
125.5376999999999
  0
LINE
  5
C7D5
330
C587
100
AcDbEntity
  8
1
  6
Continuous
100
AcDbLine
 10
343.303283
 20
242.222808
 30
0.0
 11
345.0080509999998
 21
242.222808
 31
0.0
  0
ARC
  5
C7D6
330
C587
100
AcDbEntity
  8
1
  6
Continuous
100
AcDbCircle
 10
358.1045449999999
 20
262.360724
 30
0.0
 40
2.1
100
AcDbArc
 50
298.3282509999999
 51
331.6717489999998
  0
LINE
  5
C7D7
330
C587
100
AcDbEntity
  8
1
  6
Continuous
100
AcDbLine
 10
358.1045449999999
 20
261.2190449999999
 30
0.0
 11
357.665454
 21
261.050493
 31
0.0
  0
LINE
  5
C7D8
330
C587
100
AcDbEntity
  8
1
  6
Continuous
100
AcDbLine
 10
358.1045449999999
 20
261.2190449999999
 30
0.0
 11
358.5436359999998
 21
261.050493
 31
0.0
  0
LINE
  5
C7D9
330
C587
100
AcDbEntity
  8
1
  6
Continuous
100
AcDbLine
 10
358.5436359999998
 20
261.050493
 30
0.0
 11
359.1010419999999
 21
260.5122129999999
 31
0.0
  0
LINE
  5
C7DA
330
C587
100
AcDbEntity
  8
1
  6
Continuous
100
AcDbLine
 10
359.4147759999996
 20
261.9216329999998
 30
0.0
 11
359.9530569999998
 21
261.364227
 31
0.0
  0
LINE
  5
C7DB
330
C587
100
AcDbEntity
  8
1
  6
Continuous
100
AcDbLine
 10
359.2462249999999
 20
262.360724
 30
0.0
 11
359.4147759999996
 21
261.9216329999998
 31
0.0
  0
LINE
  5
C7DC
330
C587
100
AcDbEntity
  8
1
  6
Continuous
100
AcDbLine
 10
359.2462249999999
 20
262.360724
 30
0.0
 11
359.4147759999996
 21
262.7998149999999
 31
0.0
  0
LINE
  5
C7DD
330
C587
100
AcDbEntity
  8
1
  6
Continuous
100
AcDbLine
 10
359.4147759999996
 20
262.7998149999999
 30
0.0
 11
359.9530569999998
 21
263.357221
 31
0.0
  0
LINE
  5
C7DE
330
C587
100
AcDbEntity
  8
1
  6
Continuous
100
AcDbLine
 10
358.1045449999999
 20
263.502404
 30
0.0
 11
358.5436359999998
 21
263.6709549999998
 31
0.0
  0
LINE
  5
C7DF
330
C587
100
AcDbEntity
  8
1
  6
Continuous
100
AcDbLine
 10
358.1045449999999
 20
263.502404
 30
0.0
 11
357.665454
 21
263.6709549999998
 31
0.0
  0
ARC
  5
C7E0
330
C587
100
AcDbEntity
  8
1
  6
Continuous
100
AcDbCircle
 10
358.1045449999999
 20
262.360724
 30
0.0
 40
2.1
100
AcDbArc
 50
208.328251
 51
241.6717489999999
  0
LINE
  5
C7E1
330
C587
100
AcDbEntity
  8
1
  6
Continuous
100
AcDbLine
 10
356.7943149999999
 20
261.9216329999998
 30
0.0
 11
356.256034
 21
261.364227
 31
0.0
  0
LINE
  5
C7E2
330
C587
100
AcDbEntity
  8
1
  6
Continuous
100
AcDbLine
 10
356.7943149999999
 20
262.7998149999999
 30
0.0
 11
356.256034
 21
263.357221
 31
0.0
  0
LINE
  5
C7E3
330
C587
100
AcDbEntity
  8
1
  6
Continuous
100
AcDbLine
 10
356.962866
 20
262.360724
 30
0.0
 11
356.7943149999999
 21
261.9216329999998
 31
0.0
  0
LINE
  5
C7E4
330
C587
100
AcDbEntity
  8
1
  6
Continuous
100
AcDbLine
 10
356.962866
 20
262.360724
 30
0.0
 11
356.7943149999999
 21
262.7998149999999
 31
0.0
  0
LINE
  5
C7E5
330
C587
100
AcDbEntity
  8
1
  6
Continuous
100
AcDbLine
 10
357.665454
 20
261.050493
 30
0.0
 11
357.1080489999998
 21
260.5122129999999
 31
0.0
  0
LINE
  5
C7E6
330
C587
100
AcDbEntity
  8
1
  6
Continuous
100
AcDbLine
 10
351.056773
 20
261.6336559999999
 30
0.0
 11
353.10505
 21
262.431754
 31
0.0
  0
LINE
  5
C7E7
330
C587
100
AcDbEntity
  8
1
  6
Continuous
100
AcDbLine
 10
353.1045449999999
 20
263.860724
 30
0.0
 11
353.334849
 21
263.860724
 31
0.0
  0
ARC
  5
C7E8
330
C587
100
AcDbEntity
  8
1
  6
Continuous
100
AcDbCircle
 10
352.9685049999998
 20
250.3799529999996
 30
0.0
 40
1.431648999999999
100
AcDbArc
 50
332.25
 51
54.46200000000001
  0
ARC
  5
C7E9
330
C587
100
AcDbEntity
  8
1
  6
Continuous
100
AcDbCircle
 10
352.9685049999998
 20
250.3799529999996
 30
0.0
 40
1.431648999999999
100
AcDbArc
 50
305.5379999999999
 51
315.699
  0
ARC
  5
C7EA
330
C587
100
AcDbEntity
  8
1
  6
Continuous
100
AcDbCircle
 10
358.291172
 20
242.8676240000001
 30
0.0
 40
1.000599999999999
100
AcDbArc
 50
47.1304
 51
132.8699999999996
  0
ARC
  5
C7EB
330
C587
100
AcDbEntity
  8
1
  6
Continuous
100
AcDbCircle
 10
355.08667
 20
242.878622
 30
0.0
 40
1.002143999999999
100
AcDbArc
 50
0.0
 51
44.0725
  0
LINE
  5
C7EC
330
C587
100
AcDbEntity
  8
1
  6
Continuous
100
AcDbLine
 10
357.3766019999998
 20
247.4404199999999
 30
0.0
 11
356.1070819999998
 21
244.170788
 31
0.0
  0
ARC
  5
C7ED
330
C587
100
AcDbEntity
  8
1
  6
Continuous
100
AcDbCircle
 10
355.19499
 20
242.878622
 30
0.0
 40
1.002143999999999
100
AcDbArc
 50
135.928
 51
180.0
  0
LINE
  5
C7EE
330
C587
100
AcDbEntity
  8
1
  6
Continuous
100
AcDbLine
 10
353.8534779999998
 20
247.5237659999999
 30
0.0
 11
353.8534779999998
 21
244.161462
 31
0.0
  0
LINE
  5
C7EF
330
C587
100
AcDbEntity
  8
1
  6
Continuous
100
AcDbLine
 10
355.391162
 20
245.6664519999999
 30
0.0
 11
355.391162
 21
244.159268
 31
0.0
  0
LINE
  5
C7F0
330
C587
100
AcDbEntity
  8
1
  6
Continuous
100
AcDbLine
 10
355.391162
 20
245.67222
 30
0.0
 11
354.313242
 21
247.5449879999999
 31
0.0
  0
ARC
  5
C7F1
330
C587
100
AcDbEntity
  8
1
  6
Continuous
100
AcDbCircle
 10
355.1408299999998
 20
242.9310379999999
 30
0.0
 40
0.9267839999999999
100
AcDbArc
 50
44.0725
 51
135.928
  0
LINE
  5
C7F2
330
C587
100
AcDbEntity
  8
1
  6
Continuous
100
AcDbLine
 10
355.391162
 20
245.6664439999999
 30
0.0
 11
356.476922
 21
247.5470039999998
 31
0.0
  0
ARC
  5
C7F3
330
C587
100
AcDbEntity
  8
1
  6
Continuous
100
AcDbCircle
 10
358.1792199999999
 20
242.988224
 30
0.0
 40
0.8360479999999999
100
AcDbArc
 50
132.8699999999996
 51
198.208
  0
LINE
  5
C7F4
330
C587
100
AcDbEntity
  8
1
  6
Continuous
100
AcDbLine
 10
357.3766019999998
 20
247.4461719999999
 30
0.0
 11
358.5882819999998
 21
244.1707799999999
 31
0.0
  0
LINE
  5
C7F5
330
C587
100
AcDbEntity
  8
1
  6
Continuous
100
AcDbLine
 10
356.4897219999999
 20
245.1330759999999
 30
0.0
 11
358.2346019999998
 21
245.1330759999999
 31
0.0
  0
ARC
  5
C7F6
330
C587
100
AcDbEntity
  8
1
  6
Continuous
100
AcDbCircle
 10
358.291172
 20
241.427621
 30
0.0
 40
1.000599999999999
100
AcDbArc
 50
47.1304
 51
57.1503
  0
ARC
  5
C7F7
330
C587
100
AcDbEntity
  8
1
  6
Continuous
100
AcDbCircle
 10
358.291172
 20
243.108824
 30
0.0
 40
1.000599999999999
100
AcDbArc
 50
302.85
 51
312.87
  0
LINE
  5
C7F8
330
C587
100
AcDbEntity
  8
1
  6
Continuous
100
AcDbLine
 10
358.365604
 20
242.268224
 30
0.0
 11
358.8339399999999
 21
242.268224
 31
0.0
  0
LINE
  5
C7F9
330
C587
100
AcDbEntity
  8
1
  6
Continuous
100
AcDbLine
 10
356.4527699999999
 20
242.2526579999999
 30
0.0
 11
357.4552499999999
 21
242.2526579999999
 31
0.0
  0
ARC
  5
C7FA
330
C587
100
AcDbEntity
  8
1
  6
Continuous
100
AcDbCircle
 10
358.4031240000001
 20
242.988224
 30
0.0
 40
0.8360479999999999
100
AcDbArc
 50
312.87
 51
47.1304
  0
ARC
  5
C7FB
330
C587
100
AcDbEntity
  8
1
  6
Continuous
100
AcDbCircle
 10
349.634814
 20
245.713235
 30
0.0
 40
6.610656999999998
100
AcDbArc
 50
79.896
 51
82.20699999999999
  0
ARC
  5
C7FC
330
C587
100
AcDbEntity
  8
1
  6
Continuous
100
AcDbCircle
 10
349.634814
 20
255.0455419999999
 30
0.0
 40
6.610656999999998
100
AcDbArc
 50
277.793
 51
280.104
  0
ARC
  5
C7FD
330
C587
100
AcDbEntity
  8
1
  6
Continuous
100
AcDbCircle
 10
350.524625
 20
252.20807
 30
0.0
 40
0.055565
100
AcDbArc
 50
82.20699999999999
 51
180.0
  0
ARC
  5
C7FE
330
C587
100
AcDbEntity
  8
1
  6
Continuous
100
AcDbCircle
 10
350.524625
 20
248.550708
 30
0.0
 40
0.055565
100
AcDbArc
 50
180.0
 51
277.793
  0
LINE
  5
C7FF
330
C587
100
AcDbEntity
  8
1
  6
Continuous
100
AcDbLine
 10
349.9133729999999
 20
252.3174639999999
 30
0.0
 11
349.9133729999999
 21
248.441314
 31
0.0
  0
LINE
  5
C800
330
C587
100
AcDbEntity
  8
1
  6
Continuous
100
AcDbLine
 10
350.4682369999999
 20
252.20807
 30
0.0
 11
350.4682369999999
 21
248.550708
 31
0.0
  0
LINE
  5
C801
330
C587
100
AcDbEntity
  8
1
  6
Continuous
100
AcDbLine
 10
351.0242279999998
 20
251.046466
 30
0.0
 11
351.0242279999998
 21
251.9475549999999
 31
0.0
  0
LINE
  5
C802
330
C587
100
AcDbEntity
  8
1
  6
Continuous
100
AcDbLine
 10
351.0242279999998
 20
250.3799529999996
 30
0.0
 11
350.746796
 21
250.3799529999996
 31
0.0
  0
LINE
  5
C803
330
C587
100
AcDbEntity
  8
1
  6
Continuous
100
AcDbLine
 10
352.135082
 20
251.9441719999999
 30
0.0
 11
352.135082
 21
250.6573849999999
 31
0.0
  0
LINE
  5
C804
330
C587
100
AcDbEntity
  8
1
  6
Continuous
100
AcDbLine
 10
352.691074
 20
250.6573849999999
 30
0.0
 11
352.691074
 21
251.8437999999999
 31
0.0
  0
LINE
  5
C805
330
C587
100
AcDbEntity
  8
1
  6
Continuous
100
AcDbLine
 10
352.4125139999999
 20
250.3799529999996
 30
0.0
 11
352.4125139999999
 21
249.0469269999999
 31
0.0
  0
ARC
  5
C806
330
C587
100
AcDbEntity
  8
1
  6
Continuous
100
AcDbCircle
 10
352.4125139999999
 20
250.6573849999999
 30
0.0
 40
0.277826
100
AcDbArc
 50
180.0
 51
0.0
  0
ARC
  5
C807
330
C587
100
AcDbEntity
  8
1
  6
Continuous
100
AcDbCircle
 10
350.746796
 20
251.9475549999999
 30
0.0
 40
0.277826
100
AcDbArc
 50
0.0
 51
79.896
  0
ARC
  5
C808
330
C587
100
AcDbEntity
  8
1
  6
Continuous
100
AcDbCircle
 10
350.746796
 20
248.811223
 30
0.0
 40
0.277826
100
AcDbArc
 50
280.104
 51
0.0
  0
LINE
  5
C809
330
C587
100
AcDbEntity
  8
1
  6
Continuous
100
AcDbLine
 10
351.0242279999998
 20
248.811223
 30
0.0
 11
351.0242279999998
 21
250.3799529999996
 31
0.0
  0
LINE
  5
C80A
330
C587
100
AcDbEntity
  8
1
  6
Continuous
100
AcDbLine
 10
351.5790909999998
 20
252.2058139999999
 30
0.0
 11
351.5790909999998
 21
248.727768
 31
0.0
  0
LINE
  5
C80B
330
C587
100
AcDbEntity
  8
1
  6
Continuous
100
AcDbLine
 10
348.246527
 20
251.046466
 30
0.0
 11
348.246527
 21
252.106571
 31
0.0
  0
LINE
  5
C80C
330
C587
100
AcDbEntity
  8
1
  6
Continuous
100
AcDbLine
 10
349.3573819999999
 20
250.3799529999996
 30
0.0
 11
348.802518
 21
250.3799529999996
 31
0.0
  0
ARC
  5
C80D
330
C587
100
AcDbEntity
  8
1
  6
Continuous
100
AcDbCircle
 10
348.191266
 20
252.106571
 30
0.0
 40
0.055565
100
AcDbArc
 50
0.0
 51
102.7288999999999
  0
ARC
  5
C80E
330
C587
100
AcDbEntity
  8
1
  6
Continuous
100
AcDbCircle
 10
349.634814
 20
245.713235
 30
0.0
 40
6.610656999999998
100
AcDbArc
 50
102.7288999999999
 51
103.2680999999999
  0
ARC
  5
C80F
330
C587
100
AcDbEntity
  8
1
  6
Continuous
100
AcDbCircle
 10
348.191266
 20
248.6522069999999
 30
0.0
 40
0.055565
100
AcDbArc
 50
257.2709999999996
 51
0.0
  0
LINE
  5
C810
330
C587
100
AcDbEntity
  8
1
  6
Continuous
100
AcDbLine
 10
348.246527
 20
248.6522069999999
 30
0.0
 11
348.246527
 21
249.7134399999999
 31
0.0
  0
LINE
  5
C811
330
C587
100
AcDbEntity
  8
1
  6
Continuous
100
AcDbLine
 10
348.802518
 20
252.2712249999999
 30
0.0
 11
348.802518
 21
248.487553
 31
0.0
  0
LINE
  5
C812
330
C587
100
AcDbEntity
  8
1
  6
Continuous
100
AcDbLine
 10
349.3573819999999
 20
252.3174639999999
 30
0.0
 11
349.3573819999999
 21
248.441314
 31
0.0
  0
LINE
  5
C813
330
C587
100
AcDbEntity
  8
1
  6
Continuous
100
AcDbLine
 10
349.988985
 20
243.80499
 30
0.0
 11
351.6546649999999
 21
243.80499
 31
0.0
  0
ARC
  5
C814
330
C587
100
AcDbEntity
  8
1
  6
Continuous
100
AcDbCircle
 10
351.7977179999999
 20
245.4475979999999
 30
0.0
 40
1.151999999999999
100
AcDbArc
 50
269.5819999999998
 51
11.6541
  0
ARC
  5
C815
330
C587
100
AcDbEntity
  8
1
  6
Continuous
100
AcDbCircle
 10
352.153318
 20
245.8375179999999
 30
0.0
 40
1.708047999999998
100
AcDbArc
 50
138.9319999999997
 51
221.0679999999999
  0
LINE
  5
C816
330
C587
100
AcDbEntity
  8
1
  6
Continuous
100
AcDbLine
 10
352.9259579999999
 20
245.2033899999999
 30
0.0
 11
352.9259579999999
 21
244.1846219999999
 31
0.0
  0
LINE
  5
C817
330
C587
100
AcDbEntity
  8
1
  6
Continuous
100
AcDbLine
 10
350.180423
 20
247.4981759999999
 30
0.0
 11
350.180423
 21
244.135872
 31
0.0
  0
ARC
  5
C818
330
C587
100
AcDbEntity
  8
1
  6
Continuous
100
AcDbCircle
 10
351.7893179999999
 20
245.5202939999999
 30
0.0
 40
1.225184
100
AcDbArc
 50
221.0679999999999
 51
276.591
  0
ARC
  5
C819
330
C587
100
AcDbEntity
  8
1
  6
Continuous
100
AcDbCircle
 10
351.7893179999999
 20
246.1547339999999
 30
0.0
 40
1.225184
100
AcDbArc
 50
70.80719999999998
 51
138.9319999999997
  0
ARC
  5
C81A
330
C587
100
AcDbEntity
  8
1
  6
Continuous
100
AcDbCircle
 10
351.9221979999999
 20
246.536422
 30
0.0
 40
0.8210319999999999
100
AcDbArc
 50
5.659239999999998
 51
70.80719999999998
  0
LINE
  5
C81B
330
C587
100
AcDbEntity
  8
1
  6
Continuous
100
AcDbLine
 10
351.8013179999999
 20
245.68031
 30
0.0
 11
352.9259579999999
 21
245.68031
 31
0.0
  0
LINE
  5
C81C
330
C587
100
AcDbEntity
  8
1
  6
Continuous
100
AcDbLine
 10
349.5481629999999
 20
247.5281269999999
 30
0.0
 11
349.5481629999999
 21
244.1658229999999
 31
0.0
  0
ARC
  5
C81D
330
C587
100
AcDbEntity
  8
1
  6
Continuous
100
AcDbCircle
 10
350.3900249999999
 20
242.0891499999999
 30
0.0
 40
0.387335
100
AcDbArc
 50
121.845
 51
180.0
  0
LINE
  5
C81E
330
C587
100
AcDbEntity
  8
1
  6
Continuous
100
AcDbLine
 10
348.104534
 20
242.2049899999999
 30
0.0
 11
349.1070139999998
 21
242.2049899999999
 31
0.0
  0
ARC
  5
C81F
330
C587
100
AcDbEntity
  8
1
  6
Continuous
100
AcDbCircle
 10
350.828345
 20
241.84707
 30
0.0
 40
0.7530210000000001
100
AcDbArc
 50
40.0559
 51
90.10099999999999
  0
ARC
  5
C820
330
C587
100
AcDbEntity
  8
1
  6
Continuous
100
AcDbCircle
 10
350.8269849999999
 20
241.3856299999999
 30
0.0
 40
1.215543999999997
100
AcDbArc
 50
90.0
 51
121.845
  0
LINE
  5
C821
330
C587
100
AcDbEntity
  8
1
  6
Continuous
100
AcDbLine
 10
350.001545
 20
243.80499
 30
0.0
 11
350.001545
 21
242.0891499999999
 31
0.0
  0
LINE
  5
C822
330
C587
100
AcDbEntity
  8
1
  6
Continuous
100
AcDbLine
 10
352.9730159999999
 20
249.340148
 30
0.0
 11
353.6011849999999
 21
251.681401
 31
0.0
  0
LINE
  5
C823
330
C587
100
AcDbEntity
  8
1
  6
Continuous
100
AcDbLine
 10
354.399647
 20
250.3799529999996
 30
0.0
 11
353.2515759999999
 21
250.3799529999996
 31
0.0
  0
ARC
  5
C824
330
C587
100
AcDbEntity
  8
1
  6
Continuous
100
AcDbCircle
 10
349.634814
 20
245.713235
 30
0.0
 40
7.166163
100
AcDbArc
 50
54.46200000000001
 51
68.06706700000001
  0
LINE
  5
C834
330
C587
100
AcDbEntity
  8
5
  6
PHANTOM
100
AcDbLine
 10
326.9624089999998
 20
269.4317919999999
 30
0.0
 11
344.6400779999996
 21
287.109461
 31
0.0
  0
ARC
  5
C835
330
C587
100
AcDbEntity
  8
1
  6
Continuous
100
AcDbCircle
 10
331.1045449999998
 20
282.360724
 30
0.0
 40
5.0
100
AcDbArc
 50
90.0
 51
180.0
  0
LINE
  5
C836
330
C587
100
AcDbEntity
  8
4
  6
CENTER
100
AcDbLine
 10
357.0687209999999
 20
281.3607239999999
 30
0.0
 11
342.5221369999998
 21
281.3607239999999
 31
0.0
  0
ARC
  5
C837
330
C587
100
AcDbEntity
  8
1
  6
Continuous
100
AcDbCircle
 10
349.6045449999999
 20
274.2645299999999
 30
0.0
 40
2.389088
100
AcDbArc
 50
213.482583
 51
326.517418
  0
LINE
  5
C838
330
C587
100
AcDbEntity
  8
1
  6
Continuous
100
AcDbLine
 10
345.8796179999998
 20
273.0432069999998
 30
0.0
 11
350.3253609999999
 21
273.635486
 31
0.0
  0
ARC
  5
C839
330
C587
100
AcDbEntity
  8
1
  6
Continuous
100
AcDbCircle
 10
349.6045449999999
 20
268.360724
 30
0.0
 40
5.0
100
AcDbArc
 50
53.130102
 51
126.869898
  0
ARC
  5
C83A
330
C587
100
AcDbEntity
  8
1
  6
Continuous
100
AcDbCircle
 10
346.6045449999999
 20
266.860724
 30
0.0
 40
0.5
100
AcDbArc
 50
90.0
 51
180.0
  0
LINE
  5
C83B
330
C587
100
AcDbEntity
  8
1
  6
Continuous
100
AcDbLine
 10
346.6045449999999
 20
272.360724
 30
0.0
 11
346.6045449999999
 21
266.2545999999999
 31
0.0
  0
ARC
  5
C83C
330
C587
100
AcDbEntity
  8
1
  6
Continuous
100
AcDbCircle
 10
349.6045449999999
 20
265.960724
 30
0.0
 40
8.4
100
AcDbArc
 50
128.986858
 51
142.450126
  0
LINE
  5
C83D
330
C587
100
AcDbEntity
  8
1
  6
Continuous
100
AcDbLine
 10
344.6946669999999
 20
265.860724
 30
0.0
 11
346.1045449999998
 21
265.860724
 31
0.0
  0
ARC
  5
C83E
330
C587
100
AcDbEntity
  8
1
  6
Continuous
100
AcDbCircle
 10
341.1045449999998
 20
262.360724
 30
0.0
 40
5.013878
100
AcDbArc
 50
19.440035
 51
67.97444
  0
ARC
  5
C83F
330
C587
100
AcDbEntity
  8
1
  6
Continuous
100
AcDbCircle
 10
346.407846
 20
269.0782389999998
 30
0.0
 40
4.0
100
AcDbArc
 50
97.58847900000004
 51
211.157439
  0
LINE
  5
C840
330
C587
100
AcDbEntity
  8
1
  6
Continuous
100
AcDbLine
 10
352.6045449999998
 20
272.360724
 30
0.0
 11
352.6045449999998
 21
266.2545999999999
 31
0.0
  0
LINE
  5
C841
330
C587
100
AcDbEntity
  8
1
  6
Continuous
100
AcDbLine
 10
352.476827
 20
274.860724
 30
0.0
 11
356.4599999999999
 21
274.860724
 31
0.0
  0
LINE
  5
C842
330
C587
100
AcDbEntity
  8
1
  6
Continuous
100
AcDbLine
 10
351.1447479999998
 20
276.360724
 30
0.0
 11
355.1059739999999
 21
276.360724
 31
0.0
  0
LINE
  5
C843
330
C587
100
AcDbEntity
  8
1
  6
Continuous
100
AcDbLine
 10
358.1045449999999
 20
267.3607239999999
 30
0.0
 11
358.1045449999999
 21
272.5115859999998
 31
0.0
  0
LINE
  5
C844
330
C587
100
AcDbEntity
  8
1
  6
Continuous
100
AcDbLine
 10
350.3253609999999
 20
274.3815389999999
 30
0.0
 11
350.3253609999999
 21
273.635486
 31
0.0
  0
ARC
  5
C845
330
C587
100
AcDbEntity
  8
1
  6
Continuous
100
AcDbCircle
 10
352.6045449999998
 20
266.860724
 30
0.0
 40
0.5
100
AcDbArc
 50
0.0
 51
90.0
  0
LINE
  5
C846
330
C587
100
AcDbEntity
  8
1
  6
Continuous
100
AcDbLine
 10
353.1045449999999
 20
265.860724
 30
0.0
 11
354.533831
 21
265.860724
 31
0.0
  0
ARC
  5
C847
330
C587
100
AcDbEntity
  8
1
  6
Continuous
100
AcDbCircle
 10
349.6045449999999
 20
265.960724
 30
0.0
 40
8.4
100
AcDbArc
 50
9.561571
 51
85.077318
  0
ARC
  5
C848
330
C587
100
AcDbEntity
  8
1
  6
Continuous
100
AcDbCircle
 10
353.1253609999998
 20
274.3815389999999
 30
0.0
 40
2.799999999999998
100
AcDbArc
 50
45.0
 51
180.0
  0
ARC
  5
C849
330
C587
100
AcDbEntity
  8
1
  6
Continuous
100
AcDbCircle
 10
341.1045449999998
 20
262.360724
 30
0.0
 40
19.8
100
AcDbArc
 50
12.96436
 51
45.0
  0
ARC
  5
C84A
330
C587
100
AcDbEntity
  8
1
  6
Continuous
100
AcDbCircle
 10
349.6045449999999
 20
266.860724
 30
0.0
 40
8.5
100
AcDbArc
 50
3.372139999999999
 51
84.05093800000001
  0
ARC
  5
C84B
330
C587
100
AcDbEntity
  8
5
  6
PHANTOM
100
AcDbCircle
 10
348.175612
 20
283.573927
 30
0.0
 40
5.0
100
AcDbArc
 50
45.0
 51
135.0
  0
LINE
  5
C84C
330
C587
100
AcDbEntity
  8
1
  6
Continuous
100
AcDbLine
 10
401.1045449999998
 20
272.360724
 30
0.0
 11
411.1045449999998
 21
262.360724
 31
0.0
  0
ARC
  5
C84D
330
C587
100
AcDbEntity
  8
1
  6
Continuous
100
AcDbCircle
 10
377.4600019999998
 20
263.9315199999999
 30
0.0
 40
0.333392
100
AcDbArc
 50
0.0
 51
79.896
  0
LINE
  5
C84E
330
C587
100
AcDbEntity
  8
1
  6
Continuous
100
AcDbLine
 10
376.459894
 20
264.3754099999998
 30
0.0
 11
376.459894
 21
259.724031
 31
0.0
  0
LINE
  5
C84F
330
C587
100
AcDbEntity
  8
1
  6
Continuous
100
AcDbLine
 10
377.1257299999998
 20
264.2441379999999
 30
0.0
 11
377.1257299999998
 21
259.855303
 31
0.0
  0
LINE
  5
C850
330
C587
100
AcDbEntity
  8
1
  6
Continuous
100
AcDbLine
 10
378.4587559999998
 20
264.2414309999999
 30
0.0
 11
378.4587559999998
 21
260.067775
 31
0.0
  0
LINE
  5
C851
330
C587
100
AcDbEntity
  8
1
  6
Continuous
100
AcDbLine
 10
374.4596789999998
 20
262.8502119999997
 30
0.0
 11
374.4596789999998
 21
264.122338
 31
0.0
  0
ARC
  5
C852
330
C587
100
AcDbEntity
  8
1
  6
Continuous
100
AcDbCircle
 10
374.1267609999999
 20
263.7812999999998
 30
0.0
 40
0.333392
100
AcDbArc
 50
105.2575
 51
180.0
  0
LINE
  5
C853
330
C587
100
AcDbEntity
  8
1
  6
Continuous
100
AcDbLine
 10
375.1268679999999
 20
264.319924
 30
0.0
 11
375.1268679999999
 21
259.7795169999999
 31
0.0
  0
LINE
  5
C854
330
C587
100
AcDbEntity
  8
1
  6
Continuous
100
AcDbLine
 10
375.7927049999998
 20
264.3754099999998
 30
0.0
 11
375.7927049999998
 21
259.724031
 31
0.0
  0
ARC
  5
C855
330
C587
100
AcDbEntity
  8
1
  6
Continuous
100
AcDbCircle
 10
376.125623
 20
256.4503359999998
 30
0.0
 40
8.599396
100
AcDbArc
 50
54.46200000000001
 51
125.5376999999999
  0
LINE
  5
C856
330
C587
100
AcDbEntity
  8
5
  6
PHANTOM
100
AcDbLine
 10
390.6020189999999
 20
227.005385
 30
0.0
 11
390.6020189999999
 21
212.863249
 31
0.0
  0
LINE
  5
C857
330
C587
100
AcDbEntity
  8
5
  6
PHANTOM
100
AcDbLine
 10
387.066485
 20
209.327715
 30
0.0
 11
390.6020189999999
 21
212.863249
 31
0.0
  0
ARC
  5
C858
330
C587
100
AcDbEntity
  8
5
  6
PHANTOM
100
AcDbCircle
 10
383.5309509999996
 20
212.863249
 30
0.0
 40
5.0
100
AcDbArc
 50
225.0
 51
315.0
  0
ARC
  5
C859
330
C587
100
AcDbEntity
  8
1
  6
Continuous
100
AcDbCircle
 10
395.862364
 20
261.572428
 30
0.0
 40
1.000599999999999
100
AcDbArc
 50
227.13
 51
312.87
  0
ARC
  5
C85A
330
C587
100
AcDbEntity
  8
1
  6
Continuous
100
AcDbCircle
 10
395.862364
 20
262.771228
 30
0.0
 40
1.000599999999999
100
AcDbArc
 50
47.1304
 51
132.8699999999996
  0
ARC
  5
C85B
330
C587
100
AcDbEntity
  8
5
  6
PHANTOM
100
AcDbCircle
 10
379.9954179999998
 20
244.683054
 30
0.0
 40
5.0
100
AcDbArc
 50
135.0
 51
225.0
  0
LINE
  5
C85C
330
C587
100
AcDbEntity
  8
5
  6
PHANTOM
100
AcDbLine
 10
376.4598839999999
 20
241.1475199999999
 30
0.0
 11
390.6020189999999
 21
227.005385
 31
0.0
  0
LINE
  5
C85D
330
C587
100
AcDbEntity
  8
5
  6
PHANTOM
100
AcDbLine
 10
376.4598839999999
 20
248.2185879999999
 30
0.0
 11
379.9954179999998
 21
251.754122
 31
0.0
  0
ARC
  5
C85E
330
C587
100
AcDbEntity
  8
1
  6
Continuous
100
AcDbCircle
 10
376.125623
 20
267.6491049999999
 30
0.0
 40
8.599396
100
AcDbArc
 50
234.4619999999999
 51
305.5379999999999
  0
ARC
  5
C85F
330
C587
100
AcDbEntity
  8
1
  6
Continuous
100
AcDbCircle
 10
376.125623
 20
267.6491049999999
 30
0.0
 40
7.932788
100
AcDbArc
 50
277.793
 51
280.104
  0
ARC
  5
C860
330
C587
100
AcDbEntity
  8
1
  6
Continuous
100
AcDbCircle
 10
377.193396
 20
259.855303
 30
0.0
 40
0.066678
100
AcDbArc
 50
180.0
 51
277.793
  0
LINE
  5
C861
330
C587
100
AcDbEntity
  8
1
  6
Continuous
100
AcDbLine
 10
377.7929199999999
 20
262.0503969999999
 30
0.0
 11
377.4600019999998
 21
262.0503969999999
 31
0.0
  0
LINE
  5
C862
330
C587
100
AcDbEntity
  8
1
  6
Continuous
100
AcDbLine
 10
379.7931349999998
 20
262.3833149999999
 30
0.0
 11
379.7931349999998
 21
263.8070139999999
 31
0.0
  0
LINE
  5
C863
330
C587
100
AcDbEntity
  8
1
  6
Continuous
100
AcDbLine
 10
379.4588629999998
 20
262.0503969999999
 30
0.0
 11
379.4588629999998
 21
260.4507659999999
 31
0.0
  0
ARC
  5
C864
330
C587
100
AcDbEntity
  8
1
  6
Continuous
100
AcDbCircle
 10
379.4588629999998
 20
262.3833149999999
 30
0.0
 40
0.333392
100
AcDbArc
 50
180.0
 51
0.0
  0
ARC
  5
C865
330
C587
100
AcDbEntity
  8
1
  6
Continuous
100
AcDbCircle
 10
377.4600019999998
 20
260.1679209999999
 30
0.0
 40
0.333392
100
AcDbArc
 50
280.104
 51
0.0
  0
LINE
  5
C866
330
C587
100
AcDbEntity
  8
1
  6
Continuous
100
AcDbLine
 10
377.7929199999999
 20
260.1679209999999
 30
0.0
 11
377.7929199999999
 21
262.0503969999999
 31
0.0
  0
LINE
  5
C867
330
C587
100
AcDbEntity
  8
1
  6
Continuous
100
AcDbLine
 10
373.1266529999999
 20
263.6946879999999
 30
0.0
 11
373.1266529999999
 21
260.4061069999999
 31
0.0
  0
LINE
  5
C868
330
C587
100
AcDbEntity
  8
1
  6
Continuous
100
AcDbLine
 10
375.7927049999998
 20
262.0503969999999
 30
0.0
 11
375.1268679999999
 21
262.0503969999999
 31
0.0
  0
ARC
  5
C869
330
C587
100
AcDbEntity
  8
1
  6
Continuous
100
AcDbCircle
 10
373.0603399999998
 20
263.6946879999999
 30
0.0
 40
0.066678
100
AcDbArc
 50
0.0
 51
112.9439999999999
  0
ARC
  5
C86A
330
C587
100
AcDbEntity
  8
1
  6
Continuous
100
AcDbCircle
 10
374.1267609999999
 20
260.3181399999999
 30
0.0
 40
0.333392
100
AcDbArc
 50
180.0
 51
254.742
  0
ARC
  5
C86B
330
C587
100
AcDbEntity
  8
1
  6
Continuous
100
AcDbCircle
 10
376.125623
 20
267.6491049999999
 30
0.0
 40
7.932788
100
AcDbArc
 50
254.742
 51
254.794
  0
ARC
  5
C86C
330
C587
100
AcDbEntity
  8
1
  6
Continuous
100
AcDbCircle
 10
376.125623
 20
267.6491049999999
 30
0.0
 40
7.932788
100
AcDbArc
 50
254.794
 51
257.2709999999996
  0
ARC
  5
C86D
330
C587
100
AcDbEntity
  8
1
  6
Continuous
100
AcDbCircle
 10
374.393366
 20
259.9771019999999
 30
0.0
 40
0.066678
100
AcDbArc
 50
257.2709999999996
 51
0.0
  0
LINE
  5
C86E
330
C587
100
AcDbEntity
  8
1
  6
Continuous
100
AcDbLine
 10
373.7924889999999
 20
263.7812999999998
 30
0.0
 11
373.7924889999999
 21
260.3181399999999
 31
0.0
  0
LINE
  5
C86F
330
C587
100
AcDbEntity
  8
1
  6
Continuous
100
AcDbLine
 10
374.4596789999998
 20
259.9771019999999
 30
0.0
 11
374.4596789999998
 21
261.2505819999999
 31
0.0
  0
ARC
  5
C870
330
C587
100
AcDbEntity
  8
1
  6
Continuous
100
AcDbCircle
 10
373.0603399999998
 20
260.4061069999999
 30
0.0
 40
0.066678
100
AcDbArc
 50
247.0559999999999
 51
0.0
  0
LINE
  5
C871
330
C587
100
AcDbEntity
  8
1
  6
Continuous
100
AcDbLine
 10
372.459464
 20
260.820224
 30
0.0
 11
372.459464
 21
263.279217
 31
0.0
  0
ARC
  5
C872
330
C587
100
AcDbEntity
  8
1
  6
Continuous
100
AcDbCircle
 10
372.126546
 20
262.0503969999999
 30
0.0
 40
1.717978999999996
100
AcDbArc
 50
125.5376999999999
 51
166.5373999999999
  0
ARC
  5
C873
330
C587
100
AcDbEntity
  8
1
  6
Continuous
100
AcDbCircle
 10
372.126546
 20
262.0503969999999
 30
0.0
 40
1.717978999999996
100
AcDbArc
 50
180.0
 51
234.4619999999999
  0
ARC
  5
C874
330
C587
100
AcDbEntity
  8
1
  6
Continuous
100
AcDbCircle
 10
372.793735
 20
263.279217
 30
0.0
 40
0.333392
100
AcDbArc
 50
116.0144
 51
180.0
  0
ARC
  5
C875
330
C587
100
AcDbEntity
  8
1
  6
Continuous
100
AcDbCircle
 10
372.793735
 20
260.820224
 30
0.0
 40
0.333392
100
AcDbArc
 50
180.0
 51
243.9859999999999
  0
ARC
  5
C876
330
C587
100
AcDbEntity
  8
1
  6
Continuous
100
AcDbCircle
 10
376.125623
 20
256.4503359999998
 30
0.0
 40
7.932788
100
AcDbArc
 50
112.9439999999999
 51
116.0144
  0
ARC
  5
C877
330
C587
100
AcDbEntity
  8
1
  6
Continuous
100
AcDbCircle
 10
376.125623
 20
267.6491049999999
 30
0.0
 40
7.932788
100
AcDbArc
 50
243.9859999999999
 51
247.0559999999999
  0
LINE
  5
C878
330
C587
100
AcDbEntity
  8
1
  6
Continuous
100
AcDbLine
 10
377.7929199999999
 20
262.8502119999997
 30
0.0
 11
377.7929199999999
 21
263.9315199999999
 31
0.0
  0
LINE
  5
C879
330
C587
100
AcDbEntity
  8
1
  6
Continuous
100
AcDbLine
 10
379.125945
 20
263.9274599999998
 30
0.0
 11
379.125945
 21
262.3833149999999
 31
0.0
  0
LINE
  5
C87A
330
C587
100
AcDbEntity
  8
1
  6
Continuous
100
AcDbLine
 10
371.7936279999996
 20
263.87874
 30
0.0
 11
371.7936279999996
 21
261.004276
 31
0.0
  0
ARC
  5
C87B
330
C587
100
AcDbEntity
  8
5
  6
PHANTOM
100
AcDbCircle
 10
376.4598839999999
 20
255.289656
 30
0.0
 40
5.0
100
AcDbArc
 50
315.0
 51
45.0
  0
ARC
  5
C87C
330
C587
100
AcDbEntity
  8
1
  6
Continuous
100
AcDbCircle
 10
395.7504119999999
 20
261.4518279999999
 30
0.0
 40
0.8360479999999999
100
AcDbArc
 50
193.0139999999999
 51
227.13
  0
ARC
  5
C87D
330
C587
100
AcDbEntity
  8
1
  6
Continuous
100
AcDbCircle
 10
395.7504119999999
 20
262.8918279999999
 30
0.0
 40
0.8360479999999999
100
AcDbArc
 50
132.8699999999996
 51
198.208
  0
ARC
  5
C87E
330
C587
100
AcDbEntity
  8
1
  6
Continuous
100
AcDbCircle
 10
388.0939779999998
 20
262.265844
 30
0.0
 40
1.708047999999998
100
AcDbArc
 50
318.932
 51
41.0679
  0
LINE
  5
C87F
330
C587
100
AcDbEntity
  8
1
  6
Continuous
100
AcDbLine
 10
391.0688099999999
 20
262.171828
 30
0.0
 11
392.0712899999998
 21
262.171828
 31
0.0
  0
LINE
  5
C880
330
C587
100
AcDbEntity
  8
1
  6
Continuous
100
AcDbLine
 10
385.27345
 20
263.7718279999999
 30
0.0
 11
385.27345
 21
260.571828
 31
0.0
  0
ARC
  5
C881
330
C587
100
AcDbEntity
  8
1
  6
Continuous
100
AcDbCircle
 10
388.8220659999999
 20
262.265844
 30
0.0
 40
1.708047999999998
100
AcDbArc
 50
138.9319999999997
 51
221.0679999999999
  0
ARC
  5
C882
330
C587
100
AcDbEntity
  8
1
  6
Continuous
100
AcDbCircle
 10
388.4580259999999
 20
261.9486279999999
 30
0.0
 40
1.225184
100
AcDbArc
 50
221.0679999999999
 51
318.932
  0
ARC
  5
C883
330
C587
100
AcDbEntity
  8
1
  6
Continuous
100
AcDbCircle
 10
388.4580259999999
 20
262.58306
 30
0.0
 40
1.225184
100
AcDbArc
 50
41.0679
 51
138.9319999999997
  0
ARC
  5
C884
330
C587
100
AcDbEntity
  8
1
  6
Continuous
100
AcDbCircle
 10
380.1260529999996
 20
262.0503969999999
 30
0.0
 40
1.717978999999996
100
AcDbArc
 50
332.25
 51
54.46200000000001
  0
ARC
  5
C885
330
C587
100
AcDbEntity
  8
1
  6
Continuous
100
AcDbCircle
 10
380.1260529999996
 20
262.0503969999999
 30
0.0
 40
1.717978999999996
100
AcDbArc
 50
305.5379999999999
 51
315.699
  0
LINE
  5
C886
330
C587
100
AcDbEntity
  8
1
  6
Continuous
100
AcDbLine
 10
380.131466
 20
260.802631
 30
0.0
 11
380.885268
 21
263.612135
 31
0.0
  0
LINE
  5
C887
330
C587
100
AcDbEntity
  8
1
  6
Continuous
100
AcDbLine
 10
381.8434229999999
 20
262.0503969999999
 30
0.0
 11
380.465738
 21
262.0503969999999
 31
0.0
  0
LINE
  5
C888
330
C587
100
AcDbEntity
  8
1
  6
Continuous
100
AcDbLine
 10
384.019042
 20
263.7718279999999
 30
0.0
 11
386.5390019999999
 21
263.7718279999999
 31
0.0
  0
ARC
  5
C889
330
C587
100
AcDbEntity
  8
1
  6
Continuous
100
AcDbCircle
 10
406.1045449999999
 20
257.360724
 30
0.0
 40
5.0
100
AcDbArc
 50
270.0
 51
0.0
  0
LINE
  5
C88A
330
C587
100
AcDbEntity
  8
1
  6
Continuous
100
AcDbLine
 10
411.1045449999998
 20
257.360724
 30
0.0
 11
411.1045449999998
 21
262.360724
 31
0.0
  0
LINE
  5
C88B
330
C587
100
AcDbEntity
  8
1
  6
Continuous
100
AcDbLine
 10
407.4119379999998
 20
262.792468
 30
0.0
 11
407.4119379999998
 21
261.5511879999999
 31
0.0
  0
ARC
  5
C88C
330
C587
100
AcDbEntity
  8
1
  6
Continuous
100
AcDbCircle
 10
406.463938
 20
261.4987719999999
 30
0.0
 40
0.9267839999999999
100
AcDbArc
 50
224.072
 51
315.927
  0
ARC
  5
C88D
330
C587
100
AcDbEntity
  8
1
  6
Continuous
100
AcDbCircle
 10
406.5180980000001
 20
261.5511879999999
 30
0.0
 40
1.002143999999999
100
AcDbArc
 50
180.0
 51
224.072
  0
ARC
  5
C88E
330
C587
100
AcDbEntity
  8
1
  6
Continuous
100
AcDbCircle
 10
406.463938
 20
262.8448839999999
 30
0.0
 40
0.9267839999999999
100
AcDbArc
 50
44.0725
 51
135.928
  0
ARC
  5
C88F
330
C587
100
AcDbEntity
  8
1
  6
Continuous
100
AcDbCircle
 10
406.5180980000001
 20
262.792468
 30
0.0
 40
1.002143999999999
100
AcDbArc
 50
135.928
 51
180.0
  0
LINE
  5
C890
330
C587
100
AcDbEntity
  8
1
  6
Continuous
100
AcDbLine
 10
405.515938
 20
262.792468
 30
0.0
 11
405.515938
 21
261.5511879999999
 31
0.0
  0
LINE
  5
C891
330
C587
100
AcDbEntity
  8
1
  6
Continuous
100
AcDbLine
 10
403.996872
 20
262.171828
 30
0.0
 11
404.9993519999999
 21
262.171828
 31
0.0
  0
ARC
  5
C892
330
C587
100
AcDbEntity
  8
1
  6
Continuous
100
AcDbCircle
 10
406.4097779999998
 20
261.5511879999999
 30
0.0
 40
1.002143999999999
100
AcDbArc
 50
315.927
 51
0.0
  0
ARC
  5
C893
330
C587
100
AcDbEntity
  8
1
  6
Continuous
100
AcDbCircle
 10
406.4097779999998
 20
262.792468
 30
0.0
 40
1.002143999999999
100
AcDbArc
 50
0.0
 51
44.0725
  0
LINE
  5
C894
330
C587
100
AcDbEntity
  8
1
  6
Continuous
100
AcDbLine
 10
400.873159
 20
260.571828
 30
0.0
 11
402.772599
 21
260.571828
 31
0.0
  0
LINE
  5
C895
330
C587
100
AcDbEntity
  8
1
  6
Continuous
100
AcDbLine
 10
400.873159
 20
260.571828
 30
0.0
 11
402.545983
 21
262.32082
 31
0.0
  0
ARC
  5
C896
330
C587
100
AcDbEntity
  8
1
  6
Continuous
100
AcDbCircle
 10
401.7109269999998
 20
262.8918279999999
 30
0.0
 40
0.8360479999999999
100
AcDbArc
 50
132.8699999999996
 51
204.2769999999999
  0
ARC
  5
C897
330
C587
100
AcDbEntity
  8
1
  6
Continuous
100
AcDbCircle
 10
401.9348309999998
 20
262.8918279999999
 30
0.0
 40
0.8360479999999999
100
AcDbArc
 50
312.87
 51
47.1304
  0
ARC
  5
C898
330
C587
100
AcDbEntity
  8
1
  6
Continuous
100
AcDbCircle
 10
401.822879
 20
262.771228
 30
0.0
 40
1.000599999999999
100
AcDbArc
 50
47.1304
 51
132.8699999999996
  0
ARC
  5
C899
330
C587
100
AcDbEntity
  8
1
  6
Continuous
100
AcDbCircle
 10
395.9743159999999
 20
261.4518279999999
 30
0.0
 40
0.8360479999999999
100
AcDbArc
 50
312.87
 51
47.1304
  0
ARC
  5
C89A
330
C587
100
AcDbEntity
  8
1
  6
Continuous
100
AcDbCircle
 10
395.9743159999999
 20
262.8918279999999
 30
0.0
 40
0.8360479999999999
100
AcDbArc
 50
312.87
 51
47.1304
  0
ARC
  5
C89B
330
C587
100
AcDbEntity
  8
1
  6
Continuous
100
AcDbCircle
 10
395.862364
 20
261.331225
 30
0.0
 40
1.000599999999999
100
AcDbArc
 50
47.1304
 51
57.1503
  0
ARC
  5
C89C
330
C587
100
AcDbEntity
  8
1
  6
Continuous
100
AcDbCircle
 10
395.862364
 20
263.0124279999999
 30
0.0
 40
1.000599999999999
100
AcDbArc
 50
302.85
 51
312.87
  0
ARC
  5
C89D
330
C587
100
AcDbEntity
  8
1
  6
Continuous
100
AcDbCircle
 10
398.943809
 20
262.8448839999999
 30
0.0
 40
0.9267839999999999
100
AcDbArc
 50
44.0725
 51
135.928
  0
ARC
  5
C89E
330
C587
100
AcDbEntity
  8
1
  6
Continuous
100
AcDbCircle
 10
398.943809
 20
261.4987719999999
 30
0.0
 40
0.9267839999999999
100
AcDbArc
 50
224.072
 51
315.927
  0
LINE
  5
C89F
330
C587
100
AcDbEntity
  8
1
  6
Continuous
100
AcDbLine
 10
397.995809
 20
262.792468
 30
0.0
 11
397.995809
 21
261.5511879999999
 31
0.0
  0
ARC
  5
C8A0
330
C587
100
AcDbEntity
  8
1
  6
Continuous
100
AcDbCircle
 10
398.997969
 20
262.792468
 30
0.0
 40
1.002143999999999
100
AcDbArc
 50
135.928
 51
180.0
  0
ARC
  5
C8A1
330
C587
100
AcDbEntity
  8
1
  6
Continuous
100
AcDbCircle
 10
398.997969
 20
261.5511879999999
 30
0.0
 40
1.002143999999999
100
AcDbArc
 50
180.0
 51
224.072
  0
LINE
  5
C8A2
330
C587
100
AcDbEntity
  8
1
  6
Continuous
100
AcDbLine
 10
399.8918089999999
 20
262.792468
 30
0.0
 11
399.8918089999999
 21
261.5511879999999
 31
0.0
  0
ARC
  5
C8A3
330
C587
100
AcDbEntity
  8
1
  6
Continuous
100
AcDbCircle
 10
398.889649
 20
262.792468
 30
0.0
 40
1.002143999999999
100
AcDbArc
 50
0.0
 51
44.0725
  0
ARC
  5
C8A4
330
C587
100
AcDbEntity
  8
1
  6
Continuous
100
AcDbCircle
 10
398.889649
 20
261.5511879999999
 30
0.0
 40
1.002143999999999
100
AcDbArc
 50
315.927
 51
0.0
  0
LINE
  5
C8A5
330
C587
100
AcDbEntity
  8
1
  6
Continuous
100
AcDbLine
 10
395.9367959999998
 20
262.171828
 30
0.0
 11
396.4051319999999
 21
262.171828
 31
0.0
  0
LINE
  5
C8B5
330
C587
100
AcDbEntity
  8
1
  6
Continuous
100
AcDbLine
 10
381.104545
 20
272.360724
 30
0.0
 11
401.1045449999998
 21
272.360724
 31
0.0
  0
ARC
  5
C8B6
330
C587
100
AcDbEntity
  8
1
  6
Continuous
100
AcDbCircle
 10
371.1045449999998
 20
282.360724
 30
0.0
 40
5.0
100
AcDbArc
 50
0.0
 51
90.0
  0
ARC
  5
C8B7
330
C587
100
AcDbEntity
  8
1
  6
Continuous
100
AcDbCircle
 10
381.104545
 20
277.360724
 30
0.0
 40
5.0
100
AcDbArc
 50
180.0
 51
270.0
  0
LINE
  5
C8B8
330
C587
100
AcDbEntity
  8
1
  6
Continuous
100
AcDbLine
 10
376.1045449999999
 20
277.360724
 30
0.0
 11
376.1045449999999
 21
282.360724
 31
0.0
  0
ARC
  5
C8B9
330
C587
100
AcDbEntity
  8
1
  6
Continuous
100
AcDbCircle
 10
376.125623
 20
256.4503359999998
 30
0.0
 40
7.932788
100
AcDbArc
 50
79.896
 51
82.20699999999999
  0
ARC
  5
C8BA
330
C587
100
AcDbEntity
  8
1
  6
Continuous
100
AcDbCircle
 10
377.193396
 20
264.2441379999999
 30
0.0
 40
0.066678
100
AcDbArc
 50
82.20699999999999
 51
180.0
  0
ARC
  5
C8BB
330
C587
100
AcDbEntity
  8
1
  6
Continuous
100
AcDbCircle
 10
374.393366
 20
264.122338
 30
0.0
 40
0.066678
100
AcDbArc
 50
0.0
 51
102.7288999999999
  0
ARC
  5
C8BC
330
C587
100
AcDbEntity
  8
1
  6
Continuous
100
AcDbCircle
 10
376.125623
 20
256.4503359999998
 30
0.0
 40
7.932788
100
AcDbArc
 50
102.7288999999999
 51
103.2680999999999
  0
ARC
  5
C8BD
330
C587
100
AcDbEntity
  8
1
  6
Continuous
100
AcDbCircle
 10
376.125623
 20
256.4503359999998
 30
0.0
 40
7.932788
100
AcDbArc
 50
103.2680999999999
 51
105.2575
  0
LINE
  5
C8CD
330
C587
100
AcDbEntity
  8
1
  6
Continuous
100
AcDbLine
 10
50.418821
 20
381.860724
 30
0.0
 11
73.19026700000001
 21
381.860724
 31
0.0
  0
LINE
  5
C8CE
330
C587
100
AcDbEntity
  8
1
  6
Continuous
100
AcDbLine
 10
50.418821
 20
383.0607239999998
 30
0.0
 11
73.826091
 21
383.0607239999998
 31
0.0
  0
LINE
  5
C8CF
330
C587
100
AcDbEntity
  8
1
  6
Continuous
100
AcDbLine
 10
53.918821
 20
385.460724
 30
0.0
 11
71.418821
 21
385.460724
 31
0.0
  0
LINE
  5
C8D0
330
C587
100
AcDbEntity
  8
1
  6
Continuous
100
AcDbLine
 10
53.918821
 20
379.2607239999999
 30
0.0
 11
70.41882099999998
 21
379.2607239999999
 31
0.0
  0
LINE
  5
C8D1
330
C587
100
AcDbEntity
  8
4
  6
CENTER
100
AcDbLine
 10
24.173308
 20
382.360724
 30
0.0
 11
75.207729
 21
382.360724
 31
0.0
  0
LINE
  5
C8D2
330
C587
100
AcDbEntity
  8
1
  6
Continuous
100
AcDbLine
 10
31.98918799999999
 20
393.360724
 30
0.0
 11
36.252154
 21
393.360724
 31
0.0
  0
LINE
  5
C8D3
330
C587
100
AcDbEntity
  8
1
  6
Continuous
100
AcDbLine
 10
36.252154
 20
371.3607239999998
 30
0.0
 11
31.98918799999999
 21
371.3607239999998
 31
0.0
  0
LINE
  5
C8D4
330
C587
100
AcDbEntity
  8
1
  6
Continuous
100
AcDbLine
 10
31.98918799999999
 20
394.360724
 30
0.0
 11
36.252154
 21
394.360724
 31
0.0
  0
LINE
  5
C8D5
330
C587
100
AcDbEntity
  8
1
  6
Continuous
100
AcDbLine
 10
31.98918799999999
 20
370.360724
 30
0.0
 11
36.252154
 21
370.360724
 31
0.0
  0
LINE
  5
C8D6
330
C587
100
AcDbEntity
  8
1
  6
Continuous
100
AcDbLine
 10
31.15713799999999
 20
371.8060239999999
 30
0.0
 11
27.086771
 21
377.911575
 31
0.0
  0
LINE
  5
C8D7
330
C587
100
AcDbEntity
  8
1
  6
Continuous
100
AcDbLine
 10
26.25472
 20
377.3568749999999
 30
0.0
 11
30.325088
 21
371.251324
 31
0.0
  0
ARC
  5
C8D8
330
C587
100
AcDbEntity
  8
1
  6
Continuous
100
AcDbCircle
 10
31.98918799999999
 20
372.360724
 30
0.0
 40
1.0
100
AcDbArc
 50
213.690068
 51
270.0
  0
ARC
  5
C8D9
330
C587
100
AcDbEntity
  8
1
  6
Continuous
100
AcDbCircle
 10
31.98918799999999
 20
372.360724
 30
0.0
 40
2.0
100
AcDbArc
 50
213.690068
 51
270.0
  0
ARC
  5
C8DA
330
C587
100
AcDbEntity
  8
1
  6
Continuous
100
AcDbCircle
 10
31.98918799999999
 20
392.3607239999999
 30
0.0
 40
1.0
100
AcDbArc
 50
90.0
 51
146.3099319999996
  0
ARC
  5
C8DB
330
C587
100
AcDbEntity
  8
1
  6
Continuous
100
AcDbCircle
 10
31.98918799999999
 20
392.3607239999999
 30
0.0
 40
2.0
100
AcDbArc
 50
90.0
 51
146.3099319999996
  0
ARC
  5
C8DC
330
C587
100
AcDbEntity
  8
1
  6
Continuous
100
AcDbCircle
 10
27.918821
 20
386.255173
 30
0.0
 40
1.0
100
AcDbArc
 50
146.3099319999996
 51
180.0
  0
LINE
  5
C8DD
330
C587
100
AcDbEntity
  8
1
  6
Continuous
100
AcDbLine
 10
26.918821
 20
378.4662749999998
 30
0.0
 11
26.918821
 21
386.255173
 31
0.0
  0
ARC
  5
C8DE
330
C587
100
AcDbEntity
  8
1
  6
Continuous
100
AcDbCircle
 10
27.918821
 20
378.4662749999998
 30
0.0
 40
1.0
100
AcDbArc
 50
180.0
 51
213.690068
  0
ARC
  5
C8DF
330
C587
100
AcDbEntity
  8
1
  6
Continuous
100
AcDbCircle
 10
28.418821
 20
385.8607239999998
 30
0.0
 40
0.5
100
AcDbArc
 50
90.0
 51
180.0
  0
ARC
  5
C8E0
330
C587
100
AcDbEntity
  8
1
  6
Continuous
100
AcDbCircle
 10
27.918821
 20
378.4662749999998
 30
0.0
 40
2.0
100
AcDbArc
 50
180.0
 51
213.690068
  0
ARC
  5
C8E1
330
C587
100
AcDbEntity
  8
1
  6
Continuous
100
AcDbCircle
 10
27.918821
 20
386.255173
 30
0.0
 40
2.0
100
AcDbArc
 50
146.3099319999996
 51
180.0
  0
ARC
  5
C8E2
330
C587
100
AcDbEntity
  8
1
  6
Continuous
100
AcDbCircle
 10
31.418821
 20
385.8607239999998
 30
0.0
 40
0.5
100
AcDbArc
 50
0.0
 51
90.0
  0
ARC
  5
C8E3
330
C587
100
AcDbEntity
  8
1
  6
Continuous
100
AcDbCircle
 10
31.418821
 20
378.860724
 30
0.0
 40
0.5
100
AcDbArc
 50
270.0
 51
0.0
  0
ARC
  5
C8E4
330
C587
100
AcDbEntity
  8
1
  6
Continuous
100
AcDbCircle
 10
28.418821
 20
378.860724
 30
0.0
 40
0.5
100
AcDbArc
 50
180.0
 51
270.0
  0
LINE
  5
C8E5
330
C587
100
AcDbEntity
  8
1
  6
Continuous
100
AcDbLine
 10
28.418821
 20
386.360724
 30
0.0
 11
31.418821
 21
386.360724
 31
0.0
  0
LINE
  5
C8E6
330
C587
100
AcDbEntity
  8
1
  6
Continuous
100
AcDbLine
 10
28.418821
 20
378.360724
 30
0.0
 11
31.418821
 21
378.360724
 31
0.0
  0
LINE
  5
C8E7
330
C587
100
AcDbEntity
  8
1
  6
Continuous
100
AcDbLine
 10
31.918821
 20
385.8607239999998
 30
0.0
 11
31.918821
 21
378.860724
 31
0.0
  0
LINE
  5
C8E8
330
C587
100
AcDbEntity
  8
1
  6
Continuous
100
AcDbLine
 10
27.918821
 20
385.8607239999998
 30
0.0
 11
27.918821
 21
378.860724
 31
0.0
  0
LINE
  5
C8E9
330
C587
100
AcDbEntity
  8
1
  6
Continuous
100
AcDbLine
 10
25.91882099999999
 20
386.255173
 30
0.0
 11
25.91882099999999
 21
378.4662749999998
 31
0.0
  0
LINE
  5
C8EA
330
C587
100
AcDbEntity
  8
1
  6
Continuous
100
AcDbLine
 10
31.15713799999999
 20
392.9154239999999
 30
0.0
 11
27.086771
 21
386.8098729999999
 31
0.0
  0
LINE
  5
C8EB
330
C587
100
AcDbEntity
  8
1
  6
Continuous
100
AcDbLine
 10
26.25472
 20
387.364573
 30
0.0
 11
30.325088
 21
393.4701239999998
 31
0.0
  0
LINE
  5
C8EC
330
C587
100
AcDbEntity
  8
1
  6
Continuous
100
AcDbLine
 10
46.91882099999999
 20
379.110724
 30
0.0
 11
36.852154
 21
371.5607240000001
 31
0.0
  0
LINE
  5
C8ED
330
C587
100
AcDbEntity
  8
1
  6
Continuous
100
AcDbLine
 10
37.452154
 20
370.7607239999999
 30
0.0
 11
46.91882099999999
 21
377.8607239999999
 31
0.0
  0
ARC
  5
C8EE
330
C587
100
AcDbEntity
  8
1
  6
Continuous
100
AcDbCircle
 10
36.252154
 20
372.360724
 30
0.0
 40
1.0
100
AcDbArc
 50
270.0
 51
306.8698979999998
  0
ARC
  5
C8EF
330
C587
100
AcDbEntity
  8
1
  6
Continuous
100
AcDbCircle
 10
36.252154
 20
372.360724
 30
0.0
 40
2.0
100
AcDbArc
 50
270.0
 51
306.8698979999998
  0
LINE
  5
C8F0
330
C587
100
AcDbEntity
  8
1
  6
Continuous
100
AcDbLine
 10
46.91882099999999
 20
386.860724
 30
0.0
 11
53.61882099999998
 21
386.860724
 31
0.0
  0
LINE
  5
C8F1
330
C587
100
AcDbEntity
  8
1
  6
Continuous
100
AcDbLine
 10
46.91882099999999
 20
377.8607239999999
 30
0.0
 11
53.61882099999998
 21
377.8607239999999
 31
0.0
  0
ARC
  5
C8F2
330
C587
100
AcDbEntity
  8
1
  6
Continuous
100
AcDbCircle
 10
36.252154
 20
392.3607239999999
 30
0.0
 40
1.0
100
AcDbArc
 50
53.130102
 51
90.0
  0
ARC
  5
C8F3
330
C587
100
AcDbEntity
  8
1
  6
Continuous
100
AcDbCircle
 10
36.252154
 20
392.3607239999999
 30
0.0
 40
2.0
100
AcDbArc
 50
53.130102
 51
90.0
  0
LINE
  5
C8F4
330
C587
100
AcDbEntity
  8
1
  6
Continuous
100
AcDbLine
 10
46.91882099999999
 20
379.110724
 30
0.0
 11
46.91882099999999
 21
385.610724
 31
0.0
  0
ARC
  5
C8F5
330
C587
100
AcDbEntity
  8
1
  6
Continuous
100
AcDbCircle
 10
36.918031
 20
377.695134
 30
0.0
 40
2.004309
100
AcDbArc
 50
270.0
 51
324.4619999999998
  0
ARC
  5
C8F6
330
C587
100
AcDbEntity
  8
1
  6
Continuous
100
AcDbCircle
 10
30.386206
 20
382.360724
 30
0.0
 40
10.032628
100
AcDbArc
 50
324.4619999999998
 51
35.53799999999997
  0
ARC
  5
C8F7
330
C587
100
AcDbEntity
  8
1
  6
Continuous
100
AcDbCircle
 10
43.451436
 20
382.360724
 30
0.0
 40
10.032628
100
AcDbArc
 50
144.462
 51
215.5377
  0
LINE
  5
C8F8
330
C587
100
AcDbEntity
  8
1
  6
Continuous
100
AcDbLine
 10
34.20551599999999
 20
382.7507069999999
 30
0.0
 11
39.632125
 21
382.7507069999999
 31
0.0
  0
LINE
  5
C8F9
330
C587
100
AcDbEntity
  8
1
  6
Continuous
100
AcDbLine
 10
34.784965
 20
377.3067299999997
 30
0.0
 11
38.138505
 21
377.3067299999997
 31
0.0
  0
LINE
  5
C8FA
330
C587
100
AcDbEntity
  8
1
  6
Continuous
100
AcDbLine
 10
38.35323300000001
 20
378.083539
 30
0.0
 11
35.484408
 21
378.083539
 31
0.0
  0
LINE
  5
C8FB
330
C587
100
AcDbEntity
  8
1
  6
Continuous
100
AcDbLine
 10
34.99969199999998
 20
378.8619259999999
 30
0.0
 11
38.83637
 21
378.8619259999999
 31
0.0
  0
LINE
  5
C8FC
330
C587
100
AcDbEntity
  8
1
  6
Continuous
100
AcDbLine
 10
35.984913
 20
380.417123
 30
0.0
 11
34.500766
 21
380.417123
 31
0.0
  0
LINE
  5
C8FD
330
C587
100
AcDbEntity
  8
1
  6
Continuous
100
AcDbLine
 10
36.918031
 20
381.9723189999999
 30
0.0
 11
36.918031
 21
381.1955109999996
 31
0.0
  0
ARC
  5
C8FE
330
C587
100
AcDbEntity
  8
1
  6
Continuous
100
AcDbCircle
 10
35.484408
 20
378.4735219999998
 30
0.0
 40
0.388957
100
AcDbArc
 50
206.0144
 51
270.0
  0
ARC
  5
C8FF
330
C587
100
AcDbEntity
  8
1
  6
Continuous
100
AcDbCircle
 10
43.451436
 20
382.360724
 30
0.0
 40
9.254918999999999
100
AcDbArc
 50
202.944
 51
206.0144
  0
ARC
  5
C900
330
C587
100
AcDbEntity
  8
1
  6
Continuous
100
AcDbCircle
 10
34.99969199999998
 20
378.784561
 30
0.0
 40
0.077791
100
AcDbArc
 50
90.0
 51
202.944
  0
ARC
  5
C901
330
C587
100
AcDbEntity
  8
1
  6
Continuous
100
AcDbCircle
 10
38.35323300000001
 20
378.4735219999998
 30
0.0
 40
0.388957
100
AcDbArc
 50
270.0
 51
333.9859999999998
  0
ARC
  5
C902
330
C587
100
AcDbEntity
  8
1
  6
Continuous
100
AcDbCircle
 10
34.500766
 20
380.339758
 30
0.0
 40
0.077791
100
AcDbArc
 50
90.0
 51
192.7289
  0
ARC
  5
C903
330
C587
100
AcDbEntity
  8
1
  6
Continuous
100
AcDbCircle
 10
43.451436
 20
382.360724
 30
0.0
 40
9.254918999999999
100
AcDbArc
 50
192.7289
 51
193.2680999999999
  0
ARC
  5
C904
330
C587
100
AcDbEntity
  8
1
  6
Continuous
100
AcDbCircle
 10
43.451436
 20
382.360724
 30
0.0
 40
9.254918999999999
100
AcDbArc
 50
193.2680999999999
 51
195.2574999999999
  0
ARC
  5
C905
330
C587
100
AcDbEntity
  8
1
  6
Continuous
100
AcDbCircle
 10
34.898644
 20
380.028718
 30
0.0
 40
0.388957
100
AcDbArc
 50
195.2574999999999
 51
270.0
  0
ARC
  5
C906
330
C587
100
AcDbEntity
  8
1
  6
Continuous
100
AcDbCircle
 10
38.938997
 20
380.028718
 30
0.0
 40
0.388957
100
AcDbArc
 50
270.0
 51
344.7419999999997
  0
ARC
  5
C907
330
C587
100
AcDbEntity
  8
1
  6
Continuous
100
AcDbCircle
 10
30.386206
 20
382.360724
 30
0.0
 40
9.254918999999999
100
AcDbArc
 50
344.7419999999997
 51
344.794
  0
ARC
  5
C908
330
C587
100
AcDbEntity
  8
1
  6
Continuous
100
AcDbCircle
 10
30.386206
 20
382.360724
 30
0.0
 40
9.254918999999999
100
AcDbArc
 50
344.794
 51
347.2709999999996
  0
ARC
  5
C909
330
C587
100
AcDbEntity
  8
1
  6
Continuous
100
AcDbCircle
 10
39.33687499999999
 20
380.339758
 30
0.0
 40
0.077791
100
AcDbArc
 50
347.2709999999996
 51
90.0
  0
LINE
  5
C90A
330
C587
100
AcDbEntity
  8
1
  6
Continuous
100
AcDbLine
 10
34.898644
 20
379.6387349999998
 30
0.0
 11
38.938997
 21
379.6387349999998
 31
0.0
  0
LINE
  5
C90B
330
C587
100
AcDbEntity
  8
1
  6
Continuous
100
AcDbLine
 10
39.33687499999999
 20
380.417123
 30
0.0
 11
37.85114899999999
 21
380.417123
 31
0.0
  0
LINE
  5
C90C
330
C587
100
AcDbEntity
  8
1
  6
Continuous
100
AcDbLine
 10
34.27024999999999
 20
381.1955109999996
 30
0.0
 11
39.567391
 21
381.1955109999996
 31
0.0
  0
LINE
  5
C90D
330
C587
100
AcDbEntity
  8
1
  6
Continuous
100
AcDbLine
 10
34.20551599999999
 20
381.9723189999999
 30
0.0
 11
39.632125
 21
381.9723189999999
 31
0.0
  0
ARC
  5
C90E
330
C587
100
AcDbEntity
  8
1
  6
Continuous
100
AcDbCircle
 10
38.83637
 20
378.784561
 30
0.0
 40
0.077791
100
AcDbArc
 50
337.0559999999998
 51
90.0
  0
ARC
  5
C90F
330
C587
100
AcDbEntity
  8
1
  6
Continuous
100
AcDbCircle
 10
30.386206
 20
382.360724
 30
0.0
 40
9.254918999999999
100
AcDbArc
 50
333.9859999999998
 51
337.0559999999998
  0
LINE
  5
C910
330
C587
100
AcDbEntity
  8
1
  6
Continuous
100
AcDbLine
 10
35.984913
 20
384.3059039999998
 30
0.0
 11
34.723388
 21
384.3059039999998
 31
0.0
  0
LINE
  5
C911
330
C587
100
AcDbEntity
  8
1
  6
Continuous
100
AcDbLine
 10
36.918031
 20
384.3059039999998
 30
0.0
 11
36.918031
 21
383.917499
 31
0.0
  0
LINE
  5
C912
330
C587
100
AcDbEntity
  8
1
  6
Continuous
100
AcDbLine
 10
34.72812499999999
 20
385.8611
 30
0.0
 11
36.52962699999999
 21
385.8611
 31
0.0
  0
LINE
  5
C913
330
C587
100
AcDbEntity
  8
1
  6
Continuous
100
AcDbLine
 10
36.52962699999999
 20
386.6394879999999
 30
0.0
 11
34.868645
 21
386.6394879999999
 31
0.0
  0
LINE
  5
C914
330
C587
100
AcDbEntity
  8
1
  6
Continuous
100
AcDbLine
 10
36.918031
 20
386.249505
 30
0.0
 11
38.784267
 21
386.249505
 31
0.0
  0
LINE
  5
C915
330
C587
100
AcDbEntity
  8
1
  6
Continuous
100
AcDbLine
 10
38.373758
 20
387.0342079999998
 30
0.0
 11
35.096004
 21
387.9136439999999
 31
0.0
  0
LINE
  5
C916
330
C587
100
AcDbEntity
  8
1
  6
Continuous
100
AcDbLine
 10
36.918031
 20
389.031491
 30
0.0
 11
36.918031
 21
387.424191
 31
0.0
  0
ARC
  5
C917
330
C587
100
AcDbEntity
  8
1
  6
Continuous
100
AcDbCircle
 10
36.52962699999999
 20
386.249505
 30
0.0
 40
0.388957
100
AcDbArc
 50
270.0
 51
90.0
  0
ARC
  5
C918
330
C587
100
AcDbEntity
  8
1
  6
Continuous
100
AcDbCircle
 10
36.918031
 20
387.027892
 30
0.0
 40
2.004309
100
AcDbArc
 50
62.24999999999999
 51
144.462
  0
ARC
  5
C919
330
C587
100
AcDbEntity
  8
1
  6
Continuous
100
AcDbCircle
 10
36.918031
 20
387.027892
 30
0.0
 40
2.004309
100
AcDbArc
 50
35.53799999999997
 51
45.69899999999999
  0
ARC
  5
C91A
330
C587
100
AcDbEntity
  8
1
  6
Continuous
100
AcDbCircle
 10
34.723388
 20
383.917499
 30
0.0
 40
0.388957
100
AcDbArc
 50
90.0
 51
169.896
  0
ARC
  5
C91B
330
C587
100
AcDbEntity
  8
1
  6
Continuous
100
AcDbCircle
 10
43.451436
 20
382.360724
 30
0.0
 40
9.254918999999999
100
AcDbArc
 50
169.896
 51
172.2069999999999
  0
ARC
  5
C91C
330
C587
100
AcDbEntity
  8
1
  6
Continuous
100
AcDbCircle
 10
34.358667
 20
383.60646
 30
0.0
 40
0.077791
100
AcDbArc
 50
172.2069999999999
 51
270.0
  0
ARC
  5
C91D
330
C587
100
AcDbEntity
  8
1
  6
Continuous
100
AcDbCircle
 10
39.11425299999999
 20
383.917499
 30
0.0
 40
0.388957
100
AcDbArc
 50
10.10399999999999
 51
90.0
  0
ARC
  5
C91E
330
C587
100
AcDbEntity
  8
1
  6
Continuous
100
AcDbCircle
 10
39.478974
 20
383.60646
 30
0.0
 40
0.077791
100
AcDbArc
 50
270.0
 51
7.792999999999999
  0
ARC
  5
C91F
330
C587
100
AcDbEntity
  8
1
  6
Continuous
100
AcDbCircle
 10
30.386206
 20
382.360724
 30
0.0
 40
9.254918999999999
100
AcDbArc
 50
7.792999999999999
 51
10.10399999999999
  0
LINE
  5
C920
330
C587
100
AcDbEntity
  8
1
  6
Continuous
100
AcDbLine
 10
34.358667
 20
383.527516
 30
0.0
 11
39.478974
 21
383.527516
 31
0.0
  0
LINE
  5
C921
330
C587
100
AcDbEntity
  8
1
  6
Continuous
100
AcDbLine
 10
39.11425299999999
 20
384.3059039999998
 30
0.0
 11
36.918031
 21
384.3059039999998
 31
0.0
  0
LINE
  5
C922
330
C587
100
AcDbEntity
  8
1
  6
Continuous
100
AcDbLine
 10
34.36182500000001
 20
385.082712
 30
0.0
 11
39.23109
 21
385.082712
 31
0.0
  0
ARC
  5
C923
330
C587
100
AcDbEntity
  8
1
  6
Continuous
100
AcDbCircle
 10
36.918031
 20
377.695134
 30
0.0
 40
2.004309
100
AcDbArc
 50
215.5377
 51
256.5374
  0
LINE
  5
C924
330
C587
100
AcDbEntity
  8
1
  6
Continuous
100
AcDbLine
 10
36.852154
 20
393.160724
 30
0.0
 11
46.91882099999999
 21
385.610724
 31
0.0
  0
LINE
  5
C925
330
C587
100
AcDbEntity
  8
1
  6
Continuous
100
AcDbLine
 10
37.452154
 20
393.960724
 30
0.0
 11
46.91882099999999
 21
386.860724
 31
0.0
  0
ARC
  5
C926
330
C587
100
AcDbEntity
  8
1
  6
Continuous
100
AcDbCircle
 10
53.61882099999998
 20
378.160724
 30
0.0
 40
0.3
100
AcDbArc
 50
270.0
 51
0.0
  0
ARC
  5
C927
330
C587
100
AcDbEntity
  8
1
  6
Continuous
100
AcDbCircle
 10
53.61882099999998
 20
386.560724
 30
0.0
 40
0.3
100
AcDbArc
 50
0.0
 51
90.0
  0
LINE
  5
C928
330
C587
100
AcDbEntity
  8
1
  6
Continuous
100
AcDbLine
 10
53.918821
 20
379.2607239999999
 30
0.0
 11
53.918821
 21
378.160724
 31
0.0
  0
LINE
  5
C929
330
C587
100
AcDbEntity
  8
1
  6
Continuous
100
AcDbLine
 10
53.918821
 20
386.560724
 30
0.0
 11
53.918821
 21
385.460724
 31
0.0
  0
LINE
  5
C92A
330
C587
100
AcDbEntity
  8
1
  6
Continuous
100
AcDbLine
 10
50.418821
 20
383.0607239999998
 30
0.0
 11
50.418821
 21
381.860724
 31
0.0
  0
LINE
  5
C92B
330
C587
100
AcDbEntity
  8
1
  6
Continuous
100
AcDbLine
 10
70.41882099999998
 20
379.2607239999999
 30
0.0
 11
73.76091499999998
 21
382.396071
 31
0.0
  0
LINE
  5
C92C
330
C587
100
AcDbEntity
  8
1
  6
Continuous
100
AcDbLine
 10
71.418821
 20
385.460724
 30
0.0
 11
73.771839
 21
383.1148119999999
 31
0.0
  0
ARC
  5
C92D
330
C587
100
AcDbEntity
  8
1
  6
Continuous
100
AcDbCircle
 10
73.41882099999998
 20
382.7607239999999
 30
0.0
 40
0.5
100
AcDbArc
 50
313.1718549999998
 51
45.08664600000001
  0
LINE
  5
C92E
330
C587
100
AcDbEntity
  8
1
  6
Continuous
100
AcDbLine
 10
189.4045449999999
 20
358.8607239999997
 30
0.0
 11
189.4045449999999
 21
443.860724
 31
0.0
  0
LINE
  5
C92F
330
C587
100
AcDbEntity
  8
1
  6
Continuous
100
AcDbLine
 10
191.4045449999999
 20
358.8607239999997
 30
0.0
 11
191.4045449999999
 21
443.860724
 31
0.0
  0
LINE
  5
C930
330
C587
100
AcDbEntity
  8
1
  6
Continuous
100
AcDbLine
 10
176.9045449999999
 20
393.8607239999998
 30
0.0
 11
189.4045449999999
 21
393.8607239999998
 31
0.0
  0
LINE
  5
C931
330
C587
100
AcDbEntity
  8
1
  6
Continuous
100
AcDbLine
 10
176.9045449999999
 20
370.860724
 30
0.0
 11
189.4045449999999
 21
370.860724
 31
0.0
  0
LINE
  5
C932
330
C587
100
AcDbEntity
  8
4
  6
CENTER
100
AcDbLine
 10
169.1977409999998
 20
382.360724
 30
0.0
 11
194.6051289999999
 21
382.360724
 31
0.0
  0
LINE
  5
C933
330
C587
100
AcDbEntity
  8
1
  6
Continuous
100
AcDbLine
 10
174.4045449999999
 20
394.360724
 30
0.0
 11
175.9045449999999
 21
396.3607239999999
 31
0.0
  0
LINE
  5
C934
330
C587
100
AcDbEntity
  8
1
  6
Continuous
100
AcDbLine
 10
175.9045449999999
 20
368.360724
 30
0.0
 11
175.9045449999999
 21
396.3607239999999
 31
0.0
  0
LINE
  5
C935
330
C587
100
AcDbEntity
  8
1
  6
Continuous
100
AcDbLine
 10
176.9045449999999
 20
368.360724
 30
0.0
 11
176.9045449999999
 21
396.3607239999999
 31
0.0
  0
ARC
  5
C936
330
C587
100
AcDbEntity
  8
1
  6
Continuous
100
AcDbCircle
 10
212.6620449999999
 20
382.360724
 30
0.0
 40
40.7575
100
AcDbArc
 50
168.1062739999999
 51
191.893726
  0
LINE
  5
C937
330
C587
100
AcDbEntity
  8
4
  6
CENTER
100
AcDbLine
 10
179.9045449999999
 20
367.3783639999999
 30
0.0
 11
179.9045449999999
 21
397.3430839999999
 31
0.0
  0
LINE
  5
C938
330
C587
100
AcDbEntity
  8
1
  6
Continuous
100
AcDbLine
 10
174.4045449999999
 20
370.360724
 30
0.0
 11
174.4045449999999
 21
394.360724
 31
0.0
  0
LINE
  5
C939
330
C587
100
AcDbEntity
  8
1
  6
Continuous
100
AcDbLine
 10
172.7795449999999
 20
373.960724
 30
0.0
 11
174.4045449999999
 21
373.960724
 31
0.0
  0
LINE
  5
C93A
330
C587
100
AcDbEntity
  8
1
  6
Continuous
100
AcDbLine
 10
174.4045449999999
 20
370.360724
 30
0.0
 11
175.9045449999999
 21
368.360724
 31
0.0
  0
LINE
  5
C93B
330
C587
100
AcDbEntity
  8
1
  6
Continuous
100
AcDbLine
 10
175.9045449999999
 20
368.360724
 30
0.0
 11
176.9045449999999
 21
368.360724
 31
0.0
  0
LINE
  5
C93C
330
C587
100
AcDbEntity
  8
1
  6
Continuous
100
AcDbLine
 10
182.4045449999999
 20
378.860724
 30
0.0
 11
182.4045449999999
 21
385.8607239999998
 31
0.0
  0
LINE
  5
C93D
330
C587
100
AcDbEntity
  8
1
  6
Continuous
100
AcDbLine
 10
182.9045449999999
 20
385.360724
 30
0.0
 11
182.9045449999999
 21
379.360724
 31
0.0
  0
LINE
  5
C93E
330
C587
100
AcDbEntity
  8
1
  6
Continuous
100
AcDbLine
 10
182.4045449999999
 20
378.860724
 30
0.0
 11
182.9045449999999
 21
379.360724
 31
0.0
  0
LINE
  5
C93F
330
C587
100
AcDbEntity
  8
1
  6
Continuous
100
AcDbLine
 10
176.9045449999999
 20
378.860724
 30
0.0
 11
182.4045449999999
 21
378.860724
 31
0.0
  0
LINE
  5
C940
330
C587
100
AcDbEntity
  8
1
  6
Continuous
100
AcDbLine
 10
182.4045449999999
 20
385.8607239999998
 30
0.0
 11
182.9045449999999
 21
385.360724
 31
0.0
  0
LINE
  5
C941
330
C587
100
AcDbEntity
  8
1
  6
Continuous
100
AcDbLine
 10
176.9045449999999
 20
385.8607239999998
 30
0.0
 11
182.4045449999999
 21
385.8607239999998
 31
0.0
  0
LINE
  5
C942
330
C587
100
AcDbEntity
  8
1
  6
Continuous
100
AcDbLine
 10
172.7795449999999
 20
390.7607239999999
 30
0.0
 11
174.4045449999999
 21
390.7607239999999
 31
0.0
  0
LINE
  5
C943
330
C587
100
AcDbEntity
  8
1
  6
Continuous
100
AcDbLine
 10
172.6774999999999
 20
374.4607240000001
 30
0.0
 11
174.4045449999999
 21
374.4607240000001
 31
0.0
  0
LINE
  5
C944
330
C587
100
AcDbEntity
  8
1
  6
Continuous
100
AcDbLine
 10
172.6774999999999
 20
390.260724
 30
0.0
 11
174.4045449999999
 21
390.260724
 31
0.0
  0
ARC
  5
C945
330
C587
100
AcDbEntity
  8
1
  6
Continuous
100
AcDbCircle
 10
173.77017
 20
375.156181
 30
0.0
 40
0.595458
100
AcDbArc
 50
188.0272379999999
 51
351.972762
  0
ARC
  5
C946
330
C587
100
AcDbEntity
  8
1
  6
Continuous
100
AcDbCircle
 10
224.8569239999999
 20
382.360724
 30
0.0
 40
52.18675499999999
100
AcDbArc
 50
171.972762
 51
188.0272379999999
  0
ARC
  5
C947
330
C587
100
AcDbEntity
  8
1
  6
Continuous
100
AcDbCircle
 10
122.6834149999999
 20
382.360724
 30
0.0
 40
52.18675499999999
100
AcDbArc
 50
351.972762
 51
352.340524
  0
ARC
  5
C948
330
C587
100
AcDbEntity
  8
1
  6
Continuous
100
AcDbCircle
 10
173.77017
 20
389.565266
 30
0.0
 40
0.595458
100
AcDbArc
 50
8.027238
 51
171.972762
  0
ARC
  5
C949
330
C587
100
AcDbEntity
  8
1
  6
Continuous
100
AcDbCircle
 10
122.6834149999999
 20
382.360724
 30
0.0
 40
52.18675499999999
100
AcDbArc
 50
7.659475999999997
 51
8.027238
  0
ARC
  5
C94A
330
C587
100
AcDbEntity
  8
1
  6
Continuous
100
AcDbCircle
 10
122.6834149999999
 20
382.360724
 30
0.0
 40
52.18675499999999
100
AcDbArc
 50
351.972762
 51
352.340524
  0
LINE
  5
C94B
330
C587
100
AcDbEntity
  8
1
  6
Continuous
100
AcDbLine
 10
175.9045449999999
 20
396.3607239999999
 30
0.0
 11
176.9045449999999
 21
396.3607239999999
 31
0.0
  0
LINE
  5
C94C
330
C587
100
AcDbEntity
  8
1
  6
Continuous
100
AcDbLine
 10
192.5045449999999
 20
373.860724
 30
0.0
 11
193.504545
 21
374.860724
 31
0.0
  0
LINE
  5
C94D
330
C587
100
AcDbEntity
  8
1
  6
Continuous
100
AcDbLine
 10
191.7045449999999
 20
368.860724
 30
0.0
 11
191.7045449999999
 21
378.860724
 31
0.0
  0
ARC
  5
C94E
330
C587
100
AcDbEntity
  8
1
  6
Continuous
100
AcDbCircle
 10
187.104545
 20
373.860724
 30
0.0
 40
9.0
100
AcDbArc
 50
344.1191499999998
 51
15.88085
  0
LINE
  5
C94F
330
C587
100
AcDbEntity
  8
1
  6
Continuous
100
AcDbLine
 10
192.5045449999999
 20
368.860724
 30
0.0
 11
192.5045449999999
 21
378.860724
 31
0.0
  0
LINE
  5
C950
330
C587
100
AcDbEntity
  8
1
  6
Continuous
100
AcDbLine
 10
193.504545
 20
370.060724
 30
0.0
 11
193.504545
 21
377.660724
 31
0.0
  0
LINE
  5
C951
330
C587
100
AcDbEntity
  8
1
  6
Continuous
100
AcDbLine
 10
193.504545
 20
373.860724
 30
0.0
 11
192.5045449999999
 21
372.860724
 31
0.0
  0
LINE
  5
C952
330
C587
100
AcDbEntity
  8
4
  6
CENTER
100
AcDbLine
 10
187.9045449999999
 20
373.860724
 30
0.0
 11
197.6045449999999
 21
373.860724
 31
0.0
  0
ARC
  5
C953
330
C587
100
AcDbEntity
  8
1
  6
Continuous
100
AcDbCircle
 10
194.510658
 20
371.753713
 30
0.0
 40
1.3
100
AcDbArc
 50
275.0
 51
344.1191499999998
  0
LINE
  5
C954
330
C587
100
AcDbEntity
  8
1
  6
Continuous
100
AcDbLine
 10
192.5045449999999
 20
370.060724
 30
0.0
 11
193.504545
 21
370.060724
 31
0.0
  0
LINE
  5
C955
330
C587
100
AcDbEntity
  8
1
  6
Continuous
100
AcDbLine
 10
193.504545
 20
370.360724
 30
0.0
 11
194.623961
 21
370.45866
 31
0.0
  0
LINE
  5
C956
330
C587
100
AcDbEntity
  8
1
  6
Continuous
100
AcDbLine
 10
191.4045449999999
 20
371.160724
 30
0.0
 11
191.7045449999999
 21
371.160724
 31
0.0
  0
LINE
  5
C957
330
C587
100
AcDbEntity
  8
1
  6
Continuous
100
AcDbLine
 10
191.7045449999999
 20
368.860724
 30
0.0
 11
192.5045449999999
 21
368.860724
 31
0.0
  0
LINE
  5
C958
330
C587
100
AcDbEntity
  8
1
  6
Continuous
100
AcDbLine
 10
189.4045449999999
 20
358.8607239999997
 30
0.0
 11
191.4045449999999
 21
358.8607239999997
 31
0.0
  0
LINE
  5
C959
330
C587
100
AcDbEntity
  8
4
  6
CENTER
100
AcDbLine
 10
188.35955
 20
363.8606119999999
 30
0.0
 11
192.8234889999998
 21
363.8606119999999
 31
0.0
  0
ARC
  5
C95A
330
C587
100
AcDbEntity
  8
1
  6
Continuous
100
AcDbCircle
 10
189.9045449999999
 20
382.360724
 30
0.0
 40
3.0
100
AcDbArc
 50
300.0
 51
60.0
  0
LINE
  5
C95B
330
C587
100
AcDbEntity
  8
1
  6
Continuous
100
AcDbLine
 10
192.5045449999999
 20
394.660724
 30
0.0
 11
193.504545
 21
394.660724
 31
0.0
  0
LINE
  5
C95C
330
C587
100
AcDbEntity
  8
1
  6
Continuous
100
AcDbLine
 10
193.504545
 20
394.360724
 30
0.0
 11
194.623961
 21
394.262788
 31
0.0
  0
LINE
  5
C95D
330
C587
100
AcDbEntity
  8
1
  6
Continuous
100
AcDbLine
 10
191.7045449999999
 20
395.860724
 30
0.0
 11
192.5045449999999
 21
395.860724
 31
0.0
  0
ARC
  5
C95E
330
C587
100
AcDbEntity
  8
1
  6
Continuous
100
AcDbCircle
 10
194.510658
 20
375.967735
 30
0.0
 40
1.3
100
AcDbArc
 50
15.88085
 51
85.0
  0
LINE
  5
C95F
330
C587
100
AcDbEntity
  8
1
  6
Continuous
100
AcDbLine
 10
192.5045449999999
 20
377.660724
 30
0.0
 11
193.504545
 21
377.660724
 31
0.0
  0
LINE
  5
C960
330
C587
100
AcDbEntity
  8
1
  6
Continuous
100
AcDbLine
 10
193.504545
 20
377.360724
 30
0.0
 11
194.623961
 21
377.2627879999998
 31
0.0
  0
ARC
  5
C961
330
C587
100
AcDbEntity
  8
1
  6
Continuous
100
AcDbCircle
 10
187.104545
 20
390.860724
 30
0.0
 40
9.0
100
AcDbArc
 50
344.1191499999998
 51
15.88085
  0
ARC
  5
C962
330
C587
100
AcDbEntity
  8
1
  6
Continuous
100
AcDbCircle
 10
194.510658
 20
388.753713
 30
0.0
 40
1.3
100
AcDbArc
 50
275.0
 51
344.1191499999998
  0
LINE
  5
C963
330
C587
100
AcDbEntity
  8
1
  6
Continuous
100
AcDbLine
 10
192.5045449999999
 20
387.060724
 30
0.0
 11
193.504545
 21
387.060724
 31
0.0
  0
LINE
  5
C964
330
C587
100
AcDbEntity
  8
1
  6
Continuous
100
AcDbLine
 10
193.504545
 20
387.360724
 30
0.0
 11
194.623961
 21
387.45866
 31
0.0
  0
LINE
  5
C965
330
C587
100
AcDbEntity
  8
1
  6
Continuous
100
AcDbLine
 10
193.504545
 20
390.860724
 30
0.0
 11
192.5045449999999
 21
389.860724
 31
0.0
  0
LINE
  5
C966
330
C587
100
AcDbEntity
  8
1
  6
Continuous
100
AcDbLine
 10
192.5045449999999
 20
390.860724
 30
0.0
 11
193.504545
 21
391.860724
 31
0.0
  0
LINE
  5
C967
330
C587
100
AcDbEntity
  8
1
  6
Continuous
100
AcDbLine
 10
191.4045449999999
 20
376.560724
 30
0.0
 11
191.7045449999999
 21
376.560724
 31
0.0
  0
LINE
  5
C968
330
C587
100
AcDbEntity
  8
1
  6
Continuous
100
AcDbLine
 10
191.4045449999999
 20
388.160724
 30
0.0
 11
191.7045449999999
 21
388.160724
 31
0.0
  0
LINE
  5
C969
330
C587
100
AcDbEntity
  8
1
  6
Continuous
100
AcDbLine
 10
191.4045449999999
 20
393.5607239999998
 30
0.0
 11
191.7045449999999
 21
393.5607239999998
 31
0.0
  0
LINE
  5
C96A
330
C587
100
AcDbEntity
  8
1
  6
Continuous
100
AcDbLine
 10
191.7045449999999
 20
378.860724
 30
0.0
 11
192.5045449999999
 21
378.860724
 31
0.0
  0
LINE
  5
C96B
330
C587
100
AcDbEntity
  8
1
  6
Continuous
100
AcDbLine
 10
191.7045449999999
 20
385.8607239999998
 30
0.0
 11
192.5045449999999
 21
385.8607239999998
 31
0.0
  0
LINE
  5
C96C
330
C587
100
AcDbEntity
  8
4
  6
CENTER
100
AcDbLine
 10
187.9045449999999
 20
390.860724
 30
0.0
 11
197.6045449999999
 21
390.860724
 31
0.0
  0
LINE
  5
C96D
330
C587
100
AcDbEntity
  8
1
  6
Continuous
100
AcDbLine
 10
191.7045449999999
 20
385.8607239999998
 30
0.0
 11
191.7045449999999
 21
395.860724
 31
0.0
  0
LINE
  5
C96E
330
C587
100
AcDbEntity
  8
1
  6
Continuous
100
AcDbLine
 10
192.5045449999999
 20
385.8607239999998
 30
0.0
 11
192.5045449999999
 21
395.860724
 31
0.0
  0
LINE
  5
C96F
330
C587
100
AcDbEntity
  8
1
  6
Continuous
100
AcDbLine
 10
193.504545
 20
387.060724
 30
0.0
 11
193.504545
 21
394.660724
 31
0.0
  0
ARC
  5
C970
330
C587
100
AcDbEntity
  8
1
  6
Continuous
100
AcDbCircle
 10
194.510658
 20
392.967735
 30
0.0
 40
1.3
100
AcDbArc
 50
15.88085
 51
85.0
  0
LINE
  5
C971
330
C587
100
AcDbEntity
  8
1
  6
Continuous
100
AcDbLine
 10
189.4045449999999
 20
408.8607239999998
 30
0.0
 11
191.4045449999999
 21
408.8607239999998
 31
0.0
  0
LINE
  5
C972
330
C587
100
AcDbEntity
  8
1
  6
Continuous
100
AcDbLine
 10
189.4045449999999
 20
433.8607239999998
 30
0.0
 11
191.4045449999999
 21
433.8607239999998
 31
0.0
  0
LINE
  5
C973
330
C587
100
AcDbEntity
  8
1
  6
Continuous
100
AcDbLine
 10
189.4045449999999
 20
443.860724
 30
0.0
 11
191.4045449999999
 21
443.860724
 31
0.0
  0
LINE
  5
C983
330
C587
100
AcDbEntity
  8
1
  6
Continuous
100
AcDbLine
 10
533.0545449999998
 20
205.360724
 30
0.0
 11
533.0545449999998
 21
285.360724
 31
0.0
  0
LINE
  5
C984
330
C587
100
AcDbEntity
  8
1
  6
Continuous
100
AcDbLine
 10
530.5545449999997
 20
203.360724
 30
0.0
 11
530.5545449999997
 21
287.360724
 31
0.0
  0
LINE
  5
C985
330
C587
100
AcDbEntity
  8
1
  6
Continuous
100
AcDbLine
 10
531.5545449999997
 20
203.360724
 30
0.0
 11
531.5545449999997
 21
287.360724
 31
0.0
  0
LINE
  5
C987
330
C587
100
AcDbEntity
  8
1
  6
Continuous
100
AcDbLine
 10
516.0545449999997
 20
252.360724
 30
0.0
 11
516.0545449999997
 21
287.360724
 31
0.0
  0
LINE
  5
C988
330
C587
100
AcDbEntity
  8
1
  6
Continuous
100
AcDbLine
 10
518.0545449999997
 20
252.360724
 30
0.0
 11
518.0545449999997
 21
287.360724
 31
0.0
  0
LINE
  5
C989
330
C587
100
AcDbEntity
  8
1
  6
Continuous
100
AcDbLine
 10
513.9545450000001
 20
258.5607239999998
 30
0.0
 11
513.9545450000001
 21
266.160724
 31
0.0
  0
LINE
  5
C98A
330
C587
100
AcDbEntity
  8
1
  6
Continuous
100
AcDbLine
 10
514.9545450000003
 20
257.360724
 30
0.0
 11
514.9545450000003
 21
267.3607239999999
 31
0.0
  0
LINE
  5
C98B
330
C587
100
AcDbEntity
  8
1
  6
Continuous
100
AcDbLine
 10
515.7545449999998
 20
257.360724
 30
0.0
 11
515.7545449999998
 21
267.3607239999999
 31
0.0
  0
ARC
  5
C98C
330
C587
100
AcDbEntity
  8
1
  6
Continuous
100
AcDbCircle
 10
520.3545450000001
 20
262.360724
 30
0.0
 40
9.0
100
AcDbArc
 50
164.1191499999998
 51
195.88085
  0
LINE
  5
C98D
330
C587
100
AcDbEntity
  8
4
  6
CENTER
100
AcDbLine
 10
517.5588400000001
 20
233.860724
 30
0.0
 11
520.752371
 21
233.860724
 31
0.0
  0
LINE
  5
C98E
330
C587
100
AcDbEntity
  8
1
  6
Continuous
100
AcDbLine
 10
530.5545449999997
 20
214.3607240000001
 30
0.0
 11
519.8545450000001
 21
214.3607240000001
 31
0.0
  0
LINE
  5
C98F
330
C587
100
AcDbEntity
  8
1
  6
Continuous
100
AcDbLine
 10
518.5545449999997
 20
216.860724
 30
0.0
 11
518.5545449999997
 21
257.360724
 31
0.0
  0
LINE
  5
C990
330
C587
100
AcDbEntity
  8
1
  6
Continuous
100
AcDbLine
 10
519.5545449999997
 20
216.860724
 30
0.0
 11
519.5545449999997
 21
236.360724
 31
0.0
  0
LINE
  5
C991
330
C587
100
AcDbEntity
  8
1
  6
Continuous
100
AcDbLine
 10
519.6545449999998
 20
214.368737
 30
0.0
 11
519.6545449999998
 21
236.360724
 31
0.0
  0
LINE
  5
C992
330
C587
100
AcDbEntity
  8
1
  6
Continuous
100
AcDbLine
 10
519.8545450000001
 20
214.5694359999999
 30
0.0
 11
519.8545450000001
 21
236.360724
 31
0.0
  0
LINE
  5
C993
330
C587
100
AcDbEntity
  8
1
  6
Continuous
100
AcDbLine
 10
518.5545449999997
 20
216.860724
 30
0.0
 11
519.5545449999997
 21
216.860724
 31
0.0
  0
ARC
  5
C994
330
C587
100
AcDbEntity
  8
1
  6
Continuous
100
AcDbCircle
 10
519.8529919999996
 20
214.0886769999999
 30
0.0
 40
0.480762
100
AcDbArc
 50
89.81485000000004
 51
98.97294299999998
  0
ARC
  5
C995
330
C587
100
AcDbEntity
  8
1
  6
Continuous
100
AcDbCircle
 10
519.8222269999998
 20
214.2581649999999
 30
0.0
 40
0.308575
100
AcDbArc
 50
98.23876699999999
 51
110.705934
  0
ARC
  5
C996
330
C587
100
AcDbEntity
  8
1
  6
Continuous
100
AcDbCircle
 10
519.7522549999998
 20
214.429089
 30
0.0
 40
0.124052
100
AcDbArc
 50
108.38772
 51
131.6767979999999
  0
ARC
  5
C997
330
C587
100
AcDbEntity
  8
1
  6
Continuous
100
AcDbCircle
 10
519.6926230000001
 20
214.491274
 30
0.0
 40
0.038088
100
AcDbArc
 50
126.8710139999999
 51
178.638101
  0
ARC
  5
C998
330
C587
100
AcDbEntity
  8
1
  6
Continuous
100
AcDbCircle
 10
519.6734529999998
 20
214.423293
 30
0.0
 40
0.05774
100
AcDbArc
 50
250.884908
 51
266.341832
  0
ARC
  5
C999
330
C587
100
AcDbEntity
  8
1
  6
Continuous
100
AcDbCircle
 10
519.7499500000001
 20
215.3399009999999
 30
0.0
 40
0.977524
100
AcDbArc
 50
265.2950569999998
 51
267.840948
  0
ARC
  5
C99A
330
C587
100
AcDbEntity
  8
1
  6
Continuous
100
AcDbCircle
 10
519.8267009999997
 20
217.3929919999999
 30
0.0
 40
3.032049
100
AcDbArc
 50
267.853245
 51
269.079821
  0
ARC
  5
C99B
330
C587
100
AcDbEntity
  8
1
  6
Continuous
100
AcDbCircle
 10
519.8541830000001
 20
219.117166
 30
0.0
 40
4.756441999999998
100
AcDbArc
 50
269.082363
 51
270.004362
  0
LINE
  5
C99C
330
C587
100
AcDbEntity
  8
1
  6
Continuous
100
AcDbLine
 10
519.6545449999998
 20
225.360724
 30
0.0
 11
519.5545449999997
 21
225.360724
 31
0.0
  0
LINE
  5
C99D
330
C587
100
AcDbEntity
  8
1
  6
Continuous
100
AcDbLine
 10
519.5545449999997
 20
229.760724
 30
0.0
 11
519.6545449999998
 21
229.760724
 31
0.0
  0
LINE
  5
C99E
330
C587
100
AcDbEntity
  8
1
  6
Continuous
100
AcDbLine
 10
519.6545449999998
 20
229.360724
 30
0.0
 11
519.5545449999997
 21
229.360724
 31
0.0
  0
LINE
  5
C99F
330
C587
100
AcDbEntity
  8
1
  6
Continuous
100
AcDbLine
 10
519.6545449999998
 20
229.360724
 30
0.0
 11
519.6545449999998
 21
229.760724
 31
0.0
  0
LINE
  5
C9A0
330
C587
100
AcDbEntity
  8
1
  6
Continuous
100
AcDbLine
 10
519.8545450000001
 20
236.360724
 30
0.0
 11
518.5545449999997
 21
236.360724
 31
0.0
  0
LINE
  5
C9A1
330
C587
100
AcDbEntity
  8
1
  6
Continuous
100
AcDbLine
 10
519.5545449999997
 20
232.360724
 30
0.0
 11
519.6545449999998
 21
232.360724
 31
0.0
  0
LINE
  5
C9A2
330
C587
100
AcDbEntity
  8
1
  6
Continuous
100
AcDbLine
 10
519.5545449999997
 20
233.1856699999999
 30
0.0
 11
519.6545449999998
 21
233.1856699999999
 31
0.0
  0
LINE
  5
C9A3
330
C587
100
AcDbEntity
  8
1
  6
Continuous
100
AcDbLine
 10
519.6545449999998
 20
234.782314
 30
0.0
 11
519.5545449999997
 21
234.782314
 31
0.0
  0
LINE
  5
C9A4
330
C587
100
AcDbEntity
  8
1
  6
Continuous
100
AcDbLine
 10
519.6545449999998
 20
235.1607239999999
 30
0.0
 11
519.5545449999997
 21
235.1607239999999
 31
0.0
  0
LINE
  5
C9A5
330
C587
100
AcDbEntity
  8
1
  6
Continuous
100
AcDbLine
 10
518.0545449999997
 20
262.360724
 30
0.0
 11
516.0545449999997
 21
262.360724
 31
0.0
  0
LINE
  5
C9A6
330
C587
100
AcDbEntity
  8
1
  6
Continuous
100
AcDbLine
 10
518.0545449999997
 20
252.360724
 30
0.0
 11
516.0545449999997
 21
252.360724
 31
0.0
  0
LINE
  5
C9A7
330
C587
100
AcDbEntity
  8
4
  6
CENTER
100
AcDbLine
 10
519.5545449999997
 20
257.360724
 30
0.0
 11
515.7545449999998
 21
257.360724
 31
0.0
  0
LINE
  5
C9A8
330
C587
100
AcDbEntity
  8
1
  6
Continuous
100
AcDbLine
 10
515.7545449999998
 20
257.360724
 30
0.0
 11
514.9545450000003
 21
257.360724
 31
0.0
  0
LINE
  5
C9A9
330
C587
100
AcDbEntity
  8
1
  6
Continuous
100
AcDbLine
 10
518.5545449999997
 20
255.360724
 30
0.0
 11
518.0545449999997
 21
255.360724
 31
0.0
  0
LINE
  5
C9AA
330
C587
100
AcDbEntity
  8
1
  6
Continuous
100
AcDbLine
 10
516.0545449999997
 20
259.660724
 30
0.0
 11
515.7545449999998
 21
259.660724
 31
0.0
  0
LINE
  5
C9AB
330
C587
100
AcDbEntity
  8
1
  6
Continuous
100
AcDbLine
 10
514.9545450000003
 20
258.5607239999998
 30
0.0
 11
513.9545450000001
 21
258.5607239999998
 31
0.0
  0
LINE
  5
C9AC
330
C587
100
AcDbEntity
  8
1
  6
Continuous
100
AcDbLine
 10
513.9545450000001
 20
258.8607239999999
 30
0.0
 11
512.8351290000003
 21
258.95866
 31
0.0
  0
ARC
  5
C9AD
330
C587
100
AcDbEntity
  8
1
  6
Continuous
100
AcDbCircle
 10
512.9484320000001
 20
260.2537129999999
 30
0.0
 40
1.3
100
AcDbArc
 50
195.88085
 51
265.0
  0
LINE
  5
C9AE
330
C587
100
AcDbEntity
  8
1
  6
Continuous
100
AcDbLine
 10
514.9545450000003
 20
262.360724
 30
0.0
 11
513.9545450000001
 21
261.3607239999997
 31
0.0
  0
LINE
  5
C9AF
330
C587
100
AcDbEntity
  8
1
  6
Continuous
100
AcDbLine
 10
513.9545450000001
 20
262.360724
 30
0.0
 11
514.9545450000003
 21
263.3607239999999
 31
0.0
  0
LINE
  5
C9B0
330
C587
100
AcDbEntity
  8
1
  6
Continuous
100
AcDbLine
 10
535.5545449999997
 20
212.3607240000001
 30
0.0
 11
533.0545449999998
 21
236.360724
 31
0.0
  0
LINE
  5
C9B1
330
C587
100
AcDbEntity
  8
1
  6
Continuous
100
AcDbLine
 10
533.3545450000001
 20
226.760724
 30
0.0
 11
533.3545450000001
 21
212.860724
 31
0.0
  0
LINE
  5
C9B2
330
C587
100
AcDbEntity
  8
1
  6
Continuous
100
AcDbLine
 10
524.5545449999997
 20
212.3607240000001
 30
0.0
 11
524.5545449999997
 21
206.360724
 31
0.0
  0
LINE
  5
C9B3
330
C587
100
AcDbEntity
  8
1
  6
Continuous
100
AcDbLine
 10
525.0545449999997
 20
205.860724
 30
0.0
 11
525.0545449999997
 21
212.860724
 31
0.0
  0
LINE
  5
C9B4
330
C587
100
AcDbEntity
  8
1
  6
Continuous
100
AcDbLine
 10
524.5545449999997
 20
206.360724
 30
0.0
 11
525.0545449999997
 21
205.860724
 31
0.0
  0
LINE
  5
C9B5
330
C587
100
AcDbEntity
  8
1
  6
Continuous
100
AcDbLine
 10
533.0545449999998
 20
205.360724
 30
0.0
 11
531.5545449999997
 21
203.360724
 31
0.0
  0
LINE
  5
C9B6
330
C587
100
AcDbEntity
  8
1
  6
Continuous
100
AcDbLine
 10
531.5545449999997
 20
203.360724
 30
0.0
 11
530.5545449999997
 21
203.360724
 31
0.0
  0
LINE
  5
C9B7
330
C587
100
AcDbEntity
  8
1
  6
Continuous
100
AcDbLine
 10
530.5545449999997
 20
205.860724
 30
0.0
 11
525.0545449999997
 21
205.860724
 31
0.0
  0
LINE
  5
C9B8
330
C587
100
AcDbEntity
  8
1
  6
Continuous
100
AcDbLine
 10
525.0545449999997
 20
212.860724
 30
0.0
 11
524.5545449999997
 21
212.3607240000001
 31
0.0
  0
LINE
  5
C9B9
330
C587
100
AcDbEntity
  8
1
  6
Continuous
100
AcDbLine
 10
535.5545449999997
 20
212.3607240000001
 30
0.0
 11
533.3545450000001
 21
212.3607240000001
 31
0.0
  0
LINE
  5
C9BA
330
C587
100
AcDbEntity
  8
1
  6
Continuous
100
AcDbLine
 10
533.1545449999999
 20
218.360724
 30
0.0
 11
533.1545449999999
 21
212.5607239999999
 31
0.0
  0
ARC
  5
C9BB
330
C587
100
AcDbEntity
  8
1
  6
Continuous
100
AcDbCircle
 10
533.3545450000001
 20
212.5607239999999
 30
0.0
 40
0.2
100
AcDbArc
 50
180.0
 51
270.0
  0
ARC
  5
C9BC
330
C587
100
AcDbEntity
  8
1
  6
Continuous
100
AcDbCircle
 10
533.8545450000001
 20
212.860724
 30
0.0
 40
0.5
100
AcDbArc
 50
180.0
 51
270.0
  0
LINE
  5
C9BD
330
C587
100
AcDbEntity
  8
1
  6
Continuous
100
AcDbLine
 10
530.5545449999997
 20
212.860724
 30
0.0
 11
525.0545449999997
 21
212.860724
 31
0.0
  0
LINE
  5
C9BE
330
C587
100
AcDbEntity
  8
1
  6
Continuous
100
AcDbLine
 10
533.3545450000001
 20
218.360724
 30
0.0
 11
533.0545449999998
 21
218.360724
 31
0.0
  0
LINE
  5
C9BF
330
C587
100
AcDbEntity
  8
4
  6
CENTER
100
AcDbLine
 10
535.4829029999998
 20
209.3607239999998
 30
0.0
 11
522.4652070000002
 21
209.3607239999998
 31
0.0
  0
LINE
  5
C9D7
330
C587
100
AcDbEntity
  8
1
  6
Continuous
100
AcDbLine
 10
530.5545449999997
 20
276.360724
 30
0.0
 11
518.0545449999997
 21
276.360724
 31
0.0
  0
LINE
  5
C9D8
330
C587
100
AcDbEntity
  8
1
  6
Continuous
100
AcDbLine
 10
518.0545449999997
 20
272.360724
 30
0.0
 11
516.0545449999997
 21
272.360724
 31
0.0
  0
LINE
  5
C9D9
330
C587
100
AcDbEntity
  8
1
  6
Continuous
100
AcDbLine
 10
515.7545449999998
 20
267.3607239999999
 30
0.0
 11
514.9545450000003
 21
267.3607239999999
 31
0.0
  0
LINE
  5
C9DA
330
C587
100
AcDbEntity
  8
1
  6
Continuous
100
AcDbLine
 10
516.0545449999997
 20
265.0607239999998
 30
0.0
 11
515.7545449999998
 21
265.0607239999998
 31
0.0
  0
LINE
  5
C9DB
330
C587
100
AcDbEntity
  8
1
  6
Continuous
100
AcDbLine
 10
514.9545450000003
 20
266.160724
 30
0.0
 11
513.9545450000001
 21
266.160724
 31
0.0
  0
LINE
  5
C9DC
330
C587
100
AcDbEntity
  8
1
  6
Continuous
100
AcDbLine
 10
513.9545450000001
 20
265.860724
 30
0.0
 11
512.8351290000003
 21
265.762788
 31
0.0
  0
ARC
  5
C9DD
330
C587
100
AcDbEntity
  8
1
  6
Continuous
100
AcDbCircle
 10
512.9484320000001
 20
264.467735
 30
0.0
 40
1.3
100
AcDbArc
 50
95.0
 51
164.1191499999998
  0
ARC
  5
C9DE
330
C587
100
AcDbEntity
  8
1
  6
Continuous
100
AcDbCircle
 10
516.9671130000002
 20
285.2877689999999
 30
0.0
 40
12.91440399999999
100
AcDbArc
 50
259.233197
 51
265.947945
  0
LINE
  5
C9DF
330
C587
100
AcDbEntity
  8
1
  6
Continuous
100
AcDbLine
 10
516.0545449999997
 20
270.375443
 30
0.0
 11
514.5545449999997
 21
271.875443
 31
0.0
  0
LINE
  5
C9E0
330
C587
100
AcDbEntity
  8
1
  6
Continuous
100
AcDbLine
 10
514.5545449999997
 20
273.3607239999999
 30
0.0
 11
516.0545449999997
 21
273.3607239999999
 31
0.0
  0
LINE
  5
C9E1
330
C587
100
AcDbEntity
  8
1
  6
Continuous
100
AcDbLine
 10
514.5545449999997
 20
273.3607239999999
 30
0.0
 11
514.5545449999997
 21
271.875443
 31
0.0
  0
LINE
  5
C9E2
330
C587
100
AcDbEntity
  8
1
  6
Continuous
100
AcDbLine
 10
518.0545449999997
 20
287.360724
 30
0.0
 11
516.0545449999997
 21
287.360724
 31
0.0
  0
LINE
  5
C9E3
330
C587
100
AcDbEntity
  8
1
  6
Continuous
100
AcDbLine
 10
533.0545449999998
 20
285.360724
 30
0.0
 11
531.5545449999997
 21
287.360724
 31
0.0
  0
LINE
  5
C9E4
330
C587
100
AcDbEntity
  8
1
  6
Continuous
100
AcDbLine
 10
525.0545449999997
 20
284.860724
 30
0.0
 11
524.5545449999997
 21
284.360724
 31
0.0
  0
LINE
  5
C9E5
330
C587
100
AcDbEntity
  8
4
  6
CENTER
100
AcDbLine
 10
535.1140949999997
 20
281.3607239999999
 30
0.0
 11
523.054545
 21
281.3607239999999
 31
0.0
  0
LINE
  5
C9E6
330
C587
100
AcDbEntity
  8
1
  6
Continuous
100
AcDbLine
 10
525.0545449999997
 20
277.8607239999999
 30
0.0
 11
524.5545449999997
 21
278.360724
 31
0.0
  0
LINE
  5
C9E7
330
C587
100
AcDbEntity
  8
1
  6
Continuous
100
AcDbLine
 10
525.0545449999997
 20
277.8607239999999
 30
0.0
 11
525.0545449999997
 21
284.860724
 31
0.0
  0
LINE
  5
C9E8
330
C587
100
AcDbEntity
  8
1
  6
Continuous
100
AcDbLine
 10
530.5545449999997
 20
277.8607239999999
 30
0.0
 11
525.0545449999997
 21
277.8607239999999
 31
0.0
  0
LINE
  5
C9E9
330
C587
100
AcDbEntity
  8
1
  6
Continuous
100
AcDbLine
 10
530.5545449999997
 20
284.860724
 30
0.0
 11
525.0545449999997
 21
284.860724
 31
0.0
  0
LINE
  5
C9EA
330
C587
100
AcDbEntity
  8
1
  6
Continuous
100
AcDbLine
 10
524.5545449999997
 20
284.360724
 30
0.0
 11
524.5545449999997
 21
278.360724
 31
0.0
  0
LINE
  5
C9EB
330
C587
100
AcDbEntity
  8
1
  6
Continuous
100
AcDbLine
 10
531.5545449999997
 20
287.360724
 30
0.0
 11
530.5545449999997
 21
287.360724
 31
0.0
  0
LINE
  5
C9EC
330
C587
100
AcDbEntity
  8
4
  6
CENTER
100
AcDbLine
 10
175.4045450000043
 20
262.36072399999
 30
0.0
 11
197.6045449999995
 21
262.360724000005
 31
0.0
  0
CIRCLE
  5
C9ED
330
C587
100
AcDbEntity
  8
1
  6
Continuous
100
AcDbCircle
 10
179.9045449999998
 20
262.36072399999
 30
0.0
 40
2.999999999995566
  0
LINE
  5
C9EE
330
C587
100
AcDbEntity
  8
4
  6
CENTER
100
AcDbLine
 10
179.9045449999998
 20
257.8607239999947
 30
0.0
 11
179.9045449999998
 21
266.8607239999857
 31
0.0
  0
LINE
  5
C9EF
330
C587
100
AcDbEntity
  8
1
  6
Continuous
100
AcDbLine
 10
179.9045449999998
 20
259.3607239999947
 30
0.0
 11
176.9045450000058
 21
259.3607239999903
 31
0.0
  0
LINE
  5
C9F0
330
C587
100
AcDbEntity
  8
1
  6
Continuous
100
AcDbLine
 10
179.9045449999914
 20
265.3607239999855
 30
0.0
 11
176.9045449999974
 21
265.3607239999816
 31
0.0
  0
LINE
  5
C9F1
330
C587
100
AcDbEntity
  8
1
  6
Continuous
100
AcDbLine
 10
178.2462326048283
 20
259.8607239999911
 30
0.0
 11
176.9045450000053
 21
259.8607239999892
 31
0.0
  0
LINE
  5
C9F2
330
C587
100
AcDbEntity
  8
1
  6
Continuous
100
AcDbLine
 10
178.2462326048316
 20
264.8607239999912
 30
0.0
 11
176.9045449999981
 21
264.8607239999892
 31
0.0
  0
LINE
  5
C9F3
330
C587
100
AcDbEntity
  8
4
  6
CENTER
100
AcDbLine
 10
532.0545449999956
 20
262.36072399999
 30
0.0
 11
509.8545450000001
 21
262.360724000005
 31
0.0
  0
CIRCLE
  5
C9F4
330
C587
100
AcDbEntity
  8
1
  6
Continuous
100
AcDbCircle
 10
527.5545450000001
 20
262.36072399999
 30
0.0
 40
2.0
  0
LINE
  5
C9F5
330
C587
100
AcDbEntity
  8
4
  6
CENTER
100
AcDbLine
 10
527.5545450000001
 20
257.8607239999947
 30
0.0
 11
527.5545450000001
 21
266.8607239999857
 31
0.0
  0
LINE
  5
CC0B
330
C587
100
AcDbEntity
  8
1
  6
Continuous
100
AcDbLine
 10
233.9468610000012
 20
204.5107239999937
 30
0.0
 11
233.9468610000322
 21
214.2107239999959
 31
0.0
  0
LINE
  5
CC11
330
C587
100
AcDbEntity
  8
1
  6
Continuous
100
AcDbLine
 10
233.4468610000013
 20
204.5107239999954
 30
0.0
 11
233.4468610000322
 21
214.2107239999955
 31
0.0
  0
LINE
  5
CC15
330
C587
100
AcDbEntity
  8
1
  6
Continuous
100
AcDbLine
 10
234.2804993892481
 20
214.0429872416735
 30
0.0
 11
239.4883837399187
 21
213.6089968791184
 31
0.0
  0
ARC
  5
CC16
330
C587
100
AcDbEntity
  8
1
  6
Continuous
100
AcDbCircle
 10
234.3220221291748
 20
214.541260120796
 30
0.0
 40
0.5
100
AcDbArc
 50
221.3816993826119
 51
265.236358309283
  0
LINE
  5
CC17
330
C587
100
AcDbEntity
  8
1
  6
Continuous
100
AcDbLine
 10
233.4468609999947
 20
214.2107239999955
 30
0.0
 11
233.9468609999965
 21
214.2107239999959
 31
0.0
  0
ARC
  5
CC18
330
C587
100
AcDbEntity
  8
1
  6
Continuous
100
AcDbCircle
 10
239.446860999992
 20
213.110723999996
 30
0.0
 40
0.5
100
AcDbArc
 50
0.0000000000781399
 51
85.23635830928297
  0
LINE
  5
CC1F
330
C587
100
AcDbEntity
  8
1
  6
Continuous
100
AcDbLine
 10
234.2804993892544
 20
204.6784607583185
 30
0.0
 11
239.4883837399244
 21
205.1124511208805
 31
0.0
  0
ARC
  5
CC26
330
C587
100
AcDbEntity
  8
1
  6
Continuous
100
AcDbCircle
 10
234.3220221291818
 20
204.1801878791961
 30
0.0
 40
0.5
100
AcDbArc
 50
94.76364169079374
 51
138.6183006174653
  0
LINE
  5
CC27
330
C587
100
AcDbEntity
  8
1
  6
Continuous
100
AcDbLine
 10
233.4468610000013
 20
204.5107239999954
 30
0.0
 11
233.946861000003
 21
204.5107239999957
 31
0.0
  0
ARC
  5
CC2D
330
C587
100
AcDbEntity
  8
1
  6
Continuous
100
AcDbCircle
 10
239.446860999997
 20
205.6107240000029
 30
0.0
 40
0.5
100
AcDbArc
 50
274.7636416907937
 51
0.0
  0
ARC
  5
CC3A
330
C587
100
AcDbEntity
  8
1
  6
Continuous
100
AcDbCircle
 10
348.6045450000007
 20
209.3607240000005
 30
0.0
 40
4.850000000015738
100
AcDbArc
 50
90.0
 51
270.0
  0
ARC
  5
CC3B
330
C587
100
AcDbEntity
  8
1
  6
Continuous
100
AcDbCircle
 10
350.6045449999988
 20
209.3607239999991
 30
0.0
 40
4.850000000015738
100
AcDbArc
 50
270.0
 51
90.0
  0
LINE
  5
CC3D
330
C587
100
AcDbEntity
  8
1
  6
Continuous
100
AcDbLine
 10
350.6045449999957
 20
204.5107239999834
 30
0.0
 11
348.6045449999974
 21
204.5107239999847
 31
0.0
  0
ARC
  5
CC43
330
C587
100
AcDbEntity
  8
1
  6
Continuous
100
AcDbCircle
 10
348.6045450000007
 20
209.3607240000005
 30
0.0
 40
3.749999999980401
100
AcDbArc
 50
90.0
 51
270.0
  0
ARC
  5
CC4A
330
C587
100
AcDbEntity
  8
1
  6
Continuous
100
AcDbCircle
 10
350.6045449999988
 20
209.3607239999991
 30
0.0
 40
3.749999999980401
100
AcDbArc
 50
270.0
 51
90.0
  0
LINE
  5
CC4C
330
C587
100
AcDbEntity
  8
1
  6
Continuous
100
AcDbLine
 10
350.6045449999963
 20
205.6107240000187
 30
0.0
 11
348.6045449999982
 21
205.61072400002
 31
0.0
  0
LINE
  5
CC4E
330
C587
100
AcDbEntity
  8
1
  6
Continuous
100
AcDbLine
 10
350.6045450000021
 20
214.2107240000148
 30
0.0
 11
348.604545000004
 21
214.2107240000162
 31
0.0
  0
LINE
  5
CC4F
330
C587
100
AcDbEntity
  8
1
  6
Continuous
100
AcDbLine
 10
350.6045450000014
 20
213.1107239999795
 30
0.0
 11
348.6045450000033
 21
213.1107239999808
 31
0.0
  0
LINE
  5
CC57
330
C587
100
AcDbEntity
  8
1
  6
Continuous
100
AcDbLine
 10
240.4468609999948
 20
107.2500009999973
 30
0.0
 11
240.4468610000051
 21
97.75000099999743
 31
0.0
  0
LINE
  5
CC58
330
C587
100
AcDbEntity
  8
1
  6
Continuous
100
AcDbLine
 10
233.9468609999993
 20
108.3500010000043
 30
0.0
 11
233.9468610000342
 21
96.65000100000446
 31
0.0
  0
LINE
  5
CC5A
330
C587
100
AcDbEntity
  8
1
  6
Continuous
100
AcDbLine
 10
234.7804993892523
 20
108.1822642416812
 30
0.0
 11
239.9883837399222
 21
107.7482738791192
 31
0.0
  0
ARC
  5
CC5C
330
C587
100
AcDbEntity
  8
1
  6
Continuous
100
AcDbCircle
 10
234.8220221291798
 20
108.6805371208036
 30
0.0
 40
0.5
100
AcDbArc
 50
221.3816993825473
 51
265.2363583092061
  0
LINE
  5
CC5E
330
C587
100
AcDbEntity
  8
1
  6
Continuous
100
AcDbLine
 10
233.9468609999993
 20
108.3500010000043
 30
0.0
 11
234.4468609999994
 21
108.350001000004
 31
0.0
  0
ARC
  5
CC63
330
C587
100
AcDbEntity
  8
1
  6
Continuous
100
AcDbCircle
 10
239.9468609999949
 20
107.2500009999968
 30
0.0
 40
0.5
100
AcDbArc
 50
0.0
 51
85.23635830920619
  0
LINE
  5
CC67
330
C587
100
AcDbEntity
  8
1
  6
Continuous
100
AcDbLine
 10
234.7804993892447
 20
96.81773775832581
 30
0.0
 11
239.9883837399209
 21
97.25172812088132
 31
0.0
  0
LINE
  5
CC69
330
C587
100
AcDbEntity
  8
1
  6
Continuous
100
AcDbLine
 10
234.4468609999992
 20
108.3500010000059
 30
0.0
 11
234.4468610000343
 21
96.6500010000041
 31
0.0
  0
ARC
  5
CC6B
330
C587
100
AcDbEntity
  8
1
  6
Continuous
100
AcDbCircle
 10
234.8220221291715
 20
96.31946487920401
 30
0.0
 40
0.5
100
AcDbArc
 50
94.76364169071695
 51
138.6183006173753
  0
LINE
  5
CC6C
330
C587
100
AcDbEntity
  8
1
  6
Continuous
100
AcDbLine
 10
233.9468609999915
 20
96.65000100000446
 30
0.0
 11
234.4468609999915
 21
96.6500010000041
 31
0.0
  0
ARC
  5
CC6E
330
C587
100
AcDbEntity
  8
1
  6
Continuous
100
AcDbCircle
 10
239.9468609999941
 20
97.75000100000378
 30
0.0
 40
0.5
100
AcDbArc
 50
274.7636416907169
 51
359.9999999999218
  0
ARC
  5
CCF5
330
C587
100
AcDbEntity
  8
1
  6
Continuous
100
AcDbCircle
 10
234.0468609999998
 20
382.360724
 30
0.0
 40
9.0
100
AcDbArc
 50
344.1192
 51
15.88099999999999
  0
LINE
  5
CCF7
330
C587
100
AcDbEntity
  8
1
  6
Continuous
100
AcDbLine
 10
234.4468609999992
 20
388.2107240000059
 30
0.0
 11
234.4468610000343
 21
376.510724000004
 31
0.0
  0
LINE
  5
CCF8
330
C587
100
AcDbEntity
  8
1
  6
Continuous
100
AcDbLine
 10
233.9468609999993
 20
388.2107240000043
 30
0.0
 11
233.9468610000342
 21
376.5107240000044
 31
0.0
  0
LINE
  5
CCF9
330
C587
100
AcDbEntity
  8
1
  6
Continuous
100
AcDbLine
 10
240.4468609999948
 20
387.1107239999972
 30
0.0
 11
240.4468610000051
 21
377.6107239999973
 31
0.0
  0
LINE
  5
CCFA
330
C587
100
AcDbEntity
  8
1
  6
Continuous
100
AcDbLine
 10
241.566261
 20
378.957724
 30
0.0
 11
240.4467609999999
 21
378.860724
 31
0.0
  0
ARC
  5
CCFB
330
C587
100
AcDbEntity
  8
1
  6
Continuous
100
AcDbCircle
 10
239.9468609999941
 20
377.6107240000036
 30
0.0
 40
0.5
100
AcDbArc
 50
274.7636416907169
 51
359.9999999999218
  0
LINE
  5
CCFC
330
C587
100
AcDbEntity
  8
1
  6
Continuous
100
AcDbLine
 10
233.9468609999915
 20
376.5107240000044
 30
0.0
 11
234.4468609999915
 21
376.510724000004
 31
0.0
  0
ARC
  5
CCFD
330
C587
100
AcDbEntity
  8
1
  6
Continuous
100
AcDbCircle
 10
234.8220221291715
 20
376.180187879204
 30
0.0
 40
0.5
100
AcDbArc
 50
94.76364169071695
 51
138.6183006173753
  0
LINE
  5
CCFE
330
C587
100
AcDbEntity
  8
1
  6
Continuous
100
AcDbLine
 10
234.7804993892447
 20
376.6784607583258
 30
0.0
 11
239.9883837399209
 21
377.1124511208814
 31
0.0
  0
ARC
  5
CCFF
330
C587
100
AcDbEntity
  8
1
  6
Continuous
100
AcDbCircle
 10
241.4529609999998
 20
380.2537239999999
 30
0.0
 40
1.3
100
AcDbArc
 50
275.0000999999999
 51
344.1192
  0
LINE
  5
CD00
330
C587
100
AcDbEntity
  8
1
  6
Continuous
100
AcDbLine
 10
241.566261
 20
385.7627239999998
 30
0.0
 11
240.446861
 21
385.8607239999998
 31
0.0
  0
LINE
  5
CD01
330
C587
100
AcDbEntity
  8
4
  6
CENTER
100
AcDbLine
 10
230.9468610000168
 20
382.360724
 30
0.0
 11
246.0468609999998
 21
382.360724
 31
0.0
  0
ARC
  5
CD03
330
C587
100
AcDbEntity
  8
1
  6
Continuous
100
AcDbCircle
 10
239.9468609999949
 20
387.1107239999968
 30
0.0
 40
0.5
100
AcDbArc
 50
0.0
 51
85.23635830920619
  0
LINE
  5
CD04
330
C587
100
AcDbEntity
  8
1
  6
Continuous
100
AcDbLine
 10
233.9468609999993
 20
388.2107240000043
 30
0.0
 11
234.4468609999994
 21
388.2107240000039
 31
0.0
  0
ARC
  5
CD05
330
C587
100
AcDbEntity
  8
1
  6
Continuous
100
AcDbCircle
 10
234.8220221291798
 20
388.5412601208037
 30
0.0
 40
0.5
100
AcDbArc
 50
221.3816993825473
 51
265.2363583092061
  0
LINE
  5
CD06
330
C587
100
AcDbEntity
  8
1
  6
Continuous
100
AcDbLine
 10
234.7804993892523
 20
388.0429872416813
 30
0.0
 11
239.9883837399222
 21
387.6089968791191
 31
0.0
  0
ARC
  5
CD07
330
C587
100
AcDbEntity
  8
1
  6
Continuous
100
AcDbCircle
 10
241.4529609999998
 20
384.4677239999999
 30
0.0
 40
1.3
100
AcDbArc
 50
15.88099999999999
 51
85.0
  0
ARC
  5
CD36
330
C587
100
AcDbEntity
  8
1
  6
Continuous
100
AcDbCircle
 10
240.9529609999996
 20
283.4677240000002
 30
0.0
 40
1.3
100
AcDbArc
 50
15.8808
 51
84.99990000000002
  0
ARC
  5
CD37
330
C587
100
AcDbEntity
  8
1
  6
Continuous
100
AcDbCircle
 10
240.9529609999996
 20
279.2537240000001
 30
0.0
 40
1.3
100
AcDbArc
 50
275.0
 51
344.1190000000001
  0
LINE
  5
CD38
330
C587
100
AcDbEntity
  8
4
  6
CENTER
100
AcDbLine
 10
230.4468610000167
 20
281.3607239999999
 30
0.0
 11
245.5468609999999
 21
281.3607239999999
 31
0.0
  0
LINE
  5
CD3B
330
C587
100
AcDbEntity
  8
1
  6
Continuous
100
AcDbLine
 10
233.4468610000013
 20
276.5107239999955
 30
0.0
 11
233.4468610000322
 21
286.2107239999957
 31
0.0
  0
LINE
  5
CD3C
330
C587
100
AcDbEntity
  8
1
  6
Continuous
100
AcDbLine
 10
233.9468610000012
 20
276.5107239999939
 30
0.0
 11
233.9468610000322
 21
286.210723999996
 31
0.0
  0
LINE
  5
CD3D
330
C587
100
AcDbEntity
  8
1
  6
Continuous
100
AcDbLine
 10
239.946861
 20
285.1607240000002
 30
0.0
 11
239.946861
 21
277.5607240000001
 31
0.0
  0
LINE
  5
CD3E
330
C587
100
AcDbEntity
  8
1
  6
Continuous
100
AcDbLine
 10
233.4468610000013
 20
276.5107239999955
 30
0.0
 11
233.946861000003
 21
276.5107239999958
 31
0.0
  0
LINE
  5
CD3F
330
C587
100
AcDbEntity
  8
1
  6
Continuous
100
AcDbLine
 10
241.066261
 20
277.9587240000001
 30
0.0
 11
239.9468609999999
 21
277.8607240000001
 31
0.0
  0
ARC
  5
CD40
330
C587
100
AcDbEntity
  8
1
  6
Continuous
100
AcDbCircle
 10
239.446860999997
 20
277.610724000003
 30
0.0
 40
0.5
100
AcDbArc
 50
274.7636416907937
 51
0.0
  0
ARC
  5
CD41
330
C587
100
AcDbEntity
  8
1
  6
Continuous
100
AcDbCircle
 10
234.3220221291818
 20
276.1801878791962
 30
0.0
 40
0.5
100
AcDbArc
 50
94.76364169079374
 51
138.6183006174653
  0
LINE
  5
CD42
330
C587
100
AcDbEntity
  8
1
  6
Continuous
100
AcDbLine
 10
234.2804993892544
 20
276.6784607583186
 30
0.0
 11
239.4883837399244
 21
277.1124511208806
 31
0.0
  0
LINE
  5
CD43
330
C587
100
AcDbEntity
  8
1
  6
Continuous
100
AcDbLine
 10
233.4468609999947
 20
286.2107239999957
 30
0.0
 11
233.9468609999965
 21
286.210723999996
 31
0.0
  0
LINE
  5
CD44
330
C587
100
AcDbEntity
  8
1
  6
Continuous
100
AcDbLine
 10
241.066261
 20
284.7637240000001
 30
0.0
 11
239.9467609999999
 21
284.8607240000001
 31
0.0
  0
ARC
  5
CD45
330
C587
100
AcDbEntity
  8
1
  6
Continuous
100
AcDbCircle
 10
239.446860999992
 20
285.1107239999962
 30
0.0
 40
0.5
100
AcDbArc
 50
0.0000000000781399
 51
85.23635830928297
  0
ARC
  5
CD46
330
C587
100
AcDbEntity
  8
1
  6
Continuous
100
AcDbCircle
 10
234.3220221291748
 20
286.5412601207962
 30
0.0
 40
0.5
100
AcDbArc
 50
221.3816993826119
 51
265.236358309283
  0
LINE
  5
CD47
330
C587
100
AcDbEntity
  8
1
  6
Continuous
100
AcDbLine
 10
234.2804993892481
 20
286.0429872416736
 30
0.0
 11
239.4883837399187
 21
285.6089968791186
 31
0.0
  0
ARC
  5
CD48
330
C587
100
AcDbEntity
  8
1
  6
Continuous
100
AcDbCircle
 10
233.5468609999999
 20
281.3607239999999
 30
0.0
 40
9.0
100
AcDbArc
 50
344.1190000000001
 51
15.8808
  0
ARC
  5
CD78
330
C587
100
AcDbEntity
  8
1
  6
Continuous
100
AcDbCircle
 10
458.256129
 20
211.467724
 30
0.0
 40
1.3
100
AcDbArc
 50
95.00009999999996
 51
164.1191999999999
  0
ARC
  5
CD79
330
C587
100
AcDbEntity
  8
1
  6
Continuous
100
AcDbCircle
 10
458.256129
 20
207.2537239999999
 30
0.0
 40
1.3
100
AcDbArc
 50
195.8809999999998
 51
265.0
  0
LINE
  5
CD7A
330
C587
100
AcDbEntity
  8
4
  6
CENTER
100
AcDbLine
 10
468.7622289999829
 20
209.3607239999997
 30
0.0
 11
453.6622289999996
 21
209.3607239999997
 31
0.0
  0
LINE
  5
CD7D
330
C587
100
AcDbEntity
  8
1
  6
Continuous
100
AcDbLine
 10
465.7622289999983
 20
204.5107239999954
 30
0.0
 11
465.7622289999673
 21
214.2107239999955
 31
0.0
  0
LINE
  5
CD7E
330
C587
100
AcDbEntity
  8
1
  6
Continuous
100
AcDbLine
 10
465.2622289999984
 20
204.5107239999937
 30
0.0
 11
465.2622289999674
 21
214.2107239999959
 31
0.0
  0
LINE
  5
CD7F
330
C587
100
AcDbEntity
  8
1
  6
Continuous
100
AcDbLine
 10
459.2622289999995
 20
213.160724
 30
0.0
 11
459.2622289999995
 21
205.560724
 31
0.0
  0
LINE
  5
CD80
330
C587
100
AcDbEntity
  8
1
  6
Continuous
100
AcDbLine
 10
465.7622289999983
 20
204.5107239999954
 30
0.0
 11
465.2622289999967
 21
204.5107239999957
 31
0.0
  0
LINE
  5
CD81
330
C587
100
AcDbEntity
  8
1
  6
Continuous
100
AcDbLine
 10
458.1428289999997
 20
205.9587239999999
 30
0.0
 11
459.2622289999998
 21
205.860724
 31
0.0
  0
ARC
  5
CD82
330
C587
100
AcDbEntity
  8
1
  6
Continuous
100
AcDbCircle
 10
459.7622290000026
 20
205.6107240000029
 30
0.0
 40
0.5
100
AcDbArc
 50
180.0
 51
265.2363583092061
  0
ARC
  5
CD83
330
C587
100
AcDbEntity
  8
1
  6
Continuous
100
AcDbCircle
 10
464.8870678708179
 20
204.1801878791961
 30
0.0
 40
0.5
100
AcDbArc
 50
41.38169938253462
 51
85.23635830920627
  0
LINE
  5
CD84
330
C587
100
AcDbEntity
  8
1
  6
Continuous
100
AcDbLine
 10
464.9285906107452
 20
204.6784607583185
 30
0.0
 11
459.7207062600753
 21
205.1124511208805
 31
0.0
  0
LINE
  5
CD85
330
C587
100
AcDbEntity
  8
1
  6
Continuous
100
AcDbLine
 10
465.7622290000048
 20
214.2107239999955
 30
0.0
 11
465.2622290000032
 21
214.2107239999959
 31
0.0
  0
LINE
  5
CD86
330
C587
100
AcDbEntity
  8
1
  6
Continuous
100
AcDbLine
 10
458.1428289999997
 20
212.763724
 30
0.0
 11
459.2623289999997
 21
212.860724
 31
0.0
  0
ARC
  5
CD87
330
C587
100
AcDbEntity
  8
1
  6
Continuous
100
AcDbCircle
 10
459.7622290000077
 20
213.110723999996
 30
0.0
 40
0.5
100
AcDbArc
 50
94.76364169071699
 51
179.9999999999218
  0
ARC
  5
CD88
330
C587
100
AcDbEntity
  8
1
  6
Continuous
100
AcDbCircle
 10
464.8870678708248
 20
214.541260120796
 30
0.0
 40
0.5
100
AcDbArc
 50
274.7636416907169
 51
318.618300617388
  0
LINE
  5
CD89
330
C587
100
AcDbEntity
  8
1
  6
Continuous
100
AcDbLine
 10
464.9285906107516
 20
214.0429872416735
 30
0.0
 11
459.7207062600809
 21
213.6089968791184
 31
0.0
  0
ARC
  5
CD8A
330
C587
100
AcDbEntity
  8
1
  6
Continuous
100
AcDbCircle
 10
465.6622289999996
 20
209.3607239999998
 30
0.0
 40
9.0
100
AcDbArc
 50
164.1191999999999
 51
195.8809999999998
  0
LINE
  5
CD8B
330
C587
100
AcDbEntity
  8
4
  6
CENTER
100
AcDbLine
 10
468.7622289999829
 20
281.3607239999999
 30
0.0
 11
453.6622289999996
 21
281.3607239999999
 31
0.0
  0
ARC
  5
CD8C
330
C587
100
AcDbEntity
  8
1
  6
Continuous
100
AcDbCircle
 10
458.256129
 20
279.2537240000001
 30
0.0
 40
1.3
100
AcDbArc
 50
195.8809999999998
 51
265.0
  0
ARC
  5
CD8D
330
C587
100
AcDbEntity
  8
1
  6
Continuous
100
AcDbCircle
 10
458.256129
 20
283.4677240000002
 30
0.0
 40
1.3
100
AcDbArc
 50
95.00009999999996
 51
164.1191999999999
  0
LINE
  5
CD8F
330
C587
100
AcDbEntity
  8
1
  6
Continuous
100
AcDbLine
 10
459.2622289999995
 20
285.1607240000002
 30
0.0
 11
459.2622289999995
 21
277.5607240000001
 31
0.0
  0
LINE
  5
CD90
330
C587
100
AcDbEntity
  8
1
  6
Continuous
100
AcDbLine
 10
465.2622289999984
 20
276.5107239999939
 30
0.0
 11
465.2622289999674
 21
286.210723999996
 31
0.0
  0
LINE
  5
CD91
330
C587
100
AcDbEntity
  8
1
  6
Continuous
100
AcDbLine
 10
465.7622289999983
 20
276.5107239999955
 30
0.0
 11
465.7622289999673
 21
286.2107239999957
 31
0.0
  0
LINE
  5
CD92
330
C587
100
AcDbEntity
  8
1
  6
Continuous
100
AcDbLine
 10
465.7622289999983
 20
276.5107239999955
 30
0.0
 11
465.2622289999967
 21
276.5107239999958
 31
0.0
  0
LINE
  5
CD93
330
C587
100
AcDbEntity
  8
1
  6
Continuous
100
AcDbLine
 10
464.9285906107452
 20
276.6784607583186
 30
0.0
 11
459.7207062600753
 21
277.1124511208806
 31
0.0
  0
ARC
  5
CD94
330
C587
100
AcDbEntity
  8
1
  6
Continuous
100
AcDbCircle
 10
464.8870678708179
 20
276.1801878791962
 30
0.0
 40
0.5
100
AcDbArc
 50
41.38169938253462
 51
85.23635830920627
  0
ARC
  5
CD95
330
C587
100
AcDbEntity
  8
1
  6
Continuous
100
AcDbCircle
 10
459.7622290000026
 20
277.610724000003
 30
0.0
 40
0.5
100
AcDbArc
 50
180.0
 51
265.2363583092061
  0
LINE
  5
CD96
330
C587
100
AcDbEntity
  8
1
  6
Continuous
100
AcDbLine
 10
458.1428289999997
 20
277.9587240000001
 30
0.0
 11
459.2622289999998
 21
277.8607240000001
 31
0.0
  0
LINE
  5
CD97
330
C587
100
AcDbEntity
  8
1
  6
Continuous
100
AcDbLine
 10
465.7622290000048
 20
286.2107239999957
 30
0.0
 11
465.2622290000032
 21
286.210723999996
 31
0.0
  0
LINE
  5
CD98
330
C587
100
AcDbEntity
  8
1
  6
Continuous
100
AcDbLine
 10
464.9285906107516
 20
286.0429872416736
 30
0.0
 11
459.7207062600809
 21
285.6089968791186
 31
0.0
  0
ARC
  5
CD99
330
C587
100
AcDbEntity
  8
1
  6
Continuous
100
AcDbCircle
 10
464.8870678708248
 20
286.5412601207962
 30
0.0
 40
0.5
100
AcDbArc
 50
274.7636416907169
 51
318.618300617388
  0
ARC
  5
CD9A
330
C587
100
AcDbEntity
  8
1
  6
Continuous
100
AcDbCircle
 10
459.7622290000077
 20
285.1107239999962
 30
0.0
 40
0.5
100
AcDbArc
 50
94.76364169071699
 51
179.9999999999218
  0
LINE
  5
CD9B
330
C587
100
AcDbEntity
  8
1
  6
Continuous
100
AcDbLine
 10
458.1428289999997
 20
284.7637240000001
 30
0.0
 11
459.2623289999997
 21
284.8607240000001
 31
0.0
  0
ARC
  5
CD9C
330
C587
100
AcDbEntity
  8
1
  6
Continuous
100
AcDbCircle
 10
465.6622289999996
 20
281.3607239999999
 30
0.0
 40
9.0
100
AcDbArc
 50
164.1191999999999
 51
195.8809999999998
  0
ENDSEC
  0
SECTION
  2
OBJECTS
  0
DICTIONARY
  5
C575
330
0
100
AcDbDictionary
281
     1
  3
ACAD_CIP_PREVIOUS_PRODUCT_INFO
350
CE5B
  3
ACAD_COLOR
350
CE3D
  3
ACAD_DETAILVIEWSTYLE
350
CE56
  3
ACAD_GROUP
350
C576
  3
ACAD_LAYOUT
350
C582
  3
ACAD_MATERIAL
350
CE0B
  3
ACAD_MLEADERSTYLE
350
CE52
  3
ACAD_MLINESTYLE
350
C57F
  3
ACAD_PLOTSETTINGS
350
C581
  3
ACAD_PLOTSTYLENAME
350
CE09
  3
ACAD_SCALELIST
350
CE40
  3
ACAD_SECTIONVIEWSTYLE
350
CE54
  3
ACAD_TABLESTYLE
350
CE3E
  3
ACAD_VISUALSTYLE
350
CE24
  3
ACDB_RECOMPOSE_DATA
350
CE79
  3
AcDbVariableDictionary
350
CE6C
  3
DWGPROPS
350
CE7A
  0
DICTIONARY
  5
CE5C
330
C579
100
AcDbDictionary
280
     1
281
     1
  3
ADSK_XREC_LAYER_RECONCILED
360
CE5D
  0
DICTIONARY
  5
CE5E
330
C58F
100
AcDbDictionary
280
     1
281
     1
  3
ADSK_XREC_LAYER_RECONCILED
360
CE5F
  0
DICTIONARY
  5
CE60
330
C590
100
AcDbDictionary
280
     1
281
     1
  3
ADSK_XREC_LAYER_RECONCILED
360
CE61
  0
DICTIONARY
  5
CE62
330
C591
100
AcDbDictionary
280
     1
281
     1
  3
ADSK_XREC_LAYER_RECONCILED
360
CE63
  0
DICTIONARY
  5
CE64
330
C592
100
AcDbDictionary
280
     1
281
     1
  3
ADSK_XREC_LAYER_RECONCILED
360
CE65
  0
DICTIONARY
  5
CE66
330
C593
100
AcDbDictionary
280
     1
281
     1
  3
ADSK_XREC_LAYER_RECONCILED
360
CE67
  0
DICTIONARY
  5
CE68
330
C594
100
AcDbDictionary
280
     1
281
     1
  3
ADSK_XREC_LAYER_RECONCILED
360
CE69
  0
DICTIONARY
  5
CE6A
330
C595
100
AcDbDictionary
280
     1
281
     1
  3
ADSK_XREC_LAYER_RECONCILED
360
CE6B
  0
DICTIONARY
  5
CA04
330
C587
100
AcDbDictionary
281
     1
  3
ACAD_LAYOUTSELFREF
350
CE05
  0
DICTIONARY
  5
CA02
330
C583
100
AcDbDictionary
281
     1
  3
ACAD_LAYOUTSELFREF
350
CE04
  0
XRECORD
  5
CE5B
102
{ACAD_REACTORS
330
C575
102
}
330
C575
100
AcDbXrecord
280
     1
300
ACDLT
300
2014
300
ACDLT_F_S
  0
DICTIONARY
  5
CE3D
102
{ACAD_REACTORS
330
C575
102
}
330
C575
100
AcDbDictionary
281
     1
  0
DICTIONARY
  5
CE56
102
{ACAD_REACTORS
330
C575
102
}
330
C575
100
AcDbDictionary
281
     1
  3
Imperial24
350
CE57
  0
DICTIONARY
  5
C576
102
{ACAD_REACTORS
330
C575
102
}
330
C575
100
AcDbDictionary
281
     1
  0
DICTIONARY
  5
C582
102
{ACAD_REACTORS
330
C575
102
}
330
C575
100
AcDbDictionary
281
     1
  3
Model
350
CE58
  3
レイアウト1
350
CE59
  0
DICTIONARY
  5
CE0B
102
{ACAD_REACTORS
330
C575
102
}
330
C575
100
AcDbDictionary
281
     1
  3
ByBlock
350
CE14
  3
ByLayer
350
CE0C
  3
Global
350
CE1C
  0
DICTIONARY
  5
CE52
102
{ACAD_REACTORS
330
C575
102
}
330
C575
100
AcDbDictionary
281
     1
  3
Standard
350
CE53
  0
DICTIONARY
  5
C57F
102
{ACAD_REACTORS
330
C575
102
}
330
C575
100
AcDbDictionary
281
     1
  3
STANDARD
350
C580
  0
DICTIONARY
  5
C581
102
{ACAD_REACTORS
330
C575
102
}
330
C575
100
AcDbDictionary
281
     1
  0
ACDBDICTIONARYWDFLT
  5
CE09
102
{ACAD_REACTORS
330
C575
102
}
330
C575
100
AcDbDictionary
281
     1
  3
Normal
350
CE0A
100
AcDbDictionaryWithDefault
340
CE0A
  0
DICTIONARY
  5
CE40
102
{ACAD_REACTORS
330
C575
102
}
330
C575
100
AcDbDictionary
281
     1
  3
A0
350
CE41
  3
A1
350
CE42
  3
A2
350
CE43
  3
A3
350
CE44
  3
A4
350
CE45
  3
A5
350
CE46
  3
A6
350
CE47
  3
A7
350
CE48
  3
A8
350
CE49
  3
A9
350
CE4A
  3
B0
350
CE4B
  3
B1
350
CE4C
  3
B2
350
CE4D
  3
B3
350
CE4E
  3
B4
350
CE4F
  3
B5
350
CE50
  3
B6
350
CE51
  0
DICTIONARY
  5
CE54
102
{ACAD_REACTORS
330
C575
102
}
330
C575
100
AcDbDictionary
281
     1
  3
Imperial24
350
CE55
  0
DICTIONARY
  5
CE3E
102
{ACAD_REACTORS
330
C575
102
}
330
C575
100
AcDbDictionary
281
     1
  3
Standard
350
CE3F
  0
DICTIONARY
  5
CE24
102
{ACAD_REACTORS
330
C575
102
}
330
C575
100
AcDbDictionary
281
     1
  3
2dWireframe
350
CE2A
  3
Basic
350
CE29
  3
Brighten
350
CE30
  3
ColorChange
350
CE34
  3
Conceptual
350
CE2D
  3
Dim
350
CE2F
  3
EdgeColorOff
350
CE3C
  3
Facepattern
350
CE33
  3
Flat
350
CE25
  3
FlatWithEdges
350
CE26
  3
Gouraud
350
CE27
  3
GouraudWithEdges
350
CE28
  3
Hidden
350
CE2C
  3
JitterOff
350
CE3A
  3
Linepattern
350
CE32
  3
OverhangOff
350
CE3B
  3
Realistic
350
CE2E
  3
Shaded
350
CE39
  3
Shaded with edges
350
CE38
  3
Shades of Gray
350
CE35
  3
Sketchy
350
CE36
  3
Thicken
350
CE31
  3
Wireframe
350
CE2B
  3
X-Ray
350
CE37
  0
XRECORD
  5
CE79
102
{ACAD_REACTORS
330
C575
102
}
330
C575
100
AcDbXrecord
280
     1
 90
        1
330
CE3F
  0
DICTIONARY
  5
CE6C
102
{ACAD_REACTORS
330
C575
102
}
330
C575
100
AcDbDictionary
281
     1
  3
CANNOSCALE
350
CE71
  3
CMLEADERSTYLE
350
CE6E
  3
CTABLESTYLE
350
CE6D
  3
CVIEWDETAILSTYLE
350
CE6F
  3
CVIEWSECTIONSTYLE
350
CE70
  3
DIMASSOC
350
CE74
  3
INDEXCTL
350
CE73
  3
SORTENTS
350
CE72
  3
XCLIPFRAME
350
CE75
  0
XRECORD
  5
CE7A
102
{ACAD_REACTORS
330
C575
102
}
330
C575
100
AcDbXrecord
280
     1
  1
DWGPROPS COOKIE
  2

  3

  4

  6

  7

  8
Yoshitsune
  9

300
=
301
=
302
=
303
=
304
=
305
=
306
=
307
=
308
=
309
=
 40
0.0453772453703704
 41
2451347.381037963
 42
2457192.64382272
  1

 90
        0
  0
XRECORD
  5
CE5D
102
{ACAD_REACTORS
330
CE5C
102
}
330
CE5C
100
AcDbXrecord
280
     1
290
     1
  0
XRECORD
  5
CE5F
102
{ACAD_REACTORS
330
CE5E
102
}
330
CE5E
100
AcDbXrecord
280
     1
290
     1
  0
XRECORD
  5
CE61
102
{ACAD_REACTORS
330
CE60
102
}
330
CE60
100
AcDbXrecord
280
     1
290
     1
  0
XRECORD
  5
CE63
102
{ACAD_REACTORS
330
CE62
102
}
330
CE62
100
AcDbXrecord
280
     1
290
     1
  0
XRECORD
  5
CE65
102
{ACAD_REACTORS
330
CE64
102
}
330
CE64
100
AcDbXrecord
280
     1
290
     1
  0
XRECORD
  5
CE67
102
{ACAD_REACTORS
330
CE66
102
}
330
CE66
100
AcDbXrecord
280
     1
290
     1
  0
XRECORD
  5
CE69
102
{ACAD_REACTORS
330
CE68
102
}
330
CE68
100
AcDbXrecord
280
     1
290
     1
  0
XRECORD
  5
CE6B
102
{ACAD_REACTORS
330
CE6A
102
}
330
CE6A
100
AcDbXrecord
280
     1
290
     1
  0
XRECORD
  5
CE05
102
{ACAD_REACTORS
330
CA04
102
}
330
CA04
100
AcDbXrecord
280
     1
340
C587
  0
XRECORD
  5
CE04
102
{ACAD_REACTORS
330
CA02
102
}
330
CA02
100
AcDbXrecord
280
     1
340
C583
  0
ACDBDETAILVIEWSTYLE
  5
CE57
102
{ACAD_XDICTIONARY
360
CEB2
102
}
102
{ACAD_REACTORS
330
CE56
102
}
330
CE56
100
AcDbModelDocViewStyle
 70
     0
  3
Imperial24
290
     0
100
AcDbDetailViewStyle
 70
     0
 71
     0
 90
        3
 71
     1
340
C57A
 40
0.24
340
0
 40
0.24
300

 40
0.36
280
     3
 71
     2
340
C57E
 90
       25
 71
     3
340
C57A
 40
0.24
 90
        1
 40
0.75
 90
        1
300
%<\AcVar ViewType \f "%tc1">% %<\AcVar ViewDetailId>%\PSCALE %<\AcVar ViewScale \f "%sn">%
 71
     4
340
C57E
 90
       25
340
C57E
 90
       25
280
     0
  0
LAYOUT
  5
CE58
102
{ACAD_XDICTIONARY
360
CEB4
102
}
102
{ACAD_REACTORS
330
C582
102
}
330
C582
100
AcDbPlotSettings
  1

  2
Canon LBP9100C
  4

  6

 40
0.0
 41
0.0
 42
0.0
 43
0.0
 44
0.0
 45
0.0
 46
0.0
 47
0.0
 48
0.0
 49
0.0
140
0.0
141
0.0
142
1.0
143
1.0
 70
  1712
 72
     0
 73
     0
 74
     0
  7

 75
     0
147
1.0
148
0.0
149
0.0
100
AcDbLayout
  1
Model
 70
     1
 71
     0
 10
0.0
 20
0.0
 11
12.0
 21
9.0
 12
0.0
 22
0.0
 32
0.0
 14
0.0
 24
0.0
 34
0.0
 15
0.0
 25
0.0
 35
0.0
146
0.0
 13
0.0
 23
0.0
 33
0.0
 16
1.0
 26
0.0
 36
0.0
 17
0.0
 27
1.0
 37
0.0
 76
     0
330
C587
331
CE03
  0
LAYOUT
  5
CE59
102
{ACAD_XDICTIONARY
360
CEB6
102
}
102
{ACAD_REACTORS
330
C582
102
}
330
C582
100
AcDbPlotSettings
  1

  2
Canon LBP9100C
  4

  6

 40
0.0
 41
0.0
 42
0.0
 43
0.0
 44
0.0
 45
0.0
 46
0.0
 47
0.0
 48
0.0
 49
0.0
140
0.0
141
0.0
142
1.0
143
1.0
 70
   688
 72
     0
 73
     0
 74
     5
  7

 75
    16
147
1.0
148
0.0
149
0.0
100
AcDbLayout
  1
レイアウト1
 70
     0
 71
     1
 10
0.0
 20
0.0
 11
420.0
 21
297.0
 12
0.0
 22
0.0
 32
0.0
 14
1.000000000000000E+20
 24
1.000000000000000E+20
 34
1.000000000000000E+20
 15
-1.000000000000000E+20
 25
-1.000000000000000E+20
 35
-1.000000000000000E+20
146
0.0
 13
0.0
 23
0.0
 33
0.0
 16
1.0
 26
0.0
 36
0.0
 17
0.0
 27
1.0
 37
0.0
 76
     0
330
C583
  0
MATERIAL
  5
CE14
102
{ACAD_XDICTIONARY
360
CE15
102
}
102
{ACAD_REACTORS
330
CE0B
102
}
330
CE0B
100
AcDbMaterial
  1
ByBlock
 72
     0
 43
0.0208333333333333
 43
0.0
 43
0.0
 43
0.0
 43
0.0
 43
0.0208333333333333
 43
0.0
 43
0.0
 43
0.0
 43
0.0
 43
1.0
 43
0.0
 43
0.0
 43
0.0
 43
0.0
 43
1.0
 77
     0
 47
0.0208333333333333
 47
0.0
 47
0.0
 47
0.0
 47
0.0
 47
0.0208333333333333
 47
0.0
 47
0.0
 47
0.0
 47
0.0
 47
1.0
 47
0.0
 47
0.0
 47
0.0
 47
0.0
 47
1.0
171
     0
 49
0.0208333333333333
 49
0.0
 49
0.0
 49
0.0
 49
0.0
 49
0.0208333333333333
 49
0.0
 49
0.0
 49
0.0
 49
0.0
 49
1.0
 49
0.0
 49
0.0
 49
0.0
 49
0.0
 49
1.0
175
     0
142
0.0208333333333333
142
0.0
142
0.0
142
0.0
142
0.0
142
0.0208333333333333
142
0.0
142
0.0
142
0.0
142
0.0
142
1.0
142
0.0
142
0.0
142
0.0
142
0.0
142
1.0
179
     0
144
0.0208333333333333
144
0.0
144
0.0
144
0.0
144
0.0
144
0.0208333333333333
144
0.0
144
0.0
144
0.0
144
0.0
144
1.0
144
0.0
144
0.0
144
0.0
144
0.0
144
1.0
147
0.0208333333333333
147
0.0
147
0.0
147
0.0
147
0.0
147
0.0208333333333333
147
0.0
147
0.0
147
0.0
147
0.0
147
1.0
147
0.0
147
0.0
147
0.0
147
0.0
147
1.0
  0
MATERIAL
  5
CE0C
102
{ACAD_XDICTIONARY
360
CE0D
102
}
102
{ACAD_REACTORS
330
CE0B
102
}
330
CE0B
100
AcDbMaterial
  1
ByLayer
 72
     0
 43
0.0208333333333333
 43
0.0
 43
0.0
 43
0.0
 43
0.0
 43
0.0208333333333333
 43
0.0
 43
0.0
 43
0.0
 43
0.0
 43
1.0
 43
0.0
 43
0.0
 43
0.0
 43
0.0
 43
1.0
 77
     0
 47
0.0208333333333333
 47
0.0
 47
0.0
 47
0.0
 47
0.0
 47
0.0208333333333333
 47
0.0
 47
0.0
 47
0.0
 47
0.0
 47
1.0
 47
0.0
 47
0.0
 47
0.0
 47
0.0
 47
1.0
171
     0
 49
0.0208333333333333
 49
0.0
 49
0.0
 49
0.0
 49
0.0
 49
0.0208333333333333
 49
0.0
 49
0.0
 49
0.0
 49
0.0
 49
1.0
 49
0.0
 49
0.0
 49
0.0
 49
0.0
 49
1.0
175
     0
142
0.0208333333333333
142
0.0
142
0.0
142
0.0
142
0.0
142
0.0208333333333333
142
0.0
142
0.0
142
0.0
142
0.0
142
1.0
142
0.0
142
0.0
142
0.0
142
0.0
142
1.0
179
     0
144
0.0208333333333333
144
0.0
144
0.0
144
0.0
144
0.0
144
0.0208333333333333
144
0.0
144
0.0
144
0.0
144
0.0
144
1.0
144
0.0
144
0.0
144
0.0
144
0.0
144
1.0
147
0.0208333333333333
147
0.0
147
0.0
147
0.0
147
0.0
147
0.0208333333333333
147
0.0
147
0.0
147
0.0
147
0.0
147
1.0
147
0.0
147
0.0
147
0.0
147
0.0
147
1.0
  0
MATERIAL
  5
CE1C
102
{ACAD_XDICTIONARY
360
CE1D
102
}
102
{ACAD_REACTORS
330
CE0B
102
}
330
CE0B
100
AcDbMaterial
  1
Global
 72
     0
 43
0.0208333333333333
 43
0.0
 43
0.0
 43
0.0
 43
0.0
 43
0.0208333333333333
 43
0.0
 43
0.0
 43
0.0
 43
0.0
 43
1.0
 43
0.0
 43
0.0
 43
0.0
 43
0.0
 43
1.0
 77
     0
 47
0.0208333333333333
 47
0.0
 47
0.0
 47
0.0
 47
0.0
 47
0.0208333333333333
 47
0.0
 47
0.0
 47
0.0
 47
0.0
 47
1.0
 47
0.0
 47
0.0
 47
0.0
 47
0.0
 47
1.0
171
     0
 49
0.0208333333333333
 49
0.0
 49
0.0
 49
0.0
 49
0.0
 49
0.0208333333333333
 49
0.0
 49
0.0
 49
0.0
 49
0.0
 49
1.0
 49
0.0
 49
0.0
 49
0.0
 49
0.0
 49
1.0
175
     0
142
0.0208333333333333
142
0.0
142
0.0
142
0.0
142
0.0
142
0.0208333333333333
142
0.0
142
0.0
142
0.0
142
0.0
142
1.0
142
0.0
142
0.0
142
0.0
142
0.0
142
1.0
179
     0
144
0.0208333333333333
144
0.0
144
0.0
144
0.0
144
0.0
144
0.0208333333333333
144
0.0
144
0.0
144
0.0
144
0.0
144
1.0
144
0.0
144
0.0
144
0.0
144
0.0
144
1.0
147
0.0208333333333333
147
0.0
147
0.0
147
0.0
147
0.0
147
0.0208333333333333
147
0.0
147
0.0
147
0.0
147
0.0
147
1.0
147
0.0
147
0.0
147
0.0
147
0.0
147
1.0
  0
MLEADERSTYLE
  5
CE53
102
{ACAD_REACTORS
330
CE52
102
}
330
CE52
100
AcDbMLeaderStyle
170
     2
171
     1
172
     0
 90
        2
 40
0.0
 41
0.0
173
     1
 91
-1056964608
340
C57C
 92
       -2
290
     1
 42
0.09
291
     1
 43
0.36
  3
Standard
 44
0.18
300

342
C57A
174
     1
178
     6
175
     1
176
     0
 93
-1056964608
 45
0.18
292
     0
297
     0
 46
0.18
 94
-1056964608
 47
1.0
 49
1.0
140
1.0
293
     1
141
0.0
294
     1
177
     0
142
1.0
295
     0
296
     0
143
0.125
1001
ACAD_MLEADERVER
1070
     2
  0
MLINESTYLE
  5
C580
102
{ACAD_REACTORS
330
C57F
102
}
330
C57F
100
AcDbMlineStyle
  2
STANDARD
 70
     0
  3

 62
   256
 51
90.0
 52
90.0
 71
     2
 49
0.5
 62
   256
  6
BYLAYER
 49
-0.5
 62
   256
  6
BYLAYER
  0
ACDBPLACEHOLDER
  5
CE0A
102
{ACAD_REACTORS
330
CE09
102
}
330
CE09
  0
SCALE
  5
CE41
102
{ACAD_REACTORS
330
CE40
102
}
330
CE40
100
AcDbScale
 70
     0
300
1:1
140
1.0
141
1.0
290
     1
  0
SCALE
  5
CE42
102
{ACAD_REACTORS
330
CE40
102
}
330
CE40
100
AcDbScale
 70
     0
300
1/128" = 1'-0"
140
0.0078125
141
12.0
290
     0
  0
SCALE
  5
CE43
102
{ACAD_REACTORS
330
CE40
102
}
330
CE40
100
AcDbScale
 70
     0
300
1/64" = 1'-0"
140
0.015625
141
12.0
290
     0
  0
SCALE
  5
CE44
102
{ACAD_REACTORS
330
CE40
102
}
330
CE40
100
AcDbScale
 70
     0
300
1/32" = 1'-0"
140
0.03125
141
12.0
290
     0
  0
SCALE
  5
CE45
102
{ACAD_REACTORS
330
CE40
102
}
330
CE40
100
AcDbScale
 70
     0
300
1/16" = 1'-0"
140
0.0625
141
12.0
290
     0
  0
SCALE
  5
CE46
102
{ACAD_REACTORS
330
CE40
102
}
330
CE40
100
AcDbScale
 70
     0
300
3/32" = 1'-0"
140
0.09375
141
12.0
290
     0
  0
SCALE
  5
CE47
102
{ACAD_REACTORS
330
CE40
102
}
330
CE40
100
AcDbScale
 70
     0
300
1/8" = 1'-0"
140
0.125
141
12.0
290
     0
  0
SCALE
  5
CE48
102
{ACAD_REACTORS
330
CE40
102
}
330
CE40
100
AcDbScale
 70
     0
300
3/16" = 1'-0"
140
0.1875
141
12.0
290
     0
  0
SCALE
  5
CE49
102
{ACAD_REACTORS
330
CE40
102
}
330
CE40
100
AcDbScale
 70
     0
300
1/4" = 1'-0"
140
0.25
141
12.0
290
     0
  0
SCALE
  5
CE4A
102
{ACAD_REACTORS
330
CE40
102
}
330
CE40
100
AcDbScale
 70
     0
300
3/8" = 1'-0"
140
0.375
141
12.0
290
     0
  0
SCALE
  5
CE4B
102
{ACAD_REACTORS
330
CE40
102
}
330
CE40
100
AcDbScale
 70
     0
300
1/2" = 1'-0"
140
0.5
141
12.0
290
     0
  0
SCALE
  5
CE4C
102
{ACAD_REACTORS
330
CE40
102
}
330
CE40
100
AcDbScale
 70
     0
300
3/4" = 1'-0"
140
0.75
141
12.0
290
     0
  0
SCALE
  5
CE4D
102
{ACAD_REACTORS
330
CE40
102
}
330
CE40
100
AcDbScale
 70
     0
300
1" = 1'-0"
140
1.0
141
12.0
290
     0
  0
SCALE
  5
CE4E
102
{ACAD_REACTORS
330
CE40
102
}
330
CE40
100
AcDbScale
 70
     0
300
1-1/2" = 1'-0"
140
1.5
141
12.0
290
     0
  0
SCALE
  5
CE4F
102
{ACAD_REACTORS
330
CE40
102
}
330
CE40
100
AcDbScale
 70
     0
300
3" = 1'-0"
140
3.0
141
12.0
290
     0
  0
SCALE
  5
CE50
102
{ACAD_REACTORS
330
CE40
102
}
330
CE40
100
AcDbScale
 70
     0
300
6" = 1'-0"
140
6.0
141
12.0
290
     0
  0
SCALE
  5
CE51
102
{ACAD_REACTORS
330
CE40
102
}
330
CE40
100
AcDbScale
 70
     0
300
1'-0" = 1'-0"
140
12.0
141
12.0
290
     0
  0
ACDBSECTIONVIEWSTYLE
  5
CE55
102
{ACAD_XDICTIONARY
360
CEB0
102
}
102
{ACAD_REACTORS
330
CE54
102
}
330
CE54
100
AcDbModelDocViewStyle
 70
     0
  3
Imperial24
290
     0
100
AcDbSectionViewStyle
 70
     0
 71
     0
 90
       78
 71
     1
340
C57A
 40
0.24
340
0
340
0
 40
0.24
300
I, O, Q, S, X, Z
 40
0.48
 90
        3
 40
0.18
 90
        1
 71
     2
340
C57E
 90
       25
340
C57E
 90
       50
 40
0.24
 40
0.0
 40
0.24
 71
     3
340
C57A
 40
0.24
 90
        1
 40
0.75
 90
        1
300
%<\AcVar ViewType \f "%tc1">% %<\AcVar ViewSectionStartId>%-%<\AcVar ViewSectionEndId>%\PSCALE %<\AcVar ViewScale \f "%sn">%
 71
     4
300
ANSI31
 40
1.0
 90
        0
290
     0
290
     0
 90
        6
 40
0.0
 40
1.570796326794896
 40
0.2617993877991494
 40
1.308996938995747
 40
-0.2617993877991494
 40
1.832595714594046
  0
TABLESTYLE
  5
CE3F
102
{ACAD_XDICTIONARY
360
CE77
102
}
102
{ACAD_REACTORS
330
CE3E
102
}
330
CE3E
100
AcDbTableStyle
  3
Standard
 70
     0
 71
     0
 40
0.06
 41
0.06
280
     0
281
     0
  7
STANDARD
140
0.18
170
     2
 62
     0
 63
     7
283
     0
274
    -2
284
     1
 64
     0
275
    -2
285
     1
 65
     0
276
    -2
286
     1
 66
     0
277
    -2
287
     1
 67
     0
278
    -2
288
     1
 68
     0
279
    -2
289
     1
 69
     0
  7
STANDARD
140
0.25
170
     5
 62
     0
 63
     7
283
     0
274
    -2
284
     1
 64
     0
275
    -2
285
     1
 65
     0
276
    -2
286
     1
 66
     0
277
    -2
287
     1
 67
     0
278
    -2
288
     1
 68
     0
279
    -2
289
     1
 69
     0
  7
STANDARD
140
0.18
170
     5
 62
     0
 63
     7
283
     0
274
    -2
284
     1
 64
     0
275
    -2
285
     1
 65
     0
276
    -2
286
     1
 66
     0
277
    -2
287
     1
 67
     0
278
    -2
288
     1
 68
     0
279
    -2
289
     1
 69
     0
  0
VISUALSTYLE
  5
CE2A
102
{ACAD_XDICTIONARY
360
CE88
102
}
102
{ACAD_REACTORS
330
CE24
102
}
330
CE24
100
AcDbVisualStyle
  2
2dWireframe
 70
     4
 71
     0
 72
     2
 73
     0
 90
        0
 40
-0.6
 41
-30.0
 62
     5
 63
     7
 74
     1
 91
        4
 64
     7
 65
   257
 75
     1
175
     1
 42
1.0
 92
        0
 66
   257
 43
1.0
 76
     1
 77
     6
 78
     2
 67
     7
 79
     5
170
     0
171
     0
290
     0
174
     0
 93
        1
 44
0.0
173
     0
291
     0
 45
0.0
1001
ACAD
1000
AcDbSavedByObjectVersion
1070
     0
  0
VISUALSTYLE
  5
CE29
102
{ACAD_XDICTIONARY
360
CE86
102
}
102
{ACAD_REACTORS
330
CE24
102
}
330
CE24
100
AcDbVisualStyle
  2
Basic
 70
     7
 71
     1
 72
     0
 73
     1
 90
        0
 40
-0.6
 41
-30.0
 62
     5
 63
     7
 74
     0
 91
        4
 64
     7
 65
   257
 75
     1
175
     1
 42
1.0
 92
        8
 66
     7
 43
1.0
 76
     1
 77
     6
 78
     2
 67
     7
 79
     5
170
     0
171
     0
290
     0
174
     0
 93
        1
 44
0.0
173
     0
291
     1
 45
0.0
1001
ACAD
1000
AcDbSavedByObjectVersion
1070
     0
  0
VISUALSTYLE
  5
CE30
102
{ACAD_XDICTIONARY
360
CE94
102
}
102
{ACAD_REACTORS
330
CE24
102
}
330
CE24
100
AcDbVisualStyle
  2
Brighten
 70
    12
 71
     2
 72
     2
 73
     0
 90
        0
 40
-0.6
 41
-30.0
 62
     5
 63
     7
 74
     1
 91
        4
 64
     7
 65
   257
 75
     1
175
     1
 42
1.0
 92
        8
 66
     7
 43
1.0
 76
     1
 77
     6
 78
     2
 67
     7
 79
     5
170
     0
171
     0
290
     0
174
     0
 93
        1
 44
50.0
173
     0
291
     1
 45
0.0
1001
ACAD
1000
AcDbSavedByObjectVersion
1070
     0
  0
VISUALSTYLE
  5
CE34
102
{ACAD_XDICTIONARY
360
CE9C
102
}
102
{ACAD_REACTORS
330
CE24
102
}
330
CE24
100
AcDbVisualStyle
  2
ColorChange
 70
    16
 71
     2
 72
     2
 73
     3
 90
        0
 40
-0.6
 41
-30.0
 62
     5
 63
     8
 74
     1
 91
        4
 64
     7
 65
   257
 75
     1
175
     1
 42
1.0
 92
        8
 66
     8
 43
1.0
 76
     1
 77
     6
 78
     2
 67
     7
 79
     5
170
     0
171
     0
290
     0
174
     0
 93
        1
 44
0.0
173
     0
291
     1
 45
0.0
1001
ACAD
1000
AcDbSavedByObjectVersion
1070
     0
  0
VISUALSTYLE
  5
CE2D
102
{ACAD_XDICTIONARY
360
CE8E
102
}
102
{ACAD_REACTORS
330
CE24
102
}
330
CE24
100
AcDbVisualStyle
  2
Conceptual
 70
     9
 71
     3
 72
     2
 73
     0
 90
        0
 40
-0.6
 41
-30.0
 62
     5
 63
     7
 74
     2
 91
        2
 64
     7
 65
   257
 75
     1
175
     1
 42
179.0
 92
        8
 66
     7
 43
1.0
 76
     1
 77
     6
 78
     2
 67
     7
 79
     3
170
     0
171
     0
290
     0
174
     0
 93
        1
 44
0.0
173
     0
291
     0
 45
0.0
1001
ACAD
1000
AcDbSavedByObjectVersion
1070
     0
  0
VISUALSTYLE
  5
CE2F
102
{ACAD_XDICTIONARY
360
CE92
102
}
102
{ACAD_REACTORS
330
CE24
102
}
330
CE24
100
AcDbVisualStyle
  2
Dim
 70
    11
 71
     2
 72
     2
 73
     0
 90
        0
 40
-0.6
 41
-30.0
 62
     5
 63
     7
 74
     1
 91
        4
 64
     7
 65
   257
 75
     1
175
     1
 42
1.0
 92
        8
 66
     7
 43
1.0
 76
     1
 77
     6
 78
     2
 67
     7
 79
     5
170
     0
171
     0
290
     0
174
     0
 93
        1
 44
-50.0
173
     0
291
     1
 45
0.0
1001
ACAD
1000
AcDbSavedByObjectVersion
1070
     0
  0
VISUALSTYLE
  5
CE3C
102
{ACAD_XDICTIONARY
360
CEAC
102
}
102
{ACAD_REACTORS
330
CE24
102
}
330
CE24
100
AcDbVisualStyle
  2
EdgeColorOff
 70
    22
 71
     2
 72
     2
 73
     0
 90
        0
 40
-0.6
 41
-30.0
 62
     5
 63
     7
 74
     1
 91
        4
 64
     7
 65
   257
 75
     1
175
     1
 42
1.0
 92
        8
 66
     7
 43
1.0
 76
     1
 77
     6
 78
     2
 67
     7
 79
     5
170
     0
171
     0
290
     0
174
     0
 93
        1
 44
0.0
173
     0
291
     1
 45
0.0
1001
ACAD
1000
AcDbSavedByObjectVersion
1070
     0
  0
VISUALSTYLE
  5
CE33
102
{ACAD_XDICTIONARY
360
CE9A
102
}
102
{ACAD_REACTORS
330
CE24
102
}
330
CE24
100
AcDbVisualStyle
  2
Facepattern
 70
    15
 71
     2
 72
     2
 73
     0
 90
        0
 40
-0.6
 41
-30.0
 62
     5
 63
     7
 74
     1
 91
        4
 64
     7
 65
   257
 75
     1
175
     1
 42
1.0
 92
        8
 66
     7
 43
1.0
 76
     1
 77
     6
 78
     2
 67
     7
 79
     5
170
     0
171
     0
290
     0
174
     0
 93
        1
 44
0.0
173
     0
291
     1
 45
0.0
1001
ACAD
1000
AcDbSavedByObjectVersion
1070
     0
  0
VISUALSTYLE
  5
CE25
102
{ACAD_XDICTIONARY
360
CE7E
102
}
102
{ACAD_REACTORS
330
CE24
102
}
330
CE24
100
AcDbVisualStyle
  2
Flat
 70
     0
 71
     2
 72
     1
 73
     1
 90
        2
 40
-0.6
 41
30.0
 62
     5
 63
     7
 74
     0
 91
        0
 64
     7
 65
   257
 75
     1
175
     1
 42
1.0
 92
        8
 66
     7
 43
1.0
 76
     1
 77
     6
 78
     2
 67
     7
 79
     5
170
     0
171
     0
290
     0
174
     0
 93
       13
 44
0.0
173
     0
291
     1
 45
0.0
1001
ACAD
1000
AcDbSavedByObjectVersion
1070
     0
  0
VISUALSTYLE
  5
CE26
102
{ACAD_XDICTIONARY
360
CE80
102
}
102
{ACAD_REACTORS
330
CE24
102
}
330
CE24
100
AcDbVisualStyle
  2
FlatWithEdges
 70
     1
 71
     2
 72
     1
 73
     1
 90
        2
 40
-0.6
 41
30.0
 62
     5
 63
     7
 74
     1
 91
        0
 64
     7
 65
   257
 75
     1
175
     1
 42
1.0
 92
        0
 66
   257
 43
1.0
 76
     1
 77
     6
 78
     2
 67
     7
 79
     5
170
     0
171
     0
290
     0
174
     0
 93
       13
 44
0.0
173
     0
291
     1
 45
0.0
1001
ACAD
1000
AcDbSavedByObjectVersion
1070
     0
  0
VISUALSTYLE
  5
CE27
102
{ACAD_XDICTIONARY
360
CE82
102
}
102
{ACAD_REACTORS
330
CE24
102
}
330
CE24
100
AcDbVisualStyle
  2
Gouraud
 70
     2
 71
     2
 72
     2
 73
     1
 90
        2
 40
-0.6
 41
30.0
 62
     5
 63
     7
 74
     0
 91
        0
 64
     7
 65
   257
 75
     1
175
     1
 42
1.0
 92
        0
 66
     7
 43
1.0
 76
     1
 77
     6
 78
     2
 67
     7
 79
     5
170
     0
171
     0
290
     0
174
     0
 93
       13
 44
0.0
173
     0
291
     1
 45
0.0
1001
ACAD
1000
AcDbSavedByObjectVersion
1070
     0
  0
VISUALSTYLE
  5
CE28
102
{ACAD_XDICTIONARY
360
CE84
102
}
102
{ACAD_REACTORS
330
CE24
102
}
330
CE24
100
AcDbVisualStyle
  2
GouraudWithEdges
 70
     3
 71
     2
 72
     2
 73
     1
 90
        2
 40
-0.6
 41
30.0
 62
     5
 63
     7
 74
     1
 91
        0
 64
     7
 65
   257
 75
     1
175
     1
 42
1.0
 92
        0
 66
   257
 43
1.0
 76
     1
 77
     6
 78
     2
 67
     7
 79
     5
170
     0
171
     0
290
     0
174
     0
 93
       13
 44
0.0
173
     0
291
     1
 45
0.0
1001
ACAD
1000
AcDbSavedByObjectVersion
1070
     0
  0
VISUALSTYLE
  5
CE2C
102
{ACAD_XDICTIONARY
360
CE8C
102
}
102
{ACAD_REACTORS
330
CE24
102
}
330
CE24
100
AcDbVisualStyle
  2
Hidden
 70
     6
 71
     1
 72
     2
 73
     2
 90
        0
 40
-0.6
 41
-30.0
 62
     5
 63
     7
 74
     2
 91
        2
 64
     7
 65
   257
 75
     2
175
     1
 42
40.0
 92
        0
 66
   257
 43
1.0
 76
     1
 77
     6
 78
     2
 67
     7
 79
     3
170
     0
171
     0
290
     0
174
     0
 93
        1
 44
0.0
173
     0
291
     0
 45
0.0
1001
ACAD
1000
AcDbSavedByObjectVersion
1070
     0
  0
VISUALSTYLE
  5
CE3A
102
{ACAD_XDICTIONARY
360
CEA8
102
}
102
{ACAD_REACTORS
330
CE24
102
}
330
CE24
100
AcDbVisualStyle
  2
JitterOff
 70
    20
 71
     2
 72
     2
 73
     0
 90
        0
 40
-0.6
 41
-30.0
 62
     5
 63
     7
 74
     1
 91
        4
 64
     7
 65
   257
 75
     1
175
     1
 42
1.0
 92
       10
 66
     7
 43
1.0
 76
     1
 77
     6
 78
     2
 67
     7
 79
     5
170
     0
171
     0
290
     0
174
     0
 93
        1
 44
0.0
173
     0
291
     1
 45
0.0
1001
ACAD
1000
AcDbSavedByObjectVersion
1070
     0
  0
VISUALSTYLE
  5
CE32
102
{ACAD_XDICTIONARY
360
CE98
102
}
102
{ACAD_REACTORS
330
CE24
102
}
330
CE24
100
AcDbVisualStyle
  2
Linepattern
 70
    14
 71
     2
 72
     2
 73
     0
 90
        0
 40
-0.6
 41
-30.0
 62
     5
 63
     7
 74
     1
 91
        4
 64
     7
 65
   257
 75
     7
175
     7
 42
1.0
 92
        8
 66
     7
 43
1.0
 76
     1
 77
     6
 78
     2
 67
     7
 79
     5
170
     0
171
     0
290
     0
174
     0
 93
        1
 44
0.0
173
     0
291
     1
 45
0.0
1001
ACAD
1000
AcDbSavedByObjectVersion
1070
     0
  0
VISUALSTYLE
  5
CE3B
102
{ACAD_XDICTIONARY
360
CEAA
102
}
102
{ACAD_REACTORS
330
CE24
102
}
330
CE24
100
AcDbVisualStyle
  2
OverhangOff
 70
    21
 71
     2
 72
     2
 73
     0
 90
        0
 40
-0.6
 41
-30.0
 62
     5
 63
     7
 74
     1
 91
        4
 64
     7
 65
   257
 75
     1
175
     1
 42
1.0
 92
        9
 66
     7
 43
1.0
 76
     1
 77
     6
 78
     2
 67
     7
 79
     5
170
     0
171
     0
290
     0
174
     0
 93
        1
 44
0.0
173
     0
291
     1
 45
0.0
1001
ACAD
1000
AcDbSavedByObjectVersion
1070
     0
  0
VISUALSTYLE
  5
CE2E
102
{ACAD_XDICTIONARY
360
CE90
102
}
102
{ACAD_REACTORS
330
CE24
102
}
330
CE24
100
AcDbVisualStyle
  2
Realistic
 70
     8
 71
     2
 72
     3
 73
     0
 90
        2
 40
-0.6
 41
30.0
 62
     5
 63
     7
 74
     0
 91
        0
 64
     7
 65
   257
 75
     1
175
     1
 42
1.0
 92
        8
 66
   257
 43
1.0
 76
     1
 77
     6
 78
     2
 67
     7
 79
     3
170
     0
171
     0
290
     0
174
     0
 93
       13
 44
0.0
173
     0
291
     0
 45
0.0
1001
ACAD
1000
AcDbSavedByObjectVersion
1070
     0
  0
VISUALSTYLE
  5
CE39
102
{ACAD_XDICTIONARY
360
CEA6
102
}
102
{ACAD_REACTORS
330
CE24
102
}
330
CE24
100
AcDbVisualStyle
  2
Shaded
 70
    27
 71
     2
 72
     2
 73
     1
 90
        2
 40
-0.6
 41
30.0
 62
     5
 63
     7
 74
     0
 91
        4
 64
     7
 65
   257
 75
     1
175
     1
 42
1.0
 92
        8
 66
   257
 43
1.0
 76
     1
 77
     6
 78
     2
 67
     8
 79
     3
170
     0
171
     0
290
     0
174
     0
 93
        5
 44
0.0
173
     0
291
     0
 45
0.0
1001
ACAD
1000
AcDbSavedByObjectVersion
1070
     0
  0
VISUALSTYLE
  5
CE38
102
{ACAD_XDICTIONARY
360
CEA4
102
}
102
{ACAD_REACTORS
330
CE24
102
}
330
CE24
100
AcDbVisualStyle
  2
Shaded with edges
 70
    26
 71
     2
 72
     2
 73
     1
 90
        2
 40
-0.6
 41
30.0
 62
     5
 63
     7
 74
     1
 91
       10
 64
     7
 65
   257
 75
     2
175
     1
 42
1.0
 92
        8
 66
   257
 43
1.0
 76
     1
 77
     6
 78
     2
 67
     7
 79
     3
170
     0
171
     0
290
     0
174
     0
 93
        5
 44
0.0
173
     0
291
     0
 45
0.0
1001
ACAD
1000
AcDbSavedByObjectVersion
1070
     0
  0
VISUALSTYLE
  5
CE35
102
{ACAD_XDICTIONARY
360
CE9E
102
}
102
{ACAD_REACTORS
330
CE24
102
}
330
CE24
100
AcDbVisualStyle
  2
Shades of Gray
 70
    23
 71
     2
 72
     2
 73
     3
 90
        0
 40
-0.6
 41
-30.0
 62
     5
 63
     7
 74
     2
 91
        2
 64
     7
 65
     7
 75
     1
175
     1
 42
40.0
 92
        8
 66
     7
 43
1.0
 76
     1
 77
     6
 78
     2
 67
     7
 79
     3
170
     0
171
     0
290
     0
174
     0
 93
        1
 44
0.0
173
     0
291
     0
 45
0.0
1001
ACAD
1000
AcDbSavedByObjectVersion
1070
     0
  0
VISUALSTYLE
  5
CE36
102
{ACAD_XDICTIONARY
360
CEA0
102
}
102
{ACAD_REACTORS
330
CE24
102
}
330
CE24
100
AcDbVisualStyle
  2
Sketchy
 70
    24
 71
     1
 72
     2
 73
     2
 90
        0
 40
-0.6
 41
-30.0
 62
     5
 63
     7
 74
     2
 91
        2
 64
     7
 65
     7
 75
     1
175
     1
 42
40.0
 92
       11
 66
     7
 43
1.0
 76
     1
 77
     6
 78
     2
 67
     7
 79
     6
170
     0
171
     0
290
     0
174
     0
 93
        1
 44
0.0
173
     0
291
     0
 45
0.0
1001
ACAD
1000
AcDbSavedByObjectVersion
1070
     0
  0
VISUALSTYLE
  5
CE31
102
{ACAD_XDICTIONARY
360
CE96
102
}
102
{ACAD_REACTORS
330
CE24
102
}
330
CE24
100
AcDbVisualStyle
  2
Thicken
 70
    13
 71
     2
 72
     2
 73
     0
 90
        0
 40
-0.6
 41
-30.0
 62
     5
 63
     7
 74
     1
 91
        4
 64
     7
 65
   257
 75
     1
175
     1
 42
1.0
 92
       12
 66
     7
 43
1.0
 76
     1
 77
     6
 78
     2
 67
     7
 79
     5
170
     0
171
     0
290
     0
174
     0
 93
        1
 44
0.0
173
     0
291
     1
 45
0.0
1001
ACAD
1000
AcDbSavedByObjectVersion
1070
     0
  0
VISUALSTYLE
  5
CE2B
102
{ACAD_XDICTIONARY
360
CE8A
102
}
102
{ACAD_REACTORS
330
CE24
102
}
330
CE24
100
AcDbVisualStyle
  2
Wireframe
 70
     5
 71
     0
 72
     2
 73
     0
 90
        0
 40
-0.6
 41
-30.0
 62
     5
 63
     7
 74
     1
 91
        4
 64
     7
 65
   257
 75
     1
175
     1
 42
1.0
 92
        0
 66
   257
 43
1.0
 76
     1
 77
     6
 78
     2
 67
     7
 79
     3
170
     0
171
     0
290
     0
174
     0
 93
        1
 44
0.0
173
     0
291
     0
 45
0.0
1001
ACAD
1000
AcDbSavedByObjectVersion
1070
     0
  0
VISUALSTYLE
  5
CE37
102
{ACAD_XDICTIONARY
360
CEA2
102
}
102
{ACAD_REACTORS
330
CE24
102
}
330
CE24
100
AcDbVisualStyle
  2
X-Ray
 70
    25
 71
     2
 72
     2
 73
     1
 90
        1
 40
0.5
 41
-30.0
 62
     5
 63
     7
 74
     1
 91
        0
 64
     7
 65
   257
 75
     1
175
     1
 42
1.0
 92
        8
 66
     7
 43
1.0
 76
     1
 77
     6
 78
     2
 67
     7
 79
     3
170
     0
171
     0
290
     0
174
     0
 93
       13
 44
0.0
173
     0
291
     0
 45
0.0
1001
ACAD
1000
AcDbSavedByObjectVersion
1070
     0
  0
DICTIONARYVAR
  5
CE71
102
{ACAD_REACTORS
330
CE6C
102
}
330
CE6C
100
DictionaryVariables
280
     0
  1
1:1
  0
DICTIONARYVAR
  5
CE6E
102
{ACAD_REACTORS
330
CE6C
102
}
330
CE6C
100
DictionaryVariables
280
     0
  1
STANDARD
  0
DICTIONARYVAR
  5
CE6D
102
{ACAD_REACTORS
330
CE6C
102
}
330
CE6C
100
DictionaryVariables
280
     0
  1
STANDARD
  0
DICTIONARYVAR
  5
CE6F
102
{ACAD_REACTORS
330
CE6C
102
}
330
CE6C
100
DictionaryVariables
280
     0
  1
Imperial24
  0
DICTIONARYVAR
  5
CE70
102
{ACAD_REACTORS
330
CE6C
102
}
330
CE6C
100
DictionaryVariables
280
     0
  1
Imperial24
  0
DICTIONARYVAR
  5
CE74
102
{ACAD_REACTORS
330
CE6C
102
}
330
CE6C
100
DictionaryVariables
280
     0
  1
1
  0
DICTIONARYVAR
  5
CE73
102
{ACAD_REACTORS
330
CE6C
102
}
330
CE6C
100
DictionaryVariables
280
     0
  1
0
  0
DICTIONARYVAR
  5
CE72
102
{ACAD_REACTORS
330
CE6C
102
}
330
CE6C
100
DictionaryVariables
280
     0
  1
127
  0
DICTIONARYVAR
  5
CE75
102
{ACAD_REACTORS
330
CE6C
102
}
330
CE6C
100
DictionaryVariables
280
     0
  1
2
  0
DICTIONARY
  5
CEB2
330
CE57
100
AcDbDictionary
280
     1
281
     1
  3
ACAD_XREC_ROUNDTRIP
360
CEB3
  0
DICTIONARY
  5
CEB4
330
CE58
100
AcDbDictionary
280
     1
281
     1
  3
ACAD_XREC_ROUNDTRIP
360
CEB5
  0
DICTIONARY
  5
CEB6
330
CE59
100
AcDbDictionary
280
     1
281
     1
  3
ACAD_XREC_ROUNDTRIP
360
CEB7
  0
DICTIONARY
  5
CE15
330
CE14
100
AcDbDictionary
280
     1
281
     1
  3
ACAD_XREC_ROUNDTRIP
360
CE7C
  3
BUMPTILE
360
CE17
  3
DIFFUSETILE
360
CE16
  3
OPACITYTILE
360
CE1A
  3
REFLECTIONTILE
360
CE19
  3
REFRACTIONTILE
360
CE1B
  3
SPECULARTILE
360
CE18
  0
DICTIONARY
  5
CE0D
330
CE0C
100
AcDbDictionary
280
     1
281
     1
  3
ACAD_XREC_ROUNDTRIP
360
CE7B
  3
BUMPTILE
360
CE0F
  3
DIFFUSETILE
360
CE0E
  3
OPACITYTILE
360
CE12
  3
REFLECTIONTILE
360
CE11
  3
REFRACTIONTILE
360
CE13
  3
SPECULARTILE
360
CE10
  0
DICTIONARY
  5
CE1D
330
CE1C
100
AcDbDictionary
280
     1
281
     1
  3
ACAD_XREC_ROUNDTRIP
360
CE7D
  3
BUMPTILE
360
CE1F
  3
DIFFUSETILE
360
CE1E
  3
OPACITYTILE
360
CE22
  3
REFLECTIONTILE
360
CE21
  3
REFRACTIONTILE
360
CE23
  3
SPECULARTILE
360
CE20
  0
DICTIONARY
  5
CEB0
330
CE55
100
AcDbDictionary
280
     1
281
     1
  3
ACAD_XREC_ROUNDTRIP
360
CEB1
  0
DICTIONARY
  5
CE77
330
CE3F
100
AcDbDictionary
280
     1
281
     1
  3
ACAD_ROUNDTRIP_2008_TABLESTYLE_CELLSTYLEMAP
360
CE78
  3
ACAD_XREC_ROUNDTRIP
360
CEAE
  0
DICTIONARY
  5
CE88
330
CE2A
100
AcDbDictionary
280
     1
281
     1
  3
ACAD_XREC_ROUNDTRIP
360
CE89
  0
DICTIONARY
  5
CE86
330
CE29
100
AcDbDictionary
280
     1
281
     1
  3
ACAD_XREC_ROUNDTRIP
360
CE87
  0
DICTIONARY
  5
CE94
330
CE30
100
AcDbDictionary
280
     1
281
     1
  3
ACAD_XREC_ROUNDTRIP
360
CE95
  0
DICTIONARY
  5
CE9C
330
CE34
100
AcDbDictionary
280
     1
281
     1
  3
ACAD_XREC_ROUNDTRIP
360
CE9D
  0
DICTIONARY
  5
CE8E
330
CE2D
100
AcDbDictionary
280
     1
281
     1
  3
ACAD_XREC_ROUNDTRIP
360
CE8F
  0
DICTIONARY
  5
CE92
330
CE2F
100
AcDbDictionary
280
     1
281
     1
  3
ACAD_XREC_ROUNDTRIP
360
CE93
  0
DICTIONARY
  5
CEAC
330
CE3C
100
AcDbDictionary
280
     1
281
     1
  3
ACAD_XREC_ROUNDTRIP
360
CEAD
  0
DICTIONARY
  5
CE9A
330
CE33
100
AcDbDictionary
280
     1
281
     1
  3
ACAD_XREC_ROUNDTRIP
360
CE9B
  0
DICTIONARY
  5
CE7E
330
CE25
100
AcDbDictionary
280
     1
281
     1
  3
ACAD_XREC_ROUNDTRIP
360
CE7F
  0
DICTIONARY
  5
CE80
330
CE26
100
AcDbDictionary
280
     1
281
     1
  3
ACAD_XREC_ROUNDTRIP
360
CE81
  0
DICTIONARY
  5
CE82
330
CE27
100
AcDbDictionary
280
     1
281
     1
  3
ACAD_XREC_ROUNDTRIP
360
CE83
  0
DICTIONARY
  5
CE84
330
CE28
100
AcDbDictionary
280
     1
281
     1
  3
ACAD_XREC_ROUNDTRIP
360
CE85
  0
DICTIONARY
  5
CE8C
330
CE2C
100
AcDbDictionary
280
     1
281
     1
  3
ACAD_XREC_ROUNDTRIP
360
CE8D
  0
DICTIONARY
  5
CEA8
330
CE3A
100
AcDbDictionary
280
     1
281
     1
  3
ACAD_XREC_ROUNDTRIP
360
CEA9
  0
DICTIONARY
  5
CE98
330
CE32
100
AcDbDictionary
280
     1
281
     1
  3
ACAD_XREC_ROUNDTRIP
360
CE99
  0
DICTIONARY
  5
CEAA
330
CE3B
100
AcDbDictionary
280
     1
281
     1
  3
ACAD_XREC_ROUNDTRIP
360
CEAB
  0
DICTIONARY
  5
CE90
330
CE2E
100
AcDbDictionary
280
     1
281
     1
  3
ACAD_XREC_ROUNDTRIP
360
CE91
  0
DICTIONARY
  5
CEA6
330
CE39
100
AcDbDictionary
280
     1
281
     1
  3
ACAD_XREC_ROUNDTRIP
360
CEA7
  0
DICTIONARY
  5
CEA4
330
CE38
100
AcDbDictionary
280
     1
281
     1
  3
ACAD_XREC_ROUNDTRIP
360
CEA5
  0
DICTIONARY
  5
CE9E
330
CE35
100
AcDbDictionary
280
     1
281
     1
  3
ACAD_XREC_ROUNDTRIP
360
CE9F
  0
DICTIONARY
  5
CEA0
330
CE36
100
AcDbDictionary
280
     1
281
     1
  3
ACAD_XREC_ROUNDTRIP
360
CEA1
  0
DICTIONARY
  5
CE96
330
CE31
100
AcDbDictionary
280
     1
281
     1
  3
ACAD_XREC_ROUNDTRIP
360
CE97
  0
DICTIONARY
  5
CE8A
330
CE2B
100
AcDbDictionary
280
     1
281
     1
  3
ACAD_XREC_ROUNDTRIP
360
CE8B
  0
DICTIONARY
  5
CEA2
330
CE37
100
AcDbDictionary
280
     1
281
     1
  3
ACAD_XREC_ROUNDTRIP
360
CEA3
  0
XRECORD
  5
CEB3
102
{ACAD_REACTORS
330
CEB2
102
}
330
CEB2
100
AcDbXrecord
280
     1
102
DISPLAYNAME
  1
Imperial24
102
FLAGS
 90
        0
  0
XRECORD
  5
CEB5
102
{ACAD_REACTORS
330
CEB4
102
}
330
CEB4
100
AcDbXrecord
280
     1
102
SHADEPLOT
 70
     0
102
SHADEPLOTRESLEVEL
 70
     2
102
SHADEPLOTCUSTOMDPI
 70
   300
  0
XRECORD
  5
CEB7
102
{ACAD_REACTORS
330
CEB6
102
}
330
CEB6
100
AcDbXrecord
280
     1
102
SHADEPLOT
 70
     0
102
SHADEPLOTRESLEVEL
 70
     2
102
SHADEPLOTCUSTOMDPI
 70
   300
  0
XRECORD
  5
CE7C
102
{ACAD_REACTORS
330
CE15
102
}
330
CE15
100
AcDbXrecord
280
     1
102
MATERIAL
148
0.0
149
0.0
149
0.0
 93
        0
 94
      127
282
     0
 72
     0
 77
     0
171
     0
175
     0
179
     0
273
     0
  0
XRECORD
  5
CE17
102
{ACAD_REACTORS
330
CE15
102
}
330
CE15
100
AcDbXrecord
280
     1
270
     1
271
     1
  0
XRECORD
  5
CE16
102
{ACAD_REACTORS
330
CE15
102
}
330
CE15
100
AcDbXrecord
280
     1
270
     1
271
     1
  0
XRECORD
  5
CE1A
102
{ACAD_REACTORS
330
CE15
102
}
330
CE15
100
AcDbXrecord
280
     1
270
     1
271
     1
  0
XRECORD
  5
CE19
102
{ACAD_REACTORS
330
CE15
102
}
330
CE15
100
AcDbXrecord
280
     1
270
     1
271
     1
  0
XRECORD
  5
CE1B
102
{ACAD_REACTORS
330
CE15
102
}
330
CE15
100
AcDbXrecord
280
     1
270
     1
271
     1
  0
XRECORD
  5
CE18
102
{ACAD_REACTORS
330
CE15
102
}
330
CE15
100
AcDbXrecord
280
     1
270
     1
271
     1
  0
XRECORD
  5
CE7B
102
{ACAD_REACTORS
330
CE0D
102
}
330
CE0D
100
AcDbXrecord
280
     1
102
MATERIAL
148
0.0
149
0.0
149
0.0
 93
        0
 94
      127
282
     0
 72
     0
 77
     0
171
     0
175
     0
179
     0
273
     0
  0
XRECORD
  5
CE0F
102
{ACAD_REACTORS
330
CE0D
102
}
330
CE0D
100
AcDbXrecord
280
     1
270
     1
271
     1
  0
XRECORD
  5
CE0E
102
{ACAD_REACTORS
330
CE0D
102
}
330
CE0D
100
AcDbXrecord
280
     1
270
     1
271
     1
  0
XRECORD
  5
CE12
102
{ACAD_REACTORS
330
CE0D
102
}
330
CE0D
100
AcDbXrecord
280
     1
270
     1
271
     1
  0
XRECORD
  5
CE11
102
{ACAD_REACTORS
330
CE0D
102
}
330
CE0D
100
AcDbXrecord
280
     1
270
     1
271
     1
  0
XRECORD
  5
CE13
102
{ACAD_REACTORS
330
CE0D
102
}
330
CE0D
100
AcDbXrecord
280
     1
270
     1
271
     1
  0
XRECORD
  5
CE10
102
{ACAD_REACTORS
330
CE0D
102
}
330
CE0D
100
AcDbXrecord
280
     1
270
     1
271
     1
  0
XRECORD
  5
CE7D
102
{ACAD_REACTORS
330
CE1D
102
}
330
CE1D
100
AcDbXrecord
280
     1
102
MATERIAL
148
0.0
149
0.0
149
0.0
 93
        0
 94
      127
282
     0
 72
     0
 77
     0
171
     0
175
     0
179
     0
273
     0
  0
XRECORD
  5
CE1F
102
{ACAD_REACTORS
330
CE1D
102
}
330
CE1D
100
AcDbXrecord
280
     1
270
     1
271
     1
  0
XRECORD
  5
CE1E
102
{ACAD_REACTORS
330
CE1D
102
}
330
CE1D
100
AcDbXrecord
280
     1
270
     1
271
     1
  0
XRECORD
  5
CE22
102
{ACAD_REACTORS
330
CE1D
102
}
330
CE1D
100
AcDbXrecord
280
     1
270
     1
271
     1
  0
XRECORD
  5
CE21
102
{ACAD_REACTORS
330
CE1D
102
}
330
CE1D
100
AcDbXrecord
280
     1
270
     1
271
     1
  0
XRECORD
  5
CE23
102
{ACAD_REACTORS
330
CE1D
102
}
330
CE1D
100
AcDbXrecord
280
     1
270
     1
271
     1
  0
XRECORD
  5
CE20
102
{ACAD_REACTORS
330
CE1D
102
}
330
CE1D
100
AcDbXrecord
280
     1
270
     1
271
     1
  0
XRECORD
  5
CEB1
102
{ACAD_REACTORS
330
CEB0
102
}
330
CEB0
100
AcDbXrecord
280
     1
102
DISPLAYNAME
  1
Imperial24
102
FLAGS
 90
        0
  0
CELLSTYLEMAP
  5
CE78
102
{ACAD_REACTORS
330
CE77
102
}
330
CE77
100
AcDbCellStyleMap
 90
        3
300
CELLSTYLE
  1
TABLEFORMAT_BEGIN
 90
        5
170
     1
 91
        0
 92
    32768
 62
   257
 93
        1
300
CONTENTFORMAT
  1
CONTENTFORMAT_BEGIN
 90
        0
 91
        0
 92
      512
 93
        0
300

 40
0.0
140
1.0
 94
        5
 62
     0
340
C57A
144
0.25
309
CONTENTFORMAT_END
171
     0
 94
        0
309
TABLEFORMAT_END
  1
CELLSTYLE_BEGIN
 90
        1
 91
        1
300
_TITLE
309
CELLSTYLE_END
300
CELLSTYLE
  1
TABLEFORMAT_BEGIN
 90
        5
170
     1
 91
        0
 92
        0
 62
   257
 93
        1
300
CONTENTFORMAT
  1
CONTENTFORMAT_BEGIN
 90
        0
 91
        0
 92
      512
 93
        0
300

 40
0.0
140
1.0
 94
        5
 62
     0
340
C57A
144
0.18
309
CONTENTFORMAT_END
171
     0
 94
        0
309
TABLEFORMAT_END
  1
CELLSTYLE_BEGIN
 90
        2
 91
        1
300
_HEADER
309
CELLSTYLE_END
300
CELLSTYLE
  1
TABLEFORMAT_BEGIN
 90
        5
170
     1
 91
        0
 92
        0
 62
   257
 93
        1
300
CONTENTFORMAT
  1
CONTENTFORMAT_BEGIN
 90
        0
 91
        0
 92
      512
 93
        0
300

 40
0.0
140
1.0
 94
        2
 62
     0
340
C57A
144
0.18
309
CONTENTFORMAT_END
171
     0
 94
        0
309
TABLEFORMAT_END
  1
CELLSTYLE_BEGIN
 90
        3
 91
        2
300
_DATA
309
CELLSTYLE_END
  0
XRECORD
  5
CEAE
102
{ACAD_REACTORS
330
CE77
102
}
330
CE77
100
AcDbXrecord
280
     1
102
ACAD_ROUNDTRIP_PRE2007_TABLESTYLE
 90
      512
 91
        0
  1

 92
      512
 93
        0
  2

 94
      512
 95
        0
  3

  0
XRECORD
  5
CE89
102
{ACAD_REACTORS
330
CE88
102
}
330
CE88
100
AcDbXrecord
280
     1
102
RTVSPost2010Prop28
280
     1
102
RTVSPost2010PropOp28
 70
     1
102
RTVSPost2010Prop29
280
     1
102
RTVSPost2010PropOp29
 70
     1
102
RTVSPost2010Prop30
280
     0
102
RTVSPost2010PropOp30
 70
     1
102
RTVSPost2010Prop31
280
     0
102
RTVSPost2010PropOp31
 70
     1
102
RTVSPost2010Prop32
280
     0
102
RTVSPost2010PropOp32
 70
     1
102
RTVSPost2010Prop33
280
     0
102
RTVSPost2010PropOp33
 70
     1
102
RTVSPost2010Prop34
280
     0
102
RTVSPost2010PropOp34
 70
     1
102
RTVSPost2010Prop35
280
     0
102
RTVSPost2010PropOp35
 70
     1
102
RTVSPost2010Prop36
280
     0
102
RTVSPost2010PropOp36
 70
     1
102
RTVSPost2010Prop37
 90
       50
102
RTVSPost2010PropOp37
 70
     1
102
RTVSPost2010Prop38
140
0.0
102
RTVSPost2010PropOp38
 70
     1
102
RTVSPost2010Prop39
140
1.0
102
RTVSPost2010PropOp39
 70
     1
102
RTVSPost2010Prop40
 90
        0
102
RTVSPost2010PropOp40
 70
     1
102
RTVSPost2010Prop41ColorIndex
 90
       18
102
RTVSPost2010Prop41ColorRGB
 90
        0
102
RTVSPost2010PropOp41
 70
     1
102
RTVSPost2010Prop42
 90
       50
102
RTVSPost2010PropOp42
 70
     1
102
RTVSPost2010Prop43
 90
        3
102
RTVSPost2010PropOp43
 70
     1
102
RTVSPost2010Prop44ColorIndex
 90
        5
102
RTVSPost2010Prop44ColorRGB
 90
      255
102
RTVSPost2010PropOp44
 70
     1
102
RTVSPost2010Prop45
280
     0
102
RTVSPost2010PropOp45
 70
     1
102
RTVSPost2010Prop46
 90
       50
102
RTVSPost2010PropOp46
 70
     1
102
RTVSPost2010Prop47
 90
       50
102
RTVSPost2010PropOp47
 70
     1
102
RTVSPost2010Prop48
 90
       50
102
RTVSPost2010PropOp48
 70
     1
102
RTVSPost2010Prop49
280
     0
102
RTVSPost2010PropOp49
 70
     1
102
RTVSPost2010Prop50
 90
       50
102
RTVSPost2010PropOp50
 70
     1
102
RTVSPost2010Prop51ColorIndex
 90
      256
102
RTVSPost2010Prop51ColorRGB
 90
-16777216
102
RTVSPost2010PropOp51
 70
     0
102
RTVSPost2010Prop52
140
1.0
102
RTVSPost2010PropOp52
 70
     0
102
RTVSPost2010Prop53
 90
        2
102
RTVSPost2010PropOp53
 70
     1
102
RTVSPost2010Prop54
  1
strokes_ogs.tif
102
RTVSPost2010PropOp54
 70
     1
102
RTVSPost2010Prop55
280
     0
102
RTVSPost2010PropOp55
 70
     1
102
RTVSPost2010Prop56
140
1.0
102
RTVSPost2010PropOp56
 70
     1
102
RTVSPost2010Prop57
140
1.0
102
RTVSPost2010PropOp57
 70
     1
102
RTVSPropertyOp0
 70
     1
102
RTVSPropertyOp1
 70
     1
102
RTVSPropertyOp2
 70
     1
102
RTVSPropertyOp3
 70
     1
102
RTVSPropertyOp4
 70
     1
102
RTVSPropertyOp5
 70
     1
102
RTVSPropertyOp6
 70
     1
102
RTVSPropertyOp7
 70
     1
102
RTVSPropertyOp8
 70
     1
102
RTVSPropertyOp9
 70
     1
102
RTVSPropertyOp10
 70
     1
102
RTVSPropertyOp11
 70
     1
102
RTVSPropertyOp12
 70
     1
102
RTVSPropertyOp13
 70
     1
102
RTVSPropertyOp14
 70
     1
102
RTVSPropertyOp15
 70
     1
102
RTVSPropertyOp16
 70
     1
102
RTVSPropertyOp17
 70
     1
102
RTVSPropertyOp18
 70
     1
102
RTVSPropertyOp19
 70
     1
102
RTVSPropertyOp20
 70
     1
102
RTVSPropertyOp21
 70
     1
102
RTVSPropertyOp22
 70
     1
102
RTVSPropertyOp23
 70
     1
102
RTVSPropertyOp24
 70
     1
102
RTVSPropertyOp25
 70
     1
102
RTVSPropertyOp26
 70
     1
102
RTVSPropertyOp27
 70
     1
102
RTVSPropertyOp28
 70
     1
102
RTVSPropertyOp29
 70
     1
102
RTVSPropertyOp30
 70
     1
102
RTVSPropertyOp31
 70
     1
102
RTVSPropertyOp32
 70
     1
102
RTVSPropertyOp33
 70
     1
102
RTVSPropertyOp34
 70
     1
102
RTVSPropertyOp35
 70
     1
102
RTVSPropertyOp36
 70
     1
102
RTVSPropertyOp37
 70
     1
102
RTVSPropertyOp38
 70
     1
102
RTVSPropertyOp39
 70
     1
102
RTVSPropertyOp40
 70
     1
102
RTVSPropertyOp41
 70
     1
102
RTVSPropertyOp42
 70
     1
102
RTVSPropertyOp43
 70
     1
102
RTVSPropertyOp44
 70
     1
102
RTVSPropertyOp45
 70
     1
102
RTVSPropertyOp46
 70
     1
102
RTVSPropertyOp47
 70
     1
102
RTVSPropertyOp48
 70
     1
102
RTVSPropertyOp49
 70
     1
102
RTVSPropertyOp50
 70
     1
102
RTVSPropertyOp51
 70
     0
102
RTVSPropertyOp52
 70
     0
102
RTVSPropertyOp53
 70
     1
102
RTVSPropertyOp54
 70
     1
102
RTVSPropertyOp55
 70
     1
102
RTVSPropertyOp56
 70
     1
102
RTVSPropertyOp57
 70
     1
102
RTVSPropertyOp58
 70
     1
102
RTVSPropertyOp59
 70
     1
102
RTVSPropertyOp60
 70
     1
102
RTVSPropertyOp61
 70
     1
102
RTVSPropertyOp62
 70
     1
  0
XRECORD
  5
CE87
102
{ACAD_REACTORS
330
CE86
102
}
330
CE86
100
AcDbXrecord
280
     1
102
RTVSPost2010Prop28
280
     0
102
RTVSPost2010PropOp28
 70
     1
102
RTVSPost2010Prop29
280
     1
102
RTVSPost2010PropOp29
 70
     1
102
RTVSPost2010Prop30
280
     1
102
RTVSPost2010PropOp30
 70
     1
102
RTVSPost2010Prop31
280
     0
102
RTVSPost2010PropOp31
 70
     1
102
RTVSPost2010Prop32
280
     0
102
RTVSPost2010PropOp32
 70
     1
102
RTVSPost2010Prop33
280
     0
102
RTVSPost2010PropOp33
 70
     1
102
RTVSPost2010Prop34
280
     0
102
RTVSPost2010PropOp34
 70
     1
102
RTVSPost2010Prop35
280
     0
102
RTVSPost2010PropOp35
 70
     1
102
RTVSPost2010Prop36
280
     0
102
RTVSPost2010PropOp36
 70
     1
102
RTVSPost2010Prop37
 90
       50
102
RTVSPost2010PropOp37
 70
     1
102
RTVSPost2010Prop38
140
0.0
102
RTVSPost2010PropOp38
 70
     1
102
RTVSPost2010Prop39
140
1.0
102
RTVSPost2010PropOp39
 70
     1
102
RTVSPost2010Prop40
 90
        0
102
RTVSPost2010PropOp40
 70
     1
102
RTVSPost2010Prop41ColorIndex
 90
       18
102
RTVSPost2010Prop41ColorRGB
 90
        0
102
RTVSPost2010PropOp41
 70
     1
102
RTVSPost2010Prop42
 90
       50
102
RTVSPost2010PropOp42
 70
     1
102
RTVSPost2010Prop43
 90
        3
102
RTVSPost2010PropOp43
 70
     1
102
RTVSPost2010Prop44ColorIndex
 90
        5
102
RTVSPost2010Prop44ColorRGB
 90
      255
102
RTVSPost2010PropOp44
 70
     1
102
RTVSPost2010Prop45
280
     0
102
RTVSPost2010PropOp45
 70
     1
102
RTVSPost2010Prop46
 90
       50
102
RTVSPost2010PropOp46
 70
     1
102
RTVSPost2010Prop47
 90
       50
102
RTVSPost2010PropOp47
 70
     1
102
RTVSPost2010Prop48
 90
       50
102
RTVSPost2010PropOp48
 70
     1
102
RTVSPost2010Prop49
280
     0
102
RTVSPost2010PropOp49
 70
     1
102
RTVSPost2010Prop50
 90
       50
102
RTVSPost2010PropOp50
 70
     1
102
RTVSPost2010Prop51ColorIndex
 90
      256
102
RTVSPost2010Prop51ColorRGB
 90
-16777216
102
RTVSPost2010PropOp51
 70
     0
102
RTVSPost2010Prop52
140
1.0
102
RTVSPost2010PropOp52
 70
     0
102
RTVSPost2010Prop53
 90
        2
102
RTVSPost2010PropOp53
 70
     1
102
RTVSPost2010Prop54
  1
strokes_ogs.tif
102
RTVSPost2010PropOp54
 70
     1
102
RTVSPost2010Prop55
280
     0
102
RTVSPost2010PropOp55
 70
     1
102
RTVSPost2010Prop56
140
1.0
102
RTVSPost2010PropOp56
 70
     1
102
RTVSPost2010Prop57
140
1.0
102
RTVSPost2010PropOp57
 70
     1
102
RTVSPropertyOp0
 70
     1
102
RTVSPropertyOp1
 70
     1
102
RTVSPropertyOp2
 70
     1
102
RTVSPropertyOp3
 70
     1
102
RTVSPropertyOp4
 70
     1
102
RTVSPropertyOp5
 70
     1
102
RTVSPropertyOp6
 70
     1
102
RTVSPropertyOp7
 70
     1
102
RTVSPropertyOp8
 70
     1
102
RTVSPropertyOp9
 70
     1
102
RTVSPropertyOp10
 70
     1
102
RTVSPropertyOp11
 70
     1
102
RTVSPropertyOp12
 70
     1
102
RTVSPropertyOp13
 70
     1
102
RTVSPropertyOp14
 70
     1
102
RTVSPropertyOp15
 70
     1
102
RTVSPropertyOp16
 70
     1
102
RTVSPropertyOp17
 70
     1
102
RTVSPropertyOp18
 70
     1
102
RTVSPropertyOp19
 70
     1
102
RTVSPropertyOp20
 70
     1
102
RTVSPropertyOp21
 70
     1
102
RTVSPropertyOp22
 70
     1
102
RTVSPropertyOp23
 70
     1
102
RTVSPropertyOp24
 70
     1
102
RTVSPropertyOp25
 70
     1
102
RTVSPropertyOp26
 70
     1
102
RTVSPropertyOp27
 70
     1
102
RTVSPropertyOp28
 70
     1
102
RTVSPropertyOp29
 70
     1
102
RTVSPropertyOp30
 70
     1
102
RTVSPropertyOp31
 70
     1
102
RTVSPropertyOp32
 70
     1
102
RTVSPropertyOp33
 70
     1
102
RTVSPropertyOp34
 70
     1
102
RTVSPropertyOp35
 70
     1
102
RTVSPropertyOp36
 70
     1
102
RTVSPropertyOp37
 70
     1
102
RTVSPropertyOp38
 70
     1
102
RTVSPropertyOp39
 70
     1
102
RTVSPropertyOp40
 70
     1
102
RTVSPropertyOp41
 70
     1
102
RTVSPropertyOp42
 70
     1
102
RTVSPropertyOp43
 70
     1
102
RTVSPropertyOp44
 70
     1
102
RTVSPropertyOp45
 70
     1
102
RTVSPropertyOp46
 70
     1
102
RTVSPropertyOp47
 70
     1
102
RTVSPropertyOp48
 70
     1
102
RTVSPropertyOp49
 70
     1
102
RTVSPropertyOp50
 70
     1
102
RTVSPropertyOp51
 70
     0
102
RTVSPropertyOp52
 70
     0
102
RTVSPropertyOp53
 70
     1
102
RTVSPropertyOp54
 70
     1
102
RTVSPropertyOp55
 70
     1
102
RTVSPropertyOp56
 70
     1
102
RTVSPropertyOp57
 70
     1
102
RTVSPropertyOp58
 70
     1
102
RTVSPropertyOp59
 70
     1
102
RTVSPropertyOp60
 70
     1
102
RTVSPropertyOp61
 70
     1
102
RTVSPropertyOp62
 70
     1
  0
XRECORD
  5
CE95
102
{ACAD_REACTORS
330
CE94
102
}
330
CE94
100
AcDbXrecord
280
     1
102
RTVSPost2010Prop28
280
     0
102
RTVSPost2010PropOp28
 70
     1
102
RTVSPost2010Prop29
280
     1
102
RTVSPost2010PropOp29
 70
     1
102
RTVSPost2010Prop30
280
     1
102
RTVSPost2010PropOp30
 70
     1
102
RTVSPost2010Prop31
280
     0
102
RTVSPost2010PropOp31
 70
     1
102
RTVSPost2010Prop32
280
     0
102
RTVSPost2010PropOp32
 70
     1
102
RTVSPost2010Prop33
280
     0
102
RTVSPost2010PropOp33
 70
     1
102
RTVSPost2010Prop34
280
     0
102
RTVSPost2010PropOp34
 70
     1
102
RTVSPost2010Prop35
280
     0
102
RTVSPost2010PropOp35
 70
     1
102
RTVSPost2010Prop36
280
     0
102
RTVSPost2010PropOp36
 70
     1
102
RTVSPost2010Prop37
 90
       50
102
RTVSPost2010PropOp37
 70
     1
102
RTVSPost2010Prop38
140
0.0
102
RTVSPost2010PropOp38
 70
     1
102
RTVSPost2010Prop39
140
1.0
102
RTVSPost2010PropOp39
 70
     1
102
RTVSPost2010Prop40
 90
        0
102
RTVSPost2010PropOp40
 70
     1
102
RTVSPost2010Prop41ColorIndex
 90
       18
102
RTVSPost2010Prop41ColorRGB
 90
        0
102
RTVSPost2010PropOp41
 70
     1
102
RTVSPost2010Prop42
 90
       50
102
RTVSPost2010PropOp42
 70
     1
102
RTVSPost2010Prop43
 90
        3
102
RTVSPost2010PropOp43
 70
     1
102
RTVSPost2010Prop44ColorIndex
 90
        5
102
RTVSPost2010Prop44ColorRGB
 90
      255
102
RTVSPost2010PropOp44
 70
     1
102
RTVSPost2010Prop45
280
     0
102
RTVSPost2010PropOp45
 70
     1
102
RTVSPost2010Prop46
 90
       50
102
RTVSPost2010PropOp46
 70
     1
102
RTVSPost2010Prop47
 90
       50
102
RTVSPost2010PropOp47
 70
     1
102
RTVSPost2010Prop48
 90
       50
102
RTVSPost2010PropOp48
 70
     1
102
RTVSPost2010Prop49
280
     0
102
RTVSPost2010PropOp49
 70
     1
102
RTVSPost2010Prop50
 90
       50
102
RTVSPost2010PropOp50
 70
     1
102
RTVSPost2010Prop51ColorIndex
 90
      256
102
RTVSPost2010Prop51ColorRGB
 90
-16777216
102
RTVSPost2010PropOp51
 70
     0
102
RTVSPost2010Prop52
140
1.0
102
RTVSPost2010PropOp52
 70
     0
102
RTVSPost2010Prop53
 90
        2
102
RTVSPost2010PropOp53
 70
     1
102
RTVSPost2010Prop54
  1
strokes_ogs.tif
102
RTVSPost2010PropOp54
 70
     1
102
RTVSPost2010Prop55
280
     0
102
RTVSPost2010PropOp55
 70
     1
102
RTVSPost2010Prop56
140
1.0
102
RTVSPost2010PropOp56
 70
     1
102
RTVSPost2010Prop57
140
1.0
102
RTVSPost2010PropOp57
 70
     1
102
RTVSPropertyOp0
 70
     1
102
RTVSPropertyOp1
 70
     1
102
RTVSPropertyOp2
 70
     1
102
RTVSPropertyOp3
 70
     1
102
RTVSPropertyOp4
 70
     1
102
RTVSPropertyOp5
 70
     1
102
RTVSPropertyOp6
 70
     1
102
RTVSPropertyOp7
 70
     1
102
RTVSPropertyOp8
 70
     1
102
RTVSPropertyOp9
 70
     1
102
RTVSPropertyOp10
 70
     1
102
RTVSPropertyOp11
 70
     1
102
RTVSPropertyOp12
 70
     1
102
RTVSPropertyOp13
 70
     1
102
RTVSPropertyOp14
 70
     1
102
RTVSPropertyOp15
 70
     1
102
RTVSPropertyOp16
 70
     1
102
RTVSPropertyOp17
 70
     1
102
RTVSPropertyOp18
 70
     1
102
RTVSPropertyOp19
 70
     1
102
RTVSPropertyOp20
 70
     1
102
RTVSPropertyOp21
 70
     1
102
RTVSPropertyOp22
 70
     1
102
RTVSPropertyOp23
 70
     1
102
RTVSPropertyOp24
 70
     1
102
RTVSPropertyOp25
 70
     1
102
RTVSPropertyOp26
 70
     1
102
RTVSPropertyOp27
 70
     1
102
RTVSPropertyOp28
 70
     1
102
RTVSPropertyOp29
 70
     1
102
RTVSPropertyOp30
 70
     1
102
RTVSPropertyOp31
 70
     1
102
RTVSPropertyOp32
 70
     1
102
RTVSPropertyOp33
 70
     1
102
RTVSPropertyOp34
 70
     1
102
RTVSPropertyOp35
 70
     1
102
RTVSPropertyOp36
 70
     1
102
RTVSPropertyOp37
 70
     1
102
RTVSPropertyOp38
 70
     1
102
RTVSPropertyOp39
 70
     1
102
RTVSPropertyOp40
 70
     1
102
RTVSPropertyOp41
 70
     1
102
RTVSPropertyOp42
 70
     1
102
RTVSPropertyOp43
 70
     1
102
RTVSPropertyOp44
 70
     1
102
RTVSPropertyOp45
 70
     1
102
RTVSPropertyOp46
 70
     1
102
RTVSPropertyOp47
 70
     1
102
RTVSPropertyOp48
 70
     1
102
RTVSPropertyOp49
 70
     1
102
RTVSPropertyOp50
 70
     1
102
RTVSPropertyOp51
 70
     0
102
RTVSPropertyOp52
 70
     0
102
RTVSPropertyOp53
 70
     1
102
RTVSPropertyOp54
 70
     1
102
RTVSPropertyOp55
 70
     1
102
RTVSPropertyOp56
 70
     1
102
RTVSPropertyOp57
 70
     1
102
RTVSPropertyOp58
 70
     1
102
RTVSPropertyOp59
 70
     1
102
RTVSPropertyOp60
 70
     1
102
RTVSPropertyOp61
 70
     1
102
RTVSPropertyOp62
 70
     1
  0
XRECORD
  5
CE9D
102
{ACAD_REACTORS
330
CE9C
102
}
330
CE9C
100
AcDbXrecord
280
     1
102
RTVSPost2010Prop28
280
     0
102
RTVSPost2010PropOp28
 70
     1
102
RTVSPost2010Prop29
280
     1
102
RTVSPost2010PropOp29
 70
     1
102
RTVSPost2010Prop30
280
     1
102
RTVSPost2010PropOp30
 70
     1
102
RTVSPost2010Prop31
280
     0
102
RTVSPost2010PropOp31
 70
     1
102
RTVSPost2010Prop32
280
     0
102
RTVSPost2010PropOp32
 70
     1
102
RTVSPost2010Prop33
280
     0
102
RTVSPost2010PropOp33
 70
     1
102
RTVSPost2010Prop34
280
     0
102
RTVSPost2010PropOp34
 70
     1
102
RTVSPost2010Prop35
280
     0
102
RTVSPost2010PropOp35
 70
     1
102
RTVSPost2010Prop36
280
     0
102
RTVSPost2010PropOp36
 70
     1
102
RTVSPost2010Prop37
 90
       50
102
RTVSPost2010PropOp37
 70
     1
102
RTVSPost2010Prop38
140
0.0
102
RTVSPost2010PropOp38
 70
     1
102
RTVSPost2010Prop39
140
1.0
102
RTVSPost2010PropOp39
 70
     1
102
RTVSPost2010Prop40
 90
        0
102
RTVSPost2010PropOp40
 70
     1
102
RTVSPost2010Prop41ColorIndex
 90
       18
102
RTVSPost2010Prop41ColorRGB
 90
        0
102
RTVSPost2010PropOp41
 70
     1
102
RTVSPost2010Prop42
 90
       50
102
RTVSPost2010PropOp42
 70
     1
102
RTVSPost2010Prop43
 90
        3
102
RTVSPost2010PropOp43
 70
     1
102
RTVSPost2010Prop44ColorIndex
 90
        5
102
RTVSPost2010Prop44ColorRGB
 90
      255
102
RTVSPost2010PropOp44
 70
     1
102
RTVSPost2010Prop45
280
     0
102
RTVSPost2010PropOp45
 70
     1
102
RTVSPost2010Prop46
 90
       50
102
RTVSPost2010PropOp46
 70
     1
102
RTVSPost2010Prop47
 90
       50
102
RTVSPost2010PropOp47
 70
     1
102
RTVSPost2010Prop48
 90
       50
102
RTVSPost2010PropOp48
 70
     1
102
RTVSPost2010Prop49
280
     0
102
RTVSPost2010PropOp49
 70
     1
102
RTVSPost2010Prop50
 90
       50
102
RTVSPost2010PropOp50
 70
     1
102
RTVSPost2010Prop51ColorIndex
 90
      256
102
RTVSPost2010Prop51ColorRGB
 90
-16777216
102
RTVSPost2010PropOp51
 70
     0
102
RTVSPost2010Prop52
140
1.0
102
RTVSPost2010PropOp52
 70
     0
102
RTVSPost2010Prop53
 90
        2
102
RTVSPost2010PropOp53
 70
     1
102
RTVSPost2010Prop54
  1
strokes_ogs.tif
102
RTVSPost2010PropOp54
 70
     1
102
RTVSPost2010Prop55
280
     0
102
RTVSPost2010PropOp55
 70
     1
102
RTVSPost2010Prop56
140
1.0
102
RTVSPost2010PropOp56
 70
     1
102
RTVSPost2010Prop57
140
1.0
102
RTVSPost2010PropOp57
 70
     1
102
RTVSPropertyOp0
 70
     1
102
RTVSPropertyOp1
 70
     1
102
RTVSPropertyOp2
 70
     1
102
RTVSPropertyOp3
 70
     1
102
RTVSPropertyOp4
 70
     1
102
RTVSPropertyOp5
 70
     1
102
RTVSPropertyOp6
 70
     1
102
RTVSPropertyOp7
 70
     1
102
RTVSPropertyOp8
 70
     1
102
RTVSPropertyOp9
 70
     1
102
RTVSPropertyOp10
 70
     1
102
RTVSPropertyOp11
 70
     1
102
RTVSPropertyOp12
 70
     1
102
RTVSPropertyOp13
 70
     1
102
RTVSPropertyOp14
 70
     1
102
RTVSPropertyOp15
 70
     1
102
RTVSPropertyOp16
 70
     1
102
RTVSPropertyOp17
 70
     1
102
RTVSPropertyOp18
 70
     1
102
RTVSPropertyOp19
 70
     1
102
RTVSPropertyOp20
 70
     1
102
RTVSPropertyOp21
 70
     1
102
RTVSPropertyOp22
 70
     1
102
RTVSPropertyOp23
 70
     1
102
RTVSPropertyOp24
 70
     1
102
RTVSPropertyOp25
 70
     1
102
RTVSPropertyOp26
 70
     1
102
RTVSPropertyOp27
 70
     1
102
RTVSPropertyOp28
 70
     1
102
RTVSPropertyOp29
 70
     1
102
RTVSPropertyOp30
 70
     1
102
RTVSPropertyOp31
 70
     1
102
RTVSPropertyOp32
 70
     1
102
RTVSPropertyOp33
 70
     1
102
RTVSPropertyOp34
 70
     1
102
RTVSPropertyOp35
 70
     1
102
RTVSPropertyOp36
 70
     1
102
RTVSPropertyOp37
 70
     1
102
RTVSPropertyOp38
 70
     1
102
RTVSPropertyOp39
 70
     1
102
RTVSPropertyOp40
 70
     1
102
RTVSPropertyOp41
 70
     1
102
RTVSPropertyOp42
 70
     1
102
RTVSPropertyOp43
 70
     1
102
RTVSPropertyOp44
 70
     1
102
RTVSPropertyOp45
 70
     1
102
RTVSPropertyOp46
 70
     1
102
RTVSPropertyOp47
 70
     1
102
RTVSPropertyOp48
 70
     1
102
RTVSPropertyOp49
 70
     1
102
RTVSPropertyOp50
 70
     1
102
RTVSPropertyOp51
 70
     0
102
RTVSPropertyOp52
 70
     0
102
RTVSPropertyOp53
 70
     1
102
RTVSPropertyOp54
 70
     1
102
RTVSPropertyOp55
 70
     1
102
RTVSPropertyOp56
 70
     1
102
RTVSPropertyOp57
 70
     1
102
RTVSPropertyOp58
 70
     1
102
RTVSPropertyOp59
 70
     1
102
RTVSPropertyOp60
 70
     1
102
RTVSPropertyOp61
 70
     1
102
RTVSPropertyOp62
 70
     1
  0
XRECORD
  5
CE8F
102
{ACAD_REACTORS
330
CE8E
102
}
330
CE8E
100
AcDbXrecord
280
     1
102
RTVSPost2010Prop28
280
     0
102
RTVSPost2010PropOp28
 70
     1
102
RTVSPost2010Prop29
280
     1
102
RTVSPost2010PropOp29
 70
     1
102
RTVSPost2010Prop30
280
     1
102
RTVSPost2010PropOp30
 70
     1
102
RTVSPost2010Prop31
280
     0
102
RTVSPost2010PropOp31
 70
     1
102
RTVSPost2010Prop32
280
     0
102
RTVSPost2010PropOp32
 70
     1
102
RTVSPost2010Prop33
280
     0
102
RTVSPost2010PropOp33
 70
     1
102
RTVSPost2010Prop34
280
     0
102
RTVSPost2010PropOp34
 70
     1
102
RTVSPost2010Prop35
280
     0
102
RTVSPost2010PropOp35
 70
     1
102
RTVSPost2010Prop36
280
     0
102
RTVSPost2010PropOp36
 70
     1
102
RTVSPost2010Prop37
 90
       50
102
RTVSPost2010PropOp37
 70
     1
102
RTVSPost2010Prop38
140
0.0
102
RTVSPost2010PropOp38
 70
     1
102
RTVSPost2010Prop39
140
1.0
102
RTVSPost2010PropOp39
 70
     1
102
RTVSPost2010Prop40
 90
        0
102
RTVSPost2010PropOp40
 70
     1
102
RTVSPost2010Prop41ColorIndex
 90
       18
102
RTVSPost2010Prop41ColorRGB
 90
        0
102
RTVSPost2010PropOp41
 70
     1
102
RTVSPost2010Prop42
 90
       50
102
RTVSPost2010PropOp42
 70
     1
102
RTVSPost2010Prop43
 90
        3
102
RTVSPost2010PropOp43
 70
     1
102
RTVSPost2010Prop44ColorIndex
 90
        5
102
RTVSPost2010Prop44ColorRGB
 90
      255
102
RTVSPost2010PropOp44
 70
     1
102
RTVSPost2010Prop45
280
     0
102
RTVSPost2010PropOp45
 70
     1
102
RTVSPost2010Prop46
 90
       50
102
RTVSPost2010PropOp46
 70
     1
102
RTVSPost2010Prop47
 90
       50
102
RTVSPost2010PropOp47
 70
     1
102
RTVSPost2010Prop48
 90
       50
102
RTVSPost2010PropOp48
 70
     1
102
RTVSPost2010Prop49
280
     0
102
RTVSPost2010PropOp49
 70
     1
102
RTVSPost2010Prop50
 90
       50
102
RTVSPost2010PropOp50
 70
     1
102
RTVSPost2010Prop51ColorIndex
 90
      256
102
RTVSPost2010Prop51ColorRGB
 90
-16777216
102
RTVSPost2010PropOp51
 70
     0
102
RTVSPost2010Prop52
140
1.0
102
RTVSPost2010PropOp52
 70
     0
102
RTVSPost2010Prop53
 90
        2
102
RTVSPost2010PropOp53
 70
     1
102
RTVSPost2010Prop54
  1
strokes_ogs.tif
102
RTVSPost2010PropOp54
 70
     1
102
RTVSPost2010Prop55
280
     0
102
RTVSPost2010PropOp55
 70
     1
102
RTVSPost2010Prop56
140
1.0
102
RTVSPost2010PropOp56
 70
     1
102
RTVSPost2010Prop57
140
1.0
102
RTVSPost2010PropOp57
 70
     1
102
RTVSPropertyOp0
 70
     1
102
RTVSPropertyOp1
 70
     1
102
RTVSPropertyOp2
 70
     1
102
RTVSPropertyOp3
 70
     1
102
RTVSPropertyOp4
 70
     1
102
RTVSPropertyOp5
 70
     1
102
RTVSPropertyOp6
 70
     1
102
RTVSPropertyOp7
 70
     1
102
RTVSPropertyOp8
 70
     1
102
RTVSPropertyOp9
 70
     1
102
RTVSPropertyOp10
 70
     1
102
RTVSPropertyOp11
 70
     1
102
RTVSPropertyOp12
 70
     1
102
RTVSPropertyOp13
 70
     1
102
RTVSPropertyOp14
 70
     1
102
RTVSPropertyOp15
 70
     1
102
RTVSPropertyOp16
 70
     1
102
RTVSPropertyOp17
 70
     1
102
RTVSPropertyOp18
 70
     1
102
RTVSPropertyOp19
 70
     1
102
RTVSPropertyOp20
 70
     1
102
RTVSPropertyOp21
 70
     1
102
RTVSPropertyOp22
 70
     1
102
RTVSPropertyOp23
 70
     1
102
RTVSPropertyOp24
 70
     1
102
RTVSPropertyOp25
 70
     1
102
RTVSPropertyOp26
 70
     1
102
RTVSPropertyOp27
 70
     1
102
RTVSPropertyOp28
 70
     1
102
RTVSPropertyOp29
 70
     1
102
RTVSPropertyOp30
 70
     1
102
RTVSPropertyOp31
 70
     1
102
RTVSPropertyOp32
 70
     1
102
RTVSPropertyOp33
 70
     1
102
RTVSPropertyOp34
 70
     1
102
RTVSPropertyOp35
 70
     1
102
RTVSPropertyOp36
 70
     1
102
RTVSPropertyOp37
 70
     1
102
RTVSPropertyOp38
 70
     1
102
RTVSPropertyOp39
 70
     1
102
RTVSPropertyOp40
 70
     1
102
RTVSPropertyOp41
 70
     1
102
RTVSPropertyOp42
 70
     1
102
RTVSPropertyOp43
 70
     1
102
RTVSPropertyOp44
 70
     1
102
RTVSPropertyOp45
 70
     1
102
RTVSPropertyOp46
 70
     1
102
RTVSPropertyOp47
 70
     1
102
RTVSPropertyOp48
 70
     1
102
RTVSPropertyOp49
 70
     1
102
RTVSPropertyOp50
 70
     1
102
RTVSPropertyOp51
 70
     0
102
RTVSPropertyOp52
 70
     0
102
RTVSPropertyOp53
 70
     1
102
RTVSPropertyOp54
 70
     1
102
RTVSPropertyOp55
 70
     1
102
RTVSPropertyOp56
 70
     1
102
RTVSPropertyOp57
 70
     1
102
RTVSPropertyOp58
 70
     1
102
RTVSPropertyOp59
 70
     1
102
RTVSPropertyOp60
 70
     1
102
RTVSPropertyOp61
 70
     1
102
RTVSPropertyOp62
 70
     1
  0
XRECORD
  5
CE93
102
{ACAD_REACTORS
330
CE92
102
}
330
CE92
100
AcDbXrecord
280
     1
102
RTVSPost2010Prop28
280
     0
102
RTVSPost2010PropOp28
 70
     1
102
RTVSPost2010Prop29
280
     1
102
RTVSPost2010PropOp29
 70
     1
102
RTVSPost2010Prop30
280
     1
102
RTVSPost2010PropOp30
 70
     1
102
RTVSPost2010Prop31
280
     0
102
RTVSPost2010PropOp31
 70
     1
102
RTVSPost2010Prop32
280
     0
102
RTVSPost2010PropOp32
 70
     1
102
RTVSPost2010Prop33
280
     0
102
RTVSPost2010PropOp33
 70
     1
102
RTVSPost2010Prop34
280
     0
102
RTVSPost2010PropOp34
 70
     1
102
RTVSPost2010Prop35
280
     0
102
RTVSPost2010PropOp35
 70
     1
102
RTVSPost2010Prop36
280
     0
102
RTVSPost2010PropOp36
 70
     1
102
RTVSPost2010Prop37
 90
       50
102
RTVSPost2010PropOp37
 70
     1
102
RTVSPost2010Prop38
140
0.0
102
RTVSPost2010PropOp38
 70
     1
102
RTVSPost2010Prop39
140
1.0
102
RTVSPost2010PropOp39
 70
     1
102
RTVSPost2010Prop40
 90
        0
102
RTVSPost2010PropOp40
 70
     1
102
RTVSPost2010Prop41ColorIndex
 90
       18
102
RTVSPost2010Prop41ColorRGB
 90
        0
102
RTVSPost2010PropOp41
 70
     1
102
RTVSPost2010Prop42
 90
       50
102
RTVSPost2010PropOp42
 70
     1
102
RTVSPost2010Prop43
 90
        3
102
RTVSPost2010PropOp43
 70
     1
102
RTVSPost2010Prop44ColorIndex
 90
        5
102
RTVSPost2010Prop44ColorRGB
 90
      255
102
RTVSPost2010PropOp44
 70
     1
102
RTVSPost2010Prop45
280
     0
102
RTVSPost2010PropOp45
 70
     1
102
RTVSPost2010Prop46
 90
       50
102
RTVSPost2010PropOp46
 70
     1
102
RTVSPost2010Prop47
 90
       50
102
RTVSPost2010PropOp47
 70
     1
102
RTVSPost2010Prop48
 90
       50
102
RTVSPost2010PropOp48
 70
     1
102
RTVSPost2010Prop49
280
     0
102
RTVSPost2010PropOp49
 70
     1
102
RTVSPost2010Prop50
 90
       50
102
RTVSPost2010PropOp50
 70
     1
102
RTVSPost2010Prop51ColorIndex
 90
      256
102
RTVSPost2010Prop51ColorRGB
 90
-16777216
102
RTVSPost2010PropOp51
 70
     0
102
RTVSPost2010Prop52
140
1.0
102
RTVSPost2010PropOp52
 70
     0
102
RTVSPost2010Prop53
 90
        2
102
RTVSPost2010PropOp53
 70
     1
102
RTVSPost2010Prop54
  1
strokes_ogs.tif
102
RTVSPost2010PropOp54
 70
     1
102
RTVSPost2010Prop55
280
     0
102
RTVSPost2010PropOp55
 70
     1
102
RTVSPost2010Prop56
140
1.0
102
RTVSPost2010PropOp56
 70
     1
102
RTVSPost2010Prop57
140
1.0
102
RTVSPost2010PropOp57
 70
     1
102
RTVSPropertyOp0
 70
     1
102
RTVSPropertyOp1
 70
     1
102
RTVSPropertyOp2
 70
     1
102
RTVSPropertyOp3
 70
     1
102
RTVSPropertyOp4
 70
     1
102
RTVSPropertyOp5
 70
     1
102
RTVSPropertyOp6
 70
     1
102
RTVSPropertyOp7
 70
     1
102
RTVSPropertyOp8
 70
     1
102
RTVSPropertyOp9
 70
     1
102
RTVSPropertyOp10
 70
     1
102
RTVSPropertyOp11
 70
     1
102
RTVSPropertyOp12
 70
     1
102
RTVSPropertyOp13
 70
     1
102
RTVSPropertyOp14
 70
     1
102
RTVSPropertyOp15
 70
     1
102
RTVSPropertyOp16
 70
     1
102
RTVSPropertyOp17
 70
     1
102
RTVSPropertyOp18
 70
     1
102
RTVSPropertyOp19
 70
     1
102
RTVSPropertyOp20
 70
     1
102
RTVSPropertyOp21
 70
     1
102
RTVSPropertyOp22
 70
     1
102
RTVSPropertyOp23
 70
     1
102
RTVSPropertyOp24
 70
     1
102
RTVSPropertyOp25
 70
     1
102
RTVSPropertyOp26
 70
     1
102
RTVSPropertyOp27
 70
     1
102
RTVSPropertyOp28
 70
     1
102
RTVSPropertyOp29
 70
     1
102
RTVSPropertyOp30
 70
     1
102
RTVSPropertyOp31
 70
     1
102
RTVSPropertyOp32
 70
     1
102
RTVSPropertyOp33
 70
     1
102
RTVSPropertyOp34
 70
     1
102
RTVSPropertyOp35
 70
     1
102
RTVSPropertyOp36
 70
     1
102
RTVSPropertyOp37
 70
     1
102
RTVSPropertyOp38
 70
     1
102
RTVSPropertyOp39
 70
     1
102
RTVSPropertyOp40
 70
     1
102
RTVSPropertyOp41
 70
     1
102
RTVSPropertyOp42
 70
     1
102
RTVSPropertyOp43
 70
     1
102
RTVSPropertyOp44
 70
     1
102
RTVSPropertyOp45
 70
     1
102
RTVSPropertyOp46
 70
     1
102
RTVSPropertyOp47
 70
     1
102
RTVSPropertyOp48
 70
     1
102
RTVSPropertyOp49
 70
     1
102
RTVSPropertyOp50
 70
     1
102
RTVSPropertyOp51
 70
     0
102
RTVSPropertyOp52
 70
     0
102
RTVSPropertyOp53
 70
     1
102
RTVSPropertyOp54
 70
     1
102
RTVSPropertyOp55
 70
     1
102
RTVSPropertyOp56
 70
     1
102
RTVSPropertyOp57
 70
     1
102
RTVSPropertyOp58
 70
     1
102
RTVSPropertyOp59
 70
     1
102
RTVSPropertyOp60
 70
     1
102
RTVSPropertyOp61
 70
     1
102
RTVSPropertyOp62
 70
     1
  0
XRECORD
  5
CEAD
102
{ACAD_REACTORS
330
CEAC
102
}
330
CEAC
100
AcDbXrecord
280
     1
102
RTVSPost2010Prop28
280
     0
102
RTVSPost2010PropOp28
 70
     1
102
RTVSPost2010Prop29
280
     1
102
RTVSPost2010PropOp29
 70
     1
102
RTVSPost2010Prop30
280
     1
102
RTVSPost2010PropOp30
 70
     1
102
RTVSPost2010Prop31
280
     0
102
RTVSPost2010PropOp31
 70
     1
102
RTVSPost2010Prop32
280
     0
102
RTVSPost2010PropOp32
 70
     1
102
RTVSPost2010Prop33
280
     0
102
RTVSPost2010PropOp33
 70
     1
102
RTVSPost2010Prop34
280
     0
102
RTVSPost2010PropOp34
 70
     1
102
RTVSPost2010Prop35
280
     0
102
RTVSPost2010PropOp35
 70
     1
102
RTVSPost2010Prop36
280
     0
102
RTVSPost2010PropOp36
 70
     1
102
RTVSPost2010Prop37
 90
       50
102
RTVSPost2010PropOp37
 70
     0
102
RTVSPost2010Prop38
140
0.0
102
RTVSPost2010PropOp38
 70
     0
102
RTVSPost2010Prop39
140
1.0
102
RTVSPost2010PropOp39
 70
     0
102
RTVSPost2010Prop40
 90
        0
102
RTVSPost2010PropOp40
 70
     0
102
RTVSPost2010Prop41ColorIndex
 90
       18
102
RTVSPost2010Prop41ColorRGB
 90
        0
102
RTVSPost2010PropOp41
 70
     0
102
RTVSPost2010Prop42
 90
       50
102
RTVSPost2010PropOp42
 70
     0
102
RTVSPost2010Prop43
 90
        3
102
RTVSPost2010PropOp43
 70
     0
102
RTVSPost2010Prop44ColorIndex
 90
        5
102
RTVSPost2010Prop44ColorRGB
 90
      255
102
RTVSPost2010PropOp44
 70
     0
102
RTVSPost2010Prop45
280
     0
102
RTVSPost2010PropOp45
 70
     1
102
RTVSPost2010Prop46
 90
       50
102
RTVSPost2010PropOp46
 70
     0
102
RTVSPost2010Prop47
 90
       50
102
RTVSPost2010PropOp47
 70
     0
102
RTVSPost2010Prop48
 90
       50
102
RTVSPost2010PropOp48
 70
     0
102
RTVSPost2010Prop49
280
     0
102
RTVSPost2010PropOp49
 70
     1
102
RTVSPost2010Prop50
 90
       50
102
RTVSPost2010PropOp50
 70
     0
102
RTVSPost2010Prop51ColorIndex
 90
      256
102
RTVSPost2010Prop51ColorRGB
 90
-16777216
102
RTVSPost2010PropOp51
 70
     0
102
RTVSPost2010Prop52
140
1.0
102
RTVSPost2010PropOp52
 70
     0
102
RTVSPost2010Prop53
 90
        2
102
RTVSPost2010PropOp53
 70
     0
102
RTVSPost2010Prop54
  1
strokes_ogs.tif
102
RTVSPost2010PropOp54
 70
     0
102
RTVSPost2010Prop55
280
     0
102
RTVSPost2010PropOp55
 70
     1
102
RTVSPost2010Prop56
140
1.0
102
RTVSPost2010PropOp56
 70
     0
102
RTVSPost2010Prop57
140
1.0
102
RTVSPost2010PropOp57
 70
     0
102
RTVSPropertyOp0
 70
     0
102
RTVSPropertyOp1
 70
     0
102
RTVSPropertyOp2
 70
     0
102
RTVSPropertyOp3
 70
     0
102
RTVSPropertyOp4
 70
     0
102
RTVSPropertyOp5
 70
     0
102
RTVSPropertyOp6
 70
     0
102
RTVSPropertyOp7
 70
     0
102
RTVSPropertyOp8
 70
     0
102
RTVSPropertyOp9
 70
     0
102
RTVSPropertyOp10
 70
     0
102
RTVSPropertyOp11
 70
     0
102
RTVSPropertyOp12
 70
     0
102
RTVSPropertyOp13
 70
     0
102
RTVSPropertyOp14
 70
     2
102
RTVSPropertyOp15
 70
     0
102
RTVSPropertyOp16
 70
     0
102
RTVSPropertyOp17
 70
     0
102
RTVSPropertyOp18
 70
     0
102
RTVSPropertyOp19
 70
     0
102
RTVSPropertyOp20
 70
     0
102
RTVSPropertyOp21
 70
     0
102
RTVSPropertyOp22
 70
     0
102
RTVSPropertyOp23
 70
     0
102
RTVSPropertyOp24
 70
     0
102
RTVSPropertyOp25
 70
     0
102
RTVSPropertyOp26
 70
     0
102
RTVSPropertyOp27
 70
     0
102
RTVSPropertyOp28
 70
     1
102
RTVSPropertyOp29
 70
     1
102
RTVSPropertyOp30
 70
     1
102
RTVSPropertyOp31
 70
     1
102
RTVSPropertyOp32
 70
     1
102
RTVSPropertyOp33
 70
     1
102
RTVSPropertyOp34
 70
     1
102
RTVSPropertyOp35
 70
     1
102
RTVSPropertyOp36
 70
     1
102
RTVSPropertyOp37
 70
     0
102
RTVSPropertyOp38
 70
     0
102
RTVSPropertyOp39
 70
     0
102
RTVSPropertyOp40
 70
     0
102
RTVSPropertyOp41
 70
     0
102
RTVSPropertyOp42
 70
     0
102
RTVSPropertyOp43
 70
     0
102
RTVSPropertyOp44
 70
     0
102
RTVSPropertyOp45
 70
     1
102
RTVSPropertyOp46
 70
     0
102
RTVSPropertyOp47
 70
     0
102
RTVSPropertyOp48
 70
     0
102
RTVSPropertyOp49
 70
     1
102
RTVSPropertyOp50
 70
     0
102
RTVSPropertyOp51
 70
     0
102
RTVSPropertyOp52
 70
     0
102
RTVSPropertyOp53
 70
     0
102
RTVSPropertyOp54
 70
     0
102
RTVSPropertyOp55
 70
     1
102
RTVSPropertyOp56
 70
     0
102
RTVSPropertyOp57
 70
     0
102
RTVSPropertyOp58
 70
     0
102
RTVSPropertyOp59
 70
     0
102
RTVSPropertyOp60
 70
     0
102
RTVSPropertyOp61
 70
     0
102
RTVSPropertyOp62
 70
     0
  0
XRECORD
  5
CE9B
102
{ACAD_REACTORS
330
CE9A
102
}
330
CE9A
100
AcDbXrecord
280
     1
102
RTVSPost2010Prop28
280
     0
102
RTVSPost2010PropOp28
 70
     1
102
RTVSPost2010Prop29
280
     1
102
RTVSPost2010PropOp29
 70
     1
102
RTVSPost2010Prop30
280
     1
102
RTVSPost2010PropOp30
 70
     1
102
RTVSPost2010Prop31
280
     0
102
RTVSPost2010PropOp31
 70
     1
102
RTVSPost2010Prop32
280
     0
102
RTVSPost2010PropOp32
 70
     1
102
RTVSPost2010Prop33
280
     0
102
RTVSPost2010PropOp33
 70
     1
102
RTVSPost2010Prop34
280
     0
102
RTVSPost2010PropOp34
 70
     1
102
RTVSPost2010Prop35
280
     0
102
RTVSPost2010PropOp35
 70
     1
102
RTVSPost2010Prop36
280
     0
102
RTVSPost2010PropOp36
 70
     1
102
RTVSPost2010Prop37
 90
       50
102
RTVSPost2010PropOp37
 70
     1
102
RTVSPost2010Prop38
140
0.0
102
RTVSPost2010PropOp38
 70
     1
102
RTVSPost2010Prop39
140
1.0
102
RTVSPost2010PropOp39
 70
     1
102
RTVSPost2010Prop40
 90
        0
102
RTVSPost2010PropOp40
 70
     1
102
RTVSPost2010Prop41ColorIndex
 90
       18
102
RTVSPost2010Prop41ColorRGB
 90
        0
102
RTVSPost2010PropOp41
 70
     1
102
RTVSPost2010Prop42
 90
       50
102
RTVSPost2010PropOp42
 70
     1
102
RTVSPost2010Prop43
 90
        3
102
RTVSPost2010PropOp43
 70
     1
102
RTVSPost2010Prop44ColorIndex
 90
        5
102
RTVSPost2010Prop44ColorRGB
 90
      255
102
RTVSPost2010PropOp44
 70
     1
102
RTVSPost2010Prop45
280
     0
102
RTVSPost2010PropOp45
 70
     1
102
RTVSPost2010Prop46
 90
       50
102
RTVSPost2010PropOp46
 70
     1
102
RTVSPost2010Prop47
 90
       50
102
RTVSPost2010PropOp47
 70
     1
102
RTVSPost2010Prop48
 90
       50
102
RTVSPost2010PropOp48
 70
     1
102
RTVSPost2010Prop49
280
     0
102
RTVSPost2010PropOp49
 70
     1
102
RTVSPost2010Prop50
 90
       50
102
RTVSPost2010PropOp50
 70
     1
102
RTVSPost2010Prop51ColorIndex
 90
      256
102
RTVSPost2010Prop51ColorRGB
 90
-16777216
102
RTVSPost2010PropOp51
 70
     0
102
RTVSPost2010Prop52
140
1.0
102
RTVSPost2010PropOp52
 70
     0
102
RTVSPost2010Prop53
 90
        2
102
RTVSPost2010PropOp53
 70
     1
102
RTVSPost2010Prop54
  1
strokes_ogs.tif
102
RTVSPost2010PropOp54
 70
     1
102
RTVSPost2010Prop55
280
     0
102
RTVSPost2010PropOp55
 70
     1
102
RTVSPost2010Prop56
140
1.0
102
RTVSPost2010PropOp56
 70
     1
102
RTVSPost2010Prop57
140
1.0
102
RTVSPost2010PropOp57
 70
     1
102
RTVSPropertyOp0
 70
     1
102
RTVSPropertyOp1
 70
     1
102
RTVSPropertyOp2
 70
     1
102
RTVSPropertyOp3
 70
     1
102
RTVSPropertyOp4
 70
     1
102
RTVSPropertyOp5
 70
     1
102
RTVSPropertyOp6
 70
     1
102
RTVSPropertyOp7
 70
     1
102
RTVSPropertyOp8
 70
     1
102
RTVSPropertyOp9
 70
     1
102
RTVSPropertyOp10
 70
     1
102
RTVSPropertyOp11
 70
     1
102
RTVSPropertyOp12
 70
     1
102
RTVSPropertyOp13
 70
     1
102
RTVSPropertyOp14
 70
     1
102
RTVSPropertyOp15
 70
     1
102
RTVSPropertyOp16
 70
     1
102
RTVSPropertyOp17
 70
     1
102
RTVSPropertyOp18
 70
     1
102
RTVSPropertyOp19
 70
     1
102
RTVSPropertyOp20
 70
     1
102
RTVSPropertyOp21
 70
     1
102
RTVSPropertyOp22
 70
     1
102
RTVSPropertyOp23
 70
     1
102
RTVSPropertyOp24
 70
     1
102
RTVSPropertyOp25
 70
     1
102
RTVSPropertyOp26
 70
     1
102
RTVSPropertyOp27
 70
     1
102
RTVSPropertyOp28
 70
     1
102
RTVSPropertyOp29
 70
     1
102
RTVSPropertyOp30
 70
     1
102
RTVSPropertyOp31
 70
     1
102
RTVSPropertyOp32
 70
     1
102
RTVSPropertyOp33
 70
     1
102
RTVSPropertyOp34
 70
     1
102
RTVSPropertyOp35
 70
     1
102
RTVSPropertyOp36
 70
     1
102
RTVSPropertyOp37
 70
     1
102
RTVSPropertyOp38
 70
     1
102
RTVSPropertyOp39
 70
     1
102
RTVSPropertyOp40
 70
     1
102
RTVSPropertyOp41
 70
     1
102
RTVSPropertyOp42
 70
     1
102
RTVSPropertyOp43
 70
     1
102
RTVSPropertyOp44
 70
     1
102
RTVSPropertyOp45
 70
     1
102
RTVSPropertyOp46
 70
     1
102
RTVSPropertyOp47
 70
     1
102
RTVSPropertyOp48
 70
     1
102
RTVSPropertyOp49
 70
     1
102
RTVSPropertyOp50
 70
     1
102
RTVSPropertyOp51
 70
     0
102
RTVSPropertyOp52
 70
     0
102
RTVSPropertyOp53
 70
     1
102
RTVSPropertyOp54
 70
     1
102
RTVSPropertyOp55
 70
     1
102
RTVSPropertyOp56
 70
     1
102
RTVSPropertyOp57
 70
     1
102
RTVSPropertyOp58
 70
     1
102
RTVSPropertyOp59
 70
     1
102
RTVSPropertyOp60
 70
     1
102
RTVSPropertyOp61
 70
     1
102
RTVSPropertyOp62
 70
     1
  0
XRECORD
  5
CE7F
102
{ACAD_REACTORS
330
CE7E
102
}
330
CE7E
100
AcDbXrecord
280
     1
102
RTVSPost2010Prop28
280
     0
102
RTVSPost2010PropOp28
 70
     1
102
RTVSPost2010Prop29
280
     1
102
RTVSPost2010PropOp29
 70
     1
102
RTVSPost2010Prop30
280
     1
102
RTVSPost2010PropOp30
 70
     1
102
RTVSPost2010Prop31
280
     0
102
RTVSPost2010PropOp31
 70
     1
102
RTVSPost2010Prop32
280
     0
102
RTVSPost2010PropOp32
 70
     1
102
RTVSPost2010Prop33
280
     0
102
RTVSPost2010PropOp33
 70
     1
102
RTVSPost2010Prop34
280
     0
102
RTVSPost2010PropOp34
 70
     1
102
RTVSPost2010Prop35
280
     0
102
RTVSPost2010PropOp35
 70
     1
102
RTVSPost2010Prop36
280
     0
102
RTVSPost2010PropOp36
 70
     1
102
RTVSPost2010Prop37
 90
       50
102
RTVSPost2010PropOp37
 70
     1
102
RTVSPost2010Prop38
140
0.0
102
RTVSPost2010PropOp38
 70
     1
102
RTVSPost2010Prop39
140
1.0
102
RTVSPost2010PropOp39
 70
     1
102
RTVSPost2010Prop40
 90
        0
102
RTVSPost2010PropOp40
 70
     1
102
RTVSPost2010Prop41ColorIndex
 90
       18
102
RTVSPost2010Prop41ColorRGB
 90
        0
102
RTVSPost2010PropOp41
 70
     1
102
RTVSPost2010Prop42
 90
       50
102
RTVSPost2010PropOp42
 70
     1
102
RTVSPost2010Prop43
 90
        3
102
RTVSPost2010PropOp43
 70
     1
102
RTVSPost2010Prop44ColorIndex
 90
        5
102
RTVSPost2010Prop44ColorRGB
 90
      255
102
RTVSPost2010PropOp44
 70
     1
102
RTVSPost2010Prop45
280
     0
102
RTVSPost2010PropOp45
 70
     1
102
RTVSPost2010Prop46
 90
       50
102
RTVSPost2010PropOp46
 70
     1
102
RTVSPost2010Prop47
 90
       50
102
RTVSPost2010PropOp47
 70
     1
102
RTVSPost2010Prop48
 90
       50
102
RTVSPost2010PropOp48
 70
     1
102
RTVSPost2010Prop49
280
     0
102
RTVSPost2010PropOp49
 70
     1
102
RTVSPost2010Prop50
 90
       50
102
RTVSPost2010PropOp50
 70
     1
102
RTVSPost2010Prop51ColorIndex
 90
      256
102
RTVSPost2010Prop51ColorRGB
 90
-16777216
102
RTVSPost2010PropOp51
 70
     0
102
RTVSPost2010Prop52
140
1.0
102
RTVSPost2010PropOp52
 70
     0
102
RTVSPost2010Prop53
 90
        2
102
RTVSPost2010PropOp53
 70
     1
102
RTVSPost2010Prop54
  1
strokes_ogs.tif
102
RTVSPost2010PropOp54
 70
     1
102
RTVSPost2010Prop55
280
     0
102
RTVSPost2010PropOp55
 70
     1
102
RTVSPost2010Prop56
140
1.0
102
RTVSPost2010PropOp56
 70
     1
102
RTVSPost2010Prop57
140
1.0
102
RTVSPost2010PropOp57
 70
     1
102
RTVSPropertyOp0
 70
     1
102
RTVSPropertyOp1
 70
     1
102
RTVSPropertyOp2
 70
     1
102
RTVSPropertyOp3
 70
     1
102
RTVSPropertyOp4
 70
     1
102
RTVSPropertyOp5
 70
     1
102
RTVSPropertyOp6
 70
     1
102
RTVSPropertyOp7
 70
     1
102
RTVSPropertyOp8
 70
     1
102
RTVSPropertyOp9
 70
     1
102
RTVSPropertyOp10
 70
     1
102
RTVSPropertyOp11
 70
     1
102
RTVSPropertyOp12
 70
     1
102
RTVSPropertyOp13
 70
     1
102
RTVSPropertyOp14
 70
     1
102
RTVSPropertyOp15
 70
     1
102
RTVSPropertyOp16
 70
     1
102
RTVSPropertyOp17
 70
     1
102
RTVSPropertyOp18
 70
     1
102
RTVSPropertyOp19
 70
     1
102
RTVSPropertyOp20
 70
     1
102
RTVSPropertyOp21
 70
     1
102
RTVSPropertyOp22
 70
     1
102
RTVSPropertyOp23
 70
     1
102
RTVSPropertyOp24
 70
     1
102
RTVSPropertyOp25
 70
     1
102
RTVSPropertyOp26
 70
     1
102
RTVSPropertyOp27
 70
     1
102
RTVSPropertyOp28
 70
     1
102
RTVSPropertyOp29
 70
     1
102
RTVSPropertyOp30
 70
     1
102
RTVSPropertyOp31
 70
     1
102
RTVSPropertyOp32
 70
     1
102
RTVSPropertyOp33
 70
     1
102
RTVSPropertyOp34
 70
     1
102
RTVSPropertyOp35
 70
     1
102
RTVSPropertyOp36
 70
     1
102
RTVSPropertyOp37
 70
     1
102
RTVSPropertyOp38
 70
     1
102
RTVSPropertyOp39
 70
     1
102
RTVSPropertyOp40
 70
     1
102
RTVSPropertyOp41
 70
     1
102
RTVSPropertyOp42
 70
     1
102
RTVSPropertyOp43
 70
     1
102
RTVSPropertyOp44
 70
     1
102
RTVSPropertyOp45
 70
     1
102
RTVSPropertyOp46
 70
     1
102
RTVSPropertyOp47
 70
     1
102
RTVSPropertyOp48
 70
     1
102
RTVSPropertyOp49
 70
     1
102
RTVSPropertyOp50
 70
     1
102
RTVSPropertyOp51
 70
     0
102
RTVSPropertyOp52
 70
     0
102
RTVSPropertyOp53
 70
     1
102
RTVSPropertyOp54
 70
     1
102
RTVSPropertyOp55
 70
     1
102
RTVSPropertyOp56
 70
     1
102
RTVSPropertyOp57
 70
     1
102
RTVSPropertyOp58
 70
     1
102
RTVSPropertyOp59
 70
     1
102
RTVSPropertyOp60
 70
     1
102
RTVSPropertyOp61
 70
     1
102
RTVSPropertyOp62
 70
     1
  0
XRECORD
  5
CE81
102
{ACAD_REACTORS
330
CE80
102
}
330
CE80
100
AcDbXrecord
280
     1
102
RTVSPost2010Prop28
280
     0
102
RTVSPost2010PropOp28
 70
     1
102
RTVSPost2010Prop29
280
     1
102
RTVSPost2010PropOp29
 70
     1
102
RTVSPost2010Prop30
280
     1
102
RTVSPost2010PropOp30
 70
     1
102
RTVSPost2010Prop31
280
     0
102
RTVSPost2010PropOp31
 70
     1
102
RTVSPost2010Prop32
280
     0
102
RTVSPost2010PropOp32
 70
     1
102
RTVSPost2010Prop33
280
     0
102
RTVSPost2010PropOp33
 70
     1
102
RTVSPost2010Prop34
280
     0
102
RTVSPost2010PropOp34
 70
     1
102
RTVSPost2010Prop35
280
     0
102
RTVSPost2010PropOp35
 70
     1
102
RTVSPost2010Prop36
280
     0
102
RTVSPost2010PropOp36
 70
     1
102
RTVSPost2010Prop37
 90
       50
102
RTVSPost2010PropOp37
 70
     1
102
RTVSPost2010Prop38
140
0.0
102
RTVSPost2010PropOp38
 70
     1
102
RTVSPost2010Prop39
140
1.0
102
RTVSPost2010PropOp39
 70
     1
102
RTVSPost2010Prop40
 90
        0
102
RTVSPost2010PropOp40
 70
     1
102
RTVSPost2010Prop41ColorIndex
 90
       18
102
RTVSPost2010Prop41ColorRGB
 90
        0
102
RTVSPost2010PropOp41
 70
     1
102
RTVSPost2010Prop42
 90
       50
102
RTVSPost2010PropOp42
 70
     1
102
RTVSPost2010Prop43
 90
        3
102
RTVSPost2010PropOp43
 70
     1
102
RTVSPost2010Prop44ColorIndex
 90
        5
102
RTVSPost2010Prop44ColorRGB
 90
      255
102
RTVSPost2010PropOp44
 70
     1
102
RTVSPost2010Prop45
280
     0
102
RTVSPost2010PropOp45
 70
     1
102
RTVSPost2010Prop46
 90
       50
102
RTVSPost2010PropOp46
 70
     1
102
RTVSPost2010Prop47
 90
       50
102
RTVSPost2010PropOp47
 70
     1
102
RTVSPost2010Prop48
 90
       50
102
RTVSPost2010PropOp48
 70
     1
102
RTVSPost2010Prop49
280
     0
102
RTVSPost2010PropOp49
 70
     1
102
RTVSPost2010Prop50
 90
       50
102
RTVSPost2010PropOp50
 70
     1
102
RTVSPost2010Prop51ColorIndex
 90
      256
102
RTVSPost2010Prop51ColorRGB
 90
-16777216
102
RTVSPost2010PropOp51
 70
     0
102
RTVSPost2010Prop52
140
1.0
102
RTVSPost2010PropOp52
 70
     0
102
RTVSPost2010Prop53
 90
        2
102
RTVSPost2010PropOp53
 70
     1
102
RTVSPost2010Prop54
  1
strokes_ogs.tif
102
RTVSPost2010PropOp54
 70
     1
102
RTVSPost2010Prop55
280
     0
102
RTVSPost2010PropOp55
 70
     1
102
RTVSPost2010Prop56
140
1.0
102
RTVSPost2010PropOp56
 70
     1
102
RTVSPost2010Prop57
140
1.0
102
RTVSPost2010PropOp57
 70
     1
102
RTVSPropertyOp0
 70
     1
102
RTVSPropertyOp1
 70
     1
102
RTVSPropertyOp2
 70
     1
102
RTVSPropertyOp3
 70
     1
102
RTVSPropertyOp4
 70
     1
102
RTVSPropertyOp5
 70
     1
102
RTVSPropertyOp6
 70
     1
102
RTVSPropertyOp7
 70
     1
102
RTVSPropertyOp8
 70
     1
102
RTVSPropertyOp9
 70
     1
102
RTVSPropertyOp10
 70
     1
102
RTVSPropertyOp11
 70
     1
102
RTVSPropertyOp12
 70
     1
102
RTVSPropertyOp13
 70
     1
102
RTVSPropertyOp14
 70
     1
102
RTVSPropertyOp15
 70
     1
102
RTVSPropertyOp16
 70
     1
102
RTVSPropertyOp17
 70
     1
102
RTVSPropertyOp18
 70
     1
102
RTVSPropertyOp19
 70
     1
102
RTVSPropertyOp20
 70
     1
102
RTVSPropertyOp21
 70
     1
102
RTVSPropertyOp22
 70
     1
102
RTVSPropertyOp23
 70
     1
102
RTVSPropertyOp24
 70
     1
102
RTVSPropertyOp25
 70
     1
102
RTVSPropertyOp26
 70
     1
102
RTVSPropertyOp27
 70
     1
102
RTVSPropertyOp28
 70
     1
102
RTVSPropertyOp29
 70
     1
102
RTVSPropertyOp30
 70
     1
102
RTVSPropertyOp31
 70
     1
102
RTVSPropertyOp32
 70
     1
102
RTVSPropertyOp33
 70
     1
102
RTVSPropertyOp34
 70
     1
102
RTVSPropertyOp35
 70
     1
102
RTVSPropertyOp36
 70
     1
102
RTVSPropertyOp37
 70
     1
102
RTVSPropertyOp38
 70
     1
102
RTVSPropertyOp39
 70
     1
102
RTVSPropertyOp40
 70
     1
102
RTVSPropertyOp41
 70
     1
102
RTVSPropertyOp42
 70
     1
102
RTVSPropertyOp43
 70
     1
102
RTVSPropertyOp44
 70
     1
102
RTVSPropertyOp45
 70
     1
102
RTVSPropertyOp46
 70
     1
102
RTVSPropertyOp47
 70
     1
102
RTVSPropertyOp48
 70
     1
102
RTVSPropertyOp49
 70
     1
102
RTVSPropertyOp50
 70
     1
102
RTVSPropertyOp51
 70
     0
102
RTVSPropertyOp52
 70
     0
102
RTVSPropertyOp53
 70
     1
102
RTVSPropertyOp54
 70
     1
102
RTVSPropertyOp55
 70
     1
102
RTVSPropertyOp56
 70
     1
102
RTVSPropertyOp57
 70
     1
102
RTVSPropertyOp58
 70
     1
102
RTVSPropertyOp59
 70
     1
102
RTVSPropertyOp60
 70
     1
102
RTVSPropertyOp61
 70
     1
102
RTVSPropertyOp62
 70
     1
  0
XRECORD
  5
CE83
102
{ACAD_REACTORS
330
CE82
102
}
330
CE82
100
AcDbXrecord
280
     1
102
RTVSPost2010Prop28
280
     0
102
RTVSPost2010PropOp28
 70
     1
102
RTVSPost2010Prop29
280
     1
102
RTVSPost2010PropOp29
 70
     1
102
RTVSPost2010Prop30
280
     1
102
RTVSPost2010PropOp30
 70
     1
102
RTVSPost2010Prop31
280
     0
102
RTVSPost2010PropOp31
 70
     1
102
RTVSPost2010Prop32
280
     0
102
RTVSPost2010PropOp32
 70
     1
102
RTVSPost2010Prop33
280
     0
102
RTVSPost2010PropOp33
 70
     1
102
RTVSPost2010Prop34
280
     0
102
RTVSPost2010PropOp34
 70
     1
102
RTVSPost2010Prop35
280
     0
102
RTVSPost2010PropOp35
 70
     1
102
RTVSPost2010Prop36
280
     0
102
RTVSPost2010PropOp36
 70
     1
102
RTVSPost2010Prop37
 90
       50
102
RTVSPost2010PropOp37
 70
     1
102
RTVSPost2010Prop38
140
0.0
102
RTVSPost2010PropOp38
 70
     1
102
RTVSPost2010Prop39
140
1.0
102
RTVSPost2010PropOp39
 70
     1
102
RTVSPost2010Prop40
 90
        0
102
RTVSPost2010PropOp40
 70
     1
102
RTVSPost2010Prop41ColorIndex
 90
       18
102
RTVSPost2010Prop41ColorRGB
 90
        0
102
RTVSPost2010PropOp41
 70
     1
102
RTVSPost2010Prop42
 90
       50
102
RTVSPost2010PropOp42
 70
     1
102
RTVSPost2010Prop43
 90
        3
102
RTVSPost2010PropOp43
 70
     1
102
RTVSPost2010Prop44ColorIndex
 90
        5
102
RTVSPost2010Prop44ColorRGB
 90
      255
102
RTVSPost2010PropOp44
 70
     1
102
RTVSPost2010Prop45
280
     0
102
RTVSPost2010PropOp45
 70
     1
102
RTVSPost2010Prop46
 90
       50
102
RTVSPost2010PropOp46
 70
     1
102
RTVSPost2010Prop47
 90
       50
102
RTVSPost2010PropOp47
 70
     1
102
RTVSPost2010Prop48
 90
       50
102
RTVSPost2010PropOp48
 70
     1
102
RTVSPost2010Prop49
280
     0
102
RTVSPost2010PropOp49
 70
     1
102
RTVSPost2010Prop50
 90
       50
102
RTVSPost2010PropOp50
 70
     1
102
RTVSPost2010Prop51ColorIndex
 90
      256
102
RTVSPost2010Prop51ColorRGB
 90
-16777216
102
RTVSPost2010PropOp51
 70
     0
102
RTVSPost2010Prop52
140
1.0
102
RTVSPost2010PropOp52
 70
     0
102
RTVSPost2010Prop53
 90
        2
102
RTVSPost2010PropOp53
 70
     1
102
RTVSPost2010Prop54
  1
strokes_ogs.tif
102
RTVSPost2010PropOp54
 70
     1
102
RTVSPost2010Prop55
280
     0
102
RTVSPost2010PropOp55
 70
     1
102
RTVSPost2010Prop56
140
1.0
102
RTVSPost2010PropOp56
 70
     1
102
RTVSPost2010Prop57
140
1.0
102
RTVSPost2010PropOp57
 70
     1
102
RTVSPropertyOp0
 70
     1
102
RTVSPropertyOp1
 70
     1
102
RTVSPropertyOp2
 70
     1
102
RTVSPropertyOp3
 70
     1
102
RTVSPropertyOp4
 70
     1
102
RTVSPropertyOp5
 70
     1
102
RTVSPropertyOp6
 70
     1
102
RTVSPropertyOp7
 70
     1
102
RTVSPropertyOp8
 70
     1
102
RTVSPropertyOp9
 70
     1
102
RTVSPropertyOp10
 70
     1
102
RTVSPropertyOp11
 70
     1
102
RTVSPropertyOp12
 70
     1
102
RTVSPropertyOp13
 70
     1
102
RTVSPropertyOp14
 70
     1
102
RTVSPropertyOp15
 70
     1
102
RTVSPropertyOp16
 70
     1
102
RTVSPropertyOp17
 70
     1
102
RTVSPropertyOp18
 70
     1
102
RTVSPropertyOp19
 70
     1
102
RTVSPropertyOp20
 70
     1
102
RTVSPropertyOp21
 70
     1
102
RTVSPropertyOp22
 70
     1
102
RTVSPropertyOp23
 70
     1
102
RTVSPropertyOp24
 70
     1
102
RTVSPropertyOp25
 70
     1
102
RTVSPropertyOp26
 70
     1
102
RTVSPropertyOp27
 70
     1
102
RTVSPropertyOp28
 70
     1
102
RTVSPropertyOp29
 70
     1
102
RTVSPropertyOp30
 70
     1
102
RTVSPropertyOp31
 70
     1
102
RTVSPropertyOp32
 70
     1
102
RTVSPropertyOp33
 70
     1
102
RTVSPropertyOp34
 70
     1
102
RTVSPropertyOp35
 70
     1
102
RTVSPropertyOp36
 70
     1
102
RTVSPropertyOp37
 70
     1
102
RTVSPropertyOp38
 70
     1
102
RTVSPropertyOp39
 70
     1
102
RTVSPropertyOp40
 70
     1
102
RTVSPropertyOp41
 70
     1
102
RTVSPropertyOp42
 70
     1
102
RTVSPropertyOp43
 70
     1
102
RTVSPropertyOp44
 70
     1
102
RTVSPropertyOp45
 70
     1
102
RTVSPropertyOp46
 70
     1
102
RTVSPropertyOp47
 70
     1
102
RTVSPropertyOp48
 70
     1
102
RTVSPropertyOp49
 70
     1
102
RTVSPropertyOp50
 70
     1
102
RTVSPropertyOp51
 70
     0
102
RTVSPropertyOp52
 70
     0
102
RTVSPropertyOp53
 70
     1
102
RTVSPropertyOp54
 70
     1
102
RTVSPropertyOp55
 70
     1
102
RTVSPropertyOp56
 70
     1
102
RTVSPropertyOp57
 70
     1
102
RTVSPropertyOp58
 70
     1
102
RTVSPropertyOp59
 70
     1
102
RTVSPropertyOp60
 70
     1
102
RTVSPropertyOp61
 70
     1
102
RTVSPropertyOp62
 70
     1
  0
XRECORD
  5
CE85
102
{ACAD_REACTORS
330
CE84
102
}
330
CE84
100
AcDbXrecord
280
     1
102
RTVSPost2010Prop28
280
     0
102
RTVSPost2010PropOp28
 70
     1
102
RTVSPost2010Prop29
280
     1
102
RTVSPost2010PropOp29
 70
     1
102
RTVSPost2010Prop30
280
     1
102
RTVSPost2010PropOp30
 70
     1
102
RTVSPost2010Prop31
280
     0
102
RTVSPost2010PropOp31
 70
     1
102
RTVSPost2010Prop32
280
     0
102
RTVSPost2010PropOp32
 70
     1
102
RTVSPost2010Prop33
280
     0
102
RTVSPost2010PropOp33
 70
     1
102
RTVSPost2010Prop34
280
     0
102
RTVSPost2010PropOp34
 70
     1
102
RTVSPost2010Prop35
280
     0
102
RTVSPost2010PropOp35
 70
     1
102
RTVSPost2010Prop36
280
     0
102
RTVSPost2010PropOp36
 70
     1
102
RTVSPost2010Prop37
 90
       50
102
RTVSPost2010PropOp37
 70
     1
102
RTVSPost2010Prop38
140
0.0
102
RTVSPost2010PropOp38
 70
     1
102
RTVSPost2010Prop39
140
1.0
102
RTVSPost2010PropOp39
 70
     1
102
RTVSPost2010Prop40
 90
        0
102
RTVSPost2010PropOp40
 70
     1
102
RTVSPost2010Prop41ColorIndex
 90
       18
102
RTVSPost2010Prop41ColorRGB
 90
        0
102
RTVSPost2010PropOp41
 70
     1
102
RTVSPost2010Prop42
 90
       50
102
RTVSPost2010PropOp42
 70
     1
102
RTVSPost2010Prop43
 90
        3
102
RTVSPost2010PropOp43
 70
     1
102
RTVSPost2010Prop44ColorIndex
 90
        5
102
RTVSPost2010Prop44ColorRGB
 90
      255
102
RTVSPost2010PropOp44
 70
     1
102
RTVSPost2010Prop45
280
     0
102
RTVSPost2010PropOp45
 70
     1
102
RTVSPost2010Prop46
 90
       50
102
RTVSPost2010PropOp46
 70
     1
102
RTVSPost2010Prop47
 90
       50
102
RTVSPost2010PropOp47
 70
     1
102
RTVSPost2010Prop48
 90
       50
102
RTVSPost2010PropOp48
 70
     1
102
RTVSPost2010Prop49
280
     0
102
RTVSPost2010PropOp49
 70
     1
102
RTVSPost2010Prop50
 90
       50
102
RTVSPost2010PropOp50
 70
     1
102
RTVSPost2010Prop51ColorIndex
 90
      256
102
RTVSPost2010Prop51ColorRGB
 90
-16777216
102
RTVSPost2010PropOp51
 70
     0
102
RTVSPost2010Prop52
140
1.0
102
RTVSPost2010PropOp52
 70
     0
102
RTVSPost2010Prop53
 90
        2
102
RTVSPost2010PropOp53
 70
     1
102
RTVSPost2010Prop54
  1
strokes_ogs.tif
102
RTVSPost2010PropOp54
 70
     1
102
RTVSPost2010Prop55
280
     0
102
RTVSPost2010PropOp55
 70
     1
102
RTVSPost2010Prop56
140
1.0
102
RTVSPost2010PropOp56
 70
     1
102
RTVSPost2010Prop57
140
1.0
102
RTVSPost2010PropOp57
 70
     1
102
RTVSPropertyOp0
 70
     1
102
RTVSPropertyOp1
 70
     1
102
RTVSPropertyOp2
 70
     1
102
RTVSPropertyOp3
 70
     1
102
RTVSPropertyOp4
 70
     1
102
RTVSPropertyOp5
 70
     1
102
RTVSPropertyOp6
 70
     1
102
RTVSPropertyOp7
 70
     1
102
RTVSPropertyOp8
 70
     1
102
RTVSPropertyOp9
 70
     1
102
RTVSPropertyOp10
 70
     1
102
RTVSPropertyOp11
 70
     1
102
RTVSPropertyOp12
 70
     1
102
RTVSPropertyOp13
 70
     1
102
RTVSPropertyOp14
 70
     1
102
RTVSPropertyOp15
 70
     1
102
RTVSPropertyOp16
 70
     1
102
RTVSPropertyOp17
 70
     1
102
RTVSPropertyOp18
 70
     1
102
RTVSPropertyOp19
 70
     1
102
RTVSPropertyOp20
 70
     1
102
RTVSPropertyOp21
 70
     1
102
RTVSPropertyOp22
 70
     1
102
RTVSPropertyOp23
 70
     1
102
RTVSPropertyOp24
 70
     1
102
RTVSPropertyOp25
 70
     1
102
RTVSPropertyOp26
 70
     1
102
RTVSPropertyOp27
 70
     1
102
RTVSPropertyOp28
 70
     1
102
RTVSPropertyOp29
 70
     1
102
RTVSPropertyOp30
 70
     1
102
RTVSPropertyOp31
 70
     1
102
RTVSPropertyOp32
 70
     1
102
RTVSPropertyOp33
 70
     1
102
RTVSPropertyOp34
 70
     1
102
RTVSPropertyOp35
 70
     1
102
RTVSPropertyOp36
 70
     1
102
RTVSPropertyOp37
 70
     1
102
RTVSPropertyOp38
 70
     1
102
RTVSPropertyOp39
 70
     1
102
RTVSPropertyOp40
 70
     1
102
RTVSPropertyOp41
 70
     1
102
RTVSPropertyOp42
 70
     1
102
RTVSPropertyOp43
 70
     1
102
RTVSPropertyOp44
 70
     1
102
RTVSPropertyOp45
 70
     1
102
RTVSPropertyOp46
 70
     1
102
RTVSPropertyOp47
 70
     1
102
RTVSPropertyOp48
 70
     1
102
RTVSPropertyOp49
 70
     1
102
RTVSPropertyOp50
 70
     1
102
RTVSPropertyOp51
 70
     0
102
RTVSPropertyOp52
 70
     0
102
RTVSPropertyOp53
 70
     1
102
RTVSPropertyOp54
 70
     1
102
RTVSPropertyOp55
 70
     1
102
RTVSPropertyOp56
 70
     1
102
RTVSPropertyOp57
 70
     1
102
RTVSPropertyOp58
 70
     1
102
RTVSPropertyOp59
 70
     1
102
RTVSPropertyOp60
 70
     1
102
RTVSPropertyOp61
 70
     1
102
RTVSPropertyOp62
 70
     1
  0
XRECORD
  5
CE8D
102
{ACAD_REACTORS
330
CE8C
102
}
330
CE8C
100
AcDbXrecord
280
     1
102
RTVSPost2010Prop28
280
     0
102
RTVSPost2010PropOp28
 70
     1
102
RTVSPost2010Prop29
280
     1
102
RTVSPost2010PropOp29
 70
     1
102
RTVSPost2010Prop30
280
     1
102
RTVSPost2010PropOp30
 70
     1
102
RTVSPost2010Prop31
280
     0
102
RTVSPost2010PropOp31
 70
     1
102
RTVSPost2010Prop32
280
     0
102
RTVSPost2010PropOp32
 70
     1
102
RTVSPost2010Prop33
280
     0
102
RTVSPost2010PropOp33
 70
     1
102
RTVSPost2010Prop34
280
     0
102
RTVSPost2010PropOp34
 70
     1
102
RTVSPost2010Prop35
280
     0
102
RTVSPost2010PropOp35
 70
     1
102
RTVSPost2010Prop36
280
     0
102
RTVSPost2010PropOp36
 70
     1
102
RTVSPost2010Prop37
 90
       50
102
RTVSPost2010PropOp37
 70
     1
102
RTVSPost2010Prop38
140
0.0
102
RTVSPost2010PropOp38
 70
     1
102
RTVSPost2010Prop39
140
1.0
102
RTVSPost2010PropOp39
 70
     1
102
RTVSPost2010Prop40
 90
        0
102
RTVSPost2010PropOp40
 70
     1
102
RTVSPost2010Prop41ColorIndex
 90
       18
102
RTVSPost2010Prop41ColorRGB
 90
        0
102
RTVSPost2010PropOp41
 70
     1
102
RTVSPost2010Prop42
 90
       50
102
RTVSPost2010PropOp42
 70
     1
102
RTVSPost2010Prop43
 90
        3
102
RTVSPost2010PropOp43
 70
     1
102
RTVSPost2010Prop44ColorIndex
 90
        5
102
RTVSPost2010Prop44ColorRGB
 90
      255
102
RTVSPost2010PropOp44
 70
     1
102
RTVSPost2010Prop45
280
     0
102
RTVSPost2010PropOp45
 70
     1
102
RTVSPost2010Prop46
 90
       50
102
RTVSPost2010PropOp46
 70
     1
102
RTVSPost2010Prop47
 90
       50
102
RTVSPost2010PropOp47
 70
     1
102
RTVSPost2010Prop48
 90
       50
102
RTVSPost2010PropOp48
 70
     1
102
RTVSPost2010Prop49
280
     0
102
RTVSPost2010PropOp49
 70
     1
102
RTVSPost2010Prop50
 90
       50
102
RTVSPost2010PropOp50
 70
     1
102
RTVSPost2010Prop51ColorIndex
 90
      256
102
RTVSPost2010Prop51ColorRGB
 90
-16777216
102
RTVSPost2010PropOp51
 70
     0
102
RTVSPost2010Prop52
140
1.0
102
RTVSPost2010PropOp52
 70
     0
102
RTVSPost2010Prop53
 90
        2
102
RTVSPost2010PropOp53
 70
     1
102
RTVSPost2010Prop54
  1
strokes_ogs.tif
102
RTVSPost2010PropOp54
 70
     1
102
RTVSPost2010Prop55
280
     0
102
RTVSPost2010PropOp55
 70
     1
102
RTVSPost2010Prop56
140
1.0
102
RTVSPost2010PropOp56
 70
     1
102
RTVSPost2010Prop57
140
1.0
102
RTVSPost2010PropOp57
 70
     1
102
RTVSPropertyOp0
 70
     1
102
RTVSPropertyOp1
 70
     1
102
RTVSPropertyOp2
 70
     1
102
RTVSPropertyOp3
 70
     1
102
RTVSPropertyOp4
 70
     1
102
RTVSPropertyOp5
 70
     1
102
RTVSPropertyOp6
 70
     1
102
RTVSPropertyOp7
 70
     1
102
RTVSPropertyOp8
 70
     1
102
RTVSPropertyOp9
 70
     1
102
RTVSPropertyOp10
 70
     1
102
RTVSPropertyOp11
 70
     1
102
RTVSPropertyOp12
 70
     1
102
RTVSPropertyOp13
 70
     1
102
RTVSPropertyOp14
 70
     1
102
RTVSPropertyOp15
 70
     1
102
RTVSPropertyOp16
 70
     1
102
RTVSPropertyOp17
 70
     1
102
RTVSPropertyOp18
 70
     1
102
RTVSPropertyOp19
 70
     1
102
RTVSPropertyOp20
 70
     1
102
RTVSPropertyOp21
 70
     1
102
RTVSPropertyOp22
 70
     1
102
RTVSPropertyOp23
 70
     1
102
RTVSPropertyOp24
 70
     1
102
RTVSPropertyOp25
 70
     1
102
RTVSPropertyOp26
 70
     1
102
RTVSPropertyOp27
 70
     1
102
RTVSPropertyOp28
 70
     1
102
RTVSPropertyOp29
 70
     1
102
RTVSPropertyOp30
 70
     1
102
RTVSPropertyOp31
 70
     1
102
RTVSPropertyOp32
 70
     1
102
RTVSPropertyOp33
 70
     1
102
RTVSPropertyOp34
 70
     1
102
RTVSPropertyOp35
 70
     1
102
RTVSPropertyOp36
 70
     1
102
RTVSPropertyOp37
 70
     1
102
RTVSPropertyOp38
 70
     1
102
RTVSPropertyOp39
 70
     1
102
RTVSPropertyOp40
 70
     1
102
RTVSPropertyOp41
 70
     1
102
RTVSPropertyOp42
 70
     1
102
RTVSPropertyOp43
 70
     1
102
RTVSPropertyOp44
 70
     1
102
RTVSPropertyOp45
 70
     1
102
RTVSPropertyOp46
 70
     1
102
RTVSPropertyOp47
 70
     1
102
RTVSPropertyOp48
 70
     1
102
RTVSPropertyOp49
 70
     1
102
RTVSPropertyOp50
 70
     1
102
RTVSPropertyOp51
 70
     0
102
RTVSPropertyOp52
 70
     0
102
RTVSPropertyOp53
 70
     1
102
RTVSPropertyOp54
 70
     1
102
RTVSPropertyOp55
 70
     1
102
RTVSPropertyOp56
 70
     1
102
RTVSPropertyOp57
 70
     1
102
RTVSPropertyOp58
 70
     1
102
RTVSPropertyOp59
 70
     1
102
RTVSPropertyOp60
 70
     1
102
RTVSPropertyOp61
 70
     1
102
RTVSPropertyOp62
 70
     1
  0
XRECORD
  5
CEA9
102
{ACAD_REACTORS
330
CEA8
102
}
330
CEA8
100
AcDbXrecord
280
     1
102
RTVSPost2010Prop28
280
     0
102
RTVSPost2010PropOp28
 70
     1
102
RTVSPost2010Prop29
280
     1
102
RTVSPost2010PropOp29
 70
     1
102
RTVSPost2010Prop30
280
     1
102
RTVSPost2010PropOp30
 70
     1
102
RTVSPost2010Prop31
280
     0
102
RTVSPost2010PropOp31
 70
     1
102
RTVSPost2010Prop32
280
     0
102
RTVSPost2010PropOp32
 70
     1
102
RTVSPost2010Prop33
280
     0
102
RTVSPost2010PropOp33
 70
     1
102
RTVSPost2010Prop34
280
     0
102
RTVSPost2010PropOp34
 70
     1
102
RTVSPost2010Prop35
280
     0
102
RTVSPost2010PropOp35
 70
     1
102
RTVSPost2010Prop36
280
     0
102
RTVSPost2010PropOp36
 70
     1
102
RTVSPost2010Prop37
 90
       50
102
RTVSPost2010PropOp37
 70
     0
102
RTVSPost2010Prop38
140
0.0
102
RTVSPost2010PropOp38
 70
     0
102
RTVSPost2010Prop39
140
1.0
102
RTVSPost2010PropOp39
 70
     0
102
RTVSPost2010Prop40
 90
        0
102
RTVSPost2010PropOp40
 70
     0
102
RTVSPost2010Prop41ColorIndex
 90
       18
102
RTVSPost2010Prop41ColorRGB
 90
        0
102
RTVSPost2010PropOp41
 70
     0
102
RTVSPost2010Prop42
 90
       50
102
RTVSPost2010PropOp42
 70
     0
102
RTVSPost2010Prop43
 90
        3
102
RTVSPost2010PropOp43
 70
     0
102
RTVSPost2010Prop44ColorIndex
 90
        5
102
RTVSPost2010Prop44ColorRGB
 90
      255
102
RTVSPost2010PropOp44
 70
     0
102
RTVSPost2010Prop45
280
     0
102
RTVSPost2010PropOp45
 70
     1
102
RTVSPost2010Prop46
 90
       50
102
RTVSPost2010PropOp46
 70
     0
102
RTVSPost2010Prop47
 90
       50
102
RTVSPost2010PropOp47
 70
     0
102
RTVSPost2010Prop48
 90
       50
102
RTVSPost2010PropOp48
 70
     0
102
RTVSPost2010Prop49
280
     0
102
RTVSPost2010PropOp49
 70
     1
102
RTVSPost2010Prop50
 90
       50
102
RTVSPost2010PropOp50
 70
     0
102
RTVSPost2010Prop51ColorIndex
 90
      256
102
RTVSPost2010Prop51ColorRGB
 90
-16777216
102
RTVSPost2010PropOp51
 70
     0
102
RTVSPost2010Prop52
140
1.0
102
RTVSPost2010PropOp52
 70
     0
102
RTVSPost2010Prop53
 90
        2
102
RTVSPost2010PropOp53
 70
     0
102
RTVSPost2010Prop54
  1
strokes_ogs.tif
102
RTVSPost2010PropOp54
 70
     0
102
RTVSPost2010Prop55
280
     0
102
RTVSPost2010PropOp55
 70
     1
102
RTVSPost2010Prop56
140
1.0
102
RTVSPost2010PropOp56
 70
     0
102
RTVSPost2010Prop57
140
1.0
102
RTVSPost2010PropOp57
 70
     0
102
RTVSPropertyOp0
 70
     0
102
RTVSPropertyOp1
 70
     0
102
RTVSPropertyOp2
 70
     0
102
RTVSPropertyOp3
 70
     0
102
RTVSPropertyOp4
 70
     0
102
RTVSPropertyOp5
 70
     0
102
RTVSPropertyOp6
 70
     0
102
RTVSPropertyOp7
 70
     0
102
RTVSPropertyOp8
 70
     0
102
RTVSPropertyOp9
 70
     0
102
RTVSPropertyOp10
 70
     0
102
RTVSPropertyOp11
 70
     0
102
RTVSPropertyOp12
 70
     0
102
RTVSPropertyOp13
 70
     0
102
RTVSPropertyOp14
 70
     2
102
RTVSPropertyOp15
 70
     0
102
RTVSPropertyOp16
 70
     0
102
RTVSPropertyOp17
 70
     0
102
RTVSPropertyOp18
 70
     0
102
RTVSPropertyOp19
 70
     0
102
RTVSPropertyOp20
 70
     0
102
RTVSPropertyOp21
 70
     0
102
RTVSPropertyOp22
 70
     0
102
RTVSPropertyOp23
 70
     0
102
RTVSPropertyOp24
 70
     0
102
RTVSPropertyOp25
 70
     0
102
RTVSPropertyOp26
 70
     0
102
RTVSPropertyOp27
 70
     0
102
RTVSPropertyOp28
 70
     1
102
RTVSPropertyOp29
 70
     1
102
RTVSPropertyOp30
 70
     1
102
RTVSPropertyOp31
 70
     1
102
RTVSPropertyOp32
 70
     1
102
RTVSPropertyOp33
 70
     1
102
RTVSPropertyOp34
 70
     1
102
RTVSPropertyOp35
 70
     1
102
RTVSPropertyOp36
 70
     1
102
RTVSPropertyOp37
 70
     0
102
RTVSPropertyOp38
 70
     0
102
RTVSPropertyOp39
 70
     0
102
RTVSPropertyOp40
 70
     0
102
RTVSPropertyOp41
 70
     0
102
RTVSPropertyOp42
 70
     0
102
RTVSPropertyOp43
 70
     0
102
RTVSPropertyOp44
 70
     0
102
RTVSPropertyOp45
 70
     1
102
RTVSPropertyOp46
 70
     0
102
RTVSPropertyOp47
 70
     0
102
RTVSPropertyOp48
 70
     0
102
RTVSPropertyOp49
 70
     1
102
RTVSPropertyOp50
 70
     0
102
RTVSPropertyOp51
 70
     0
102
RTVSPropertyOp52
 70
     0
102
RTVSPropertyOp53
 70
     0
102
RTVSPropertyOp54
 70
     0
102
RTVSPropertyOp55
 70
     1
102
RTVSPropertyOp56
 70
     0
102
RTVSPropertyOp57
 70
     0
102
RTVSPropertyOp58
 70
     0
102
RTVSPropertyOp59
 70
     0
102
RTVSPropertyOp60
 70
     0
102
RTVSPropertyOp61
 70
     0
102
RTVSPropertyOp62
 70
     0
  0
XRECORD
  5
CE99
102
{ACAD_REACTORS
330
CE98
102
}
330
CE98
100
AcDbXrecord
280
     1
102
RTVSPost2010Prop28
280
     0
102
RTVSPost2010PropOp28
 70
     1
102
RTVSPost2010Prop29
280
     1
102
RTVSPost2010PropOp29
 70
     1
102
RTVSPost2010Prop30
280
     1
102
RTVSPost2010PropOp30
 70
     1
102
RTVSPost2010Prop31
280
     0
102
RTVSPost2010PropOp31
 70
     1
102
RTVSPost2010Prop32
280
     0
102
RTVSPost2010PropOp32
 70
     1
102
RTVSPost2010Prop33
280
     0
102
RTVSPost2010PropOp33
 70
     1
102
RTVSPost2010Prop34
280
     0
102
RTVSPost2010PropOp34
 70
     1
102
RTVSPost2010Prop35
280
     0
102
RTVSPost2010PropOp35
 70
     1
102
RTVSPost2010Prop36
280
     0
102
RTVSPost2010PropOp36
 70
     1
102
RTVSPost2010Prop37
 90
       50
102
RTVSPost2010PropOp37
 70
     1
102
RTVSPost2010Prop38
140
0.0
102
RTVSPost2010PropOp38
 70
     1
102
RTVSPost2010Prop39
140
1.0
102
RTVSPost2010PropOp39
 70
     1
102
RTVSPost2010Prop40
 90
        0
102
RTVSPost2010PropOp40
 70
     1
102
RTVSPost2010Prop41ColorIndex
 90
       18
102
RTVSPost2010Prop41ColorRGB
 90
        0
102
RTVSPost2010PropOp41
 70
     1
102
RTVSPost2010Prop42
 90
       50
102
RTVSPost2010PropOp42
 70
     1
102
RTVSPost2010Prop43
 90
        3
102
RTVSPost2010PropOp43
 70
     1
102
RTVSPost2010Prop44ColorIndex
 90
        5
102
RTVSPost2010Prop44ColorRGB
 90
      255
102
RTVSPost2010PropOp44
 70
     1
102
RTVSPost2010Prop45
280
     0
102
RTVSPost2010PropOp45
 70
     1
102
RTVSPost2010Prop46
 90
       50
102
RTVSPost2010PropOp46
 70
     1
102
RTVSPost2010Prop47
 90
       50
102
RTVSPost2010PropOp47
 70
     1
102
RTVSPost2010Prop48
 90
       50
102
RTVSPost2010PropOp48
 70
     1
102
RTVSPost2010Prop49
280
     0
102
RTVSPost2010PropOp49
 70
     1
102
RTVSPost2010Prop50
 90
       50
102
RTVSPost2010PropOp50
 70
     1
102
RTVSPost2010Prop51ColorIndex
 90
      256
102
RTVSPost2010Prop51ColorRGB
 90
-16777216
102
RTVSPost2010PropOp51
 70
     0
102
RTVSPost2010Prop52
140
1.0
102
RTVSPost2010PropOp52
 70
     0
102
RTVSPost2010Prop53
 90
        2
102
RTVSPost2010PropOp53
 70
     1
102
RTVSPost2010Prop54
  1
strokes_ogs.tif
102
RTVSPost2010PropOp54
 70
     1
102
RTVSPost2010Prop55
280
     0
102
RTVSPost2010PropOp55
 70
     1
102
RTVSPost2010Prop56
140
1.0
102
RTVSPost2010PropOp56
 70
     1
102
RTVSPost2010Prop57
140
1.0
102
RTVSPost2010PropOp57
 70
     1
102
RTVSPropertyOp0
 70
     1
102
RTVSPropertyOp1
 70
     1
102
RTVSPropertyOp2
 70
     1
102
RTVSPropertyOp3
 70
     1
102
RTVSPropertyOp4
 70
     1
102
RTVSPropertyOp5
 70
     1
102
RTVSPropertyOp6
 70
     1
102
RTVSPropertyOp7
 70
     1
102
RTVSPropertyOp8
 70
     1
102
RTVSPropertyOp9
 70
     1
102
RTVSPropertyOp10
 70
     1
102
RTVSPropertyOp11
 70
     1
102
RTVSPropertyOp12
 70
     1
102
RTVSPropertyOp13
 70
     1
102
RTVSPropertyOp14
 70
     1
102
RTVSPropertyOp15
 70
     1
102
RTVSPropertyOp16
 70
     1
102
RTVSPropertyOp17
 70
     1
102
RTVSPropertyOp18
 70
     1
102
RTVSPropertyOp19
 70
     1
102
RTVSPropertyOp20
 70
     1
102
RTVSPropertyOp21
 70
     1
102
RTVSPropertyOp22
 70
     1
102
RTVSPropertyOp23
 70
     1
102
RTVSPropertyOp24
 70
     1
102
RTVSPropertyOp25
 70
     1
102
RTVSPropertyOp26
 70
     1
102
RTVSPropertyOp27
 70
     1
102
RTVSPropertyOp28
 70
     1
102
RTVSPropertyOp29
 70
     1
102
RTVSPropertyOp30
 70
     1
102
RTVSPropertyOp31
 70
     1
102
RTVSPropertyOp32
 70
     1
102
RTVSPropertyOp33
 70
     1
102
RTVSPropertyOp34
 70
     1
102
RTVSPropertyOp35
 70
     1
102
RTVSPropertyOp36
 70
     1
102
RTVSPropertyOp37
 70
     1
102
RTVSPropertyOp38
 70
     1
102
RTVSPropertyOp39
 70
     1
102
RTVSPropertyOp40
 70
     1
102
RTVSPropertyOp41
 70
     1
102
RTVSPropertyOp42
 70
     1
102
RTVSPropertyOp43
 70
     1
102
RTVSPropertyOp44
 70
     1
102
RTVSPropertyOp45
 70
     1
102
RTVSPropertyOp46
 70
     1
102
RTVSPropertyOp47
 70
     1
102
RTVSPropertyOp48
 70
     1
102
RTVSPropertyOp49
 70
     1
102
RTVSPropertyOp50
 70
     1
102
RTVSPropertyOp51
 70
     0
102
RTVSPropertyOp52
 70
     0
102
RTVSPropertyOp53
 70
     1
102
RTVSPropertyOp54
 70
     1
102
RTVSPropertyOp55
 70
     1
102
RTVSPropertyOp56
 70
     1
102
RTVSPropertyOp57
 70
     1
102
RTVSPropertyOp58
 70
     1
102
RTVSPropertyOp59
 70
     1
102
RTVSPropertyOp60
 70
     1
102
RTVSPropertyOp61
 70
     1
102
RTVSPropertyOp62
 70
     1
  0
XRECORD
  5
CEAB
102
{ACAD_REACTORS
330
CEAA
102
}
330
CEAA
100
AcDbXrecord
280
     1
102
RTVSPost2010Prop28
280
     0
102
RTVSPost2010PropOp28
 70
     1
102
RTVSPost2010Prop29
280
     1
102
RTVSPost2010PropOp29
 70
     1
102
RTVSPost2010Prop30
280
     1
102
RTVSPost2010PropOp30
 70
     1
102
RTVSPost2010Prop31
280
     0
102
RTVSPost2010PropOp31
 70
     1
102
RTVSPost2010Prop32
280
     0
102
RTVSPost2010PropOp32
 70
     1
102
RTVSPost2010Prop33
280
     0
102
RTVSPost2010PropOp33
 70
     1
102
RTVSPost2010Prop34
280
     0
102
RTVSPost2010PropOp34
 70
     1
102
RTVSPost2010Prop35
280
     0
102
RTVSPost2010PropOp35
 70
     1
102
RTVSPost2010Prop36
280
     0
102
RTVSPost2010PropOp36
 70
     1
102
RTVSPost2010Prop37
 90
       50
102
RTVSPost2010PropOp37
 70
     0
102
RTVSPost2010Prop38
140
0.0
102
RTVSPost2010PropOp38
 70
     0
102
RTVSPost2010Prop39
140
1.0
102
RTVSPost2010PropOp39
 70
     0
102
RTVSPost2010Prop40
 90
        0
102
RTVSPost2010PropOp40
 70
     0
102
RTVSPost2010Prop41ColorIndex
 90
       18
102
RTVSPost2010Prop41ColorRGB
 90
        0
102
RTVSPost2010PropOp41
 70
     0
102
RTVSPost2010Prop42
 90
       50
102
RTVSPost2010PropOp42
 70
     0
102
RTVSPost2010Prop43
 90
        3
102
RTVSPost2010PropOp43
 70
     0
102
RTVSPost2010Prop44ColorIndex
 90
        5
102
RTVSPost2010Prop44ColorRGB
 90
      255
102
RTVSPost2010PropOp44
 70
     0
102
RTVSPost2010Prop45
280
     0
102
RTVSPost2010PropOp45
 70
     1
102
RTVSPost2010Prop46
 90
       50
102
RTVSPost2010PropOp46
 70
     0
102
RTVSPost2010Prop47
 90
       50
102
RTVSPost2010PropOp47
 70
     0
102
RTVSPost2010Prop48
 90
       50
102
RTVSPost2010PropOp48
 70
     0
102
RTVSPost2010Prop49
280
     0
102
RTVSPost2010PropOp49
 70
     1
102
RTVSPost2010Prop50
 90
       50
102
RTVSPost2010PropOp50
 70
     0
102
RTVSPost2010Prop51ColorIndex
 90
      256
102
RTVSPost2010Prop51ColorRGB
 90
-16777216
102
RTVSPost2010PropOp51
 70
     0
102
RTVSPost2010Prop52
140
1.0
102
RTVSPost2010PropOp52
 70
     0
102
RTVSPost2010Prop53
 90
        2
102
RTVSPost2010PropOp53
 70
     0
102
RTVSPost2010Prop54
  1
strokes_ogs.tif
102
RTVSPost2010PropOp54
 70
     0
102
RTVSPost2010Prop55
280
     0
102
RTVSPost2010PropOp55
 70
     1
102
RTVSPost2010Prop56
140
1.0
102
RTVSPost2010PropOp56
 70
     0
102
RTVSPost2010Prop57
140
1.0
102
RTVSPost2010PropOp57
 70
     0
102
RTVSPropertyOp0
 70
     0
102
RTVSPropertyOp1
 70
     0
102
RTVSPropertyOp2
 70
     0
102
RTVSPropertyOp3
 70
     0
102
RTVSPropertyOp4
 70
     0
102
RTVSPropertyOp5
 70
     0
102
RTVSPropertyOp6
 70
     0
102
RTVSPropertyOp7
 70
     0
102
RTVSPropertyOp8
 70
     0
102
RTVSPropertyOp9
 70
     0
102
RTVSPropertyOp10
 70
     0
102
RTVSPropertyOp11
 70
     0
102
RTVSPropertyOp12
 70
     0
102
RTVSPropertyOp13
 70
     0
102
RTVSPropertyOp14
 70
     2
102
RTVSPropertyOp15
 70
     0
102
RTVSPropertyOp16
 70
     0
102
RTVSPropertyOp17
 70
     0
102
RTVSPropertyOp18
 70
     0
102
RTVSPropertyOp19
 70
     0
102
RTVSPropertyOp20
 70
     0
102
RTVSPropertyOp21
 70
     0
102
RTVSPropertyOp22
 70
     0
102
RTVSPropertyOp23
 70
     0
102
RTVSPropertyOp24
 70
     0
102
RTVSPropertyOp25
 70
     0
102
RTVSPropertyOp26
 70
     0
102
RTVSPropertyOp27
 70
     0
102
RTVSPropertyOp28
 70
     1
102
RTVSPropertyOp29
 70
     1
102
RTVSPropertyOp30
 70
     1
102
RTVSPropertyOp31
 70
     1
102
RTVSPropertyOp32
 70
     1
102
RTVSPropertyOp33
 70
     1
102
RTVSPropertyOp34
 70
     1
102
RTVSPropertyOp35
 70
     1
102
RTVSPropertyOp36
 70
     1
102
RTVSPropertyOp37
 70
     0
102
RTVSPropertyOp38
 70
     0
102
RTVSPropertyOp39
 70
     0
102
RTVSPropertyOp40
 70
     0
102
RTVSPropertyOp41
 70
     0
102
RTVSPropertyOp42
 70
     0
102
RTVSPropertyOp43
 70
     0
102
RTVSPropertyOp44
 70
     0
102
RTVSPropertyOp45
 70
     1
102
RTVSPropertyOp46
 70
     0
102
RTVSPropertyOp47
 70
     0
102
RTVSPropertyOp48
 70
     0
102
RTVSPropertyOp49
 70
     1
102
RTVSPropertyOp50
 70
     0
102
RTVSPropertyOp51
 70
     0
102
RTVSPropertyOp52
 70
     0
102
RTVSPropertyOp53
 70
     0
102
RTVSPropertyOp54
 70
     0
102
RTVSPropertyOp55
 70
     1
102
RTVSPropertyOp56
 70
     0
102
RTVSPropertyOp57
 70
     0
102
RTVSPropertyOp58
 70
     0
102
RTVSPropertyOp59
 70
     0
102
RTVSPropertyOp60
 70
     0
102
RTVSPropertyOp61
 70
     0
102
RTVSPropertyOp62
 70
     0
  0
XRECORD
  5
CE91
102
{ACAD_REACTORS
330
CE90
102
}
330
CE90
100
AcDbXrecord
280
     1
102
RTVSPost2010Prop28
280
     0
102
RTVSPost2010PropOp28
 70
     1
102
RTVSPost2010Prop29
280
     1
102
RTVSPost2010PropOp29
 70
     1
102
RTVSPost2010Prop30
280
     1
102
RTVSPost2010PropOp30
 70
     1
102
RTVSPost2010Prop31
280
     0
102
RTVSPost2010PropOp31
 70
     1
102
RTVSPost2010Prop32
280
     0
102
RTVSPost2010PropOp32
 70
     1
102
RTVSPost2010Prop33
280
     0
102
RTVSPost2010PropOp33
 70
     1
102
RTVSPost2010Prop34
280
     0
102
RTVSPost2010PropOp34
 70
     1
102
RTVSPost2010Prop35
280
     0
102
RTVSPost2010PropOp35
 70
     1
102
RTVSPost2010Prop36
280
     0
102
RTVSPost2010PropOp36
 70
     1
102
RTVSPost2010Prop37
 90
       50
102
RTVSPost2010PropOp37
 70
     1
102
RTVSPost2010Prop38
140
0.0
102
RTVSPost2010PropOp38
 70
     1
102
RTVSPost2010Prop39
140
1.0
102
RTVSPost2010PropOp39
 70
     1
102
RTVSPost2010Prop40
 90
        0
102
RTVSPost2010PropOp40
 70
     1
102
RTVSPost2010Prop41ColorIndex
 90
       18
102
RTVSPost2010Prop41ColorRGB
 90
        0
102
RTVSPost2010PropOp41
 70
     1
102
RTVSPost2010Prop42
 90
       50
102
RTVSPost2010PropOp42
 70
     1
102
RTVSPost2010Prop43
 90
        3
102
RTVSPost2010PropOp43
 70
     1
102
RTVSPost2010Prop44ColorIndex
 90
        5
102
RTVSPost2010Prop44ColorRGB
 90
      255
102
RTVSPost2010PropOp44
 70
     1
102
RTVSPost2010Prop45
280
     0
102
RTVSPost2010PropOp45
 70
     1
102
RTVSPost2010Prop46
 90
       50
102
RTVSPost2010PropOp46
 70
     1
102
RTVSPost2010Prop47
 90
       50
102
RTVSPost2010PropOp47
 70
     1
102
RTVSPost2010Prop48
 90
       50
102
RTVSPost2010PropOp48
 70
     1
102
RTVSPost2010Prop49
280
     0
102
RTVSPost2010PropOp49
 70
     1
102
RTVSPost2010Prop50
 90
       50
102
RTVSPost2010PropOp50
 70
     1
102
RTVSPost2010Prop51ColorIndex
 90
      256
102
RTVSPost2010Prop51ColorRGB
 90
-16777216
102
RTVSPost2010PropOp51
 70
     0
102
RTVSPost2010Prop52
140
1.0
102
RTVSPost2010PropOp52
 70
     0
102
RTVSPost2010Prop53
 90
        2
102
RTVSPost2010PropOp53
 70
     1
102
RTVSPost2010Prop54
  1
strokes_ogs.tif
102
RTVSPost2010PropOp54
 70
     1
102
RTVSPost2010Prop55
280
     0
102
RTVSPost2010PropOp55
 70
     1
102
RTVSPost2010Prop56
140
1.0
102
RTVSPost2010PropOp56
 70
     1
102
RTVSPost2010Prop57
140
1.0
102
RTVSPost2010PropOp57
 70
     1
102
RTVSPropertyOp0
 70
     1
102
RTVSPropertyOp1
 70
     1
102
RTVSPropertyOp2
 70
     1
102
RTVSPropertyOp3
 70
     1
102
RTVSPropertyOp4
 70
     1
102
RTVSPropertyOp5
 70
     1
102
RTVSPropertyOp6
 70
     1
102
RTVSPropertyOp7
 70
     1
102
RTVSPropertyOp8
 70
     1
102
RTVSPropertyOp9
 70
     1
102
RTVSPropertyOp10
 70
     1
102
RTVSPropertyOp11
 70
     1
102
RTVSPropertyOp12
 70
     1
102
RTVSPropertyOp13
 70
     1
102
RTVSPropertyOp14
 70
     1
102
RTVSPropertyOp15
 70
     1
102
RTVSPropertyOp16
 70
     1
102
RTVSPropertyOp17
 70
     1
102
RTVSPropertyOp18
 70
     1
102
RTVSPropertyOp19
 70
     1
102
RTVSPropertyOp20
 70
     1
102
RTVSPropertyOp21
 70
     1
102
RTVSPropertyOp22
 70
     1
102
RTVSPropertyOp23
 70
     1
102
RTVSPropertyOp24
 70
     1
102
RTVSPropertyOp25
 70
     1
102
RTVSPropertyOp26
 70
     1
102
RTVSPropertyOp27
 70
     1
102
RTVSPropertyOp28
 70
     1
102
RTVSPropertyOp29
 70
     1
102
RTVSPropertyOp30
 70
     1
102
RTVSPropertyOp31
 70
     1
102
RTVSPropertyOp32
 70
     1
102
RTVSPropertyOp33
 70
     1
102
RTVSPropertyOp34
 70
     1
102
RTVSPropertyOp35
 70
     1
102
RTVSPropertyOp36
 70
     1
102
RTVSPropertyOp37
 70
     1
102
RTVSPropertyOp38
 70
     1
102
RTVSPropertyOp39
 70
     1
102
RTVSPropertyOp40
 70
     1
102
RTVSPropertyOp41
 70
     1
102
RTVSPropertyOp42
 70
     1
102
RTVSPropertyOp43
 70
     1
102
RTVSPropertyOp44
 70
     1
102
RTVSPropertyOp45
 70
     1
102
RTVSPropertyOp46
 70
     1
102
RTVSPropertyOp47
 70
     1
102
RTVSPropertyOp48
 70
     1
102
RTVSPropertyOp49
 70
     1
102
RTVSPropertyOp50
 70
     1
102
RTVSPropertyOp51
 70
     0
102
RTVSPropertyOp52
 70
     0
102
RTVSPropertyOp53
 70
     1
102
RTVSPropertyOp54
 70
     1
102
RTVSPropertyOp55
 70
     1
102
RTVSPropertyOp56
 70
     1
102
RTVSPropertyOp57
 70
     1
102
RTVSPropertyOp58
 70
     1
102
RTVSPropertyOp59
 70
     1
102
RTVSPropertyOp60
 70
     1
102
RTVSPropertyOp61
 70
     1
102
RTVSPropertyOp62
 70
     1
  0
XRECORD
  5
CEA7
102
{ACAD_REACTORS
330
CEA6
102
}
330
CEA6
100
AcDbXrecord
280
     1
102
RTVSPost2010Prop28
280
     0
102
RTVSPost2010PropOp28
 70
     1
102
RTVSPost2010Prop29
280
     1
102
RTVSPost2010PropOp29
 70
     1
102
RTVSPost2010Prop30
280
     1
102
RTVSPost2010PropOp30
 70
     1
102
RTVSPost2010Prop31
280
     0
102
RTVSPost2010PropOp31
 70
     1
102
RTVSPost2010Prop32
280
     0
102
RTVSPost2010PropOp32
 70
     1
102
RTVSPost2010Prop33
280
     0
102
RTVSPost2010PropOp33
 70
     1
102
RTVSPost2010Prop34
280
     0
102
RTVSPost2010PropOp34
 70
     1
102
RTVSPost2010Prop35
280
     0
102
RTVSPost2010PropOp35
 70
     1
102
RTVSPost2010Prop36
280
     0
102
RTVSPost2010PropOp36
 70
     1
102
RTVSPost2010Prop37
 90
       50
102
RTVSPost2010PropOp37
 70
     1
102
RTVSPost2010Prop38
140
0.0
102
RTVSPost2010PropOp38
 70
     1
102
RTVSPost2010Prop39
140
1.0
102
RTVSPost2010PropOp39
 70
     1
102
RTVSPost2010Prop40
 90
        0
102
RTVSPost2010PropOp40
 70
     1
102
RTVSPost2010Prop41ColorIndex
 90
       18
102
RTVSPost2010Prop41ColorRGB
 90
        0
102
RTVSPost2010PropOp41
 70
     1
102
RTVSPost2010Prop42
 90
       50
102
RTVSPost2010PropOp42
 70
     1
102
RTVSPost2010Prop43
 90
        3
102
RTVSPost2010PropOp43
 70
     1
102
RTVSPost2010Prop44ColorIndex
 90
        5
102
RTVSPost2010Prop44ColorRGB
 90
      255
102
RTVSPost2010PropOp44
 70
     1
102
RTVSPost2010Prop45
280
     0
102
RTVSPost2010PropOp45
 70
     1
102
RTVSPost2010Prop46
 90
       50
102
RTVSPost2010PropOp46
 70
     1
102
RTVSPost2010Prop47
 90
       50
102
RTVSPost2010PropOp47
 70
     1
102
RTVSPost2010Prop48
 90
       50
102
RTVSPost2010PropOp48
 70
     1
102
RTVSPost2010Prop49
280
     0
102
RTVSPost2010PropOp49
 70
     1
102
RTVSPost2010Prop50
 90
       50
102
RTVSPost2010PropOp50
 70
     1
102
RTVSPost2010Prop51ColorIndex
 90
      256
102
RTVSPost2010Prop51ColorRGB
 90
-16777216
102
RTVSPost2010PropOp51
 70
     0
102
RTVSPost2010Prop52
140
1.0
102
RTVSPost2010PropOp52
 70
     0
102
RTVSPost2010Prop53
 90
        2
102
RTVSPost2010PropOp53
 70
     1
102
RTVSPost2010Prop54
  1
strokes_ogs.tif
102
RTVSPost2010PropOp54
 70
     1
102
RTVSPost2010Prop55
280
     0
102
RTVSPost2010PropOp55
 70
     1
102
RTVSPost2010Prop56
140
1.0
102
RTVSPost2010PropOp56
 70
     1
102
RTVSPost2010Prop57
140
1.0
102
RTVSPost2010PropOp57
 70
     1
102
RTVSPropertyOp0
 70
     1
102
RTVSPropertyOp1
 70
     1
102
RTVSPropertyOp2
 70
     1
102
RTVSPropertyOp3
 70
     1
102
RTVSPropertyOp4
 70
     1
102
RTVSPropertyOp5
 70
     1
102
RTVSPropertyOp6
 70
     1
102
RTVSPropertyOp7
 70
     1
102
RTVSPropertyOp8
 70
     1
102
RTVSPropertyOp9
 70
     1
102
RTVSPropertyOp10
 70
     1
102
RTVSPropertyOp11
 70
     1
102
RTVSPropertyOp12
 70
     1
102
RTVSPropertyOp13
 70
     1
102
RTVSPropertyOp14
 70
     1
102
RTVSPropertyOp15
 70
     1
102
RTVSPropertyOp16
 70
     1
102
RTVSPropertyOp17
 70
     1
102
RTVSPropertyOp18
 70
     1
102
RTVSPropertyOp19
 70
     1
102
RTVSPropertyOp20
 70
     1
102
RTVSPropertyOp21
 70
     1
102
RTVSPropertyOp22
 70
     1
102
RTVSPropertyOp23
 70
     1
102
RTVSPropertyOp24
 70
     1
102
RTVSPropertyOp25
 70
     1
102
RTVSPropertyOp26
 70
     1
102
RTVSPropertyOp27
 70
     1
102
RTVSPropertyOp28
 70
     1
102
RTVSPropertyOp29
 70
     1
102
RTVSPropertyOp30
 70
     1
102
RTVSPropertyOp31
 70
     1
102
RTVSPropertyOp32
 70
     1
102
RTVSPropertyOp33
 70
     1
102
RTVSPropertyOp34
 70
     1
102
RTVSPropertyOp35
 70
     1
102
RTVSPropertyOp36
 70
     1
102
RTVSPropertyOp37
 70
     1
102
RTVSPropertyOp38
 70
     1
102
RTVSPropertyOp39
 70
     1
102
RTVSPropertyOp40
 70
     1
102
RTVSPropertyOp41
 70
     1
102
RTVSPropertyOp42
 70
     1
102
RTVSPropertyOp43
 70
     1
102
RTVSPropertyOp44
 70
     1
102
RTVSPropertyOp45
 70
     1
102
RTVSPropertyOp46
 70
     1
102
RTVSPropertyOp47
 70
     1
102
RTVSPropertyOp48
 70
     1
102
RTVSPropertyOp49
 70
     1
102
RTVSPropertyOp50
 70
     1
102
RTVSPropertyOp51
 70
     0
102
RTVSPropertyOp52
 70
     0
102
RTVSPropertyOp53
 70
     1
102
RTVSPropertyOp54
 70
     1
102
RTVSPropertyOp55
 70
     1
102
RTVSPropertyOp56
 70
     1
102
RTVSPropertyOp57
 70
     1
102
RTVSPropertyOp58
 70
     1
102
RTVSPropertyOp59
 70
     1
102
RTVSPropertyOp60
 70
     1
102
RTVSPropertyOp61
 70
     1
102
RTVSPropertyOp62
 70
     1
  0
XRECORD
  5
CEA5
102
{ACAD_REACTORS
330
CEA4
102
}
330
CEA4
100
AcDbXrecord
280
     1
102
RTVSPost2010Prop28
280
     0
102
RTVSPost2010PropOp28
 70
     1
102
RTVSPost2010Prop29
280
     1
102
RTVSPost2010PropOp29
 70
     1
102
RTVSPost2010Prop30
280
     1
102
RTVSPost2010PropOp30
 70
     1
102
RTVSPost2010Prop31
280
     0
102
RTVSPost2010PropOp31
 70
     1
102
RTVSPost2010Prop32
280
     0
102
RTVSPost2010PropOp32
 70
     1
102
RTVSPost2010Prop33
280
     0
102
RTVSPost2010PropOp33
 70
     1
102
RTVSPost2010Prop34
280
     0
102
RTVSPost2010PropOp34
 70
     1
102
RTVSPost2010Prop35
280
     0
102
RTVSPost2010PropOp35
 70
     1
102
RTVSPost2010Prop36
280
     0
102
RTVSPost2010PropOp36
 70
     1
102
RTVSPost2010Prop37
 90
       50
102
RTVSPost2010PropOp37
 70
     1
102
RTVSPost2010Prop38
140
0.0
102
RTVSPost2010PropOp38
 70
     1
102
RTVSPost2010Prop39
140
1.0
102
RTVSPost2010PropOp39
 70
     1
102
RTVSPost2010Prop40
 90
        0
102
RTVSPost2010PropOp40
 70
     1
102
RTVSPost2010Prop41ColorIndex
 90
       18
102
RTVSPost2010Prop41ColorRGB
 90
        0
102
RTVSPost2010PropOp41
 70
     1
102
RTVSPost2010Prop42
 90
       50
102
RTVSPost2010PropOp42
 70
     1
102
RTVSPost2010Prop43
 90
        3
102
RTVSPost2010PropOp43
 70
     1
102
RTVSPost2010Prop44ColorIndex
 90
        5
102
RTVSPost2010Prop44ColorRGB
 90
      255
102
RTVSPost2010PropOp44
 70
     1
102
RTVSPost2010Prop45
280
     0
102
RTVSPost2010PropOp45
 70
     1
102
RTVSPost2010Prop46
 90
       50
102
RTVSPost2010PropOp46
 70
     1
102
RTVSPost2010Prop47
 90
       50
102
RTVSPost2010PropOp47
 70
     1
102
RTVSPost2010Prop48
 90
       50
102
RTVSPost2010PropOp48
 70
     1
102
RTVSPost2010Prop49
280
     0
102
RTVSPost2010PropOp49
 70
     1
102
RTVSPost2010Prop50
 90
       50
102
RTVSPost2010PropOp50
 70
     1
102
RTVSPost2010Prop51ColorIndex
 90
      256
102
RTVSPost2010Prop51ColorRGB
 90
-16777216
102
RTVSPost2010PropOp51
 70
     0
102
RTVSPost2010Prop52
140
1.0
102
RTVSPost2010PropOp52
 70
     0
102
RTVSPost2010Prop53
 90
        2
102
RTVSPost2010PropOp53
 70
     1
102
RTVSPost2010Prop54
  1
strokes_ogs.tif
102
RTVSPost2010PropOp54
 70
     1
102
RTVSPost2010Prop55
280
     0
102
RTVSPost2010PropOp55
 70
     1
102
RTVSPost2010Prop56
140
1.0
102
RTVSPost2010PropOp56
 70
     1
102
RTVSPost2010Prop57
140
1.0
102
RTVSPost2010PropOp57
 70
     1
102
RTVSPropertyOp0
 70
     1
102
RTVSPropertyOp1
 70
     1
102
RTVSPropertyOp2
 70
     1
102
RTVSPropertyOp3
 70
     1
102
RTVSPropertyOp4
 70
     1
102
RTVSPropertyOp5
 70
     1
102
RTVSPropertyOp6
 70
     1
102
RTVSPropertyOp7
 70
     1
102
RTVSPropertyOp8
 70
     1
102
RTVSPropertyOp9
 70
     1
102
RTVSPropertyOp10
 70
     1
102
RTVSPropertyOp11
 70
     1
102
RTVSPropertyOp12
 70
     1
102
RTVSPropertyOp13
 70
     1
102
RTVSPropertyOp14
 70
     1
102
RTVSPropertyOp15
 70
     1
102
RTVSPropertyOp16
 70
     1
102
RTVSPropertyOp17
 70
     1
102
RTVSPropertyOp18
 70
     1
102
RTVSPropertyOp19
 70
     1
102
RTVSPropertyOp20
 70
     1
102
RTVSPropertyOp21
 70
     1
102
RTVSPropertyOp22
 70
     1
102
RTVSPropertyOp23
 70
     1
102
RTVSPropertyOp24
 70
     1
102
RTVSPropertyOp25
 70
     1
102
RTVSPropertyOp26
 70
     1
102
RTVSPropertyOp27
 70
     1
102
RTVSPropertyOp28
 70
     1
102
RTVSPropertyOp29
 70
     1
102
RTVSPropertyOp30
 70
     1
102
RTVSPropertyOp31
 70
     1
102
RTVSPropertyOp32
 70
     1
102
RTVSPropertyOp33
 70
     1
102
RTVSPropertyOp34
 70
     1
102
RTVSPropertyOp35
 70
     1
102
RTVSPropertyOp36
 70
     1
102
RTVSPropertyOp37
 70
     1
102
RTVSPropertyOp38
 70
     1
102
RTVSPropertyOp39
 70
     1
102
RTVSPropertyOp40
 70
     1
102
RTVSPropertyOp41
 70
     1
102
RTVSPropertyOp42
 70
     1
102
RTVSPropertyOp43
 70
     1
102
RTVSPropertyOp44
 70
     1
102
RTVSPropertyOp45
 70
     1
102
RTVSPropertyOp46
 70
     1
102
RTVSPropertyOp47
 70
     1
102
RTVSPropertyOp48
 70
     1
102
RTVSPropertyOp49
 70
     1
102
RTVSPropertyOp50
 70
     1
102
RTVSPropertyOp51
 70
     0
102
RTVSPropertyOp52
 70
     0
102
RTVSPropertyOp53
 70
     1
102
RTVSPropertyOp54
 70
     1
102
RTVSPropertyOp55
 70
     1
102
RTVSPropertyOp56
 70
     1
102
RTVSPropertyOp57
 70
     1
102
RTVSPropertyOp58
 70
     1
102
RTVSPropertyOp59
 70
     1
102
RTVSPropertyOp60
 70
     1
102
RTVSPropertyOp61
 70
     1
102
RTVSPropertyOp62
 70
     1
  0
XRECORD
  5
CE9F
102
{ACAD_REACTORS
330
CE9E
102
}
330
CE9E
100
AcDbXrecord
280
     1
102
RTVSPost2010Prop28
280
     0
102
RTVSPost2010PropOp28
 70
     1
102
RTVSPost2010Prop29
280
     1
102
RTVSPost2010PropOp29
 70
     1
102
RTVSPost2010Prop30
280
     1
102
RTVSPost2010PropOp30
 70
     1
102
RTVSPost2010Prop31
280
     0
102
RTVSPost2010PropOp31
 70
     1
102
RTVSPost2010Prop32
280
     0
102
RTVSPost2010PropOp32
 70
     1
102
RTVSPost2010Prop33
280
     0
102
RTVSPost2010PropOp33
 70
     1
102
RTVSPost2010Prop34
280
     0
102
RTVSPost2010PropOp34
 70
     1
102
RTVSPost2010Prop35
280
     0
102
RTVSPost2010PropOp35
 70
     1
102
RTVSPost2010Prop36
280
     0
102
RTVSPost2010PropOp36
 70
     1
102
RTVSPost2010Prop37
 90
       50
102
RTVSPost2010PropOp37
 70
     1
102
RTVSPost2010Prop38
140
0.0
102
RTVSPost2010PropOp38
 70
     1
102
RTVSPost2010Prop39
140
1.0
102
RTVSPost2010PropOp39
 70
     1
102
RTVSPost2010Prop40
 90
        0
102
RTVSPost2010PropOp40
 70
     1
102
RTVSPost2010Prop41ColorIndex
 90
       18
102
RTVSPost2010Prop41ColorRGB
 90
        0
102
RTVSPost2010PropOp41
 70
     1
102
RTVSPost2010Prop42
 90
       50
102
RTVSPost2010PropOp42
 70
     1
102
RTVSPost2010Prop43
 90
        3
102
RTVSPost2010PropOp43
 70
     1
102
RTVSPost2010Prop44ColorIndex
 90
        5
102
RTVSPost2010Prop44ColorRGB
 90
      255
102
RTVSPost2010PropOp44
 70
     1
102
RTVSPost2010Prop45
280
     0
102
RTVSPost2010PropOp45
 70
     1
102
RTVSPost2010Prop46
 90
       50
102
RTVSPost2010PropOp46
 70
     1
102
RTVSPost2010Prop47
 90
       50
102
RTVSPost2010PropOp47
 70
     1
102
RTVSPost2010Prop48
 90
       50
102
RTVSPost2010PropOp48
 70
     1
102
RTVSPost2010Prop49
280
     0
102
RTVSPost2010PropOp49
 70
     1
102
RTVSPost2010Prop50
 90
       50
102
RTVSPost2010PropOp50
 70
     1
102
RTVSPost2010Prop51ColorIndex
 90
      256
102
RTVSPost2010Prop51ColorRGB
 90
-16777216
102
RTVSPost2010PropOp51
 70
     0
102
RTVSPost2010Prop52
140
1.0
102
RTVSPost2010PropOp52
 70
     0
102
RTVSPost2010Prop53
 90
        2
102
RTVSPost2010PropOp53
 70
     1
102
RTVSPost2010Prop54
  1
strokes_ogs.tif
102
RTVSPost2010PropOp54
 70
     1
102
RTVSPost2010Prop55
280
     0
102
RTVSPost2010PropOp55
 70
     1
102
RTVSPost2010Prop56
140
1.0
102
RTVSPost2010PropOp56
 70
     1
102
RTVSPost2010Prop57
140
1.0
102
RTVSPost2010PropOp57
 70
     1
102
RTVSPropertyOp0
 70
     1
102
RTVSPropertyOp1
 70
     1
102
RTVSPropertyOp2
 70
     1
102
RTVSPropertyOp3
 70
     1
102
RTVSPropertyOp4
 70
     1
102
RTVSPropertyOp5
 70
     1
102
RTVSPropertyOp6
 70
     1
102
RTVSPropertyOp7
 70
     1
102
RTVSPropertyOp8
 70
     1
102
RTVSPropertyOp9
 70
     1
102
RTVSPropertyOp10
 70
     1
102
RTVSPropertyOp11
 70
     1
102
RTVSPropertyOp12
 70
     1
102
RTVSPropertyOp13
 70
     1
102
RTVSPropertyOp14
 70
     1
102
RTVSPropertyOp15
 70
     1
102
RTVSPropertyOp16
 70
     1
102
RTVSPropertyOp17
 70
     1
102
RTVSPropertyOp18
 70
     1
102
RTVSPropertyOp19
 70
     1
102
RTVSPropertyOp20
 70
     1
102
RTVSPropertyOp21
 70
     1
102
RTVSPropertyOp22
 70
     1
102
RTVSPropertyOp23
 70
     1
102
RTVSPropertyOp24
 70
     1
102
RTVSPropertyOp25
 70
     1
102
RTVSPropertyOp26
 70
     1
102
RTVSPropertyOp27
 70
     1
102
RTVSPropertyOp28
 70
     1
102
RTVSPropertyOp29
 70
     1
102
RTVSPropertyOp30
 70
     1
102
RTVSPropertyOp31
 70
     1
102
RTVSPropertyOp32
 70
     1
102
RTVSPropertyOp33
 70
     1
102
RTVSPropertyOp34
 70
     1
102
RTVSPropertyOp35
 70
     1
102
RTVSPropertyOp36
 70
     1
102
RTVSPropertyOp37
 70
     1
102
RTVSPropertyOp38
 70
     1
102
RTVSPropertyOp39
 70
     1
102
RTVSPropertyOp40
 70
     1
102
RTVSPropertyOp41
 70
     1
102
RTVSPropertyOp42
 70
     1
102
RTVSPropertyOp43
 70
     1
102
RTVSPropertyOp44
 70
     1
102
RTVSPropertyOp45
 70
     1
102
RTVSPropertyOp46
 70
     1
102
RTVSPropertyOp47
 70
     1
102
RTVSPropertyOp48
 70
     1
102
RTVSPropertyOp49
 70
     1
102
RTVSPropertyOp50
 70
     1
102
RTVSPropertyOp51
 70
     0
102
RTVSPropertyOp52
 70
     0
102
RTVSPropertyOp53
 70
     1
102
RTVSPropertyOp54
 70
     1
102
RTVSPropertyOp55
 70
     1
102
RTVSPropertyOp56
 70
     1
102
RTVSPropertyOp57
 70
     1
102
RTVSPropertyOp58
 70
     1
102
RTVSPropertyOp59
 70
     1
102
RTVSPropertyOp60
 70
     1
102
RTVSPropertyOp61
 70
     1
102
RTVSPropertyOp62
 70
     1
  0
XRECORD
  5
CEA1
102
{ACAD_REACTORS
330
CEA0
102
}
330
CEA0
100
AcDbXrecord
280
     1
102
RTVSPost2010Prop28
280
     0
102
RTVSPost2010PropOp28
 70
     1
102
RTVSPost2010Prop29
280
     1
102
RTVSPost2010PropOp29
 70
     1
102
RTVSPost2010Prop30
280
     1
102
RTVSPost2010PropOp30
 70
     1
102
RTVSPost2010Prop31
280
     0
102
RTVSPost2010PropOp31
 70
     1
102
RTVSPost2010Prop32
280
     0
102
RTVSPost2010PropOp32
 70
     1
102
RTVSPost2010Prop33
280
     0
102
RTVSPost2010PropOp33
 70
     1
102
RTVSPost2010Prop34
280
     0
102
RTVSPost2010PropOp34
 70
     1
102
RTVSPost2010Prop35
280
     0
102
RTVSPost2010PropOp35
 70
     1
102
RTVSPost2010Prop36
280
     0
102
RTVSPost2010PropOp36
 70
     1
102
RTVSPost2010Prop37
 90
       50
102
RTVSPost2010PropOp37
 70
     1
102
RTVSPost2010Prop38
140
0.0
102
RTVSPost2010PropOp38
 70
     1
102
RTVSPost2010Prop39
140
1.0
102
RTVSPost2010PropOp39
 70
     1
102
RTVSPost2010Prop40
 90
        0
102
RTVSPost2010PropOp40
 70
     1
102
RTVSPost2010Prop41ColorIndex
 90
       18
102
RTVSPost2010Prop41ColorRGB
 90
        0
102
RTVSPost2010PropOp41
 70
     1
102
RTVSPost2010Prop42
 90
       50
102
RTVSPost2010PropOp42
 70
     1
102
RTVSPost2010Prop43
 90
        3
102
RTVSPost2010PropOp43
 70
     1
102
RTVSPost2010Prop44ColorIndex
 90
        5
102
RTVSPost2010Prop44ColorRGB
 90
      255
102
RTVSPost2010PropOp44
 70
     1
102
RTVSPost2010Prop45
280
     0
102
RTVSPost2010PropOp45
 70
     1
102
RTVSPost2010Prop46
 90
       50
102
RTVSPost2010PropOp46
 70
     1
102
RTVSPost2010Prop47
 90
       50
102
RTVSPost2010PropOp47
 70
     1
102
RTVSPost2010Prop48
 90
       50
102
RTVSPost2010PropOp48
 70
     1
102
RTVSPost2010Prop49
280
     0
102
RTVSPost2010PropOp49
 70
     1
102
RTVSPost2010Prop50
 90
       50
102
RTVSPost2010PropOp50
 70
     1
102
RTVSPost2010Prop51ColorIndex
 90
      256
102
RTVSPost2010Prop51ColorRGB
 90
-16777216
102
RTVSPost2010PropOp51
 70
     0
102
RTVSPost2010Prop52
140
1.0
102
RTVSPost2010PropOp52
 70
     0
102
RTVSPost2010Prop53
 90
        2
102
RTVSPost2010PropOp53
 70
     1
102
RTVSPost2010Prop54
  1
strokes_ogs.tif
102
RTVSPost2010PropOp54
 70
     1
102
RTVSPost2010Prop55
280
     0
102
RTVSPost2010PropOp55
 70
     1
102
RTVSPost2010Prop56
140
1.0
102
RTVSPost2010PropOp56
 70
     1
102
RTVSPost2010Prop57
140
1.0
102
RTVSPost2010PropOp57
 70
     1
102
RTVSPropertyOp0
 70
     1
102
RTVSPropertyOp1
 70
     1
102
RTVSPropertyOp2
 70
     1
102
RTVSPropertyOp3
 70
     1
102
RTVSPropertyOp4
 70
     1
102
RTVSPropertyOp5
 70
     1
102
RTVSPropertyOp6
 70
     1
102
RTVSPropertyOp7
 70
     1
102
RTVSPropertyOp8
 70
     1
102
RTVSPropertyOp9
 70
     1
102
RTVSPropertyOp10
 70
     1
102
RTVSPropertyOp11
 70
     1
102
RTVSPropertyOp12
 70
     1
102
RTVSPropertyOp13
 70
     1
102
RTVSPropertyOp14
 70
     1
102
RTVSPropertyOp15
 70
     1
102
RTVSPropertyOp16
 70
     1
102
RTVSPropertyOp17
 70
     1
102
RTVSPropertyOp18
 70
     1
102
RTVSPropertyOp19
 70
     1
102
RTVSPropertyOp20
 70
     1
102
RTVSPropertyOp21
 70
     1
102
RTVSPropertyOp22
 70
     1
102
RTVSPropertyOp23
 70
     1
102
RTVSPropertyOp24
 70
     1
102
RTVSPropertyOp25
 70
     1
102
RTVSPropertyOp26
 70
     1
102
RTVSPropertyOp27
 70
     1
102
RTVSPropertyOp28
 70
     1
102
RTVSPropertyOp29
 70
     1
102
RTVSPropertyOp30
 70
     1
102
RTVSPropertyOp31
 70
     1
102
RTVSPropertyOp32
 70
     1
102
RTVSPropertyOp33
 70
     1
102
RTVSPropertyOp34
 70
     1
102
RTVSPropertyOp35
 70
     1
102
RTVSPropertyOp36
 70
     1
102
RTVSPropertyOp37
 70
     1
102
RTVSPropertyOp38
 70
     1
102
RTVSPropertyOp39
 70
     1
102
RTVSPropertyOp40
 70
     1
102
RTVSPropertyOp41
 70
     1
102
RTVSPropertyOp42
 70
     1
102
RTVSPropertyOp43
 70
     1
102
RTVSPropertyOp44
 70
     1
102
RTVSPropertyOp45
 70
     1
102
RTVSPropertyOp46
 70
     1
102
RTVSPropertyOp47
 70
     1
102
RTVSPropertyOp48
 70
     1
102
RTVSPropertyOp49
 70
     1
102
RTVSPropertyOp50
 70
     1
102
RTVSPropertyOp51
 70
     0
102
RTVSPropertyOp52
 70
     0
102
RTVSPropertyOp53
 70
     1
102
RTVSPropertyOp54
 70
     1
102
RTVSPropertyOp55
 70
     1
102
RTVSPropertyOp56
 70
     1
102
RTVSPropertyOp57
 70
     1
102
RTVSPropertyOp58
 70
     1
102
RTVSPropertyOp59
 70
     1
102
RTVSPropertyOp60
 70
     1
102
RTVSPropertyOp61
 70
     1
102
RTVSPropertyOp62
 70
     1
  0
XRECORD
  5
CE97
102
{ACAD_REACTORS
330
CE96
102
}
330
CE96
100
AcDbXrecord
280
     1
102
RTVSPost2010Prop28
280
     0
102
RTVSPost2010PropOp28
 70
     1
102
RTVSPost2010Prop29
280
     1
102
RTVSPost2010PropOp29
 70
     1
102
RTVSPost2010Prop30
280
     1
102
RTVSPost2010PropOp30
 70
     1
102
RTVSPost2010Prop31
280
     0
102
RTVSPost2010PropOp31
 70
     1
102
RTVSPost2010Prop32
280
     0
102
RTVSPost2010PropOp32
 70
     1
102
RTVSPost2010Prop33
280
     0
102
RTVSPost2010PropOp33
 70
     1
102
RTVSPost2010Prop34
280
     0
102
RTVSPost2010PropOp34
 70
     1
102
RTVSPost2010Prop35
280
     0
102
RTVSPost2010PropOp35
 70
     1
102
RTVSPost2010Prop36
280
     0
102
RTVSPost2010PropOp36
 70
     1
102
RTVSPost2010Prop37
 90
       50
102
RTVSPost2010PropOp37
 70
     1
102
RTVSPost2010Prop38
140
0.0
102
RTVSPost2010PropOp38
 70
     1
102
RTVSPost2010Prop39
140
1.0
102
RTVSPost2010PropOp39
 70
     1
102
RTVSPost2010Prop40
 90
        0
102
RTVSPost2010PropOp40
 70
     1
102
RTVSPost2010Prop41ColorIndex
 90
       18
102
RTVSPost2010Prop41ColorRGB
 90
        0
102
RTVSPost2010PropOp41
 70
     1
102
RTVSPost2010Prop42
 90
       50
102
RTVSPost2010PropOp42
 70
     1
102
RTVSPost2010Prop43
 90
        3
102
RTVSPost2010PropOp43
 70
     1
102
RTVSPost2010Prop44ColorIndex
 90
        5
102
RTVSPost2010Prop44ColorRGB
 90
      255
102
RTVSPost2010PropOp44
 70
     1
102
RTVSPost2010Prop45
280
     0
102
RTVSPost2010PropOp45
 70
     1
102
RTVSPost2010Prop46
 90
       50
102
RTVSPost2010PropOp46
 70
     1
102
RTVSPost2010Prop47
 90
       50
102
RTVSPost2010PropOp47
 70
     1
102
RTVSPost2010Prop48
 90
       50
102
RTVSPost2010PropOp48
 70
     1
102
RTVSPost2010Prop49
280
     0
102
RTVSPost2010PropOp49
 70
     1
102
RTVSPost2010Prop50
 90
       50
102
RTVSPost2010PropOp50
 70
     1
102
RTVSPost2010Prop51ColorIndex
 90
      256
102
RTVSPost2010Prop51ColorRGB
 90
-16777216
102
RTVSPost2010PropOp51
 70
     0
102
RTVSPost2010Prop52
140
1.0
102
RTVSPost2010PropOp52
 70
     0
102
RTVSPost2010Prop53
 90
        2
102
RTVSPost2010PropOp53
 70
     1
102
RTVSPost2010Prop54
  1
strokes_ogs.tif
102
RTVSPost2010PropOp54
 70
     1
102
RTVSPost2010Prop55
280
     0
102
RTVSPost2010PropOp55
 70
     1
102
RTVSPost2010Prop56
140
1.0
102
RTVSPost2010PropOp56
 70
     1
102
RTVSPost2010Prop57
140
1.0
102
RTVSPost2010PropOp57
 70
     1
102
RTVSPropertyOp0
 70
     1
102
RTVSPropertyOp1
 70
     1
102
RTVSPropertyOp2
 70
     1
102
RTVSPropertyOp3
 70
     1
102
RTVSPropertyOp4
 70
     1
102
RTVSPropertyOp5
 70
     1
102
RTVSPropertyOp6
 70
     1
102
RTVSPropertyOp7
 70
     1
102
RTVSPropertyOp8
 70
     1
102
RTVSPropertyOp9
 70
     1
102
RTVSPropertyOp10
 70
     1
102
RTVSPropertyOp11
 70
     1
102
RTVSPropertyOp12
 70
     1
102
RTVSPropertyOp13
 70
     1
102
RTVSPropertyOp14
 70
     1
102
RTVSPropertyOp15
 70
     1
102
RTVSPropertyOp16
 70
     1
102
RTVSPropertyOp17
 70
     1
102
RTVSPropertyOp18
 70
     1
102
RTVSPropertyOp19
 70
     1
102
RTVSPropertyOp20
 70
     1
102
RTVSPropertyOp21
 70
     1
102
RTVSPropertyOp22
 70
     1
102
RTVSPropertyOp23
 70
     1
102
RTVSPropertyOp24
 70
     1
102
RTVSPropertyOp25
 70
     1
102
RTVSPropertyOp26
 70
     1
102
RTVSPropertyOp27
 70
     1
102
RTVSPropertyOp28
 70
     1
102
RTVSPropertyOp29
 70
     1
102
RTVSPropertyOp30
 70
     1
102
RTVSPropertyOp31
 70
     1
102
RTVSPropertyOp32
 70
     1
102
RTVSPropertyOp33
 70
     1
102
RTVSPropertyOp34
 70
     1
102
RTVSPropertyOp35
 70
     1
102
RTVSPropertyOp36
 70
     1
102
RTVSPropertyOp37
 70
     1
102
RTVSPropertyOp38
 70
     1
102
RTVSPropertyOp39
 70
     1
102
RTVSPropertyOp40
 70
     1
102
RTVSPropertyOp41
 70
     1
102
RTVSPropertyOp42
 70
     1
102
RTVSPropertyOp43
 70
     1
102
RTVSPropertyOp44
 70
     1
102
RTVSPropertyOp45
 70
     1
102
RTVSPropertyOp46
 70
     1
102
RTVSPropertyOp47
 70
     1
102
RTVSPropertyOp48
 70
     1
102
RTVSPropertyOp49
 70
     1
102
RTVSPropertyOp50
 70
     1
102
RTVSPropertyOp51
 70
     0
102
RTVSPropertyOp52
 70
     0
102
RTVSPropertyOp53
 70
     1
102
RTVSPropertyOp54
 70
     1
102
RTVSPropertyOp55
 70
     1
102
RTVSPropertyOp56
 70
     1
102
RTVSPropertyOp57
 70
     1
102
RTVSPropertyOp58
 70
     1
102
RTVSPropertyOp59
 70
     1
102
RTVSPropertyOp60
 70
     1
102
RTVSPropertyOp61
 70
     1
102
RTVSPropertyOp62
 70
     1
  0
XRECORD
  5
CE8B
102
{ACAD_REACTORS
330
CE8A
102
}
330
CE8A
100
AcDbXrecord
280
     1
102
RTVSPost2010Prop28
280
     0
102
RTVSPost2010PropOp28
 70
     1
102
RTVSPost2010Prop29
280
     1
102
RTVSPost2010PropOp29
 70
     1
102
RTVSPost2010Prop30
280
     1
102
RTVSPost2010PropOp30
 70
     1
102
RTVSPost2010Prop31
280
     0
102
RTVSPost2010PropOp31
 70
     1
102
RTVSPost2010Prop32
280
     0
102
RTVSPost2010PropOp32
 70
     1
102
RTVSPost2010Prop33
280
     0
102
RTVSPost2010PropOp33
 70
     1
102
RTVSPost2010Prop34
280
     0
102
RTVSPost2010PropOp34
 70
     1
102
RTVSPost2010Prop35
280
     0
102
RTVSPost2010PropOp35
 70
     1
102
RTVSPost2010Prop36
280
     0
102
RTVSPost2010PropOp36
 70
     1
102
RTVSPost2010Prop37
 90
       50
102
RTVSPost2010PropOp37
 70
     1
102
RTVSPost2010Prop38
140
0.0
102
RTVSPost2010PropOp38
 70
     1
102
RTVSPost2010Prop39
140
1.0
102
RTVSPost2010PropOp39
 70
     1
102
RTVSPost2010Prop40
 90
        0
102
RTVSPost2010PropOp40
 70
     1
102
RTVSPost2010Prop41ColorIndex
 90
       18
102
RTVSPost2010Prop41ColorRGB
 90
        0
102
RTVSPost2010PropOp41
 70
     1
102
RTVSPost2010Prop42
 90
       50
102
RTVSPost2010PropOp42
 70
     1
102
RTVSPost2010Prop43
 90
        3
102
RTVSPost2010PropOp43
 70
     1
102
RTVSPost2010Prop44ColorIndex
 90
        5
102
RTVSPost2010Prop44ColorRGB
 90
      255
102
RTVSPost2010PropOp44
 70
     1
102
RTVSPost2010Prop45
280
     0
102
RTVSPost2010PropOp45
 70
     1
102
RTVSPost2010Prop46
 90
       50
102
RTVSPost2010PropOp46
 70
     1
102
RTVSPost2010Prop47
 90
       50
102
RTVSPost2010PropOp47
 70
     1
102
RTVSPost2010Prop48
 90
       50
102
RTVSPost2010PropOp48
 70
     1
102
RTVSPost2010Prop49
280
     0
102
RTVSPost2010PropOp49
 70
     1
102
RTVSPost2010Prop50
 90
       50
102
RTVSPost2010PropOp50
 70
     1
102
RTVSPost2010Prop51ColorIndex
 90
      256
102
RTVSPost2010Prop51ColorRGB
 90
-16777216
102
RTVSPost2010PropOp51
 70
     0
102
RTVSPost2010Prop52
140
1.0
102
RTVSPost2010PropOp52
 70
     0
102
RTVSPost2010Prop53
 90
        2
102
RTVSPost2010PropOp53
 70
     1
102
RTVSPost2010Prop54
  1
strokes_ogs.tif
102
RTVSPost2010PropOp54
 70
     1
102
RTVSPost2010Prop55
280
     0
102
RTVSPost2010PropOp55
 70
     1
102
RTVSPost2010Prop56
140
1.0
102
RTVSPost2010PropOp56
 70
     1
102
RTVSPost2010Prop57
140
1.0
102
RTVSPost2010PropOp57
 70
     1
102
RTVSPropertyOp0
 70
     1
102
RTVSPropertyOp1
 70
     1
102
RTVSPropertyOp2
 70
     1
102
RTVSPropertyOp3
 70
     1
102
RTVSPropertyOp4
 70
     1
102
RTVSPropertyOp5
 70
     1
102
RTVSPropertyOp6
 70
     1
102
RTVSPropertyOp7
 70
     1
102
RTVSPropertyOp8
 70
     1
102
RTVSPropertyOp9
 70
     1
102
RTVSPropertyOp10
 70
     1
102
RTVSPropertyOp11
 70
     1
102
RTVSPropertyOp12
 70
     1
102
RTVSPropertyOp13
 70
     1
102
RTVSPropertyOp14
 70
     1
102
RTVSPropertyOp15
 70
     1
102
RTVSPropertyOp16
 70
     1
102
RTVSPropertyOp17
 70
     1
102
RTVSPropertyOp18
 70
     1
102
RTVSPropertyOp19
 70
     1
102
RTVSPropertyOp20
 70
     1
102
RTVSPropertyOp21
 70
     1
102
RTVSPropertyOp22
 70
     1
102
RTVSPropertyOp23
 70
     1
102
RTVSPropertyOp24
 70
     1
102
RTVSPropertyOp25
 70
     1
102
RTVSPropertyOp26
 70
     1
102
RTVSPropertyOp27
 70
     1
102
RTVSPropertyOp28
 70
     1
102
RTVSPropertyOp29
 70
     1
102
RTVSPropertyOp30
 70
     1
102
RTVSPropertyOp31
 70
     1
102
RTVSPropertyOp32
 70
     1
102
RTVSPropertyOp33
 70
     1
102
RTVSPropertyOp34
 70
     1
102
RTVSPropertyOp35
 70
     1
102
RTVSPropertyOp36
 70
     1
102
RTVSPropertyOp37
 70
     1
102
RTVSPropertyOp38
 70
     1
102
RTVSPropertyOp39
 70
     1
102
RTVSPropertyOp40
 70
     1
102
RTVSPropertyOp41
 70
     1
102
RTVSPropertyOp42
 70
     1
102
RTVSPropertyOp43
 70
     1
102
RTVSPropertyOp44
 70
     1
102
RTVSPropertyOp45
 70
     1
102
RTVSPropertyOp46
 70
     1
102
RTVSPropertyOp47
 70
     1
102
RTVSPropertyOp48
 70
     1
102
RTVSPropertyOp49
 70
     1
102
RTVSPropertyOp50
 70
     1
102
RTVSPropertyOp51
 70
     0
102
RTVSPropertyOp52
 70
     0
102
RTVSPropertyOp53
 70
     1
102
RTVSPropertyOp54
 70
     1
102
RTVSPropertyOp55
 70
     1
102
RTVSPropertyOp56
 70
     1
102
RTVSPropertyOp57
 70
     1
102
RTVSPropertyOp58
 70
     1
102
RTVSPropertyOp59
 70
     1
102
RTVSPropertyOp60
 70
     1
102
RTVSPropertyOp61
 70
     1
102
RTVSPropertyOp62
 70
     1
  0
XRECORD
  5
CEA3
102
{ACAD_REACTORS
330
CEA2
102
}
330
CEA2
100
AcDbXrecord
280
     1
102
RTVSPost2010Prop28
280
     0
102
RTVSPost2010PropOp28
 70
     1
102
RTVSPost2010Prop29
280
     1
102
RTVSPost2010PropOp29
 70
     1
102
RTVSPost2010Prop30
280
     1
102
RTVSPost2010PropOp30
 70
     1
102
RTVSPost2010Prop31
280
     0
102
RTVSPost2010PropOp31
 70
     1
102
RTVSPost2010Prop32
280
     0
102
RTVSPost2010PropOp32
 70
     1
102
RTVSPost2010Prop33
280
     0
102
RTVSPost2010PropOp33
 70
     1
102
RTVSPost2010Prop34
280
     0
102
RTVSPost2010PropOp34
 70
     1
102
RTVSPost2010Prop35
280
     0
102
RTVSPost2010PropOp35
 70
     1
102
RTVSPost2010Prop36
280
     0
102
RTVSPost2010PropOp36
 70
     1
102
RTVSPost2010Prop37
 90
       50
102
RTVSPost2010PropOp37
 70
     1
102
RTVSPost2010Prop38
140
0.0
102
RTVSPost2010PropOp38
 70
     1
102
RTVSPost2010Prop39
140
1.0
102
RTVSPost2010PropOp39
 70
     1
102
RTVSPost2010Prop40
 90
        0
102
RTVSPost2010PropOp40
 70
     1
102
RTVSPost2010Prop41ColorIndex
 90
       18
102
RTVSPost2010Prop41ColorRGB
 90
        0
102
RTVSPost2010PropOp41
 70
     1
102
RTVSPost2010Prop42
 90
       50
102
RTVSPost2010PropOp42
 70
     1
102
RTVSPost2010Prop43
 90
        3
102
RTVSPost2010PropOp43
 70
     1
102
RTVSPost2010Prop44ColorIndex
 90
        5
102
RTVSPost2010Prop44ColorRGB
 90
      255
102
RTVSPost2010PropOp44
 70
     1
102
RTVSPost2010Prop45
280
     0
102
RTVSPost2010PropOp45
 70
     1
102
RTVSPost2010Prop46
 90
       50
102
RTVSPost2010PropOp46
 70
     1
102
RTVSPost2010Prop47
 90
       50
102
RTVSPost2010PropOp47
 70
     1
102
RTVSPost2010Prop48
 90
       50
102
RTVSPost2010PropOp48
 70
     1
102
RTVSPost2010Prop49
280
     0
102
RTVSPost2010PropOp49
 70
     1
102
RTVSPost2010Prop50
 90
       50
102
RTVSPost2010PropOp50
 70
     1
102
RTVSPost2010Prop51ColorIndex
 90
      256
102
RTVSPost2010Prop51ColorRGB
 90
-16777216
102
RTVSPost2010PropOp51
 70
     0
102
RTVSPost2010Prop52
140
1.0
102
RTVSPost2010PropOp52
 70
     0
102
RTVSPost2010Prop53
 90
        2
102
RTVSPost2010PropOp53
 70
     1
102
RTVSPost2010Prop54
  1
strokes_ogs.tif
102
RTVSPost2010PropOp54
 70
     1
102
RTVSPost2010Prop55
280
     0
102
RTVSPost2010PropOp55
 70
     1
102
RTVSPost2010Prop56
140
1.0
102
RTVSPost2010PropOp56
 70
     1
102
RTVSPost2010Prop57
140
1.0
102
RTVSPost2010PropOp57
 70
     1
102
RTVSPropertyOp0
 70
     1
102
RTVSPropertyOp1
 70
     1
102
RTVSPropertyOp2
 70
     1
102
RTVSPropertyOp3
 70
     1
102
RTVSPropertyOp4
 70
     1
102
RTVSPropertyOp5
 70
     1
102
RTVSPropertyOp6
 70
     1
102
RTVSPropertyOp7
 70
     1
102
RTVSPropertyOp8
 70
     1
102
RTVSPropertyOp9
 70
     1
102
RTVSPropertyOp10
 70
     1
102
RTVSPropertyOp11
 70
     1
102
RTVSPropertyOp12
 70
     1
102
RTVSPropertyOp13
 70
     1
102
RTVSPropertyOp14
 70
     1
102
RTVSPropertyOp15
 70
     1
102
RTVSPropertyOp16
 70
     1
102
RTVSPropertyOp17
 70
     1
102
RTVSPropertyOp18
 70
     1
102
RTVSPropertyOp19
 70
     1
102
RTVSPropertyOp20
 70
     1
102
RTVSPropertyOp21
 70
     1
102
RTVSPropertyOp22
 70
     1
102
RTVSPropertyOp23
 70
     1
102
RTVSPropertyOp24
 70
     1
102
RTVSPropertyOp25
 70
     1
102
RTVSPropertyOp26
 70
     1
102
RTVSPropertyOp27
 70
     1
102
RTVSPropertyOp28
 70
     1
102
RTVSPropertyOp29
 70
     1
102
RTVSPropertyOp30
 70
     1
102
RTVSPropertyOp31
 70
     1
102
RTVSPropertyOp32
 70
     1
102
RTVSPropertyOp33
 70
     1
102
RTVSPropertyOp34
 70
     1
102
RTVSPropertyOp35
 70
     1
102
RTVSPropertyOp36
 70
     1
102
RTVSPropertyOp37
 70
     1
102
RTVSPropertyOp38
 70
     1
102
RTVSPropertyOp39
 70
     1
102
RTVSPropertyOp40
 70
     1
102
RTVSPropertyOp41
 70
     1
102
RTVSPropertyOp42
 70
     1
102
RTVSPropertyOp43
 70
     1
102
RTVSPropertyOp44
 70
     1
102
RTVSPropertyOp45
 70
     1
102
RTVSPropertyOp46
 70
     1
102
RTVSPropertyOp47
 70
     1
102
RTVSPropertyOp48
 70
     1
102
RTVSPropertyOp49
 70
     1
102
RTVSPropertyOp50
 70
     1
102
RTVSPropertyOp51
 70
     0
102
RTVSPropertyOp52
 70
     0
102
RTVSPropertyOp53
 70
     1
102
RTVSPropertyOp54
 70
     1
102
RTVSPropertyOp55
 70
     1
102
RTVSPropertyOp56
 70
     1
102
RTVSPropertyOp57
 70
     1
102
RTVSPropertyOp58
 70
     1
102
RTVSPropertyOp59
 70
     1
102
RTVSPropertyOp60
 70
     1
102
RTVSPropertyOp61
 70
     1
102
RTVSPropertyOp62
 70
     1
  0
ENDSEC
  0
EOF
