  0
SECTION
  2
HEADER
  9
$ACADVER
  1
AC1015
  9
$ACADMAINTVER
 70
    20
  9
$DWGCODEPAGE
  3
ANSI_932
  9
$INSBASE
 10
0.0
 20
0.0
 30
0.0
  9
$EXTMIN
 10
10.0
 20
9.999999999999998
 30
0.0
  9
$EXTMAX
 10
280.9300099999999
 20
216.0460159999999
 30
0.0
  9
$LIMMIN
 10
0.0
 20
0.0
  9
$LIMMAX
 10
396.0
 20
273.0
  9
$ORTHOMODE
 70
     1
  9
$REGENMODE
 70
     1
  9
$FILLMODE
 70
     1
  9
$QTEXTMODE
 70
     0
  9
$MIRRTEXT
 70
     1
  9
$LTSCALE
 40
20.0
  9
$ATTMODE
 70
     1
  9
$TEXTSIZE
 40
5.0
  9
$TRACEWID
 40
1.0
  9
$TEXTSTYLE
  7
STANDARD
  9
$CLAYER
  8
0
  9
$CELTYPE
  6
BYLAYER
  9
$CECOLOR
 62
   256
  9
$CELTSCALE
 40
1.0
  9
$DISPSILH
 70
     0
  9
$DIMSCALE
 40
1.0
  9
$DIMASZ
 40
2.5
  9
$DIMEXO
 40
1.0
  9
$DIMDLI
 40
10.0
  9
$DIMRND
 40
0.0
  9
$DIMDLE
 40
0.0
  9
$DIMEXE
 40
1.0
  9
$DIMTP
 40
0.0
  9
$DIMTM
 40
0.0
  9
$DIMTXT
 40
2.5
  9
$DIMCEN
 40
0.0
  9
$DIMTSZ
 40
0.0
  9
$DIMTOL
 70
     0
  9
$DIMLIM
 70
     0
  9
$DIMTIH
 70
     0
  9
$DIMTOH
 70
     0
  9
$DIMSE1
 70
     0
  9
$DIMSE2
 70
     0
  9
$DIMTAD
 70
     3
  9
$DIMZIN
 70
     8
  9
$DIMBLK
  1

  9
$DIMASO
 70
     1
  9
$DIMSHO
 70
     1
  9
$DIMPOST
  1

  9
$DIMAPOST
  1

  9
$DIMALT
 70
     0
  9
$DIMALTD
 70
     2
  9
$DIMALTF
 40
25.4
  9
$DIMLFAC
 40
1.0
  9
$DIMTOFL
 70
     1
  9
$DIMTVP
 40
0.0
  9
$DIMTIX
 70
     0
  9
$DIMSOXD
 70
     0
  9
$DIMSAH
 70
     1
  9
$DIMBLK1
  1
OPEN
  9
$DIMBLK2
  1
OPEN
  9
$DIMSTYLE
  2
STANDARD
  9
$DIMCLRD
 70
     0
  9
$DIMCLRE
 70
     0
  9
$DIMCLRT
 70
     0
  9
$DIMTFAC
 40
1.0
  9
$DIMGAP
 40
1.0
  9
$DIMJUST
 70
     0
  9
$DIMSD1
 70
     0
  9
$DIMSD2
 70
     0
  9
$DIMTOLJ
 70
     1
  9
$DIMTZIN
 70
     0
  9
$DIMALTZ
 70
     0
  9
$DIMALTTZ
 70
     0
  9
$DIMUPT
 70
     0
  9
$DIMDEC
 70
     4
  9
$DIMTDEC
 70
     4
  9
$DIMALTU
 70
     2
  9
$DIMALTTD
 70
     2
  9
$DIMTXSTY
  7
STANDARD
  9
$DIMAUNIT
 70
     0
  9
$DIMADEC
 70
     0
  9
$DIMALTRND
 40
0.0
  9
$DIMAZIN
 70
     0
  9
$DIMDSEP
 70
    46
  9
$DIMATFIT
 70
     3
  9
$DIMFRAC
 70
     0
  9
$DIMLDRBLK
  1
OPEN
  9
$DIMLUNIT
 70
     2
  9
$DIMLWD
 70
    -2
  9
$DIMLWE
 70
    -2
  9
$DIMTMOVE
 70
     0
  9
$LUNITS
 70
     2
  9
$LUPREC
 70
     4
  9
$SKETCHINC
 40
1.0
  9
$FILLETRAD
 40
1.0
  9
$AUNITS
 70
     0
  9
$AUPREC
 70
     2
  9
$MENU
  1
.
  9
$ELEVATION
 40
0.0
  9
$PELEVATION
 40
0.0
  9
$THICKNESS
 40
0.0
  9
$LIMCHECK
 70
     0
  9
$CHAMFERA
 40
10.0
  9
$CHAMFERB
 40
10.0
  9
$CHAMFERC
 40
0.0
  9
$CHAMFERD
 40
0.0
  9
$SKPOLY
 70
     0
  9
$TDCREATE
 40
2451344.598746297
  9
$TDUCREATE
 40
2451344.223746296
  9
$TDUPDATE
 40
2457192.616071540
  9
$TDUUPDATE
 40
2457192.241071540
  9
$TDINDWG
 40
0.0008463657
  9
$TDUSRTIMER
 40
0.0008458796
  9
$USRTIMER
 70
     1
  9
$ANGBASE
 50
0.0
  9
$ANGDIR
 70
     0
  9
$PDMODE
 70
     0
  9
$PDSIZE
 40
0.0
  9
$PLINEWID
 40
0.0
  9
$SPLFRAME
 70
     0
  9
$SPLINETYPE
 70
     6
  9
$SPLINESEGS
 70
     8
  9
$HANDSEED
  5
B5DC
  9
$SURFTAB1
 70
     6
  9
$SURFTAB2
 70
     6
  9
$SURFTYPE
 70
     6
  9
$SURFU
 70
     6
  9
$SURFV
 70
     6
  9
$UCSBASE
  2

  9
$UCSNAME
  2

  9
$UCSORG
 10
0.0
 20
0.0
 30
0.0
  9
$UCSXDIR
 10
1.0
 20
0.0
 30
0.0
  9
$UCSYDIR
 10
0.0
 20
1.0
 30
0.0
  9
$UCSORTHOREF
  2

  9
$UCSORTHOVIEW
 70
     0
  9
$UCSORGTOP
 10
0.0
 20
0.0
 30
0.0
  9
$UCSORGBOTTOM
 10
0.0
 20
0.0
 30
0.0
  9
$UCSORGLEFT
 10
0.0
 20
0.0
 30
0.0
  9
$UCSORGRIGHT
 10
0.0
 20
0.0
 30
0.0
  9
$UCSORGFRONT
 10
0.0
 20
0.0
 30
0.0
  9
$UCSORGBACK
 10
0.0
 20
0.0
 30
0.0
  9
$PUCSBASE
  2

  9
$PUCSNAME
  2

  9
$PUCSORG
 10
0.0
 20
0.0
 30
0.0
  9
$PUCSXDIR
 10
1.0
 20
0.0
 30
0.0
  9
$PUCSYDIR
 10
0.0
 20
1.0
 30
0.0
  9
$PUCSORTHOREF
  2

  9
$PUCSORTHOVIEW
 70
     0
  9
$PUCSORGTOP
 10
0.0
 20
0.0
 30
0.0
  9
$PUCSORGBOTTOM
 10
0.0
 20
0.0
 30
0.0
  9
$PUCSORGLEFT
 10
0.0
 20
0.0
 30
0.0
  9
$PUCSORGRIGHT
 10
0.0
 20
0.0
 30
0.0
  9
$PUCSORGFRONT
 10
0.0
 20
0.0
 30
0.0
  9
$PUCSORGBACK
 10
0.0
 20
0.0
 30
0.0
  9
$USERI1
 70
     0
  9
$USERI2
 70
     0
  9
$USERI3
 70
     0
  9
$USERI4
 70
     0
  9
$USERI5
 70
     0
  9
$USERR1
 40
0.0
  9
$USERR2
 40
0.0
  9
$USERR3
 40
0.0
  9
$USERR4
 40
0.0
  9
$USERR5
 40
0.0
  9
$WORLDVIEW
 70
     1
  9
$SHADEDGE
 70
     3
  9
$SHADEDIF
 70
    70
  9
$TILEMODE
 70
     1
  9
$MAXACTVP
 70
    16
  9
$PINSBASE
 10
0.0
 20
0.0
 30
0.0
  9
$PLIMCHECK
 70
     0
  9
$PEXTMIN
 10
1.000000000000000E+20
 20
1.000000000000000E+20
 30
1.000000000000000E+20
  9
$PEXTMAX
 10
-1.000000000000000E+20
 20
-1.000000000000000E+20
 30
-1.000000000000000E+20
  9
$PLIMMIN
 10
0.0
 20
0.0
  9
$PLIMMAX
 10
420.0
 20
297.0
  9
$UNITMODE
 70
     0
  9
$VISRETAIN
 70
     0
  9
$PLINEGEN
 70
     0
  9
$PSLTSCALE
 70
     0
  9
$TREEDEPTH
 70
  3020
  9
$CMLSTYLE
  2
STANDARD
  9
$CMLJUST
 70
     0
  9
$CMLSCALE
 40
1.0
  9
$PROXYGRAPHICS
 70
     1
  9
$MEASUREMENT
 70
     0
  9
$CELWEIGHT
370
    -1
  9
$ENDCAPS
280
     0
  9
$JOINSTYLE
280
     0
  9
$LWDISPLAY
290
     0
  9
$INSUNITS
 70
     0
  9
$HYPERLINKBASE
  1

  9
$STYLESHEET
  1

  9
$XEDIT
290
     1
  9
$CEPSNTYPE
380
     0
  9
$PSTYLEMODE
290
     1
  9
$FINGERPRINTGUID
  2
{FFF47617-A629-43E1-93CD-A9BAF717F16C}
  9
$VERSIONGUID
  2
{40DCA9CD-763C-43A3-9B36-784BF173AD18}
  9
$EXTNAMES
290
     1
  9
$PSVPSCALE
 40
0.0
  9
$OLESTARTUP
290
     0
  0
ENDSEC
  0
SECTION
  2
CLASSES
  0
CLASS
  1
ACDBDICTIONARYWDFLT
  2
AcDbDictionaryWithDefault
  3
ObjectDBX Classes
 90
        0
280
     0
281
     0
  0
CLASS
  1
ACDBPLACEHOLDER
  2
AcDbPlaceHolder
  3
ObjectDBX Classes
 90
        0
280
     0
281
     0
  0
CLASS
  1
LAYOUT
  2
AcDbLayout
  3
ObjectDBX Classes
 90
        0
280
     0
281
     0
  0
CLASS
  1
DICTIONARYVAR
  2
AcDbDictionaryVar
  3
ObjectDBX Classes
 90
        0
280
     0
281
     0
  0
CLASS
  1
MATERIAL
  2
AcDbMaterial
  3
ObjectDBX Classes
 90
     1153
280
     0
281
     0
  0
CLASS
  1
VISUALSTYLE
  2
AcDbVisualStyle
  3
ObjectDBX Classes
 90
     4095
280
     0
281
     0
  0
CLASS
  1
TABLESTYLE
  2
AcDbTableStyle
  3
ObjectDBX Classes
 90
     4095
280
     0
281
     0
  0
CLASS
  1
SCALE
  2
AcDbScale
  3
ObjectDBX Classes
 90
     1153
280
     0
281
     0
  0
CLASS
  1
MLEADERSTYLE
  2
AcDbMLeaderStyle
  3
ACDB_MLEADERSTYLE_CLASS
 90
     4095
280
     0
281
     0
  0
CLASS
  1
ACDBSECTIONVIEWSTYLE
  2
AcDbSectionViewStyle
  3
ObjectDBX Classes
 90
     1025
280
     0
281
     0
  0
CLASS
  1
ACDBDETAILVIEWSTYLE
  2
AcDbDetailViewStyle
  3
ObjectDBX Classes
 90
     1025
280
     0
281
     0
  0
CLASS
  1
CELLSTYLEMAP
  2
AcDbCellStyleMap
  3
ObjectDBX Classes
 90
     1152
280
     0
281
     0
  0
ENDSEC
  0
SECTION
  2
TABLES
  0
TABLE
  2
VPORT
  5
B34E
330
0
100
AcDbSymbolTable
 70
     1
  0
VPORT
  5
B525
330
B34E
100
AcDbSymbolTableRecord
100
AcDbViewportTableRecord
  2
*ACTIVE
 70
     0
 10
0.0
 20
0.0
 11
1.0
 21
1.0
 12
207.8769342239086
 22
113.0265661600587
 13
0.0
 23
0.0
 14
10.0
 24
10.0
 15
10.0
 25
10.0
 16
0.0
 26
0.0
 36
1.0
 17
0.0
 27
0.0
 37
0.0
 40
208.3795016904896
 41
1.899603698811096
 42
50.0
 43
0.0
 44
0.0
 50
0.0
 51
0.0
 71
     0
 72
   100
 73
     1
 74
     0
 75
     0
 76
     0
 77
     0
 78
     0
281
     0
 65
     1
110
0.0
120
0.0
130
0.0
111
1.0
121
0.0
131
0.0
112
0.0
122
1.0
132
0.0
 79
     0
146
0.0
1001
ACAD_NAV_VCDISPLAY
1070
     3
  0
ENDTAB
  0
TABLE
  2
LTYPE
  5
B34B
330
0
100
AcDbSymbolTable
 70
     4
  0
LTYPE
  5
B359
330
B34B
100
AcDbSymbolTableRecord
100
AcDbLinetypeTableRecord
  2
BYBLOCK
 70
     0
  3

 72
    65
 73
     0
 40
0.0
  0
LTYPE
  5
B35A
330
B34B
100
AcDbSymbolTableRecord
100
AcDbLinetypeTableRecord
  2
BYLAYER
 70
     0
  3

 72
    65
 73
     0
 40
0.0
  0
LTYPE
  5
B35B
330
B34B
100
AcDbSymbolTableRecord
100
AcDbLinetypeTableRecord
  2
CONTINUOUS
 70
     0
  3
Solid line
 72
    65
 73
     0
 40
0.0
  0
LTYPE
  5
B369
330
B34B
100
AcDbSymbolTableRecord
100
AcDbLinetypeTableRecord
  2
DASHED
 70
     0
  3
__ __ __ __ __ __ __ __ __ __ __ __ __ __ __ __
 72
    65
 73
     2
 40
0.75
 49
0.5
 74
     0
 49
-0.25
 74
     0
  0
LTYPE
  5
B36A
330
B34B
100
AcDbSymbolTableRecord
100
AcDbLinetypeTableRecord
  2
CENTER
 70
     0
  3
____ _ ____ _ ____ _ ____ _ ____ _ ____ _ ____ 
 72
    65
 73
     4
 40
2.0
 49
1.25
 74
     0
 49
-0.25
 74
     0
 49
0.25
 74
     0
 49
-0.25
 74
     0
  0
LTYPE
  5
B36B
330
B34B
100
AcDbSymbolTableRecord
100
AcDbLinetypeTableRecord
  2
PHANTOM
 70
     0
  3
______  __  __  ______  __  __  ______  __  __ 
 72
    65
 73
     6
 40
2.5
 49
1.25
 74
     0
 49
-0.25
 74
     0
 49
0.25
 74
     0
 49
-0.25
 74
     0
 49
0.25
 74
     0
 49
-0.25
 74
     0
  0
ENDTAB
  0
TABLE
  2
LAYER
  5
B348
330
0
100
AcDbSymbolTable
 70
     8
  0
LAYER
  5
B356
102
{ACAD_XDICTIONARY
360
B580
102
}
330
B348
100
AcDbSymbolTableRecord
100
AcDbLayerTableRecord
  2
0
 70
     0
 62
     7
  6
CONTINUOUS
370
    -3
390
B52E
  0
LAYER
  5
B36C
102
{ACAD_XDICTIONARY
360
B582
102
}
330
B348
100
AcDbSymbolTableRecord
100
AcDbLayerTableRecord
  2
4
 70
     0
 62
     1
  6
CENTER
370
    -3
390
B52E
  0
LAYER
  5
B36D
102
{ACAD_XDICTIONARY
360
B584
102
}
330
B348
100
AcDbSymbolTableRecord
100
AcDbLayerTableRecord
  2
5
 70
     0
 62
     6
  6
PHANTOM
370
    -3
390
B52E
  0
LAYER
  5
B36E
102
{ACAD_XDICTIONARY
360
B586
102
}
330
B348
100
AcDbSymbolTableRecord
100
AcDbLayerTableRecord
  2
1
 70
     0
 62
     7
  6
CONTINUOUS
370
    -3
390
B52E
  0
LAYER
  5
B36F
102
{ACAD_XDICTIONARY
360
B588
102
}
330
B348
100
AcDbSymbolTableRecord
100
AcDbLayerTableRecord
  2
2
 70
     0
 62
     4
  6
CONTINUOUS
370
    -3
390
B52E
  0
LAYER
  5
B370
102
{ACAD_XDICTIONARY
360
B58A
102
}
330
B348
100
AcDbSymbolTableRecord
100
AcDbLayerTableRecord
  2
3
 70
     0
 62
     2
  6
DASHED
370
    -3
390
B52E
  0
LAYER
  5
B371
102
{ACAD_XDICTIONARY
360
B58C
102
}
330
B348
100
AcDbSymbolTableRecord
100
AcDbLayerTableRecord
  2
6
 70
     0
 62
     5
  6
CONTINUOUS
370
    -3
390
B52E
  0
LAYER
  5
B372
102
{ACAD_XDICTIONARY
360
B58E
102
}
330
B348
100
AcDbSymbolTableRecord
100
AcDbLayerTableRecord
  2
7
 70
     0
 62
     3
  6
CONTINUOUS
370
    -3
390
B52E
  0
ENDTAB
  0
TABLE
  2
STYLE
  5
B349
330
0
100
AcDbSymbolTable
 70
     1
  0
STYLE
  5
B357
330
B349
100
AcDbSymbolTableRecord
100
AcDbTextStyleTableRecord
  2
STANDARD
 70
     0
 40
0.0
 41
1.0
 50
0.0
 71
     0
 42
5.0
  3
txt
  4

  0
ENDTAB
  0
TABLE
  2
VIEW
  5
B34C
330
0
100
AcDbSymbolTable
 70
     0
  0
ENDTAB
  0
TABLE
  2
UCS
  5
B34D
330
0
100
AcDbSymbolTable
 70
     0
  0
ENDTAB
  0
TABLE
  2
APPID
  5
B34F
330
0
100
AcDbSymbolTable
 70
     3
  0
APPID
  5
B358
330
B34F
100
AcDbSymbolTableRecord
100
AcDbRegAppTableRecord
  2
ACAD
 70
     0
  0
APPID
  5
B59A
330
B34F
100
AcDbSymbolTableRecord
100
AcDbRegAppTableRecord
  2
ACAD_NAV_VCDISPLAY
 70
     0
  0
APPID
  5
B5D3
330
B34F
100
AcDbSymbolTableRecord
100
AcDbRegAppTableRecord
  2
ACAD_MLEADERVER
 70
     0
  0
ENDTAB
  0
TABLE
  2
DIMSTYLE
  5
B350
330
0
100
AcDbSymbolTable
 70
     1
100
AcDbDimStyleTable
 71
     0
  0
DIMSTYLE
105
B374
330
B350
100
AcDbSymbolTableRecord
100
AcDbDimStyleTableRecord
  2
STANDARD
 70
     0
 41
2.5
 42
1.0
 43
10.0
 44
1.0
 73
     0
 74
     0
 77
     3
 78
     8
140
2.5
141
0.0
147
1.0
172
     1
173
     1
284
     8
285
     8
286
     8
340
B357
  0
ENDTAB
  0
TABLE
  2
BLOCK_RECORD
  5
B347
330
0
100
AcDbSymbolTable
 70
     1
  0
BLOCK_RECORD
  5
B364
102
{ACAD_XDICTIONARY
360
B528
102
}
330
B347
100
AcDbSymbolTableRecord
100
AcDbBlockTableRecord
  2
*MODEL_SPACE
340
B57C
  0
BLOCK_RECORD
  5
B360
102
{ACAD_XDICTIONARY
360
B526
102
}
330
B347
100
AcDbSymbolTableRecord
100
AcDbBlockTableRecord
  2
*PAPER_SPACE
340
B57D
  0
BLOCK_RECORD
  5
B37C
330
B347
100
AcDbSymbolTableRecord
100
AcDbBlockTableRecord
  2
_OPEN
340
0
  0
ENDTAB
  0
ENDSEC
  0
SECTION
  2
BLOCKS
  0
BLOCK
  5
B365
330
B364
100
AcDbEntity
  8
0
100
AcDbBlockBegin
  2
*MODEL_SPACE
 70
     0
 10
0.0
 20
0.0
 30
0.0
  3
*MODEL_SPACE
  1

  0
ENDBLK
  5
B366
330
B364
100
AcDbEntity
  8
0
100
AcDbBlockEnd
  0
BLOCK
  5
B361
330
B360
100
AcDbEntity
 67
     1
  8
0
100
AcDbBlockBegin
  2
*PAPER_SPACE
 70
     0
 10
0.0
 20
0.0
 30
0.0
  3
*PAPER_SPACE
  1

  0
ENDBLK
  5
B362
330
B360
100
AcDbEntity
 67
     1
  8
0
100
AcDbBlockEnd
  0
BLOCK
  5
B37D
330
B37C
100
AcDbEntity
  8
0
100
AcDbBlockBegin
  2
_OPEN
 70
     0
 10
0.0
 20
0.0
 30
0.0
  3
_OPEN
  1

  0
LINE
  5
B37E
330
B37C
100
AcDbEntity
  8
0
  6
ByBlock
 62
     0
100
AcDbLine
 10
-1.0
 20
0.166667
 30
0.0
 11
0.0
 21
0.0
 31
0.0
  0
LINE
  5
B37F
330
B37C
100
AcDbEntity
  8
0
  6
ByBlock
 62
     0
100
AcDbLine
 10
0.0
 20
0.0
 30
0.0
 11
-1.0
 21
-0.166667
 31
0.0
  0
LINE
  5
B380
330
B37C
100
AcDbEntity
  8
0
  6
ByBlock
 62
     0
100
AcDbLine
 10
0.0
 20
0.0
 30
0.0
 11
-1.0
 21
0.0
 31
0.0
  0
ENDBLK
  5
B381
330
B37C
100
AcDbEntity
  8
0
100
AcDbBlockEnd
  0
ENDSEC
  0
SECTION
  2
ENTITIES
  0
TEXT
  5
B382
330
B364
100
AcDbEntity
  8
7
  6
Continuous
100
AcDbText
 10
10.0
 20
18.0
 30
0.0
 40
3.0
  1
TYPE No.TH-125-3
100
AcDbText
  0
TEXT
  5
B383
330
B364
100
AcDbEntity
  8
7
  6
Continuous
100
AcDbText
 10
10.0
 20
26.0
 30
0.0
 40
3.0
  1
CODE No.2633
100
AcDbText
  0
TEXT
  5
B384
330
B364
100
AcDbEntity
  8
1
  6
Continuous
100
AcDbText
 10
10.0
 20
10.0
 30
0.0
 40
1.399999999999999
  1
LAYER
100
AcDbText
  0
TEXT
  5
B385
330
B364
100
AcDbEntity
  8
1
  6
Continuous
100
AcDbText
 10
17.97951099999998
 20
10.04873699999998
 30
0.0
 40
1.399999999999999
  1
1
100
AcDbText
  0
TEXT
  5
B386
330
B364
100
AcDbEntity
  8
7
  6
Continuous
100
AcDbText
 10
29.97951099999999
 20
10.04873699999998
 30
0.0
 40
1.399999999999999
  1
7
100
AcDbText
  0
TEXT
  5
B387
330
B364
100
AcDbEntity
  8
4
  6
CENTER
100
AcDbText
 10
23.97951099999999
 20
10.04873699999998
 30
0.0
 40
1.399999999999999
  1
4
100
AcDbText
  0
TEXT
  5
B388
330
B364
100
AcDbEntity
  8
3
  6
DASHED
100
AcDbText
 10
21.979511
 20
10.04873699999998
 30
0.0
 40
1.399999999999999
  1
3
100
AcDbText
  0
TEXT
  5
B389
330
B364
100
AcDbEntity
  8
2
  6
Continuous
100
AcDbText
 10
19.97951099999999
 20
10.04873699999998
 30
0.0
 40
1.399999999999999
  1
2
100
AcDbText
  0
TEXT
  5
B38A
330
B364
100
AcDbEntity
  8
6
  6
Continuous
100
AcDbText
 10
27.979511
 20
10.04873699999998
 30
0.0
 40
1.399999999999999
  1
6
100
AcDbText
  0
TEXT
  5
B38B
330
B364
100
AcDbEntity
  8
5
  6
PHANTOM
100
AcDbText
 10
25.97951099999999
 20
10.04873699999998
 30
0.0
 40
1.399999999999999
  1
5
100
AcDbText
  0
LINE
  5
B38C
330
B364
100
AcDbEntity
  8
1
  6
Continuous
100
AcDbLine
 10
86.57666999999998
 20
150.2119129999998
 30
0.0
 11
86.57666999999998
 21
104.2119129999999
 31
0.0
  0
LINE
  5
B38D
330
B364
100
AcDbEntity
  8
1
  6
Continuous
100
AcDbLine
 10
129.07667
 20
150.2119129999998
 30
0.0
 11
129.07667
 21
104.2119129999999
 31
0.0
  0
LINE
  5
B38E
330
B364
100
AcDbEntity
  8
1
  6
Continuous
100
AcDbLine
 10
102.5766699999998
 20
102.2119129999999
 30
0.0
 11
127.07667
 21
102.2119129999999
 31
0.0
  0
LINE
  5
B38F
330
B364
100
AcDbEntity
  8
1
  6
Continuous
100
AcDbLine
 10
102.5766699999998
 20
152.2119129999999
 30
0.0
 11
127.07667
 21
152.2119129999999
 31
0.0
  0
ARC
  5
B390
330
B364
100
AcDbEntity
  8
1
  6
Continuous
100
AcDbCircle
 10
127.07667
 20
104.2119129999999
 30
0.0
 40
2.0
100
AcDbArc
 50
270.0
 51
0.0
  0
ARC
  5
B391
330
B364
100
AcDbEntity
  8
1
  6
Continuous
100
AcDbCircle
 10
127.07667
 20
150.2119129999998
 30
0.0
 40
2.0
100
AcDbArc
 50
0.0
 51
90.0
  0
ARC
  5
B392
330
B364
100
AcDbEntity
  8
1
  6
Continuous
100
AcDbCircle
 10
88.57666999999997
 20
150.2119129999998
 30
0.0
 40
2.0
100
AcDbArc
 50
90.0
 51
180.0
  0
ARC
  5
B393
330
B364
100
AcDbEntity
  8
1
  6
Continuous
100
AcDbCircle
 10
88.57666999999997
 20
104.2119129999999
 30
0.0
 40
2.0
100
AcDbArc
 50
180.0
 51
270.0
  0
LINE
  5
B394
330
B364
100
AcDbEntity
  8
1
  6
Continuous
100
AcDbLine
 10
99.57667
 20
119.211913
 30
0.0
 11
99.57667
 21
103.2119129999999
 31
0.0
  0
LINE
  5
B395
330
B364
100
AcDbEntity
  8
1
  6
Continuous
100
AcDbLine
 10
99.57667
 20
151.2119129999998
 30
0.0
 11
99.57667
 21
135.2119129999999
 31
0.0
  0
LINE
  5
B396
330
B364
100
AcDbEntity
  8
4
  6
CENTER
100
AcDbLine
 10
115.9240899999999
 20
47.99999999999999
 30
0.0
 11
99.32180299999997
 21
47.99999999999999
 31
0.0
  0
LINE
  5
B397
330
B364
100
AcDbEntity
  8
1
  6
Continuous
100
AcDbLine
 10
86.57666999999991
 20
42.99999999999999
 30
0.0
 11
86.57666999999991
 21
40.99999999999999
 31
0.0
  0
LINE
  5
B398
330
B364
100
AcDbEntity
  8
1
  6
Continuous
100
AcDbLine
 10
129.0766699999999
 20
42.99999999999999
 30
0.0
 11
115.5766699999999
 21
42.99999999999999
 31
0.0
  0
LINE
  5
B399
330
B364
100
AcDbEntity
  8
1
  6
Continuous
100
AcDbLine
 10
102.5766699999998
 20
42.99999999999999
 30
0.0
 11
86.57666999999991
 21
42.99999999999999
 31
0.0
  0
LINE
  5
B39A
330
B364
100
AcDbEntity
  8
1
  6
Continuous
100
AcDbLine
 10
129.0766699999999
 20
40.99999999999999
 30
0.0
 11
115.5766699999999
 21
40.99999999999999
 31
0.0
  0
LINE
  5
B39B
330
B364
100
AcDbEntity
  8
1
  6
Continuous
100
AcDbLine
 10
111.5766699999999
 20
40.99999999999999
 30
0.0
 11
86.57666999999991
 21
40.99999999999999
 31
0.0
  0
LINE
  5
B39C
330
B364
100
AcDbEntity
  8
1
  6
Continuous
100
AcDbLine
 10
129.0766699999999
 20
42.99999999999999
 30
0.0
 11
129.0766699999999
 21
40.99999999999999
 31
0.0
  0
LINE
  5
B39D
330
B364
100
AcDbEntity
  8
4
  6
CENTER
100
AcDbLine
 10
107.5766699999998
 20
56.97644399999997
 30
0.0
 11
107.5766699999998
 21
38.37780999999998
 31
0.0
  0
LINE
  5
B39E
330
B364
100
AcDbEntity
  8
4
  6
CENTER
100
AcDbLine
 10
107.5766699999998
 20
154.977822
 30
0.0
 11
107.5766699999998
 21
99.41342
 31
0.0
  0
LINE
  5
B39F
330
B364
100
AcDbEntity
  8
4
  6
CENTER
100
AcDbLine
 10
94.57666999999997
 20
44.91297599999999
 30
0.0
 11
94.57666999999997
 21
39.01938599999997
 31
0.0
  0
LINE
  5
B3A0
330
B364
100
AcDbEntity
  8
4
  6
CENTER
100
AcDbLine
 10
121.0766699999998
 20
44.91297599999999
 30
0.0
 11
121.0766699999998
 21
39.01938599999997
 31
0.0
  0
LINE
  5
B3A1
330
B364
100
AcDbEntity
  8
4
  6
CENTER
100
AcDbLine
 10
91.57666999999992
 20
44.91297599999999
 30
0.0
 11
91.57666999999992
 21
39.01938599999997
 31
0.0
  0
LINE
  5
B3A2
330
B364
100
AcDbEntity
  8
1
  6
Continuous
100
AcDbLine
 10
25.0
 20
152.2119129999999
 30
0.0
 11
25.0
 21
102.2119129999999
 31
0.0
  0
LINE
  5
B3A3
330
B364
100
AcDbEntity
  8
4
  6
CENTER
100
AcDbLine
 10
32.0
 20
154.080814
 30
0.0
 11
32.0
 21
99.41342
 31
0.0
  0
LINE
  5
B3A4
330
B364
100
AcDbEntity
  8
1
  6
Continuous
100
AcDbLine
 10
88.57666999999997
 20
102.2119129999999
 30
0.0
 11
98.57666999999999
 21
102.2119129999999
 31
0.0
  0
LINE
  5
B3A5
330
B364
100
AcDbEntity
  8
1
  6
Continuous
100
AcDbLine
 10
25.0
 20
102.2119129999999
 30
0.0
 11
37.79999999999999
 21
102.2119129999999
 31
0.0
  0
LINE
  5
B3A6
330
B364
100
AcDbEntity
  8
1
  6
Continuous
100
AcDbLine
 10
88.57666999999997
 20
152.2119129999999
 30
0.0
 11
98.57666999999999
 21
152.2119129999999
 31
0.0
  0
LINE
  5
B3A7
330
B364
100
AcDbEntity
  8
1
  6
Continuous
100
AcDbLine
 10
25.0
 20
152.2119129999999
 30
0.0
 11
37.79999999999999
 21
152.2119129999999
 31
0.0
  0
LINE
  5
B3A8
330
B364
100
AcDbEntity
  8
1
  6
Continuous
100
AcDbLine
 10
27.0
 20
117.211913
 30
0.0
 11
37.0
 21
117.211913
 31
0.0
  0
LINE
  5
B3A9
330
B364
100
AcDbEntity
  8
1
  6
Continuous
100
AcDbLine
 10
97.07667
 20
119.211913
 30
0.0
 11
112.57667
 21
119.211913
 31
0.0
  0
LINE
  5
B3AA
330
B364
100
AcDbEntity
  8
1
  6
Continuous
100
AcDbLine
 10
27.0
 20
119.211913
 30
0.0
 11
37.0
 21
119.211913
 31
0.0
  0
LINE
  5
B3AB
330
B364
100
AcDbEntity
  8
1
  6
Continuous
100
AcDbLine
 10
97.07667
 20
135.2119129999999
 30
0.0
 11
112.57667
 21
135.2119129999999
 31
0.0
  0
LINE
  5
B3AC
330
B364
100
AcDbEntity
  8
1
  6
Continuous
100
AcDbLine
 10
27.0
 20
135.2119129999999
 30
0.0
 11
37.0
 21
135.2119129999999
 31
0.0
  0
LINE
  5
B3AD
330
B364
100
AcDbEntity
  8
1
  6
Continuous
100
AcDbLine
 10
27.0
 20
137.2119129999999
 30
0.0
 11
37.0
 21
137.2119129999999
 31
0.0
  0
LINE
  5
B3AE
330
B364
100
AcDbEntity
  8
1
  6
Continuous
100
AcDbLine
 10
37.0
 20
137.2119129999999
 30
0.0
 11
37.0
 21
117.211913
 31
0.0
  0
LINE
  5
B3AF
330
B364
100
AcDbEntity
  8
4
  6
CENTER
100
AcDbLine
 10
23.80599099999999
 20
127.2119129999999
 30
0.0
 11
37.871433
 21
127.2119129999999
 31
0.0
  0
LINE
  5
B3B0
330
B364
100
AcDbEntity
  8
1
  6
Continuous
100
AcDbLine
 10
28.0
 20
135.2119129999999
 30
0.0
 11
28.0
 21
119.211913
 31
0.0
  0
LINE
  5
B3B1
330
B364
100
AcDbEntity
  8
1
  6
Continuous
100
AcDbLine
 10
29.0
 20
135.2119129999999
 30
0.0
 11
29.0
 21
119.211913
 31
0.0
  0
LINE
  5
B3B2
330
B364
100
AcDbEntity
  8
1
  6
Continuous
100
AcDbLine
 10
30.0
 20
135.2119129999999
 30
0.0
 11
30.0
 21
119.211913
 31
0.0
  0
LINE
  5
B3B3
330
B364
100
AcDbEntity
  8
1
  6
Continuous
100
AcDbLine
 10
31.0
 20
135.2119129999999
 30
0.0
 11
31.0
 21
119.211913
 31
0.0
  0
LINE
  5
B3B4
330
B364
100
AcDbEntity
  8
1
  6
Continuous
100
AcDbLine
 10
32.0
 20
135.2119129999999
 30
0.0
 11
32.0
 21
119.211913
 31
0.0
  0
LINE
  5
B3B5
330
B364
100
AcDbEntity
  8
1
  6
Continuous
100
AcDbLine
 10
29.0
 20
121.7119129999999
 30
0.0
 11
29.39999999999999
 21
121.7119129999999
 31
0.0
  0
LINE
  5
B3B6
330
B364
100
AcDbEntity
  8
1
  6
Continuous
100
AcDbLine
 10
29.0
 20
132.7119129999998
 30
0.0
 11
29.39999999999999
 21
132.7119129999998
 31
0.0
  0
LINE
  5
B3B7
330
B364
100
AcDbEntity
  8
1
  6
Continuous
100
AcDbLine
 10
29.39999999999999
 20
121.7119129999999
 30
0.0
 11
30.0
 21
124.211913
 31
0.0
  0
LINE
  5
B3B8
330
B364
100
AcDbEntity
  8
1
  6
Continuous
100
AcDbLine
 10
29.6
 20
124.211913
 30
0.0
 11
29.0
 21
121.7119129999999
 31
0.0
  0
LINE
  5
B3B9
330
B364
100
AcDbEntity
  8
1
  6
Continuous
100
AcDbLine
 10
29.6
 20
130.2119129999999
 30
0.0
 11
29.0
 21
132.7119129999998
 31
0.0
  0
LINE
  5
B3BA
330
B364
100
AcDbEntity
  8
1
  6
Continuous
100
AcDbLine
 10
30.0
 20
130.2119129999999
 30
0.0
 11
29.39999999999999
 21
132.7119129999998
 31
0.0
  0
LINE
  5
B3BB
330
B364
100
AcDbEntity
  8
4
  6
CENTER
100
AcDbLine
 10
23.80599099999999
 20
107.2119129999999
 30
0.0
 11
27.745639
 21
107.2119129999999
 31
0.0
  0
LINE
  5
B3BC
330
B364
100
AcDbEntity
  8
4
  6
CENTER
100
AcDbLine
 10
23.80599099999999
 20
147.2119129999998
 30
0.0
 11
27.745639
 21
147.2119129999998
 31
0.0
  0
LINE
  5
B3BD
330
B364
100
AcDbEntity
  8
1
  6
Continuous
100
AcDbLine
 10
102.5766699999998
 20
43.99999999999999
 30
0.0
 11
96.07666999999997
 21
43.99999999999999
 31
0.0
  0
LINE
  5
B3BE
330
B364
100
AcDbEntity
  8
1
  6
Continuous
100
AcDbLine
 10
102.5766699999998
 20
44.99999999999999
 30
0.0
 11
96.07666999999997
 21
44.99999999999999
 31
0.0
  0
LINE
  5
B3BF
330
B364
100
AcDbEntity
  8
1
  6
Continuous
100
AcDbLine
 10
102.5766699999998
 20
45.99999999999999
 30
0.0
 11
96.07666999999997
 21
45.99999999999999
 31
0.0
  0
LINE
  5
B3C0
330
B364
100
AcDbEntity
  8
1
  6
Continuous
100
AcDbLine
 10
102.5766699999998
 20
46.99999999999999
 30
0.0
 11
96.07666999999997
 21
46.99999999999999
 31
0.0
  0
LINE
  5
B3C1
330
B364
100
AcDbEntity
  8
1
  6
Continuous
100
AcDbLine
 10
102.5766699999998
 20
47.99999999999999
 30
0.0
 11
95.57666999999996
 21
47.99999999999999
 31
0.0
  0
LINE
  5
B3C2
330
B364
100
AcDbEntity
  8
1
  6
Continuous
100
AcDbLine
 10
102.5766699999998
 20
45.39999999999999
 30
0.0
 11
96.07666999999997
 21
45.39999999999999
 31
0.0
  0
LINE
  5
B3C3
330
B364
100
AcDbEntity
  8
1
  6
Continuous
100
AcDbLine
 10
102.5766699999998
 20
47.99999999999999
 30
0.0
 11
102.5766699999998
 21
40.99999999999999
 31
0.0
  0
LINE
  5
B3C4
330
B364
100
AcDbEntity
  8
1
  6
Continuous
100
AcDbLine
 10
99.57666999999997
 20
42.99999999999999
 30
0.0
 11
99.57666999999997
 21
40.99999999999999
 31
0.0
  0
LINE
  5
B3C5
330
B364
100
AcDbEntity
  8
1
  6
Continuous
100
AcDbLine
 10
111.5766699999999
 20
42.99999999999999
 30
0.0
 11
111.5766699999999
 21
40.99999999999999
 31
0.0
  0
LINE
  5
B3C6
330
B364
100
AcDbEntity
  8
1
  6
Continuous
100
AcDbLine
 10
111.5766699999999
 20
45.76393199999999
 30
0.0
 11
109.5766699999998
 21
45.76393199999999
 31
0.0
  0
ARC
  5
B3C7
330
B364
100
AcDbEntity
  8
1
  6
Continuous
100
AcDbCircle
 10
115.5766699999999
 20
42.99999999999999
 30
0.0
 40
2.0
100
AcDbArc
 50
217.7204149999999
 51
270.0
  0
LINE
  5
B3C8
330
B364
100
AcDbEntity
  8
1
  6
Continuous
100
AcDbLine
 10
112.57667
 20
137.2119129999999
 30
0.0
 11
112.57667
 21
117.211913
 31
0.0
  0
LINE
  5
B3C9
330
B364
100
AcDbEntity
  8
1
  6
Continuous
100
AcDbLine
 10
111.5766699999999
 20
50.81761699999999
 30
0.0
 11
111.5766699999999
 21
45.76393199999999
 31
0.0
  0
LINE
  5
B3CA
330
B364
100
AcDbEntity
  8
1
  6
Continuous
100
AcDbLine
 10
111.57667
 20
115.3619129999998
 30
0.0
 11
111.57667
 21
102.2119129999999
 31
0.0
  0
LINE
  5
B3CB
330
B364
100
AcDbEntity
  8
1
  6
Continuous
100
AcDbLine
 10
111.57667
 20
152.2119129999999
 30
0.0
 11
111.57667
 21
139.0619129999997
 31
0.0
  0
LINE
  5
B3CC
330
B364
100
AcDbEntity
  8
1
  6
Continuous
100
AcDbLine
 10
109.5766699999998
 20
50.81761699999999
 30
0.0
 11
109.5766699999998
 21
45.76393199999999
 31
0.0
  0
LINE
  5
B3CD
330
B364
100
AcDbEntity
  8
1
  6
Continuous
100
AcDbLine
 10
29.6
 20
124.211913
 30
0.0
 11
29.6
 21
130.2119129999999
 31
0.0
  0
ARC
  5
B3CE
330
B364
100
AcDbEntity
  8
1
  6
Continuous
100
AcDbCircle
 10
98.57666999999999
 20
103.2119129999999
 30
0.0
 40
1.0
100
AcDbArc
 50
270.0
 51
0.0
  0
ARC
  5
B3CF
330
B364
100
AcDbEntity
  8
1
  6
Continuous
100
AcDbCircle
 10
98.57666999999999
 20
151.2119129999998
 30
0.0
 40
1.0
100
AcDbArc
 50
0.0
 51
90.0
  0
LINE
  5
B3D0
330
B364
100
AcDbEntity
  8
1
  6
Continuous
100
AcDbLine
 10
112.57667
 20
137.2119129999999
 30
0.0
 11
102.5766699999998
 21
137.2119129999999
 31
0.0
  0
LINE
  5
B3D1
330
B364
100
AcDbEntity
  8
1
  6
Continuous
100
AcDbLine
 10
112.57667
 20
117.211913
 30
0.0
 11
102.5766699999998
 21
117.211913
 31
0.0
  0
LINE
  5
B3D2
330
B364
100
AcDbEntity
  8
1
  6
Continuous
100
AcDbLine
 10
102.5766699999998
 20
115.3619129999998
 30
0.0
 11
102.5766699999998
 21
102.2119129999999
 31
0.0
  0
LINE
  5
B3D3
330
B364
100
AcDbEntity
  8
1
  6
Continuous
100
AcDbLine
 10
102.5766699999998
 20
119.211913
 30
0.0
 11
102.5766699999998
 21
117.211913
 31
0.0
  0
LINE
  5
B3D4
330
B364
100
AcDbEntity
  8
1
  6
Continuous
100
AcDbLine
 10
102.5766699999998
 20
137.2119129999999
 30
0.0
 11
102.5766699999998
 21
135.2119129999999
 31
0.0
  0
LINE
  5
B3D5
330
B364
100
AcDbEntity
  8
1
  6
Continuous
100
AcDbLine
 10
102.5766699999998
 20
152.2119129999999
 30
0.0
 11
102.5766699999998
 21
139.0619129999997
 31
0.0
  0
LINE
  5
B3D6
330
B364
100
AcDbEntity
  8
1
  6
Continuous
100
AcDbLine
 10
109.5766699999998
 20
139.0619129999997
 30
0.0
 11
109.5766699999998
 21
138.7119129999998
 31
0.0
  0
LINE
  5
B3D7
330
B364
100
AcDbEntity
  8
1
  6
Continuous
100
AcDbLine
 10
104.5766699999998
 20
139.0619129999997
 30
0.0
 11
104.5766699999998
 21
138.7119129999998
 31
0.0
  0
LINE
  5
B3D8
330
B364
100
AcDbEntity
  8
1
  6
Continuous
100
AcDbLine
 10
109.5766699999998
 20
115.3619129999998
 30
0.0
 11
109.5766699999998
 21
115.7119129999999
 31
0.0
  0
LINE
  5
B3D9
330
B364
100
AcDbEntity
  8
1
  6
Continuous
100
AcDbLine
 10
104.5766699999998
 20
115.3619129999998
 30
0.0
 11
104.5766699999998
 21
115.7119129999999
 31
0.0
  0
LINE
  5
B3DA
330
B364
100
AcDbEntity
  8
1
  6
Continuous
100
AcDbLine
 10
34.70000000000001
 20
115.7119129999999
 30
0.0
 11
34.70000000000001
 21
115.3619129999998
 31
0.0
  0
LINE
  5
B3DB
330
B364
100
AcDbEntity
  8
1
  6
Continuous
100
AcDbLine
 10
34.70000000000001
 20
139.0619129999997
 30
0.0
 11
34.70000000000001
 21
138.7119129999998
 31
0.0
  0
LINE
  5
B3DC
330
B364
100
AcDbEntity
  8
1
  6
Continuous
100
AcDbLine
 10
28.7
 20
115.7119129999999
 30
0.0
 11
28.7
 21
115.3619129999998
 31
0.0
  0
LINE
  5
B3DD
330
B364
100
AcDbEntity
  8
1
  6
Continuous
100
AcDbLine
 10
28.7
 20
139.0619129999997
 30
0.0
 11
28.7
 21
138.7119129999998
 31
0.0
  0
LINE
  5
B3DE
330
B364
100
AcDbEntity
  8
1
  6
Continuous
100
AcDbLine
 10
37.79999999999999
 20
115.3619129999998
 30
0.0
 11
37.79999999999999
 21
102.2119129999999
 31
0.0
  0
LINE
  5
B3DF
330
B364
100
AcDbEntity
  8
1
  6
Continuous
100
AcDbLine
 10
37.79999999999999
 20
152.2119129999999
 30
0.0
 11
37.79999999999999
 21
139.0619129999997
 31
0.0
  0
LINE
  5
B3E0
330
B364
100
AcDbEntity
  8
1
  6
Continuous
100
AcDbLine
 10
29.0
 20
125.211913
 30
0.0
 11
29.6
 21
125.211913
 31
0.0
  0
LINE
  5
B3E1
330
B364
100
AcDbEntity
  8
1
  6
Continuous
100
AcDbLine
 10
29.0
 20
129.2119129999998
 30
0.0
 11
29.6
 21
129.2119129999998
 31
0.0
  0
LINE
  5
B3E2
330
B364
100
AcDbEntity
  8
1
  6
Continuous
100
AcDbLine
 10
101.87667
 20
124.355342
 30
0.0
 11
101.87667
 21
120.6735939999998
 31
0.0
  0
LINE
  5
B3E3
330
B364
100
AcDbEntity
  8
1
  6
Continuous
100
AcDbLine
 10
101.87667
 20
133.9107089999999
 30
0.0
 11
101.87667
 21
130.068485
 31
0.0
  0
LINE
  5
B3E4
330
B364
100
AcDbEntity
  8
4
  6
CENTER
100
AcDbLine
 10
99.07667
 20
133.433694
 30
0.0
 11
99.07667
 21
121.5787139999999
 31
0.0
  0
LINE
  5
B3E5
330
B364
100
AcDbEntity
  8
1
  6
Continuous
100
AcDbLine
 10
97.07667
 20
135.2119129999999
 30
0.0
 11
96.07666999999999
 21
134.2119129999999
 31
0.0
  0
LINE
  5
B3E6
330
B364
100
AcDbEntity
  8
1
  6
Continuous
100
AcDbLine
 10
96.07666999999999
 20
134.2119129999999
 30
0.0
 11
96.07666999999999
 21
129.0146889999997
 31
0.0
  0
LINE
  5
B3E7
330
B364
100
AcDbEntity
  8
1
  6
Continuous
100
AcDbLine
 10
96.07666999999999
 20
125.4091379999999
 30
0.0
 11
96.07666999999999
 21
120.211913
 31
0.0
  0
LINE
  5
B3E8
330
B364
100
AcDbEntity
  8
1
  6
Continuous
100
AcDbLine
 10
97.07667
 20
119.211913
 30
0.0
 11
96.07666999999999
 21
120.211913
 31
0.0
  0
LINE
  5
B3E9
330
B364
100
AcDbEntity
  8
4
  6
CENTER
100
AcDbLine
 10
99.07666999999996
 20
51.63379499999999
 30
0.0
 11
99.07666999999996
 21
39.01938599999997
 31
0.0
  0
LINE
  5
B3EA
330
B364
100
AcDbEntity
  8
1
  6
Continuous
100
AcDbLine
 10
96.07666999999997
 20
47.99999999999999
 30
0.0
 11
96.07666999999997
 21
42.99999999999999
 31
0.0
  0
ARC
  5
B3EB
330
B364
100
AcDbEntity
  8
1
  6
Continuous
100
AcDbCircle
 10
114.8266699999998
 20
116.1119129999999
 30
0.0
 40
0.75
100
AcDbArc
 50
270.0
 51
0.0
  0
ARC
  5
B3EC
330
B364
100
AcDbEntity
  8
1
  6
Continuous
100
AcDbCircle
 10
114.8266699999998
 20
138.3119129999998
 30
0.0
 40
0.75
100
AcDbArc
 50
0.0
 51
90.0
  0
LINE
  5
B3ED
330
B364
100
AcDbEntity
  8
1
  6
Continuous
100
AcDbLine
 10
112.37667
 20
115.7119129999999
 30
0.0
 11
102.7766699999999
 21
115.7119129999999
 31
0.0
  0
LINE
  5
B3EE
330
B364
100
AcDbEntity
  8
1
  6
Continuous
100
AcDbLine
 10
112.37667
 20
138.7119129999998
 30
0.0
 11
102.7766699999999
 21
138.7119129999998
 31
0.0
  0
LINE
  5
B3EF
330
B364
100
AcDbEntity
  8
1
  6
Continuous
100
AcDbLine
 10
112.37667
 20
117.211913
 30
0.0
 11
112.37667
 21
115.7119129999999
 31
0.0
  0
LINE
  5
B3F0
330
B364
100
AcDbEntity
  8
1
  6
Continuous
100
AcDbLine
 10
112.37667
 20
138.7119129999998
 30
0.0
 11
112.37667
 21
137.2119129999999
 31
0.0
  0
LINE
  5
B3F1
330
B364
100
AcDbEntity
  8
1
  6
Continuous
100
AcDbLine
 10
102.7766699999999
 20
117.211913
 30
0.0
 11
102.7766699999999
 21
115.7119129999999
 31
0.0
  0
LINE
  5
B3F2
330
B364
100
AcDbEntity
  8
1
  6
Continuous
100
AcDbLine
 10
102.7766699999999
 20
138.7119129999998
 30
0.0
 11
102.7766699999999
 21
137.2119129999999
 31
0.0
  0
LINE
  5
B3F3
330
B364
100
AcDbEntity
  8
1
  6
Continuous
100
AcDbLine
 10
102.5766699999998
 20
115.3619129999998
 30
0.0
 11
114.8266699999998
 21
115.3619129999998
 31
0.0
  0
LINE
  5
B3F4
330
B364
100
AcDbEntity
  8
1
  6
Continuous
100
AcDbLine
 10
27.0
 20
115.3619129999998
 30
0.0
 11
37.79999999999999
 21
115.3619129999998
 31
0.0
  0
LINE
  5
B3F5
330
B364
100
AcDbEntity
  8
1
  6
Continuous
100
AcDbLine
 10
102.5766699999998
 20
139.0619129999997
 30
0.0
 11
114.8266699999998
 21
139.0619129999997
 31
0.0
  0
LINE
  5
B3F6
330
B364
100
AcDbEntity
  8
1
  6
Continuous
100
AcDbLine
 10
27.0
 20
139.0619129999997
 30
0.0
 11
37.79999999999999
 21
139.0619129999997
 31
0.0
  0
LINE
  5
B3F7
330
B364
100
AcDbEntity
  8
1
  6
Continuous
100
AcDbLine
 10
27.2
 20
115.7119129999999
 30
0.0
 11
36.79999999999999
 21
115.7119129999999
 31
0.0
  0
LINE
  5
B3F8
330
B364
100
AcDbEntity
  8
1
  6
Continuous
100
AcDbLine
 10
27.2
 20
138.7119129999998
 30
0.0
 11
36.79999999999999
 21
138.7119129999998
 31
0.0
  0
LINE
  5
B3F9
330
B364
100
AcDbEntity
  8
1
  6
Continuous
100
AcDbLine
 10
36.79999999999999
 20
117.211913
 30
0.0
 11
36.79999999999999
 21
115.7119129999999
 31
0.0
  0
LINE
  5
B3FA
330
B364
100
AcDbEntity
  8
1
  6
Continuous
100
AcDbLine
 10
36.79999999999999
 20
138.7119129999998
 30
0.0
 11
36.79999999999999
 21
137.2119129999999
 31
0.0
  0
ARC
  5
B3FB
330
B364
100
AcDbEntity
  8
1
  6
Continuous
100
AcDbCircle
 10
107.5766699999998
 20
47.99999999999999
 30
0.0
 40
4.799999999999998
100
AcDbArc
 50
321.317813
 51
33.55731
  0
CIRCLE
  5
B3FC
330
B364
100
AcDbEntity
  8
1
  6
Continuous
100
AcDbCircle
 10
99.07667
 20
127.2119129999999
 30
0.0
 40
3.5
  0
LINE
  5
B3FD
330
B364
100
AcDbEntity
  8
1
  6
Continuous
100
AcDbLine
 10
102.5766699999998
 20
49.19999999999999
 30
0.0
 11
102.5766699999998
 21
47.99999999999999
 31
0.0
  0
LINE
  5
B3FE
330
B364
100
AcDbEntity
  8
1
  6
Continuous
100
AcDbLine
 10
95.57666999999996
 20
49.19999999999999
 30
0.0
 11
95.57666999999996
 21
47.99999999999999
 31
0.0
  0
LINE
  5
B3FF
330
B364
100
AcDbEntity
  8
1
  6
Continuous
100
AcDbLine
 10
102.5766699999998
 20
49.19999999999999
 30
0.0
 11
95.57666999999996
 21
49.19999999999999
 31
0.0
  0
LINE
  5
B400
330
B364
100
AcDbEntity
  8
1
  6
Continuous
100
AcDbLine
 10
32.0
 20
123.7119129999999
 30
0.0
 11
33.2
 21
123.7119129999999
 31
0.0
  0
LINE
  5
B401
330
B364
100
AcDbEntity
  8
1
  6
Continuous
100
AcDbLine
 10
32.0
 20
130.7119129999998
 30
0.0
 11
33.2
 21
130.7119129999998
 31
0.0
  0
LINE
  5
B402
330
B364
100
AcDbEntity
  8
1
  6
Continuous
100
AcDbLine
 10
33.2
 20
130.7119129999998
 30
0.0
 11
33.2
 21
123.7119129999999
 31
0.0
  0
LINE
  5
B403
330
B364
100
AcDbEntity
  8
1
  6
Continuous
100
AcDbLine
 10
34.0
 20
129.0869129999999
 30
0.0
 11
34.0
 21
125.336913
 31
0.0
  0
LINE
  5
B404
330
B364
100
AcDbEntity
  8
1
  6
Continuous
100
AcDbLine
 10
100.9516699999998
 20
50.0
 30
0.0
 11
97.20166999999996
 21
50.0
 31
0.0
  0
ARC
  5
B405
330
B364
100
AcDbEntity
  8
1
  6
Continuous
100
AcDbCircle
 10
100.9516699999998
 20
49.59999999999999
 30
0.0
 40
0.4
100
AcDbArc
 50
270.0
 51
90.0
  0
ARC
  5
B406
330
B364
100
AcDbEntity
  8
1
  6
Continuous
100
AcDbCircle
 10
97.20166999999996
 20
49.59999999999999
 30
0.0
 40
0.4
100
AcDbArc
 50
90.0
 51
270.0
  0
CIRCLE
  5
B407
330
B364
100
AcDbEntity
  8
1
  6
Continuous
100
AcDbCircle
 10
99.07667
 20
127.2119129999999
 30
0.0
 40
2.274999999999999
  0
ARC
  5
B408
330
B364
100
AcDbEntity
  8
1
  6
Continuous
100
AcDbCircle
 10
33.6
 20
125.336913
 30
0.0
 40
0.4
100
AcDbArc
 50
180.0
 51
0.0
  0
ARC
  5
B409
330
B364
100
AcDbEntity
  8
1
  6
Continuous
100
AcDbCircle
 10
33.6
 20
129.0869129999999
 30
0.0
 40
0.4
100
AcDbArc
 50
0.0
 51
180.0
  0
CIRCLE
  5
B40A
330
B364
100
AcDbEntity
  8
1
  6
Continuous
100
AcDbCircle
 10
121.0766699999998
 20
147.2119129999998
 30
0.0
 40
2.149999999999999
  0
CIRCLE
  5
B40B
330
B364
100
AcDbEntity
  8
1
  6
Continuous
100
AcDbCircle
 10
121.0766699999998
 20
107.2119129999999
 30
0.0
 40
2.149999999999999
  0
CIRCLE
  5
B40C
330
B364
100
AcDbEntity
  8
1
  6
Continuous
100
AcDbCircle
 10
94.57666999999998
 20
107.2119129999999
 30
0.0
 40
2.149999999999999
  0
CIRCLE
  5
B40D
330
B364
100
AcDbEntity
  8
1
  6
Continuous
100
AcDbCircle
 10
91.57667
 20
127.2119129999999
 30
0.0
 40
2.149999999999999
  0
CIRCLE
  5
B40E
330
B364
100
AcDbEntity
  8
1
  6
Continuous
100
AcDbCircle
 10
94.57666999999998
 20
147.2119129999998
 30
0.0
 40
2.149999999999999
  0
LINE
  5
B40F
330
B364
100
AcDbEntity
  8
4
  6
CENTER
100
AcDbLine
 10
117.4266699999999
 20
107.2119129999999
 30
0.0
 11
124.7266699999999
 21
107.2119129999999
 31
0.0
  0
LINE
  5
B410
330
B364
100
AcDbEntity
  8
4
  6
CENTER
100
AcDbLine
 10
117.4266699999999
 20
147.2119129999998
 30
0.0
 11
124.7266699999999
 21
147.2119129999998
 31
0.0
  0
LINE
  5
B411
330
B364
100
AcDbEntity
  8
4
  6
CENTER
100
AcDbLine
 10
90.92667
 20
147.2119129999998
 30
0.0
 11
98.22667000000002
 21
147.2119129999998
 31
0.0
  0
LINE
  5
B412
330
B364
100
AcDbEntity
  8
4
  6
CENTER
100
AcDbLine
 10
94.57666999999998
 20
150.8619129999999
 30
0.0
 11
94.57666999999998
 21
143.5619129999998
 31
0.0
  0
LINE
  5
B413
330
B364
100
AcDbEntity
  8
4
  6
CENTER
100
AcDbLine
 10
91.57667
 20
130.8619129999998
 30
0.0
 11
91.57667
 21
123.5619129999999
 31
0.0
  0
LINE
  5
B414
330
B364
100
AcDbEntity
  8
4
  6
CENTER
100
AcDbLine
 10
90.92667
 20
107.2119129999999
 30
0.0
 11
98.22667000000002
 21
107.2119129999999
 31
0.0
  0
LINE
  5
B415
330
B364
100
AcDbEntity
  8
4
  6
CENTER
100
AcDbLine
 10
94.57666999999998
 20
110.8619129999999
 30
0.0
 11
94.57666999999998
 21
103.561913
 31
0.0
  0
LINE
  5
B416
330
B364
100
AcDbEntity
  8
4
  6
CENTER
100
AcDbLine
 10
105.2548089999999
 20
127.2119129999999
 30
0.0
 11
87.92666999999999
 21
127.2119129999999
 31
0.0
  0
LINE
  5
B417
330
B364
100
AcDbEntity
  8
1
  6
Continuous
100
AcDbLine
 10
115.57667
 20
102.2119129999999
 30
0.0
 11
115.57667
 21
152.2119129999999
 31
0.0
  0
LINE
  5
B418
330
B364
100
AcDbEntity
  8
1
  6
Continuous
100
AcDbLine
 10
27.0
 20
102.2119129999999
 30
0.0
 11
27.0
 21
152.2119129999999
 31
0.0
  0
LINE
  5
B419
330
B364
100
AcDbEntity
  8
1
  6
Continuous
100
AcDbLine
 10
114.6302549999998
 20
44.223618
 30
0.0
 11
115.5766699999999
 21
42.99999999999999
 31
0.0
  0
LINE
  5
B41A
330
B364
100
AcDbEntity
  8
1
  6
Continuous
100
AcDbLine
 10
113.0482429999999
 20
42.99999999999999
 30
0.0
 11
113.9946589999999
 21
41.77638199999997
 31
0.0
  0
LINE
  5
B41B
330
B364
100
AcDbEntity
  8
1
  6
Continuous
100
AcDbLine
 10
125.326646
 20
121.6594809999999
 30
0.0
 11
125.326646
 21
123.225706
 31
0.0
  0
LINE
  5
B41C
330
B364
100
AcDbEntity
  8
1
  6
Continuous
100
AcDbLine
 10
125.326646
 20
124.126533
 30
0.0
 11
125.326646
 21
124.90972
 31
0.0
  0
LINE
  5
B41D
330
B364
100
AcDbEntity
  8
1
  6
Continuous
100
AcDbLine
 10
125.326646
 20
132.108652
 30
0.0
 11
125.326646
 21
132.8918389999998
 31
0.0
  0
LINE
  5
B41E
330
B364
100
AcDbEntity
  8
1
  6
Continuous
100
AcDbLine
 10
124.057952
 20
123.225706
 30
0.0
 11
126.557958
 21
123.225706
 31
0.0
  0
LINE
  5
B41F
330
B364
100
AcDbEntity
  8
1
  6
Continuous
100
AcDbLine
 10
124.0766459999999
 20
118.962581
 30
0.0
 11
124.0766459999999
 21
120.9312999999998
 31
0.0
  0
LINE
  5
B420
330
B364
100
AcDbEntity
  8
1
  6
Continuous
100
AcDbLine
 10
124.0766459999999
 20
119.942587
 30
0.0
 11
126.576646
 21
119.942587
 31
0.0
  0
LINE
  5
B421
330
B364
100
AcDbEntity
  8
1
  6
Continuous
100
AcDbLine
 10
124.057952
 20
121.6594809999999
 30
0.0
 11
126.557958
 21
121.6594809999999
 31
0.0
  0
LINE
  5
B422
330
B364
100
AcDbEntity
  8
1
  6
Continuous
100
AcDbLine
 10
124.0766459999999
 20
126.011453
 30
0.0
 11
126.576646
 21
126.011453
 31
0.0
  0
LINE
  5
B423
330
B364
100
AcDbEntity
  8
1
  6
Continuous
100
AcDbLine
 10
124.0766519999999
 20
126.011453
 30
0.0
 11
124.3439579999999
 21
125.735578
 31
0.0
  0
LINE
  5
B424
330
B364
100
AcDbEntity
  8
1
  6
Continuous
100
AcDbLine
 10
124.0766459999999
 20
129.895824
 30
0.0
 11
125.417146
 21
129.895824
 31
0.0
  0
LINE
  5
B425
330
B364
100
AcDbEntity
  8
1
  6
Continuous
100
AcDbLine
 10
124.0766459999999
 20
129.886012
 30
0.0
 11
124.0766459999999
 21
131.1873239999999
 31
0.0
  0
LINE
  5
B426
330
B364
100
AcDbEntity
  8
1
  6
Continuous
100
AcDbLine
 10
126.576646
 20
127.286935
 30
0.0
 11
125.2102459999999
 21
128.593828
 31
0.0
  0
LINE
  5
B427
330
B364
100
AcDbEntity
  8
1
  6
Continuous
100
AcDbLine
 10
126.576646
 20
127.286935
 30
0.0
 11
126.576646
 21
128.7708719999999
 31
0.0
  0
ARC
  5
B428
330
B364
100
AcDbEntity
  8
1
  6
Continuous
100
AcDbCircle
 10
125.803021
 20
130.775699
 30
0.0
 40
0.893956
100
AcDbArc
 50
279.307
 51
310.0559999999999
  0
ARC
  5
B429
330
B364
100
AcDbEntity
  8
1
  6
Continuous
100
AcDbCircle
 10
125.803021
 20
130.307762
 30
0.0
 40
0.893956
100
AcDbArc
 50
49.94399999999998
 51
130.0559
  0
ARC
  5
B42A
330
B364
100
AcDbEntity
  8
1
  6
Continuous
100
AcDbCircle
 10
125.999708
 20
130.541762
 30
0.0
 40
0.588298
100
AcDbArc
 50
310.0559999999999
 51
49.94399999999998
  0
ARC
  5
B42B
330
B364
100
AcDbEntity
  8
1
  6
Continuous
100
AcDbCircle
 10
125.6062709999998
 20
130.541762
 30
0.0
 40
0.588298
100
AcDbArc
 50
130.0559
 51
180.101
  0
ARC
  5
B42C
330
B364
100
AcDbEntity
  8
1
  6
Continuous
100
AcDbCircle
 10
125.9667709999998
 20
130.5406989999999
 30
0.0
 40
0.9496439999999999
100
AcDbArc
 50
180.0
 51
211.8449999999999
  0
ARC
  5
B42D
330
B364
100
AcDbEntity
  8
1
  6
Continuous
100
AcDbCircle
 10
125.417146
 20
130.1993239999999
 30
0.0
 40
0.302606
100
AcDbArc
 50
211.8449999999999
 51
270.0
  0
ARC
  5
B42E
330
B364
100
AcDbEntity
  8
1
  6
Continuous
100
AcDbCircle
 10
124.858365
 20
128.028903
 30
0.0
 40
0.781719
100
AcDbArc
 50
137.1304
 51
222.8699999999999
  0
ARC
  5
B42F
330
B364
100
AcDbEntity
  8
1
  6
Continuous
100
AcDbCircle
 10
124.764146
 20
128.116366
 30
0.0
 40
0.6531630000000001
100
AcDbArc
 50
42.86999999999999
 51
137.1304
  0
ARC
  5
B430
330
B364
100
AcDbEntity
  8
1
  6
Continuous
100
AcDbCircle
 10
124.764146
 20
127.941441
 30
0.0
 40
0.6531630000000001
100
AcDbArc
 50
222.8699999999999
 51
294.2769999999999
  0
ARC
  5
B431
330
B364
100
AcDbEntity
  8
1
  6
Continuous
100
AcDbCircle
 10
124.8095929999998
 20
127.2119129999999
 30
0.0
 40
5.732929999999998
100
AcDbArc
 50
144.462
 51
215.5377
  0
ARC
  5
B432
330
B364
100
AcDbEntity
  8
1
  6
Continuous
100
AcDbCircle
 10
117.3437469999998
 20
127.2119129999999
 30
0.0
 40
5.732929999999998
100
AcDbArc
 50
324.4619999999998
 51
35.53799999999999
  0
LINE
  5
B433
330
B364
100
AcDbEntity
  8
1
  6
Continuous
100
AcDbLine
 10
119.52621
 20
127.4347609999999
 30
0.0
 11
122.62713
 21
127.4347609999999
 31
0.0
  0
LINE
  5
B434
330
B364
100
AcDbEntity
  8
1
  6
Continuous
100
AcDbLine
 10
119.613725
 20
127.878652
 30
0.0
 11
122.5396149999999
 21
127.878652
 31
0.0
  0
LINE
  5
B435
330
B364
100
AcDbEntity
  8
1
  6
Continuous
100
AcDbLine
 10
122.3312029999999
 20
128.3234449999999
 30
0.0
 11
121.076219
 21
128.3234449999999
 31
0.0
  0
LINE
  5
B436
330
B364
100
AcDbEntity
  8
1
  6
Continuous
100
AcDbLine
 10
119.9222829999999
 20
125.6564909999999
 30
0.0
 11
122.231057
 21
125.6564909999999
 31
0.0
  0
LINE
  5
B437
330
B364
100
AcDbEntity
  8
1
  6
Continuous
100
AcDbLine
 10
122.4584149999998
 20
126.101284
 30
0.0
 11
121.609429
 21
126.101284
 31
0.0
  0
LINE
  5
B438
330
B364
100
AcDbEntity
  8
1
  6
Continuous
100
AcDbLine
 10
119.563201
 20
126.546077
 30
0.0
 11
122.5901389999998
 21
126.546077
 31
0.0
  0
LINE
  5
B439
330
B364
100
AcDbEntity
  8
1
  6
Continuous
100
AcDbLine
 10
119.52621
 20
126.9899679999999
 30
0.0
 11
122.62713
 21
126.9899679999999
 31
0.0
  0
LINE
  5
B43A
330
B364
100
AcDbEntity
  8
1
  6
Continuous
100
AcDbLine
 10
119.61553
 20
128.767335
 30
0.0
 11
122.397967
 21
128.767335
 31
0.0
  0
ARC
  5
B43B
330
B364
100
AcDbEntity
  8
1
  6
Continuous
100
AcDbCircle
 10
122.3312029999999
 20
128.1014989999998
 30
0.0
 40
0.222261
100
AcDbArc
 50
10.10399999999999
 51
90.0
  0
ARC
  5
B43C
330
B364
100
AcDbEntity
  8
1
  6
Continuous
100
AcDbCircle
 10
122.5396149999999
 20
127.9237629999998
 30
0.0
 40
0.044452
100
AcDbArc
 50
270.0
 51
7.792999999999999
  0
ARC
  5
B43D
330
B364
100
AcDbEntity
  8
1
  6
Continuous
100
AcDbCircle
 10
117.3437469999998
 20
127.2119129999999
 30
0.0
 40
5.288524999999999
100
AcDbArc
 50
7.792999999999999
 51
10.10399999999999
  0
ARC
  5
B43E
330
B364
100
AcDbEntity
  8
1
  6
Continuous
100
AcDbCircle
 10
122.231057
 20
125.8793389999999
 30
0.0
 40
0.222261
100
AcDbArc
 50
270.0
 51
344.7419999999998
  0
ARC
  5
B43F
330
B364
100
AcDbEntity
  8
1
  6
Continuous
100
AcDbCircle
 10
117.3437469999998
 20
127.2119129999999
 30
0.0
 40
5.288524999999999
100
AcDbArc
 50
344.7419999999998
 51
344.794
  0
ARC
  5
B440
330
B364
100
AcDbEntity
  8
1
  6
Continuous
100
AcDbCircle
 10
117.3437469999998
 20
127.2119129999999
 30
0.0
 40
5.288524999999999
100
AcDbArc
 50
344.794
 51
347.2709999999998
  0
ARC
  5
B441
330
B364
100
AcDbEntity
  8
1
  6
Continuous
100
AcDbCircle
 10
122.4584149999998
 20
126.057076
 30
0.0
 40
0.044452
100
AcDbArc
 50
347.2709999999998
 51
90.0
  0
LINE
  5
B442
330
B364
100
AcDbEntity
  8
1
  6
Continuous
100
AcDbLine
 10
120.543009
 20
128.3234449999999
 30
0.0
 11
119.822137
 21
128.3234449999999
 31
0.0
  0
LINE
  5
B443
330
B364
100
AcDbEntity
  8
1
  6
Continuous
100
AcDbLine
 10
121.076219
 20
128.3234449999999
 30
0.0
 11
121.076219
 21
128.1014989999998
 31
0.0
  0
ARC
  5
B444
330
B364
100
AcDbEntity
  8
1
  6
Continuous
100
AcDbCircle
 10
119.822137
 20
128.1014989999998
 30
0.0
 40
0.222261
100
AcDbArc
 50
90.0
 51
169.896
  0
ARC
  5
B445
330
B364
100
AcDbEntity
  8
1
  6
Continuous
100
AcDbCircle
 10
124.8095929999998
 20
127.2119129999999
 30
0.0
 40
5.288524999999999
100
AcDbArc
 50
169.896
 51
172.2069999999999
  0
ARC
  5
B446
330
B364
100
AcDbEntity
  8
1
  6
Continuous
100
AcDbCircle
 10
119.613725
 20
127.9237629999998
 30
0.0
 40
0.044452
100
AcDbArc
 50
172.2069999999999
 51
270.0
  0
LINE
  5
B447
330
B364
100
AcDbEntity
  8
1
  6
Continuous
100
AcDbLine
 10
120.543009
 20
126.101284
 30
0.0
 11
119.694925
 21
126.101284
 31
0.0
  0
LINE
  5
B448
330
B364
100
AcDbEntity
  8
1
  6
Continuous
100
AcDbLine
 10
121.076219
 20
126.9899679999999
 30
0.0
 11
121.076219
 21
126.546077
 31
0.0
  0
ARC
  5
B449
330
B364
100
AcDbEntity
  8
1
  6
Continuous
100
AcDbCircle
 10
119.694925
 20
126.057076
 30
0.0
 40
0.044452
100
AcDbArc
 50
90.0
 51
192.7289
  0
ARC
  5
B44A
330
B364
100
AcDbEntity
  8
1
  6
Continuous
100
AcDbCircle
 10
124.8095929999998
 20
127.2119129999999
 30
0.0
 40
5.288524999999999
100
AcDbArc
 50
192.7289
 51
193.2680999999999
  0
ARC
  5
B44B
330
B364
100
AcDbEntity
  8
1
  6
Continuous
100
AcDbCircle
 10
124.8095929999998
 20
127.2119129999999
 30
0.0
 40
5.288524999999999
100
AcDbArc
 50
193.2680999999999
 51
195.2574999999999
  0
ARC
  5
B44C
330
B364
100
AcDbEntity
  8
1
  6
Continuous
100
AcDbCircle
 10
119.9222829999999
 20
125.8793389999999
 30
0.0
 40
0.222261
100
AcDbArc
 50
195.2574999999999
 51
270.0
  0
LINE
  5
B44D
330
B364
100
AcDbEntity
  8
1
  6
Continuous
100
AcDbLine
 10
119.8248439999999
 20
129.212128
 30
0.0
 11
120.854274
 21
129.212128
 31
0.0
  0
LINE
  5
B44E
330
B364
100
AcDbEntity
  8
1
  6
Continuous
100
AcDbLine
 10
120.854274
 20
129.6569209999999
 30
0.0
 11
119.9051409999998
 21
129.6569209999999
 31
0.0
  0
LINE
  5
B44F
330
B364
100
AcDbEntity
  8
1
  6
Continuous
100
AcDbLine
 10
121.076219
 20
129.434074
 30
0.0
 11
122.1426389999999
 21
129.434074
 31
0.0
  0
LINE
  5
B450
330
B364
100
AcDbEntity
  8
1
  6
Continuous
100
AcDbLine
 10
121.9080629999998
 20
129.882476
 30
0.0
 11
120.03506
 21
130.3850109999999
 31
0.0
  0
LINE
  5
B451
330
B364
100
AcDbEntity
  8
1
  6
Continuous
100
AcDbLine
 10
121.076219
 20
131.0237799999999
 30
0.0
 11
121.076219
 21
130.1053229999999
 31
0.0
  0
ARC
  5
B452
330
B364
100
AcDbEntity
  8
1
  6
Continuous
100
AcDbCircle
 10
120.854274
 20
129.434074
 30
0.0
 40
0.222261
100
AcDbArc
 50
270.0
 51
90.0
  0
ARC
  5
B453
330
B364
100
AcDbEntity
  8
1
  6
Continuous
100
AcDbCircle
 10
121.076219
 20
129.8788669999999
 30
0.0
 40
1.145318999999998
100
AcDbArc
 50
62.24999999999999
 51
144.462
  0
ARC
  5
B454
330
B364
100
AcDbEntity
  8
1
  6
Continuous
100
AcDbCircle
 10
121.076219
 20
129.8788669999999
 30
0.0
 40
1.145318999999998
100
AcDbArc
 50
35.53799999999999
 51
45.69899999999999
  0
LINE
  5
B455
330
B364
100
AcDbEntity
  8
1
  6
Continuous
100
AcDbLine
 10
119.980025
 20
125.212601
 30
0.0
 11
122.1724129999999
 21
125.212601
 31
0.0
  0
ARC
  5
B456
330
B364
100
AcDbEntity
  8
1
  6
Continuous
100
AcDbCircle
 10
117.3437469999998
 20
127.2119129999999
 30
0.0
 40
5.288524999999999
100
AcDbArc
 50
333.9859999999998
 51
337.0559999999999
  0
ARC
  5
B457
330
B364
100
AcDbEntity
  8
1
  6
Continuous
100
AcDbCircle
 10
122.1724129999999
 20
125.168392
 30
0.0
 40
0.044452
100
AcDbArc
 50
337.0559999999999
 51
90.0
  0
LINE
  5
B458
330
B364
100
AcDbEntity
  8
1
  6
Continuous
100
AcDbLine
 10
119.8573239999999
 20
124.323917
 30
0.0
 11
121.773633
 21
124.323917
 31
0.0
  0
LINE
  5
B459
330
B364
100
AcDbEntity
  8
1
  6
Continuous
100
AcDbLine
 10
121.896334
 20
124.767808
 30
0.0
 11
120.2570059999999
 21
124.767808
 31
0.0
  0
ARC
  5
B45A
330
B364
100
AcDbEntity
  8
1
  6
Continuous
100
AcDbCircle
 10
121.076219
 20
124.545862
 30
0.0
 40
1.145318999999998
100
AcDbArc
 50
215.5377
 51
256.5374
  0
ARC
  5
B45B
330
B364
100
AcDbEntity
  8
1
  6
Continuous
100
AcDbCircle
 10
121.076219
 20
124.545862
 30
0.0
 40
1.145318999999998
100
AcDbArc
 50
270.0
 51
324.4619999999998
  0
ARC
  5
B45C
330
B364
100
AcDbEntity
  8
1
  6
Continuous
100
AcDbCircle
 10
120.2570059999999
 20
124.990655
 30
0.0
 40
0.222261
100
AcDbArc
 50
206.0144
 51
270.0
  0
ARC
  5
B45D
330
B364
100
AcDbEntity
  8
1
  6
Continuous
100
AcDbCircle
 10
124.8095929999998
 20
127.2119129999999
 30
0.0
 40
5.288524999999999
100
AcDbArc
 50
202.944
 51
206.0144
  0
ARC
  5
B45E
330
B364
100
AcDbEntity
  8
1
  6
Continuous
100
AcDbCircle
 10
119.980025
 20
125.168392
 30
0.0
 40
0.044452
100
AcDbArc
 50
90.0
 51
202.944
  0
ARC
  5
B45F
330
B364
100
AcDbEntity
  8
1
  6
Continuous
100
AcDbCircle
 10
121.896334
 20
124.990655
 30
0.0
 40
0.222261
100
AcDbArc
 50
270.0
 51
333.9859999999998
  0
LINE
  5
B460
330
B364
100
AcDbEntity
  8
4
  6
CENTER
100
AcDbLine
 10
121.0766699999998
 20
143.5619129999998
 30
0.0
 11
121.0766699999998
 21
150.8619129999999
 31
0.0
  0
LINE
  5
B461
330
B364
100
AcDbEntity
  8
4
  6
CENTER
100
AcDbLine
 10
121.0766699999998
 20
103.561913
 30
0.0
 11
121.0766699999998
 21
110.8619129999999
 31
0.0
  0
ARC
  5
B462
330
B364
100
AcDbEntity
  8
1
  6
Continuous
100
AcDbCircle
 10
107.5766699999998
 20
47.99999999999999
 30
0.0
 40
5.0
100
AcDbArc
 50
323.130102
 51
36.869898
  0
ARC
  5
B463
330
B364
100
AcDbEntity
  8
1
  6
Continuous
100
AcDbCircle
 10
107.5766699999998
 20
47.99999999999999
 30
0.0
 40
3.0
100
AcDbArc
 50
48.189685
 51
311.810315
  0
LINE
  5
B464
330
B364
100
AcDbEntity
  8
1
  6
Continuous
100
AcDbLine
 10
107.5766699999998
 20
42.99999999999999
 30
0.0
 11
113.0482429999999
 21
42.99999999999999
 31
0.0
  0
LINE
  5
B465
330
B364
100
AcDbEntity
  8
1
  6
Continuous
100
AcDbLine
 10
107.5766699999998
 20
44.99999999999999
 30
0.0
 11
113.0482429999999
 21
44.99999999999999
 31
0.0
  0
ARC
  5
B466
330
B364
100
AcDbEntity
  8
1
  6
Continuous
100
AcDbCircle
 10
113.0482429999999
 20
42.99999999999999
 30
0.0
 40
2.0
100
AcDbArc
 50
37.72040599999999
 51
90.0
  0
ARC
  5
B467
330
B364
100
AcDbEntity
  8
1
  6
Continuous
100
AcDbCircle
 10
107.5766699999998
 20
49.27294299999998
 30
0.0
 40
4.527057
100
AcDbArc
 50
37.680228
 51
139.2363949999999
  0
ARC
  5
B468
330
B364
100
AcDbEntity
  8
1
  6
Continuous
100
AcDbCircle
 10
109.0532839999999
 20
47.99999999999999
 30
0.0
 40
6.476613999999997
100
AcDbArc
 50
139.2363949999999
 51
180.0
  0
ARC
  5
B469
330
B364
100
AcDbEntity
  8
1
  6
Continuous
100
AcDbCircle
 10
107.5766699999998
 20
47.99999999999999
 30
0.0
 40
5.0
100
AcDbArc
 50
180.0
 51
270.0
  0
ARC
  5
B46A
330
B364
100
AcDbEntity
  8
1
  6
Continuous
100
AcDbCircle
 10
107.5766699999998
 20
49.27294299999998
 30
0.0
 40
2.527057
100
AcDbArc
 50
37.680228
 51
139.2363949999999
  0
ARC
  5
B46B
330
B364
100
AcDbEntity
  8
1
  6
Continuous
100
AcDbCircle
 10
109.0532839999999
 20
47.99999999999999
 30
0.0
 40
4.476613999999997
100
AcDbArc
 50
139.2363949999999
 51
180.0
  0
ARC
  5
B46C
330
B364
100
AcDbEntity
  8
1
  6
Continuous
100
AcDbCircle
 10
109.5766699999998
 20
50.81761699999999
 30
0.0
 40
2.0
100
AcDbArc
 50
0.0
 51
37.680228
  0
LINE
  5
B46D
330
B364
100
AcDbEntity
  8
1
  6
Continuous
100
AcDbLine
 10
129.0766699999999
 20
213.423826
 30
0.0
 11
115.5766699999999
 21
213.423826
 31
0.0
  0
LINE
  5
B46E
330
B364
100
AcDbEntity
  8
1
  6
Continuous
100
AcDbLine
 10
129.0766699999999
 20
211.423826
 30
0.0
 11
115.5766699999999
 21
211.423826
 31
0.0
  0
LINE
  5
B46F
330
B364
100
AcDbEntity
  8
4
  6
CENTER
100
AcDbLine
 10
107.5766699999998
 20
197.2482359999999
 30
0.0
 11
107.5766699999998
 21
216.0460159999999
 31
0.0
  0
LINE
  5
B470
330
B364
100
AcDbEntity
  8
4
  6
CENTER
100
AcDbLine
 10
91.57666999999992
 20
209.51085
 30
0.0
 11
91.57666999999992
 21
215.40444
 31
0.0
  0
LINE
  5
B471
330
B364
100
AcDbEntity
  8
4
  6
CENTER
100
AcDbLine
 10
99.07666999999996
 20
202.790031
 30
0.0
 11
99.07666999999996
 21
215.40444
 31
0.0
  0
LINE
  5
B472
330
B364
100
AcDbEntity
  8
4
  6
CENTER
100
AcDbLine
 10
121.0766699999998
 20
209.51085
 30
0.0
 11
121.0766699999998
 21
215.40444
 31
0.0
  0
LINE
  5
B473
330
B364
100
AcDbEntity
  8
4
  6
CENTER
100
AcDbLine
 10
94.57666999999997
 20
209.51085
 30
0.0
 11
94.57666999999997
 21
215.40444
 31
0.0
  0
LINE
  5
B474
330
B364
100
AcDbEntity
  8
1
  6
Continuous
100
AcDbLine
 10
102.5766699999998
 20
205.223826
 30
0.0
 11
95.57666999999996
 21
205.223826
 31
0.0
  0
LINE
  5
B475
330
B364
100
AcDbEntity
  8
1
  6
Continuous
100
AcDbLine
 10
102.5766699999998
 20
209.023826
 30
0.0
 11
96.07666999999997
 21
209.023826
 31
0.0
  0
LINE
  5
B476
330
B364
100
AcDbEntity
  8
1
  6
Continuous
100
AcDbLine
 10
102.5766699999998
 20
206.4238259999999
 30
0.0
 11
95.57666999999996
 21
206.4238259999999
 31
0.0
  0
LINE
  5
B477
330
B364
100
AcDbEntity
  8
1
  6
Continuous
100
AcDbLine
 10
102.5766699999998
 20
207.423826
 30
0.0
 11
96.07666999999997
 21
207.423826
 31
0.0
  0
LINE
  5
B478
330
B364
100
AcDbEntity
  8
1
  6
Continuous
100
AcDbLine
 10
102.5766699999998
 20
208.4238259999999
 30
0.0
 11
96.07666999999997
 21
208.4238259999999
 31
0.0
  0
LINE
  5
B479
330
B364
100
AcDbEntity
  8
1
  6
Continuous
100
AcDbLine
 10
102.5766699999998
 20
209.423826
 30
0.0
 11
96.07666999999997
 21
209.423826
 31
0.0
  0
LINE
  5
B47A
330
B364
100
AcDbEntity
  8
1
  6
Continuous
100
AcDbLine
 10
102.5766699999998
 20
210.4238259999999
 30
0.0
 11
96.07666999999997
 21
210.4238259999999
 31
0.0
  0
LINE
  5
B47B
330
B364
100
AcDbEntity
  8
1
  6
Continuous
100
AcDbLine
 10
111.5766699999999
 20
213.423826
 30
0.0
 11
86.57666999999991
 21
213.423826
 31
0.0
  0
LINE
  5
B47C
330
B364
100
AcDbEntity
  8
1
  6
Continuous
100
AcDbLine
 10
102.5766699999998
 20
211.423826
 30
0.0
 11
86.57666999999991
 21
211.423826
 31
0.0
  0
LINE
  5
B47D
330
B364
100
AcDbEntity
  8
1
  6
Continuous
100
AcDbLine
 10
95.57666999999996
 20
205.223826
 30
0.0
 11
95.57666999999996
 21
206.4238259999999
 31
0.0
  0
LINE
  5
B47E
330
B364
100
AcDbEntity
  8
1
  6
Continuous
100
AcDbLine
 10
96.07666999999997
 20
206.4238259999999
 30
0.0
 11
96.07666999999997
 21
211.423826
 31
0.0
  0
LINE
  5
B47F
330
B364
100
AcDbEntity
  8
1
  6
Continuous
100
AcDbLine
 10
86.57666999999991
 20
211.423826
 30
0.0
 11
86.57666999999991
 21
213.423826
 31
0.0
  0
LINE
  5
B480
330
B364
100
AcDbEntity
  8
1
  6
Continuous
100
AcDbLine
 10
107.5766699999998
 20
209.423826
 30
0.0
 11
113.0482429999999
 21
209.423826
 31
0.0
  0
LINE
  5
B481
330
B364
100
AcDbEntity
  8
1
  6
Continuous
100
AcDbLine
 10
107.5766699999998
 20
211.423826
 30
0.0
 11
113.0482429999999
 21
211.423826
 31
0.0
  0
LINE
  5
B482
330
B364
100
AcDbEntity
  8
4
  6
CENTER
100
AcDbLine
 10
115.9240899999999
 20
206.4238259999999
 30
0.0
 11
99.32180299999997
 21
206.4238259999999
 31
0.0
  0
ARC
  5
B483
330
B364
100
AcDbEntity
  8
1
  6
Continuous
100
AcDbCircle
 10
109.5766699999998
 20
203.606209
 30
0.0
 40
2.0
100
AcDbArc
 50
322.3197719999999
 51
0.0
  0
ARC
  5
B484
330
B364
100
AcDbEntity
  8
1
  6
Continuous
100
AcDbCircle
 10
107.5766699999998
 20
205.1508829999999
 30
0.0
 40
4.527057
100
AcDbArc
 50
220.763605
 51
322.3197719999999
  0
LINE
  5
B485
330
B364
100
AcDbEntity
  8
1
  6
Continuous
100
AcDbLine
 10
111.5766699999999
 20
203.606209
 30
0.0
 11
111.5766699999999
 21
208.659894
 31
0.0
  0
ARC
  5
B486
330
B364
100
AcDbEntity
  8
1
  6
Continuous
100
AcDbCircle
 10
107.5766699999998
 20
205.1508829999999
 30
0.0
 40
2.527057
100
AcDbArc
 50
220.763605
 51
322.3197719999999
  0
LINE
  5
B487
330
B364
100
AcDbEntity
  8
1
  6
Continuous
100
AcDbLine
 10
109.5766699999998
 20
203.606209
 30
0.0
 11
109.5766699999998
 21
208.659894
 31
0.0
  0
ARC
  5
B488
330
B364
100
AcDbEntity
  8
1
  6
Continuous
100
AcDbCircle
 10
107.5766699999998
 20
206.4238259999999
 30
0.0
 40
3.0
100
AcDbArc
 50
48.189685
 51
311.810315
  0
ARC
  5
B489
330
B364
100
AcDbEntity
  8
1
  6
Continuous
100
AcDbCircle
 10
109.0532839999999
 20
206.4238259999999
 30
0.0
 40
4.476613999999997
100
AcDbArc
 50
180.0
 51
220.763605
  0
ARC
  5
B48A
330
B364
100
AcDbEntity
  8
1
  6
Continuous
100
AcDbCircle
 10
107.5766699999998
 20
206.4238259999999
 30
0.0
 40
5.0
100
AcDbArc
 50
323.130102
 51
36.869898
  0
ARC
  5
B48B
330
B364
100
AcDbEntity
  8
1
  6
Continuous
100
AcDbCircle
 10
107.5766699999998
 20
206.4238259999999
 30
0.0
 40
4.799999999999998
100
AcDbArc
 50
326.4426900000001
 51
38.68218699999999
  0
ARC
  5
B48C
330
B364
100
AcDbEntity
  8
1
  6
Continuous
100
AcDbCircle
 10
107.5766699999998
 20
206.4238259999999
 30
0.0
 40
5.0
100
AcDbArc
 50
90.0
 51
180.0
  0
ARC
  5
B48D
330
B364
100
AcDbEntity
  8
1
  6
Continuous
100
AcDbCircle
 10
109.0532839999999
 20
206.4238259999999
 30
0.0
 40
6.476613999999997
100
AcDbArc
 50
180.0
 51
220.763605
  0
LINE
  5
B48E
330
B364
100
AcDbEntity
  8
1
  6
Continuous
100
AcDbLine
 10
111.5766699999999
 20
211.423826
 30
0.0
 11
111.5766699999999
 21
213.423826
 31
0.0
  0
ARC
  5
B48F
330
B364
100
AcDbEntity
  8
1
  6
Continuous
100
AcDbCircle
 10
97.20166999999996
 20
204.823826
 30
0.0
 40
0.4
100
AcDbArc
 50
90.0
 51
270.0
  0
ARC
  5
B490
330
B364
100
AcDbEntity
  8
1
  6
Continuous
100
AcDbCircle
 10
100.9516699999998
 20
204.823826
 30
0.0
 40
0.4
100
AcDbArc
 50
270.0
 51
90.0
  0
LINE
  5
B491
330
B364
100
AcDbEntity
  8
1
  6
Continuous
100
AcDbLine
 10
100.9516699999998
 20
204.4238259999999
 30
0.0
 11
97.20166999999996
 21
204.4238259999999
 31
0.0
  0
LINE
  5
B492
330
B364
100
AcDbEntity
  8
1
  6
Continuous
100
AcDbLine
 10
102.5766699999998
 20
205.223826
 30
0.0
 11
102.5766699999998
 21
206.4238259999999
 31
0.0
  0
LINE
  5
B493
330
B364
100
AcDbEntity
  8
1
  6
Continuous
100
AcDbLine
 10
111.5766699999999
 20
208.659894
 30
0.0
 11
109.5766699999998
 21
208.659894
 31
0.0
  0
LINE
  5
B494
330
B364
100
AcDbEntity
  8
1
  6
Continuous
100
AcDbLine
 10
99.57666999999997
 20
211.423826
 30
0.0
 11
99.57666999999997
 21
213.423826
 31
0.0
  0
LINE
  5
B495
330
B364
100
AcDbEntity
  8
1
  6
Continuous
100
AcDbLine
 10
102.5766699999998
 20
206.4238259999999
 30
0.0
 11
102.5766699999998
 21
213.423826
 31
0.0
  0
ARC
  5
B496
330
B364
100
AcDbEntity
  8
1
  6
Continuous
100
AcDbCircle
 10
113.0482429999999
 20
211.423826
 30
0.0
 40
2.0
100
AcDbArc
 50
270.0
 51
322.2795939999999
  0
LINE
  5
B497
330
B364
100
AcDbEntity
  8
1
  6
Continuous
100
AcDbLine
 10
114.6302549999998
 20
210.200208
 30
0.0
 11
115.5766699999999
 21
211.423826
 31
0.0
  0
LINE
  5
B498
330
B364
100
AcDbEntity
  8
1
  6
Continuous
100
AcDbLine
 10
113.0482429999999
 20
211.423826
 30
0.0
 11
113.9946589999999
 21
212.6474439999999
 31
0.0
  0
ARC
  5
B499
330
B364
100
AcDbEntity
  8
1
  6
Continuous
100
AcDbCircle
 10
115.5766699999999
 20
211.423826
 30
0.0
 40
2.0
100
AcDbArc
 50
90.0
 51
142.2795849999999
  0
LINE
  5
B49A
330
B364
100
AcDbEntity
  8
1
  6
Continuous
100
AcDbLine
 10
129.0766699999999
 20
211.423826
 30
0.0
 11
129.0766699999999
 21
213.423826
 31
0.0
  0
LINE
  5
B49B
330
B364
100
AcDbEntity
  8
1
  6
Continuous
100
AcDbLine
 10
178.1533399999999
 20
137.2119129999999
 30
0.0
 11
178.1533399999999
 21
117.211913
 31
0.0
  0
LINE
  5
B49C
330
B364
100
AcDbEntity
  8
4
  6
CENTER
100
AcDbLine
 10
183.1533399999999
 20
154.080814
 30
0.0
 11
183.1533399999999
 21
99.41342
 31
0.0
  0
LINE
  5
B49D
330
B364
100
AcDbEntity
  8
1
  6
Continuous
100
AcDbLine
 10
188.15334
 20
102.2119129999999
 30
0.0
 11
188.15334
 21
152.2119129999999
 31
0.0
  0
LINE
  5
B49E
330
B364
100
AcDbEntity
  8
1
  6
Continuous
100
AcDbLine
 10
190.1533399999999
 20
152.2119129999999
 30
0.0
 11
190.1533399999999
 21
102.2119129999999
 31
0.0
  0
LINE
  5
B49F
330
B364
100
AcDbEntity
  8
1
  6
Continuous
100
AcDbLine
 10
190.1533399999999
 20
102.2119129999999
 30
0.0
 11
177.3533399999998
 21
102.2119129999999
 31
0.0
  0
LINE
  5
B4A0
330
B364
100
AcDbEntity
  8
1
  6
Continuous
100
AcDbLine
 10
188.15334
 20
115.3619129999998
 30
0.0
 11
177.3533399999998
 21
115.3619129999998
 31
0.0
  0
LINE
  5
B4A1
330
B364
100
AcDbEntity
  8
1
  6
Continuous
100
AcDbLine
 10
188.15334
 20
119.211913
 30
0.0
 11
178.1533399999999
 21
119.211913
 31
0.0
  0
LINE
  5
B4A2
330
B364
100
AcDbEntity
  8
1
  6
Continuous
100
AcDbLine
 10
187.9533399999999
 20
115.7119129999999
 30
0.0
 11
178.35334
 21
115.7119129999999
 31
0.0
  0
LINE
  5
B4A3
330
B364
100
AcDbEntity
  8
4
  6
CENTER
100
AcDbLine
 10
191.347349
 20
127.2119129999999
 30
0.0
 11
177.2819069999999
 21
127.2119129999999
 31
0.0
  0
LINE
  5
B4A4
330
B364
100
AcDbEntity
  8
1
  6
Continuous
100
AcDbLine
 10
188.15334
 20
117.211913
 30
0.0
 11
178.1533399999999
 21
117.211913
 31
0.0
  0
LINE
  5
B4A5
330
B364
100
AcDbEntity
  8
1
  6
Continuous
100
AcDbLine
 10
186.45334
 20
115.7119129999999
 30
0.0
 11
186.45334
 21
115.3619129999998
 31
0.0
  0
LINE
  5
B4A6
330
B364
100
AcDbEntity
  8
4
  6
CENTER
100
AcDbLine
 10
191.347349
 20
107.2119129999999
 30
0.0
 11
187.407701
 21
107.2119129999999
 31
0.0
  0
LINE
  5
B4A7
330
B364
100
AcDbEntity
  8
1
  6
Continuous
100
AcDbLine
 10
177.3533399999998
 20
115.3619129999998
 30
0.0
 11
177.3533399999998
 21
102.2119129999999
 31
0.0
  0
LINE
  5
B4A8
330
B364
100
AcDbEntity
  8
1
  6
Continuous
100
AcDbLine
 10
178.35334
 20
117.211913
 30
0.0
 11
178.35334
 21
115.7119129999999
 31
0.0
  0
LINE
  5
B4A9
330
B364
100
AcDbEntity
  8
1
  6
Continuous
100
AcDbLine
 10
180.45334
 20
115.7119129999999
 30
0.0
 11
180.45334
 21
115.3619129999998
 31
0.0
  0
LINE
  5
B4AA
330
B364
100
AcDbEntity
  8
1
  6
Continuous
100
AcDbLine
 10
188.15334
 20
139.0619129999997
 30
0.0
 11
177.3533399999998
 21
139.0619129999997
 31
0.0
  0
LINE
  5
B4AB
330
B364
100
AcDbEntity
  8
1
  6
Continuous
100
AcDbLine
 10
190.1533399999999
 20
152.2119129999999
 30
0.0
 11
177.3533399999998
 21
152.2119129999999
 31
0.0
  0
LINE
  5
B4AC
330
B364
100
AcDbEntity
  8
1
  6
Continuous
100
AcDbLine
 10
188.15334
 20
135.2119129999999
 30
0.0
 11
178.1533399999999
 21
135.2119129999999
 31
0.0
  0
LINE
  5
B4AD
330
B364
100
AcDbEntity
  8
1
  6
Continuous
100
AcDbLine
 10
187.9533399999999
 20
138.7119129999998
 30
0.0
 11
178.35334
 21
138.7119129999998
 31
0.0
  0
LINE
  5
B4AE
330
B364
100
AcDbEntity
  8
1
  6
Continuous
100
AcDbLine
 10
188.15334
 20
137.2119129999999
 30
0.0
 11
178.1533399999999
 21
137.2119129999999
 31
0.0
  0
LINE
  5
B4AF
330
B364
100
AcDbEntity
  8
1
  6
Continuous
100
AcDbLine
 10
186.45334
 20
139.0619129999997
 30
0.0
 11
186.45334
 21
138.7119129999998
 31
0.0
  0
LINE
  5
B4B0
330
B364
100
AcDbEntity
  8
4
  6
CENTER
100
AcDbLine
 10
191.347349
 20
147.2119129999998
 30
0.0
 11
187.407701
 21
147.2119129999998
 31
0.0
  0
LINE
  5
B4B1
330
B364
100
AcDbEntity
  8
1
  6
Continuous
100
AcDbLine
 10
177.3533399999998
 20
152.2119129999999
 30
0.0
 11
177.3533399999998
 21
139.0619129999997
 31
0.0
  0
LINE
  5
B4B2
330
B364
100
AcDbEntity
  8
1
  6
Continuous
100
AcDbLine
 10
178.35334
 20
138.7119129999998
 30
0.0
 11
178.35334
 21
137.2119129999999
 31
0.0
  0
LINE
  5
B4B3
330
B364
100
AcDbEntity
  8
1
  6
Continuous
100
AcDbLine
 10
180.45334
 20
139.0619129999997
 30
0.0
 11
180.45334
 21
138.7119129999998
 31
0.0
  0
ARC
  5
B4B4
330
B364
100
AcDbEntity
  8
1
  6
Continuous
100
AcDbCircle
 10
240.4300099999999
 20
150.2119129999998
 30
0.0
 40
2.0
100
AcDbArc
 50
90.0
 51
180.0
  0
ARC
  5
B4B5
330
B364
100
AcDbEntity
  8
1
  6
Continuous
100
AcDbCircle
 10
240.4300099999999
 20
104.2119129999999
 30
0.0
 40
2.0
100
AcDbArc
 50
180.0
 51
270.0
  0
LINE
  5
B4B6
330
B364
100
AcDbEntity
  8
1
  6
Continuous
100
AcDbLine
 10
254.9300099999999
 20
137.2119129999999
 30
0.0
 11
254.9300099999999
 21
117.211913
 31
0.0
  0
LINE
  5
B4B7
330
B364
100
AcDbEntity
  8
1
  6
Continuous
100
AcDbLine
 10
251.93001
 20
116.1119129999999
 30
0.0
 11
251.93001
 21
138.3119129999998
 31
0.0
  0
LINE
  5
B4B8
330
B364
100
AcDbEntity
  8
4
  6
CENTER
100
AcDbLine
 10
275.9300099999999
 20
130.8619129999998
 30
0.0
 11
275.9300099999999
 21
123.5619129999999
 31
0.0
  0
CIRCLE
  5
B4B9
330
B364
100
AcDbEntity
  8
1
  6
Continuous
100
AcDbCircle
 10
275.9300099999999
 20
127.2119129999999
 30
0.0
 40
2.149999999999999
  0
LINE
  5
B4BA
330
B364
100
AcDbEntity
  8
4
  6
CENTER
100
AcDbLine
 10
268.4300099999999
 20
133.433694
 30
0.0
 11
268.4300099999999
 21
121.5787139999999
 31
0.0
  0
LINE
  5
B4BB
330
B364
100
AcDbEntity
  8
4
  6
CENTER
100
AcDbLine
 10
259.9300099999999
 20
154.977822
 30
0.0
 11
259.9300099999999
 21
99.41342
 31
0.0
  0
LINE
  5
B4BC
330
B364
100
AcDbEntity
  8
1
  6
Continuous
100
AcDbLine
 10
280.9300099999999
 20
150.2119129999998
 30
0.0
 11
280.9300099999999
 21
104.2119129999999
 31
0.0
  0
LINE
  5
B4BD
330
B364
100
AcDbEntity
  8
4
  6
CENTER
100
AcDbLine
 10
262.251871
 20
127.2119129999999
 30
0.0
 11
279.58001
 21
127.2119129999999
 31
0.0
  0
LINE
  5
B4BE
330
B364
100
AcDbEntity
  8
4
  6
CENTER
100
AcDbLine
 10
276.58001
 20
107.2119129999999
 30
0.0
 11
269.2800099999999
 21
107.2119129999999
 31
0.0
  0
LINE
  5
B4BF
330
B364
100
AcDbEntity
  8
1
  6
Continuous
100
AcDbLine
 10
278.9300099999999
 20
102.2119129999999
 30
0.0
 11
268.93001
 21
102.2119129999999
 31
0.0
  0
LINE
  5
B4C0
330
B364
100
AcDbEntity
  8
4
  6
CENTER
100
AcDbLine
 10
272.9300099999999
 20
110.8619129999999
 30
0.0
 11
272.9300099999999
 21
103.561913
 31
0.0
  0
CIRCLE
  5
B4C1
330
B364
100
AcDbEntity
  8
1
  6
Continuous
100
AcDbCircle
 10
272.9300099999999
 20
107.2119129999999
 30
0.0
 40
2.149999999999999
  0
ARC
  5
B4C2
330
B364
100
AcDbEntity
  8
1
  6
Continuous
100
AcDbCircle
 10
278.9300099999999
 20
104.2119129999999
 30
0.0
 40
2.0
100
AcDbArc
 50
270.0
 51
0.0
  0
LINE
  5
B4C3
330
B364
100
AcDbEntity
  8
4
  6
CENTER
100
AcDbLine
 10
246.4300099999999
 20
103.561913
 30
0.0
 11
246.4300099999999
 21
110.8619129999999
 31
0.0
  0
CIRCLE
  5
B4C4
330
B364
100
AcDbEntity
  8
1
  6
Continuous
100
AcDbCircle
 10
246.4300099999999
 20
107.2119129999999
 30
0.0
 40
2.149999999999999
  0
LINE
  5
B4C5
330
B364
100
AcDbEntity
  8
1
  6
Continuous
100
AcDbLine
 10
264.93001
 20
115.3619129999998
 30
0.0
 11
264.93001
 21
102.2119129999999
 31
0.0
  0
LINE
  5
B4C6
330
B364
100
AcDbEntity
  8
1
  6
Continuous
100
AcDbLine
 10
267.9300099999999
 20
119.211913
 30
0.0
 11
267.9300099999999
 21
103.2119129999999
 31
0.0
  0
LINE
  5
B4C7
330
B364
100
AcDbEntity
  8
1
  6
Continuous
100
AcDbLine
 10
264.93001
 20
102.2119129999999
 30
0.0
 11
240.4300099999999
 21
102.2119129999999
 31
0.0
  0
ARC
  5
B4C8
330
B364
100
AcDbEntity
  8
1
  6
Continuous
100
AcDbCircle
 10
268.93001
 20
103.2119129999999
 30
0.0
 40
1.0
100
AcDbArc
 50
180.0
 51
270.0
  0
LINE
  5
B4C9
330
B364
100
AcDbEntity
  8
1
  6
Continuous
100
AcDbLine
 10
264.93001
 20
115.3619129999998
 30
0.0
 11
252.6800099999999
 21
115.3619129999998
 31
0.0
  0
LINE
  5
B4CA
330
B364
100
AcDbEntity
  8
1
  6
Continuous
100
AcDbLine
 10
264.7300099999998
 20
117.211913
 30
0.0
 11
264.7300099999998
 21
115.7119129999999
 31
0.0
  0
LINE
  5
B4CB
330
B364
100
AcDbEntity
  8
1
  6
Continuous
100
AcDbLine
 10
255.13001
 20
117.211913
 30
0.0
 11
255.13001
 21
115.7119129999999
 31
0.0
  0
LINE
  5
B4CC
330
B364
100
AcDbEntity
  8
1
  6
Continuous
100
AcDbLine
 10
255.13001
 20
115.7119129999999
 30
0.0
 11
264.7300099999998
 21
115.7119129999999
 31
0.0
  0
LINE
  5
B4CD
330
B364
100
AcDbEntity
  8
1
  6
Continuous
100
AcDbLine
 10
262.93001
 20
115.3619129999998
 30
0.0
 11
262.93001
 21
115.7119129999999
 31
0.0
  0
LINE
  5
B4CE
330
B364
100
AcDbEntity
  8
1
  6
Continuous
100
AcDbLine
 10
257.9300099999999
 20
115.3619129999998
 30
0.0
 11
257.9300099999999
 21
115.7119129999999
 31
0.0
  0
LINE
  5
B4CF
330
B364
100
AcDbEntity
  8
1
  6
Continuous
100
AcDbLine
 10
264.93001
 20
119.211913
 30
0.0
 11
264.93001
 21
117.211913
 31
0.0
  0
LINE
  5
B4D0
330
B364
100
AcDbEntity
  8
1
  6
Continuous
100
AcDbLine
 10
254.9300099999999
 20
117.211913
 30
0.0
 11
264.93001
 21
117.211913
 31
0.0
  0
LINE
  5
B4D1
330
B364
100
AcDbEntity
  8
4
  6
CENTER
100
AcDbLine
 10
250.0800099999999
 20
107.2119129999999
 30
0.0
 11
242.78001
 21
107.2119129999999
 31
0.0
  0
ARC
  5
B4D2
330
B364
100
AcDbEntity
  8
1
  6
Continuous
100
AcDbCircle
 10
252.6800099999999
 20
116.1119129999999
 30
0.0
 40
0.75
100
AcDbArc
 50
180.0
 51
270.0
  0
LINE
  5
B4D3
330
B364
100
AcDbEntity
  8
4
  6
CENTER
100
AcDbLine
 10
276.58001
 20
147.2119129999998
 30
0.0
 11
269.2800099999999
 21
147.2119129999998
 31
0.0
  0
LINE
  5
B4D4
330
B364
100
AcDbEntity
  8
1
  6
Continuous
100
AcDbLine
 10
278.9300099999999
 20
152.2119129999999
 30
0.0
 11
268.93001
 21
152.2119129999999
 31
0.0
  0
LINE
  5
B4D5
330
B364
100
AcDbEntity
  8
4
  6
CENTER
100
AcDbLine
 10
272.9300099999999
 20
150.8619129999999
 30
0.0
 11
272.9300099999999
 21
143.5619129999998
 31
0.0
  0
ARC
  5
B4D6
330
B364
100
AcDbEntity
  8
1
  6
Continuous
100
AcDbCircle
 10
278.9300099999999
 20
150.2119129999998
 30
0.0
 40
2.0
100
AcDbArc
 50
0.0
 51
90.0
  0
CIRCLE
  5
B4D7
330
B364
100
AcDbEntity
  8
1
  6
Continuous
100
AcDbCircle
 10
272.9300099999999
 20
147.2119129999998
 30
0.0
 40
2.149999999999999
  0
LINE
  5
B4D8
330
B364
100
AcDbEntity
  8
4
  6
CENTER
100
AcDbLine
 10
246.4300099999999
 20
143.5619129999998
 30
0.0
 11
246.4300099999999
 21
150.8619129999999
 31
0.0
  0
LINE
  5
B4D9
330
B364
100
AcDbEntity
  8
1
  6
Continuous
100
AcDbLine
 10
264.93001
 20
152.2119129999999
 30
0.0
 11
264.93001
 21
139.0619129999997
 31
0.0
  0
LINE
  5
B4DA
330
B364
100
AcDbEntity
  8
1
  6
Continuous
100
AcDbLine
 10
267.9300099999999
 20
151.2119129999998
 30
0.0
 11
267.9300099999999
 21
135.2119129999999
 31
0.0
  0
LINE
  5
B4DB
330
B364
100
AcDbEntity
  8
1
  6
Continuous
100
AcDbLine
 10
264.93001
 20
139.0619129999997
 30
0.0
 11
252.6800099999999
 21
139.0619129999997
 31
0.0
  0
LINE
  5
B4DC
330
B364
100
AcDbEntity
  8
1
  6
Continuous
100
AcDbLine
 10
264.7300099999998
 20
138.7119129999998
 30
0.0
 11
264.7300099999998
 21
137.2119129999999
 31
0.0
  0
LINE
  5
B4DD
330
B364
100
AcDbEntity
  8
1
  6
Continuous
100
AcDbLine
 10
255.13001
 20
138.7119129999998
 30
0.0
 11
255.13001
 21
137.2119129999999
 31
0.0
  0
LINE
  5
B4DE
330
B364
100
AcDbEntity
  8
1
  6
Continuous
100
AcDbLine
 10
255.13001
 20
138.7119129999998
 30
0.0
 11
264.7300099999998
 21
138.7119129999998
 31
0.0
  0
LINE
  5
B4DF
330
B364
100
AcDbEntity
  8
1
  6
Continuous
100
AcDbLine
 10
262.93001
 20
139.0619129999997
 30
0.0
 11
262.93001
 21
138.7119129999998
 31
0.0
  0
LINE
  5
B4E0
330
B364
100
AcDbEntity
  8
1
  6
Continuous
100
AcDbLine
 10
257.9300099999999
 20
139.0619129999997
 30
0.0
 11
257.9300099999999
 21
138.7119129999998
 31
0.0
  0
LINE
  5
B4E1
330
B364
100
AcDbEntity
  8
1
  6
Continuous
100
AcDbLine
 10
264.93001
 20
137.2119129999999
 30
0.0
 11
264.93001
 21
135.2119129999999
 31
0.0
  0
LINE
  5
B4E2
330
B364
100
AcDbEntity
  8
1
  6
Continuous
100
AcDbLine
 10
267.9300099999999
 20
135.2119129999999
 30
0.0
 11
264.93001
 21
135.2119129999999
 31
0.0
  0
LINE
  5
B4E3
330
B364
100
AcDbEntity
  8
4
  6
CENTER
100
AcDbLine
 10
250.0800099999999
 20
147.2119129999998
 30
0.0
 11
242.78001
 21
147.2119129999998
 31
0.0
  0
CIRCLE
  5
B4E4
330
B364
100
AcDbEntity
  8
1
  6
Continuous
100
AcDbCircle
 10
246.4300099999999
 20
147.2119129999998
 30
0.0
 40
2.149999999999999
  0
ARC
  5
B4E5
330
B364
100
AcDbEntity
  8
1
  6
Continuous
100
AcDbCircle
 10
252.6800099999999
 20
138.3119129999998
 30
0.0
 40
0.75
100
AcDbArc
 50
90.0
 51
180.0
  0
LINE
  5
B4E6
330
B364
100
AcDbEntity
  8
1
  6
Continuous
100
AcDbLine
 10
264.93001
 20
152.2119129999999
 30
0.0
 11
240.4300099999999
 21
152.2119129999999
 31
0.0
  0
ARC
  5
B4E7
330
B364
100
AcDbEntity
  8
1
  6
Continuous
100
AcDbCircle
 10
268.93001
 20
151.2119129999998
 30
0.0
 40
1.0
100
AcDbArc
 50
90.0
 51
180.0
  0
LINE
  5
B4E8
330
B364
100
AcDbEntity
  8
1
  6
Continuous
100
AcDbLine
 10
238.43001
 20
150.2119129999998
 30
0.0
 11
238.43001
 21
104.2119129999999
 31
0.0
  0
LINE
  5
B4E9
330
B364
100
AcDbEntity
  8
1
  6
Continuous
100
AcDbLine
 10
254.9300099999999
 20
137.2119129999999
 30
0.0
 11
264.93001
 21
137.2119129999999
 31
0.0
  0
LINE
  5
B4EA
330
B364
100
AcDbEntity
  8
1
  6
Continuous
100
AcDbLine
 10
264.93001
 20
117.211913
 30
0.0
 11
264.93001
 21
119.211913
 31
0.0
  0
LINE
  5
B4EB
330
B364
100
AcDbEntity
  8
1
  6
Continuous
100
AcDbLine
 10
267.9300099999999
 20
119.211913
 30
0.0
 11
264.93001
 21
119.211913
 31
0.0
  0
CIRCLE
  5
B4EC
330
B364
100
AcDbEntity
  8
1
  6
Continuous
100
AcDbCircle
 10
268.4300099999999
 20
127.2119129999999
 30
0.0
 40
4.25
  0
LINE
  5
B4ED
330
B364
100
AcDbEntity
  8
1
  6
Continuous
100
AcDbLine
 10
254.251298
 20
102.2119129999999
 30
0.0
 11
254.251298
 21
115.3619129999998
 31
0.0
  0
LINE
  5
B4EE
330
B364
100
AcDbEntity
  8
1
  6
Continuous
100
AcDbLine
 10
254.251298
 20
152.2119129999999
 30
0.0
 11
254.251298
 21
139.0619129999997
 31
0.0
  0
ARC
  5
B4EF
330
B364
100
AcDbEntity
  8
1
  6
Continuous
100
AcDbCircle
 10
125.889146
 20
134.330097
 30
0.0
 40
0.6531630000000001
100
AcDbArc
 50
283.014
 51
317.13
  0
ARC
  5
B4F0
330
B364
100
AcDbEntity
  8
1
  6
Continuous
100
AcDbCircle
 10
125.889146
 20
134.505022
 30
0.0
 40
0.6531630000000001
100
AcDbArc
 50
42.86999999999999
 51
137.1304
  0
ARC
  5
B4F1
330
B364
100
AcDbEntity
  8
1
  6
Continuous
100
AcDbCircle
 10
125.9833669999999
 20
134.41756
 30
0.0
 40
0.781719
100
AcDbArc
 50
137.1304
 51
147.1503
  0
ARC
  5
B4F2
330
B364
100
AcDbEntity
  8
1
  6
Continuous
100
AcDbCircle
 10
125.794927
 20
134.41756
 30
0.0
 40
0.781719
100
AcDbArc
 50
317.13
 51
42.86999999999999
  0
ARC
  5
B4F3
330
B364
100
AcDbEntity
  8
1
  6
Continuous
100
AcDbCircle
 10
124.764146
 20
134.330097
 30
0.0
 40
0.6531630000000001
100
AcDbArc
 50
222.8699999999999
 51
288.2079999999999
  0
ARC
  5
B4F4
330
B364
100
AcDbEntity
  8
1
  6
Continuous
100
AcDbCircle
 10
124.764146
 20
134.505022
 30
0.0
 40
0.6531630000000001
100
AcDbArc
 50
42.86999999999999
 51
137.1304
  0
ARC
  5
B4F5
330
B364
100
AcDbEntity
  8
1
  6
Continuous
100
AcDbCircle
 10
124.858365
 20
134.41756
 30
0.0
 40
0.781719
100
AcDbArc
 50
137.1304
 51
222.8699999999999
  0
ARC
  5
B4F6
330
B364
100
AcDbEntity
  8
1
  6
Continuous
100
AcDbCircle
 10
124.669927
 20
134.41756
 30
0.0
 40
0.781719
100
AcDbArc
 50
32.85
 51
42.86999999999999
  0
LINE
  5
B4F7
330
B364
100
AcDbEntity
  8
1
  6
Continuous
100
AcDbLine
 10
125.326646
 20
134.47571
 30
0.0
 11
125.326646
 21
134.841597
 31
0.0
  0
LINE
  5
B4F8
330
B364
100
AcDbEntity
  8
1
  6
Continuous
100
AcDbLine
 10
185.389408
 20
114.3619129999999
 30
0.0
 11
185.389408
 21
103.2119129999999
 31
0.0
  0
LINE
  5
B4F9
330
B364
100
AcDbEntity
  8
1
  6
Continuous
100
AcDbLine
 10
186.1533399999999
 20
102.2119129999999
 30
0.0
 11
186.1533399999999
 21
115.3619129999998
 31
0.0
  0
LINE
  5
B4FA
330
B364
100
AcDbEntity
  8
1
  6
Continuous
100
AcDbLine
 10
186.1533399999999
 20
152.2119129999999
 30
0.0
 11
186.1533399999999
 21
139.0619129999997
 31
0.0
  0
LINE
  5
B4FB
330
B364
100
AcDbEntity
  8
1
  6
Continuous
100
AcDbLine
 10
185.389408
 20
140.0619129999997
 30
0.0
 11
185.389408
 21
151.2119129999998
 31
0.0
  0
LINE
  5
B4FC
330
B364
100
AcDbEntity
  8
1
  6
Continuous
100
AcDbLine
 10
27.2
 20
138.7119129999998
 30
0.0
 11
27.2
 21
137.2119129999999
 31
0.0
  0
LINE
  5
B4FD
330
B364
100
AcDbEntity
  8
1
  6
Continuous
100
AcDbLine
 10
27.2
 20
117.211913
 30
0.0
 11
27.2
 21
115.7119129999999
 31
0.0
  0
LINE
  5
B4FE
330
B364
100
AcDbEntity
  8
1
  6
Continuous
100
AcDbLine
 10
187.9533399999999
 20
138.7119129999998
 30
0.0
 11
187.9533399999999
 21
137.2119129999999
 31
0.0
  0
LINE
  5
B4FF
330
B364
100
AcDbEntity
  8
1
  6
Continuous
100
AcDbLine
 10
187.9533399999999
 20
117.211913
 30
0.0
 11
187.9533399999999
 21
115.7119129999999
 31
0.0
  0
LINE
  5
B500
330
B364
100
AcDbEntity
  8
5
  6
PHANTOM
100
AcDbLine
 10
103.5766699999998
 20
199.4238259999999
 30
0.0
 11
128.5766699999999
 21
199.4238259999999
 31
0.0
  0
LINE
  5
B501
330
B364
100
AcDbEntity
  8
5
  6
PHANTOM
100
AcDbLine
 10
115.5766699999999
 20
201.4238259999999
 30
0.0
 11
115.5766699999999
 21
199.4238259999999
 31
0.0
  0
LINE
  5
B502
330
B364
100
AcDbEntity
  8
5
  6
PHANTOM
100
AcDbLine
 10
128.5766699999999
 20
201.4238259999999
 30
0.0
 11
128.5766699999999
 21
199.4238259999999
 31
0.0
  0
LINE
  5
B503
330
B364
100
AcDbEntity
  8
5
  6
PHANTOM
100
AcDbLine
 10
112.5766699999999
 20
201.4238259999999
 30
0.0
 11
128.5766699999999
 21
201.4238259999999
 31
0.0
  0
LINE
  5
B504
330
B364
100
AcDbEntity
  8
5
  6
PHANTOM
100
AcDbLine
 10
112.5766699999999
 20
206.4238259999999
 30
0.0
 11
112.5766699999999
 21
199.4238259999999
 31
0.0
  0
LINE
  5
B505
330
B364
100
AcDbEntity
  8
5
  6
PHANTOM
100
AcDbLine
 10
103.5766699999998
 20
202.966482
 30
0.0
 11
103.5766699999998
 21
199.4238259999999
 31
0.0
  0
LINE
  5
B506
330
B364
100
AcDbEntity
  8
4
  6
CENTER
100
AcDbLine
 10
120.5766699999999
 20
203.336802
 30
0.0
 11
120.5766699999999
 21
197.4432119999999
 31
0.0
  0
LINE
  5
B507
330
B364
100
AcDbEntity
  8
4
  6
CENTER
100
AcDbLine
 10
123.5766699999999
 20
203.336802
 30
0.0
 11
123.5766699999999
 21
197.4432119999999
 31
0.0
  0
LINE
  5
B508
330
B364
100
AcDbEntity
  8
5
  6
PHANTOM
100
AcDbLine
 10
112.5766699999999
 20
52.99999999999999
 30
0.0
 11
128.5766699999999
 21
52.99999999999999
 31
0.0
  0
LINE
  5
B509
330
B364
100
AcDbEntity
  8
5
  6
PHANTOM
100
AcDbLine
 10
115.5766699999999
 20
52.99999999999999
 30
0.0
 11
115.5766699999999
 21
55.0
 31
0.0
  0
LINE
  5
B50A
330
B364
100
AcDbEntity
  8
4
  6
CENTER
100
AcDbLine
 10
120.5766699999999
 20
51.08702399999999
 30
0.0
 11
120.5766699999999
 21
56.980614
 31
0.0
  0
LINE
  5
B50B
330
B364
100
AcDbEntity
  8
4
  6
CENTER
100
AcDbLine
 10
123.5766699999999
 20
51.08702399999999
 30
0.0
 11
123.5766699999999
 21
56.980614
 31
0.0
  0
LINE
  5
B50C
330
B364
100
AcDbEntity
  8
5
  6
PHANTOM
100
AcDbLine
 10
103.5766699999998
 20
55.0
 30
0.0
 11
128.5766699999999
 21
55.0
 31
0.0
  0
LINE
  5
B50D
330
B364
100
AcDbEntity
  8
5
  6
PHANTOM
100
AcDbLine
 10
128.5766699999999
 20
52.99999999999999
 30
0.0
 11
128.5766699999999
 21
55.0
 31
0.0
  0
LINE
  5
B50E
330
B364
100
AcDbEntity
  8
5
  6
PHANTOM
100
AcDbLine
 10
103.5766699999998
 20
51.45734399999999
 30
0.0
 11
103.5766699999998
 21
55.0
 31
0.0
  0
LINE
  5
B50F
330
B364
100
AcDbEntity
  8
5
  6
PHANTOM
100
AcDbLine
 10
112.5766699999999
 20
47.99999999999999
 30
0.0
 11
112.5766699999999
 21
55.0
 31
0.0
  0
ARC
  5
B510
330
B364
100
AcDbEntity
  8
1
  6
Continuous
100
AcDbCircle
 10
184.389408
 20
151.2119129999998
 30
0.0
 40
1.0
100
AcDbArc
 50
0.0
 51
90.0
  0
ARC
  5
B511
330
B364
100
AcDbEntity
  8
1
  6
Continuous
100
AcDbCircle
 10
184.389408
 20
140.0619129999997
 30
0.0
 40
1.0
100
AcDbArc
 50
270.0
 51
0.0
  0
ARC
  5
B512
330
B364
100
AcDbEntity
  8
1
  6
Continuous
100
AcDbCircle
 10
184.389408
 20
114.3619129999999
 30
0.0
 40
1.0
100
AcDbArc
 50
0.0
 51
90.0
  0
ARC
  5
B513
330
B364
100
AcDbEntity
  8
1
  6
Continuous
100
AcDbCircle
 10
184.389408
 20
103.2119129999999
 30
0.0
 40
1.0
100
AcDbArc
 50
270.0
 51
0.0
  0
ENDSEC
  0
SECTION
  2
OBJECTS
  0
DICTIONARY
  5
B352
330
0
100
AcDbDictionary
281
     1
  3
ACAD_CIP_PREVIOUS_PRODUCT_INFO
350
B57F
  3
ACAD_COLOR
350
B561
  3
ACAD_DETAILVIEWSTYLE
350
B57A
  3
ACAD_GROUP
350
B353
  3
ACAD_LAYOUT
350
B35F
  3
ACAD_MATERIAL
350
B52F
  3
ACAD_MLEADERSTYLE
350
B576
  3
ACAD_MLINESTYLE
350
B35C
  3
ACAD_PLOTSETTINGS
350
B35E
  3
ACAD_PLOTSTYLENAME
350
B52D
  3
ACAD_SCALELIST
350
B564
  3
ACAD_SECTIONVIEWSTYLE
350
B578
  3
ACAD_TABLESTYLE
350
B562
  3
ACAD_VISUALSTYLE
350
B548
  3
ACDB_RECOMPOSE_DATA
350
B59D
  3
AcDbVariableDictionary
350
B590
  3
DWGPROPS
350
B59E
  0
DICTIONARY
  5
B580
330
B356
100
AcDbDictionary
280
     1
281
     1
  3
ADSK_XREC_LAYER_RECONCILED
360
B581
  0
DICTIONARY
  5
B582
330
B36C
100
AcDbDictionary
280
     1
281
     1
  3
ADSK_XREC_LAYER_RECONCILED
360
B583
  0
DICTIONARY
  5
B584
330
B36D
100
AcDbDictionary
280
     1
281
     1
  3
ADSK_XREC_LAYER_RECONCILED
360
B585
  0
DICTIONARY
  5
B586
330
B36E
100
AcDbDictionary
280
     1
281
     1
  3
ADSK_XREC_LAYER_RECONCILED
360
B587
  0
DICTIONARY
  5
B588
330
B36F
100
AcDbDictionary
280
     1
281
     1
  3
ADSK_XREC_LAYER_RECONCILED
360
B589
  0
DICTIONARY
  5
B58A
330
B370
100
AcDbDictionary
280
     1
281
     1
  3
ADSK_XREC_LAYER_RECONCILED
360
B58B
  0
DICTIONARY
  5
B58C
330
B371
100
AcDbDictionary
280
     1
281
     1
  3
ADSK_XREC_LAYER_RECONCILED
360
B58D
  0
DICTIONARY
  5
B58E
330
B372
100
AcDbDictionary
280
     1
281
     1
  3
ADSK_XREC_LAYER_RECONCILED
360
B58F
  0
DICTIONARY
  5
B528
330
B364
100
AcDbDictionary
281
     1
  3
ACAD_LAYOUTSELFREF
350
B529
  0
DICTIONARY
  5
B526
330
B360
100
AcDbDictionary
281
     1
  3
ACAD_LAYOUTSELFREF
350
B527
  0
XRECORD
  5
B57F
102
{ACAD_REACTORS
330
B352
102
}
330
B352
100
AcDbXrecord
280
     1
300
ACDLT
300
2014
300
ACDLT_F_S
  0
DICTIONARY
  5
B561
102
{ACAD_REACTORS
330
B352
102
}
330
B352
100
AcDbDictionary
281
     1
  0
DICTIONARY
  5
B57A
102
{ACAD_REACTORS
330
B352
102
}
330
B352
100
AcDbDictionary
281
     1
  3
Imperial24
350
B57B
  0
DICTIONARY
  5
B353
102
{ACAD_REACTORS
330
B352
102
}
330
B352
100
AcDbDictionary
281
     1
  0
DICTIONARY
  5
B35F
102
{ACAD_REACTORS
330
B352
102
}
330
B352
100
AcDbDictionary
281
     1
  3
Model
350
B57C
  3
レイアウト1
350
B57D
  0
DICTIONARY
  5
B52F
102
{ACAD_REACTORS
330
B352
102
}
330
B352
100
AcDbDictionary
281
     1
  3
ByBlock
350
B538
  3
ByLayer
350
B530
  3
Global
350
B540
  0
DICTIONARY
  5
B576
102
{ACAD_REACTORS
330
B352
102
}
330
B352
100
AcDbDictionary
281
     1
  3
Standard
350
B577
  0
DICTIONARY
  5
B35C
102
{ACAD_REACTORS
330
B352
102
}
330
B352
100
AcDbDictionary
281
     1
  3
STANDARD
350
B35D
  0
DICTIONARY
  5
B35E
102
{ACAD_REACTORS
330
B352
102
}
330
B352
100
AcDbDictionary
281
     1
  0
ACDBDICTIONARYWDFLT
  5
B52D
102
{ACAD_REACTORS
330
B352
102
}
330
B352
100
AcDbDictionary
281
     1
  3
Normal
350
B52E
100
AcDbDictionaryWithDefault
340
B52E
  0
DICTIONARY
  5
B564
102
{ACAD_REACTORS
330
B352
102
}
330
B352
100
AcDbDictionary
281
     1
  3
A0
350
B565
  3
A1
350
B566
  3
A2
350
B567
  3
A3
350
B568
  3
A4
350
B569
  3
A5
350
B56A
  3
A6
350
B56B
  3
A7
350
B56C
  3
A8
350
B56D
  3
A9
350
B56E
  3
B0
350
B56F
  3
B1
350
B570
  3
B2
350
B571
  3
B3
350
B572
  3
B4
350
B573
  3
B5
350
B574
  3
B6
350
B575
  0
DICTIONARY
  5
B578
102
{ACAD_REACTORS
330
B352
102
}
330
B352
100
AcDbDictionary
281
     1
  3
Imperial24
350
B579
  0
DICTIONARY
  5
B562
102
{ACAD_REACTORS
330
B352
102
}
330
B352
100
AcDbDictionary
281
     1
  3
Standard
350
B563
  0
DICTIONARY
  5
B548
102
{ACAD_REACTORS
330
B352
102
}
330
B352
100
AcDbDictionary
281
     1
  3
2dWireframe
350
B54E
  3
Basic
350
B54D
  3
Brighten
350
B554
  3
ColorChange
350
B558
  3
Conceptual
350
B551
  3
Dim
350
B553
  3
EdgeColorOff
350
B560
  3
Facepattern
350
B557
  3
Flat
350
B549
  3
FlatWithEdges
350
B54A
  3
Gouraud
350
B54B
  3
GouraudWithEdges
350
B54C
  3
Hidden
350
B550
  3
JitterOff
350
B55E
  3
Linepattern
350
B556
  3
OverhangOff
350
B55F
  3
Realistic
350
B552
  3
Shaded
350
B55D
  3
Shaded with edges
350
B55C
  3
Shades of Gray
350
B559
  3
Sketchy
350
B55A
  3
Thicken
350
B555
  3
Wireframe
350
B54F
  3
X-Ray
350
B55B
  0
XRECORD
  5
B59D
102
{ACAD_REACTORS
330
B352
102
}
330
B352
100
AcDbXrecord
280
     1
 90
        1
330
B563
  0
DICTIONARY
  5
B590
102
{ACAD_REACTORS
330
B352
102
}
330
B352
100
AcDbDictionary
281
     1
  3
CANNOSCALE
350
B595
  3
CMLEADERSTYLE
350
B592
  3
CTABLESTYLE
350
B591
  3
CVIEWDETAILSTYLE
350
B593
  3
CVIEWSECTIONSTYLE
350
B594
  3
DIMASSOC
350
B598
  3
INDEXCTL
350
B597
  3
SORTENTS
350
B596
  3
XCLIPFRAME
350
B599
  0
XRECORD
  5
B59E
102
{ACAD_REACTORS
330
B352
102
}
330
B352
100
AcDbXrecord
280
     1
  1
DWGPROPS COOKIE
  2

  3

  4

  6

  7

  8
Yoshitsune
  9

300
=
301
=
302
=
303
=
304
=
305
=
306
=
307
=
308
=
309
=
 40
0.0008456944444444
 41
2451344.598746297
 42
2457192.61607154
  1

 90
        0
  0
XRECORD
  5
B581
102
{ACAD_REACTORS
330
B580
102
}
330
B580
100
AcDbXrecord
280
     1
290
     1
  0
XRECORD
  5
B583
102
{ACAD_REACTORS
330
B582
102
}
330
B582
100
AcDbXrecord
280
     1
290
     1
  0
XRECORD
  5
B585
102
{ACAD_REACTORS
330
B584
102
}
330
B584
100
AcDbXrecord
280
     1
290
     1
  0
XRECORD
  5
B587
102
{ACAD_REACTORS
330
B586
102
}
330
B586
100
AcDbXrecord
280
     1
290
     1
  0
XRECORD
  5
B589
102
{ACAD_REACTORS
330
B588
102
}
330
B588
100
AcDbXrecord
280
     1
290
     1
  0
XRECORD
  5
B58B
102
{ACAD_REACTORS
330
B58A
102
}
330
B58A
100
AcDbXrecord
280
     1
290
     1
  0
XRECORD
  5
B58D
102
{ACAD_REACTORS
330
B58C
102
}
330
B58C
100
AcDbXrecord
280
     1
290
     1
  0
XRECORD
  5
B58F
102
{ACAD_REACTORS
330
B58E
102
}
330
B58E
100
AcDbXrecord
280
     1
290
     1
  0
XRECORD
  5
B529
102
{ACAD_REACTORS
330
B528
102
}
330
B528
100
AcDbXrecord
280
     1
340
B364
  0
XRECORD
  5
B527
102
{ACAD_REACTORS
330
B526
102
}
330
B526
100
AcDbXrecord
280
     1
340
B360
  0
ACDBDETAILVIEWSTYLE
  5
B57B
102
{ACAD_XDICTIONARY
360
B5D6
102
}
102
{ACAD_REACTORS
330
B57A
102
}
330
B57A
100
AcDbModelDocViewStyle
 70
     0
  3
Imperial24
290
     0
100
AcDbDetailViewStyle
 70
     0
 71
     0
 90
        3
 71
     1
340
B357
 40
0.24
340
0
 40
0.24
300

 40
0.36
280
     3
 71
     2
340
B35B
 90
       25
 71
     3
340
B357
 40
0.24
 90
        1
 40
0.75
 90
        1
300
%<\AcVar ViewType \f "%tc1">% %<\AcVar ViewDetailId>%\PSCALE %<\AcVar ViewScale \f "%sn">%
 71
     4
340
B35B
 90
       25
340
B35B
 90
       25
280
     0
  0
LAYOUT
  5
B57C
102
{ACAD_XDICTIONARY
360
B5D8
102
}
102
{ACAD_REACTORS
330
B35F
102
}
330
B35F
100
AcDbPlotSettings
  1

  2
Canon LBP9100C
  4

  6

 40
0.0
 41
0.0
 42
0.0
 43
0.0
 44
0.0
 45
0.0
 46
0.0
 47
0.0
 48
0.0
 49
0.0
140
0.0
141
0.0
142
1.0
143
1.0
 70
  1712
 72
     0
 73
     0
 74
     0
  7

 75
     0
147
1.0
148
0.0
149
0.0
100
AcDbLayout
  1
Model
 70
     1
 71
     0
 10
0.0
 20
0.0
 11
12.0
 21
9.0
 12
0.0
 22
0.0
 32
0.0
 14
0.0
 24
0.0
 34
0.0
 15
0.0
 25
0.0
 35
0.0
146
0.0
 13
0.0
 23
0.0
 33
0.0
 16
1.0
 26
0.0
 36
0.0
 17
0.0
 27
1.0
 37
0.0
 76
     0
330
B364
331
B525
  0
LAYOUT
  5
B57D
102
{ACAD_XDICTIONARY
360
B5DA
102
}
102
{ACAD_REACTORS
330
B35F
102
}
330
B35F
100
AcDbPlotSettings
  1

  2
Canon LBP9100C
  4

  6

 40
0.0
 41
0.0
 42
0.0
 43
0.0
 44
0.0
 45
0.0
 46
0.0
 47
0.0
 48
0.0
 49
0.0
140
0.0
141
0.0
142
1.0
143
1.0
 70
   688
 72
     0
 73
     0
 74
     5
  7

 75
    16
147
1.0
148
0.0
149
0.0
100
AcDbLayout
  1
レイアウト1
 70
     0
 71
     1
 10
0.0
 20
0.0
 11
420.0
 21
297.0
 12
0.0
 22
0.0
 32
0.0
 14
1.000000000000000E+20
 24
1.000000000000000E+20
 34
1.000000000000000E+20
 15
-1.000000000000000E+20
 25
-1.000000000000000E+20
 35
-1.000000000000000E+20
146
0.0
 13
0.0
 23
0.0
 33
0.0
 16
1.0
 26
0.0
 36
0.0
 17
0.0
 27
1.0
 37
0.0
 76
     0
330
B360
  0
MATERIAL
  5
B538
102
{ACAD_XDICTIONARY
360
B539
102
}
102
{ACAD_REACTORS
330
B52F
102
}
330
B52F
100
AcDbMaterial
  1
ByBlock
 72
     0
 43
0.0208333333333333
 43
0.0
 43
0.0
 43
0.0
 43
0.0
 43
0.0208333333333333
 43
0.0
 43
0.0
 43
0.0
 43
0.0
 43
1.0
 43
0.0
 43
0.0
 43
0.0
 43
0.0
 43
1.0
 77
     0
 47
0.0208333333333333
 47
0.0
 47
0.0
 47
0.0
 47
0.0
 47
0.0208333333333333
 47
0.0
 47
0.0
 47
0.0
 47
0.0
 47
1.0
 47
0.0
 47
0.0
 47
0.0
 47
0.0
 47
1.0
171
     0
 49
0.0208333333333333
 49
0.0
 49
0.0
 49
0.0
 49
0.0
 49
0.0208333333333333
 49
0.0
 49
0.0
 49
0.0
 49
0.0
 49
1.0
 49
0.0
 49
0.0
 49
0.0
 49
0.0
 49
1.0
175
     0
142
0.0208333333333333
142
0.0
142
0.0
142
0.0
142
0.0
142
0.0208333333333333
142
0.0
142
0.0
142
0.0
142
0.0
142
1.0
142
0.0
142
0.0
142
0.0
142
0.0
142
1.0
179
     0
144
0.0208333333333333
144
0.0
144
0.0
144
0.0
144
0.0
144
0.0208333333333333
144
0.0
144
0.0
144
0.0
144
0.0
144
1.0
144
0.0
144
0.0
144
0.0
144
0.0
144
1.0
147
0.0208333333333333
147
0.0
147
0.0
147
0.0
147
0.0
147
0.0208333333333333
147
0.0
147
0.0
147
0.0
147
0.0
147
1.0
147
0.0
147
0.0
147
0.0
147
0.0
147
1.0
  0
MATERIAL
  5
B530
102
{ACAD_XDICTIONARY
360
B531
102
}
102
{ACAD_REACTORS
330
B52F
102
}
330
B52F
100
AcDbMaterial
  1
ByLayer
 72
     0
 43
0.0208333333333333
 43
0.0
 43
0.0
 43
0.0
 43
0.0
 43
0.0208333333333333
 43
0.0
 43
0.0
 43
0.0
 43
0.0
 43
1.0
 43
0.0
 43
0.0
 43
0.0
 43
0.0
 43
1.0
 77
     0
 47
0.0208333333333333
 47
0.0
 47
0.0
 47
0.0
 47
0.0
 47
0.0208333333333333
 47
0.0
 47
0.0
 47
0.0
 47
0.0
 47
1.0
 47
0.0
 47
0.0
 47
0.0
 47
0.0
 47
1.0
171
     0
 49
0.0208333333333333
 49
0.0
 49
0.0
 49
0.0
 49
0.0
 49
0.0208333333333333
 49
0.0
 49
0.0
 49
0.0
 49
0.0
 49
1.0
 49
0.0
 49
0.0
 49
0.0
 49
0.0
 49
1.0
175
     0
142
0.0208333333333333
142
0.0
142
0.0
142
0.0
142
0.0
142
0.0208333333333333
142
0.0
142
0.0
142
0.0
142
0.0
142
1.0
142
0.0
142
0.0
142
0.0
142
0.0
142
1.0
179
     0
144
0.0208333333333333
144
0.0
144
0.0
144
0.0
144
0.0
144
0.0208333333333333
144
0.0
144
0.0
144
0.0
144
0.0
144
1.0
144
0.0
144
0.0
144
0.0
144
0.0
144
1.0
147
0.0208333333333333
147
0.0
147
0.0
147
0.0
147
0.0
147
0.0208333333333333
147
0.0
147
0.0
147
0.0
147
0.0
147
1.0
147
0.0
147
0.0
147
0.0
147
0.0
147
1.0
  0
MATERIAL
  5
B540
102
{ACAD_XDICTIONARY
360
B541
102
}
102
{ACAD_REACTORS
330
B52F
102
}
330
B52F
100
AcDbMaterial
  1
Global
 72
     0
 43
0.0208333333333333
 43
0.0
 43
0.0
 43
0.0
 43
0.0
 43
0.0208333333333333
 43
0.0
 43
0.0
 43
0.0
 43
0.0
 43
1.0
 43
0.0
 43
0.0
 43
0.0
 43
0.0
 43
1.0
 77
     0
 47
0.0208333333333333
 47
0.0
 47
0.0
 47
0.0
 47
0.0
 47
0.0208333333333333
 47
0.0
 47
0.0
 47
0.0
 47
0.0
 47
1.0
 47
0.0
 47
0.0
 47
0.0
 47
0.0
 47
1.0
171
     0
 49
0.0208333333333333
 49
0.0
 49
0.0
 49
0.0
 49
0.0
 49
0.0208333333333333
 49
0.0
 49
0.0
 49
0.0
 49
0.0
 49
1.0
 49
0.0
 49
0.0
 49
0.0
 49
0.0
 49
1.0
175
     0
142
0.0208333333333333
142
0.0
142
0.0
142
0.0
142
0.0
142
0.0208333333333333
142
0.0
142
0.0
142
0.0
142
0.0
142
1.0
142
0.0
142
0.0
142
0.0
142
0.0
142
1.0
179
     0
144
0.0208333333333333
144
0.0
144
0.0
144
0.0
144
0.0
144
0.0208333333333333
144
0.0
144
0.0
144
0.0
144
0.0
144
1.0
144
0.0
144
0.0
144
0.0
144
0.0
144
1.0
147
0.0208333333333333
147
0.0
147
0.0
147
0.0
147
0.0
147
0.0208333333333333
147
0.0
147
0.0
147
0.0
147
0.0
147
1.0
147
0.0
147
0.0
147
0.0
147
0.0
147
1.0
  0
MLEADERSTYLE
  5
B577
102
{ACAD_REACTORS
330
B576
102
}
330
B576
100
AcDbMLeaderStyle
170
     2
171
     1
172
     0
 90
        2
 40
0.0
 41
0.0
173
     1
 91
-1056964608
340
B359
 92
       -2
290
     1
 42
0.09
291
     1
 43
0.36
  3
Standard
 44
0.18
300

342
B357
174
     1
178
     6
175
     1
176
     0
 93
-1056964608
 45
0.18
292
     0
297
     0
 46
0.18
 94
-1056964608
 47
1.0
 49
1.0
140
1.0
293
     1
141
0.0
294
     1
177
     0
142
1.0
295
     0
296
     0
143
0.125
1001
ACAD_MLEADERVER
1070
     2
  0
MLINESTYLE
  5
B35D
102
{ACAD_REACTORS
330
B35C
102
}
330
B35C
100
AcDbMlineStyle
  2
STANDARD
 70
     0
  3

 62
   256
 51
90.0
 52
90.0
 71
     2
 49
0.5
 62
   256
  6
BYLAYER
 49
-0.5
 62
   256
  6
BYLAYER
  0
ACDBPLACEHOLDER
  5
B52E
102
{ACAD_REACTORS
330
B52D
102
}
330
B52D
  0
SCALE
  5
B565
102
{ACAD_REACTORS
330
B564
102
}
330
B564
100
AcDbScale
 70
     0
300
1:1
140
1.0
141
1.0
290
     1
  0
SCALE
  5
B566
102
{ACAD_REACTORS
330
B564
102
}
330
B564
100
AcDbScale
 70
     0
300
1/128" = 1'-0"
140
0.0078125
141
12.0
290
     0
  0
SCALE
  5
B567
102
{ACAD_REACTORS
330
B564
102
}
330
B564
100
AcDbScale
 70
     0
300
1/64" = 1'-0"
140
0.015625
141
12.0
290
     0
  0
SCALE
  5
B568
102
{ACAD_REACTORS
330
B564
102
}
330
B564
100
AcDbScale
 70
     0
300
1/32" = 1'-0"
140
0.03125
141
12.0
290
     0
  0
SCALE
  5
B569
102
{ACAD_REACTORS
330
B564
102
}
330
B564
100
AcDbScale
 70
     0
300
1/16" = 1'-0"
140
0.0625
141
12.0
290
     0
  0
SCALE
  5
B56A
102
{ACAD_REACTORS
330
B564
102
}
330
B564
100
AcDbScale
 70
     0
300
3/32" = 1'-0"
140
0.09375
141
12.0
290
     0
  0
SCALE
  5
B56B
102
{ACAD_REACTORS
330
B564
102
}
330
B564
100
AcDbScale
 70
     0
300
1/8" = 1'-0"
140
0.125
141
12.0
290
     0
  0
SCALE
  5
B56C
102
{ACAD_REACTORS
330
B564
102
}
330
B564
100
AcDbScale
 70
     0
300
3/16" = 1'-0"
140
0.1875
141
12.0
290
     0
  0
SCALE
  5
B56D
102
{ACAD_REACTORS
330
B564
102
}
330
B564
100
AcDbScale
 70
     0
300
1/4" = 1'-0"
140
0.25
141
12.0
290
     0
  0
SCALE
  5
B56E
102
{ACAD_REACTORS
330
B564
102
}
330
B564
100
AcDbScale
 70
     0
300
3/8" = 1'-0"
140
0.375
141
12.0
290
     0
  0
SCALE
  5
B56F
102
{ACAD_REACTORS
330
B564
102
}
330
B564
100
AcDbScale
 70
     0
300
1/2" = 1'-0"
140
0.5
141
12.0
290
     0
  0
SCALE
  5
B570
102
{ACAD_REACTORS
330
B564
102
}
330
B564
100
AcDbScale
 70
     0
300
3/4" = 1'-0"
140
0.75
141
12.0
290
     0
  0
SCALE
  5
B571
102
{ACAD_REACTORS
330
B564
102
}
330
B564
100
AcDbScale
 70
     0
300
1" = 1'-0"
140
1.0
141
12.0
290
     0
  0
SCALE
  5
B572
102
{ACAD_REACTORS
330
B564
102
}
330
B564
100
AcDbScale
 70
     0
300
1-1/2" = 1'-0"
140
1.5
141
12.0
290
     0
  0
SCALE
  5
B573
102
{ACAD_REACTORS
330
B564
102
}
330
B564
100
AcDbScale
 70
     0
300
3" = 1'-0"
140
3.0
141
12.0
290
     0
  0
SCALE
  5
B574
102
{ACAD_REACTORS
330
B564
102
}
330
B564
100
AcDbScale
 70
     0
300
6" = 1'-0"
140
6.0
141
12.0
290
     0
  0
SCALE
  5
B575
102
{ACAD_REACTORS
330
B564
102
}
330
B564
100
AcDbScale
 70
     0
300
1'-0" = 1'-0"
140
12.0
141
12.0
290
     0
  0
ACDBSECTIONVIEWSTYLE
  5
B579
102
{ACAD_XDICTIONARY
360
B5D4
102
}
102
{ACAD_REACTORS
330
B578
102
}
330
B578
100
AcDbModelDocViewStyle
 70
     0
  3
Imperial24
290
     0
100
AcDbSectionViewStyle
 70
     0
 71
     0
 90
       78
 71
     1
340
B357
 40
0.24
340
0
340
0
 40
0.24
300
I, O, Q, S, X, Z
 40
0.48
 90
        3
 40
0.18
 90
        1
 71
     2
340
B35B
 90
       25
340
B35B
 90
       50
 40
0.24
 40
0.0
 40
0.24
 71
     3
340
B357
 40
0.24
 90
        1
 40
0.75
 90
        1
300
%<\AcVar ViewType \f "%tc1">% %<\AcVar ViewSectionStartId>%-%<\AcVar ViewSectionEndId>%\PSCALE %<\AcVar ViewScale \f "%sn">%
 71
     4
300
ANSI31
 40
1.0
 90
        0
290
     0
290
     0
 90
        6
 40
0.0
 40
1.570796326794896
 40
0.2617993877991494
 40
1.308996938995747
 40
-0.2617993877991494
 40
1.832595714594046
  0
TABLESTYLE
  5
B563
102
{ACAD_XDICTIONARY
360
B59B
102
}
102
{ACAD_REACTORS
330
B562
102
}
330
B562
100
AcDbTableStyle
  3
Standard
 70
     0
 71
     0
 40
0.06
 41
0.06
280
     0
281
     0
  7
STANDARD
140
0.18
170
     2
 62
     0
 63
     7
283
     0
274
    -2
284
     1
 64
     0
275
    -2
285
     1
 65
     0
276
    -2
286
     1
 66
     0
277
    -2
287
     1
 67
     0
278
    -2
288
     1
 68
     0
279
    -2
289
     1
 69
     0
  7
STANDARD
140
0.25
170
     5
 62
     0
 63
     7
283
     0
274
    -2
284
     1
 64
     0
275
    -2
285
     1
 65
     0
276
    -2
286
     1
 66
     0
277
    -2
287
     1
 67
     0
278
    -2
288
     1
 68
     0
279
    -2
289
     1
 69
     0
  7
STANDARD
140
0.18
170
     5
 62
     0
 63
     7
283
     0
274
    -2
284
     1
 64
     0
275
    -2
285
     1
 65
     0
276
    -2
286
     1
 66
     0
277
    -2
287
     1
 67
     0
278
    -2
288
     1
 68
     0
279
    -2
289
     1
 69
     0
  0
VISUALSTYLE
  5
B54E
102
{ACAD_XDICTIONARY
360
B5AC
102
}
102
{ACAD_REACTORS
330
B548
102
}
330
B548
100
AcDbVisualStyle
  2
2dWireframe
 70
     4
 71
     0
 72
     2
 73
     0
 90
        0
 40
-0.6
 41
-30.0
 62
     5
 63
     7
 74
     1
 91
        4
 64
     7
 65
   257
 75
     1
175
     1
 42
1.0
 92
        0
 66
   257
 43
1.0
 76
     1
 77
     6
 78
     2
 67
     7
 79
     5
170
     0
171
     0
290
     0
174
     0
 93
        1
 44
0.0
173
     0
291
     0
 45
0.0
1001
ACAD
1000
AcDbSavedByObjectVersion
1070
     0
  0
VISUALSTYLE
  5
B54D
102
{ACAD_XDICTIONARY
360
B5AA
102
}
102
{ACAD_REACTORS
330
B548
102
}
330
B548
100
AcDbVisualStyle
  2
Basic
 70
     7
 71
     1
 72
     0
 73
     1
 90
        0
 40
-0.6
 41
-30.0
 62
     5
 63
     7
 74
     0
 91
        4
 64
     7
 65
   257
 75
     1
175
     1
 42
1.0
 92
        8
 66
     7
 43
1.0
 76
     1
 77
     6
 78
     2
 67
     7
 79
     5
170
     0
171
     0
290
     0
174
     0
 93
        1
 44
0.0
173
     0
291
     1
 45
0.0
1001
ACAD
1000
AcDbSavedByObjectVersion
1070
     0
  0
VISUALSTYLE
  5
B554
102
{ACAD_XDICTIONARY
360
B5B8
102
}
102
{ACAD_REACTORS
330
B548
102
}
330
B548
100
AcDbVisualStyle
  2
Brighten
 70
    12
 71
     2
 72
     2
 73
     0
 90
        0
 40
-0.6
 41
-30.0
 62
     5
 63
     7
 74
     1
 91
        4
 64
     7
 65
   257
 75
     1
175
     1
 42
1.0
 92
        8
 66
     7
 43
1.0
 76
     1
 77
     6
 78
     2
 67
     7
 79
     5
170
     0
171
     0
290
     0
174
     0
 93
        1
 44
50.0
173
     0
291
     1
 45
0.0
1001
ACAD
1000
AcDbSavedByObjectVersion
1070
     0
  0
VISUALSTYLE
  5
B558
102
{ACAD_XDICTIONARY
360
B5C0
102
}
102
{ACAD_REACTORS
330
B548
102
}
330
B548
100
AcDbVisualStyle
  2
ColorChange
 70
    16
 71
     2
 72
     2
 73
     3
 90
        0
 40
-0.6
 41
-30.0
 62
     5
 63
     8
 74
     1
 91
        4
 64
     7
 65
   257
 75
     1
175
     1
 42
1.0
 92
        8
 66
     8
 43
1.0
 76
     1
 77
     6
 78
     2
 67
     7
 79
     5
170
     0
171
     0
290
     0
174
     0
 93
        1
 44
0.0
173
     0
291
     1
 45
0.0
1001
ACAD
1000
AcDbSavedByObjectVersion
1070
     0
  0
VISUALSTYLE
  5
B551
102
{ACAD_XDICTIONARY
360
B5B2
102
}
102
{ACAD_REACTORS
330
B548
102
}
330
B548
100
AcDbVisualStyle
  2
Conceptual
 70
     9
 71
     3
 72
     2
 73
     0
 90
        0
 40
-0.6
 41
-30.0
 62
     5
 63
     7
 74
     2
 91
        2
 64
     7
 65
   257
 75
     1
175
     1
 42
179.0
 92
        8
 66
     7
 43
1.0
 76
     1
 77
     6
 78
     2
 67
     7
 79
     3
170
     0
171
     0
290
     0
174
     0
 93
        1
 44
0.0
173
     0
291
     0
 45
0.0
1001
ACAD
1000
AcDbSavedByObjectVersion
1070
     0
  0
VISUALSTYLE
  5
B553
102
{ACAD_XDICTIONARY
360
B5B6
102
}
102
{ACAD_REACTORS
330
B548
102
}
330
B548
100
AcDbVisualStyle
  2
Dim
 70
    11
 71
     2
 72
     2
 73
     0
 90
        0
 40
-0.6
 41
-30.0
 62
     5
 63
     7
 74
     1
 91
        4
 64
     7
 65
   257
 75
     1
175
     1
 42
1.0
 92
        8
 66
     7
 43
1.0
 76
     1
 77
     6
 78
     2
 67
     7
 79
     5
170
     0
171
     0
290
     0
174
     0
 93
        1
 44
-50.0
173
     0
291
     1
 45
0.0
1001
ACAD
1000
AcDbSavedByObjectVersion
1070
     0
  0
VISUALSTYLE
  5
B560
102
{ACAD_XDICTIONARY
360
B5D0
102
}
102
{ACAD_REACTORS
330
B548
102
}
330
B548
100
AcDbVisualStyle
  2
EdgeColorOff
 70
    22
 71
     2
 72
     2
 73
     0
 90
        0
 40
-0.6
 41
-30.0
 62
     5
 63
     7
 74
     1
 91
        4
 64
     7
 65
   257
 75
     1
175
     1
 42
1.0
 92
        8
 66
     7
 43
1.0
 76
     1
 77
     6
 78
     2
 67
     7
 79
     5
170
     0
171
     0
290
     0
174
     0
 93
        1
 44
0.0
173
     0
291
     1
 45
0.0
1001
ACAD
1000
AcDbSavedByObjectVersion
1070
     0
  0
VISUALSTYLE
  5
B557
102
{ACAD_XDICTIONARY
360
B5BE
102
}
102
{ACAD_REACTORS
330
B548
102
}
330
B548
100
AcDbVisualStyle
  2
Facepattern
 70
    15
 71
     2
 72
     2
 73
     0
 90
        0
 40
-0.6
 41
-30.0
 62
     5
 63
     7
 74
     1
 91
        4
 64
     7
 65
   257
 75
     1
175
     1
 42
1.0
 92
        8
 66
     7
 43
1.0
 76
     1
 77
     6
 78
     2
 67
     7
 79
     5
170
     0
171
     0
290
     0
174
     0
 93
        1
 44
0.0
173
     0
291
     1
 45
0.0
1001
ACAD
1000
AcDbSavedByObjectVersion
1070
     0
  0
VISUALSTYLE
  5
B549
102
{ACAD_XDICTIONARY
360
B5A2
102
}
102
{ACAD_REACTORS
330
B548
102
}
330
B548
100
AcDbVisualStyle
  2
Flat
 70
     0
 71
     2
 72
     1
 73
     1
 90
        2
 40
-0.6
 41
30.0
 62
     5
 63
     7
 74
     0
 91
        0
 64
     7
 65
   257
 75
     1
175
     1
 42
1.0
 92
        8
 66
     7
 43
1.0
 76
     1
 77
     6
 78
     2
 67
     7
 79
     5
170
     0
171
     0
290
     0
174
     0
 93
       13
 44
0.0
173
     0
291
     1
 45
0.0
1001
ACAD
1000
AcDbSavedByObjectVersion
1070
     0
  0
VISUALSTYLE
  5
B54A
102
{ACAD_XDICTIONARY
360
B5A4
102
}
102
{ACAD_REACTORS
330
B548
102
}
330
B548
100
AcDbVisualStyle
  2
FlatWithEdges
 70
     1
 71
     2
 72
     1
 73
     1
 90
        2
 40
-0.6
 41
30.0
 62
     5
 63
     7
 74
     1
 91
        0
 64
     7
 65
   257
 75
     1
175
     1
 42
1.0
 92
        0
 66
   257
 43
1.0
 76
     1
 77
     6
 78
     2
 67
     7
 79
     5
170
     0
171
     0
290
     0
174
     0
 93
       13
 44
0.0
173
     0
291
     1
 45
0.0
1001
ACAD
1000
AcDbSavedByObjectVersion
1070
     0
  0
VISUALSTYLE
  5
B54B
102
{ACAD_XDICTIONARY
360
B5A6
102
}
102
{ACAD_REACTORS
330
B548
102
}
330
B548
100
AcDbVisualStyle
  2
Gouraud
 70
     2
 71
     2
 72
     2
 73
     1
 90
        2
 40
-0.6
 41
30.0
 62
     5
 63
     7
 74
     0
 91
        0
 64
     7
 65
   257
 75
     1
175
     1
 42
1.0
 92
        0
 66
     7
 43
1.0
 76
     1
 77
     6
 78
     2
 67
     7
 79
     5
170
     0
171
     0
290
     0
174
     0
 93
       13
 44
0.0
173
     0
291
     1
 45
0.0
1001
ACAD
1000
AcDbSavedByObjectVersion
1070
     0
  0
VISUALSTYLE
  5
B54C
102
{ACAD_XDICTIONARY
360
B5A8
102
}
102
{ACAD_REACTORS
330
B548
102
}
330
B548
100
AcDbVisualStyle
  2
GouraudWithEdges
 70
     3
 71
     2
 72
     2
 73
     1
 90
        2
 40
-0.6
 41
30.0
 62
     5
 63
     7
 74
     1
 91
        0
 64
     7
 65
   257
 75
     1
175
     1
 42
1.0
 92
        0
 66
   257
 43
1.0
 76
     1
 77
     6
 78
     2
 67
     7
 79
     5
170
     0
171
     0
290
     0
174
     0
 93
       13
 44
0.0
173
     0
291
     1
 45
0.0
1001
ACAD
1000
AcDbSavedByObjectVersion
1070
     0
  0
VISUALSTYLE
  5
B550
102
{ACAD_XDICTIONARY
360
B5B0
102
}
102
{ACAD_REACTORS
330
B548
102
}
330
B548
100
AcDbVisualStyle
  2
Hidden
 70
     6
 71
     1
 72
     2
 73
     2
 90
        0
 40
-0.6
 41
-30.0
 62
     5
 63
     7
 74
     2
 91
        2
 64
     7
 65
   257
 75
     2
175
     1
 42
40.0
 92
        0
 66
   257
 43
1.0
 76
     1
 77
     6
 78
     2
 67
     7
 79
     3
170
     0
171
     0
290
     0
174
     0
 93
        1
 44
0.0
173
     0
291
     0
 45
0.0
1001
ACAD
1000
AcDbSavedByObjectVersion
1070
     0
  0
VISUALSTYLE
  5
B55E
102
{ACAD_XDICTIONARY
360
B5CC
102
}
102
{ACAD_REACTORS
330
B548
102
}
330
B548
100
AcDbVisualStyle
  2
JitterOff
 70
    20
 71
     2
 72
     2
 73
     0
 90
        0
 40
-0.6
 41
-30.0
 62
     5
 63
     7
 74
     1
 91
        4
 64
     7
 65
   257
 75
     1
175
     1
 42
1.0
 92
       10
 66
     7
 43
1.0
 76
     1
 77
     6
 78
     2
 67
     7
 79
     5
170
     0
171
     0
290
     0
174
     0
 93
        1
 44
0.0
173
     0
291
     1
 45
0.0
1001
ACAD
1000
AcDbSavedByObjectVersion
1070
     0
  0
VISUALSTYLE
  5
B556
102
{ACAD_XDICTIONARY
360
B5BC
102
}
102
{ACAD_REACTORS
330
B548
102
}
330
B548
100
AcDbVisualStyle
  2
Linepattern
 70
    14
 71
     2
 72
     2
 73
     0
 90
        0
 40
-0.6
 41
-30.0
 62
     5
 63
     7
 74
     1
 91
        4
 64
     7
 65
   257
 75
     7
175
     7
 42
1.0
 92
        8
 66
     7
 43
1.0
 76
     1
 77
     6
 78
     2
 67
     7
 79
     5
170
     0
171
     0
290
     0
174
     0
 93
        1
 44
0.0
173
     0
291
     1
 45
0.0
1001
ACAD
1000
AcDbSavedByObjectVersion
1070
     0
  0
VISUALSTYLE
  5
B55F
102
{ACAD_XDICTIONARY
360
B5CE
102
}
102
{ACAD_REACTORS
330
B548
102
}
330
B548
100
AcDbVisualStyle
  2
OverhangOff
 70
    21
 71
     2
 72
     2
 73
     0
 90
        0
 40
-0.6
 41
-30.0
 62
     5
 63
     7
 74
     1
 91
        4
 64
     7
 65
   257
 75
     1
175
     1
 42
1.0
 92
        9
 66
     7
 43
1.0
 76
     1
 77
     6
 78
     2
 67
     7
 79
     5
170
     0
171
     0
290
     0
174
     0
 93
        1
 44
0.0
173
     0
291
     1
 45
0.0
1001
ACAD
1000
AcDbSavedByObjectVersion
1070
     0
  0
VISUALSTYLE
  5
B552
102
{ACAD_XDICTIONARY
360
B5B4
102
}
102
{ACAD_REACTORS
330
B548
102
}
330
B548
100
AcDbVisualStyle
  2
Realistic
 70
     8
 71
     2
 72
     3
 73
     0
 90
        2
 40
-0.6
 41
30.0
 62
     5
 63
     7
 74
     0
 91
        0
 64
     7
 65
   257
 75
     1
175
     1
 42
1.0
 92
        8
 66
   257
 43
1.0
 76
     1
 77
     6
 78
     2
 67
     7
 79
     3
170
     0
171
     0
290
     0
174
     0
 93
       13
 44
0.0
173
     0
291
     0
 45
0.0
1001
ACAD
1000
AcDbSavedByObjectVersion
1070
     0
  0
VISUALSTYLE
  5
B55D
102
{ACAD_XDICTIONARY
360
B5CA
102
}
102
{ACAD_REACTORS
330
B548
102
}
330
B548
100
AcDbVisualStyle
  2
Shaded
 70
    27
 71
     2
 72
     2
 73
     1
 90
        2
 40
-0.6
 41
30.0
 62
     5
 63
     7
 74
     0
 91
        4
 64
     7
 65
   257
 75
     1
175
     1
 42
1.0
 92
        8
 66
   257
 43
1.0
 76
     1
 77
     6
 78
     2
 67
     8
 79
     3
170
     0
171
     0
290
     0
174
     0
 93
        5
 44
0.0
173
     0
291
     0
 45
0.0
1001
ACAD
1000
AcDbSavedByObjectVersion
1070
     0
  0
VISUALSTYLE
  5
B55C
102
{ACAD_XDICTIONARY
360
B5C8
102
}
102
{ACAD_REACTORS
330
B548
102
}
330
B548
100
AcDbVisualStyle
  2
Shaded with edges
 70
    26
 71
     2
 72
     2
 73
     1
 90
        2
 40
-0.6
 41
30.0
 62
     5
 63
     7
 74
     1
 91
       10
 64
     7
 65
   257
 75
     2
175
     1
 42
1.0
 92
        8
 66
   257
 43
1.0
 76
     1
 77
     6
 78
     2
 67
     7
 79
     3
170
     0
171
     0
290
     0
174
     0
 93
        5
 44
0.0
173
     0
291
     0
 45
0.0
1001
ACAD
1000
AcDbSavedByObjectVersion
1070
     0
  0
VISUALSTYLE
  5
B559
102
{ACAD_XDICTIONARY
360
B5C2
102
}
102
{ACAD_REACTORS
330
B548
102
}
330
B548
100
AcDbVisualStyle
  2
Shades of Gray
 70
    23
 71
     2
 72
     2
 73
     3
 90
        0
 40
-0.6
 41
-30.0
 62
     5
 63
     7
 74
     2
 91
        2
 64
     7
 65
     7
 75
     1
175
     1
 42
40.0
 92
        8
 66
     7
 43
1.0
 76
     1
 77
     6
 78
     2
 67
     7
 79
     3
170
     0
171
     0
290
     0
174
     0
 93
        1
 44
0.0
173
     0
291
     0
 45
0.0
1001
ACAD
1000
AcDbSavedByObjectVersion
1070
     0
  0
VISUALSTYLE
  5
B55A
102
{ACAD_XDICTIONARY
360
B5C4
102
}
102
{ACAD_REACTORS
330
B548
102
}
330
B548
100
AcDbVisualStyle
  2
Sketchy
 70
    24
 71
     1
 72
     2
 73
     2
 90
        0
 40
-0.6
 41
-30.0
 62
     5
 63
     7
 74
     2
 91
        2
 64
     7
 65
     7
 75
     1
175
     1
 42
40.0
 92
       11
 66
     7
 43
1.0
 76
     1
 77
     6
 78
     2
 67
     7
 79
     6
170
     0
171
     0
290
     0
174
     0
 93
        1
 44
0.0
173
     0
291
     0
 45
0.0
1001
ACAD
1000
AcDbSavedByObjectVersion
1070
     0
  0
VISUALSTYLE
  5
B555
102
{ACAD_XDICTIONARY
360
B5BA
102
}
102
{ACAD_REACTORS
330
B548
102
}
330
B548
100
AcDbVisualStyle
  2
Thicken
 70
    13
 71
     2
 72
     2
 73
     0
 90
        0
 40
-0.6
 41
-30.0
 62
     5
 63
     7
 74
     1
 91
        4
 64
     7
 65
   257
 75
     1
175
     1
 42
1.0
 92
       12
 66
     7
 43
1.0
 76
     1
 77
     6
 78
     2
 67
     7
 79
     5
170
     0
171
     0
290
     0
174
     0
 93
        1
 44
0.0
173
     0
291
     1
 45
0.0
1001
ACAD
1000
AcDbSavedByObjectVersion
1070
     0
  0
VISUALSTYLE
  5
B54F
102
{ACAD_XDICTIONARY
360
B5AE
102
}
102
{ACAD_REACTORS
330
B548
102
}
330
B548
100
AcDbVisualStyle
  2
Wireframe
 70
     5
 71
     0
 72
     2
 73
     0
 90
        0
 40
-0.6
 41
-30.0
 62
     5
 63
     7
 74
     1
 91
        4
 64
     7
 65
   257
 75
     1
175
     1
 42
1.0
 92
        0
 66
   257
 43
1.0
 76
     1
 77
     6
 78
     2
 67
     7
 79
     3
170
     0
171
     0
290
     0
174
     0
 93
        1
 44
0.0
173
     0
291
     0
 45
0.0
1001
ACAD
1000
AcDbSavedByObjectVersion
1070
     0
  0
VISUALSTYLE
  5
B55B
102
{ACAD_XDICTIONARY
360
B5C6
102
}
102
{ACAD_REACTORS
330
B548
102
}
330
B548
100
AcDbVisualStyle
  2
X-Ray
 70
    25
 71
     2
 72
     2
 73
     1
 90
        1
 40
0.5
 41
-30.0
 62
     5
 63
     7
 74
     1
 91
        0
 64
     7
 65
   257
 75
     1
175
     1
 42
1.0
 92
        8
 66
     7
 43
1.0
 76
     1
 77
     6
 78
     2
 67
     7
 79
     3
170
     0
171
     0
290
     0
174
     0
 93
       13
 44
0.0
173
     0
291
     0
 45
0.0
1001
ACAD
1000
AcDbSavedByObjectVersion
1070
     0
  0
DICTIONARYVAR
  5
B595
102
{ACAD_REACTORS
330
B590
102
}
330
B590
100
DictionaryVariables
280
     0
  1
1:1
  0
DICTIONARYVAR
  5
B592
102
{ACAD_REACTORS
330
B590
102
}
330
B590
100
DictionaryVariables
280
     0
  1
STANDARD
  0
DICTIONARYVAR
  5
B591
102
{ACAD_REACTORS
330
B590
102
}
330
B590
100
DictionaryVariables
280
     0
  1
STANDARD
  0
DICTIONARYVAR
  5
B593
102
{ACAD_REACTORS
330
B590
102
}
330
B590
100
DictionaryVariables
280
     0
  1
Imperial24
  0
DICTIONARYVAR
  5
B594
102
{ACAD_REACTORS
330
B590
102
}
330
B590
100
DictionaryVariables
280
     0
  1
Imperial24
  0
DICTIONARYVAR
  5
B598
102
{ACAD_REACTORS
330
B590
102
}
330
B590
100
DictionaryVariables
280
     0
  1
1
  0
DICTIONARYVAR
  5
B597
102
{ACAD_REACTORS
330
B590
102
}
330
B590
100
DictionaryVariables
280
     0
  1
0
  0
DICTIONARYVAR
  5
B596
102
{ACAD_REACTORS
330
B590
102
}
330
B590
100
DictionaryVariables
280
     0
  1
127
  0
DICTIONARYVAR
  5
B599
102
{ACAD_REACTORS
330
B590
102
}
330
B590
100
DictionaryVariables
280
     0
  1
2
  0
DICTIONARY
  5
B5D6
330
B57B
100
AcDbDictionary
280
     1
281
     1
  3
ACAD_XREC_ROUNDTRIP
360
B5D7
  0
DICTIONARY
  5
B5D8
330
B57C
100
AcDbDictionary
280
     1
281
     1
  3
ACAD_XREC_ROUNDTRIP
360
B5D9
  0
DICTIONARY
  5
B5DA
330
B57D
100
AcDbDictionary
280
     1
281
     1
  3
ACAD_XREC_ROUNDTRIP
360
B5DB
  0
DICTIONARY
  5
B539
330
B538
100
AcDbDictionary
280
     1
281
     1
  3
ACAD_XREC_ROUNDTRIP
360
B5A0
  3
BUMPTILE
360
B53B
  3
DIFFUSETILE
360
B53A
  3
OPACITYTILE
360
B53E
  3
REFLECTIONTILE
360
B53D
  3
REFRACTIONTILE
360
B53F
  3
SPECULARTILE
360
B53C
  0
DICTIONARY
  5
B531
330
B530
100
AcDbDictionary
280
     1
281
     1
  3
ACAD_XREC_ROUNDTRIP
360
B59F
  3
BUMPTILE
360
B533
  3
DIFFUSETILE
360
B532
  3
OPACITYTILE
360
B536
  3
REFLECTIONTILE
360
B535
  3
REFRACTIONTILE
360
B537
  3
SPECULARTILE
360
B534
  0
DICTIONARY
  5
B541
330
B540
100
AcDbDictionary
280
     1
281
     1
  3
ACAD_XREC_ROUNDTRIP
360
B5A1
  3
BUMPTILE
360
B543
  3
DIFFUSETILE
360
B542
  3
OPACITYTILE
360
B546
  3
REFLECTIONTILE
360
B545
  3
REFRACTIONTILE
360
B547
  3
SPECULARTILE
360
B544
  0
DICTIONARY
  5
B5D4
330
B579
100
AcDbDictionary
280
     1
281
     1
  3
ACAD_XREC_ROUNDTRIP
360
B5D5
  0
DICTIONARY
  5
B59B
330
B563
100
AcDbDictionary
280
     1
281
     1
  3
ACAD_ROUNDTRIP_2008_TABLESTYLE_CELLSTYLEMAP
360
B59C
  3
ACAD_XREC_ROUNDTRIP
360
B5D2
  0
DICTIONARY
  5
B5AC
330
B54E
100
AcDbDictionary
280
     1
281
     1
  3
ACAD_XREC_ROUNDTRIP
360
B5AD
  0
DICTIONARY
  5
B5AA
330
B54D
100
AcDbDictionary
280
     1
281
     1
  3
ACAD_XREC_ROUNDTRIP
360
B5AB
  0
DICTIONARY
  5
B5B8
330
B554
100
AcDbDictionary
280
     1
281
     1
  3
ACAD_XREC_ROUNDTRIP
360
B5B9
  0
DICTIONARY
  5
B5C0
330
B558
100
AcDbDictionary
280
     1
281
     1
  3
ACAD_XREC_ROUNDTRIP
360
B5C1
  0
DICTIONARY
  5
B5B2
330
B551
100
AcDbDictionary
280
     1
281
     1
  3
ACAD_XREC_ROUNDTRIP
360
B5B3
  0
DICTIONARY
  5
B5B6
330
B553
100
AcDbDictionary
280
     1
281
     1
  3
ACAD_XREC_ROUNDTRIP
360
B5B7
  0
DICTIONARY
  5
B5D0
330
B560
100
AcDbDictionary
280
     1
281
     1
  3
ACAD_XREC_ROUNDTRIP
360
B5D1
  0
DICTIONARY
  5
B5BE
330
B557
100
AcDbDictionary
280
     1
281
     1
  3
ACAD_XREC_ROUNDTRIP
360
B5BF
  0
DICTIONARY
  5
B5A2
330
B549
100
AcDbDictionary
280
     1
281
     1
  3
ACAD_XREC_ROUNDTRIP
360
B5A3
  0
DICTIONARY
  5
B5A4
330
B54A
100
AcDbDictionary
280
     1
281
     1
  3
ACAD_XREC_ROUNDTRIP
360
B5A5
  0
DICTIONARY
  5
B5A6
330
B54B
100
AcDbDictionary
280
     1
281
     1
  3
ACAD_XREC_ROUNDTRIP
360
B5A7
  0
DICTIONARY
  5
B5A8
330
B54C
100
AcDbDictionary
280
     1
281
     1
  3
ACAD_XREC_ROUNDTRIP
360
B5A9
  0
DICTIONARY
  5
B5B0
330
B550
100
AcDbDictionary
280
     1
281
     1
  3
ACAD_XREC_ROUNDTRIP
360
B5B1
  0
DICTIONARY
  5
B5CC
330
B55E
100
AcDbDictionary
280
     1
281
     1
  3
ACAD_XREC_ROUNDTRIP
360
B5CD
  0
DICTIONARY
  5
B5BC
330
B556
100
AcDbDictionary
280
     1
281
     1
  3
ACAD_XREC_ROUNDTRIP
360
B5BD
  0
DICTIONARY
  5
B5CE
330
B55F
100
AcDbDictionary
280
     1
281
     1
  3
ACAD_XREC_ROUNDTRIP
360
B5CF
  0
DICTIONARY
  5
B5B4
330
B552
100
AcDbDictionary
280
     1
281
     1
  3
ACAD_XREC_ROUNDTRIP
360
B5B5
  0
DICTIONARY
  5
B5CA
330
B55D
100
AcDbDictionary
280
     1
281
     1
  3
ACAD_XREC_ROUNDTRIP
360
B5CB
  0
DICTIONARY
  5
B5C8
330
B55C
100
AcDbDictionary
280
     1
281
     1
  3
ACAD_XREC_ROUNDTRIP
360
B5C9
  0
DICTIONARY
  5
B5C2
330
B559
100
AcDbDictionary
280
     1
281
     1
  3
ACAD_XREC_ROUNDTRIP
360
B5C3
  0
DICTIONARY
  5
B5C4
330
B55A
100
AcDbDictionary
280
     1
281
     1
  3
ACAD_XREC_ROUNDTRIP
360
B5C5
  0
DICTIONARY
  5
B5BA
330
B555
100
AcDbDictionary
280
     1
281
     1
  3
ACAD_XREC_ROUNDTRIP
360
B5BB
  0
DICTIONARY
  5
B5AE
330
B54F
100
AcDbDictionary
280
     1
281
     1
  3
ACAD_XREC_ROUNDTRIP
360
B5AF
  0
DICTIONARY
  5
B5C6
330
B55B
100
AcDbDictionary
280
     1
281
     1
  3
ACAD_XREC_ROUNDTRIP
360
B5C7
  0
XRECORD
  5
B5D7
102
{ACAD_REACTORS
330
B5D6
102
}
330
B5D6
100
AcDbXrecord
280
     1
102
DISPLAYNAME
  1
Imperial24
102
FLAGS
 90
        0
  0
XRECORD
  5
B5D9
102
{ACAD_REACTORS
330
B5D8
102
}
330
B5D8
100
AcDbXrecord
280
     1
102
SHADEPLOT
 70
     0
102
SHADEPLOTRESLEVEL
 70
     2
102
SHADEPLOTCUSTOMDPI
 70
   300
  0
XRECORD
  5
B5DB
102
{ACAD_REACTORS
330
B5DA
102
}
330
B5DA
100
AcDbXrecord
280
     1
102
SHADEPLOT
 70
     0
102
SHADEPLOTRESLEVEL
 70
     2
102
SHADEPLOTCUSTOMDPI
 70
   300
  0
XRECORD
  5
B5A0
102
{ACAD_REACTORS
330
B539
102
}
330
B539
100
AcDbXrecord
280
     1
102
MATERIAL
148
0.0
149
0.0
149
0.0
 93
        0
 94
      127
282
     0
 72
     0
 77
     0
171
     0
175
     0
179
     0
273
     0
  0
XRECORD
  5
B53B
102
{ACAD_REACTORS
330
B539
102
}
330
B539
100
AcDbXrecord
280
     1
270
     1
271
     1
  0
XRECORD
  5
B53A
102
{ACAD_REACTORS
330
B539
102
}
330
B539
100
AcDbXrecord
280
     1
270
     1
271
     1
  0
XRECORD
  5
B53E
102
{ACAD_REACTORS
330
B539
102
}
330
B539
100
AcDbXrecord
280
     1
270
     1
271
     1
  0
XRECORD
  5
B53D
102
{ACAD_REACTORS
330
B539
102
}
330
B539
100
AcDbXrecord
280
     1
270
     1
271
     1
  0
XRECORD
  5
B53F
102
{ACAD_REACTORS
330
B539
102
}
330
B539
100
AcDbXrecord
280
     1
270
     1
271
     1
  0
XRECORD
  5
B53C
102
{ACAD_REACTORS
330
B539
102
}
330
B539
100
AcDbXrecord
280
     1
270
     1
271
     1
  0
XRECORD
  5
B59F
102
{ACAD_REACTORS
330
B531
102
}
330
B531
100
AcDbXrecord
280
     1
102
MATERIAL
148
0.0
149
0.0
149
0.0
 93
        0
 94
      127
282
     0
 72
     0
 77
     0
171
     0
175
     0
179
     0
273
     0
  0
XRECORD
  5
B533
102
{ACAD_REACTORS
330
B531
102
}
330
B531
100
AcDbXrecord
280
     1
270
     1
271
     1
  0
XRECORD
  5
B532
102
{ACAD_REACTORS
330
B531
102
}
330
B531
100
AcDbXrecord
280
     1
270
     1
271
     1
  0
XRECORD
  5
B536
102
{ACAD_REACTORS
330
B531
102
}
330
B531
100
AcDbXrecord
280
     1
270
     1
271
     1
  0
XRECORD
  5
B535
102
{ACAD_REACTORS
330
B531
102
}
330
B531
100
AcDbXrecord
280
     1
270
     1
271
     1
  0
XRECORD
  5
B537
102
{ACAD_REACTORS
330
B531
102
}
330
B531
100
AcDbXrecord
280
     1
270
     1
271
     1
  0
XRECORD
  5
B534
102
{ACAD_REACTORS
330
B531
102
}
330
B531
100
AcDbXrecord
280
     1
270
     1
271
     1
  0
XRECORD
  5
B5A1
102
{ACAD_REACTORS
330
B541
102
}
330
B541
100
AcDbXrecord
280
     1
102
MATERIAL
148
0.0
149
0.0
149
0.0
 93
        0
 94
      127
282
     0
 72
     0
 77
     0
171
     0
175
     0
179
     0
273
     0
  0
XRECORD
  5
B543
102
{ACAD_REACTORS
330
B541
102
}
330
B541
100
AcDbXrecord
280
     1
270
     1
271
     1
  0
XRECORD
  5
B542
102
{ACAD_REACTORS
330
B541
102
}
330
B541
100
AcDbXrecord
280
     1
270
     1
271
     1
  0
XRECORD
  5
B546
102
{ACAD_REACTORS
330
B541
102
}
330
B541
100
AcDbXrecord
280
     1
270
     1
271
     1
  0
XRECORD
  5
B545
102
{ACAD_REACTORS
330
B541
102
}
330
B541
100
AcDbXrecord
280
     1
270
     1
271
     1
  0
XRECORD
  5
B547
102
{ACAD_REACTORS
330
B541
102
}
330
B541
100
AcDbXrecord
280
     1
270
     1
271
     1
  0
XRECORD
  5
B544
102
{ACAD_REACTORS
330
B541
102
}
330
B541
100
AcDbXrecord
280
     1
270
     1
271
     1
  0
XRECORD
  5
B5D5
102
{ACAD_REACTORS
330
B5D4
102
}
330
B5D4
100
AcDbXrecord
280
     1
102
DISPLAYNAME
  1
Imperial24
102
FLAGS
 90
        0
  0
CELLSTYLEMAP
  5
B59C
102
{ACAD_REACTORS
330
B59B
102
}
330
B59B
100
AcDbCellStyleMap
 90
        3
300
CELLSTYLE
  1
TABLEFORMAT_BEGIN
 90
        5
170
     1
 91
        0
 92
    32768
 62
   257
 93
        1
300
CONTENTFORMAT
  1
CONTENTFORMAT_BEGIN
 90
        0
 91
        0
 92
      512
 93
        0
300

 40
0.0
140
1.0
 94
        5
 62
     0
340
B357
144
0.25
309
CONTENTFORMAT_END
171
     0
 94
        0
309
TABLEFORMAT_END
  1
CELLSTYLE_BEGIN
 90
        1
 91
        1
300
_TITLE
309
CELLSTYLE_END
300
CELLSTYLE
  1
TABLEFORMAT_BEGIN
 90
        5
170
     1
 91
        0
 92
        0
 62
   257
 93
        1
300
CONTENTFORMAT
  1
CONTENTFORMAT_BEGIN
 90
        0
 91
        0
 92
      512
 93
        0
300

 40
0.0
140
1.0
 94
        5
 62
     0
340
B357
144
0.18
309
CONTENTFORMAT_END
171
     0
 94
        0
309
TABLEFORMAT_END
  1
CELLSTYLE_BEGIN
 90
        2
 91
        1
300
_HEADER
309
CELLSTYLE_END
300
CELLSTYLE
  1
TABLEFORMAT_BEGIN
 90
        5
170
     1
 91
        0
 92
        0
 62
   257
 93
        1
300
CONTENTFORMAT
  1
CONTENTFORMAT_BEGIN
 90
        0
 91
        0
 92
      512
 93
        0
300

 40
0.0
140
1.0
 94
        2
 62
     0
340
B357
144
0.18
309
CONTENTFORMAT_END
171
     0
 94
        0
309
TABLEFORMAT_END
  1
CELLSTYLE_BEGIN
 90
        3
 91
        2
300
_DATA
309
CELLSTYLE_END
  0
XRECORD
  5
B5D2
102
{ACAD_REACTORS
330
B59B
102
}
330
B59B
100
AcDbXrecord
280
     1
102
ACAD_ROUNDTRIP_PRE2007_TABLESTYLE
 90
      512
 91
        0
  1

 92
      512
 93
        0
  2

 94
      512
 95
        0
  3

  0
XRECORD
  5
B5AD
102
{ACAD_REACTORS
330
B5AC
102
}
330
B5AC
100
AcDbXrecord
280
     1
102
RTVSPost2010Prop28
280
     1
102
RTVSPost2010PropOp28
 70
     1
102
RTVSPost2010Prop29
280
     1
102
RTVSPost2010PropOp29
 70
     1
102
RTVSPost2010Prop30
280
     0
102
RTVSPost2010PropOp30
 70
     1
102
RTVSPost2010Prop31
280
     0
102
RTVSPost2010PropOp31
 70
     1
102
RTVSPost2010Prop32
280
     0
102
RTVSPost2010PropOp32
 70
     1
102
RTVSPost2010Prop33
280
     0
102
RTVSPost2010PropOp33
 70
     1
102
RTVSPost2010Prop34
280
     0
102
RTVSPost2010PropOp34
 70
     1
102
RTVSPost2010Prop35
280
     0
102
RTVSPost2010PropOp35
 70
     1
102
RTVSPost2010Prop36
280
     0
102
RTVSPost2010PropOp36
 70
     1
102
RTVSPost2010Prop37
 90
       50
102
RTVSPost2010PropOp37
 70
     1
102
RTVSPost2010Prop38
140
0.0
102
RTVSPost2010PropOp38
 70
     1
102
RTVSPost2010Prop39
140
1.0
102
RTVSPost2010PropOp39
 70
     1
102
RTVSPost2010Prop40
 90
        0
102
RTVSPost2010PropOp40
 70
     1
102
RTVSPost2010Prop41ColorIndex
 90
       18
102
RTVSPost2010Prop41ColorRGB
 90
        0
102
RTVSPost2010PropOp41
 70
     1
102
RTVSPost2010Prop42
 90
       50
102
RTVSPost2010PropOp42
 70
     1
102
RTVSPost2010Prop43
 90
        3
102
RTVSPost2010PropOp43
 70
     1
102
RTVSPost2010Prop44ColorIndex
 90
        5
102
RTVSPost2010Prop44ColorRGB
 90
      255
102
RTVSPost2010PropOp44
 70
     1
102
RTVSPost2010Prop45
280
     0
102
RTVSPost2010PropOp45
 70
     1
102
RTVSPost2010Prop46
 90
       50
102
RTVSPost2010PropOp46
 70
     1
102
RTVSPost2010Prop47
 90
       50
102
RTVSPost2010PropOp47
 70
     1
102
RTVSPost2010Prop48
 90
       50
102
RTVSPost2010PropOp48
 70
     1
102
RTVSPost2010Prop49
280
     0
102
RTVSPost2010PropOp49
 70
     1
102
RTVSPost2010Prop50
 90
       50
102
RTVSPost2010PropOp50
 70
     1
102
RTVSPost2010Prop51ColorIndex
 90
      256
102
RTVSPost2010Prop51ColorRGB
 90
-16777216
102
RTVSPost2010PropOp51
 70
     0
102
RTVSPost2010Prop52
140
1.0
102
RTVSPost2010PropOp52
 70
     0
102
RTVSPost2010Prop53
 90
        2
102
RTVSPost2010PropOp53
 70
     1
102
RTVSPost2010Prop54
  1
strokes_ogs.tif
102
RTVSPost2010PropOp54
 70
     1
102
RTVSPost2010Prop55
280
     0
102
RTVSPost2010PropOp55
 70
     1
102
RTVSPost2010Prop56
140
1.0
102
RTVSPost2010PropOp56
 70
     1
102
RTVSPost2010Prop57
140
1.0
102
RTVSPost2010PropOp57
 70
     1
102
RTVSPropertyOp0
 70
     1
102
RTVSPropertyOp1
 70
     1
102
RTVSPropertyOp2
 70
     1
102
RTVSPropertyOp3
 70
     1
102
RTVSPropertyOp4
 70
     1
102
RTVSPropertyOp5
 70
     1
102
RTVSPropertyOp6
 70
     1
102
RTVSPropertyOp7
 70
     1
102
RTVSPropertyOp8
 70
     1
102
RTVSPropertyOp9
 70
     1
102
RTVSPropertyOp10
 70
     1
102
RTVSPropertyOp11
 70
     1
102
RTVSPropertyOp12
 70
     1
102
RTVSPropertyOp13
 70
     1
102
RTVSPropertyOp14
 70
     1
102
RTVSPropertyOp15
 70
     1
102
RTVSPropertyOp16
 70
     1
102
RTVSPropertyOp17
 70
     1
102
RTVSPropertyOp18
 70
     1
102
RTVSPropertyOp19
 70
     1
102
RTVSPropertyOp20
 70
     1
102
RTVSPropertyOp21
 70
     1
102
RTVSPropertyOp22
 70
     1
102
RTVSPropertyOp23
 70
     1
102
RTVSPropertyOp24
 70
     1
102
RTVSPropertyOp25
 70
     1
102
RTVSPropertyOp26
 70
     1
102
RTVSPropertyOp27
 70
     1
102
RTVSPropertyOp28
 70
     1
102
RTVSPropertyOp29
 70
     1
102
RTVSPropertyOp30
 70
     1
102
RTVSPropertyOp31
 70
     1
102
RTVSPropertyOp32
 70
     1
102
RTVSPropertyOp33
 70
     1
102
RTVSPropertyOp34
 70
     1
102
RTVSPropertyOp35
 70
     1
102
RTVSPropertyOp36
 70
     1
102
RTVSPropertyOp37
 70
     1
102
RTVSPropertyOp38
 70
     1
102
RTVSPropertyOp39
 70
     1
102
RTVSPropertyOp40
 70
     1
102
RTVSPropertyOp41
 70
     1
102
RTVSPropertyOp42
 70
     1
102
RTVSPropertyOp43
 70
     1
102
RTVSPropertyOp44
 70
     1
102
RTVSPropertyOp45
 70
     1
102
RTVSPropertyOp46
 70
     1
102
RTVSPropertyOp47
 70
     1
102
RTVSPropertyOp48
 70
     1
102
RTVSPropertyOp49
 70
     1
102
RTVSPropertyOp50
 70
     1
102
RTVSPropertyOp51
 70
     0
102
RTVSPropertyOp52
 70
     0
102
RTVSPropertyOp53
 70
     1
102
RTVSPropertyOp54
 70
     1
102
RTVSPropertyOp55
 70
     1
102
RTVSPropertyOp56
 70
     1
102
RTVSPropertyOp57
 70
     1
102
RTVSPropertyOp58
 70
     1
102
RTVSPropertyOp59
 70
     1
102
RTVSPropertyOp60
 70
     1
102
RTVSPropertyOp61
 70
     1
102
RTVSPropertyOp62
 70
     1
  0
XRECORD
  5
B5AB
102
{ACAD_REACTORS
330
B5AA
102
}
330
B5AA
100
AcDbXrecord
280
     1
102
RTVSPost2010Prop28
280
     0
102
RTVSPost2010PropOp28
 70
     1
102
RTVSPost2010Prop29
280
     1
102
RTVSPost2010PropOp29
 70
     1
102
RTVSPost2010Prop30
280
     1
102
RTVSPost2010PropOp30
 70
     1
102
RTVSPost2010Prop31
280
     0
102
RTVSPost2010PropOp31
 70
     1
102
RTVSPost2010Prop32
280
     0
102
RTVSPost2010PropOp32
 70
     1
102
RTVSPost2010Prop33
280
     0
102
RTVSPost2010PropOp33
 70
     1
102
RTVSPost2010Prop34
280
     0
102
RTVSPost2010PropOp34
 70
     1
102
RTVSPost2010Prop35
280
     0
102
RTVSPost2010PropOp35
 70
     1
102
RTVSPost2010Prop36
280
     0
102
RTVSPost2010PropOp36
 70
     1
102
RTVSPost2010Prop37
 90
       50
102
RTVSPost2010PropOp37
 70
     1
102
RTVSPost2010Prop38
140
0.0
102
RTVSPost2010PropOp38
 70
     1
102
RTVSPost2010Prop39
140
1.0
102
RTVSPost2010PropOp39
 70
     1
102
RTVSPost2010Prop40
 90
        0
102
RTVSPost2010PropOp40
 70
     1
102
RTVSPost2010Prop41ColorIndex
 90
       18
102
RTVSPost2010Prop41ColorRGB
 90
        0
102
RTVSPost2010PropOp41
 70
     1
102
RTVSPost2010Prop42
 90
       50
102
RTVSPost2010PropOp42
 70
     1
102
RTVSPost2010Prop43
 90
        3
102
RTVSPost2010PropOp43
 70
     1
102
RTVSPost2010Prop44ColorIndex
 90
        5
102
RTVSPost2010Prop44ColorRGB
 90
      255
102
RTVSPost2010PropOp44
 70
     1
102
RTVSPost2010Prop45
280
     0
102
RTVSPost2010PropOp45
 70
     1
102
RTVSPost2010Prop46
 90
       50
102
RTVSPost2010PropOp46
 70
     1
102
RTVSPost2010Prop47
 90
       50
102
RTVSPost2010PropOp47
 70
     1
102
RTVSPost2010Prop48
 90
       50
102
RTVSPost2010PropOp48
 70
     1
102
RTVSPost2010Prop49
280
     0
102
RTVSPost2010PropOp49
 70
     1
102
RTVSPost2010Prop50
 90
       50
102
RTVSPost2010PropOp50
 70
     1
102
RTVSPost2010Prop51ColorIndex
 90
      256
102
RTVSPost2010Prop51ColorRGB
 90
-16777216
102
RTVSPost2010PropOp51
 70
     0
102
RTVSPost2010Prop52
140
1.0
102
RTVSPost2010PropOp52
 70
     0
102
RTVSPost2010Prop53
 90
        2
102
RTVSPost2010PropOp53
 70
     1
102
RTVSPost2010Prop54
  1
strokes_ogs.tif
102
RTVSPost2010PropOp54
 70
     1
102
RTVSPost2010Prop55
280
     0
102
RTVSPost2010PropOp55
 70
     1
102
RTVSPost2010Prop56
140
1.0
102
RTVSPost2010PropOp56
 70
     1
102
RTVSPost2010Prop57
140
1.0
102
RTVSPost2010PropOp57
 70
     1
102
RTVSPropertyOp0
 70
     1
102
RTVSPropertyOp1
 70
     1
102
RTVSPropertyOp2
 70
     1
102
RTVSPropertyOp3
 70
     1
102
RTVSPropertyOp4
 70
     1
102
RTVSPropertyOp5
 70
     1
102
RTVSPropertyOp6
 70
     1
102
RTVSPropertyOp7
 70
     1
102
RTVSPropertyOp8
 70
     1
102
RTVSPropertyOp9
 70
     1
102
RTVSPropertyOp10
 70
     1
102
RTVSPropertyOp11
 70
     1
102
RTVSPropertyOp12
 70
     1
102
RTVSPropertyOp13
 70
     1
102
RTVSPropertyOp14
 70
     1
102
RTVSPropertyOp15
 70
     1
102
RTVSPropertyOp16
 70
     1
102
RTVSPropertyOp17
 70
     1
102
RTVSPropertyOp18
 70
     1
102
RTVSPropertyOp19
 70
     1
102
RTVSPropertyOp20
 70
     1
102
RTVSPropertyOp21
 70
     1
102
RTVSPropertyOp22
 70
     1
102
RTVSPropertyOp23
 70
     1
102
RTVSPropertyOp24
 70
     1
102
RTVSPropertyOp25
 70
     1
102
RTVSPropertyOp26
 70
     1
102
RTVSPropertyOp27
 70
     1
102
RTVSPropertyOp28
 70
     1
102
RTVSPropertyOp29
 70
     1
102
RTVSPropertyOp30
 70
     1
102
RTVSPropertyOp31
 70
     1
102
RTVSPropertyOp32
 70
     1
102
RTVSPropertyOp33
 70
     1
102
RTVSPropertyOp34
 70
     1
102
RTVSPropertyOp35
 70
     1
102
RTVSPropertyOp36
 70
     1
102
RTVSPropertyOp37
 70
     1
102
RTVSPropertyOp38
 70
     1
102
RTVSPropertyOp39
 70
     1
102
RTVSPropertyOp40
 70
     1
102
RTVSPropertyOp41
 70
     1
102
RTVSPropertyOp42
 70
     1
102
RTVSPropertyOp43
 70
     1
102
RTVSPropertyOp44
 70
     1
102
RTVSPropertyOp45
 70
     1
102
RTVSPropertyOp46
 70
     1
102
RTVSPropertyOp47
 70
     1
102
RTVSPropertyOp48
 70
     1
102
RTVSPropertyOp49
 70
     1
102
RTVSPropertyOp50
 70
     1
102
RTVSPropertyOp51
 70
     0
102
RTVSPropertyOp52
 70
     0
102
RTVSPropertyOp53
 70
     1
102
RTVSPropertyOp54
 70
     1
102
RTVSPropertyOp55
 70
     1
102
RTVSPropertyOp56
 70
     1
102
RTVSPropertyOp57
 70
     1
102
RTVSPropertyOp58
 70
     1
102
RTVSPropertyOp59
 70
     1
102
RTVSPropertyOp60
 70
     1
102
RTVSPropertyOp61
 70
     1
102
RTVSPropertyOp62
 70
     1
  0
XRECORD
  5
B5B9
102
{ACAD_REACTORS
330
B5B8
102
}
330
B5B8
100
AcDbXrecord
280
     1
102
RTVSPost2010Prop28
280
     0
102
RTVSPost2010PropOp28
 70
     1
102
RTVSPost2010Prop29
280
     1
102
RTVSPost2010PropOp29
 70
     1
102
RTVSPost2010Prop30
280
     1
102
RTVSPost2010PropOp30
 70
     1
102
RTVSPost2010Prop31
280
     0
102
RTVSPost2010PropOp31
 70
     1
102
RTVSPost2010Prop32
280
     0
102
RTVSPost2010PropOp32
 70
     1
102
RTVSPost2010Prop33
280
     0
102
RTVSPost2010PropOp33
 70
     1
102
RTVSPost2010Prop34
280
     0
102
RTVSPost2010PropOp34
 70
     1
102
RTVSPost2010Prop35
280
     0
102
RTVSPost2010PropOp35
 70
     1
102
RTVSPost2010Prop36
280
     0
102
RTVSPost2010PropOp36
 70
     1
102
RTVSPost2010Prop37
 90
       50
102
RTVSPost2010PropOp37
 70
     1
102
RTVSPost2010Prop38
140
0.0
102
RTVSPost2010PropOp38
 70
     1
102
RTVSPost2010Prop39
140
1.0
102
RTVSPost2010PropOp39
 70
     1
102
RTVSPost2010Prop40
 90
        0
102
RTVSPost2010PropOp40
 70
     1
102
RTVSPost2010Prop41ColorIndex
 90
       18
102
RTVSPost2010Prop41ColorRGB
 90
        0
102
RTVSPost2010PropOp41
 70
     1
102
RTVSPost2010Prop42
 90
       50
102
RTVSPost2010PropOp42
 70
     1
102
RTVSPost2010Prop43
 90
        3
102
RTVSPost2010PropOp43
 70
     1
102
RTVSPost2010Prop44ColorIndex
 90
        5
102
RTVSPost2010Prop44ColorRGB
 90
      255
102
RTVSPost2010PropOp44
 70
     1
102
RTVSPost2010Prop45
280
     0
102
RTVSPost2010PropOp45
 70
     1
102
RTVSPost2010Prop46
 90
       50
102
RTVSPost2010PropOp46
 70
     1
102
RTVSPost2010Prop47
 90
       50
102
RTVSPost2010PropOp47
 70
     1
102
RTVSPost2010Prop48
 90
       50
102
RTVSPost2010PropOp48
 70
     1
102
RTVSPost2010Prop49
280
     0
102
RTVSPost2010PropOp49
 70
     1
102
RTVSPost2010Prop50
 90
       50
102
RTVSPost2010PropOp50
 70
     1
102
RTVSPost2010Prop51ColorIndex
 90
      256
102
RTVSPost2010Prop51ColorRGB
 90
-16777216
102
RTVSPost2010PropOp51
 70
     0
102
RTVSPost2010Prop52
140
1.0
102
RTVSPost2010PropOp52
 70
     0
102
RTVSPost2010Prop53
 90
        2
102
RTVSPost2010PropOp53
 70
     1
102
RTVSPost2010Prop54
  1
strokes_ogs.tif
102
RTVSPost2010PropOp54
 70
     1
102
RTVSPost2010Prop55
280
     0
102
RTVSPost2010PropOp55
 70
     1
102
RTVSPost2010Prop56
140
1.0
102
RTVSPost2010PropOp56
 70
     1
102
RTVSPost2010Prop57
140
1.0
102
RTVSPost2010PropOp57
 70
     1
102
RTVSPropertyOp0
 70
     1
102
RTVSPropertyOp1
 70
     1
102
RTVSPropertyOp2
 70
     1
102
RTVSPropertyOp3
 70
     1
102
RTVSPropertyOp4
 70
     1
102
RTVSPropertyOp5
 70
     1
102
RTVSPropertyOp6
 70
     1
102
RTVSPropertyOp7
 70
     1
102
RTVSPropertyOp8
 70
     1
102
RTVSPropertyOp9
 70
     1
102
RTVSPropertyOp10
 70
     1
102
RTVSPropertyOp11
 70
     1
102
RTVSPropertyOp12
 70
     1
102
RTVSPropertyOp13
 70
     1
102
RTVSPropertyOp14
 70
     1
102
RTVSPropertyOp15
 70
     1
102
RTVSPropertyOp16
 70
     1
102
RTVSPropertyOp17
 70
     1
102
RTVSPropertyOp18
 70
     1
102
RTVSPropertyOp19
 70
     1
102
RTVSPropertyOp20
 70
     1
102
RTVSPropertyOp21
 70
     1
102
RTVSPropertyOp22
 70
     1
102
RTVSPropertyOp23
 70
     1
102
RTVSPropertyOp24
 70
     1
102
RTVSPropertyOp25
 70
     1
102
RTVSPropertyOp26
 70
     1
102
RTVSPropertyOp27
 70
     1
102
RTVSPropertyOp28
 70
     1
102
RTVSPropertyOp29
 70
     1
102
RTVSPropertyOp30
 70
     1
102
RTVSPropertyOp31
 70
     1
102
RTVSPropertyOp32
 70
     1
102
RTVSPropertyOp33
 70
     1
102
RTVSPropertyOp34
 70
     1
102
RTVSPropertyOp35
 70
     1
102
RTVSPropertyOp36
 70
     1
102
RTVSPropertyOp37
 70
     1
102
RTVSPropertyOp38
 70
     1
102
RTVSPropertyOp39
 70
     1
102
RTVSPropertyOp40
 70
     1
102
RTVSPropertyOp41
 70
     1
102
RTVSPropertyOp42
 70
     1
102
RTVSPropertyOp43
 70
     1
102
RTVSPropertyOp44
 70
     1
102
RTVSPropertyOp45
 70
     1
102
RTVSPropertyOp46
 70
     1
102
RTVSPropertyOp47
 70
     1
102
RTVSPropertyOp48
 70
     1
102
RTVSPropertyOp49
 70
     1
102
RTVSPropertyOp50
 70
     1
102
RTVSPropertyOp51
 70
     0
102
RTVSPropertyOp52
 70
     0
102
RTVSPropertyOp53
 70
     1
102
RTVSPropertyOp54
 70
     1
102
RTVSPropertyOp55
 70
     1
102
RTVSPropertyOp56
 70
     1
102
RTVSPropertyOp57
 70
     1
102
RTVSPropertyOp58
 70
     1
102
RTVSPropertyOp59
 70
     1
102
RTVSPropertyOp60
 70
     1
102
RTVSPropertyOp61
 70
     1
102
RTVSPropertyOp62
 70
     1
  0
XRECORD
  5
B5C1
102
{ACAD_REACTORS
330
B5C0
102
}
330
B5C0
100
AcDbXrecord
280
     1
102
RTVSPost2010Prop28
280
     0
102
RTVSPost2010PropOp28
 70
     1
102
RTVSPost2010Prop29
280
     1
102
RTVSPost2010PropOp29
 70
     1
102
RTVSPost2010Prop30
280
     1
102
RTVSPost2010PropOp30
 70
     1
102
RTVSPost2010Prop31
280
     0
102
RTVSPost2010PropOp31
 70
     1
102
RTVSPost2010Prop32
280
     0
102
RTVSPost2010PropOp32
 70
     1
102
RTVSPost2010Prop33
280
     0
102
RTVSPost2010PropOp33
 70
     1
102
RTVSPost2010Prop34
280
     0
102
RTVSPost2010PropOp34
 70
     1
102
RTVSPost2010Prop35
280
     0
102
RTVSPost2010PropOp35
 70
     1
102
RTVSPost2010Prop36
280
     0
102
RTVSPost2010PropOp36
 70
     1
102
RTVSPost2010Prop37
 90
       50
102
RTVSPost2010PropOp37
 70
     1
102
RTVSPost2010Prop38
140
0.0
102
RTVSPost2010PropOp38
 70
     1
102
RTVSPost2010Prop39
140
1.0
102
RTVSPost2010PropOp39
 70
     1
102
RTVSPost2010Prop40
 90
        0
102
RTVSPost2010PropOp40
 70
     1
102
RTVSPost2010Prop41ColorIndex
 90
       18
102
RTVSPost2010Prop41ColorRGB
 90
        0
102
RTVSPost2010PropOp41
 70
     1
102
RTVSPost2010Prop42
 90
       50
102
RTVSPost2010PropOp42
 70
     1
102
RTVSPost2010Prop43
 90
        3
102
RTVSPost2010PropOp43
 70
     1
102
RTVSPost2010Prop44ColorIndex
 90
        5
102
RTVSPost2010Prop44ColorRGB
 90
      255
102
RTVSPost2010PropOp44
 70
     1
102
RTVSPost2010Prop45
280
     0
102
RTVSPost2010PropOp45
 70
     1
102
RTVSPost2010Prop46
 90
       50
102
RTVSPost2010PropOp46
 70
     1
102
RTVSPost2010Prop47
 90
       50
102
RTVSPost2010PropOp47
 70
     1
102
RTVSPost2010Prop48
 90
       50
102
RTVSPost2010PropOp48
 70
     1
102
RTVSPost2010Prop49
280
     0
102
RTVSPost2010PropOp49
 70
     1
102
RTVSPost2010Prop50
 90
       50
102
RTVSPost2010PropOp50
 70
     1
102
RTVSPost2010Prop51ColorIndex
 90
      256
102
RTVSPost2010Prop51ColorRGB
 90
-16777216
102
RTVSPost2010PropOp51
 70
     0
102
RTVSPost2010Prop52
140
1.0
102
RTVSPost2010PropOp52
 70
     0
102
RTVSPost2010Prop53
 90
        2
102
RTVSPost2010PropOp53
 70
     1
102
RTVSPost2010Prop54
  1
strokes_ogs.tif
102
RTVSPost2010PropOp54
 70
     1
102
RTVSPost2010Prop55
280
     0
102
RTVSPost2010PropOp55
 70
     1
102
RTVSPost2010Prop56
140
1.0
102
RTVSPost2010PropOp56
 70
     1
102
RTVSPost2010Prop57
140
1.0
102
RTVSPost2010PropOp57
 70
     1
102
RTVSPropertyOp0
 70
     1
102
RTVSPropertyOp1
 70
     1
102
RTVSPropertyOp2
 70
     1
102
RTVSPropertyOp3
 70
     1
102
RTVSPropertyOp4
 70
     1
102
RTVSPropertyOp5
 70
     1
102
RTVSPropertyOp6
 70
     1
102
RTVSPropertyOp7
 70
     1
102
RTVSPropertyOp8
 70
     1
102
RTVSPropertyOp9
 70
     1
102
RTVSPropertyOp10
 70
     1
102
RTVSPropertyOp11
 70
     1
102
RTVSPropertyOp12
 70
     1
102
RTVSPropertyOp13
 70
     1
102
RTVSPropertyOp14
 70
     1
102
RTVSPropertyOp15
 70
     1
102
RTVSPropertyOp16
 70
     1
102
RTVSPropertyOp17
 70
     1
102
RTVSPropertyOp18
 70
     1
102
RTVSPropertyOp19
 70
     1
102
RTVSPropertyOp20
 70
     1
102
RTVSPropertyOp21
 70
     1
102
RTVSPropertyOp22
 70
     1
102
RTVSPropertyOp23
 70
     1
102
RTVSPropertyOp24
 70
     1
102
RTVSPropertyOp25
 70
     1
102
RTVSPropertyOp26
 70
     1
102
RTVSPropertyOp27
 70
     1
102
RTVSPropertyOp28
 70
     1
102
RTVSPropertyOp29
 70
     1
102
RTVSPropertyOp30
 70
     1
102
RTVSPropertyOp31
 70
     1
102
RTVSPropertyOp32
 70
     1
102
RTVSPropertyOp33
 70
     1
102
RTVSPropertyOp34
 70
     1
102
RTVSPropertyOp35
 70
     1
102
RTVSPropertyOp36
 70
     1
102
RTVSPropertyOp37
 70
     1
102
RTVSPropertyOp38
 70
     1
102
RTVSPropertyOp39
 70
     1
102
RTVSPropertyOp40
 70
     1
102
RTVSPropertyOp41
 70
     1
102
RTVSPropertyOp42
 70
     1
102
RTVSPropertyOp43
 70
     1
102
RTVSPropertyOp44
 70
     1
102
RTVSPropertyOp45
 70
     1
102
RTVSPropertyOp46
 70
     1
102
RTVSPropertyOp47
 70
     1
102
RTVSPropertyOp48
 70
     1
102
RTVSPropertyOp49
 70
     1
102
RTVSPropertyOp50
 70
     1
102
RTVSPropertyOp51
 70
     0
102
RTVSPropertyOp52
 70
     0
102
RTVSPropertyOp53
 70
     1
102
RTVSPropertyOp54
 70
     1
102
RTVSPropertyOp55
 70
     1
102
RTVSPropertyOp56
 70
     1
102
RTVSPropertyOp57
 70
     1
102
RTVSPropertyOp58
 70
     1
102
RTVSPropertyOp59
 70
     1
102
RTVSPropertyOp60
 70
     1
102
RTVSPropertyOp61
 70
     1
102
RTVSPropertyOp62
 70
     1
  0
XRECORD
  5
B5B3
102
{ACAD_REACTORS
330
B5B2
102
}
330
B5B2
100
AcDbXrecord
280
     1
102
RTVSPost2010Prop28
280
     0
102
RTVSPost2010PropOp28
 70
     1
102
RTVSPost2010Prop29
280
     1
102
RTVSPost2010PropOp29
 70
     1
102
RTVSPost2010Prop30
280
     1
102
RTVSPost2010PropOp30
 70
     1
102
RTVSPost2010Prop31
280
     0
102
RTVSPost2010PropOp31
 70
     1
102
RTVSPost2010Prop32
280
     0
102
RTVSPost2010PropOp32
 70
     1
102
RTVSPost2010Prop33
280
     0
102
RTVSPost2010PropOp33
 70
     1
102
RTVSPost2010Prop34
280
     0
102
RTVSPost2010PropOp34
 70
     1
102
RTVSPost2010Prop35
280
     0
102
RTVSPost2010PropOp35
 70
     1
102
RTVSPost2010Prop36
280
     0
102
RTVSPost2010PropOp36
 70
     1
102
RTVSPost2010Prop37
 90
       50
102
RTVSPost2010PropOp37
 70
     1
102
RTVSPost2010Prop38
140
0.0
102
RTVSPost2010PropOp38
 70
     1
102
RTVSPost2010Prop39
140
1.0
102
RTVSPost2010PropOp39
 70
     1
102
RTVSPost2010Prop40
 90
        0
102
RTVSPost2010PropOp40
 70
     1
102
RTVSPost2010Prop41ColorIndex
 90
       18
102
RTVSPost2010Prop41ColorRGB
 90
        0
102
RTVSPost2010PropOp41
 70
     1
102
RTVSPost2010Prop42
 90
       50
102
RTVSPost2010PropOp42
 70
     1
102
RTVSPost2010Prop43
 90
        3
102
RTVSPost2010PropOp43
 70
     1
102
RTVSPost2010Prop44ColorIndex
 90
        5
102
RTVSPost2010Prop44ColorRGB
 90
      255
102
RTVSPost2010PropOp44
 70
     1
102
RTVSPost2010Prop45
280
     0
102
RTVSPost2010PropOp45
 70
     1
102
RTVSPost2010Prop46
 90
       50
102
RTVSPost2010PropOp46
 70
     1
102
RTVSPost2010Prop47
 90
       50
102
RTVSPost2010PropOp47
 70
     1
102
RTVSPost2010Prop48
 90
       50
102
RTVSPost2010PropOp48
 70
     1
102
RTVSPost2010Prop49
280
     0
102
RTVSPost2010PropOp49
 70
     1
102
RTVSPost2010Prop50
 90
       50
102
RTVSPost2010PropOp50
 70
     1
102
RTVSPost2010Prop51ColorIndex
 90
      256
102
RTVSPost2010Prop51ColorRGB
 90
-16777216
102
RTVSPost2010PropOp51
 70
     0
102
RTVSPost2010Prop52
140
1.0
102
RTVSPost2010PropOp52
 70
     0
102
RTVSPost2010Prop53
 90
        2
102
RTVSPost2010PropOp53
 70
     1
102
RTVSPost2010Prop54
  1
strokes_ogs.tif
102
RTVSPost2010PropOp54
 70
     1
102
RTVSPost2010Prop55
280
     0
102
RTVSPost2010PropOp55
 70
     1
102
RTVSPost2010Prop56
140
1.0
102
RTVSPost2010PropOp56
 70
     1
102
RTVSPost2010Prop57
140
1.0
102
RTVSPost2010PropOp57
 70
     1
102
RTVSPropertyOp0
 70
     1
102
RTVSPropertyOp1
 70
     1
102
RTVSPropertyOp2
 70
     1
102
RTVSPropertyOp3
 70
     1
102
RTVSPropertyOp4
 70
     1
102
RTVSPropertyOp5
 70
     1
102
RTVSPropertyOp6
 70
     1
102
RTVSPropertyOp7
 70
     1
102
RTVSPropertyOp8
 70
     1
102
RTVSPropertyOp9
 70
     1
102
RTVSPropertyOp10
 70
     1
102
RTVSPropertyOp11
 70
     1
102
RTVSPropertyOp12
 70
     1
102
RTVSPropertyOp13
 70
     1
102
RTVSPropertyOp14
 70
     1
102
RTVSPropertyOp15
 70
     1
102
RTVSPropertyOp16
 70
     1
102
RTVSPropertyOp17
 70
     1
102
RTVSPropertyOp18
 70
     1
102
RTVSPropertyOp19
 70
     1
102
RTVSPropertyOp20
 70
     1
102
RTVSPropertyOp21
 70
     1
102
RTVSPropertyOp22
 70
     1
102
RTVSPropertyOp23
 70
     1
102
RTVSPropertyOp24
 70
     1
102
RTVSPropertyOp25
 70
     1
102
RTVSPropertyOp26
 70
     1
102
RTVSPropertyOp27
 70
     1
102
RTVSPropertyOp28
 70
     1
102
RTVSPropertyOp29
 70
     1
102
RTVSPropertyOp30
 70
     1
102
RTVSPropertyOp31
 70
     1
102
RTVSPropertyOp32
 70
     1
102
RTVSPropertyOp33
 70
     1
102
RTVSPropertyOp34
 70
     1
102
RTVSPropertyOp35
 70
     1
102
RTVSPropertyOp36
 70
     1
102
RTVSPropertyOp37
 70
     1
102
RTVSPropertyOp38
 70
     1
102
RTVSPropertyOp39
 70
     1
102
RTVSPropertyOp40
 70
     1
102
RTVSPropertyOp41
 70
     1
102
RTVSPropertyOp42
 70
     1
102
RTVSPropertyOp43
 70
     1
102
RTVSPropertyOp44
 70
     1
102
RTVSPropertyOp45
 70
     1
102
RTVSPropertyOp46
 70
     1
102
RTVSPropertyOp47
 70
     1
102
RTVSPropertyOp48
 70
     1
102
RTVSPropertyOp49
 70
     1
102
RTVSPropertyOp50
 70
     1
102
RTVSPropertyOp51
 70
     0
102
RTVSPropertyOp52
 70
     0
102
RTVSPropertyOp53
 70
     1
102
RTVSPropertyOp54
 70
     1
102
RTVSPropertyOp55
 70
     1
102
RTVSPropertyOp56
 70
     1
102
RTVSPropertyOp57
 70
     1
102
RTVSPropertyOp58
 70
     1
102
RTVSPropertyOp59
 70
     1
102
RTVSPropertyOp60
 70
     1
102
RTVSPropertyOp61
 70
     1
102
RTVSPropertyOp62
 70
     1
  0
XRECORD
  5
B5B7
102
{ACAD_REACTORS
330
B5B6
102
}
330
B5B6
100
AcDbXrecord
280
     1
102
RTVSPost2010Prop28
280
     0
102
RTVSPost2010PropOp28
 70
     1
102
RTVSPost2010Prop29
280
     1
102
RTVSPost2010PropOp29
 70
     1
102
RTVSPost2010Prop30
280
     1
102
RTVSPost2010PropOp30
 70
     1
102
RTVSPost2010Prop31
280
     0
102
RTVSPost2010PropOp31
 70
     1
102
RTVSPost2010Prop32
280
     0
102
RTVSPost2010PropOp32
 70
     1
102
RTVSPost2010Prop33
280
     0
102
RTVSPost2010PropOp33
 70
     1
102
RTVSPost2010Prop34
280
     0
102
RTVSPost2010PropOp34
 70
     1
102
RTVSPost2010Prop35
280
     0
102
RTVSPost2010PropOp35
 70
     1
102
RTVSPost2010Prop36
280
     0
102
RTVSPost2010PropOp36
 70
     1
102
RTVSPost2010Prop37
 90
       50
102
RTVSPost2010PropOp37
 70
     1
102
RTVSPost2010Prop38
140
0.0
102
RTVSPost2010PropOp38
 70
     1
102
RTVSPost2010Prop39
140
1.0
102
RTVSPost2010PropOp39
 70
     1
102
RTVSPost2010Prop40
 90
        0
102
RTVSPost2010PropOp40
 70
     1
102
RTVSPost2010Prop41ColorIndex
 90
       18
102
RTVSPost2010Prop41ColorRGB
 90
        0
102
RTVSPost2010PropOp41
 70
     1
102
RTVSPost2010Prop42
 90
       50
102
RTVSPost2010PropOp42
 70
     1
102
RTVSPost2010Prop43
 90
        3
102
RTVSPost2010PropOp43
 70
     1
102
RTVSPost2010Prop44ColorIndex
 90
        5
102
RTVSPost2010Prop44ColorRGB
 90
      255
102
RTVSPost2010PropOp44
 70
     1
102
RTVSPost2010Prop45
280
     0
102
RTVSPost2010PropOp45
 70
     1
102
RTVSPost2010Prop46
 90
       50
102
RTVSPost2010PropOp46
 70
     1
102
RTVSPost2010Prop47
 90
       50
102
RTVSPost2010PropOp47
 70
     1
102
RTVSPost2010Prop48
 90
       50
102
RTVSPost2010PropOp48
 70
     1
102
RTVSPost2010Prop49
280
     0
102
RTVSPost2010PropOp49
 70
     1
102
RTVSPost2010Prop50
 90
       50
102
RTVSPost2010PropOp50
 70
     1
102
RTVSPost2010Prop51ColorIndex
 90
      256
102
RTVSPost2010Prop51ColorRGB
 90
-16777216
102
RTVSPost2010PropOp51
 70
     0
102
RTVSPost2010Prop52
140
1.0
102
RTVSPost2010PropOp52
 70
     0
102
RTVSPost2010Prop53
 90
        2
102
RTVSPost2010PropOp53
 70
     1
102
RTVSPost2010Prop54
  1
strokes_ogs.tif
102
RTVSPost2010PropOp54
 70
     1
102
RTVSPost2010Prop55
280
     0
102
RTVSPost2010PropOp55
 70
     1
102
RTVSPost2010Prop56
140
1.0
102
RTVSPost2010PropOp56
 70
     1
102
RTVSPost2010Prop57
140
1.0
102
RTVSPost2010PropOp57
 70
     1
102
RTVSPropertyOp0
 70
     1
102
RTVSPropertyOp1
 70
     1
102
RTVSPropertyOp2
 70
     1
102
RTVSPropertyOp3
 70
     1
102
RTVSPropertyOp4
 70
     1
102
RTVSPropertyOp5
 70
     1
102
RTVSPropertyOp6
 70
     1
102
RTVSPropertyOp7
 70
     1
102
RTVSPropertyOp8
 70
     1
102
RTVSPropertyOp9
 70
     1
102
RTVSPropertyOp10
 70
     1
102
RTVSPropertyOp11
 70
     1
102
RTVSPropertyOp12
 70
     1
102
RTVSPropertyOp13
 70
     1
102
RTVSPropertyOp14
 70
     1
102
RTVSPropertyOp15
 70
     1
102
RTVSPropertyOp16
 70
     1
102
RTVSPropertyOp17
 70
     1
102
RTVSPropertyOp18
 70
     1
102
RTVSPropertyOp19
 70
     1
102
RTVSPropertyOp20
 70
     1
102
RTVSPropertyOp21
 70
     1
102
RTVSPropertyOp22
 70
     1
102
RTVSPropertyOp23
 70
     1
102
RTVSPropertyOp24
 70
     1
102
RTVSPropertyOp25
 70
     1
102
RTVSPropertyOp26
 70
     1
102
RTVSPropertyOp27
 70
     1
102
RTVSPropertyOp28
 70
     1
102
RTVSPropertyOp29
 70
     1
102
RTVSPropertyOp30
 70
     1
102
RTVSPropertyOp31
 70
     1
102
RTVSPropertyOp32
 70
     1
102
RTVSPropertyOp33
 70
     1
102
RTVSPropertyOp34
 70
     1
102
RTVSPropertyOp35
 70
     1
102
RTVSPropertyOp36
 70
     1
102
RTVSPropertyOp37
 70
     1
102
RTVSPropertyOp38
 70
     1
102
RTVSPropertyOp39
 70
     1
102
RTVSPropertyOp40
 70
     1
102
RTVSPropertyOp41
 70
     1
102
RTVSPropertyOp42
 70
     1
102
RTVSPropertyOp43
 70
     1
102
RTVSPropertyOp44
 70
     1
102
RTVSPropertyOp45
 70
     1
102
RTVSPropertyOp46
 70
     1
102
RTVSPropertyOp47
 70
     1
102
RTVSPropertyOp48
 70
     1
102
RTVSPropertyOp49
 70
     1
102
RTVSPropertyOp50
 70
     1
102
RTVSPropertyOp51
 70
     0
102
RTVSPropertyOp52
 70
     0
102
RTVSPropertyOp53
 70
     1
102
RTVSPropertyOp54
 70
     1
102
RTVSPropertyOp55
 70
     1
102
RTVSPropertyOp56
 70
     1
102
RTVSPropertyOp57
 70
     1
102
RTVSPropertyOp58
 70
     1
102
RTVSPropertyOp59
 70
     1
102
RTVSPropertyOp60
 70
     1
102
RTVSPropertyOp61
 70
     1
102
RTVSPropertyOp62
 70
     1
  0
XRECORD
  5
B5D1
102
{ACAD_REACTORS
330
B5D0
102
}
330
B5D0
100
AcDbXrecord
280
     1
102
RTVSPost2010Prop28
280
     0
102
RTVSPost2010PropOp28
 70
     1
102
RTVSPost2010Prop29
280
     1
102
RTVSPost2010PropOp29
 70
     1
102
RTVSPost2010Prop30
280
     1
102
RTVSPost2010PropOp30
 70
     1
102
RTVSPost2010Prop31
280
     0
102
RTVSPost2010PropOp31
 70
     1
102
RTVSPost2010Prop32
280
     0
102
RTVSPost2010PropOp32
 70
     1
102
RTVSPost2010Prop33
280
     0
102
RTVSPost2010PropOp33
 70
     1
102
RTVSPost2010Prop34
280
     0
102
RTVSPost2010PropOp34
 70
     1
102
RTVSPost2010Prop35
280
     0
102
RTVSPost2010PropOp35
 70
     1
102
RTVSPost2010Prop36
280
     0
102
RTVSPost2010PropOp36
 70
     1
102
RTVSPost2010Prop37
 90
       50
102
RTVSPost2010PropOp37
 70
     0
102
RTVSPost2010Prop38
140
0.0
102
RTVSPost2010PropOp38
 70
     0
102
RTVSPost2010Prop39
140
1.0
102
RTVSPost2010PropOp39
 70
     0
102
RTVSPost2010Prop40
 90
        0
102
RTVSPost2010PropOp40
 70
     0
102
RTVSPost2010Prop41ColorIndex
 90
       18
102
RTVSPost2010Prop41ColorRGB
 90
        0
102
RTVSPost2010PropOp41
 70
     0
102
RTVSPost2010Prop42
 90
       50
102
RTVSPost2010PropOp42
 70
     0
102
RTVSPost2010Prop43
 90
        3
102
RTVSPost2010PropOp43
 70
     0
102
RTVSPost2010Prop44ColorIndex
 90
        5
102
RTVSPost2010Prop44ColorRGB
 90
      255
102
RTVSPost2010PropOp44
 70
     0
102
RTVSPost2010Prop45
280
     0
102
RTVSPost2010PropOp45
 70
     1
102
RTVSPost2010Prop46
 90
       50
102
RTVSPost2010PropOp46
 70
     0
102
RTVSPost2010Prop47
 90
       50
102
RTVSPost2010PropOp47
 70
     0
102
RTVSPost2010Prop48
 90
       50
102
RTVSPost2010PropOp48
 70
     0
102
RTVSPost2010Prop49
280
     0
102
RTVSPost2010PropOp49
 70
     1
102
RTVSPost2010Prop50
 90
       50
102
RTVSPost2010PropOp50
 70
     0
102
RTVSPost2010Prop51ColorIndex
 90
      256
102
RTVSPost2010Prop51ColorRGB
 90
-16777216
102
RTVSPost2010PropOp51
 70
     0
102
RTVSPost2010Prop52
140
1.0
102
RTVSPost2010PropOp52
 70
     0
102
RTVSPost2010Prop53
 90
        2
102
RTVSPost2010PropOp53
 70
     0
102
RTVSPost2010Prop54
  1
strokes_ogs.tif
102
RTVSPost2010PropOp54
 70
     0
102
RTVSPost2010Prop55
280
     0
102
RTVSPost2010PropOp55
 70
     1
102
RTVSPost2010Prop56
140
1.0
102
RTVSPost2010PropOp56
 70
     0
102
RTVSPost2010Prop57
140
1.0
102
RTVSPost2010PropOp57
 70
     0
102
RTVSPropertyOp0
 70
     0
102
RTVSPropertyOp1
 70
     0
102
RTVSPropertyOp2
 70
     0
102
RTVSPropertyOp3
 70
     0
102
RTVSPropertyOp4
 70
     0
102
RTVSPropertyOp5
 70
     0
102
RTVSPropertyOp6
 70
     0
102
RTVSPropertyOp7
 70
     0
102
RTVSPropertyOp8
 70
     0
102
RTVSPropertyOp9
 70
     0
102
RTVSPropertyOp10
 70
     0
102
RTVSPropertyOp11
 70
     0
102
RTVSPropertyOp12
 70
     0
102
RTVSPropertyOp13
 70
     0
102
RTVSPropertyOp14
 70
     2
102
RTVSPropertyOp15
 70
     0
102
RTVSPropertyOp16
 70
     0
102
RTVSPropertyOp17
 70
     0
102
RTVSPropertyOp18
 70
     0
102
RTVSPropertyOp19
 70
     0
102
RTVSPropertyOp20
 70
     0
102
RTVSPropertyOp21
 70
     0
102
RTVSPropertyOp22
 70
     0
102
RTVSPropertyOp23
 70
     0
102
RTVSPropertyOp24
 70
     0
102
RTVSPropertyOp25
 70
     0
102
RTVSPropertyOp26
 70
     0
102
RTVSPropertyOp27
 70
     0
102
RTVSPropertyOp28
 70
     1
102
RTVSPropertyOp29
 70
     1
102
RTVSPropertyOp30
 70
     1
102
RTVSPropertyOp31
 70
     1
102
RTVSPropertyOp32
 70
     1
102
RTVSPropertyOp33
 70
     1
102
RTVSPropertyOp34
 70
     1
102
RTVSPropertyOp35
 70
     1
102
RTVSPropertyOp36
 70
     1
102
RTVSPropertyOp37
 70
     0
102
RTVSPropertyOp38
 70
     0
102
RTVSPropertyOp39
 70
     0
102
RTVSPropertyOp40
 70
     0
102
RTVSPropertyOp41
 70
     0
102
RTVSPropertyOp42
 70
     0
102
RTVSPropertyOp43
 70
     0
102
RTVSPropertyOp44
 70
     0
102
RTVSPropertyOp45
 70
     1
102
RTVSPropertyOp46
 70
     0
102
RTVSPropertyOp47
 70
     0
102
RTVSPropertyOp48
 70
     0
102
RTVSPropertyOp49
 70
     1
102
RTVSPropertyOp50
 70
     0
102
RTVSPropertyOp51
 70
     0
102
RTVSPropertyOp52
 70
     0
102
RTVSPropertyOp53
 70
     0
102
RTVSPropertyOp54
 70
     0
102
RTVSPropertyOp55
 70
     1
102
RTVSPropertyOp56
 70
     0
102
RTVSPropertyOp57
 70
     0
102
RTVSPropertyOp58
 70
     0
102
RTVSPropertyOp59
 70
     0
102
RTVSPropertyOp60
 70
     0
102
RTVSPropertyOp61
 70
     0
102
RTVSPropertyOp62
 70
     0
  0
XRECORD
  5
B5BF
102
{ACAD_REACTORS
330
B5BE
102
}
330
B5BE
100
AcDbXrecord
280
     1
102
RTVSPost2010Prop28
280
     0
102
RTVSPost2010PropOp28
 70
     1
102
RTVSPost2010Prop29
280
     1
102
RTVSPost2010PropOp29
 70
     1
102
RTVSPost2010Prop30
280
     1
102
RTVSPost2010PropOp30
 70
     1
102
RTVSPost2010Prop31
280
     0
102
RTVSPost2010PropOp31
 70
     1
102
RTVSPost2010Prop32
280
     0
102
RTVSPost2010PropOp32
 70
     1
102
RTVSPost2010Prop33
280
     0
102
RTVSPost2010PropOp33
 70
     1
102
RTVSPost2010Prop34
280
     0
102
RTVSPost2010PropOp34
 70
     1
102
RTVSPost2010Prop35
280
     0
102
RTVSPost2010PropOp35
 70
     1
102
RTVSPost2010Prop36
280
     0
102
RTVSPost2010PropOp36
 70
     1
102
RTVSPost2010Prop37
 90
       50
102
RTVSPost2010PropOp37
 70
     1
102
RTVSPost2010Prop38
140
0.0
102
RTVSPost2010PropOp38
 70
     1
102
RTVSPost2010Prop39
140
1.0
102
RTVSPost2010PropOp39
 70
     1
102
RTVSPost2010Prop40
 90
        0
102
RTVSPost2010PropOp40
 70
     1
102
RTVSPost2010Prop41ColorIndex
 90
       18
102
RTVSPost2010Prop41ColorRGB
 90
        0
102
RTVSPost2010PropOp41
 70
     1
102
RTVSPost2010Prop42
 90
       50
102
RTVSPost2010PropOp42
 70
     1
102
RTVSPost2010Prop43
 90
        3
102
RTVSPost2010PropOp43
 70
     1
102
RTVSPost2010Prop44ColorIndex
 90
        5
102
RTVSPost2010Prop44ColorRGB
 90
      255
102
RTVSPost2010PropOp44
 70
     1
102
RTVSPost2010Prop45
280
     0
102
RTVSPost2010PropOp45
 70
     1
102
RTVSPost2010Prop46
 90
       50
102
RTVSPost2010PropOp46
 70
     1
102
RTVSPost2010Prop47
 90
       50
102
RTVSPost2010PropOp47
 70
     1
102
RTVSPost2010Prop48
 90
       50
102
RTVSPost2010PropOp48
 70
     1
102
RTVSPost2010Prop49
280
     0
102
RTVSPost2010PropOp49
 70
     1
102
RTVSPost2010Prop50
 90
       50
102
RTVSPost2010PropOp50
 70
     1
102
RTVSPost2010Prop51ColorIndex
 90
      256
102
RTVSPost2010Prop51ColorRGB
 90
-16777216
102
RTVSPost2010PropOp51
 70
     0
102
RTVSPost2010Prop52
140
1.0
102
RTVSPost2010PropOp52
 70
     0
102
RTVSPost2010Prop53
 90
        2
102
RTVSPost2010PropOp53
 70
     1
102
RTVSPost2010Prop54
  1
strokes_ogs.tif
102
RTVSPost2010PropOp54
 70
     1
102
RTVSPost2010Prop55
280
     0
102
RTVSPost2010PropOp55
 70
     1
102
RTVSPost2010Prop56
140
1.0
102
RTVSPost2010PropOp56
 70
     1
102
RTVSPost2010Prop57
140
1.0
102
RTVSPost2010PropOp57
 70
     1
102
RTVSPropertyOp0
 70
     1
102
RTVSPropertyOp1
 70
     1
102
RTVSPropertyOp2
 70
     1
102
RTVSPropertyOp3
 70
     1
102
RTVSPropertyOp4
 70
     1
102
RTVSPropertyOp5
 70
     1
102
RTVSPropertyOp6
 70
     1
102
RTVSPropertyOp7
 70
     1
102
RTVSPropertyOp8
 70
     1
102
RTVSPropertyOp9
 70
     1
102
RTVSPropertyOp10
 70
     1
102
RTVSPropertyOp11
 70
     1
102
RTVSPropertyOp12
 70
     1
102
RTVSPropertyOp13
 70
     1
102
RTVSPropertyOp14
 70
     1
102
RTVSPropertyOp15
 70
     1
102
RTVSPropertyOp16
 70
     1
102
RTVSPropertyOp17
 70
     1
102
RTVSPropertyOp18
 70
     1
102
RTVSPropertyOp19
 70
     1
102
RTVSPropertyOp20
 70
     1
102
RTVSPropertyOp21
 70
     1
102
RTVSPropertyOp22
 70
     1
102
RTVSPropertyOp23
 70
     1
102
RTVSPropertyOp24
 70
     1
102
RTVSPropertyOp25
 70
     1
102
RTVSPropertyOp26
 70
     1
102
RTVSPropertyOp27
 70
     1
102
RTVSPropertyOp28
 70
     1
102
RTVSPropertyOp29
 70
     1
102
RTVSPropertyOp30
 70
     1
102
RTVSPropertyOp31
 70
     1
102
RTVSPropertyOp32
 70
     1
102
RTVSPropertyOp33
 70
     1
102
RTVSPropertyOp34
 70
     1
102
RTVSPropertyOp35
 70
     1
102
RTVSPropertyOp36
 70
     1
102
RTVSPropertyOp37
 70
     1
102
RTVSPropertyOp38
 70
     1
102
RTVSPropertyOp39
 70
     1
102
RTVSPropertyOp40
 70
     1
102
RTVSPropertyOp41
 70
     1
102
RTVSPropertyOp42
 70
     1
102
RTVSPropertyOp43
 70
     1
102
RTVSPropertyOp44
 70
     1
102
RTVSPropertyOp45
 70
     1
102
RTVSPropertyOp46
 70
     1
102
RTVSPropertyOp47
 70
     1
102
RTVSPropertyOp48
 70
     1
102
RTVSPropertyOp49
 70
     1
102
RTVSPropertyOp50
 70
     1
102
RTVSPropertyOp51
 70
     0
102
RTVSPropertyOp52
 70
     0
102
RTVSPropertyOp53
 70
     1
102
RTVSPropertyOp54
 70
     1
102
RTVSPropertyOp55
 70
     1
102
RTVSPropertyOp56
 70
     1
102
RTVSPropertyOp57
 70
     1
102
RTVSPropertyOp58
 70
     1
102
RTVSPropertyOp59
 70
     1
102
RTVSPropertyOp60
 70
     1
102
RTVSPropertyOp61
 70
     1
102
RTVSPropertyOp62
 70
     1
  0
XRECORD
  5
B5A3
102
{ACAD_REACTORS
330
B5A2
102
}
330
B5A2
100
AcDbXrecord
280
     1
102
RTVSPost2010Prop28
280
     0
102
RTVSPost2010PropOp28
 70
     1
102
RTVSPost2010Prop29
280
     1
102
RTVSPost2010PropOp29
 70
     1
102
RTVSPost2010Prop30
280
     1
102
RTVSPost2010PropOp30
 70
     1
102
RTVSPost2010Prop31
280
     0
102
RTVSPost2010PropOp31
 70
     1
102
RTVSPost2010Prop32
280
     0
102
RTVSPost2010PropOp32
 70
     1
102
RTVSPost2010Prop33
280
     0
102
RTVSPost2010PropOp33
 70
     1
102
RTVSPost2010Prop34
280
     0
102
RTVSPost2010PropOp34
 70
     1
102
RTVSPost2010Prop35
280
     0
102
RTVSPost2010PropOp35
 70
     1
102
RTVSPost2010Prop36
280
     0
102
RTVSPost2010PropOp36
 70
     1
102
RTVSPost2010Prop37
 90
       50
102
RTVSPost2010PropOp37
 70
     1
102
RTVSPost2010Prop38
140
0.0
102
RTVSPost2010PropOp38
 70
     1
102
RTVSPost2010Prop39
140
1.0
102
RTVSPost2010PropOp39
 70
     1
102
RTVSPost2010Prop40
 90
        0
102
RTVSPost2010PropOp40
 70
     1
102
RTVSPost2010Prop41ColorIndex
 90
       18
102
RTVSPost2010Prop41ColorRGB
 90
        0
102
RTVSPost2010PropOp41
 70
     1
102
RTVSPost2010Prop42
 90
       50
102
RTVSPost2010PropOp42
 70
     1
102
RTVSPost2010Prop43
 90
        3
102
RTVSPost2010PropOp43
 70
     1
102
RTVSPost2010Prop44ColorIndex
 90
        5
102
RTVSPost2010Prop44ColorRGB
 90
      255
102
RTVSPost2010PropOp44
 70
     1
102
RTVSPost2010Prop45
280
     0
102
RTVSPost2010PropOp45
 70
     1
102
RTVSPost2010Prop46
 90
       50
102
RTVSPost2010PropOp46
 70
     1
102
RTVSPost2010Prop47
 90
       50
102
RTVSPost2010PropOp47
 70
     1
102
RTVSPost2010Prop48
 90
       50
102
RTVSPost2010PropOp48
 70
     1
102
RTVSPost2010Prop49
280
     0
102
RTVSPost2010PropOp49
 70
     1
102
RTVSPost2010Prop50
 90
       50
102
RTVSPost2010PropOp50
 70
     1
102
RTVSPost2010Prop51ColorIndex
 90
      256
102
RTVSPost2010Prop51ColorRGB
 90
-16777216
102
RTVSPost2010PropOp51
 70
     0
102
RTVSPost2010Prop52
140
1.0
102
RTVSPost2010PropOp52
 70
     0
102
RTVSPost2010Prop53
 90
        2
102
RTVSPost2010PropOp53
 70
     1
102
RTVSPost2010Prop54
  1
strokes_ogs.tif
102
RTVSPost2010PropOp54
 70
     1
102
RTVSPost2010Prop55
280
     0
102
RTVSPost2010PropOp55
 70
     1
102
RTVSPost2010Prop56
140
1.0
102
RTVSPost2010PropOp56
 70
     1
102
RTVSPost2010Prop57
140
1.0
102
RTVSPost2010PropOp57
 70
     1
102
RTVSPropertyOp0
 70
     1
102
RTVSPropertyOp1
 70
     1
102
RTVSPropertyOp2
 70
     1
102
RTVSPropertyOp3
 70
     1
102
RTVSPropertyOp4
 70
     1
102
RTVSPropertyOp5
 70
     1
102
RTVSPropertyOp6
 70
     1
102
RTVSPropertyOp7
 70
     1
102
RTVSPropertyOp8
 70
     1
102
RTVSPropertyOp9
 70
     1
102
RTVSPropertyOp10
 70
     1
102
RTVSPropertyOp11
 70
     1
102
RTVSPropertyOp12
 70
     1
102
RTVSPropertyOp13
 70
     1
102
RTVSPropertyOp14
 70
     1
102
RTVSPropertyOp15
 70
     1
102
RTVSPropertyOp16
 70
     1
102
RTVSPropertyOp17
 70
     1
102
RTVSPropertyOp18
 70
     1
102
RTVSPropertyOp19
 70
     1
102
RTVSPropertyOp20
 70
     1
102
RTVSPropertyOp21
 70
     1
102
RTVSPropertyOp22
 70
     1
102
RTVSPropertyOp23
 70
     1
102
RTVSPropertyOp24
 70
     1
102
RTVSPropertyOp25
 70
     1
102
RTVSPropertyOp26
 70
     1
102
RTVSPropertyOp27
 70
     1
102
RTVSPropertyOp28
 70
     1
102
RTVSPropertyOp29
 70
     1
102
RTVSPropertyOp30
 70
     1
102
RTVSPropertyOp31
 70
     1
102
RTVSPropertyOp32
 70
     1
102
RTVSPropertyOp33
 70
     1
102
RTVSPropertyOp34
 70
     1
102
RTVSPropertyOp35
 70
     1
102
RTVSPropertyOp36
 70
     1
102
RTVSPropertyOp37
 70
     1
102
RTVSPropertyOp38
 70
     1
102
RTVSPropertyOp39
 70
     1
102
RTVSPropertyOp40
 70
     1
102
RTVSPropertyOp41
 70
     1
102
RTVSPropertyOp42
 70
     1
102
RTVSPropertyOp43
 70
     1
102
RTVSPropertyOp44
 70
     1
102
RTVSPropertyOp45
 70
     1
102
RTVSPropertyOp46
 70
     1
102
RTVSPropertyOp47
 70
     1
102
RTVSPropertyOp48
 70
     1
102
RTVSPropertyOp49
 70
     1
102
RTVSPropertyOp50
 70
     1
102
RTVSPropertyOp51
 70
     0
102
RTVSPropertyOp52
 70
     0
102
RTVSPropertyOp53
 70
     1
102
RTVSPropertyOp54
 70
     1
102
RTVSPropertyOp55
 70
     1
102
RTVSPropertyOp56
 70
     1
102
RTVSPropertyOp57
 70
     1
102
RTVSPropertyOp58
 70
     1
102
RTVSPropertyOp59
 70
     1
102
RTVSPropertyOp60
 70
     1
102
RTVSPropertyOp61
 70
     1
102
RTVSPropertyOp62
 70
     1
  0
XRECORD
  5
B5A5
102
{ACAD_REACTORS
330
B5A4
102
}
330
B5A4
100
AcDbXrecord
280
     1
102
RTVSPost2010Prop28
280
     0
102
RTVSPost2010PropOp28
 70
     1
102
RTVSPost2010Prop29
280
     1
102
RTVSPost2010PropOp29
 70
     1
102
RTVSPost2010Prop30
280
     1
102
RTVSPost2010PropOp30
 70
     1
102
RTVSPost2010Prop31
280
     0
102
RTVSPost2010PropOp31
 70
     1
102
RTVSPost2010Prop32
280
     0
102
RTVSPost2010PropOp32
 70
     1
102
RTVSPost2010Prop33
280
     0
102
RTVSPost2010PropOp33
 70
     1
102
RTVSPost2010Prop34
280
     0
102
RTVSPost2010PropOp34
 70
     1
102
RTVSPost2010Prop35
280
     0
102
RTVSPost2010PropOp35
 70
     1
102
RTVSPost2010Prop36
280
     0
102
RTVSPost2010PropOp36
 70
     1
102
RTVSPost2010Prop37
 90
       50
102
RTVSPost2010PropOp37
 70
     1
102
RTVSPost2010Prop38
140
0.0
102
RTVSPost2010PropOp38
 70
     1
102
RTVSPost2010Prop39
140
1.0
102
RTVSPost2010PropOp39
 70
     1
102
RTVSPost2010Prop40
 90
        0
102
RTVSPost2010PropOp40
 70
     1
102
RTVSPost2010Prop41ColorIndex
 90
       18
102
RTVSPost2010Prop41ColorRGB
 90
        0
102
RTVSPost2010PropOp41
 70
     1
102
RTVSPost2010Prop42
 90
       50
102
RTVSPost2010PropOp42
 70
     1
102
RTVSPost2010Prop43
 90
        3
102
RTVSPost2010PropOp43
 70
     1
102
RTVSPost2010Prop44ColorIndex
 90
        5
102
RTVSPost2010Prop44ColorRGB
 90
      255
102
RTVSPost2010PropOp44
 70
     1
102
RTVSPost2010Prop45
280
     0
102
RTVSPost2010PropOp45
 70
     1
102
RTVSPost2010Prop46
 90
       50
102
RTVSPost2010PropOp46
 70
     1
102
RTVSPost2010Prop47
 90
       50
102
RTVSPost2010PropOp47
 70
     1
102
RTVSPost2010Prop48
 90
       50
102
RTVSPost2010PropOp48
 70
     1
102
RTVSPost2010Prop49
280
     0
102
RTVSPost2010PropOp49
 70
     1
102
RTVSPost2010Prop50
 90
       50
102
RTVSPost2010PropOp50
 70
     1
102
RTVSPost2010Prop51ColorIndex
 90
      256
102
RTVSPost2010Prop51ColorRGB
 90
-16777216
102
RTVSPost2010PropOp51
 70
     0
102
RTVSPost2010Prop52
140
1.0
102
RTVSPost2010PropOp52
 70
     0
102
RTVSPost2010Prop53
 90
        2
102
RTVSPost2010PropOp53
 70
     1
102
RTVSPost2010Prop54
  1
strokes_ogs.tif
102
RTVSPost2010PropOp54
 70
     1
102
RTVSPost2010Prop55
280
     0
102
RTVSPost2010PropOp55
 70
     1
102
RTVSPost2010Prop56
140
1.0
102
RTVSPost2010PropOp56
 70
     1
102
RTVSPost2010Prop57
140
1.0
102
RTVSPost2010PropOp57
 70
     1
102
RTVSPropertyOp0
 70
     1
102
RTVSPropertyOp1
 70
     1
102
RTVSPropertyOp2
 70
     1
102
RTVSPropertyOp3
 70
     1
102
RTVSPropertyOp4
 70
     1
102
RTVSPropertyOp5
 70
     1
102
RTVSPropertyOp6
 70
     1
102
RTVSPropertyOp7
 70
     1
102
RTVSPropertyOp8
 70
     1
102
RTVSPropertyOp9
 70
     1
102
RTVSPropertyOp10
 70
     1
102
RTVSPropertyOp11
 70
     1
102
RTVSPropertyOp12
 70
     1
102
RTVSPropertyOp13
 70
     1
102
RTVSPropertyOp14
 70
     1
102
RTVSPropertyOp15
 70
     1
102
RTVSPropertyOp16
 70
     1
102
RTVSPropertyOp17
 70
     1
102
RTVSPropertyOp18
 70
     1
102
RTVSPropertyOp19
 70
     1
102
RTVSPropertyOp20
 70
     1
102
RTVSPropertyOp21
 70
     1
102
RTVSPropertyOp22
 70
     1
102
RTVSPropertyOp23
 70
     1
102
RTVSPropertyOp24
 70
     1
102
RTVSPropertyOp25
 70
     1
102
RTVSPropertyOp26
 70
     1
102
RTVSPropertyOp27
 70
     1
102
RTVSPropertyOp28
 70
     1
102
RTVSPropertyOp29
 70
     1
102
RTVSPropertyOp30
 70
     1
102
RTVSPropertyOp31
 70
     1
102
RTVSPropertyOp32
 70
     1
102
RTVSPropertyOp33
 70
     1
102
RTVSPropertyOp34
 70
     1
102
RTVSPropertyOp35
 70
     1
102
RTVSPropertyOp36
 70
     1
102
RTVSPropertyOp37
 70
     1
102
RTVSPropertyOp38
 70
     1
102
RTVSPropertyOp39
 70
     1
102
RTVSPropertyOp40
 70
     1
102
RTVSPropertyOp41
 70
     1
102
RTVSPropertyOp42
 70
     1
102
RTVSPropertyOp43
 70
     1
102
RTVSPropertyOp44
 70
     1
102
RTVSPropertyOp45
 70
     1
102
RTVSPropertyOp46
 70
     1
102
RTVSPropertyOp47
 70
     1
102
RTVSPropertyOp48
 70
     1
102
RTVSPropertyOp49
 70
     1
102
RTVSPropertyOp50
 70
     1
102
RTVSPropertyOp51
 70
     0
102
RTVSPropertyOp52
 70
     0
102
RTVSPropertyOp53
 70
     1
102
RTVSPropertyOp54
 70
     1
102
RTVSPropertyOp55
 70
     1
102
RTVSPropertyOp56
 70
     1
102
RTVSPropertyOp57
 70
     1
102
RTVSPropertyOp58
 70
     1
102
RTVSPropertyOp59
 70
     1
102
RTVSPropertyOp60
 70
     1
102
RTVSPropertyOp61
 70
     1
102
RTVSPropertyOp62
 70
     1
  0
XRECORD
  5
B5A7
102
{ACAD_REACTORS
330
B5A6
102
}
330
B5A6
100
AcDbXrecord
280
     1
102
RTVSPost2010Prop28
280
     0
102
RTVSPost2010PropOp28
 70
     1
102
RTVSPost2010Prop29
280
     1
102
RTVSPost2010PropOp29
 70
     1
102
RTVSPost2010Prop30
280
     1
102
RTVSPost2010PropOp30
 70
     1
102
RTVSPost2010Prop31
280
     0
102
RTVSPost2010PropOp31
 70
     1
102
RTVSPost2010Prop32
280
     0
102
RTVSPost2010PropOp32
 70
     1
102
RTVSPost2010Prop33
280
     0
102
RTVSPost2010PropOp33
 70
     1
102
RTVSPost2010Prop34
280
     0
102
RTVSPost2010PropOp34
 70
     1
102
RTVSPost2010Prop35
280
     0
102
RTVSPost2010PropOp35
 70
     1
102
RTVSPost2010Prop36
280
     0
102
RTVSPost2010PropOp36
 70
     1
102
RTVSPost2010Prop37
 90
       50
102
RTVSPost2010PropOp37
 70
     1
102
RTVSPost2010Prop38
140
0.0
102
RTVSPost2010PropOp38
 70
     1
102
RTVSPost2010Prop39
140
1.0
102
RTVSPost2010PropOp39
 70
     1
102
RTVSPost2010Prop40
 90
        0
102
RTVSPost2010PropOp40
 70
     1
102
RTVSPost2010Prop41ColorIndex
 90
       18
102
RTVSPost2010Prop41ColorRGB
 90
        0
102
RTVSPost2010PropOp41
 70
     1
102
RTVSPost2010Prop42
 90
       50
102
RTVSPost2010PropOp42
 70
     1
102
RTVSPost2010Prop43
 90
        3
102
RTVSPost2010PropOp43
 70
     1
102
RTVSPost2010Prop44ColorIndex
 90
        5
102
RTVSPost2010Prop44ColorRGB
 90
      255
102
RTVSPost2010PropOp44
 70
     1
102
RTVSPost2010Prop45
280
     0
102
RTVSPost2010PropOp45
 70
     1
102
RTVSPost2010Prop46
 90
       50
102
RTVSPost2010PropOp46
 70
     1
102
RTVSPost2010Prop47
 90
       50
102
RTVSPost2010PropOp47
 70
     1
102
RTVSPost2010Prop48
 90
       50
102
RTVSPost2010PropOp48
 70
     1
102
RTVSPost2010Prop49
280
     0
102
RTVSPost2010PropOp49
 70
     1
102
RTVSPost2010Prop50
 90
       50
102
RTVSPost2010PropOp50
 70
     1
102
RTVSPost2010Prop51ColorIndex
 90
      256
102
RTVSPost2010Prop51ColorRGB
 90
-16777216
102
RTVSPost2010PropOp51
 70
     0
102
RTVSPost2010Prop52
140
1.0
102
RTVSPost2010PropOp52
 70
     0
102
RTVSPost2010Prop53
 90
        2
102
RTVSPost2010PropOp53
 70
     1
102
RTVSPost2010Prop54
  1
strokes_ogs.tif
102
RTVSPost2010PropOp54
 70
     1
102
RTVSPost2010Prop55
280
     0
102
RTVSPost2010PropOp55
 70
     1
102
RTVSPost2010Prop56
140
1.0
102
RTVSPost2010PropOp56
 70
     1
102
RTVSPost2010Prop57
140
1.0
102
RTVSPost2010PropOp57
 70
     1
102
RTVSPropertyOp0
 70
     1
102
RTVSPropertyOp1
 70
     1
102
RTVSPropertyOp2
 70
     1
102
RTVSPropertyOp3
 70
     1
102
RTVSPropertyOp4
 70
     1
102
RTVSPropertyOp5
 70
     1
102
RTVSPropertyOp6
 70
     1
102
RTVSPropertyOp7
 70
     1
102
RTVSPropertyOp8
 70
     1
102
RTVSPropertyOp9
 70
     1
102
RTVSPropertyOp10
 70
     1
102
RTVSPropertyOp11
 70
     1
102
RTVSPropertyOp12
 70
     1
102
RTVSPropertyOp13
 70
     1
102
RTVSPropertyOp14
 70
     1
102
RTVSPropertyOp15
 70
     1
102
RTVSPropertyOp16
 70
     1
102
RTVSPropertyOp17
 70
     1
102
RTVSPropertyOp18
 70
     1
102
RTVSPropertyOp19
 70
     1
102
RTVSPropertyOp20
 70
     1
102
RTVSPropertyOp21
 70
     1
102
RTVSPropertyOp22
 70
     1
102
RTVSPropertyOp23
 70
     1
102
RTVSPropertyOp24
 70
     1
102
RTVSPropertyOp25
 70
     1
102
RTVSPropertyOp26
 70
     1
102
RTVSPropertyOp27
 70
     1
102
RTVSPropertyOp28
 70
     1
102
RTVSPropertyOp29
 70
     1
102
RTVSPropertyOp30
 70
     1
102
RTVSPropertyOp31
 70
     1
102
RTVSPropertyOp32
 70
     1
102
RTVSPropertyOp33
 70
     1
102
RTVSPropertyOp34
 70
     1
102
RTVSPropertyOp35
 70
     1
102
RTVSPropertyOp36
 70
     1
102
RTVSPropertyOp37
 70
     1
102
RTVSPropertyOp38
 70
     1
102
RTVSPropertyOp39
 70
     1
102
RTVSPropertyOp40
 70
     1
102
RTVSPropertyOp41
 70
     1
102
RTVSPropertyOp42
 70
     1
102
RTVSPropertyOp43
 70
     1
102
RTVSPropertyOp44
 70
     1
102
RTVSPropertyOp45
 70
     1
102
RTVSPropertyOp46
 70
     1
102
RTVSPropertyOp47
 70
     1
102
RTVSPropertyOp48
 70
     1
102
RTVSPropertyOp49
 70
     1
102
RTVSPropertyOp50
 70
     1
102
RTVSPropertyOp51
 70
     0
102
RTVSPropertyOp52
 70
     0
102
RTVSPropertyOp53
 70
     1
102
RTVSPropertyOp54
 70
     1
102
RTVSPropertyOp55
 70
     1
102
RTVSPropertyOp56
 70
     1
102
RTVSPropertyOp57
 70
     1
102
RTVSPropertyOp58
 70
     1
102
RTVSPropertyOp59
 70
     1
102
RTVSPropertyOp60
 70
     1
102
RTVSPropertyOp61
 70
     1
102
RTVSPropertyOp62
 70
     1
  0
XRECORD
  5
B5A9
102
{ACAD_REACTORS
330
B5A8
102
}
330
B5A8
100
AcDbXrecord
280
     1
102
RTVSPost2010Prop28
280
     0
102
RTVSPost2010PropOp28
 70
     1
102
RTVSPost2010Prop29
280
     1
102
RTVSPost2010PropOp29
 70
     1
102
RTVSPost2010Prop30
280
     1
102
RTVSPost2010PropOp30
 70
     1
102
RTVSPost2010Prop31
280
     0
102
RTVSPost2010PropOp31
 70
     1
102
RTVSPost2010Prop32
280
     0
102
RTVSPost2010PropOp32
 70
     1
102
RTVSPost2010Prop33
280
     0
102
RTVSPost2010PropOp33
 70
     1
102
RTVSPost2010Prop34
280
     0
102
RTVSPost2010PropOp34
 70
     1
102
RTVSPost2010Prop35
280
     0
102
RTVSPost2010PropOp35
 70
     1
102
RTVSPost2010Prop36
280
     0
102
RTVSPost2010PropOp36
 70
     1
102
RTVSPost2010Prop37
 90
       50
102
RTVSPost2010PropOp37
 70
     1
102
RTVSPost2010Prop38
140
0.0
102
RTVSPost2010PropOp38
 70
     1
102
RTVSPost2010Prop39
140
1.0
102
RTVSPost2010PropOp39
 70
     1
102
RTVSPost2010Prop40
 90
        0
102
RTVSPost2010PropOp40
 70
     1
102
RTVSPost2010Prop41ColorIndex
 90
       18
102
RTVSPost2010Prop41ColorRGB
 90
        0
102
RTVSPost2010PropOp41
 70
     1
102
RTVSPost2010Prop42
 90
       50
102
RTVSPost2010PropOp42
 70
     1
102
RTVSPost2010Prop43
 90
        3
102
RTVSPost2010PropOp43
 70
     1
102
RTVSPost2010Prop44ColorIndex
 90
        5
102
RTVSPost2010Prop44ColorRGB
 90
      255
102
RTVSPost2010PropOp44
 70
     1
102
RTVSPost2010Prop45
280
     0
102
RTVSPost2010PropOp45
 70
     1
102
RTVSPost2010Prop46
 90
       50
102
RTVSPost2010PropOp46
 70
     1
102
RTVSPost2010Prop47
 90
       50
102
RTVSPost2010PropOp47
 70
     1
102
RTVSPost2010Prop48
 90
       50
102
RTVSPost2010PropOp48
 70
     1
102
RTVSPost2010Prop49
280
     0
102
RTVSPost2010PropOp49
 70
     1
102
RTVSPost2010Prop50
 90
       50
102
RTVSPost2010PropOp50
 70
     1
102
RTVSPost2010Prop51ColorIndex
 90
      256
102
RTVSPost2010Prop51ColorRGB
 90
-16777216
102
RTVSPost2010PropOp51
 70
     0
102
RTVSPost2010Prop52
140
1.0
102
RTVSPost2010PropOp52
 70
     0
102
RTVSPost2010Prop53
 90
        2
102
RTVSPost2010PropOp53
 70
     1
102
RTVSPost2010Prop54
  1
strokes_ogs.tif
102
RTVSPost2010PropOp54
 70
     1
102
RTVSPost2010Prop55
280
     0
102
RTVSPost2010PropOp55
 70
     1
102
RTVSPost2010Prop56
140
1.0
102
RTVSPost2010PropOp56
 70
     1
102
RTVSPost2010Prop57
140
1.0
102
RTVSPost2010PropOp57
 70
     1
102
RTVSPropertyOp0
 70
     1
102
RTVSPropertyOp1
 70
     1
102
RTVSPropertyOp2
 70
     1
102
RTVSPropertyOp3
 70
     1
102
RTVSPropertyOp4
 70
     1
102
RTVSPropertyOp5
 70
     1
102
RTVSPropertyOp6
 70
     1
102
RTVSPropertyOp7
 70
     1
102
RTVSPropertyOp8
 70
     1
102
RTVSPropertyOp9
 70
     1
102
RTVSPropertyOp10
 70
     1
102
RTVSPropertyOp11
 70
     1
102
RTVSPropertyOp12
 70
     1
102
RTVSPropertyOp13
 70
     1
102
RTVSPropertyOp14
 70
     1
102
RTVSPropertyOp15
 70
     1
102
RTVSPropertyOp16
 70
     1
102
RTVSPropertyOp17
 70
     1
102
RTVSPropertyOp18
 70
     1
102
RTVSPropertyOp19
 70
     1
102
RTVSPropertyOp20
 70
     1
102
RTVSPropertyOp21
 70
     1
102
RTVSPropertyOp22
 70
     1
102
RTVSPropertyOp23
 70
     1
102
RTVSPropertyOp24
 70
     1
102
RTVSPropertyOp25
 70
     1
102
RTVSPropertyOp26
 70
     1
102
RTVSPropertyOp27
 70
     1
102
RTVSPropertyOp28
 70
     1
102
RTVSPropertyOp29
 70
     1
102
RTVSPropertyOp30
 70
     1
102
RTVSPropertyOp31
 70
     1
102
RTVSPropertyOp32
 70
     1
102
RTVSPropertyOp33
 70
     1
102
RTVSPropertyOp34
 70
     1
102
RTVSPropertyOp35
 70
     1
102
RTVSPropertyOp36
 70
     1
102
RTVSPropertyOp37
 70
     1
102
RTVSPropertyOp38
 70
     1
102
RTVSPropertyOp39
 70
     1
102
RTVSPropertyOp40
 70
     1
102
RTVSPropertyOp41
 70
     1
102
RTVSPropertyOp42
 70
     1
102
RTVSPropertyOp43
 70
     1
102
RTVSPropertyOp44
 70
     1
102
RTVSPropertyOp45
 70
     1
102
RTVSPropertyOp46
 70
     1
102
RTVSPropertyOp47
 70
     1
102
RTVSPropertyOp48
 70
     1
102
RTVSPropertyOp49
 70
     1
102
RTVSPropertyOp50
 70
     1
102
RTVSPropertyOp51
 70
     0
102
RTVSPropertyOp52
 70
     0
102
RTVSPropertyOp53
 70
     1
102
RTVSPropertyOp54
 70
     1
102
RTVSPropertyOp55
 70
     1
102
RTVSPropertyOp56
 70
     1
102
RTVSPropertyOp57
 70
     1
102
RTVSPropertyOp58
 70
     1
102
RTVSPropertyOp59
 70
     1
102
RTVSPropertyOp60
 70
     1
102
RTVSPropertyOp61
 70
     1
102
RTVSPropertyOp62
 70
     1
  0
XRECORD
  5
B5B1
102
{ACAD_REACTORS
330
B5B0
102
}
330
B5B0
100
AcDbXrecord
280
     1
102
RTVSPost2010Prop28
280
     0
102
RTVSPost2010PropOp28
 70
     1
102
RTVSPost2010Prop29
280
     1
102
RTVSPost2010PropOp29
 70
     1
102
RTVSPost2010Prop30
280
     1
102
RTVSPost2010PropOp30
 70
     1
102
RTVSPost2010Prop31
280
     0
102
RTVSPost2010PropOp31
 70
     1
102
RTVSPost2010Prop32
280
     0
102
RTVSPost2010PropOp32
 70
     1
102
RTVSPost2010Prop33
280
     0
102
RTVSPost2010PropOp33
 70
     1
102
RTVSPost2010Prop34
280
     0
102
RTVSPost2010PropOp34
 70
     1
102
RTVSPost2010Prop35
280
     0
102
RTVSPost2010PropOp35
 70
     1
102
RTVSPost2010Prop36
280
     0
102
RTVSPost2010PropOp36
 70
     1
102
RTVSPost2010Prop37
 90
       50
102
RTVSPost2010PropOp37
 70
     1
102
RTVSPost2010Prop38
140
0.0
102
RTVSPost2010PropOp38
 70
     1
102
RTVSPost2010Prop39
140
1.0
102
RTVSPost2010PropOp39
 70
     1
102
RTVSPost2010Prop40
 90
        0
102
RTVSPost2010PropOp40
 70
     1
102
RTVSPost2010Prop41ColorIndex
 90
       18
102
RTVSPost2010Prop41ColorRGB
 90
        0
102
RTVSPost2010PropOp41
 70
     1
102
RTVSPost2010Prop42
 90
       50
102
RTVSPost2010PropOp42
 70
     1
102
RTVSPost2010Prop43
 90
        3
102
RTVSPost2010PropOp43
 70
     1
102
RTVSPost2010Prop44ColorIndex
 90
        5
102
RTVSPost2010Prop44ColorRGB
 90
      255
102
RTVSPost2010PropOp44
 70
     1
102
RTVSPost2010Prop45
280
     0
102
RTVSPost2010PropOp45
 70
     1
102
RTVSPost2010Prop46
 90
       50
102
RTVSPost2010PropOp46
 70
     1
102
RTVSPost2010Prop47
 90
       50
102
RTVSPost2010PropOp47
 70
     1
102
RTVSPost2010Prop48
 90
       50
102
RTVSPost2010PropOp48
 70
     1
102
RTVSPost2010Prop49
280
     0
102
RTVSPost2010PropOp49
 70
     1
102
RTVSPost2010Prop50
 90
       50
102
RTVSPost2010PropOp50
 70
     1
102
RTVSPost2010Prop51ColorIndex
 90
      256
102
RTVSPost2010Prop51ColorRGB
 90
-16777216
102
RTVSPost2010PropOp51
 70
     0
102
RTVSPost2010Prop52
140
1.0
102
RTVSPost2010PropOp52
 70
     0
102
RTVSPost2010Prop53
 90
        2
102
RTVSPost2010PropOp53
 70
     1
102
RTVSPost2010Prop54
  1
strokes_ogs.tif
102
RTVSPost2010PropOp54
 70
     1
102
RTVSPost2010Prop55
280
     0
102
RTVSPost2010PropOp55
 70
     1
102
RTVSPost2010Prop56
140
1.0
102
RTVSPost2010PropOp56
 70
     1
102
RTVSPost2010Prop57
140
1.0
102
RTVSPost2010PropOp57
 70
     1
102
RTVSPropertyOp0
 70
     1
102
RTVSPropertyOp1
 70
     1
102
RTVSPropertyOp2
 70
     1
102
RTVSPropertyOp3
 70
     1
102
RTVSPropertyOp4
 70
     1
102
RTVSPropertyOp5
 70
     1
102
RTVSPropertyOp6
 70
     1
102
RTVSPropertyOp7
 70
     1
102
RTVSPropertyOp8
 70
     1
102
RTVSPropertyOp9
 70
     1
102
RTVSPropertyOp10
 70
     1
102
RTVSPropertyOp11
 70
     1
102
RTVSPropertyOp12
 70
     1
102
RTVSPropertyOp13
 70
     1
102
RTVSPropertyOp14
 70
     1
102
RTVSPropertyOp15
 70
     1
102
RTVSPropertyOp16
 70
     1
102
RTVSPropertyOp17
 70
     1
102
RTVSPropertyOp18
 70
     1
102
RTVSPropertyOp19
 70
     1
102
RTVSPropertyOp20
 70
     1
102
RTVSPropertyOp21
 70
     1
102
RTVSPropertyOp22
 70
     1
102
RTVSPropertyOp23
 70
     1
102
RTVSPropertyOp24
 70
     1
102
RTVSPropertyOp25
 70
     1
102
RTVSPropertyOp26
 70
     1
102
RTVSPropertyOp27
 70
     1
102
RTVSPropertyOp28
 70
     1
102
RTVSPropertyOp29
 70
     1
102
RTVSPropertyOp30
 70
     1
102
RTVSPropertyOp31
 70
     1
102
RTVSPropertyOp32
 70
     1
102
RTVSPropertyOp33
 70
     1
102
RTVSPropertyOp34
 70
     1
102
RTVSPropertyOp35
 70
     1
102
RTVSPropertyOp36
 70
     1
102
RTVSPropertyOp37
 70
     1
102
RTVSPropertyOp38
 70
     1
102
RTVSPropertyOp39
 70
     1
102
RTVSPropertyOp40
 70
     1
102
RTVSPropertyOp41
 70
     1
102
RTVSPropertyOp42
 70
     1
102
RTVSPropertyOp43
 70
     1
102
RTVSPropertyOp44
 70
     1
102
RTVSPropertyOp45
 70
     1
102
RTVSPropertyOp46
 70
     1
102
RTVSPropertyOp47
 70
     1
102
RTVSPropertyOp48
 70
     1
102
RTVSPropertyOp49
 70
     1
102
RTVSPropertyOp50
 70
     1
102
RTVSPropertyOp51
 70
     0
102
RTVSPropertyOp52
 70
     0
102
RTVSPropertyOp53
 70
     1
102
RTVSPropertyOp54
 70
     1
102
RTVSPropertyOp55
 70
     1
102
RTVSPropertyOp56
 70
     1
102
RTVSPropertyOp57
 70
     1
102
RTVSPropertyOp58
 70
     1
102
RTVSPropertyOp59
 70
     1
102
RTVSPropertyOp60
 70
     1
102
RTVSPropertyOp61
 70
     1
102
RTVSPropertyOp62
 70
     1
  0
XRECORD
  5
B5CD
102
{ACAD_REACTORS
330
B5CC
102
}
330
B5CC
100
AcDbXrecord
280
     1
102
RTVSPost2010Prop28
280
     0
102
RTVSPost2010PropOp28
 70
     1
102
RTVSPost2010Prop29
280
     1
102
RTVSPost2010PropOp29
 70
     1
102
RTVSPost2010Prop30
280
     1
102
RTVSPost2010PropOp30
 70
     1
102
RTVSPost2010Prop31
280
     0
102
RTVSPost2010PropOp31
 70
     1
102
RTVSPost2010Prop32
280
     0
102
RTVSPost2010PropOp32
 70
     1
102
RTVSPost2010Prop33
280
     0
102
RTVSPost2010PropOp33
 70
     1
102
RTVSPost2010Prop34
280
     0
102
RTVSPost2010PropOp34
 70
     1
102
RTVSPost2010Prop35
280
     0
102
RTVSPost2010PropOp35
 70
     1
102
RTVSPost2010Prop36
280
     0
102
RTVSPost2010PropOp36
 70
     1
102
RTVSPost2010Prop37
 90
       50
102
RTVSPost2010PropOp37
 70
     0
102
RTVSPost2010Prop38
140
0.0
102
RTVSPost2010PropOp38
 70
     0
102
RTVSPost2010Prop39
140
1.0
102
RTVSPost2010PropOp39
 70
     0
102
RTVSPost2010Prop40
 90
        0
102
RTVSPost2010PropOp40
 70
     0
102
RTVSPost2010Prop41ColorIndex
 90
       18
102
RTVSPost2010Prop41ColorRGB
 90
        0
102
RTVSPost2010PropOp41
 70
     0
102
RTVSPost2010Prop42
 90
       50
102
RTVSPost2010PropOp42
 70
     0
102
RTVSPost2010Prop43
 90
        3
102
RTVSPost2010PropOp43
 70
     0
102
RTVSPost2010Prop44ColorIndex
 90
        5
102
RTVSPost2010Prop44ColorRGB
 90
      255
102
RTVSPost2010PropOp44
 70
     0
102
RTVSPost2010Prop45
280
     0
102
RTVSPost2010PropOp45
 70
     1
102
RTVSPost2010Prop46
 90
       50
102
RTVSPost2010PropOp46
 70
     0
102
RTVSPost2010Prop47
 90
       50
102
RTVSPost2010PropOp47
 70
     0
102
RTVSPost2010Prop48
 90
       50
102
RTVSPost2010PropOp48
 70
     0
102
RTVSPost2010Prop49
280
     0
102
RTVSPost2010PropOp49
 70
     1
102
RTVSPost2010Prop50
 90
       50
102
RTVSPost2010PropOp50
 70
     0
102
RTVSPost2010Prop51ColorIndex
 90
      256
102
RTVSPost2010Prop51ColorRGB
 90
-16777216
102
RTVSPost2010PropOp51
 70
     0
102
RTVSPost2010Prop52
140
1.0
102
RTVSPost2010PropOp52
 70
     0
102
RTVSPost2010Prop53
 90
        2
102
RTVSPost2010PropOp53
 70
     0
102
RTVSPost2010Prop54
  1
strokes_ogs.tif
102
RTVSPost2010PropOp54
 70
     0
102
RTVSPost2010Prop55
280
     0
102
RTVSPost2010PropOp55
 70
     1
102
RTVSPost2010Prop56
140
1.0
102
RTVSPost2010PropOp56
 70
     0
102
RTVSPost2010Prop57
140
1.0
102
RTVSPost2010PropOp57
 70
     0
102
RTVSPropertyOp0
 70
     0
102
RTVSPropertyOp1
 70
     0
102
RTVSPropertyOp2
 70
     0
102
RTVSPropertyOp3
 70
     0
102
RTVSPropertyOp4
 70
     0
102
RTVSPropertyOp5
 70
     0
102
RTVSPropertyOp6
 70
     0
102
RTVSPropertyOp7
 70
     0
102
RTVSPropertyOp8
 70
     0
102
RTVSPropertyOp9
 70
     0
102
RTVSPropertyOp10
 70
     0
102
RTVSPropertyOp11
 70
     0
102
RTVSPropertyOp12
 70
     0
102
RTVSPropertyOp13
 70
     0
102
RTVSPropertyOp14
 70
     2
102
RTVSPropertyOp15
 70
     0
102
RTVSPropertyOp16
 70
     0
102
RTVSPropertyOp17
 70
     0
102
RTVSPropertyOp18
 70
     0
102
RTVSPropertyOp19
 70
     0
102
RTVSPropertyOp20
 70
     0
102
RTVSPropertyOp21
 70
     0
102
RTVSPropertyOp22
 70
     0
102
RTVSPropertyOp23
 70
     0
102
RTVSPropertyOp24
 70
     0
102
RTVSPropertyOp25
 70
     0
102
RTVSPropertyOp26
 70
     0
102
RTVSPropertyOp27
 70
     0
102
RTVSPropertyOp28
 70
     1
102
RTVSPropertyOp29
 70
     1
102
RTVSPropertyOp30
 70
     1
102
RTVSPropertyOp31
 70
     1
102
RTVSPropertyOp32
 70
     1
102
RTVSPropertyOp33
 70
     1
102
RTVSPropertyOp34
 70
     1
102
RTVSPropertyOp35
 70
     1
102
RTVSPropertyOp36
 70
     1
102
RTVSPropertyOp37
 70
     0
102
RTVSPropertyOp38
 70
     0
102
RTVSPropertyOp39
 70
     0
102
RTVSPropertyOp40
 70
     0
102
RTVSPropertyOp41
 70
     0
102
RTVSPropertyOp42
 70
     0
102
RTVSPropertyOp43
 70
     0
102
RTVSPropertyOp44
 70
     0
102
RTVSPropertyOp45
 70
     1
102
RTVSPropertyOp46
 70
     0
102
RTVSPropertyOp47
 70
     0
102
RTVSPropertyOp48
 70
     0
102
RTVSPropertyOp49
 70
     1
102
RTVSPropertyOp50
 70
     0
102
RTVSPropertyOp51
 70
     0
102
RTVSPropertyOp52
 70
     0
102
RTVSPropertyOp53
 70
     0
102
RTVSPropertyOp54
 70
     0
102
RTVSPropertyOp55
 70
     1
102
RTVSPropertyOp56
 70
     0
102
RTVSPropertyOp57
 70
     0
102
RTVSPropertyOp58
 70
     0
102
RTVSPropertyOp59
 70
     0
102
RTVSPropertyOp60
 70
     0
102
RTVSPropertyOp61
 70
     0
102
RTVSPropertyOp62
 70
     0
  0
XRECORD
  5
B5BD
102
{ACAD_REACTORS
330
B5BC
102
}
330
B5BC
100
AcDbXrecord
280
     1
102
RTVSPost2010Prop28
280
     0
102
RTVSPost2010PropOp28
 70
     1
102
RTVSPost2010Prop29
280
     1
102
RTVSPost2010PropOp29
 70
     1
102
RTVSPost2010Prop30
280
     1
102
RTVSPost2010PropOp30
 70
     1
102
RTVSPost2010Prop31
280
     0
102
RTVSPost2010PropOp31
 70
     1
102
RTVSPost2010Prop32
280
     0
102
RTVSPost2010PropOp32
 70
     1
102
RTVSPost2010Prop33
280
     0
102
RTVSPost2010PropOp33
 70
     1
102
RTVSPost2010Prop34
280
     0
102
RTVSPost2010PropOp34
 70
     1
102
RTVSPost2010Prop35
280
     0
102
RTVSPost2010PropOp35
 70
     1
102
RTVSPost2010Prop36
280
     0
102
RTVSPost2010PropOp36
 70
     1
102
RTVSPost2010Prop37
 90
       50
102
RTVSPost2010PropOp37
 70
     1
102
RTVSPost2010Prop38
140
0.0
102
RTVSPost2010PropOp38
 70
     1
102
RTVSPost2010Prop39
140
1.0
102
RTVSPost2010PropOp39
 70
     1
102
RTVSPost2010Prop40
 90
        0
102
RTVSPost2010PropOp40
 70
     1
102
RTVSPost2010Prop41ColorIndex
 90
       18
102
RTVSPost2010Prop41ColorRGB
 90
        0
102
RTVSPost2010PropOp41
 70
     1
102
RTVSPost2010Prop42
 90
       50
102
RTVSPost2010PropOp42
 70
     1
102
RTVSPost2010Prop43
 90
        3
102
RTVSPost2010PropOp43
 70
     1
102
RTVSPost2010Prop44ColorIndex
 90
        5
102
RTVSPost2010Prop44ColorRGB
 90
      255
102
RTVSPost2010PropOp44
 70
     1
102
RTVSPost2010Prop45
280
     0
102
RTVSPost2010PropOp45
 70
     1
102
RTVSPost2010Prop46
 90
       50
102
RTVSPost2010PropOp46
 70
     1
102
RTVSPost2010Prop47
 90
       50
102
RTVSPost2010PropOp47
 70
     1
102
RTVSPost2010Prop48
 90
       50
102
RTVSPost2010PropOp48
 70
     1
102
RTVSPost2010Prop49
280
     0
102
RTVSPost2010PropOp49
 70
     1
102
RTVSPost2010Prop50
 90
       50
102
RTVSPost2010PropOp50
 70
     1
102
RTVSPost2010Prop51ColorIndex
 90
      256
102
RTVSPost2010Prop51ColorRGB
 90
-16777216
102
RTVSPost2010PropOp51
 70
     0
102
RTVSPost2010Prop52
140
1.0
102
RTVSPost2010PropOp52
 70
     0
102
RTVSPost2010Prop53
 90
        2
102
RTVSPost2010PropOp53
 70
     1
102
RTVSPost2010Prop54
  1
strokes_ogs.tif
102
RTVSPost2010PropOp54
 70
     1
102
RTVSPost2010Prop55
280
     0
102
RTVSPost2010PropOp55
 70
     1
102
RTVSPost2010Prop56
140
1.0
102
RTVSPost2010PropOp56
 70
     1
102
RTVSPost2010Prop57
140
1.0
102
RTVSPost2010PropOp57
 70
     1
102
RTVSPropertyOp0
 70
     1
102
RTVSPropertyOp1
 70
     1
102
RTVSPropertyOp2
 70
     1
102
RTVSPropertyOp3
 70
     1
102
RTVSPropertyOp4
 70
     1
102
RTVSPropertyOp5
 70
     1
102
RTVSPropertyOp6
 70
     1
102
RTVSPropertyOp7
 70
     1
102
RTVSPropertyOp8
 70
     1
102
RTVSPropertyOp9
 70
     1
102
RTVSPropertyOp10
 70
     1
102
RTVSPropertyOp11
 70
     1
102
RTVSPropertyOp12
 70
     1
102
RTVSPropertyOp13
 70
     1
102
RTVSPropertyOp14
 70
     1
102
RTVSPropertyOp15
 70
     1
102
RTVSPropertyOp16
 70
     1
102
RTVSPropertyOp17
 70
     1
102
RTVSPropertyOp18
 70
     1
102
RTVSPropertyOp19
 70
     1
102
RTVSPropertyOp20
 70
     1
102
RTVSPropertyOp21
 70
     1
102
RTVSPropertyOp22
 70
     1
102
RTVSPropertyOp23
 70
     1
102
RTVSPropertyOp24
 70
     1
102
RTVSPropertyOp25
 70
     1
102
RTVSPropertyOp26
 70
     1
102
RTVSPropertyOp27
 70
     1
102
RTVSPropertyOp28
 70
     1
102
RTVSPropertyOp29
 70
     1
102
RTVSPropertyOp30
 70
     1
102
RTVSPropertyOp31
 70
     1
102
RTVSPropertyOp32
 70
     1
102
RTVSPropertyOp33
 70
     1
102
RTVSPropertyOp34
 70
     1
102
RTVSPropertyOp35
 70
     1
102
RTVSPropertyOp36
 70
     1
102
RTVSPropertyOp37
 70
     1
102
RTVSPropertyOp38
 70
     1
102
RTVSPropertyOp39
 70
     1
102
RTVSPropertyOp40
 70
     1
102
RTVSPropertyOp41
 70
     1
102
RTVSPropertyOp42
 70
     1
102
RTVSPropertyOp43
 70
     1
102
RTVSPropertyOp44
 70
     1
102
RTVSPropertyOp45
 70
     1
102
RTVSPropertyOp46
 70
     1
102
RTVSPropertyOp47
 70
     1
102
RTVSPropertyOp48
 70
     1
102
RTVSPropertyOp49
 70
     1
102
RTVSPropertyOp50
 70
     1
102
RTVSPropertyOp51
 70
     0
102
RTVSPropertyOp52
 70
     0
102
RTVSPropertyOp53
 70
     1
102
RTVSPropertyOp54
 70
     1
102
RTVSPropertyOp55
 70
     1
102
RTVSPropertyOp56
 70
     1
102
RTVSPropertyOp57
 70
     1
102
RTVSPropertyOp58
 70
     1
102
RTVSPropertyOp59
 70
     1
102
RTVSPropertyOp60
 70
     1
102
RTVSPropertyOp61
 70
     1
102
RTVSPropertyOp62
 70
     1
  0
XRECORD
  5
B5CF
102
{ACAD_REACTORS
330
B5CE
102
}
330
B5CE
100
AcDbXrecord
280
     1
102
RTVSPost2010Prop28
280
     0
102
RTVSPost2010PropOp28
 70
     1
102
RTVSPost2010Prop29
280
     1
102
RTVSPost2010PropOp29
 70
     1
102
RTVSPost2010Prop30
280
     1
102
RTVSPost2010PropOp30
 70
     1
102
RTVSPost2010Prop31
280
     0
102
RTVSPost2010PropOp31
 70
     1
102
RTVSPost2010Prop32
280
     0
102
RTVSPost2010PropOp32
 70
     1
102
RTVSPost2010Prop33
280
     0
102
RTVSPost2010PropOp33
 70
     1
102
RTVSPost2010Prop34
280
     0
102
RTVSPost2010PropOp34
 70
     1
102
RTVSPost2010Prop35
280
     0
102
RTVSPost2010PropOp35
 70
     1
102
RTVSPost2010Prop36
280
     0
102
RTVSPost2010PropOp36
 70
     1
102
RTVSPost2010Prop37
 90
       50
102
RTVSPost2010PropOp37
 70
     0
102
RTVSPost2010Prop38
140
0.0
102
RTVSPost2010PropOp38
 70
     0
102
RTVSPost2010Prop39
140
1.0
102
RTVSPost2010PropOp39
 70
     0
102
RTVSPost2010Prop40
 90
        0
102
RTVSPost2010PropOp40
 70
     0
102
RTVSPost2010Prop41ColorIndex
 90
       18
102
RTVSPost2010Prop41ColorRGB
 90
        0
102
RTVSPost2010PropOp41
 70
     0
102
RTVSPost2010Prop42
 90
       50
102
RTVSPost2010PropOp42
 70
     0
102
RTVSPost2010Prop43
 90
        3
102
RTVSPost2010PropOp43
 70
     0
102
RTVSPost2010Prop44ColorIndex
 90
        5
102
RTVSPost2010Prop44ColorRGB
 90
      255
102
RTVSPost2010PropOp44
 70
     0
102
RTVSPost2010Prop45
280
     0
102
RTVSPost2010PropOp45
 70
     1
102
RTVSPost2010Prop46
 90
       50
102
RTVSPost2010PropOp46
 70
     0
102
RTVSPost2010Prop47
 90
       50
102
RTVSPost2010PropOp47
 70
     0
102
RTVSPost2010Prop48
 90
       50
102
RTVSPost2010PropOp48
 70
     0
102
RTVSPost2010Prop49
280
     0
102
RTVSPost2010PropOp49
 70
     1
102
RTVSPost2010Prop50
 90
       50
102
RTVSPost2010PropOp50
 70
     0
102
RTVSPost2010Prop51ColorIndex
 90
      256
102
RTVSPost2010Prop51ColorRGB
 90
-16777216
102
RTVSPost2010PropOp51
 70
     0
102
RTVSPost2010Prop52
140
1.0
102
RTVSPost2010PropOp52
 70
     0
102
RTVSPost2010Prop53
 90
        2
102
RTVSPost2010PropOp53
 70
     0
102
RTVSPost2010Prop54
  1
strokes_ogs.tif
102
RTVSPost2010PropOp54
 70
     0
102
RTVSPost2010Prop55
280
     0
102
RTVSPost2010PropOp55
 70
     1
102
RTVSPost2010Prop56
140
1.0
102
RTVSPost2010PropOp56
 70
     0
102
RTVSPost2010Prop57
140
1.0
102
RTVSPost2010PropOp57
 70
     0
102
RTVSPropertyOp0
 70
     0
102
RTVSPropertyOp1
 70
     0
102
RTVSPropertyOp2
 70
     0
102
RTVSPropertyOp3
 70
     0
102
RTVSPropertyOp4
 70
     0
102
RTVSPropertyOp5
 70
     0
102
RTVSPropertyOp6
 70
     0
102
RTVSPropertyOp7
 70
     0
102
RTVSPropertyOp8
 70
     0
102
RTVSPropertyOp9
 70
     0
102
RTVSPropertyOp10
 70
     0
102
RTVSPropertyOp11
 70
     0
102
RTVSPropertyOp12
 70
     0
102
RTVSPropertyOp13
 70
     0
102
RTVSPropertyOp14
 70
     2
102
RTVSPropertyOp15
 70
     0
102
RTVSPropertyOp16
 70
     0
102
RTVSPropertyOp17
 70
     0
102
RTVSPropertyOp18
 70
     0
102
RTVSPropertyOp19
 70
     0
102
RTVSPropertyOp20
 70
     0
102
RTVSPropertyOp21
 70
     0
102
RTVSPropertyOp22
 70
     0
102
RTVSPropertyOp23
 70
     0
102
RTVSPropertyOp24
 70
     0
102
RTVSPropertyOp25
 70
     0
102
RTVSPropertyOp26
 70
     0
102
RTVSPropertyOp27
 70
     0
102
RTVSPropertyOp28
 70
     1
102
RTVSPropertyOp29
 70
     1
102
RTVSPropertyOp30
 70
     1
102
RTVSPropertyOp31
 70
     1
102
RTVSPropertyOp32
 70
     1
102
RTVSPropertyOp33
 70
     1
102
RTVSPropertyOp34
 70
     1
102
RTVSPropertyOp35
 70
     1
102
RTVSPropertyOp36
 70
     1
102
RTVSPropertyOp37
 70
     0
102
RTVSPropertyOp38
 70
     0
102
RTVSPropertyOp39
 70
     0
102
RTVSPropertyOp40
 70
     0
102
RTVSPropertyOp41
 70
     0
102
RTVSPropertyOp42
 70
     0
102
RTVSPropertyOp43
 70
     0
102
RTVSPropertyOp44
 70
     0
102
RTVSPropertyOp45
 70
     1
102
RTVSPropertyOp46
 70
     0
102
RTVSPropertyOp47
 70
     0
102
RTVSPropertyOp48
 70
     0
102
RTVSPropertyOp49
 70
     1
102
RTVSPropertyOp50
 70
     0
102
RTVSPropertyOp51
 70
     0
102
RTVSPropertyOp52
 70
     0
102
RTVSPropertyOp53
 70
     0
102
RTVSPropertyOp54
 70
     0
102
RTVSPropertyOp55
 70
     1
102
RTVSPropertyOp56
 70
     0
102
RTVSPropertyOp57
 70
     0
102
RTVSPropertyOp58
 70
     0
102
RTVSPropertyOp59
 70
     0
102
RTVSPropertyOp60
 70
     0
102
RTVSPropertyOp61
 70
     0
102
RTVSPropertyOp62
 70
     0
  0
XRECORD
  5
B5B5
102
{ACAD_REACTORS
330
B5B4
102
}
330
B5B4
100
AcDbXrecord
280
     1
102
RTVSPost2010Prop28
280
     0
102
RTVSPost2010PropOp28
 70
     1
102
RTVSPost2010Prop29
280
     1
102
RTVSPost2010PropOp29
 70
     1
102
RTVSPost2010Prop30
280
     1
102
RTVSPost2010PropOp30
 70
     1
102
RTVSPost2010Prop31
280
     0
102
RTVSPost2010PropOp31
 70
     1
102
RTVSPost2010Prop32
280
     0
102
RTVSPost2010PropOp32
 70
     1
102
RTVSPost2010Prop33
280
     0
102
RTVSPost2010PropOp33
 70
     1
102
RTVSPost2010Prop34
280
     0
102
RTVSPost2010PropOp34
 70
     1
102
RTVSPost2010Prop35
280
     0
102
RTVSPost2010PropOp35
 70
     1
102
RTVSPost2010Prop36
280
     0
102
RTVSPost2010PropOp36
 70
     1
102
RTVSPost2010Prop37
 90
       50
102
RTVSPost2010PropOp37
 70
     1
102
RTVSPost2010Prop38
140
0.0
102
RTVSPost2010PropOp38
 70
     1
102
RTVSPost2010Prop39
140
1.0
102
RTVSPost2010PropOp39
 70
     1
102
RTVSPost2010Prop40
 90
        0
102
RTVSPost2010PropOp40
 70
     1
102
RTVSPost2010Prop41ColorIndex
 90
       18
102
RTVSPost2010Prop41ColorRGB
 90
        0
102
RTVSPost2010PropOp41
 70
     1
102
RTVSPost2010Prop42
 90
       50
102
RTVSPost2010PropOp42
 70
     1
102
RTVSPost2010Prop43
 90
        3
102
RTVSPost2010PropOp43
 70
     1
102
RTVSPost2010Prop44ColorIndex
 90
        5
102
RTVSPost2010Prop44ColorRGB
 90
      255
102
RTVSPost2010PropOp44
 70
     1
102
RTVSPost2010Prop45
280
     0
102
RTVSPost2010PropOp45
 70
     1
102
RTVSPost2010Prop46
 90
       50
102
RTVSPost2010PropOp46
 70
     1
102
RTVSPost2010Prop47
 90
       50
102
RTVSPost2010PropOp47
 70
     1
102
RTVSPost2010Prop48
 90
       50
102
RTVSPost2010PropOp48
 70
     1
102
RTVSPost2010Prop49
280
     0
102
RTVSPost2010PropOp49
 70
     1
102
RTVSPost2010Prop50
 90
       50
102
RTVSPost2010PropOp50
 70
     1
102
RTVSPost2010Prop51ColorIndex
 90
      256
102
RTVSPost2010Prop51ColorRGB
 90
-16777216
102
RTVSPost2010PropOp51
 70
     0
102
RTVSPost2010Prop52
140
1.0
102
RTVSPost2010PropOp52
 70
     0
102
RTVSPost2010Prop53
 90
        2
102
RTVSPost2010PropOp53
 70
     1
102
RTVSPost2010Prop54
  1
strokes_ogs.tif
102
RTVSPost2010PropOp54
 70
     1
102
RTVSPost2010Prop55
280
     0
102
RTVSPost2010PropOp55
 70
     1
102
RTVSPost2010Prop56
140
1.0
102
RTVSPost2010PropOp56
 70
     1
102
RTVSPost2010Prop57
140
1.0
102
RTVSPost2010PropOp57
 70
     1
102
RTVSPropertyOp0
 70
     1
102
RTVSPropertyOp1
 70
     1
102
RTVSPropertyOp2
 70
     1
102
RTVSPropertyOp3
 70
     1
102
RTVSPropertyOp4
 70
     1
102
RTVSPropertyOp5
 70
     1
102
RTVSPropertyOp6
 70
     1
102
RTVSPropertyOp7
 70
     1
102
RTVSPropertyOp8
 70
     1
102
RTVSPropertyOp9
 70
     1
102
RTVSPropertyOp10
 70
     1
102
RTVSPropertyOp11
 70
     1
102
RTVSPropertyOp12
 70
     1
102
RTVSPropertyOp13
 70
     1
102
RTVSPropertyOp14
 70
     1
102
RTVSPropertyOp15
 70
     1
102
RTVSPropertyOp16
 70
     1
102
RTVSPropertyOp17
 70
     1
102
RTVSPropertyOp18
 70
     1
102
RTVSPropertyOp19
 70
     1
102
RTVSPropertyOp20
 70
     1
102
RTVSPropertyOp21
 70
     1
102
RTVSPropertyOp22
 70
     1
102
RTVSPropertyOp23
 70
     1
102
RTVSPropertyOp24
 70
     1
102
RTVSPropertyOp25
 70
     1
102
RTVSPropertyOp26
 70
     1
102
RTVSPropertyOp27
 70
     1
102
RTVSPropertyOp28
 70
     1
102
RTVSPropertyOp29
 70
     1
102
RTVSPropertyOp30
 70
     1
102
RTVSPropertyOp31
 70
     1
102
RTVSPropertyOp32
 70
     1
102
RTVSPropertyOp33
 70
     1
102
RTVSPropertyOp34
 70
     1
102
RTVSPropertyOp35
 70
     1
102
RTVSPropertyOp36
 70
     1
102
RTVSPropertyOp37
 70
     1
102
RTVSPropertyOp38
 70
     1
102
RTVSPropertyOp39
 70
     1
102
RTVSPropertyOp40
 70
     1
102
RTVSPropertyOp41
 70
     1
102
RTVSPropertyOp42
 70
     1
102
RTVSPropertyOp43
 70
     1
102
RTVSPropertyOp44
 70
     1
102
RTVSPropertyOp45
 70
     1
102
RTVSPropertyOp46
 70
     1
102
RTVSPropertyOp47
 70
     1
102
RTVSPropertyOp48
 70
     1
102
RTVSPropertyOp49
 70
     1
102
RTVSPropertyOp50
 70
     1
102
RTVSPropertyOp51
 70
     0
102
RTVSPropertyOp52
 70
     0
102
RTVSPropertyOp53
 70
     1
102
RTVSPropertyOp54
 70
     1
102
RTVSPropertyOp55
 70
     1
102
RTVSPropertyOp56
 70
     1
102
RTVSPropertyOp57
 70
     1
102
RTVSPropertyOp58
 70
     1
102
RTVSPropertyOp59
 70
     1
102
RTVSPropertyOp60
 70
     1
102
RTVSPropertyOp61
 70
     1
102
RTVSPropertyOp62
 70
     1
  0
XRECORD
  5
B5CB
102
{ACAD_REACTORS
330
B5CA
102
}
330
B5CA
100
AcDbXrecord
280
     1
102
RTVSPost2010Prop28
280
     0
102
RTVSPost2010PropOp28
 70
     1
102
RTVSPost2010Prop29
280
     1
102
RTVSPost2010PropOp29
 70
     1
102
RTVSPost2010Prop30
280
     1
102
RTVSPost2010PropOp30
 70
     1
102
RTVSPost2010Prop31
280
     0
102
RTVSPost2010PropOp31
 70
     1
102
RTVSPost2010Prop32
280
     0
102
RTVSPost2010PropOp32
 70
     1
102
RTVSPost2010Prop33
280
     0
102
RTVSPost2010PropOp33
 70
     1
102
RTVSPost2010Prop34
280
     0
102
RTVSPost2010PropOp34
 70
     1
102
RTVSPost2010Prop35
280
     0
102
RTVSPost2010PropOp35
 70
     1
102
RTVSPost2010Prop36
280
     0
102
RTVSPost2010PropOp36
 70
     1
102
RTVSPost2010Prop37
 90
       50
102
RTVSPost2010PropOp37
 70
     1
102
RTVSPost2010Prop38
140
0.0
102
RTVSPost2010PropOp38
 70
     1
102
RTVSPost2010Prop39
140
1.0
102
RTVSPost2010PropOp39
 70
     1
102
RTVSPost2010Prop40
 90
        0
102
RTVSPost2010PropOp40
 70
     1
102
RTVSPost2010Prop41ColorIndex
 90
       18
102
RTVSPost2010Prop41ColorRGB
 90
        0
102
RTVSPost2010PropOp41
 70
     1
102
RTVSPost2010Prop42
 90
       50
102
RTVSPost2010PropOp42
 70
     1
102
RTVSPost2010Prop43
 90
        3
102
RTVSPost2010PropOp43
 70
     1
102
RTVSPost2010Prop44ColorIndex
 90
        5
102
RTVSPost2010Prop44ColorRGB
 90
      255
102
RTVSPost2010PropOp44
 70
     1
102
RTVSPost2010Prop45
280
     0
102
RTVSPost2010PropOp45
 70
     1
102
RTVSPost2010Prop46
 90
       50
102
RTVSPost2010PropOp46
 70
     1
102
RTVSPost2010Prop47
 90
       50
102
RTVSPost2010PropOp47
 70
     1
102
RTVSPost2010Prop48
 90
       50
102
RTVSPost2010PropOp48
 70
     1
102
RTVSPost2010Prop49
280
     0
102
RTVSPost2010PropOp49
 70
     1
102
RTVSPost2010Prop50
 90
       50
102
RTVSPost2010PropOp50
 70
     1
102
RTVSPost2010Prop51ColorIndex
 90
      256
102
RTVSPost2010Prop51ColorRGB
 90
-16777216
102
RTVSPost2010PropOp51
 70
     0
102
RTVSPost2010Prop52
140
1.0
102
RTVSPost2010PropOp52
 70
     0
102
RTVSPost2010Prop53
 90
        2
102
RTVSPost2010PropOp53
 70
     1
102
RTVSPost2010Prop54
  1
strokes_ogs.tif
102
RTVSPost2010PropOp54
 70
     1
102
RTVSPost2010Prop55
280
     0
102
RTVSPost2010PropOp55
 70
     1
102
RTVSPost2010Prop56
140
1.0
102
RTVSPost2010PropOp56
 70
     1
102
RTVSPost2010Prop57
140
1.0
102
RTVSPost2010PropOp57
 70
     1
102
RTVSPropertyOp0
 70
     1
102
RTVSPropertyOp1
 70
     1
102
RTVSPropertyOp2
 70
     1
102
RTVSPropertyOp3
 70
     1
102
RTVSPropertyOp4
 70
     1
102
RTVSPropertyOp5
 70
     1
102
RTVSPropertyOp6
 70
     1
102
RTVSPropertyOp7
 70
     1
102
RTVSPropertyOp8
 70
     1
102
RTVSPropertyOp9
 70
     1
102
RTVSPropertyOp10
 70
     1
102
RTVSPropertyOp11
 70
     1
102
RTVSPropertyOp12
 70
     1
102
RTVSPropertyOp13
 70
     1
102
RTVSPropertyOp14
 70
     1
102
RTVSPropertyOp15
 70
     1
102
RTVSPropertyOp16
 70
     1
102
RTVSPropertyOp17
 70
     1
102
RTVSPropertyOp18
 70
     1
102
RTVSPropertyOp19
 70
     1
102
RTVSPropertyOp20
 70
     1
102
RTVSPropertyOp21
 70
     1
102
RTVSPropertyOp22
 70
     1
102
RTVSPropertyOp23
 70
     1
102
RTVSPropertyOp24
 70
     1
102
RTVSPropertyOp25
 70
     1
102
RTVSPropertyOp26
 70
     1
102
RTVSPropertyOp27
 70
     1
102
RTVSPropertyOp28
 70
     1
102
RTVSPropertyOp29
 70
     1
102
RTVSPropertyOp30
 70
     1
102
RTVSPropertyOp31
 70
     1
102
RTVSPropertyOp32
 70
     1
102
RTVSPropertyOp33
 70
     1
102
RTVSPropertyOp34
 70
     1
102
RTVSPropertyOp35
 70
     1
102
RTVSPropertyOp36
 70
     1
102
RTVSPropertyOp37
 70
     1
102
RTVSPropertyOp38
 70
     1
102
RTVSPropertyOp39
 70
     1
102
RTVSPropertyOp40
 70
     1
102
RTVSPropertyOp41
 70
     1
102
RTVSPropertyOp42
 70
     1
102
RTVSPropertyOp43
 70
     1
102
RTVSPropertyOp44
 70
     1
102
RTVSPropertyOp45
 70
     1
102
RTVSPropertyOp46
 70
     1
102
RTVSPropertyOp47
 70
     1
102
RTVSPropertyOp48
 70
     1
102
RTVSPropertyOp49
 70
     1
102
RTVSPropertyOp50
 70
     1
102
RTVSPropertyOp51
 70
     0
102
RTVSPropertyOp52
 70
     0
102
RTVSPropertyOp53
 70
     1
102
RTVSPropertyOp54
 70
     1
102
RTVSPropertyOp55
 70
     1
102
RTVSPropertyOp56
 70
     1
102
RTVSPropertyOp57
 70
     1
102
RTVSPropertyOp58
 70
     1
102
RTVSPropertyOp59
 70
     1
102
RTVSPropertyOp60
 70
     1
102
RTVSPropertyOp61
 70
     1
102
RTVSPropertyOp62
 70
     1
  0
XRECORD
  5
B5C9
102
{ACAD_REACTORS
330
B5C8
102
}
330
B5C8
100
AcDbXrecord
280
     1
102
RTVSPost2010Prop28
280
     0
102
RTVSPost2010PropOp28
 70
     1
102
RTVSPost2010Prop29
280
     1
102
RTVSPost2010PropOp29
 70
     1
102
RTVSPost2010Prop30
280
     1
102
RTVSPost2010PropOp30
 70
     1
102
RTVSPost2010Prop31
280
     0
102
RTVSPost2010PropOp31
 70
     1
102
RTVSPost2010Prop32
280
     0
102
RTVSPost2010PropOp32
 70
     1
102
RTVSPost2010Prop33
280
     0
102
RTVSPost2010PropOp33
 70
     1
102
RTVSPost2010Prop34
280
     0
102
RTVSPost2010PropOp34
 70
     1
102
RTVSPost2010Prop35
280
     0
102
RTVSPost2010PropOp35
 70
     1
102
RTVSPost2010Prop36
280
     0
102
RTVSPost2010PropOp36
 70
     1
102
RTVSPost2010Prop37
 90
       50
102
RTVSPost2010PropOp37
 70
     1
102
RTVSPost2010Prop38
140
0.0
102
RTVSPost2010PropOp38
 70
     1
102
RTVSPost2010Prop39
140
1.0
102
RTVSPost2010PropOp39
 70
     1
102
RTVSPost2010Prop40
 90
        0
102
RTVSPost2010PropOp40
 70
     1
102
RTVSPost2010Prop41ColorIndex
 90
       18
102
RTVSPost2010Prop41ColorRGB
 90
        0
102
RTVSPost2010PropOp41
 70
     1
102
RTVSPost2010Prop42
 90
       50
102
RTVSPost2010PropOp42
 70
     1
102
RTVSPost2010Prop43
 90
        3
102
RTVSPost2010PropOp43
 70
     1
102
RTVSPost2010Prop44ColorIndex
 90
        5
102
RTVSPost2010Prop44ColorRGB
 90
      255
102
RTVSPost2010PropOp44
 70
     1
102
RTVSPost2010Prop45
280
     0
102
RTVSPost2010PropOp45
 70
     1
102
RTVSPost2010Prop46
 90
       50
102
RTVSPost2010PropOp46
 70
     1
102
RTVSPost2010Prop47
 90
       50
102
RTVSPost2010PropOp47
 70
     1
102
RTVSPost2010Prop48
 90
       50
102
RTVSPost2010PropOp48
 70
     1
102
RTVSPost2010Prop49
280
     0
102
RTVSPost2010PropOp49
 70
     1
102
RTVSPost2010Prop50
 90
       50
102
RTVSPost2010PropOp50
 70
     1
102
RTVSPost2010Prop51ColorIndex
 90
      256
102
RTVSPost2010Prop51ColorRGB
 90
-16777216
102
RTVSPost2010PropOp51
 70
     0
102
RTVSPost2010Prop52
140
1.0
102
RTVSPost2010PropOp52
 70
     0
102
RTVSPost2010Prop53
 90
        2
102
RTVSPost2010PropOp53
 70
     1
102
RTVSPost2010Prop54
  1
strokes_ogs.tif
102
RTVSPost2010PropOp54
 70
     1
102
RTVSPost2010Prop55
280
     0
102
RTVSPost2010PropOp55
 70
     1
102
RTVSPost2010Prop56
140
1.0
102
RTVSPost2010PropOp56
 70
     1
102
RTVSPost2010Prop57
140
1.0
102
RTVSPost2010PropOp57
 70
     1
102
RTVSPropertyOp0
 70
     1
102
RTVSPropertyOp1
 70
     1
102
RTVSPropertyOp2
 70
     1
102
RTVSPropertyOp3
 70
     1
102
RTVSPropertyOp4
 70
     1
102
RTVSPropertyOp5
 70
     1
102
RTVSPropertyOp6
 70
     1
102
RTVSPropertyOp7
 70
     1
102
RTVSPropertyOp8
 70
     1
102
RTVSPropertyOp9
 70
     1
102
RTVSPropertyOp10
 70
     1
102
RTVSPropertyOp11
 70
     1
102
RTVSPropertyOp12
 70
     1
102
RTVSPropertyOp13
 70
     1
102
RTVSPropertyOp14
 70
     1
102
RTVSPropertyOp15
 70
     1
102
RTVSPropertyOp16
 70
     1
102
RTVSPropertyOp17
 70
     1
102
RTVSPropertyOp18
 70
     1
102
RTVSPropertyOp19
 70
     1
102
RTVSPropertyOp20
 70
     1
102
RTVSPropertyOp21
 70
     1
102
RTVSPropertyOp22
 70
     1
102
RTVSPropertyOp23
 70
     1
102
RTVSPropertyOp24
 70
     1
102
RTVSPropertyOp25
 70
     1
102
RTVSPropertyOp26
 70
     1
102
RTVSPropertyOp27
 70
     1
102
RTVSPropertyOp28
 70
     1
102
RTVSPropertyOp29
 70
     1
102
RTVSPropertyOp30
 70
     1
102
RTVSPropertyOp31
 70
     1
102
RTVSPropertyOp32
 70
     1
102
RTVSPropertyOp33
 70
     1
102
RTVSPropertyOp34
 70
     1
102
RTVSPropertyOp35
 70
     1
102
RTVSPropertyOp36
 70
     1
102
RTVSPropertyOp37
 70
     1
102
RTVSPropertyOp38
 70
     1
102
RTVSPropertyOp39
 70
     1
102
RTVSPropertyOp40
 70
     1
102
RTVSPropertyOp41
 70
     1
102
RTVSPropertyOp42
 70
     1
102
RTVSPropertyOp43
 70
     1
102
RTVSPropertyOp44
 70
     1
102
RTVSPropertyOp45
 70
     1
102
RTVSPropertyOp46
 70
     1
102
RTVSPropertyOp47
 70
     1
102
RTVSPropertyOp48
 70
     1
102
RTVSPropertyOp49
 70
     1
102
RTVSPropertyOp50
 70
     1
102
RTVSPropertyOp51
 70
     0
102
RTVSPropertyOp52
 70
     0
102
RTVSPropertyOp53
 70
     1
102
RTVSPropertyOp54
 70
     1
102
RTVSPropertyOp55
 70
     1
102
RTVSPropertyOp56
 70
     1
102
RTVSPropertyOp57
 70
     1
102
RTVSPropertyOp58
 70
     1
102
RTVSPropertyOp59
 70
     1
102
RTVSPropertyOp60
 70
     1
102
RTVSPropertyOp61
 70
     1
102
RTVSPropertyOp62
 70
     1
  0
XRECORD
  5
B5C3
102
{ACAD_REACTORS
330
B5C2
102
}
330
B5C2
100
AcDbXrecord
280
     1
102
RTVSPost2010Prop28
280
     0
102
RTVSPost2010PropOp28
 70
     1
102
RTVSPost2010Prop29
280
     1
102
RTVSPost2010PropOp29
 70
     1
102
RTVSPost2010Prop30
280
     1
102
RTVSPost2010PropOp30
 70
     1
102
RTVSPost2010Prop31
280
     0
102
RTVSPost2010PropOp31
 70
     1
102
RTVSPost2010Prop32
280
     0
102
RTVSPost2010PropOp32
 70
     1
102
RTVSPost2010Prop33
280
     0
102
RTVSPost2010PropOp33
 70
     1
102
RTVSPost2010Prop34
280
     0
102
RTVSPost2010PropOp34
 70
     1
102
RTVSPost2010Prop35
280
     0
102
RTVSPost2010PropOp35
 70
     1
102
RTVSPost2010Prop36
280
     0
102
RTVSPost2010PropOp36
 70
     1
102
RTVSPost2010Prop37
 90
       50
102
RTVSPost2010PropOp37
 70
     1
102
RTVSPost2010Prop38
140
0.0
102
RTVSPost2010PropOp38
 70
     1
102
RTVSPost2010Prop39
140
1.0
102
RTVSPost2010PropOp39
 70
     1
102
RTVSPost2010Prop40
 90
        0
102
RTVSPost2010PropOp40
 70
     1
102
RTVSPost2010Prop41ColorIndex
 90
       18
102
RTVSPost2010Prop41ColorRGB
 90
        0
102
RTVSPost2010PropOp41
 70
     1
102
RTVSPost2010Prop42
 90
       50
102
RTVSPost2010PropOp42
 70
     1
102
RTVSPost2010Prop43
 90
        3
102
RTVSPost2010PropOp43
 70
     1
102
RTVSPost2010Prop44ColorIndex
 90
        5
102
RTVSPost2010Prop44ColorRGB
 90
      255
102
RTVSPost2010PropOp44
 70
     1
102
RTVSPost2010Prop45
280
     0
102
RTVSPost2010PropOp45
 70
     1
102
RTVSPost2010Prop46
 90
       50
102
RTVSPost2010PropOp46
 70
     1
102
RTVSPost2010Prop47
 90
       50
102
RTVSPost2010PropOp47
 70
     1
102
RTVSPost2010Prop48
 90
       50
102
RTVSPost2010PropOp48
 70
     1
102
RTVSPost2010Prop49
280
     0
102
RTVSPost2010PropOp49
 70
     1
102
RTVSPost2010Prop50
 90
       50
102
RTVSPost2010PropOp50
 70
     1
102
RTVSPost2010Prop51ColorIndex
 90
      256
102
RTVSPost2010Prop51ColorRGB
 90
-16777216
102
RTVSPost2010PropOp51
 70
     0
102
RTVSPost2010Prop52
140
1.0
102
RTVSPost2010PropOp52
 70
     0
102
RTVSPost2010Prop53
 90
        2
102
RTVSPost2010PropOp53
 70
     1
102
RTVSPost2010Prop54
  1
strokes_ogs.tif
102
RTVSPost2010PropOp54
 70
     1
102
RTVSPost2010Prop55
280
     0
102
RTVSPost2010PropOp55
 70
     1
102
RTVSPost2010Prop56
140
1.0
102
RTVSPost2010PropOp56
 70
     1
102
RTVSPost2010Prop57
140
1.0
102
RTVSPost2010PropOp57
 70
     1
102
RTVSPropertyOp0
 70
     1
102
RTVSPropertyOp1
 70
     1
102
RTVSPropertyOp2
 70
     1
102
RTVSPropertyOp3
 70
     1
102
RTVSPropertyOp4
 70
     1
102
RTVSPropertyOp5
 70
     1
102
RTVSPropertyOp6
 70
     1
102
RTVSPropertyOp7
 70
     1
102
RTVSPropertyOp8
 70
     1
102
RTVSPropertyOp9
 70
     1
102
RTVSPropertyOp10
 70
     1
102
RTVSPropertyOp11
 70
     1
102
RTVSPropertyOp12
 70
     1
102
RTVSPropertyOp13
 70
     1
102
RTVSPropertyOp14
 70
     1
102
RTVSPropertyOp15
 70
     1
102
RTVSPropertyOp16
 70
     1
102
RTVSPropertyOp17
 70
     1
102
RTVSPropertyOp18
 70
     1
102
RTVSPropertyOp19
 70
     1
102
RTVSPropertyOp20
 70
     1
102
RTVSPropertyOp21
 70
     1
102
RTVSPropertyOp22
 70
     1
102
RTVSPropertyOp23
 70
     1
102
RTVSPropertyOp24
 70
     1
102
RTVSPropertyOp25
 70
     1
102
RTVSPropertyOp26
 70
     1
102
RTVSPropertyOp27
 70
     1
102
RTVSPropertyOp28
 70
     1
102
RTVSPropertyOp29
 70
     1
102
RTVSPropertyOp30
 70
     1
102
RTVSPropertyOp31
 70
     1
102
RTVSPropertyOp32
 70
     1
102
RTVSPropertyOp33
 70
     1
102
RTVSPropertyOp34
 70
     1
102
RTVSPropertyOp35
 70
     1
102
RTVSPropertyOp36
 70
     1
102
RTVSPropertyOp37
 70
     1
102
RTVSPropertyOp38
 70
     1
102
RTVSPropertyOp39
 70
     1
102
RTVSPropertyOp40
 70
     1
102
RTVSPropertyOp41
 70
     1
102
RTVSPropertyOp42
 70
     1
102
RTVSPropertyOp43
 70
     1
102
RTVSPropertyOp44
 70
     1
102
RTVSPropertyOp45
 70
     1
102
RTVSPropertyOp46
 70
     1
102
RTVSPropertyOp47
 70
     1
102
RTVSPropertyOp48
 70
     1
102
RTVSPropertyOp49
 70
     1
102
RTVSPropertyOp50
 70
     1
102
RTVSPropertyOp51
 70
     0
102
RTVSPropertyOp52
 70
     0
102
RTVSPropertyOp53
 70
     1
102
RTVSPropertyOp54
 70
     1
102
RTVSPropertyOp55
 70
     1
102
RTVSPropertyOp56
 70
     1
102
RTVSPropertyOp57
 70
     1
102
RTVSPropertyOp58
 70
     1
102
RTVSPropertyOp59
 70
     1
102
RTVSPropertyOp60
 70
     1
102
RTVSPropertyOp61
 70
     1
102
RTVSPropertyOp62
 70
     1
  0
XRECORD
  5
B5C5
102
{ACAD_REACTORS
330
B5C4
102
}
330
B5C4
100
AcDbXrecord
280
     1
102
RTVSPost2010Prop28
280
     0
102
RTVSPost2010PropOp28
 70
     1
102
RTVSPost2010Prop29
280
     1
102
RTVSPost2010PropOp29
 70
     1
102
RTVSPost2010Prop30
280
     1
102
RTVSPost2010PropOp30
 70
     1
102
RTVSPost2010Prop31
280
     0
102
RTVSPost2010PropOp31
 70
     1
102
RTVSPost2010Prop32
280
     0
102
RTVSPost2010PropOp32
 70
     1
102
RTVSPost2010Prop33
280
     0
102
RTVSPost2010PropOp33
 70
     1
102
RTVSPost2010Prop34
280
     0
102
RTVSPost2010PropOp34
 70
     1
102
RTVSPost2010Prop35
280
     0
102
RTVSPost2010PropOp35
 70
     1
102
RTVSPost2010Prop36
280
     0
102
RTVSPost2010PropOp36
 70
     1
102
RTVSPost2010Prop37
 90
       50
102
RTVSPost2010PropOp37
 70
     1
102
RTVSPost2010Prop38
140
0.0
102
RTVSPost2010PropOp38
 70
     1
102
RTVSPost2010Prop39
140
1.0
102
RTVSPost2010PropOp39
 70
     1
102
RTVSPost2010Prop40
 90
        0
102
RTVSPost2010PropOp40
 70
     1
102
RTVSPost2010Prop41ColorIndex
 90
       18
102
RTVSPost2010Prop41ColorRGB
 90
        0
102
RTVSPost2010PropOp41
 70
     1
102
RTVSPost2010Prop42
 90
       50
102
RTVSPost2010PropOp42
 70
     1
102
RTVSPost2010Prop43
 90
        3
102
RTVSPost2010PropOp43
 70
     1
102
RTVSPost2010Prop44ColorIndex
 90
        5
102
RTVSPost2010Prop44ColorRGB
 90
      255
102
RTVSPost2010PropOp44
 70
     1
102
RTVSPost2010Prop45
280
     0
102
RTVSPost2010PropOp45
 70
     1
102
RTVSPost2010Prop46
 90
       50
102
RTVSPost2010PropOp46
 70
     1
102
RTVSPost2010Prop47
 90
       50
102
RTVSPost2010PropOp47
 70
     1
102
RTVSPost2010Prop48
 90
       50
102
RTVSPost2010PropOp48
 70
     1
102
RTVSPost2010Prop49
280
     0
102
RTVSPost2010PropOp49
 70
     1
102
RTVSPost2010Prop50
 90
       50
102
RTVSPost2010PropOp50
 70
     1
102
RTVSPost2010Prop51ColorIndex
 90
      256
102
RTVSPost2010Prop51ColorRGB
 90
-16777216
102
RTVSPost2010PropOp51
 70
     0
102
RTVSPost2010Prop52
140
1.0
102
RTVSPost2010PropOp52
 70
     0
102
RTVSPost2010Prop53
 90
        2
102
RTVSPost2010PropOp53
 70
     1
102
RTVSPost2010Prop54
  1
strokes_ogs.tif
102
RTVSPost2010PropOp54
 70
     1
102
RTVSPost2010Prop55
280
     0
102
RTVSPost2010PropOp55
 70
     1
102
RTVSPost2010Prop56
140
1.0
102
RTVSPost2010PropOp56
 70
     1
102
RTVSPost2010Prop57
140
1.0
102
RTVSPost2010PropOp57
 70
     1
102
RTVSPropertyOp0
 70
     1
102
RTVSPropertyOp1
 70
     1
102
RTVSPropertyOp2
 70
     1
102
RTVSPropertyOp3
 70
     1
102
RTVSPropertyOp4
 70
     1
102
RTVSPropertyOp5
 70
     1
102
RTVSPropertyOp6
 70
     1
102
RTVSPropertyOp7
 70
     1
102
RTVSPropertyOp8
 70
     1
102
RTVSPropertyOp9
 70
     1
102
RTVSPropertyOp10
 70
     1
102
RTVSPropertyOp11
 70
     1
102
RTVSPropertyOp12
 70
     1
102
RTVSPropertyOp13
 70
     1
102
RTVSPropertyOp14
 70
     1
102
RTVSPropertyOp15
 70
     1
102
RTVSPropertyOp16
 70
     1
102
RTVSPropertyOp17
 70
     1
102
RTVSPropertyOp18
 70
     1
102
RTVSPropertyOp19
 70
     1
102
RTVSPropertyOp20
 70
     1
102
RTVSPropertyOp21
 70
     1
102
RTVSPropertyOp22
 70
     1
102
RTVSPropertyOp23
 70
     1
102
RTVSPropertyOp24
 70
     1
102
RTVSPropertyOp25
 70
     1
102
RTVSPropertyOp26
 70
     1
102
RTVSPropertyOp27
 70
     1
102
RTVSPropertyOp28
 70
     1
102
RTVSPropertyOp29
 70
     1
102
RTVSPropertyOp30
 70
     1
102
RTVSPropertyOp31
 70
     1
102
RTVSPropertyOp32
 70
     1
102
RTVSPropertyOp33
 70
     1
102
RTVSPropertyOp34
 70
     1
102
RTVSPropertyOp35
 70
     1
102
RTVSPropertyOp36
 70
     1
102
RTVSPropertyOp37
 70
     1
102
RTVSPropertyOp38
 70
     1
102
RTVSPropertyOp39
 70
     1
102
RTVSPropertyOp40
 70
     1
102
RTVSPropertyOp41
 70
     1
102
RTVSPropertyOp42
 70
     1
102
RTVSPropertyOp43
 70
     1
102
RTVSPropertyOp44
 70
     1
102
RTVSPropertyOp45
 70
     1
102
RTVSPropertyOp46
 70
     1
102
RTVSPropertyOp47
 70
     1
102
RTVSPropertyOp48
 70
     1
102
RTVSPropertyOp49
 70
     1
102
RTVSPropertyOp50
 70
     1
102
RTVSPropertyOp51
 70
     0
102
RTVSPropertyOp52
 70
     0
102
RTVSPropertyOp53
 70
     1
102
RTVSPropertyOp54
 70
     1
102
RTVSPropertyOp55
 70
     1
102
RTVSPropertyOp56
 70
     1
102
RTVSPropertyOp57
 70
     1
102
RTVSPropertyOp58
 70
     1
102
RTVSPropertyOp59
 70
     1
102
RTVSPropertyOp60
 70
     1
102
RTVSPropertyOp61
 70
     1
102
RTVSPropertyOp62
 70
     1
  0
XRECORD
  5
B5BB
102
{ACAD_REACTORS
330
B5BA
102
}
330
B5BA
100
AcDbXrecord
280
     1
102
RTVSPost2010Prop28
280
     0
102
RTVSPost2010PropOp28
 70
     1
102
RTVSPost2010Prop29
280
     1
102
RTVSPost2010PropOp29
 70
     1
102
RTVSPost2010Prop30
280
     1
102
RTVSPost2010PropOp30
 70
     1
102
RTVSPost2010Prop31
280
     0
102
RTVSPost2010PropOp31
 70
     1
102
RTVSPost2010Prop32
280
     0
102
RTVSPost2010PropOp32
 70
     1
102
RTVSPost2010Prop33
280
     0
102
RTVSPost2010PropOp33
 70
     1
102
RTVSPost2010Prop34
280
     0
102
RTVSPost2010PropOp34
 70
     1
102
RTVSPost2010Prop35
280
     0
102
RTVSPost2010PropOp35
 70
     1
102
RTVSPost2010Prop36
280
     0
102
RTVSPost2010PropOp36
 70
     1
102
RTVSPost2010Prop37
 90
       50
102
RTVSPost2010PropOp37
 70
     1
102
RTVSPost2010Prop38
140
0.0
102
RTVSPost2010PropOp38
 70
     1
102
RTVSPost2010Prop39
140
1.0
102
RTVSPost2010PropOp39
 70
     1
102
RTVSPost2010Prop40
 90
        0
102
RTVSPost2010PropOp40
 70
     1
102
RTVSPost2010Prop41ColorIndex
 90
       18
102
RTVSPost2010Prop41ColorRGB
 90
        0
102
RTVSPost2010PropOp41
 70
     1
102
RTVSPost2010Prop42
 90
       50
102
RTVSPost2010PropOp42
 70
     1
102
RTVSPost2010Prop43
 90
        3
102
RTVSPost2010PropOp43
 70
     1
102
RTVSPost2010Prop44ColorIndex
 90
        5
102
RTVSPost2010Prop44ColorRGB
 90
      255
102
RTVSPost2010PropOp44
 70
     1
102
RTVSPost2010Prop45
280
     0
102
RTVSPost2010PropOp45
 70
     1
102
RTVSPost2010Prop46
 90
       50
102
RTVSPost2010PropOp46
 70
     1
102
RTVSPost2010Prop47
 90
       50
102
RTVSPost2010PropOp47
 70
     1
102
RTVSPost2010Prop48
 90
       50
102
RTVSPost2010PropOp48
 70
     1
102
RTVSPost2010Prop49
280
     0
102
RTVSPost2010PropOp49
 70
     1
102
RTVSPost2010Prop50
 90
       50
102
RTVSPost2010PropOp50
 70
     1
102
RTVSPost2010Prop51ColorIndex
 90
      256
102
RTVSPost2010Prop51ColorRGB
 90
-16777216
102
RTVSPost2010PropOp51
 70
     0
102
RTVSPost2010Prop52
140
1.0
102
RTVSPost2010PropOp52
 70
     0
102
RTVSPost2010Prop53
 90
        2
102
RTVSPost2010PropOp53
 70
     1
102
RTVSPost2010Prop54
  1
strokes_ogs.tif
102
RTVSPost2010PropOp54
 70
     1
102
RTVSPost2010Prop55
280
     0
102
RTVSPost2010PropOp55
 70
     1
102
RTVSPost2010Prop56
140
1.0
102
RTVSPost2010PropOp56
 70
     1
102
RTVSPost2010Prop57
140
1.0
102
RTVSPost2010PropOp57
 70
     1
102
RTVSPropertyOp0
 70
     1
102
RTVSPropertyOp1
 70
     1
102
RTVSPropertyOp2
 70
     1
102
RTVSPropertyOp3
 70
     1
102
RTVSPropertyOp4
 70
     1
102
RTVSPropertyOp5
 70
     1
102
RTVSPropertyOp6
 70
     1
102
RTVSPropertyOp7
 70
     1
102
RTVSPropertyOp8
 70
     1
102
RTVSPropertyOp9
 70
     1
102
RTVSPropertyOp10
 70
     1
102
RTVSPropertyOp11
 70
     1
102
RTVSPropertyOp12
 70
     1
102
RTVSPropertyOp13
 70
     1
102
RTVSPropertyOp14
 70
     1
102
RTVSPropertyOp15
 70
     1
102
RTVSPropertyOp16
 70
     1
102
RTVSPropertyOp17
 70
     1
102
RTVSPropertyOp18
 70
     1
102
RTVSPropertyOp19
 70
     1
102
RTVSPropertyOp20
 70
     1
102
RTVSPropertyOp21
 70
     1
102
RTVSPropertyOp22
 70
     1
102
RTVSPropertyOp23
 70
     1
102
RTVSPropertyOp24
 70
     1
102
RTVSPropertyOp25
 70
     1
102
RTVSPropertyOp26
 70
     1
102
RTVSPropertyOp27
 70
     1
102
RTVSPropertyOp28
 70
     1
102
RTVSPropertyOp29
 70
     1
102
RTVSPropertyOp30
 70
     1
102
RTVSPropertyOp31
 70
     1
102
RTVSPropertyOp32
 70
     1
102
RTVSPropertyOp33
 70
     1
102
RTVSPropertyOp34
 70
     1
102
RTVSPropertyOp35
 70
     1
102
RTVSPropertyOp36
 70
     1
102
RTVSPropertyOp37
 70
     1
102
RTVSPropertyOp38
 70
     1
102
RTVSPropertyOp39
 70
     1
102
RTVSPropertyOp40
 70
     1
102
RTVSPropertyOp41
 70
     1
102
RTVSPropertyOp42
 70
     1
102
RTVSPropertyOp43
 70
     1
102
RTVSPropertyOp44
 70
     1
102
RTVSPropertyOp45
 70
     1
102
RTVSPropertyOp46
 70
     1
102
RTVSPropertyOp47
 70
     1
102
RTVSPropertyOp48
 70
     1
102
RTVSPropertyOp49
 70
     1
102
RTVSPropertyOp50
 70
     1
102
RTVSPropertyOp51
 70
     0
102
RTVSPropertyOp52
 70
     0
102
RTVSPropertyOp53
 70
     1
102
RTVSPropertyOp54
 70
     1
102
RTVSPropertyOp55
 70
     1
102
RTVSPropertyOp56
 70
     1
102
RTVSPropertyOp57
 70
     1
102
RTVSPropertyOp58
 70
     1
102
RTVSPropertyOp59
 70
     1
102
RTVSPropertyOp60
 70
     1
102
RTVSPropertyOp61
 70
     1
102
RTVSPropertyOp62
 70
     1
  0
XRECORD
  5
B5AF
102
{ACAD_REACTORS
330
B5AE
102
}
330
B5AE
100
AcDbXrecord
280
     1
102
RTVSPost2010Prop28
280
     0
102
RTVSPost2010PropOp28
 70
     1
102
RTVSPost2010Prop29
280
     1
102
RTVSPost2010PropOp29
 70
     1
102
RTVSPost2010Prop30
280
     1
102
RTVSPost2010PropOp30
 70
     1
102
RTVSPost2010Prop31
280
     0
102
RTVSPost2010PropOp31
 70
     1
102
RTVSPost2010Prop32
280
     0
102
RTVSPost2010PropOp32
 70
     1
102
RTVSPost2010Prop33
280
     0
102
RTVSPost2010PropOp33
 70
     1
102
RTVSPost2010Prop34
280
     0
102
RTVSPost2010PropOp34
 70
     1
102
RTVSPost2010Prop35
280
     0
102
RTVSPost2010PropOp35
 70
     1
102
RTVSPost2010Prop36
280
     0
102
RTVSPost2010PropOp36
 70
     1
102
RTVSPost2010Prop37
 90
       50
102
RTVSPost2010PropOp37
 70
     1
102
RTVSPost2010Prop38
140
0.0
102
RTVSPost2010PropOp38
 70
     1
102
RTVSPost2010Prop39
140
1.0
102
RTVSPost2010PropOp39
 70
     1
102
RTVSPost2010Prop40
 90
        0
102
RTVSPost2010PropOp40
 70
     1
102
RTVSPost2010Prop41ColorIndex
 90
       18
102
RTVSPost2010Prop41ColorRGB
 90
        0
102
RTVSPost2010PropOp41
 70
     1
102
RTVSPost2010Prop42
 90
       50
102
RTVSPost2010PropOp42
 70
     1
102
RTVSPost2010Prop43
 90
        3
102
RTVSPost2010PropOp43
 70
     1
102
RTVSPost2010Prop44ColorIndex
 90
        5
102
RTVSPost2010Prop44ColorRGB
 90
      255
102
RTVSPost2010PropOp44
 70
     1
102
RTVSPost2010Prop45
280
     0
102
RTVSPost2010PropOp45
 70
     1
102
RTVSPost2010Prop46
 90
       50
102
RTVSPost2010PropOp46
 70
     1
102
RTVSPost2010Prop47
 90
       50
102
RTVSPost2010PropOp47
 70
     1
102
RTVSPost2010Prop48
 90
       50
102
RTVSPost2010PropOp48
 70
     1
102
RTVSPost2010Prop49
280
     0
102
RTVSPost2010PropOp49
 70
     1
102
RTVSPost2010Prop50
 90
       50
102
RTVSPost2010PropOp50
 70
     1
102
RTVSPost2010Prop51ColorIndex
 90
      256
102
RTVSPost2010Prop51ColorRGB
 90
-16777216
102
RTVSPost2010PropOp51
 70
     0
102
RTVSPost2010Prop52
140
1.0
102
RTVSPost2010PropOp52
 70
     0
102
RTVSPost2010Prop53
 90
        2
102
RTVSPost2010PropOp53
 70
     1
102
RTVSPost2010Prop54
  1
strokes_ogs.tif
102
RTVSPost2010PropOp54
 70
     1
102
RTVSPost2010Prop55
280
     0
102
RTVSPost2010PropOp55
 70
     1
102
RTVSPost2010Prop56
140
1.0
102
RTVSPost2010PropOp56
 70
     1
102
RTVSPost2010Prop57
140
1.0
102
RTVSPost2010PropOp57
 70
     1
102
RTVSPropertyOp0
 70
     1
102
RTVSPropertyOp1
 70
     1
102
RTVSPropertyOp2
 70
     1
102
RTVSPropertyOp3
 70
     1
102
RTVSPropertyOp4
 70
     1
102
RTVSPropertyOp5
 70
     1
102
RTVSPropertyOp6
 70
     1
102
RTVSPropertyOp7
 70
     1
102
RTVSPropertyOp8
 70
     1
102
RTVSPropertyOp9
 70
     1
102
RTVSPropertyOp10
 70
     1
102
RTVSPropertyOp11
 70
     1
102
RTVSPropertyOp12
 70
     1
102
RTVSPropertyOp13
 70
     1
102
RTVSPropertyOp14
 70
     1
102
RTVSPropertyOp15
 70
     1
102
RTVSPropertyOp16
 70
     1
102
RTVSPropertyOp17
 70
     1
102
RTVSPropertyOp18
 70
     1
102
RTVSPropertyOp19
 70
     1
102
RTVSPropertyOp20
 70
     1
102
RTVSPropertyOp21
 70
     1
102
RTVSPropertyOp22
 70
     1
102
RTVSPropertyOp23
 70
     1
102
RTVSPropertyOp24
 70
     1
102
RTVSPropertyOp25
 70
     1
102
RTVSPropertyOp26
 70
     1
102
RTVSPropertyOp27
 70
     1
102
RTVSPropertyOp28
 70
     1
102
RTVSPropertyOp29
 70
     1
102
RTVSPropertyOp30
 70
     1
102
RTVSPropertyOp31
 70
     1
102
RTVSPropertyOp32
 70
     1
102
RTVSPropertyOp33
 70
     1
102
RTVSPropertyOp34
 70
     1
102
RTVSPropertyOp35
 70
     1
102
RTVSPropertyOp36
 70
     1
102
RTVSPropertyOp37
 70
     1
102
RTVSPropertyOp38
 70
     1
102
RTVSPropertyOp39
 70
     1
102
RTVSPropertyOp40
 70
     1
102
RTVSPropertyOp41
 70
     1
102
RTVSPropertyOp42
 70
     1
102
RTVSPropertyOp43
 70
     1
102
RTVSPropertyOp44
 70
     1
102
RTVSPropertyOp45
 70
     1
102
RTVSPropertyOp46
 70
     1
102
RTVSPropertyOp47
 70
     1
102
RTVSPropertyOp48
 70
     1
102
RTVSPropertyOp49
 70
     1
102
RTVSPropertyOp50
 70
     1
102
RTVSPropertyOp51
 70
     0
102
RTVSPropertyOp52
 70
     0
102
RTVSPropertyOp53
 70
     1
102
RTVSPropertyOp54
 70
     1
102
RTVSPropertyOp55
 70
     1
102
RTVSPropertyOp56
 70
     1
102
RTVSPropertyOp57
 70
     1
102
RTVSPropertyOp58
 70
     1
102
RTVSPropertyOp59
 70
     1
102
RTVSPropertyOp60
 70
     1
102
RTVSPropertyOp61
 70
     1
102
RTVSPropertyOp62
 70
     1
  0
XRECORD
  5
B5C7
102
{ACAD_REACTORS
330
B5C6
102
}
330
B5C6
100
AcDbXrecord
280
     1
102
RTVSPost2010Prop28
280
     0
102
RTVSPost2010PropOp28
 70
     1
102
RTVSPost2010Prop29
280
     1
102
RTVSPost2010PropOp29
 70
     1
102
RTVSPost2010Prop30
280
     1
102
RTVSPost2010PropOp30
 70
     1
102
RTVSPost2010Prop31
280
     0
102
RTVSPost2010PropOp31
 70
     1
102
RTVSPost2010Prop32
280
     0
102
RTVSPost2010PropOp32
 70
     1
102
RTVSPost2010Prop33
280
     0
102
RTVSPost2010PropOp33
 70
     1
102
RTVSPost2010Prop34
280
     0
102
RTVSPost2010PropOp34
 70
     1
102
RTVSPost2010Prop35
280
     0
102
RTVSPost2010PropOp35
 70
     1
102
RTVSPost2010Prop36
280
     0
102
RTVSPost2010PropOp36
 70
     1
102
RTVSPost2010Prop37
 90
       50
102
RTVSPost2010PropOp37
 70
     1
102
RTVSPost2010Prop38
140
0.0
102
RTVSPost2010PropOp38
 70
     1
102
RTVSPost2010Prop39
140
1.0
102
RTVSPost2010PropOp39
 70
     1
102
RTVSPost2010Prop40
 90
        0
102
RTVSPost2010PropOp40
 70
     1
102
RTVSPost2010Prop41ColorIndex
 90
       18
102
RTVSPost2010Prop41ColorRGB
 90
        0
102
RTVSPost2010PropOp41
 70
     1
102
RTVSPost2010Prop42
 90
       50
102
RTVSPost2010PropOp42
 70
     1
102
RTVSPost2010Prop43
 90
        3
102
RTVSPost2010PropOp43
 70
     1
102
RTVSPost2010Prop44ColorIndex
 90
        5
102
RTVSPost2010Prop44ColorRGB
 90
      255
102
RTVSPost2010PropOp44
 70
     1
102
RTVSPost2010Prop45
280
     0
102
RTVSPost2010PropOp45
 70
     1
102
RTVSPost2010Prop46
 90
       50
102
RTVSPost2010PropOp46
 70
     1
102
RTVSPost2010Prop47
 90
       50
102
RTVSPost2010PropOp47
 70
     1
102
RTVSPost2010Prop48
 90
       50
102
RTVSPost2010PropOp48
 70
     1
102
RTVSPost2010Prop49
280
     0
102
RTVSPost2010PropOp49
 70
     1
102
RTVSPost2010Prop50
 90
       50
102
RTVSPost2010PropOp50
 70
     1
102
RTVSPost2010Prop51ColorIndex
 90
      256
102
RTVSPost2010Prop51ColorRGB
 90
-16777216
102
RTVSPost2010PropOp51
 70
     0
102
RTVSPost2010Prop52
140
1.0
102
RTVSPost2010PropOp52
 70
     0
102
RTVSPost2010Prop53
 90
        2
102
RTVSPost2010PropOp53
 70
     1
102
RTVSPost2010Prop54
  1
strokes_ogs.tif
102
RTVSPost2010PropOp54
 70
     1
102
RTVSPost2010Prop55
280
     0
102
RTVSPost2010PropOp55
 70
     1
102
RTVSPost2010Prop56
140
1.0
102
RTVSPost2010PropOp56
 70
     1
102
RTVSPost2010Prop57
140
1.0
102
RTVSPost2010PropOp57
 70
     1
102
RTVSPropertyOp0
 70
     1
102
RTVSPropertyOp1
 70
     1
102
RTVSPropertyOp2
 70
     1
102
RTVSPropertyOp3
 70
     1
102
RTVSPropertyOp4
 70
     1
102
RTVSPropertyOp5
 70
     1
102
RTVSPropertyOp6
 70
     1
102
RTVSPropertyOp7
 70
     1
102
RTVSPropertyOp8
 70
     1
102
RTVSPropertyOp9
 70
     1
102
RTVSPropertyOp10
 70
     1
102
RTVSPropertyOp11
 70
     1
102
RTVSPropertyOp12
 70
     1
102
RTVSPropertyOp13
 70
     1
102
RTVSPropertyOp14
 70
     1
102
RTVSPropertyOp15
 70
     1
102
RTVSPropertyOp16
 70
     1
102
RTVSPropertyOp17
 70
     1
102
RTVSPropertyOp18
 70
     1
102
RTVSPropertyOp19
 70
     1
102
RTVSPropertyOp20
 70
     1
102
RTVSPropertyOp21
 70
     1
102
RTVSPropertyOp22
 70
     1
102
RTVSPropertyOp23
 70
     1
102
RTVSPropertyOp24
 70
     1
102
RTVSPropertyOp25
 70
     1
102
RTVSPropertyOp26
 70
     1
102
RTVSPropertyOp27
 70
     1
102
RTVSPropertyOp28
 70
     1
102
RTVSPropertyOp29
 70
     1
102
RTVSPropertyOp30
 70
     1
102
RTVSPropertyOp31
 70
     1
102
RTVSPropertyOp32
 70
     1
102
RTVSPropertyOp33
 70
     1
102
RTVSPropertyOp34
 70
     1
102
RTVSPropertyOp35
 70
     1
102
RTVSPropertyOp36
 70
     1
102
RTVSPropertyOp37
 70
     1
102
RTVSPropertyOp38
 70
     1
102
RTVSPropertyOp39
 70
     1
102
RTVSPropertyOp40
 70
     1
102
RTVSPropertyOp41
 70
     1
102
RTVSPropertyOp42
 70
     1
102
RTVSPropertyOp43
 70
     1
102
RTVSPropertyOp44
 70
     1
102
RTVSPropertyOp45
 70
     1
102
RTVSPropertyOp46
 70
     1
102
RTVSPropertyOp47
 70
     1
102
RTVSPropertyOp48
 70
     1
102
RTVSPropertyOp49
 70
     1
102
RTVSPropertyOp50
 70
     1
102
RTVSPropertyOp51
 70
     0
102
RTVSPropertyOp52
 70
     0
102
RTVSPropertyOp53
 70
     1
102
RTVSPropertyOp54
 70
     1
102
RTVSPropertyOp55
 70
     1
102
RTVSPropertyOp56
 70
     1
102
RTVSPropertyOp57
 70
     1
102
RTVSPropertyOp58
 70
     1
102
RTVSPropertyOp59
 70
     1
102
RTVSPropertyOp60
 70
     1
102
RTVSPropertyOp61
 70
     1
102
RTVSPropertyOp62
 70
     1
  0
ENDSEC
  0
EOF
