  0
SECTION
  2
HEADER
  9
$ACADVER
  1
AC1015
  9
$ACADMAINTVER
 70
    20
  9
$DWGCODEPAGE
  3
ANSI_932
  9
$INSBASE
 10
0.0
 20
0.0
 30
0.0
  9
$EXTMIN
 10
9.99995
 20
9.999999999999998
 30
0.0
  9
$EXTMAX
 10
441.6405329999998
 20
323.1176459999999
 30
0.0
  9
$LIMMIN
 10
0.0
 20
0.0
  9
$LIMMAX
 10
495.0
 20
341.25
  9
$ORTHOMODE
 70
     1
  9
$REGENMODE
 70
     1
  9
$FILLMODE
 70
     1
  9
$QTEXTMODE
 70
     0
  9
$MIRRTEXT
 70
     1
  9
$LTSCALE
 40
20.0
  9
$ATTMODE
 70
     1
  9
$TEXTSIZE
 40
5.0
  9
$TRACEWID
 40
1.0
  9
$TEXTSTYLE
  7
STANDARD
  9
$CLAYER
  8
0
  9
$CELTYPE
  6
BYLAYER
  9
$CECOLOR
 62
   256
  9
$CELTSCALE
 40
1.0
  9
$DISPSILH
 70
     0
  9
$DIMSCALE
 40
1.0
  9
$DIMASZ
 40
3.0
  9
$DIMEXO
 40
1.0
  9
$DIMDLI
 40
10.0
  9
$DIMRND
 40
0.0
  9
$DIMDLE
 40
0.0
  9
$DIMEXE
 40
1.0
  9
$DIMTP
 40
0.0
  9
$DIMTM
 40
0.0
  9
$DIMTXT
 40
3.2
  9
$DIMCEN
 40
0.0
  9
$DIMTSZ
 40
0.0
  9
$DIMTOL
 70
     0
  9
$DIMLIM
 70
     0
  9
$DIMTIH
 70
     0
  9
$DIMTOH
 70
     0
  9
$DIMSE1
 70
     0
  9
$DIMSE2
 70
     0
  9
$DIMTAD
 70
     3
  9
$DIMZIN
 70
     8
  9
$DIMBLK
  1

  9
$DIMASO
 70
     1
  9
$DIMSHO
 70
     1
  9
$DIMPOST
  1

  9
$DIMAPOST
  1

  9
$DIMALT
 70
     0
  9
$DIMALTD
 70
     2
  9
$DIMALTF
 40
25.4
  9
$DIMLFAC
 40
1.0
  9
$DIMTOFL
 70
     1
  9
$DIMTVP
 40
0.0
  9
$DIMTIX
 70
     0
  9
$DIMSOXD
 70
     0
  9
$DIMSAH
 70
     1
  9
$DIMBLK1
  1

  9
$DIMBLK2
  1

  9
$DIMSTYLE
  2
STANDARD
  9
$DIMCLRD
 70
     0
  9
$DIMCLRE
 70
     0
  9
$DIMCLRT
 70
     0
  9
$DIMTFAC
 40
1.0
  9
$DIMGAP
 40
1.0
  9
$DIMJUST
 70
     0
  9
$DIMSD1
 70
     0
  9
$DIMSD2
 70
     0
  9
$DIMTOLJ
 70
     1
  9
$DIMTZIN
 70
     0
  9
$DIMALTZ
 70
     0
  9
$DIMALTTZ
 70
     0
  9
$DIMUPT
 70
     0
  9
$DIMDEC
 70
     4
  9
$DIMTDEC
 70
     4
  9
$DIMALTU
 70
     2
  9
$DIMALTTD
 70
     2
  9
$DIMTXSTY
  7
STANDARD
  9
$DIMAUNIT
 70
     0
  9
$DIMADEC
 70
     0
  9
$DIMALTRND
 40
0.0
  9
$DIMAZIN
 70
     0
  9
$DIMDSEP
 70
    46
  9
$DIMATFIT
 70
     3
  9
$DIMFRAC
 70
     0
  9
$DIMLDRBLK
  1

  9
$DIMLUNIT
 70
     2
  9
$DIMLWD
 70
    -2
  9
$DIMLWE
 70
    -2
  9
$DIMTMOVE
 70
     0
  9
$LUNITS
 70
     2
  9
$LUPREC
 70
     4
  9
$SKETCHINC
 40
1.0
  9
$FILLETRAD
 40
0.0
  9
$AUNITS
 70
     0
  9
$AUPREC
 70
     2
  9
$MENU
  1
.
  9
$ELEVATION
 40
0.0
  9
$PELEVATION
 40
0.0
  9
$THICKNESS
 40
0.0
  9
$LIMCHECK
 70
     0
  9
$CHAMFERA
 40
10.0
  9
$CHAMFERB
 40
10.0
  9
$CHAMFERC
 40
0.0
  9
$CHAMFERD
 40
0.0
  9
$SKPOLY
 70
     0
  9
$TDCREATE
 40
2451059.383682523
  9
$TDUCREATE
 40
2451059.008682523
  9
$TDUPDATE
 40
2457192.616215671
  9
$TDUUPDATE
 40
2457192.241215671
  9
$TDINDWG
 40
0.0129945255
  9
$TDUSRTIMER
 40
0.0129938310
  9
$USRTIMER
 70
     1
  9
$ANGBASE
 50
0.0
  9
$ANGDIR
 70
     0
  9
$PDMODE
 70
     0
  9
$PDSIZE
 40
0.0
  9
$PLINEWID
 40
0.0
  9
$SPLFRAME
 70
     0
  9
$SPLINETYPE
 70
     6
  9
$SPLINESEGS
 70
     8
  9
$HANDSEED
  5
9D55
  9
$SURFTAB1
 70
     6
  9
$SURFTAB2
 70
     6
  9
$SURFTYPE
 70
     6
  9
$SURFU
 70
     6
  9
$SURFV
 70
     6
  9
$UCSBASE
  2

  9
$UCSNAME
  2

  9
$UCSORG
 10
0.0
 20
0.0
 30
0.0
  9
$UCSXDIR
 10
1.0
 20
0.0
 30
0.0
  9
$UCSYDIR
 10
0.0
 20
1.0
 30
0.0
  9
$UCSORTHOREF
  2

  9
$UCSORTHOVIEW
 70
     0
  9
$UCSORGTOP
 10
0.0
 20
0.0
 30
0.0
  9
$UCSORGBOTTOM
 10
0.0
 20
0.0
 30
0.0
  9
$UCSORGLEFT
 10
0.0
 20
0.0
 30
0.0
  9
$UCSORGRIGHT
 10
0.0
 20
0.0
 30
0.0
  9
$UCSORGFRONT
 10
0.0
 20
0.0
 30
0.0
  9
$UCSORGBACK
 10
0.0
 20
0.0
 30
0.0
  9
$PUCSBASE
  2

  9
$PUCSNAME
  2

  9
$PUCSORG
 10
0.0
 20
0.0
 30
0.0
  9
$PUCSXDIR
 10
1.0
 20
0.0
 30
0.0
  9
$PUCSYDIR
 10
0.0
 20
1.0
 30
0.0
  9
$PUCSORTHOREF
  2

  9
$PUCSORTHOVIEW
 70
     0
  9
$PUCSORGTOP
 10
0.0
 20
0.0
 30
0.0
  9
$PUCSORGBOTTOM
 10
0.0
 20
0.0
 30
0.0
  9
$PUCSORGLEFT
 10
0.0
 20
0.0
 30
0.0
  9
$PUCSORGRIGHT
 10
0.0
 20
0.0
 30
0.0
  9
$PUCSORGFRONT
 10
0.0
 20
0.0
 30
0.0
  9
$PUCSORGBACK
 10
0.0
 20
0.0
 30
0.0
  9
$USERI1
 70
     0
  9
$USERI2
 70
     0
  9
$USERI3
 70
     0
  9
$USERI4
 70
     0
  9
$USERI5
 70
     0
  9
$USERR1
 40
0.0
  9
$USERR2
 40
0.0
  9
$USERR3
 40
0.0
  9
$USERR4
 40
0.0
  9
$USERR5
 40
0.0
  9
$WORLDVIEW
 70
     1
  9
$SHADEDGE
 70
     3
  9
$SHADEDIF
 70
    70
  9
$TILEMODE
 70
     1
  9
$MAXACTVP
 70
    16
  9
$PINSBASE
 10
0.0
 20
0.0
 30
0.0
  9
$PLIMCHECK
 70
     0
  9
$PEXTMIN
 10
1.000000000000000E+20
 20
1.000000000000000E+20
 30
1.000000000000000E+20
  9
$PEXTMAX
 10
-1.000000000000000E+20
 20
-1.000000000000000E+20
 30
-1.000000000000000E+20
  9
$PLIMMIN
 10
0.0
 20
0.0
  9
$PLIMMAX
 10
420.0
 20
297.0
  9
$UNITMODE
 70
     0
  9
$VISRETAIN
 70
     0
  9
$PLINEGEN
 70
     0
  9
$PSLTSCALE
 70
     0
  9
$TREEDEPTH
 70
  3020
  9
$CMLSTYLE
  2
STANDARD
  9
$CMLJUST
 70
     0
  9
$CMLSCALE
 40
1.0
  9
$PROXYGRAPHICS
 70
     1
  9
$MEASUREMENT
 70
     0
  9
$CELWEIGHT
370
    -1
  9
$ENDCAPS
280
     0
  9
$JOINSTYLE
280
     0
  9
$LWDISPLAY
290
     0
  9
$INSUNITS
 70
     0
  9
$HYPERLINKBASE
  1

  9
$STYLESHEET
  1

  9
$XEDIT
290
     1
  9
$CEPSNTYPE
380
     0
  9
$PSTYLEMODE
290
     1
  9
$FINGERPRINTGUID
  2
{1F1064A6-E6E4-494D-8AAA-72B0D58AEC42}
  9
$VERSIONGUID
  2
{BEF45B7B-6662-475F-B712-98CB41603154}
  9
$EXTNAMES
290
     1
  9
$PSVPSCALE
 40
0.0
  9
$OLESTARTUP
290
     0
  0
ENDSEC
  0
SECTION
  2
CLASSES
  0
CLASS
  1
ACDBDICTIONARYWDFLT
  2
AcDbDictionaryWithDefault
  3
ObjectDBX Classes
 90
        0
280
     0
281
     0
  0
CLASS
  1
ACDBPLACEHOLDER
  2
AcDbPlaceHolder
  3
ObjectDBX Classes
 90
        0
280
     0
281
     0
  0
CLASS
  1
LAYOUT
  2
AcDbLayout
  3
ObjectDBX Classes
 90
        0
280
     0
281
     0
  0
CLASS
  1
DICTIONARYVAR
  2
AcDbDictionaryVar
  3
ObjectDBX Classes
 90
        0
280
     0
281
     0
  0
CLASS
  1
MATERIAL
  2
AcDbMaterial
  3
ObjectDBX Classes
 90
     1153
280
     0
281
     0
  0
CLASS
  1
VISUALSTYLE
  2
AcDbVisualStyle
  3
ObjectDBX Classes
 90
     4095
280
     0
281
     0
  0
CLASS
  1
TABLESTYLE
  2
AcDbTableStyle
  3
ObjectDBX Classes
 90
     4095
280
     0
281
     0
  0
CLASS
  1
SCALE
  2
AcDbScale
  3
ObjectDBX Classes
 90
     1153
280
     0
281
     0
  0
CLASS
  1
MLEADERSTYLE
  2
AcDbMLeaderStyle
  3
ACDB_MLEADERSTYLE_CLASS
 90
     4095
280
     0
281
     0
  0
CLASS
  1
ACDBSECTIONVIEWSTYLE
  2
AcDbSectionViewStyle
  3
ObjectDBX Classes
 90
     1025
280
     0
281
     0
  0
CLASS
  1
ACDBDETAILVIEWSTYLE
  2
AcDbDetailViewStyle
  3
ObjectDBX Classes
 90
     1025
280
     0
281
     0
  0
CLASS
  1
CELLSTYLEMAP
  2
AcDbCellStyleMap
  3
ObjectDBX Classes
 90
     1152
280
     0
281
     0
  0
ENDSEC
  0
SECTION
  2
TABLES
  0
TABLE
  2
VPORT
  5
9A8A
330
0
100
AcDbSymbolTable
 70
     1
  0
VPORT
  5
9C9E
330
9A8A
100
AcDbSymbolTableRecord
100
AcDbViewportTableRecord
  2
*ACTIVE
 70
     0
 10
0.0
 20
0.0
 11
1.0
 21
1.0
 12
320.6709030698314
 22
166.5634926110953
 13
0.0
 23
0.0
 14
10.0
 24
10.0
 15
10.0
 25
10.0
 16
0.0
 26
0.0
 36
1.0
 17
0.0
 27
0.0
 37
0.0
 40
316.6551252045443
 41
1.899603698811096
 42
50.0
 43
0.0
 44
0.0
 50
0.0
 51
0.0
 71
     0
 72
   100
 73
     1
 74
     0
 75
     0
 76
     0
 77
     0
 78
     0
281
     0
 65
     1
110
0.0
120
0.0
130
0.0
111
1.0
121
0.0
131
0.0
112
0.0
122
1.0
132
0.0
 79
     0
146
0.0
1001
ACAD_NAV_VCDISPLAY
1070
     3
  0
ENDTAB
  0
TABLE
  2
LTYPE
  5
9A87
330
0
100
AcDbSymbolTable
 70
     4
  0
LTYPE
  5
9A95
330
9A87
100
AcDbSymbolTableRecord
100
AcDbLinetypeTableRecord
  2
BYBLOCK
 70
     0
  3

 72
    65
 73
     0
 40
0.0
  0
LTYPE
  5
9A96
330
9A87
100
AcDbSymbolTableRecord
100
AcDbLinetypeTableRecord
  2
BYLAYER
 70
     0
  3

 72
    65
 73
     0
 40
0.0
  0
LTYPE
  5
9A97
330
9A87
100
AcDbSymbolTableRecord
100
AcDbLinetypeTableRecord
  2
CONTINUOUS
 70
     0
  3
Solid line
 72
    65
 73
     0
 40
0.0
  0
LTYPE
  5
9AA5
330
9A87
100
AcDbSymbolTableRecord
100
AcDbLinetypeTableRecord
  2
DASHED
 70
     0
  3
__ __ __ __ __ __ __ __ __ __ __ __ __ __ __ __
 72
    65
 73
     2
 40
0.75
 49
0.5
 74
     0
 49
-0.25
 74
     0
  0
LTYPE
  5
9AA6
330
9A87
100
AcDbSymbolTableRecord
100
AcDbLinetypeTableRecord
  2
CENTER
 70
     0
  3
____ _ ____ _ ____ _ ____ _ ____ _ ____ _ ____ 
 72
    65
 73
     4
 40
2.0
 49
1.25
 74
     0
 49
-0.25
 74
     0
 49
0.25
 74
     0
 49
-0.25
 74
     0
  0
LTYPE
  5
9AA7
330
9A87
100
AcDbSymbolTableRecord
100
AcDbLinetypeTableRecord
  2
PHANTOM
 70
     0
  3
______  __  __  ______  __  __  ______  __  __ 
 72
    65
 73
     6
 40
2.5
 49
1.25
 74
     0
 49
-0.25
 74
     0
 49
0.25
 74
     0
 49
-0.25
 74
     0
 49
0.25
 74
     0
 49
-0.25
 74
     0
  0
ENDTAB
  0
TABLE
  2
LAYER
  5
9A84
330
0
100
AcDbSymbolTable
 70
     8
  0
LAYER
  5
9A92
102
{ACAD_XDICTIONARY
360
9CF9
102
}
330
9A84
100
AcDbSymbolTableRecord
100
AcDbLayerTableRecord
  2
0
 70
     0
 62
     7
  6
CONTINUOUS
370
    -3
390
9CA7
  0
LAYER
  5
9AA8
102
{ACAD_XDICTIONARY
360
9CFB
102
}
330
9A84
100
AcDbSymbolTableRecord
100
AcDbLayerTableRecord
  2
4
 70
     0
 62
     1
  6
CENTER
370
    -3
390
9CA7
  0
LAYER
  5
9AA9
102
{ACAD_XDICTIONARY
360
9CFD
102
}
330
9A84
100
AcDbSymbolTableRecord
100
AcDbLayerTableRecord
  2
5
 70
     0
 62
     6
  6
PHANTOM
370
    -3
390
9CA7
  0
LAYER
  5
9AAA
102
{ACAD_XDICTIONARY
360
9CFF
102
}
330
9A84
100
AcDbSymbolTableRecord
100
AcDbLayerTableRecord
  2
1
 70
     0
 62
     7
  6
CONTINUOUS
370
    -3
390
9CA7
  0
LAYER
  5
9AAB
102
{ACAD_XDICTIONARY
360
9D01
102
}
330
9A84
100
AcDbSymbolTableRecord
100
AcDbLayerTableRecord
  2
2
 70
     0
 62
     4
  6
CONTINUOUS
370
    -3
390
9CA7
  0
LAYER
  5
9AAC
102
{ACAD_XDICTIONARY
360
9D03
102
}
330
9A84
100
AcDbSymbolTableRecord
100
AcDbLayerTableRecord
  2
3
 70
     0
 62
     2
  6
DASHED
370
    -3
390
9CA7
  0
LAYER
  5
9AAD
102
{ACAD_XDICTIONARY
360
9D05
102
}
330
9A84
100
AcDbSymbolTableRecord
100
AcDbLayerTableRecord
  2
6
 70
     0
 62
     5
  6
CONTINUOUS
370
    -3
390
9CA7
  0
LAYER
  5
9AAE
102
{ACAD_XDICTIONARY
360
9D07
102
}
330
9A84
100
AcDbSymbolTableRecord
100
AcDbLayerTableRecord
  2
7
 70
     0
 62
     3
  6
CONTINUOUS
370
    -3
390
9CA7
  0
ENDTAB
  0
TABLE
  2
STYLE
  5
9A85
330
0
100
AcDbSymbolTable
 70
     1
  0
STYLE
  5
9A93
330
9A85
100
AcDbSymbolTableRecord
100
AcDbTextStyleTableRecord
  2
STANDARD
 70
     0
 40
0.0
 41
1.0
 50
0.0
 71
     0
 42
5.0
  3
txt
  4

  0
ENDTAB
  0
TABLE
  2
VIEW
  5
9A88
330
0
100
AcDbSymbolTable
 70
     0
  0
ENDTAB
  0
TABLE
  2
UCS
  5
9A89
330
0
100
AcDbSymbolTable
 70
     0
  0
ENDTAB
  0
TABLE
  2
APPID
  5
9A8B
330
0
100
AcDbSymbolTable
 70
     3
  0
APPID
  5
9A94
330
9A8B
100
AcDbSymbolTableRecord
100
AcDbRegAppTableRecord
  2
ACAD
 70
     0
  0
APPID
  5
9D13
330
9A8B
100
AcDbSymbolTableRecord
100
AcDbRegAppTableRecord
  2
ACAD_NAV_VCDISPLAY
 70
     0
  0
APPID
  5
9D4C
330
9A8B
100
AcDbSymbolTableRecord
100
AcDbRegAppTableRecord
  2
ACAD_MLEADERVER
 70
     0
  0
ENDTAB
  0
TABLE
  2
DIMSTYLE
  5
9A8C
330
0
100
AcDbSymbolTable
 70
     1
100
AcDbDimStyleTable
 71
     0
  0
DIMSTYLE
105
9AAF
330
9A8C
100
AcDbSymbolTableRecord
100
AcDbDimStyleTableRecord
  2
STANDARD
 70
     0
 41
3.0
 42
1.0
 43
10.0
 44
1.0
 73
     0
 74
     0
 77
     3
 78
     8
140
3.2
141
0.0
147
1.0
172
     1
173
     1
284
     8
285
     8
286
     8
340
9A93
  0
ENDTAB
  0
TABLE
  2
BLOCK_RECORD
  5
9A83
330
0
100
AcDbSymbolTable
 70
     0
  0
BLOCK_RECORD
  5
9AA0
102
{ACAD_XDICTIONARY
360
9CA1
102
}
330
9A83
100
AcDbSymbolTableRecord
100
AcDbBlockTableRecord
  2
*MODEL_SPACE
340
9CF5
  0
BLOCK_RECORD
  5
9A9C
102
{ACAD_XDICTIONARY
360
9C9F
102
}
330
9A83
100
AcDbSymbolTableRecord
100
AcDbBlockTableRecord
  2
*PAPER_SPACE
340
9CF6
  0
ENDTAB
  0
ENDSEC
  0
SECTION
  2
BLOCKS
  0
BLOCK
  5
9AA1
330
9AA0
100
AcDbEntity
  8
0
100
AcDbBlockBegin
  2
*MODEL_SPACE
 70
     0
 10
0.0
 20
0.0
 30
0.0
  3
*MODEL_SPACE
  1

  0
ENDBLK
  5
9AA2
330
9AA0
100
AcDbEntity
  8
0
100
AcDbBlockEnd
  0
BLOCK
  5
9A9D
330
9A9C
100
AcDbEntity
 67
     1
  8
0
100
AcDbBlockBegin
  2
*PAPER_SPACE
 70
     0
 10
0.0
 20
0.0
 30
0.0
  3
*PAPER_SPACE
  1

  0
ENDBLK
  5
9A9E
330
9A9C
100
AcDbEntity
 67
     1
  8
0
100
AcDbBlockEnd
  0
ENDSEC
  0
SECTION
  2
ENTITIES
  0
LINE
  5
9AB7
330
9AA0
100
AcDbEntity
  8
1
  6
Continuous
100
AcDbLine
 10
25.5
 20
212.058823
 30
0.0
 11
25.5
 21
149.058823
 31
0.0
  0
LINE
  5
9AB8
330
9AA0
100
AcDbEntity
  8
1
  6
Continuous
100
AcDbLine
 10
43.0
 20
212.058823
 30
0.0
 11
43.0
 21
210.5588229999999
 31
0.0
  0
LINE
  5
9AB9
330
9AA0
100
AcDbEntity
  8
1
  6
Continuous
100
AcDbLine
 10
112.7450939999999
 20
204.5588229999999
 30
0.0
 11
112.7450939999999
 21
156.5588229999999
 31
0.0
  0
LINE
  5
9ABA
330
9AA0
100
AcDbEntity
  8
4
  6
CENTER
100
AcDbLine
 10
107.745094
 20
180.5588229999999
 30
0.0
 11
197.745102
 21
180.5588229999999
 31
0.0
  0
LINE
  5
9ABB
330
9AA0
100
AcDbEntity
  8
1
  6
Continuous
100
AcDbLine
 10
192.745102
 20
207.0588229999999
 30
0.0
 11
192.745102
 21
154.058823
 31
0.0
  0
LINE
  5
9ABC
330
9AA0
100
AcDbEntity
  8
1
  6
Continuous
100
AcDbLine
 10
25.5
 20
212.058823
 30
0.0
 11
43.0
 21
212.058823
 31
0.0
  0
LINE
  5
9ABD
330
9AA0
100
AcDbEntity
  8
1
  6
Continuous
100
AcDbLine
 10
25.5
 20
149.058823
 30
0.0
 11
43.0
 21
149.058823
 31
0.0
  0
LINE
  5
9ABE
330
9AA0
100
AcDbEntity
  8
1
  6
Continuous
100
AcDbLine
 10
122.7450939999999
 20
212.058823
 30
0.0
 11
187.745102
 21
212.058823
 31
0.0
  0
LINE
  5
9ABF
330
9AA0
100
AcDbEntity
  8
4
  6
CENTER
100
AcDbLine
 10
152.7451019999998
 20
217.0588229999999
 30
0.0
 11
152.7451019999998
 21
144.0588229999999
 31
0.0
  0
LINE
  5
9AC0
330
9AA0
100
AcDbEntity
  8
4
  6
CENTER
100
AcDbLine
 10
168.745102
 20
193.0588229999999
 30
0.0
 11
168.745102
 21
168.0588229999998
 31
0.0
  0
LINE
  5
9AC1
330
9AA0
100
AcDbEntity
  8
4
  6
CENTER
100
AcDbLine
 10
136.745087
 20
185.8588259999999
 30
0.0
 11
136.745087
 21
175.2588199999999
 31
0.0
  0
LINE
  5
9AC2
330
9AA0
100
AcDbEntity
  8
1
  6
Continuous
100
AcDbLine
 10
144.245087
 20
210.5588229999999
 30
0.0
 11
144.245087
 21
150.5588229999998
 31
0.0
  0
LINE
  5
9AC3
330
9AA0
100
AcDbEntity
  8
1
  6
Continuous
100
AcDbLine
 10
436.640533
 20
204.5588229999999
 30
0.0
 11
436.640533
 21
156.5588229999999
 31
0.0
  0
LINE
  5
9AC4
330
9AA0
100
AcDbEntity
  8
4
  6
CENTER
100
AcDbLine
 10
441.6405329999998
 20
180.5588229999999
 30
0.0
 11
351.6405329999997
 21
180.5588229999999
 31
0.0
  0
LINE
  5
9AC5
330
9AA0
100
AcDbEntity
  8
1
  6
Continuous
100
AcDbLine
 10
356.640533
 20
207.0588229999999
 30
0.0
 11
356.640533
 21
154.058823
 31
0.0
  0
LINE
  5
9AC6
330
9AA0
100
AcDbEntity
  8
4
  6
CENTER
100
AcDbLine
 10
396.640533
 20
217.0588229999999
 30
0.0
 11
396.640533
 21
144.0588229999999
 31
0.0
  0
LINE
  5
9AC7
330
9AA0
100
AcDbEntity
  8
4
  6
CENTER
100
AcDbLine
 10
380.640533
 20
185.8588259999999
 30
0.0
 11
380.640533
 21
175.2588199999999
 31
0.0
  0
LINE
  5
9AC8
330
9AA0
100
AcDbEntity
  8
4
  6
CENTER
100
AcDbLine
 10
412.6405329999998
 20
185.8588259999999
 30
0.0
 11
412.6405329999998
 21
175.2588199999999
 31
0.0
  0
LINE
  5
9AC9
330
9AA0
100
AcDbEntity
  8
1
  6
Continuous
100
AcDbLine
 10
403.640533
 20
212.058823
 30
0.0
 11
403.640533
 21
149.058823
 31
0.0
  0
LINE
  5
9ACA
330
9AA0
100
AcDbEntity
  8
1
  6
Continuous
100
AcDbLine
 10
402.640533
 20
210.5588229999999
 30
0.0
 11
402.640533
 21
150.5588229999998
 31
0.0
  0
LINE
  5
9ACB
330
9AA0
100
AcDbEntity
  8
1
  6
Continuous
100
AcDbLine
 10
403.640533
 20
150.5588229999998
 30
0.0
 11
387.640533
 21
150.5588229999998
 31
0.0
  0
LINE
  5
9ACC
330
9AA0
100
AcDbEntity
  8
1
  6
Continuous
100
AcDbLine
 10
403.640533
 20
210.5588229999999
 30
0.0
 11
387.640533
 21
210.5588229999999
 31
0.0
  0
LINE
  5
9ACD
330
9AA0
100
AcDbEntity
  8
1
  6
Continuous
100
AcDbLine
 10
387.640533
 20
212.058823
 30
0.0
 11
387.640533
 21
210.5588229999999
 31
0.0
  0
LINE
  5
9ACE
330
9AA0
100
AcDbEntity
  8
1
  6
Continuous
100
AcDbLine
 10
398.890533
 20
192.0588229999999
 30
0.0
 11
398.890533
 21
169.0588229999999
 31
0.0
  0
LINE
  5
9ACF
330
9AA0
100
AcDbEntity
  8
1
  6
Continuous
100
AcDbLine
 10
394.390533
 20
192.0588229999999
 30
0.0
 11
394.390533
 21
169.0588229999999
 31
0.0
  0
LINE
  5
9AD0
330
9AA0
100
AcDbEntity
  8
1
  6
Continuous
100
AcDbLine
 10
397.890533
 20
193.0588229999999
 30
0.0
 11
395.3905329999998
 21
193.0588229999999
 31
0.0
  0
LINE
  5
9AD1
330
9AA0
100
AcDbEntity
  8
1
  6
Continuous
100
AcDbLine
 10
397.890533
 20
168.0588229999998
 30
0.0
 11
395.3905329999998
 21
168.0588229999998
 31
0.0
  0
LINE
  5
9AD2
330
9AA0
100
AcDbEntity
  8
1
  6
Continuous
100
AcDbLine
 10
387.640533
 20
150.5588229999998
 30
0.0
 11
387.640533
 21
149.058823
 31
0.0
  0
LINE
  5
9AD3
330
9AA0
100
AcDbEntity
  8
4
  6
CENTER
100
AcDbLine
 10
368.290527
 20
160.5588229999999
 30
0.0
 11
356.9905089999999
 21
160.5588229999999
 31
0.0
  0
LINE
  5
9AD4
330
9AA0
100
AcDbEntity
  8
4
  6
CENTER
100
AcDbLine
 10
362.640533
 20
166.2088169999998
 30
0.0
 11
362.640533
 21
154.908829
 31
0.0
  0
LINE
  5
9AD5
330
9AA0
100
AcDbEntity
  8
4
  6
CENTER
100
AcDbLine
 10
368.290527
 20
200.5588229999999
 30
0.0
 11
356.9905089999999
 21
200.5588229999999
 31
0.0
  0
LINE
  5
9AD6
330
9AA0
100
AcDbEntity
  8
4
  6
CENTER
100
AcDbLine
 10
362.640533
 20
206.2088169999999
 30
0.0
 11
362.640533
 21
194.9088289999999
 31
0.0
  0
LINE
  5
9AD7
330
9AA0
100
AcDbEntity
  8
4
  6
CENTER
100
AcDbLine
 10
436.2905269999997
 20
200.5588229999999
 30
0.0
 11
424.9905089999998
 21
200.5588229999999
 31
0.0
  0
LINE
  5
9AD8
330
9AA0
100
AcDbEntity
  8
4
  6
CENTER
100
AcDbLine
 10
430.640533
 20
206.2088169999999
 30
0.0
 11
430.640533
 21
194.9088289999999
 31
0.0
  0
LINE
  5
9AD9
330
9AA0
100
AcDbEntity
  8
4
  6
CENTER
100
AcDbLine
 10
436.2905269999997
 20
160.5588229999999
 30
0.0
 11
424.9905089999998
 21
160.5588229999999
 31
0.0
  0
LINE
  5
9ADA
330
9AA0
100
AcDbEntity
  8
4
  6
CENTER
100
AcDbLine
 10
430.640533
 20
166.2088169999998
 30
0.0
 11
430.640533
 21
154.908829
 31
0.0
  0
LINE
  5
9ADB
330
9AA0
100
AcDbEntity
  8
4
  6
CENTER
100
AcDbLine
 10
394.640533
 20
152.0588229999999
 30
0.0
 11
390.640533
 21
152.0588229999999
 31
0.0
  0
LINE
  5
9ADC
330
9AA0
100
AcDbEntity
  8
4
  6
CENTER
100
AcDbLine
 10
392.640533
 20
154.058823
 30
0.0
 11
392.640533
 21
150.0588229999999
 31
0.0
  0
LINE
  5
9ADD
330
9AA0
100
AcDbEntity
  8
4
  6
CENTER
100
AcDbLine
 10
394.640533
 20
209.0588229999999
 30
0.0
 11
390.640533
 21
209.0588229999999
 31
0.0
  0
LINE
  5
9ADE
330
9AA0
100
AcDbEntity
  8
4
  6
CENTER
100
AcDbLine
 10
392.640533
 20
211.0588229999999
 30
0.0
 11
392.640533
 21
207.0588229999999
 31
0.0
  0
LINE
  5
9ADF
330
9AA0
100
AcDbEntity
  8
1
  6
Continuous
100
AcDbLine
 10
161.745102
 20
206.058823
 30
0.0
 11
161.745102
 21
187.924286
 31
0.0
  0
LINE
  5
9AE0
330
9AA0
100
AcDbEntity
  8
1
  6
Continuous
100
AcDbLine
 10
181.745102
 20
178.5588229999999
 30
0.0
 11
181.745102
 21
167.267029
 31
0.0
  0
LINE
  5
9AE1
330
9AA0
100
AcDbEntity
  8
1
  6
Continuous
100
AcDbLine
 10
178.032181
 20
181.5588229999999
 30
0.0
 11
180.745102
 21
181.5588229999999
 31
0.0
  0
LINE
  5
9AE2
330
9AA0
100
AcDbEntity
  8
1
  6
Continuous
100
AcDbLine
 10
178.032181
 20
179.5588229999999
 30
0.0
 11
180.745102
 21
179.5588229999999
 31
0.0
  0
LINE
  5
9AE3
330
9AA0
100
AcDbEntity
  8
1
  6
Continuous
100
AcDbLine
 10
162.745102
 20
154.058823
 30
0.0
 11
179.621201
 21
154.058823
 31
0.0
  0
LINE
  5
9AE4
330
9AA0
100
AcDbEntity
  8
1
  6
Continuous
100
AcDbLine
 10
162.745102
 20
207.0588229999999
 30
0.0
 11
179.621201
 21
207.0588229999999
 31
0.0
  0
LINE
  5
9AE5
330
9AA0
100
AcDbEntity
  8
1
  6
Continuous
100
AcDbLine
 10
183.7451019999998
 20
195.362671
 30
0.0
 11
183.7451019999998
 21
165.754974
 31
0.0
  0
LINE
  5
9AE6
330
9AA0
100
AcDbEntity
  8
1
  6
Continuous
100
AcDbLine
 10
183.7451019999998
 20
212.058823
 30
0.0
 11
183.7451019999998
 21
205.754974
 31
0.0
  0
LINE
  5
9AE7
330
9AA0
100
AcDbEntity
  8
1
  6
Continuous
100
AcDbLine
 10
183.7451019999998
 20
155.362671
 30
0.0
 11
183.7451019999998
 21
149.058823
 31
0.0
  0
LINE
  5
9AE8
330
9AA0
100
AcDbEntity
  8
1
  6
Continuous
100
AcDbLine
 10
161.745102
 20
173.1933589999999
 30
0.0
 11
161.745102
 21
155.0588229999999
 31
0.0
  0
LINE
  5
9AE9
330
9AA0
100
AcDbEntity
  8
1
  6
Continuous
100
AcDbLine
 10
181.745102
 20
193.850616
 30
0.0
 11
181.745102
 21
182.5588229999999
 31
0.0
  0
LINE
  5
9AEA
330
9AA0
100
AcDbEntity
  8
1
  6
Continuous
100
AcDbLine
 10
151.4951019999998
 20
193.0588229999999
 30
0.0
 11
153.995102
 21
193.0588229999999
 31
0.0
  0
LINE
  5
9AEB
330
9AA0
100
AcDbEntity
  8
1
  6
Continuous
100
AcDbLine
 10
151.4951019999998
 20
168.0588229999998
 30
0.0
 11
153.995102
 21
168.0588229999998
 31
0.0
  0
LINE
  5
9AEC
330
9AA0
100
AcDbEntity
  8
1
  6
Continuous
100
AcDbLine
 10
150.495102
 20
192.0588229999999
 30
0.0
 11
150.495102
 21
169.0588229999999
 31
0.0
  0
LINE
  5
9AED
330
9AA0
100
AcDbEntity
  8
1
  6
Continuous
100
AcDbLine
 10
154.9951019999998
 20
192.0588229999999
 30
0.0
 11
154.9951019999998
 21
169.0588229999999
 31
0.0
  0
LINE
  5
9AEE
330
9AA0
100
AcDbEntity
  8
1
  6
Continuous
100
AcDbLine
 10
161.2451019999998
 20
212.058823
 30
0.0
 11
161.2451019999998
 21
210.5588229999999
 31
0.0
  0
LINE
  5
9AEF
330
9AA0
100
AcDbEntity
  8
1
  6
Continuous
100
AcDbLine
 10
161.2451019999998
 20
150.5588229999998
 30
0.0
 11
161.2451019999998
 21
149.058823
 31
0.0
  0
LINE
  5
9AF0
330
9AA0
100
AcDbEntity
  8
5
  6
PHANTOM
100
AcDbLine
 10
152.3049619999999
 20
91.19467900000001
 30
0.0
 11
150.335342
 21
91.541977
 31
0.0
  0
LINE
  5
9AF1
330
9AA0
100
AcDbEntity
  8
1
  6
Continuous
100
AcDbLine
 10
192.745102
 20
44.099998
 30
0.0
 11
192.745102
 21
41.5
 31
0.0
  0
LINE
  5
9AF2
330
9AA0
100
AcDbEntity
  8
5
  6
PHANTOM
100
AcDbLine
 10
154.683029
 20
80.621094
 30
0.0
 11
150.5684809999999
 21
81.346603
 31
0.0
  0
LINE
  5
9AF3
330
9AA0
100
AcDbEntity
  8
5
  6
PHANTOM
100
AcDbLine
 10
152.3049619999999
 20
91.19467900000001
 30
0.0
 11
150.5684809999999
 21
81.346603
 31
0.0
  0
LINE
  5
9AF4
330
9AA0
100
AcDbEntity
  8
5
  6
PHANTOM
100
AcDbLine
 10
154.683029
 20
80.621086
 30
0.0
 11
161.0379489999999
 21
52.36511199999998
 31
0.0
  0
LINE
  5
9AF5
330
9AA0
100
AcDbEntity
  8
1
  6
Continuous
100
AcDbLine
 10
183.163681
 20
44.099998
 30
0.0
 11
192.745102
 21
44.099998
 31
0.0
  0
LINE
  5
9AF6
330
9AA0
100
AcDbEntity
  8
1
  6
Continuous
100
AcDbLine
 10
146.745087
 20
43.5
 30
0.0
 11
146.745087
 21
41.5
 31
0.0
  0
LINE
  5
9AF7
330
9AA0
100
AcDbEntity
  8
5
  6
PHANTOM
100
AcDbLine
 10
146.0821689999999
 20
58.782848
 30
0.0
 11
144.6049649999999
 21
59.04332
 31
0.0
  0
LINE
  5
9AF8
330
9AA0
100
AcDbEntity
  8
5
  6
PHANTOM
100
AcDbLine
 10
146.893326
 20
57.62439
 30
0.0
 11
146.7411189999999
 21
56.761181
 31
0.0
  0
LINE
  5
9AF9
330
9AA0
100
AcDbEntity
  8
1
  6
Continuous
100
AcDbLine
 10
152.6509859999999
 20
47.45144299999998
 30
0.0
 11
155.788513
 21
50.700447
 31
0.0
  0
LINE
  5
9AFA
330
9AA0
100
AcDbEntity
  8
1
  6
Continuous
100
AcDbLine
 10
149.7016909999999
 20
50.299541
 30
0.0
 11
152.8392179999999
 21
53.54854599999999
 31
0.0
  0
LINE
  5
9AFB
330
9AA0
100
AcDbEntity
  8
4
  6
CENTER
100
AcDbLine
 10
124.395096
 20
160.5588229999999
 30
0.0
 11
113.0951
 21
160.5588229999999
 31
0.0
  0
LINE
  5
9AFC
330
9AA0
100
AcDbEntity
  8
4
  6
CENTER
100
AcDbLine
 10
118.7450939999999
 20
166.2088169999998
 30
0.0
 11
118.7450939999999
 21
154.908829
 31
0.0
  0
LINE
  5
9AFD
330
9AA0
100
AcDbEntity
  8
4
  6
CENTER
100
AcDbLine
 10
124.395096
 20
200.5588229999999
 30
0.0
 11
113.0951
 21
200.5588229999999
 31
0.0
  0
LINE
  5
9AFE
330
9AA0
100
AcDbEntity
  8
4
  6
CENTER
100
AcDbLine
 10
118.7450939999999
 20
206.2088169999999
 30
0.0
 11
118.7450939999999
 21
194.9088289999999
 31
0.0
  0
LINE
  5
9AFF
330
9AA0
100
AcDbEntity
  8
4
  6
CENTER
100
AcDbLine
 10
192.3950959999999
 20
200.5588229999999
 30
0.0
 11
181.0950929999999
 21
200.5588229999999
 31
0.0
  0
LINE
  5
9B00
330
9AA0
100
AcDbEntity
  8
4
  6
CENTER
100
AcDbLine
 10
186.745102
 20
206.2088169999999
 30
0.0
 11
186.745102
 21
194.9088289999999
 31
0.0
  0
LINE
  5
9B01
330
9AA0
100
AcDbEntity
  8
4
  6
CENTER
100
AcDbLine
 10
192.3950959999999
 20
160.5588229999999
 30
0.0
 11
181.0950929999999
 21
160.5588229999999
 31
0.0
  0
LINE
  5
9B02
330
9AA0
100
AcDbEntity
  8
4
  6
CENTER
100
AcDbLine
 10
186.745102
 20
166.2088169999998
 30
0.0
 11
186.745102
 21
154.908829
 31
0.0
  0
LINE
  5
9B03
330
9AA0
100
AcDbEntity
  8
1
  6
Continuous
100
AcDbLine
 10
27.0
 20
210.058823
 30
0.0
 11
27.0
 21
151.0588229999999
 31
0.0
  0
LINE
  5
9B04
330
9AA0
100
AcDbEntity
  8
1
  6
Continuous
100
AcDbLine
 10
27.5
 20
210.5588229999999
 30
0.0
 11
43.5
 21
210.5588229999999
 31
0.0
  0
LINE
  5
9B05
330
9AA0
100
AcDbEntity
  8
1
  6
Continuous
100
AcDbLine
 10
27.5
 20
150.5588229999998
 30
0.0
 11
43.5
 21
150.5588229999998
 31
0.0
  0
LINE
  5
9B06
330
9AA0
100
AcDbEntity
  8
1
  6
Continuous
100
AcDbLine
 10
28.5
 20
210.5588229999999
 30
0.0
 11
28.5
 21
150.5588229999998
 31
0.0
  0
LINE
  5
9B07
330
9AA0
100
AcDbEntity
  8
1
  6
Continuous
100
AcDbLine
 10
122.7450939999999
 20
212.058823
 30
0.0
 11
122.7450939999999
 21
209.5588229999999
 31
0.0
  0
LINE
  5
9B08
330
9AA0
100
AcDbEntity
  8
1
  6
Continuous
100
AcDbLine
 10
117.7450939999999
 20
151.5588229999998
 30
0.0
 11
122.7450939999999
 21
151.5588229999998
 31
0.0
  0
LINE
  5
9B09
330
9AA0
100
AcDbEntity
  8
1
  6
Continuous
100
AcDbLine
 10
117.7450939999999
 20
209.5588229999999
 30
0.0
 11
122.7450939999999
 21
209.5588229999999
 31
0.0
  0
LINE
  5
9B0A
330
9AA0
100
AcDbEntity
  8
1
  6
Continuous
100
AcDbLine
 10
122.7450939999999
 20
149.058823
 30
0.0
 11
187.745102
 21
149.058823
 31
0.0
  0
LINE
  5
9B0B
330
9AA0
100
AcDbEntity
  8
1
  6
Continuous
100
AcDbLine
 10
122.7450939999999
 20
150.5588229999998
 30
0.0
 11
164.1921653662348
 21
150.5588229999998
 31
0.0
  0
LINE
  5
9B0C
330
9AA0
100
AcDbEntity
  8
1
  6
Continuous
100
AcDbLine
 10
426.640533
 20
212.058823
 30
0.0
 11
426.640533
 21
209.5588229999999
 31
0.0
  0
LINE
  5
9B0D
330
9AA0
100
AcDbEntity
  8
1
  6
Continuous
100
AcDbLine
 10
122.7450939999999
 20
151.5588229999998
 30
0.0
 11
122.7450939999999
 21
149.058823
 31
0.0
  0
LINE
  5
9B0E
330
9AA0
100
AcDbEntity
  8
1
  6
Continuous
100
AcDbLine
 10
431.640533
 20
209.5588229999999
 30
0.0
 11
426.640533
 21
209.5588229999999
 31
0.0
  0
LINE
  5
9B0F
330
9AA0
100
AcDbEntity
  8
1
  6
Continuous
100
AcDbLine
 10
431.640533
 20
151.5588229999998
 30
0.0
 11
426.640533
 21
151.5588229999998
 31
0.0
  0
LINE
  5
9B10
330
9AA0
100
AcDbEntity
  8
1
  6
Continuous
100
AcDbLine
 10
426.640533
 20
151.5588229999998
 30
0.0
 11
426.640533
 21
149.058823
 31
0.0
  0
LINE
  5
9B11
330
9AA0
100
AcDbEntity
  8
1
  6
Continuous
100
AcDbLine
 10
43.0
 20
150.5588229999998
 30
0.0
 11
43.0
 21
149.058823
 31
0.0
  0
LINE
  5
9B12
330
9AA0
100
AcDbEntity
  8
1
  6
Continuous
100
AcDbLine
 10
284.9901729999999
 20
212.058823
 30
0.0
 11
284.9901729999999
 21
149.058823
 31
0.0
  0
LINE
  5
9B13
330
9AA0
100
AcDbEntity
  8
1
  6
Continuous
100
AcDbLine
 10
266.9901729999998
 20
210.5588229999999
 30
0.0
 11
266.9901729999998
 21
193.0588229999999
 31
0.0
  0
LINE
  5
9B14
330
9AA0
100
AcDbEntity
  8
1
  6
Continuous
100
AcDbLine
 10
284.9901729999999
 20
212.058823
 30
0.0
 11
267.4901729999999
 21
212.058823
 31
0.0
  0
LINE
  5
9B15
330
9AA0
100
AcDbEntity
  8
1
  6
Continuous
100
AcDbLine
 10
284.9901729999999
 20
149.058823
 30
0.0
 11
267.4901729999999
 21
149.058823
 31
0.0
  0
LINE
  5
9B16
330
9AA0
100
AcDbEntity
  8
1
  6
Continuous
100
AcDbLine
 10
266.9901729999998
 20
168.0588229999998
 30
0.0
 11
266.9901729999998
 21
150.5588229999998
 31
0.0
  0
LINE
  5
9B17
330
9AA0
100
AcDbEntity
  8
1
  6
Continuous
100
AcDbLine
 10
282.390198
 20
212.058823
 30
0.0
 11
282.390198
 21
181.1466219999998
 31
0.0
  0
LINE
  5
9B18
330
9AA0
100
AcDbEntity
  8
4
  6
CENTER
100
AcDbLine
 10
20.0
 20
180.5588229999999
 30
0.0
 11
48.0
 21
180.5588229999999
 31
0.0
  0
LINE
  5
9B19
330
9AA0
100
AcDbEntity
  8
4
  6
CENTER
100
AcDbLine
 10
261.9901729999999
 20
180.5588229999999
 30
0.0
 11
289.9901729999999
 21
180.5588229999999
 31
0.0
  0
LINE
  5
9B1A
330
9AA0
100
AcDbEntity
  8
1
  6
Continuous
100
AcDbLine
 10
273.390198
 20
154.058823
 30
0.0
 11
282.390198
 21
154.058823
 31
0.0
  0
LINE
  5
9B1B
330
9AA0
100
AcDbEntity
  8
1
  6
Continuous
100
AcDbLine
 10
273.390198
 20
207.0588229999999
 30
0.0
 11
282.390198
 21
207.0588229999999
 31
0.0
  0
LINE
  5
9B1C
330
9AA0
100
AcDbEntity
  8
1
  6
Continuous
100
AcDbLine
 10
272.3901979999999
 20
206.058823
 30
0.0
 11
272.3901979999999
 21
185.038864
 31
0.0
  0
LINE
  5
9B1D
330
9AA0
100
AcDbEntity
  8
1
  6
Continuous
100
AcDbLine
 10
272.3901979999999
 20
176.078781
 30
0.0
 11
272.3901979999999
 21
155.0588229999999
 31
0.0
  0
LINE
  5
9B1E
330
9AA0
100
AcDbEntity
  8
1
  6
Continuous
100
AcDbLine
 10
282.390198
 20
179.971024
 30
0.0
 11
282.390198
 21
149.058823
 31
0.0
  0
LINE
  5
9B1F
330
9AA0
100
AcDbEntity
  8
1
  6
Continuous
100
AcDbLine
 10
277.8005979999999
 20
172.0588229999999
 30
0.0
 11
282.390198
 21
172.0588229999999
 31
0.0
  0
LINE
  5
9B20
330
9AA0
100
AcDbEntity
  8
1
  6
Continuous
100
AcDbLine
 10
277.8005979999999
 20
189.0588229999999
 30
0.0
 11
282.390198
 21
189.0588229999999
 31
0.0
  0
LINE
  5
9B21
330
9AA0
100
AcDbEntity
  8
4
  6
CENTER
100
AcDbLine
 10
23.22273099999997
 20
160.5588229999999
 30
0.0
 11
30.57185399999999
 21
160.5588229999999
 31
0.0
  0
LINE
  5
9B22
330
9AA0
100
AcDbEntity
  8
4
  6
CENTER
100
AcDbLine
 10
23.22273099999997
 20
200.5588229999999
 30
0.0
 11
30.57185399999999
 21
200.5588229999999
 31
0.0
  0
LINE
  5
9B23
330
9AA0
100
AcDbEntity
  8
4
  6
CENTER
100
AcDbLine
 10
280.217529
 20
160.5588229999999
 30
0.0
 11
287.0169369999999
 21
160.5588229999999
 31
0.0
  0
LINE
  5
9B24
330
9AA0
100
AcDbEntity
  8
4
  6
CENTER
100
AcDbLine
 10
280.233795
 20
200.5588229999999
 30
0.0
 11
287.414124
 21
200.5588229999999
 31
0.0
  0
LINE
  5
9B25
330
9AA0
100
AcDbEntity
  8
4
  6
CENTER
100
AcDbLine
 10
280.217529
 20
200.5588229999999
 30
0.0
 11
287.0169369999999
 21
200.5588229999999
 31
0.0
  0
LINE
  5
9B26
330
9AA0
100
AcDbEntity
  8
1
  6
Continuous
100
AcDbLine
 10
276.6401979999999
 20
212.058823
 30
0.0
 11
276.6401979999999
 21
210.5588229999999
 31
0.0
  0
LINE
  5
9B27
330
9AA0
100
AcDbEntity
  8
1
  6
Continuous
100
AcDbLine
 10
276.6401979999999
 20
210.5588229999999
 30
0.0
 11
266.9901729999998
 21
210.5588229999999
 31
0.0
  0
LINE
  5
9B28
330
9AA0
100
AcDbEntity
  8
1
  6
Continuous
100
AcDbLine
 10
276.6401979999999
 20
150.5588229999998
 30
0.0
 11
266.9901729999998
 21
150.5588229999998
 31
0.0
  0
LINE
  5
9B29
330
9AA0
100
AcDbEntity
  8
1
  6
Continuous
100
AcDbLine
 10
276.6401979999999
 20
150.5588229999998
 30
0.0
 11
276.6401979999999
 21
149.058823
 31
0.0
  0
LINE
  5
9B2A
330
9AA0
100
AcDbEntity
  8
1
  6
Continuous
100
AcDbLine
 10
25.5
 20
151.5588229999998
 30
0.0
 11
27.0
 21
151.5588229999998
 31
0.0
  0
LINE
  5
9B2B
330
9AA0
100
AcDbEntity
  8
1
  6
Continuous
100
AcDbLine
 10
25.5
 20
209.5588229999999
 30
0.0
 11
27.0
 21
209.5588229999999
 31
0.0
  0
LINE
  5
9B2C
330
9AA0
100
AcDbEntity
  8
1
  6
Continuous
100
AcDbLine
 10
31.177999
 20
212.058823
 30
0.0
 11
31.177999
 21
210.5588229999999
 31
0.0
  0
LINE
  5
9B2D
330
9AA0
100
AcDbEntity
  8
1
  6
Continuous
100
AcDbLine
 10
31.177999
 20
150.5588229999998
 30
0.0
 11
31.177999
 21
149.058823
 31
0.0
  0
LINE
  5
9B2E
330
9AA0
100
AcDbEntity
  8
1
  6
Continuous
100
AcDbLine
 10
426.640533
 20
149.058823
 30
0.0
 11
361.640533
 21
149.058823
 31
0.0
  0
LINE
  5
9B2F
330
9AA0
100
AcDbEntity
  8
1
  6
Continuous
100
AcDbLine
 10
426.640533
 20
212.058823
 30
0.0
 11
361.640533
 21
212.058823
 31
0.0
  0
LINE
  5
9B30
330
9AA0
100
AcDbEntity
  8
4
  6
CENTER
100
AcDbLine
 10
275.9901729999999
 20
217.0588229999999
 30
0.0
 11
275.9901729999999
 21
144.0588229999999
 31
0.0
  0
LINE
  5
9B31
330
9AA0
100
AcDbEntity
  8
5
  6
PHANTOM
100
AcDbLine
 10
150.335342
 20
91.541977
 30
0.0
 11
144.6049649999999
 21
59.04332
 31
0.0
  0
LINE
  5
9B32
330
9AA0
100
AcDbEntity
  8
1
  6
Continuous
100
AcDbLine
 10
112.7450939999999
 20
43.0
 30
0.0
 11
112.7450939999999
 21
41.5
 31
0.0
  0
LINE
  5
9B33
330
9AA0
100
AcDbEntity
  8
1
  6
Continuous
100
AcDbLine
 10
122.7450939999999
 20
47.178013
 30
0.0
 11
122.7450939999999
 21
41.5
 31
0.0
  0
LINE
  5
9B34
330
9AA0
100
AcDbEntity
  8
1
  6
Continuous
100
AcDbLine
 10
112.7450939999999
 20
43.0
 30
0.0
 11
122.7450939999999
 21
43.0
 31
0.0
  0
LINE
  5
9B35
330
9AA0
100
AcDbEntity
  8
1
  6
Continuous
100
AcDbLine
 10
122.7451019999999
 20
47.17801699999998
 30
0.0
 11
149.4682919999999
 21
58.342995
 31
0.0
  0
LINE
  5
9B36
330
9AA0
100
AcDbEntity
  8
1
  6
Continuous
100
AcDbLine
 10
145.745087
 20
42.5
 30
0.0
 11
145.745087
 21
41.5
 31
0.0
  0
LINE
  5
9B37
330
9AA0
100
AcDbEntity
  8
1
  6
Continuous
100
AcDbLine
 10
146.745087
 20
43.5
 30
0.0
 11
147.621613
 21
43.5
 31
0.0
  0
LINE
  5
9B38
330
9AA0
100
AcDbEntity
  8
4
  6
CENTER
100
AcDbLine
 10
34.5
 20
217.0588229999999
 30
0.0
 11
34.5
 21
144.0588229999999
 31
0.0
  0
LINE
  5
9B39
330
9AA0
100
AcDbEntity
  8
4
  6
CENTER
100
AcDbLine
 10
186.745102
 20
45.59999799999999
 30
0.0
 11
186.745102
 21
39.5
 31
0.0
  0
LINE
  5
9B3A
330
9AA0
100
AcDbEntity
  8
4
  6
CENTER
100
AcDbLine
 10
168.745102
 20
45.59999799999999
 30
0.0
 11
168.745102
 21
39.5
 31
0.0
  0
LINE
  5
9B3B
330
9AA0
100
AcDbEntity
  8
4
  6
CENTER
100
AcDbLine
 10
136.745087
 20
45.59999799999999
 30
0.0
 11
136.745087
 21
39.5
 31
0.0
  0
LINE
  5
9B3C
330
9AA0
100
AcDbEntity
  8
4
  6
CENTER
100
AcDbLine
 10
118.7450939999999
 20
44.5
 30
0.0
 11
118.7450939999999
 21
39.5
 31
0.0
  0
LINE
  5
9B3D
330
9AA0
100
AcDbEntity
  8
1
  6
Continuous
100
AcDbLine
 10
125.8538669999998
 20
190.1414179999999
 30
0.0
 11
125.8538669999998
 21
191.777237
 31
0.0
  0
LINE
  5
9B3E
330
9AA0
100
AcDbEntity
  8
1
  6
Continuous
100
AcDbLine
 10
123.685333
 20
190.9729
 30
0.0
 11
126.756012
 21
192.1088259999999
 31
0.0
  0
LINE
  5
9B3F
330
9AA0
100
AcDbEntity
  8
1
  6
Continuous
100
AcDbLine
 10
125.190727
 20
178.487167
 30
0.0
 11
125.190727
 21
180.432693
 31
0.0
  0
LINE
  5
9B40
330
9AA0
100
AcDbEntity
  8
1
  6
Continuous
100
AcDbLine
 10
123.7450939999999
 20
170.226257
 30
0.0
 11
126.745094
 21
170.226257
 31
0.0
  0
LINE
  5
9B41
330
9AA0
100
AcDbEntity
  8
1
  6
Continuous
100
AcDbLine
 10
123.7450939999999
 20
169.0088199999999
 30
0.0
 11
123.7450939999999
 21
171.4544529999997
 31
0.0
  0
LINE
  5
9B42
330
9AA0
100
AcDbEntity
  8
1
  6
Continuous
100
AcDbLine
 10
123.6146469999999
 20
178.487167
 30
0.0
 11
126.766808
 21
178.487167
 31
0.0
  0
LINE
  5
9B43
330
9AA0
100
AcDbEntity
  8
1
  6
Continuous
100
AcDbLine
 10
125.3428879999999
 20
183.94368
 30
0.0
 11
125.3428879999999
 21
184.9980009999999
 31
0.0
  0
LINE
  5
9B44
330
9AA0
100
AcDbEntity
  8
1
  6
Continuous
100
AcDbLine
 10
123.6146469999999
 20
180.432693
 30
0.0
 11
126.766808
 21
180.432693
 31
0.0
  0
LINE
  5
9B45
330
9AA0
100
AcDbEntity
  8
1
  6
Continuous
100
AcDbLine
 10
123.6146469999999
 20
181.487167
 30
0.0
 11
126.766808
 21
181.487167
 31
0.0
  0
LINE
  5
9B46
330
9AA0
100
AcDbEntity
  8
1
  6
Continuous
100
AcDbLine
 10
123.6907269999999
 20
190.972885
 30
0.0
 11
126.756012
 21
189.7827299999999
 31
0.0
  0
LINE
  5
9B47
330
9AA0
100
AcDbEntity
  8
1
  6
Continuous
100
AcDbLine
 10
125.353821
 20
188.174011
 30
0.0
 11
126.766808
 21
188.174011
 31
0.0
  0
LINE
  5
9B48
330
9AA0
100
AcDbEntity
  8
1
  6
Continuous
100
AcDbLine
 10
125.7900009999999
 20
184.9980009999999
 30
0.0
 11
126.745094
 21
184.9980009999999
 31
0.0
  0
LINE
  5
9B49
330
9AA0
100
AcDbEntity
  8
1
  6
Continuous
100
AcDbLine
 10
123.6146469999999
 20
186.0761719999999
 30
0.0
 11
126.766808
 21
186.0761719999999
 31
0.0
  0
LINE
  5
9B4A
330
9AA0
100
AcDbEntity
  8
1
  6
Continuous
100
AcDbLine
 10
125.3538279999998
 20
188.174011
 30
0.0
 11
123.5907969999999
 21
189.191956
 31
0.0
  0
LINE
  5
9B4B
330
9AA0
100
AcDbEntity
  8
1
  6
Continuous
100
AcDbLine
 10
125.348404
 20
188.174011
 30
0.0
 11
123.5926899999999
 21
187.1634829999999
 31
0.0
  0
LINE
  5
9B4C
330
9AA0
100
AcDbEntity
  8
1
  6
Continuous
100
AcDbLine
 10
129.245087
 20
174.882233
 30
0.0
 11
129.245087
 21
176.1352079999998
 31
0.0
  0
LINE
  5
9B4D
330
9AA0
100
AcDbEntity
  8
1
  6
Continuous
100
AcDbLine
 10
129.245087
 20
177.695435
 30
0.0
 11
129.245087
 21
178.3220059999999
 31
0.0
  0
LINE
  5
9B4E
330
9AA0
100
AcDbEntity
  8
1
  6
Continuous
100
AcDbLine
 10
129.245087
 20
186.1954349999997
 30
0.0
 11
129.245087
 21
186.8220059999999
 31
0.0
  0
LINE
  5
9B4F
330
9AA0
100
AcDbEntity
  8
1
  6
Continuous
100
AcDbLine
 10
128.2301479999999
 20
176.1352079999998
 30
0.0
 11
130.2301479999999
 21
176.1352079999998
 31
0.0
  0
LINE
  5
9B50
330
9AA0
100
AcDbEntity
  8
1
  6
Continuous
100
AcDbLine
 10
128.245087
 20
172.224716
 30
0.0
 11
128.245087
 21
173.7996829999999
 31
0.0
  0
LINE
  5
9B51
330
9AA0
100
AcDbEntity
  8
1
  6
Continuous
100
AcDbLine
 10
128.245102
 20
173.008728
 30
0.0
 11
130.245102
 21
173.008728
 31
0.0
  0
LINE
  5
9B52
330
9AA0
100
AcDbEntity
  8
1
  6
Continuous
100
AcDbLine
 10
128.2301479999999
 20
174.882233
 30
0.0
 11
130.2301479999999
 21
174.882233
 31
0.0
  0
LINE
  5
9B53
330
9AA0
100
AcDbEntity
  8
1
  6
Continuous
100
AcDbLine
 10
128.245087
 20
180.0087279999999
 30
0.0
 11
130.245087
 21
180.0087279999999
 31
0.0
  0
LINE
  5
9B54
330
9AA0
100
AcDbEntity
  8
1
  6
Continuous
100
AcDbLine
 10
128.245102
 20
180.0087279999999
 30
0.0
 11
128.4589389999997
 21
179.787994
 31
0.0
  0
LINE
  5
9B55
330
9AA0
100
AcDbEntity
  8
1
  6
Continuous
100
AcDbLine
 10
128.243744
 20
188.924713
 30
0.0
 11
130.243744
 21
188.924713
 31
0.0
  0
LINE
  5
9B56
330
9AA0
100
AcDbEntity
  8
1
  6
Continuous
100
AcDbLine
 10
128.243744
 20
188.924698
 30
0.0
 11
128.4574889999997
 21
188.7039949999999
 31
0.0
  0
LINE
  5
9B57
330
9AA0
100
AcDbEntity
  8
1
  6
Continuous
100
AcDbLine
 10
128.8589629999999
 20
183.919724
 30
0.0
 11
129.6347499999999
 21
183.919724
 31
0.0
  0
LINE
  5
9B58
330
9AA0
100
AcDbEntity
  8
1
  6
Continuous
100
AcDbLine
 10
128.8589629999999
 20
185.1047209999999
 30
0.0
 11
129.6347499999999
 21
185.1047209999999
 31
0.0
  0
LINE
  5
9B59
330
9AA0
100
AcDbEntity
  8
1
  6
Continuous
100
AcDbLine
 10
129.246857
 20
182.1360169999999
 30
0.0
 11
129.246857
 21
182.428726
 31
0.0
  0
LINE
  5
9B5A
330
9AA0
100
AcDbEntity
  8
1
  6
Continuous
100
AcDbLine
 10
431.531769
 20
170.9762269999997
 30
0.0
 11
431.531769
 21
169.340408
 31
0.0
  0
LINE
  5
9B5B
330
9AA0
100
AcDbEntity
  8
1
  6
Continuous
100
AcDbLine
 10
433.700287
 20
170.144745
 30
0.0
 11
430.629608
 21
169.0088199999999
 31
0.0
  0
LINE
  5
9B5C
330
9AA0
100
AcDbEntity
  8
1
  6
Continuous
100
AcDbLine
 10
432.1948849999998
 20
182.630478
 30
0.0
 11
432.1948849999998
 21
180.684952
 31
0.0
  0
LINE
  5
9B5D
330
9AA0
100
AcDbEntity
  8
1
  6
Continuous
100
AcDbLine
 10
433.6405329999998
 20
190.8913879999998
 30
0.0
 11
430.640533
 21
190.8913879999998
 31
0.0
  0
LINE
  5
9B5E
330
9AA0
100
AcDbEntity
  8
1
  6
Continuous
100
AcDbLine
 10
433.6405329999998
 20
192.1088259999999
 30
0.0
 11
433.6405329999998
 21
189.663193
 31
0.0
  0
LINE
  5
9B5F
330
9AA0
100
AcDbEntity
  8
1
  6
Continuous
100
AcDbLine
 10
433.7709659999998
 20
182.630478
 30
0.0
 11
430.618805
 21
182.630478
 31
0.0
  0
LINE
  5
9B60
330
9AA0
100
AcDbEntity
  8
1
  6
Continuous
100
AcDbLine
 10
432.042725
 20
177.1739649999999
 30
0.0
 11
432.042725
 21
176.1196439999999
 31
0.0
  0
LINE
  5
9B61
330
9AA0
100
AcDbEntity
  8
1
  6
Continuous
100
AcDbLine
 10
433.7709659999998
 20
180.684952
 30
0.0
 11
430.618805
 21
180.684952
 31
0.0
  0
LINE
  5
9B62
330
9AA0
100
AcDbEntity
  8
1
  6
Continuous
100
AcDbLine
 10
433.7709659999998
 20
179.630478
 30
0.0
 11
430.618805
 21
179.630478
 31
0.0
  0
LINE
  5
9B63
330
9AA0
100
AcDbEntity
  8
1
  6
Continuous
100
AcDbLine
 10
433.6949159999998
 20
170.1447749999998
 30
0.0
 11
430.629608
 21
171.33493
 31
0.0
  0
LINE
  5
9B64
330
9AA0
100
AcDbEntity
  8
1
  6
Continuous
100
AcDbLine
 10
432.0317989999998
 20
172.943634
 30
0.0
 11
430.618805
 21
172.943634
 31
0.0
  0
LINE
  5
9B65
330
9AA0
100
AcDbEntity
  8
1
  6
Continuous
100
AcDbLine
 10
431.595642
 20
176.1196439999999
 30
0.0
 11
430.640533
 21
176.1196439999999
 31
0.0
  0
LINE
  5
9B66
330
9AA0
100
AcDbEntity
  8
1
  6
Continuous
100
AcDbLine
 10
433.7709659999998
 20
175.0414729999999
 30
0.0
 11
430.618805
 21
175.0414729999999
 31
0.0
  0
LINE
  5
9B67
330
9AA0
100
AcDbEntity
  8
1
  6
Continuous
100
AcDbLine
 10
432.0317989999998
 20
172.9436189999999
 30
0.0
 11
433.7948299999998
 21
171.9256739999999
 31
0.0
  0
LINE
  5
9B68
330
9AA0
100
AcDbEntity
  8
1
  6
Continuous
100
AcDbLine
 10
432.0372309999997
 20
172.9436489999999
 30
0.0
 11
433.792938
 21
173.9541629999999
 31
0.0
  0
LINE
  5
9B69
330
9AA0
100
AcDbEntity
  8
1
  6
Continuous
100
AcDbLine
 10
428.140533
 20
186.2354129999999
 30
0.0
 11
428.140533
 21
184.982437
 31
0.0
  0
LINE
  5
9B6A
330
9AA0
100
AcDbEntity
  8
1
  6
Continuous
100
AcDbLine
 10
428.140533
 20
183.4222109999998
 30
0.0
 11
428.140533
 21
182.7956389999999
 31
0.0
  0
LINE
  5
9B6B
330
9AA0
100
AcDbEntity
  8
1
  6
Continuous
100
AcDbLine
 10
428.140533
 20
174.922211
 30
0.0
 11
428.140533
 21
174.2956389999999
 31
0.0
  0
LINE
  5
9B6C
330
9AA0
100
AcDbEntity
  8
1
  6
Continuous
100
AcDbLine
 10
429.1554869999997
 20
184.982437
 30
0.0
 11
427.155487
 21
184.982437
 31
0.0
  0
LINE
  5
9B6D
330
9AA0
100
AcDbEntity
  8
1
  6
Continuous
100
AcDbLine
 10
429.1405329999998
 20
188.892929
 30
0.0
 11
429.1405329999998
 21
187.3179629999999
 31
0.0
  0
LINE
  5
9B6E
330
9AA0
100
AcDbEntity
  8
1
  6
Continuous
100
AcDbLine
 10
429.1405329999998
 20
188.1089169999999
 30
0.0
 11
427.140533
 21
188.1089169999999
 31
0.0
  0
LINE
  5
9B6F
330
9AA0
100
AcDbEntity
  8
1
  6
Continuous
100
AcDbLine
 10
429.1554869999997
 20
186.2354129999999
 30
0.0
 11
427.155487
 21
186.2354129999999
 31
0.0
  0
LINE
  5
9B70
330
9AA0
100
AcDbEntity
  8
1
  6
Continuous
100
AcDbLine
 10
429.1405329999998
 20
181.1089169999999
 30
0.0
 11
427.140533
 21
181.1089169999999
 31
0.0
  0
LINE
  5
9B71
330
9AA0
100
AcDbEntity
  8
1
  6
Continuous
100
AcDbLine
 10
429.1405329999998
 20
181.1089169999999
 30
0.0
 11
428.9266969999998
 21
181.329651
 31
0.0
  0
LINE
  5
9B72
330
9AA0
100
AcDbEntity
  8
1
  6
Continuous
100
AcDbLine
 10
429.1418759999998
 20
172.192932
 30
0.0
 11
427.1418759999998
 21
172.192932
 31
0.0
  0
LINE
  5
9B73
330
9AA0
100
AcDbEntity
  8
1
  6
Continuous
100
AcDbLine
 10
429.1418759999998
 20
172.192947
 30
0.0
 11
428.9281309999998
 21
172.4136509999999
 31
0.0
  0
LINE
  5
9B74
330
9AA0
100
AcDbEntity
  8
1
  6
Continuous
100
AcDbLine
 10
428.526672
 20
177.197922
 30
0.0
 11
427.750885
 21
177.197922
 31
0.0
  0
LINE
  5
9B75
330
9AA0
100
AcDbEntity
  8
1
  6
Continuous
100
AcDbLine
 10
428.526672
 20
176.0129239999999
 30
0.0
 11
427.750885
 21
176.0129239999999
 31
0.0
  0
LINE
  5
9B76
330
9AA0
100
AcDbEntity
  8
1
  6
Continuous
100
AcDbLine
 10
428.138763
 20
178.981628
 30
0.0
 11
428.138763
 21
178.688919
 31
0.0
  0
LINE
  5
9B77
330
9AA0
100
AcDbEntity
  8
1
  6
Continuous
100
AcDbLine
 10
146.745087
 20
41.5
 30
0.0
 11
192.745102
 21
41.5
 31
0.0
  0
LINE
  5
9B78
330
9AA0
100
AcDbEntity
  8
1
  6
Continuous
100
AcDbLine
 10
112.7450939999999
 20
41.5
 30
0.0
 11
145.745087
 21
41.5
 31
0.0
  0
LINE
  5
9B79
330
9AA0
100
AcDbEntity
  8
4
  6
CENTER
100
AcDbLine
 10
165.2451019999998
 20
50.5
 30
0.0
 11
140.2451019999998
 21
50.5
 31
0.0
  0
LINE
  5
9B7A
330
9AA0
100
AcDbEntity
  8
4
  6
CENTER
100
AcDbLine
 10
152.7451019999998
 20
63.0
 30
0.0
 11
152.7451019999998
 21
38.0
 31
0.0
  0
LINE
  5
9B7B
330
9AA0
100
AcDbEntity
  8
1
  6
Continuous
100
AcDbLine
 10
267.9901729999999
 20
192.0588229999999
 30
0.0
 11
267.9901729999999
 21
169.0588229999999
 31
0.0
  0
CIRCLE
  5
9B7C
330
9AA0
100
AcDbEntity
  8
1
  6
Continuous
100
AcDbCircle
 10
118.7450939999999
 20
200.5588229999999
 30
0.0
 40
2.649999999999999
  0
CIRCLE
  5
9B7D
330
9AA0
100
AcDbEntity
  8
1
  6
Continuous
100
AcDbCircle
 10
118.7450939999999
 20
160.5588229999999
 30
0.0
 40
2.649999999999999
  0
CIRCLE
  5
9B7E
330
9AA0
100
AcDbEntity
  8
1
  6
Continuous
100
AcDbCircle
 10
186.745102
 20
200.5588229999999
 30
0.0
 40
2.649999999999999
  0
CIRCLE
  5
9B7F
330
9AA0
100
AcDbEntity
  8
1
  6
Continuous
100
AcDbCircle
 10
186.745102
 20
160.5588229999999
 30
0.0
 40
2.649999999999999
  0
CIRCLE
  5
9B80
330
9AA0
100
AcDbEntity
  8
1
  6
Continuous
100
AcDbCircle
 10
136.745087
 20
180.5588229999999
 30
0.0
 40
2.649999999999999
  0
CIRCLE
  5
9B81
330
9AA0
100
AcDbEntity
  8
1
  6
Continuous
100
AcDbCircle
 10
168.745102
 20
180.5588229999999
 30
0.0
 40
2.649999999999999
  0
CIRCLE
  5
9B82
330
9AA0
100
AcDbEntity
  8
1
  6
Continuous
100
AcDbCircle
 10
430.640533
 20
200.5588229999999
 30
0.0
 40
2.649999999999999
  0
CIRCLE
  5
9B83
330
9AA0
100
AcDbEntity
  8
1
  6
Continuous
100
AcDbCircle
 10
430.640533
 20
160.5588229999999
 30
0.0
 40
2.649999999999999
  0
CIRCLE
  5
9B84
330
9AA0
100
AcDbEntity
  8
1
  6
Continuous
100
AcDbCircle
 10
362.640533
 20
200.5588229999999
 30
0.0
 40
2.649999999999999
  0
CIRCLE
  5
9B85
330
9AA0
100
AcDbEntity
  8
1
  6
Continuous
100
AcDbCircle
 10
362.640533
 20
160.5588229999999
 30
0.0
 40
2.649999999999999
  0
CIRCLE
  5
9B86
330
9AA0
100
AcDbEntity
  8
1
  6
Continuous
100
AcDbCircle
 10
412.6405329999998
 20
180.5588229999999
 30
0.0
 40
2.649999999999999
  0
CIRCLE
  5
9B87
330
9AA0
100
AcDbEntity
  8
1
  6
Continuous
100
AcDbCircle
 10
380.640533
 20
180.5588229999999
 30
0.0
 40
2.649999999999999
  0
ARC
  5
9B88
330
9AA0
100
AcDbEntity
  8
1
  6
Continuous
100
AcDbCircle
 10
395.3905329999998
 20
169.0588229999999
 30
0.0
 40
1.0
100
AcDbArc
 50
179.9999909999999
 51
270.000001
  0
ARC
  5
9B89
330
9AA0
100
AcDbEntity
  8
1
  6
Continuous
100
AcDbCircle
 10
397.890533
 20
169.0588229999999
 30
0.0
 40
1.0
100
AcDbArc
 50
269.9999969999999
 51
0.0
  0
ARC
  5
9B8A
330
9AA0
100
AcDbEntity
  8
1
  6
Continuous
100
AcDbCircle
 10
395.3905329999998
 20
192.0588229999999
 30
0.0
 40
1.0
100
AcDbArc
 50
90.00000300000001
 51
180.000005
  0
ARC
  5
9B8B
330
9AA0
100
AcDbEntity
  8
1
  6
Continuous
100
AcDbCircle
 10
397.890533
 20
192.0588229999999
 30
0.0
 40
1.0
100
AcDbArc
 50
0.0
 51
90.00000300000001
  0
ARC
  5
9B8C
330
9AA0
100
AcDbEntity
  8
1
  6
Continuous
100
AcDbCircle
 10
361.640533
 20
154.058823
 30
0.0
 40
5.0
100
AcDbArc
 50
179.9999909999999
 51
270.000001
  0
ARC
  5
9B8D
330
9AA0
100
AcDbEntity
  8
1
  6
Continuous
100
AcDbCircle
 10
361.640533
 20
207.0588229999999
 30
0.0
 40
5.0
100
AcDbArc
 50
90.00000300000001
 51
180.000005
  0
CIRCLE
  5
9B8E
330
9AA0
100
AcDbEntity
  8
1
  6
Continuous
100
AcDbCircle
 10
392.640533
 20
152.0588229999999
 30
0.0
 40
1.0
  0
CIRCLE
  5
9B8F
330
9AA0
100
AcDbEntity
  8
1
  6
Continuous
100
AcDbCircle
 10
392.640533
 20
152.0588229999999
 30
0.0
 40
0.6
  0
CIRCLE
  5
9B90
330
9AA0
100
AcDbEntity
  8
1
  6
Continuous
100
AcDbCircle
 10
392.640533
 20
209.0588229999999
 30
0.0
 40
1.0
  0
CIRCLE
  5
9B91
330
9AA0
100
AcDbEntity
  8
1
  6
Continuous
100
AcDbCircle
 10
392.640533
 20
209.0588229999999
 30
0.0
 40
0.6
  0
CIRCLE
  5
9B92
330
9AA0
100
AcDbEntity
  8
1
  6
Continuous
100
AcDbCircle
 10
168.745102
 20
180.5588229999999
 30
0.0
 40
6.0
  0
ARC
  5
9B93
330
9AA0
100
AcDbEntity
  8
1
  6
Continuous
100
AcDbCircle
 10
168.745102
 20
180.5588229999999
 30
0.0
 40
8.5
100
AcDbArc
 50
12.153197
 51
129.166705
  0
ARC
  5
9B94
330
9AA0
100
AcDbEntity
  8
1
  6
Continuous
100
AcDbCircle
 10
186.745102
 20
160.5588229999999
 30
0.0
 40
8.0
100
AcDbArc
 50
131.8103159999997
 51
217.669892
  0
ARC
  5
9B95
330
9AA0
100
AcDbEntity
  8
1
  6
Continuous
100
AcDbCircle
 10
186.745102
 20
200.5588229999999
 30
0.0
 40
8.0
100
AcDbArc
 50
142.3301179999999
 51
228.189681
  0
ARC
  5
9B96
330
9AA0
100
AcDbEntity
  8
1
  6
Continuous
100
AcDbCircle
 10
186.745102
 20
160.5588229999999
 30
0.0
 40
6.0
100
AcDbArc
 50
120.0000029999997
 51
240.0000069999999
  0
ARC
  5
9B97
330
9AA0
100
AcDbEntity
  8
1
  6
Continuous
100
AcDbCircle
 10
186.745102
 20
200.5588229999999
 30
0.0
 40
6.0
100
AcDbArc
 50
120.0000029999997
 51
240.0000069999999
  0
ARC
  5
9B98
330
9AA0
100
AcDbEntity
  8
1
  6
Continuous
100
AcDbCircle
 10
168.745102
 20
180.5588229999999
 30
0.0
 40
8.5
100
AcDbArc
 50
230.833295
 51
347.846803
  0
ARC
  5
9B99
330
9AA0
100
AcDbEntity
  8
1
  6
Continuous
100
AcDbCircle
 10
162.745102
 20
173.1933589999999
 30
0.0
 40
1.0
100
AcDbArc
 50
50.83328999999999
 51
180.000005
  0
ARC
  5
9B9A
330
9AA0
100
AcDbEntity
  8
1
  6
Continuous
100
AcDbCircle
 10
162.745102
 20
187.924286
 30
0.0
 40
1.0
100
AcDbArc
 50
179.9999909999999
 51
309.16671
  0
ARC
  5
9B9B
330
9AA0
100
AcDbEntity
  8
1
  6
Continuous
100
AcDbCircle
 10
179.621201
 20
206.058823
 30
0.0
 40
1.0
100
AcDbArc
 50
322.3301129999999
 51
90.00000300000001
  0
ARC
  5
9B9C
330
9AA0
100
AcDbEntity
  8
1
  6
Continuous
100
AcDbCircle
 10
179.621201
 20
155.0588229999999
 30
0.0
 40
1.0
100
AcDbArc
 50
269.9999969999999
 51
37.66988700000001
  0
ARC
  5
9B9D
330
9AA0
100
AcDbEntity
  8
1
  6
Continuous
100
AcDbCircle
 10
178.032181
 20
178.5588229999999
 30
0.0
 40
1.0
100
AcDbArc
 50
90.00000300000001
 51
167.846804
  0
ARC
  5
9B9E
330
9AA0
100
AcDbEntity
  8
1
  6
Continuous
100
AcDbCircle
 10
180.745102
 20
178.5588229999999
 30
0.0
 40
1.0
100
AcDbArc
 50
0.0
 51
90.00000300000001
  0
ARC
  5
9B9F
330
9AA0
100
AcDbEntity
  8
1
  6
Continuous
100
AcDbCircle
 10
180.745102
 20
182.5588229999999
 30
0.0
 40
1.0
100
AcDbArc
 50
269.9999969999999
 51
0.0
  0
ARC
  5
9BA0
330
9AA0
100
AcDbEntity
  8
1
  6
Continuous
100
AcDbCircle
 10
178.032181
 20
182.5588229999999
 30
0.0
 40
1.0
100
AcDbArc
 50
192.153196
 51
269.9999969999999
  0
ARC
  5
9BA1
330
9AA0
100
AcDbEntity
  8
1
  6
Continuous
100
AcDbCircle
 10
162.745102
 20
155.0588229999999
 30
0.0
 40
1.0
100
AcDbArc
 50
179.9999909999999
 51
270.000001
  0
ARC
  5
9BA2
330
9AA0
100
AcDbEntity
  8
1
  6
Continuous
100
AcDbCircle
 10
162.745102
 20
206.058823
 30
0.0
 40
1.0
100
AcDbArc
 50
90.00000300000001
 51
180.000005
  0
ARC
  5
9BA3
330
9AA0
100
AcDbEntity
  8
1
  6
Continuous
100
AcDbCircle
 10
151.4951019999998
 20
169.0588229999999
 30
0.0
 40
1.0
100
AcDbArc
 50
179.9999909999999
 51
270.000001
  0
ARC
  5
9BA4
330
9AA0
100
AcDbEntity
  8
1
  6
Continuous
100
AcDbCircle
 10
153.995102
 20
169.0588229999999
 30
0.0
 40
1.0
100
AcDbArc
 50
269.9999969999999
 51
0.0
  0
ARC
  5
9BA5
330
9AA0
100
AcDbEntity
  8
1
  6
Continuous
100
AcDbCircle
 10
151.4951019999998
 20
192.0588229999999
 30
0.0
 40
1.0
100
AcDbArc
 50
90.00000300000001
 51
180.000005
  0
ARC
  5
9BA6
330
9AA0
100
AcDbEntity
  8
1
  6
Continuous
100
AcDbCircle
 10
153.995102
 20
192.0588229999999
 30
0.0
 40
1.0
100
AcDbArc
 50
0.0
 51
90.00000300000001
  0
ARC
  5
9BA7
330
9AA0
100
AcDbEntity
  8
5
  6
PHANTOM
100
AcDbCircle
 10
152.7451019999998
 20
50.5
 30
0.0
 40
8.5
100
AcDbArc
 50
137.363109
 51
12.675229
  0
ARC
  5
9BA8
330
9AA0
100
AcDbEntity
  8
1
  6
Continuous
100
AcDbCircle
 10
152.7451019999998
 20
50.5
 30
0.0
 40
11.5
100
AcDbArc
 50
320.2081819999999
 51
354.500368304502
  0
ARC
  5
9BA9
330
9AA0
100
AcDbEntity
  8
5
  6
PHANTOM
100
AcDbCircle
 10
145.908524
 20
57.79803799999999
 30
0.0
 40
1.0
100
AcDbArc
 50
350.0000029999998
 51
80.000005
  0
ARC
  5
9BAA
330
9AA0
100
AcDbEntity
  8
5
  6
PHANTOM
100
AcDbCircle
 10
145.756317
 20
56.93483
 30
0.0
 40
1.0
100
AcDbArc
 50
317.363104
 51
350.0000029999998
  0
ARC
  5
9BAB
330
9AA0
100
AcDbEntity
  8
1
  6
Continuous
100
AcDbCircle
 10
152.7451019999998
 20
50.5
 30
0.0
 40
3.049999999999998
100
AcDbArc
 50
183.768238
 51
268.2317639999999
  0
ARC
  5
9BAC
330
9AA0
100
AcDbEntity
  8
1
  6
Continuous
100
AcDbCircle
 10
152.7451019999998
 20
50.5
 30
0.0
 40
3.049999999999998
100
AcDbArc
 50
3.768238
 51
88.231762
  0
ARC
  5
9BAD
330
9AA0
100
AcDbEntity
  8
1
  6
Continuous
100
AcDbCircle
 10
431.640533
 20
204.5588229999999
 30
0.0
 40
5.0
100
AcDbArc
 50
0.0
 51
90.00000300000001
  0
ARC
  5
9BAE
330
9AA0
100
AcDbEntity
  8
1
  6
Continuous
100
AcDbCircle
 10
431.640533
 20
156.5588229999999
 30
0.0
 40
5.0
100
AcDbArc
 50
269.9999969999999
 51
0.0
  0
ARC
  5
9BAF
330
9AA0
100
AcDbEntity
  8
1
  6
Continuous
100
AcDbCircle
 10
187.745102
 20
154.058823
 30
0.0
 40
5.0
100
AcDbArc
 50
269.9999969999999
 51
0.0
  0
ARC
  5
9BB0
330
9AA0
100
AcDbEntity
  8
1
  6
Continuous
100
AcDbCircle
 10
187.745102
 20
207.0588229999999
 30
0.0
 40
5.0
100
AcDbArc
 50
0.0
 51
90.00000300000001
  0
ARC
  5
9BB1
330
9AA0
100
AcDbEntity
  8
1
  6
Continuous
100
AcDbCircle
 10
117.7450939999999
 20
204.5588229999999
 30
0.0
 40
5.0
100
AcDbArc
 50
90.00000300000001
 51
180.000005
  0
ARC
  5
9BB2
330
9AA0
100
AcDbEntity
  8
1
  6
Continuous
100
AcDbCircle
 10
117.7450939999999
 20
156.5588229999999
 30
0.0
 40
5.0
100
AcDbArc
 50
179.9999909999999
 51
270.000001
  0
ARC
  5
9BB3
330
9AA0
100
AcDbEntity
  8
1
  6
Continuous
100
AcDbCircle
 10
27.5
 20
151.0588229999999
 30
0.0
 40
0.5
100
AcDbArc
 50
179.9999909999999
 51
270.000001
  0
ARC
  5
9BB4
330
9AA0
100
AcDbEntity
  8
1
  6
Continuous
100
AcDbCircle
 10
27.5
 20
210.058823
 30
0.0
 40
0.5
100
AcDbArc
 50
90.00000300000001
 51
180.000005
  0
ARC
  5
9BB5
330
9AA0
100
AcDbEntity
  8
1
  6
Continuous
100
AcDbCircle
 10
27.5
 20
210.058823
 30
0.0
 40
2.0
100
AcDbArc
 50
90.00000300000001
 51
180.000005
  0
ARC
  5
9BB6
330
9AA0
100
AcDbEntity
  8
1
  6
Continuous
100
AcDbCircle
 10
27.5
 20
151.0588229999999
 30
0.0
 40
2.0
100
AcDbArc
 50
179.9999909999999
 51
270.000001
  0
ARC
  5
9BB7
330
9AA0
100
AcDbEntity
  8
1
  6
Continuous
100
AcDbCircle
 10
180.745102
 20
193.850616
 30
0.0
 40
1.0
100
AcDbArc
 50
0.0
 51
48.189686
  0
ARC
  5
9BB8
330
9AA0
100
AcDbEntity
  8
1
  6
Continuous
100
AcDbCircle
 10
180.745102
 20
167.267029
 30
0.0
 40
1.0
100
AcDbArc
 50
311.810314
 51
0.0
  0
ARC
  5
9BB9
330
9AA0
100
AcDbEntity
  8
1
  6
Continuous
100
AcDbCircle
 10
152.7451019999998
 20
50.5
 30
0.0
 40
8.5
100
AcDbArc
 50
237.363107
 51
112.675227
  0
ARC
  5
9BBA
330
9AA0
100
AcDbEntity
  8
1
  6
Continuous
100
AcDbCircle
 10
147.621613
 20
42.5
 30
0.0
 40
1.0
100
AcDbArc
 50
57.363105
 51
90.00000300000001
  0
ARC
  5
9BBB
330
9AA0
100
AcDbEntity
  8
1
  6
Continuous
100
AcDbCircle
 10
146.745087
 20
42.5
 30
0.0
 40
1.0
100
AcDbArc
 50
90.00000300000001
 51
180.000005
  0
ARC
  5
9BBC
330
9AA0
100
AcDbEntity
  8
1
  6
Continuous
100
AcDbCircle
 10
125.141052
 20
176.7010349999999
 30
0.0
 40
1.601290999999998
100
AcDbArc
 50
228.9320989999999
 51
311.067896
  0
ARC
  5
9BBD
330
9AA0
100
AcDbEntity
  8
1
  6
Continuous
100
AcDbCircle
 10
125.438446
 20
176.3597409999999
 30
0.0
 40
1.148608999999998
100
AcDbArc
 50
311.0679
 51
19.192803
  0
ARC
  5
9BBE
330
9AA0
100
AcDbEntity
  8
1
  6
Continuous
100
AcDbCircle
 10
124.8436659999997
 20
176.3597409999999
 30
0.0
 40
1.148608999999998
100
AcDbArc
 50
160.8072009999999
 51
228.932095
  0
ARC
  5
9BBF
330
9AA0
100
AcDbEntity
  8
1
  6
Continuous
100
AcDbCircle
 10
124.485832
 20
176.484299
 30
0.0
 40
0.7697149999999999
100
AcDbArc
 50
95.65924499999999
 51
160.8072009999999
  0
ARC
  5
9BC0
330
9AA0
100
AcDbEntity
  8
1
  6
Continuous
100
AcDbCircle
 10
125.79628
 20
176.484299
 30
0.0
 40
0.7697149999999999
100
AcDbArc
 50
19.192803
 51
84.34076000000002
  0
ARC
  5
9BC1
330
9AA0
100
AcDbEntity
  8
1
  6
Continuous
100
AcDbCircle
 10
124.5402829999999
 20
184.0569459999999
 30
0.0
 40
0.7697149999999999
100
AcDbArc
 50
95.65924499999999
 51
160.8072009999999
  0
ARC
  5
9BC2
330
9AA0
100
AcDbEntity
  8
1
  6
Continuous
100
AcDbCircle
 10
124.8981169999999
 20
183.9323879999998
 30
0.0
 40
1.148608999999998
100
AcDbArc
 50
160.8072009999999
 51
228.932095
  0
ARC
  5
9BC3
330
9AA0
100
AcDbEntity
  8
1
  6
Continuous
100
AcDbCircle
 10
125.195511
 20
184.273682
 30
0.0
 40
1.601290999999998
100
AcDbArc
 50
228.9320989999999
 51
311.067896
  0
ARC
  5
9BC4
330
9AA0
100
AcDbEntity
  8
1
  6
Continuous
100
AcDbCircle
 10
125.4928969999999
 20
183.9323879999998
 30
0.0
 40
1.148608999999998
100
AcDbArc
 50
311.0679
 51
6.591395999999998
  0
ARC
  5
9BC5
330
9AA0
100
AcDbEntity
  8
1
  6
Continuous
100
AcDbCircle
 10
125.5610499999999
 20
183.9402619999999
 30
0.0
 40
1.08
100
AcDbArc
 50
359.5821879999999
 51
101.6541079999997
  0
ARC
  5
9BC6
330
9AA0
100
AcDbEntity
  8
1
  6
Continuous
100
AcDbCircle
 10
125.15696
 20
173.553085
 30
0.0
 40
1.601290999999998
100
AcDbArc
 50
228.9320989999999
 51
311.067896
  0
ARC
  5
9BC7
330
9AA0
100
AcDbEntity
  8
1
  6
Continuous
100
AcDbCircle
 10
125.15696
 20
172.8704989999999
 30
0.0
 40
1.601290999999998
100
AcDbArc
 50
48.93210399999999
 51
131.067901
  0
ARC
  5
9BC8
330
9AA0
100
AcDbEntity
  8
1
  6
Continuous
100
AcDbCircle
 10
125.454346
 20
173.211792
 30
0.0
 40
1.148608999999998
100
AcDbArc
 50
311.0679
 51
48.93210399999999
  0
ARC
  5
9BC9
330
9AA0
100
AcDbEntity
  8
1
  6
Continuous
100
AcDbCircle
 10
124.8595659999997
 20
173.211792
 30
0.0
 40
1.148608999999998
100
AcDbArc
 50
131.067901
 51
228.932095
  0
ARC
  5
9BCA
330
9AA0
100
AcDbEntity
  8
1
  6
Continuous
100
AcDbCircle
 10
128.721481
 20
182.0895079999999
 30
0.0
 40
0.6253770000000002
100
AcDbArc
 50
32.849699
 51
42.869628
  0
ARC
  5
9BCB
330
9AA0
100
AcDbEntity
  8
1
  6
Continuous
100
AcDbCircle
 10
128.8722379999997
 20
182.0895079999999
 30
0.0
 40
0.6253770000000002
100
AcDbArc
 50
137.130377
 51
222.8696189999999
  0
ARC
  5
9BCC
330
9AA0
100
AcDbEntity
  8
1
  6
Continuous
100
AcDbCircle
 10
128.79686
 20
182.15947
 30
0.0
 40
0.5225300000000001
100
AcDbArc
 50
42.869628
 51
137.130377
  0
ARC
  5
9BCD
330
9AA0
100
AcDbEntity
  8
1
  6
Continuous
100
AcDbCircle
 10
128.79686
 20
182.019531
 30
0.0
 40
0.5225300000000001
100
AcDbArc
 50
222.8696229999999
 51
288.2076629999999
  0
ARC
  5
9BCE
330
9AA0
100
AcDbEntity
  8
1
  6
Continuous
100
AcDbCircle
 10
129.621475
 20
182.0895079999999
 30
0.0
 40
0.6253770000000002
100
AcDbArc
 50
317.1303759999999
 51
42.869628
  0
ARC
  5
9BCF
330
9AA0
100
AcDbEntity
  8
1
  6
Continuous
100
AcDbCircle
 10
129.772232
 20
182.0895079999999
 30
0.0
 40
0.6253770000000002
100
AcDbArc
 50
137.130377
 51
147.150306
  0
ARC
  5
9BD0
330
9AA0
100
AcDbEntity
  8
1
  6
Continuous
100
AcDbCircle
 10
129.6968539999997
 20
182.15947
 30
0.0
 40
0.5225300000000001
100
AcDbArc
 50
42.869628
 51
137.130377
  0
ARC
  5
9BD1
330
9AA0
100
AcDbEntity
  8
1
  6
Continuous
100
AcDbCircle
 10
129.6968539999997
 20
182.019531
 30
0.0
 40
0.5225300000000001
100
AcDbArc
 50
283.0142259999997
 51
317.1303759999999
  0
ARC
  5
9BD2
330
9AA0
100
AcDbEntity
  8
1
  6
Continuous
100
AcDbCircle
 10
128.8589629999999
 20
184.546051
 30
0.0
 40
0.6263380000000001
100
AcDbArc
 50
225.9274979999999
 51
270.0000039999998
  0
ARC
  5
9BD3
330
9AA0
100
AcDbEntity
  8
1
  6
Continuous
100
AcDbCircle
 10
128.8589629999999
 20
184.478378
 30
0.0
 40
0.6263380000000001
100
AcDbArc
 50
90.00000300000001
 51
134.0725019999998
  0
ARC
  5
9BD4
330
9AA0
100
AcDbEntity
  8
1
  6
Continuous
100
AcDbCircle
 10
128.8262019999999
 20
184.512222
 30
0.0
 40
0.57924
100
AcDbArc
 50
134.0725019999998
 51
225.927495
  0
ARC
  5
9BD5
330
9AA0
100
AcDbEntity
  8
1
  6
Continuous
100
AcDbCircle
 10
129.6347499999999
 20
184.546051
 30
0.0
 40
0.6263380000000001
100
AcDbArc
 50
269.9999969999999
 51
314.0724999999998
  0
ARC
  5
9BD6
330
9AA0
100
AcDbEntity
  8
1
  6
Continuous
100
AcDbCircle
 10
129.6347499999999
 20
184.478378
 30
0.0
 40
0.6263380000000001
100
AcDbArc
 50
45.92749699999998
 51
90.00000300000001
  0
ARC
  5
9BD7
330
9AA0
100
AcDbEntity
  8
1
  6
Continuous
100
AcDbCircle
 10
129.667511
 20
184.512222
 30
0.0
 40
0.57924
100
AcDbArc
 50
314.0724999999998
 51
45.92749699999998
  0
ARC
  5
9BD8
330
9AA0
100
AcDbEntity
  8
1
  6
Continuous
100
AcDbCircle
 10
432.2445679999996
 20
184.4166109999999
 30
0.0
 40
1.601290999999998
100
AcDbArc
 50
48.93209999999999
 51
131.067901
  0
ARC
  5
9BD9
330
9AA0
100
AcDbEntity
  8
1
  6
Continuous
100
AcDbCircle
 10
431.947174
 20
184.757904
 30
0.0
 40
1.148608999999998
100
AcDbArc
 50
131.067901
 51
199.1927959999999
  0
ARC
  5
9BDA
330
9AA0
100
AcDbEntity
  8
1
  6
Continuous
100
AcDbCircle
 10
432.5419619999998
 20
184.757904
 30
0.0
 40
1.148608999999998
100
AcDbArc
 50
340.8071969999999
 51
48.93209999999999
  0
ARC
  5
9BDB
330
9AA0
100
AcDbEntity
  8
1
  6
Continuous
100
AcDbCircle
 10
432.899811
 20
184.6333469999999
 30
0.0
 40
0.7697149999999999
100
AcDbArc
 50
275.65924
 51
340.8071969999999
  0
ARC
  5
9BDC
330
9AA0
100
AcDbEntity
  8
1
  6
Continuous
100
AcDbCircle
 10
431.5893549999996
 20
184.6333469999999
 30
0.0
 40
0.7697149999999999
100
AcDbArc
 50
199.192799
 51
264.340755
  0
ARC
  5
9BDD
330
9AA0
100
AcDbEntity
  8
1
  6
Continuous
100
AcDbCircle
 10
432.845337
 20
177.060699
 30
0.0
 40
0.7697149999999999
100
AcDbArc
 50
275.65924
 51
340.8071969999999
  0
ARC
  5
9BDE
330
9AA0
100
AcDbEntity
  8
1
  6
Continuous
100
AcDbCircle
 10
432.4875179999998
 20
177.185257
 30
0.0
 40
1.148608999999998
100
AcDbArc
 50
340.8071969999999
 51
48.93209999999999
  0
ARC
  5
9BDF
330
9AA0
100
AcDbEntity
  8
1
  6
Continuous
100
AcDbCircle
 10
432.190125
 20
176.8439639999997
 30
0.0
 40
1.601290999999998
100
AcDbArc
 50
48.93209999999999
 51
131.067901
  0
ARC
  5
9BE0
330
9AA0
100
AcDbEntity
  8
1
  6
Continuous
100
AcDbCircle
 10
431.8927309999998
 20
177.185257
 30
0.0
 40
1.148608999999998
100
AcDbArc
 50
131.067901
 51
186.591397
  0
ARC
  5
9BE1
330
9AA0
100
AcDbEntity
  8
1
  6
Continuous
100
AcDbCircle
 10
431.8245849999996
 20
177.1773829999999
 30
0.0
 40
1.08
100
AcDbArc
 50
179.582189
 51
281.6541069999999
  0
ARC
  5
9BE2
330
9AA0
100
AcDbEntity
  8
1
  6
Continuous
100
AcDbCircle
 10
432.2286679999998
 20
187.56456
 30
0.0
 40
1.601290999999998
100
AcDbArc
 50
48.93209999999999
 51
131.067901
  0
ARC
  5
9BE3
330
9AA0
100
AcDbEntity
  8
1
  6
Continuous
100
AcDbCircle
 10
432.2286679999998
 20
188.2471469999999
 30
0.0
 40
1.601290999999998
100
AcDbArc
 50
228.9320989999999
 51
311.067896
  0
ARC
  5
9BE4
330
9AA0
100
AcDbEntity
  8
1
  6
Continuous
100
AcDbCircle
 10
431.9312739999999
 20
187.905853
 30
0.0
 40
1.148608999999998
100
AcDbArc
 50
131.067901
 51
228.932109
  0
ARC
  5
9BE5
330
9AA0
100
AcDbEntity
  8
1
  6
Continuous
100
AcDbCircle
 10
432.526062
 20
187.905853
 30
0.0
 40
1.148608999999998
100
AcDbArc
 50
311.067896
 51
48.93209999999999
  0
ARC
  5
9BE6
330
9AA0
100
AcDbEntity
  8
1
  6
Continuous
100
AcDbCircle
 10
428.6641539999997
 20
179.0281369999999
 30
0.0
 40
0.6253770000000002
100
AcDbArc
 50
212.849694
 51
222.8696229999999
  0
ARC
  5
9BE7
330
9AA0
100
AcDbEntity
  8
1
  6
Continuous
100
AcDbCircle
 10
428.513397
 20
179.0281369999999
 30
0.0
 40
0.6253770000000002
100
AcDbArc
 50
317.130372
 51
42.869624
  0
ARC
  5
9BE8
330
9AA0
100
AcDbEntity
  8
1
  6
Continuous
100
AcDbCircle
 10
428.588776
 20
178.958176
 30
0.0
 40
0.5225300000000001
100
AcDbArc
 50
222.8696229999999
 51
317.130372
  0
ARC
  5
9BE9
330
9AA0
100
AcDbEntity
  8
1
  6
Continuous
100
AcDbCircle
 10
428.588776
 20
179.0981139999999
 30
0.0
 40
0.5225300000000001
100
AcDbArc
 50
42.869624
 51
108.207661
  0
ARC
  5
9BEA
330
9AA0
100
AcDbEntity
  8
1
  6
Continuous
100
AcDbCircle
 10
427.7641599999998
 20
179.0281369999999
 30
0.0
 40
0.6253770000000002
100
AcDbArc
 50
137.130377
 51
222.869633
  0
ARC
  5
9BEB
330
9AA0
100
AcDbEntity
  8
1
  6
Continuous
100
AcDbCircle
 10
427.613403
 20
179.0281369999999
 30
0.0
 40
0.6253770000000002
100
AcDbArc
 50
317.130372
 51
327.1503009999999
  0
ARC
  5
9BEC
330
9AA0
100
AcDbEntity
  8
1
  6
Continuous
100
AcDbCircle
 10
427.6887819999998
 20
178.958176
 30
0.0
 40
0.5225300000000001
100
AcDbArc
 50
222.8696229999999
 51
317.130372
  0
ARC
  5
9BED
330
9AA0
100
AcDbEntity
  8
1
  6
Continuous
100
AcDbCircle
 10
427.6887819999998
 20
179.0981139999999
 30
0.0
 40
0.5225300000000001
100
AcDbArc
 50
103.0142239999997
 51
137.130377
  0
ARC
  5
9BEE
330
9AA0
100
AcDbEntity
  8
1
  6
Continuous
100
AcDbCircle
 10
428.526672
 20
176.5715939999997
 30
0.0
 40
0.6263380000000001
100
AcDbArc
 50
45.9275
 51
90.00000300000001
  0
ARC
  5
9BEF
330
9AA0
100
AcDbEntity
  8
1
  6
Continuous
100
AcDbCircle
 10
428.526672
 20
176.6392669999999
 30
0.0
 40
0.6263380000000001
100
AcDbArc
 50
269.9999969999999
 51
314.072503
  0
ARC
  5
9BF0
330
9AA0
100
AcDbEntity
  8
1
  6
Continuous
100
AcDbCircle
 10
428.559418
 20
176.6054229999998
 30
0.0
 40
0.57924
100
AcDbArc
 50
314.072503
 51
45.9275
  0
ARC
  5
9BF1
330
9AA0
100
AcDbEntity
  8
1
  6
Continuous
100
AcDbCircle
 10
427.750885
 20
176.5715939999997
 30
0.0
 40
0.6263380000000001
100
AcDbArc
 50
89.99999599999998
 51
134.0725019999998
  0
ARC
  5
9BF2
330
9AA0
100
AcDbEntity
  8
1
  6
Continuous
100
AcDbCircle
 10
427.750885
 20
176.6392669999999
 30
0.0
 40
0.6263380000000001
100
AcDbArc
 50
225.9274979999999
 51
269.9999969999999
  0
ARC
  5
9BF3
330
9AA0
100
AcDbEntity
  8
1
  6
Continuous
100
AcDbCircle
 10
427.718109
 20
176.6054229999998
 30
0.0
 40
0.57924
100
AcDbArc
 50
134.0725019999998
 51
225.927495
  0
ARC
  5
9BF4
330
9AA0
100
AcDbEntity
  8
1
  6
Continuous
100
AcDbCircle
 10
273.390198
 20
155.0588229999999
 30
0.0
 40
1.0
100
AcDbArc
 50
179.9999909999999
 51
270.000001
  0
ARC
  5
9BF5
330
9AA0
100
AcDbEntity
  8
1
  6
Continuous
100
AcDbCircle
 10
273.390198
 20
206.058823
 30
0.0
 40
1.0
100
AcDbArc
 50
90.00000300000001
 51
180.000005
  0
ARC
  5
9BF6
330
9AA0
100
AcDbEntity
  8
1
  6
Continuous
100
AcDbCircle
 10
266.9901729999998
 20
192.0588229999999
 30
0.0
 40
1.0
100
AcDbArc
 50
0.0
 51
90.00000300000001
  0
ARC
  5
9BF7
330
9AA0
100
AcDbEntity
  8
1
  6
Continuous
100
AcDbCircle
 10
266.9901729999998
 20
169.0588229999999
 30
0.0
 40
1.0
100
AcDbArc
 50
269.9999969999999
 51
0.0
  0
ARC
  5
9BF8
330
9AA0
100
AcDbEntity
  8
1
  6
Continuous
100
AcDbCircle
 10
277.8005979999999
 20
174.763306
 30
0.0
 40
2.704489999999998
100
AcDbArc
 50
205.201125
 51
334.7988759999997
  0
ARC
  5
9BF9
330
9AA0
100
AcDbEntity
  8
1
  6
Continuous
100
AcDbCircle
 10
290.1160579999999
 20
180.5588229999999
 30
0.0
 40
16.315458
100
AcDbArc
 50
154.798875
 51
165.0052399999998
  0
ARC
  5
9BFA
330
9AA0
100
AcDbEntity
  8
1
  6
Continuous
100
AcDbCircle
 10
265.485138
 20
180.5588229999999
 30
0.0
 40
16.315458
100
AcDbArc
 50
334.7988759999997
 51
357.972647
  0
ARC
  5
9BFB
330
9AA0
100
AcDbEntity
  8
1
  6
Continuous
100
AcDbCircle
 10
277.8005979999999
 20
186.3543399999999
 30
0.0
 40
2.704489999999998
100
AcDbArc
 50
25.201124
 51
154.798875
  0
ARC
  5
9BFC
330
9AA0
100
AcDbEntity
  8
1
  6
Continuous
100
AcDbCircle
 10
273.390198
 20
185.038864
 30
0.0
 40
1.0
100
AcDbArc
 50
179.9999909999999
 51
345.0052309999999
  0
ARC
  5
9BFD
330
9AA0
100
AcDbEntity
  8
1
  6
Continuous
100
AcDbCircle
 10
273.390198
 20
176.078781
 30
0.0
 40
1.0
100
AcDbArc
 50
14.99476
 51
180.000005
  0
ARC
  5
9BFE
330
9AA0
100
AcDbEntity
  8
1
  6
Continuous
100
AcDbCircle
 10
282.0902099999999
 20
181.1466219999998
 30
0.0
 40
0.3
100
AcDbArc
 50
182.0273589999999
 51
0.0
  0
ARC
  5
9BFF
330
9AA0
100
AcDbEntity
  8
1
  6
Continuous
100
AcDbCircle
 10
282.0902099999999
 20
179.971024
 30
0.0
 40
0.3
100
AcDbArc
 50
0.0
 51
177.9726409999999
  0
ARC
  5
9C00
330
9AA0
100
AcDbEntity
  8
1
  6
Continuous
100
AcDbCircle
 10
162.3497919999998
 20
42.5
 30
0.0
 40
1.0
100
AcDbArc
 50
140.2081839999999
 51
270.000001
  0
ARC
  5
9C01
330
9AA0
100
AcDbEntity
  8
1
  6
Continuous
100
AcDbCircle
 10
290.1160579999999
 20
180.5588229999999
 30
0.0
 40
16.315458
100
AcDbArc
 50
194.99476
 51
205.201125
  0
ARC
  5
9C02
330
9AA0
100
AcDbEntity
  8
1
  6
Continuous
100
AcDbCircle
 10
265.485138
 20
180.5588229999999
 30
0.0
 40
16.315458
100
AcDbArc
 50
2.027352999999996
 51
25.201124
  0
ARC
  5
9C03
330
9AA0
100
AcDbEntity
  8
1
  6
Continuous
100
AcDbCircle
 10
277.8005979999999
 20
177.017166
 30
0.0
 40
2.458349
100
AcDbArc
 50
209.463409
 51
330.5365919999999
  0
ARC
  5
9C04
330
9AA0
100
AcDbEntity
  8
1
  6
Continuous
100
AcDbCircle
 10
284.069794
 20
180.5588229999999
 30
0.0
 40
9.658767999999998
100
AcDbArc
 50
150.5365909999999
 51
209.4634059999999
  0
ARC
  5
9C05
330
9AA0
100
AcDbEntity
  8
1
  6
Continuous
100
AcDbCircle
 10
277.8005979999999
 20
184.100479
 30
0.0
 40
2.458349
100
AcDbArc
 50
29.463408
 51
150.5365909999999
  0
ARC
  5
9C06
330
9AA0
100
AcDbEntity
  8
1
  6
Continuous
100
AcDbCircle
 10
271.5314029999999
 20
180.5588229999999
 30
0.0
 40
9.658767999999998
100
AcDbArc
 50
330.5366029999999
 51
29.463408
  0
LWPOLYLINE
  5
9C07
330
9AA0
100
AcDbEntity
  8
1
  6
Continuous
100
AcDbPolyline
 90
       17
 70
     0
 43
0.0
 10
282.390481
 20
163.5542
 42
0.005527
 10
282.341137
 20
163.182007
 42
0.00504
 10
282.299605
 20
162.8083889999998
 42
0.004668
 10
282.265356
 20
162.434393
 42
0.004394
 10
282.2378819999999
 20
162.059832
 42
0.004193
 10
282.2168369999999
 20
161.684843
 42
0.004052
 10
282.201973
 20
161.309549
 42
0.003962
 10
282.193122
 20
160.9340639999998
 42
0.003915
 10
282.190186
 20
160.5588229999999
 42
0.003911
 10
282.1931159999999
 20
160.183976
 42
0.003956
 10
282.2019419999999
 20
159.809106
 42
0.004047
 10
282.216768
 20
159.4342509999999
 42
0.00419
 10
282.237776
 20
159.059456
 42
0.004394
 10
282.2652299999999
 20
158.6847799999999
 42
0.004673
 10
282.2994990000001
 20
158.3102979999999
 42
0.005047
 10
282.3410799999999
 20
157.93611
 42
0.00555
 10
282.390637
 20
157.562359
  0
LWPOLYLINE
  5
9C1A
330
9AA0
100
AcDbEntity
  8
1
  6
Continuous
100
AcDbPolyline
 90
       17
 70
     0
 43
0.0
 10
282.391025
 20
165.7185829999999
 42
0.008211
 10
282.287662
 20
165.07978
 42
0.006799
 10
282.203507
 20
164.4388659999999
 42
0.005891
 10
282.135487
 20
163.795103
 42
0.005277
 10
282.0817599999998
 20
163.1492039999999
 42
0.004849
 10
282.0411409999999
 20
162.5030409999999
 42
0.004568
 10
282.0126769999999
 20
161.8561949999999
 42
0.004395
 10
281.9957959999999
 20
161.2089259999999
 42
0.004312
 10
281.9901729999999
 20
160.5614689999999
 42
0.0043
 10
281.995676
 20
159.915658
 42
0.004385
 10
282.0123929999999
 20
159.269627
 42
0.004561
 10
282.040677
 20
158.6233409999999
 42
0.004847
 10
282.0811529999998
 20
157.9767949999999
 42
0.005278
 10
282.1347859999999
 20
157.330015
 42
0.005884
 10
282.202643
 20
156.6861209999999
 42
0.006798
 10
282.2867529999999
 20
156.0441179999999
 42
0.0082
 10
282.389988
 20
155.404853
  0
LWPOLYLINE
  5
9C2D
330
9AA0
100
AcDbEntity
  8
1
  6
Continuous
100
AcDbPolyline
 90
       17
 70
     0
 43
0.0
 10
282.39051
 20
203.554401
 42
0.005527
 10
282.3411619999999
 20
203.1822079999999
 42
0.005041
 10
282.299625
 20
202.808592
 42
0.004668
 10
282.265373
 20
202.434597
 42
0.004394
 10
282.237895
 20
202.0600359999999
 42
0.004193
 10
282.2168469999999
 20
201.685047
 42
0.004052
 10
282.2019799999998
 20
201.309752
 42
0.003962
 10
282.193125
 20
200.934267
 42
0.003917
 10
282.190186
 20
200.5588229999999
 42
0.003911
 10
282.1931159999999
 20
200.183976
 42
0.003956
 10
282.2019419999999
 20
199.809106
 42
0.004047
 10
282.216768
 20
199.4342509999999
 42
0.00419
 10
282.237776
 20
199.059456
 42
0.004394
 10
282.2652299999999
 20
198.6847799999999
 42
0.004673
 10
282.2994990000001
 20
198.3102979999999
 42
0.005047
 10
282.3410799999999
 20
197.93611
 42
0.00555
 10
282.390637
 20
197.5623589999999
  0
LWPOLYLINE
  5
9C40
330
9AA0
100
AcDbEntity
  8
1
  6
Continuous
100
AcDbPolyline
 90
       17
 70
     0
 43
0.0
 10
282.3904529999999
 20
205.715393
 42
0.008202
 10
282.287195
 20
205.0765699999999
 42
0.006793
 10
282.203127
 20
204.435636
 42
0.005888
 10
282.1351829999999
 20
203.791864
 42
0.005275
 10
282.081522
 20
203.1459319999999
 42
0.004847
 10
282.0409669999999
 20
202.499764
 42
0.004567
 10
282.012563
 20
201.8529149999999
 42
0.004394
 10
281.995739
 20
201.205645
 42
0.004307
 10
281.9901729999999
 20
200.5588229999999
 42
0.004301
 10
281.995722
 20
199.913024
 42
0.004385
 10
282.0124839999999
 20
199.2669919999999
 42
0.004562
 10
282.0408169999997
 20
198.6207049999999
 42
0.004849
 10
282.081345
 20
197.9741579999999
 42
0.00528
 10
282.135033
 20
197.327377
 42
0.005887
 10
282.202953
 20
196.6834899999998
 42
0.006803
 10
282.2871339999998
 20
196.0414959999999
 42
0.008207
 10
282.3904549999999
 20
195.4022439999999
  0
TEXT
  5
9C53
330
9AA0
100
AcDbEntity
  8
6
  6
Continuous
100
AcDbText
 10
27.97945
 20
10.0487
 30
0.0
 40
1.399999999999999
  1
6
 41
1.069393
100
AcDbText
  0
TEXT
  5
9C54
330
9AA0
100
AcDbEntity
  8
1
  6
Continuous
100
AcDbText
 10
17.97945
 20
10.0487
 30
0.0
 40
1.399999999999999
  1
1
 41
1.069393
100
AcDbText
  0
TEXT
  5
9C55
330
9AA0
100
AcDbEntity
  8
1
  6
Continuous
100
AcDbText
 10
9.99995
 20
10.0
 30
0.0
 40
1.399999999999999
  1
LAYER
 41
1.009912999999997
100
AcDbText
  0
TEXT
  5
9C56
330
9AA0
100
AcDbEntity
  8
2
  6
Continuous
100
AcDbText
 10
19.97944999999997
 20
10.0487
 30
0.0
 40
1.399999999999999
  1
2
 41
1.069393
100
AcDbText
  0
TEXT
  5
9C57
330
9AA0
100
AcDbEntity
  8
3
  6
DASHED
100
AcDbText
 10
21.97945
 20
10.0487
 30
0.0
 40
1.399999999999999
  1
3
 41
1.069393
100
AcDbText
  0
TEXT
  5
9C58
330
9AA0
100
AcDbEntity
  8
4
  6
CENTER
100
AcDbText
 10
23.97944999999999
 20
10.0487
 30
0.0
 40
1.399999999999999
  1
4
 41
1.069393
100
AcDbText
  0
TEXT
  5
9C59
330
9AA0
100
AcDbEntity
  8
5
  6
PHANTOM
100
AcDbText
 10
25.97945
 20
10.0487
 30
0.0
 40
1.399999999999999
  1
5
 41
1.069393
100
AcDbText
  0
TEXT
  5
9C5A
330
9AA0
100
AcDbEntity
  8
7
  6
Continuous
100
AcDbText
 10
10.00005
 20
26.0
 30
0.0
 40
3.0
  1
CODE No.2620
 41
1.003962999999999
100
AcDbText
  0
TEXT
  5
9C5B
330
9AA0
100
AcDbEntity
  8
7
  6
Continuous
100
AcDbText
 10
10.00005
 20
18.0
 30
0.0
 40
3.0
  1
TYPE No.TH-130B-1-12
 41
1.002350999999998
100
AcDbText
  0
TEXT
  5
9C5C
330
9AA0
100
AcDbEntity
  8
7
  6
Continuous
100
AcDbText
 10
29.97944999999999
 20
10.0487
 30
0.0
 40
1.399999999999999
  1
7
 41
1.069393
100
AcDbText
  0
ARC
  5
9C5D
330
9AA0
100
AcDbEntity
  8
1
  6
Continuous
100
AcDbCircle
 10
183.7992131652151
 20
74.09326555902021
 30
0.0
 40
30.0
100
AcDbArc
 50
217.2256417108181
 51
268.7861321683251
  0
ARC
  5
9C5E
330
9AA0
100
AcDbEntity
  8
1
  6
Continuous
100
AcDbCircle
 10
152.7451019999998
 20
50.5
 30
0.0
 40
9.0
100
AcDbArc
 50
37.22564171081813
 51
131.8632999599627
  0
ARC
  5
9C5F
330
9AA0
100
AcDbEntity
  8
1
  6
Continuous
100
AcDbCircle
 10
165.1875621806901
 20
49.30200807517685
 30
0.0
 40
1.0
100
AcDbArc
 50
53.10318018028746
 51
174.500368304502
  0
LINE
  5
9C60
330
9AA0
100
AcDbEntity
  8
1
  6
Continuous
100
AcDbLine
 10
267.4901729999999
 20
212.058823
 30
0.0
 11
267.4901729999999
 21
210.5588229999999
 31
0.0
  0
LINE
  5
9C61
330
9AA0
100
AcDbEntity
  8
1
  6
Continuous
100
AcDbLine
 10
267.4901729999999
 20
150.5588229999998
 30
0.0
 11
267.4901729999999
 21
149.058823
 31
0.0
  0
LINE
  5
9C62
330
9AA0
100
AcDbEntity
  8
1
  6
Continuous
100
AcDbLine
 10
42.5
 20
192.0588229999999
 30
0.0
 11
42.5
 21
169.0588229999999
 31
0.0
  0
LINE
  5
9C63
330
9AA0
100
AcDbEntity
  8
1
  6
Continuous
100
AcDbLine
 10
43.5
 20
168.0588229999998
 30
0.0
 11
43.5
 21
150.5588229999998
 31
0.0
  0
ARC
  5
9C64
330
9AA0
100
AcDbEntity
  8
1
  6
Continuous
100
AcDbCircle
 10
43.5
 20
169.0588229999999
 30
0.0
 40
1.0
100
AcDbArc
 50
180.0
 51
270.0000029999998
  0
LINE
  5
9C65
330
9AA0
100
AcDbEntity
  8
1
  6
Continuous
100
AcDbLine
 10
43.5
 20
210.5588229999999
 30
0.0
 11
43.5
 21
193.0588229999999
 31
0.0
  0
ARC
  5
9C66
330
9AA0
100
AcDbEntity
  8
1
  6
Continuous
100
AcDbCircle
 10
43.5
 20
192.0588229999999
 30
0.0
 40
1.0
100
AcDbArc
 50
89.99999700000001
 51
180.0
  0
LINE
  5
9C67
330
9AA0
100
AcDbEntity
  8
5
  6
PHANTOM
100
AcDbLine
 10
150.335342
 20
269.575669
 30
0.0
 11
144.6049649999999
 21
302.0743259999999
 31
0.0
  0
LINE
  5
9C68
330
9AA0
100
AcDbEntity
  8
5
  6
PHANTOM
100
AcDbLine
 10
154.683029
 20
280.49656
 30
0.0
 11
161.0379489999999
 21
308.7525339999999
 31
0.0
  0
ARC
  5
9C69
330
9AA0
100
AcDbEntity
  8
1
  6
Continuous
100
AcDbCircle
 10
183.7992131652151
 20
287.0243804409797
 30
0.0
 40
30.0
100
AcDbArc
 50
91.21386783167469
 51
142.7743582891818
  0
LINE
  5
9C6A
330
9AA0
100
AcDbEntity
  8
1
  6
Continuous
100
AcDbLine
 10
146.745087
 20
319.6176459999999
 30
0.0
 11
192.745102
 21
319.6176459999999
 31
0.0
  0
LINE
  5
9C6B
330
9AA0
100
AcDbEntity
  8
1
  6
Continuous
100
AcDbLine
 10
112.7450939999999
 20
319.6176459999999
 30
0.0
 11
145.745087
 21
319.6176459999999
 31
0.0
  0
LINE
  5
9C6C
330
9AA0
100
AcDbEntity
  8
1
  6
Continuous
100
AcDbLine
 10
122.7451019999999
 20
313.9396289999999
 30
0.0
 11
149.4682919999999
 21
302.774651
 31
0.0
  0
LINE
  5
9C6D
330
9AA0
100
AcDbEntity
  8
1
  6
Continuous
100
AcDbLine
 10
112.7450939999999
 20
318.1176459999999
 30
0.0
 11
122.7450939999999
 21
318.1176459999999
 31
0.0
  0
LINE
  5
9C6E
330
9AA0
100
AcDbEntity
  8
4
  6
CENTER
100
AcDbLine
 10
118.7450939999999
 20
316.6176459999999
 30
0.0
 11
118.7450939999999
 21
321.6176459999999
 31
0.0
  0
LINE
  5
9C6F
330
9AA0
100
AcDbEntity
  8
1
  6
Continuous
100
AcDbLine
 10
112.7450939999999
 20
318.1176459999999
 30
0.0
 11
112.7450939999999
 21
319.6176459999999
 31
0.0
  0
LINE
  5
9C70
330
9AA0
100
AcDbEntity
  8
1
  6
Continuous
100
AcDbLine
 10
122.7450939999999
 20
313.9396329999997
 30
0.0
 11
122.7450939999999
 21
319.6176459999999
 31
0.0
  0
ARC
  5
9C71
330
9AA0
100
AcDbEntity
  8
1
  6
Continuous
100
AcDbCircle
 10
152.7451019999998
 20
310.6176459999999
 30
0.0
 40
9.0
100
AcDbArc
 50
228.1367000400368
 51
322.7743582891818
  0
ARC
  5
9C72
330
9AA0
100
AcDbEntity
  8
1
  6
Continuous
100
AcDbCircle
 10
152.7451019999998
 20
310.6176459999999
 30
0.0
 40
8.5
100
AcDbArc
 50
247.324773
 51
122.6368929999999
  0
ARC
  5
9C73
330
9AA0
100
AcDbEntity
  8
1
  6
Continuous
100
AcDbCircle
 10
152.7451019999998
 20
310.6176459999999
 30
0.0
 40
3.049999999999998
100
AcDbArc
 50
91.76823599999996
 51
176.2317619999999
  0
ARC
  5
9C74
330
9AA0
100
AcDbEntity
  8
5
  6
PHANTOM
100
AcDbCircle
 10
152.7451019999998
 20
310.6176459999999
 30
0.0
 40
8.5
100
AcDbArc
 50
347.3247709999998
 51
222.636891
  0
LINE
  5
9C75
330
9AA0
100
AcDbEntity
  8
4
  6
CENTER
100
AcDbLine
 10
165.2451019999998
 20
310.6176459999999
 30
0.0
 11
140.2451019999998
 21
310.6176459999999
 31
0.0
  0
LINE
  5
9C76
330
9AA0
100
AcDbEntity
  8
1
  6
Continuous
100
AcDbLine
 10
149.7016909999999
 20
310.818105
 30
0.0
 11
152.8392179999999
 21
307.5690999999999
 31
0.0
  0
LINE
  5
9C77
330
9AA0
100
AcDbEntity
  8
4
  6
CENTER
100
AcDbLine
 10
136.745087
 20
315.517648
 30
0.0
 11
136.745087
 21
321.6176459999999
 31
0.0
  0
ARC
  5
9C78
330
9AA0
100
AcDbEntity
  8
1
  6
Continuous
100
AcDbCircle
 10
146.745087
 20
318.6176459999999
 30
0.0
 40
1.0
100
AcDbArc
 50
179.9999949999999
 51
269.9999969999999
  0
LINE
  5
9C79
330
9AA0
100
AcDbEntity
  8
1
  6
Continuous
100
AcDbLine
 10
145.745087
 20
318.6176459999999
 30
0.0
 11
145.745087
 21
319.6176459999999
 31
0.0
  0
ARC
  5
9C7A
330
9AA0
100
AcDbEntity
  8
1
  6
Continuous
100
AcDbCircle
 10
147.621613
 20
318.6176459999999
 30
0.0
 40
1.0
100
AcDbArc
 50
269.9999969999999
 51
302.6368949999999
  0
LINE
  5
9C7B
330
9AA0
100
AcDbEntity
  8
1
  6
Continuous
100
AcDbLine
 10
146.745087
 20
317.6176459999999
 30
0.0
 11
147.621613
 21
317.6176459999999
 31
0.0
  0
LINE
  5
9C7C
330
9AA0
100
AcDbEntity
  8
1
  6
Continuous
100
AcDbLine
 10
146.745087
 20
317.6176459999999
 30
0.0
 11
146.745087
 21
319.6176459999999
 31
0.0
  0
LINE
  5
9C7D
330
9AA0
100
AcDbEntity
  8
5
  6
PHANTOM
100
AcDbLine
 10
146.893326
 20
303.4932559999999
 30
0.0
 11
146.7411189999999
 21
304.3564649999999
 31
0.0
  0
ARC
  5
9C7E
330
9AA0
100
AcDbEntity
  8
5
  6
PHANTOM
100
AcDbCircle
 10
145.756317
 20
304.182816
 30
0.0
 40
1.0
100
AcDbArc
 50
9.999997000000012
 51
42.63689600000001
  0
LINE
  5
9C7F
330
9AA0
100
AcDbEntity
  8
5
  6
PHANTOM
100
AcDbLine
 10
146.0821689999999
 20
302.334798
 30
0.0
 11
144.6049649999999
 21
302.0743259999999
 31
0.0
  0
ARC
  5
9C80
330
9AA0
100
AcDbEntity
  8
5
  6
PHANTOM
100
AcDbCircle
 10
145.908524
 20
303.3196079999999
 30
0.0
 40
1.0
100
AcDbArc
 50
279.999995
 51
9.999997000000012
  0
LINE
  5
9C81
330
9AA0
100
AcDbEntity
  8
4
  6
CENTER
100
AcDbLine
 10
152.7451019999998
 20
298.117646
 30
0.0
 11
152.7451019999998
 21
323.1176459999999
 31
0.0
  0
LINE
  5
9C82
330
9AA0
100
AcDbEntity
  8
1
  6
Continuous
100
AcDbLine
 10
152.6509859999999
 20
313.666203
 30
0.0
 11
155.788513
 21
310.4171989999999
 31
0.0
  0
ARC
  5
9C83
330
9AA0
100
AcDbEntity
  8
1
  6
Continuous
100
AcDbCircle
 10
152.7451019999998
 20
310.6176459999999
 30
0.0
 40
11.5
100
AcDbArc
 50
5.499631695497966
 51
39.79181800000002
  0
LINE
  5
9C84
330
9AA0
100
AcDbEntity
  8
4
  6
CENTER
100
AcDbLine
 10
168.745102
 20
315.517648
 30
0.0
 11
168.745102
 21
321.6176459999999
 31
0.0
  0
ARC
  5
9C85
330
9AA0
100
AcDbEntity
  8
1
  6
Continuous
100
AcDbCircle
 10
162.3497919999998
 20
318.6176459999999
 30
0.0
 40
1.0
100
AcDbArc
 50
89.99999900000004
 51
219.7918159999999
  0
ARC
  5
9C86
330
9AA0
100
AcDbEntity
  8
1
  6
Continuous
100
AcDbCircle
 10
165.1875621806901
 20
311.815637924823
 30
0.0
 40
1.0
100
AcDbArc
 50
185.499631695498
 51
306.8968198197125
  0
ARC
  5
9C87
330
9AA0
100
AcDbEntity
  8
1
  6
Continuous
100
AcDbCircle
 10
152.7451019999998
 20
310.6176459999999
 30
0.0
 40
3.049999999999998
100
AcDbArc
 50
271.7682379999998
 51
356.2317619999997
  0
LINE
  5
9C88
330
9AA0
100
AcDbEntity
  8
1
  6
Continuous
100
AcDbLine
 10
183.163681
 20
317.017648
 30
0.0
 11
192.745102
 21
317.017648
 31
0.0
  0
LINE
  5
9C89
330
9AA0
100
AcDbEntity
  8
4
  6
CENTER
100
AcDbLine
 10
186.745102
 20
315.517648
 30
0.0
 11
186.745102
 21
321.6176459999999
 31
0.0
  0
LINE
  5
9C8A
330
9AA0
100
AcDbEntity
  8
1
  6
Continuous
100
AcDbLine
 10
192.745102
 20
317.017648
 30
0.0
 11
192.745102
 21
319.6176459999999
 31
0.0
  0
LINE
  5
9C8B
330
9AA0
100
AcDbEntity
  8
5
  6
PHANTOM
100
AcDbLine
 10
152.3049619999999
 20
269.9229669999999
 30
0.0
 11
150.5684809999999
 21
279.7710429999999
 31
0.0
  0
LINE
  5
9C8C
330
9AA0
100
AcDbEntity
  8
5
  6
PHANTOM
100
AcDbLine
 10
154.683029
 20
280.496552
 30
0.0
 11
150.5684809999999
 21
279.7710429999999
 31
0.0
  0
LINE
  5
9C8D
330
9AA0
100
AcDbEntity
  8
5
  6
PHANTOM
100
AcDbLine
 10
152.3049619999999
 20
269.9229669999999
 30
0.0
 11
150.335342
 21
269.575669
 31
0.0
  0
LINE
  5
9C8E
330
9AA0
100
AcDbEntity
  8
1
  6
Continuous
100
AcDbLine
 10
164.1921653662348
 20
149.058823
 30
0.0
 11
164.1921653662348
 21
150.5588229999998
 31
0.0
  0
LINE
  5
9C8F
330
9AA0
100
AcDbEntity
  8
1
  6
Continuous
100
AcDbLine
 10
164.1921653662348
 20
212.058823
 30
0.0
 11
164.1921653662348
 21
210.5588229999999
 31
0.0
  0
LINE
  5
9C90
330
9AA0
100
AcDbEntity
  8
1
  6
Continuous
100
AcDbLine
 10
122.7450939999999
 20
210.5588229999999
 30
0.0
 11
164.1921653662348
 21
210.5588229999999
 31
0.0
  0
LINE
  5
9C91
330
9AA0
100
AcDbEntity
  8
1
  6
Continuous
100
AcDbLine
 10
401.4830329999998
 20
212.058823
 30
0.0
 11
401.4830329999998
 21
210.5588229999999
 31
0.0
  0
LINE
  5
9C92
330
9AA0
100
AcDbEntity
  8
1
  6
Continuous
100
AcDbLine
 10
401.4830329999998
 20
150.5588229999998
 30
0.0
 11
401.4830329999998
 21
149.058823
 31
0.0
  0
ENDSEC
  0
SECTION
  2
OBJECTS
  0
DICTIONARY
  5
9A8E
330
0
100
AcDbDictionary
281
     1
  3
ACAD_CIP_PREVIOUS_PRODUCT_INFO
350
9CF8
  3
ACAD_COLOR
350
9CDA
  3
ACAD_DETAILVIEWSTYLE
350
9CF3
  3
ACAD_GROUP
350
9A8F
  3
ACAD_LAYOUT
350
9A9B
  3
ACAD_MATERIAL
350
9CA8
  3
ACAD_MLEADERSTYLE
350
9CEF
  3
ACAD_MLINESTYLE
350
9A98
  3
ACAD_PLOTSETTINGS
350
9A9A
  3
ACAD_PLOTSTYLENAME
350
9CA6
  3
ACAD_SCALELIST
350
9CDD
  3
ACAD_SECTIONVIEWSTYLE
350
9CF1
  3
ACAD_TABLESTYLE
350
9CDB
  3
ACAD_VISUALSTYLE
350
9CC1
  3
ACDB_RECOMPOSE_DATA
350
9D16
  3
AcDbVariableDictionary
350
9D09
  3
DWGPROPS
350
9D17
  0
DICTIONARY
  5
9CF9
330
9A92
100
AcDbDictionary
280
     1
281
     1
  3
ADSK_XREC_LAYER_RECONCILED
360
9CFA
  0
DICTIONARY
  5
9CFB
330
9AA8
100
AcDbDictionary
280
     1
281
     1
  3
ADSK_XREC_LAYER_RECONCILED
360
9CFC
  0
DICTIONARY
  5
9CFD
330
9AA9
100
AcDbDictionary
280
     1
281
     1
  3
ADSK_XREC_LAYER_RECONCILED
360
9CFE
  0
DICTIONARY
  5
9CFF
330
9AAA
100
AcDbDictionary
280
     1
281
     1
  3
ADSK_XREC_LAYER_RECONCILED
360
9D00
  0
DICTIONARY
  5
9D01
330
9AAB
100
AcDbDictionary
280
     1
281
     1
  3
ADSK_XREC_LAYER_RECONCILED
360
9D02
  0
DICTIONARY
  5
9D03
330
9AAC
100
AcDbDictionary
280
     1
281
     1
  3
ADSK_XREC_LAYER_RECONCILED
360
9D04
  0
DICTIONARY
  5
9D05
330
9AAD
100
AcDbDictionary
280
     1
281
     1
  3
ADSK_XREC_LAYER_RECONCILED
360
9D06
  0
DICTIONARY
  5
9D07
330
9AAE
100
AcDbDictionary
280
     1
281
     1
  3
ADSK_XREC_LAYER_RECONCILED
360
9D08
  0
DICTIONARY
  5
9CA1
330
9AA0
100
AcDbDictionary
281
     1
  3
ACAD_LAYOUTSELFREF
350
9CA2
  0
DICTIONARY
  5
9C9F
330
9A9C
100
AcDbDictionary
281
     1
  3
ACAD_LAYOUTSELFREF
350
9CA0
  0
XRECORD
  5
9CF8
102
{ACAD_REACTORS
330
9A8E
102
}
330
9A8E
100
AcDbXrecord
280
     1
300
ACDLT
300
2014
300
ACDLT_F_S
  0
DICTIONARY
  5
9CDA
102
{ACAD_REACTORS
330
9A8E
102
}
330
9A8E
100
AcDbDictionary
281
     1
  0
DICTIONARY
  5
9CF3
102
{ACAD_REACTORS
330
9A8E
102
}
330
9A8E
100
AcDbDictionary
281
     1
  3
Imperial24
350
9CF4
  0
DICTIONARY
  5
9A8F
102
{ACAD_REACTORS
330
9A8E
102
}
330
9A8E
100
AcDbDictionary
281
     1
  0
DICTIONARY
  5
9A9B
102
{ACAD_REACTORS
330
9A8E
102
}
330
9A8E
100
AcDbDictionary
281
     1
  3
Model
350
9CF5
  3
レイアウト1
350
9CF6
  0
DICTIONARY
  5
9CA8
102
{ACAD_REACTORS
330
9A8E
102
}
330
9A8E
100
AcDbDictionary
281
     1
  3
ByBlock
350
9CB1
  3
ByLayer
350
9CA9
  3
Global
350
9CB9
  0
DICTIONARY
  5
9CEF
102
{ACAD_REACTORS
330
9A8E
102
}
330
9A8E
100
AcDbDictionary
281
     1
  3
Standard
350
9CF0
  0
DICTIONARY
  5
9A98
102
{ACAD_REACTORS
330
9A8E
102
}
330
9A8E
100
AcDbDictionary
281
     1
  3
STANDARD
350
9A99
  0
DICTIONARY
  5
9A9A
102
{ACAD_REACTORS
330
9A8E
102
}
330
9A8E
100
AcDbDictionary
281
     1
  0
ACDBDICTIONARYWDFLT
  5
9CA6
102
{ACAD_REACTORS
330
9A8E
102
}
330
9A8E
100
AcDbDictionary
281
     1
  3
Normal
350
9CA7
100
AcDbDictionaryWithDefault
340
9CA7
  0
DICTIONARY
  5
9CDD
102
{ACAD_REACTORS
330
9A8E
102
}
330
9A8E
100
AcDbDictionary
281
     1
  3
A0
350
9CDE
  3
A1
350
9CDF
  3
A2
350
9CE0
  3
A3
350
9CE1
  3
A4
350
9CE2
  3
A5
350
9CE3
  3
A6
350
9CE4
  3
A7
350
9CE5
  3
A8
350
9CE6
  3
A9
350
9CE7
  3
B0
350
9CE8
  3
B1
350
9CE9
  3
B2
350
9CEA
  3
B3
350
9CEB
  3
B4
350
9CEC
  3
B5
350
9CED
  3
B6
350
9CEE
  0
DICTIONARY
  5
9CF1
102
{ACAD_REACTORS
330
9A8E
102
}
330
9A8E
100
AcDbDictionary
281
     1
  3
Imperial24
350
9CF2
  0
DICTIONARY
  5
9CDB
102
{ACAD_REACTORS
330
9A8E
102
}
330
9A8E
100
AcDbDictionary
281
     1
  3
Standard
350
9CDC
  0
DICTIONARY
  5
9CC1
102
{ACAD_REACTORS
330
9A8E
102
}
330
9A8E
100
AcDbDictionary
281
     1
  3
2dWireframe
350
9CC7
  3
Basic
350
9CC6
  3
Brighten
350
9CCD
  3
ColorChange
350
9CD1
  3
Conceptual
350
9CCA
  3
Dim
350
9CCC
  3
EdgeColorOff
350
9CD9
  3
Facepattern
350
9CD0
  3
Flat
350
9CC2
  3
FlatWithEdges
350
9CC3
  3
Gouraud
350
9CC4
  3
GouraudWithEdges
350
9CC5
  3
Hidden
350
9CC9
  3
JitterOff
350
9CD7
  3
Linepattern
350
9CCF
  3
OverhangOff
350
9CD8
  3
Realistic
350
9CCB
  3
Shaded
350
9CD6
  3
Shaded with edges
350
9CD5
  3
Shades of Gray
350
9CD2
  3
Sketchy
350
9CD3
  3
Thicken
350
9CCE
  3
Wireframe
350
9CC8
  3
X-Ray
350
9CD4
  0
XRECORD
  5
9D16
102
{ACAD_REACTORS
330
9A8E
102
}
330
9A8E
100
AcDbXrecord
280
     1
 90
        1
330
9CDC
  0
DICTIONARY
  5
9D09
102
{ACAD_REACTORS
330
9A8E
102
}
330
9A8E
100
AcDbDictionary
281
     1
  3
CANNOSCALE
350
9D0E
  3
CMLEADERSTYLE
350
9D0B
  3
CTABLESTYLE
350
9D0A
  3
CVIEWDETAILSTYLE
350
9D0C
  3
CVIEWSECTIONSTYLE
350
9D0D
  3
DIMASSOC
350
9D11
  3
INDEXCTL
350
9D10
  3
SORTENTS
350
9D0F
  3
XCLIPFRAME
350
9D12
  0
XRECORD
  5
9D17
102
{ACAD_REACTORS
330
9A8E
102
}
330
9A8E
100
AcDbXrecord
280
     1
  1
DWGPROPS COOKIE
  2

  3

  4

  6

  7

  8
Yoshitsune
  9

300
=
301
=
302
=
303
=
304
=
305
=
306
=
307
=
308
=
309
=
 40
0.0129938425925926
 41
2451059.383682523
 42
2457192.616215671
  1

 90
        0
  0
XRECORD
  5
9CFA
102
{ACAD_REACTORS
330
9CF9
102
}
330
9CF9
100
AcDbXrecord
280
     1
290
     1
  0
XRECORD
  5
9CFC
102
{ACAD_REACTORS
330
9CFB
102
}
330
9CFB
100
AcDbXrecord
280
     1
290
     1
  0
XRECORD
  5
9CFE
102
{ACAD_REACTORS
330
9CFD
102
}
330
9CFD
100
AcDbXrecord
280
     1
290
     1
  0
XRECORD
  5
9D00
102
{ACAD_REACTORS
330
9CFF
102
}
330
9CFF
100
AcDbXrecord
280
     1
290
     1
  0
XRECORD
  5
9D02
102
{ACAD_REACTORS
330
9D01
102
}
330
9D01
100
AcDbXrecord
280
     1
290
     1
  0
XRECORD
  5
9D04
102
{ACAD_REACTORS
330
9D03
102
}
330
9D03
100
AcDbXrecord
280
     1
290
     1
  0
XRECORD
  5
9D06
102
{ACAD_REACTORS
330
9D05
102
}
330
9D05
100
AcDbXrecord
280
     1
290
     1
  0
XRECORD
  5
9D08
102
{ACAD_REACTORS
330
9D07
102
}
330
9D07
100
AcDbXrecord
280
     1
290
     1
  0
XRECORD
  5
9CA2
102
{ACAD_REACTORS
330
9CA1
102
}
330
9CA1
100
AcDbXrecord
280
     1
340
9AA0
  0
XRECORD
  5
9CA0
102
{ACAD_REACTORS
330
9C9F
102
}
330
9C9F
100
AcDbXrecord
280
     1
340
9A9C
  0
ACDBDETAILVIEWSTYLE
  5
9CF4
102
{ACAD_XDICTIONARY
360
9D4F
102
}
102
{ACAD_REACTORS
330
9CF3
102
}
330
9CF3
100
AcDbModelDocViewStyle
 70
     0
  3
Imperial24
290
     0
100
AcDbDetailViewStyle
 70
     0
 71
     0
 90
        3
 71
     1
340
9A93
 40
0.24
340
0
 40
0.24
300

 40
0.36
280
     3
 71
     2
340
9A97
 90
       25
 71
     3
340
9A93
 40
0.24
 90
        1
 40
0.75
 90
        1
300
%<\AcVar ViewType \f "%tc1">% %<\AcVar ViewDetailId>%\PSCALE %<\AcVar ViewScale \f "%sn">%
 71
     4
340
9A97
 90
       25
340
9A97
 90
       25
280
     0
  0
LAYOUT
  5
9CF5
102
{ACAD_XDICTIONARY
360
9D51
102
}
102
{ACAD_REACTORS
330
9A9B
102
}
330
9A9B
100
AcDbPlotSettings
  1

  2
Canon LBP9100C
  4

  6

 40
0.0
 41
0.0
 42
0.0
 43
0.0
 44
0.0
 45
0.0
 46
0.0
 47
0.0
 48
0.0
 49
0.0
140
0.0
141
0.0
142
1.0
143
1.0
 70
  1712
 72
     0
 73
     0
 74
     0
  7

 75
     0
147
1.0
148
0.0
149
0.0
100
AcDbLayout
  1
Model
 70
     1
 71
     0
 10
0.0
 20
0.0
 11
12.0
 21
9.0
 12
0.0
 22
0.0
 32
0.0
 14
0.0
 24
0.0
 34
0.0
 15
0.0
 25
0.0
 35
0.0
146
0.0
 13
0.0
 23
0.0
 33
0.0
 16
1.0
 26
0.0
 36
0.0
 17
0.0
 27
1.0
 37
0.0
 76
     0
330
9AA0
331
9C9E
  0
LAYOUT
  5
9CF6
102
{ACAD_XDICTIONARY
360
9D53
102
}
102
{ACAD_REACTORS
330
9A9B
102
}
330
9A9B
100
AcDbPlotSettings
  1

  2
Canon LBP9100C
  4

  6

 40
0.0
 41
0.0
 42
0.0
 43
0.0
 44
0.0
 45
0.0
 46
0.0
 47
0.0
 48
0.0
 49
0.0
140
0.0
141
0.0
142
1.0
143
1.0
 70
   688
 72
     0
 73
     0
 74
     5
  7

 75
    16
147
1.0
148
0.0
149
0.0
100
AcDbLayout
  1
レイアウト1
 70
     0
 71
     1
 10
0.0
 20
0.0
 11
420.0
 21
297.0
 12
0.0
 22
0.0
 32
0.0
 14
1.000000000000000E+20
 24
1.000000000000000E+20
 34
1.000000000000000E+20
 15
-1.000000000000000E+20
 25
-1.000000000000000E+20
 35
-1.000000000000000E+20
146
0.0
 13
0.0
 23
0.0
 33
0.0
 16
1.0
 26
0.0
 36
0.0
 17
0.0
 27
1.0
 37
0.0
 76
     0
330
9A9C
  0
MATERIAL
  5
9CB1
102
{ACAD_XDICTIONARY
360
9CB2
102
}
102
{ACAD_REACTORS
330
9CA8
102
}
330
9CA8
100
AcDbMaterial
  1
ByBlock
 72
     0
 43
0.0208333333333333
 43
0.0
 43
0.0
 43
0.0
 43
0.0
 43
0.0208333333333333
 43
0.0
 43
0.0
 43
0.0
 43
0.0
 43
1.0
 43
0.0
 43
0.0
 43
0.0
 43
0.0
 43
1.0
 77
     0
 47
0.0208333333333333
 47
0.0
 47
0.0
 47
0.0
 47
0.0
 47
0.0208333333333333
 47
0.0
 47
0.0
 47
0.0
 47
0.0
 47
1.0
 47
0.0
 47
0.0
 47
0.0
 47
0.0
 47
1.0
171
     0
 49
0.0208333333333333
 49
0.0
 49
0.0
 49
0.0
 49
0.0
 49
0.0208333333333333
 49
0.0
 49
0.0
 49
0.0
 49
0.0
 49
1.0
 49
0.0
 49
0.0
 49
0.0
 49
0.0
 49
1.0
175
     0
142
0.0208333333333333
142
0.0
142
0.0
142
0.0
142
0.0
142
0.0208333333333333
142
0.0
142
0.0
142
0.0
142
0.0
142
1.0
142
0.0
142
0.0
142
0.0
142
0.0
142
1.0
179
     0
144
0.0208333333333333
144
0.0
144
0.0
144
0.0
144
0.0
144
0.0208333333333333
144
0.0
144
0.0
144
0.0
144
0.0
144
1.0
144
0.0
144
0.0
144
0.0
144
0.0
144
1.0
147
0.0208333333333333
147
0.0
147
0.0
147
0.0
147
0.0
147
0.0208333333333333
147
0.0
147
0.0
147
0.0
147
0.0
147
1.0
147
0.0
147
0.0
147
0.0
147
0.0
147
1.0
  0
MATERIAL
  5
9CA9
102
{ACAD_XDICTIONARY
360
9CAA
102
}
102
{ACAD_REACTORS
330
9CA8
102
}
330
9CA8
100
AcDbMaterial
  1
ByLayer
 72
     0
 43
0.0208333333333333
 43
0.0
 43
0.0
 43
0.0
 43
0.0
 43
0.0208333333333333
 43
0.0
 43
0.0
 43
0.0
 43
0.0
 43
1.0
 43
0.0
 43
0.0
 43
0.0
 43
0.0
 43
1.0
 77
     0
 47
0.0208333333333333
 47
0.0
 47
0.0
 47
0.0
 47
0.0
 47
0.0208333333333333
 47
0.0
 47
0.0
 47
0.0
 47
0.0
 47
1.0
 47
0.0
 47
0.0
 47
0.0
 47
0.0
 47
1.0
171
     0
 49
0.0208333333333333
 49
0.0
 49
0.0
 49
0.0
 49
0.0
 49
0.0208333333333333
 49
0.0
 49
0.0
 49
0.0
 49
0.0
 49
1.0
 49
0.0
 49
0.0
 49
0.0
 49
0.0
 49
1.0
175
     0
142
0.0208333333333333
142
0.0
142
0.0
142
0.0
142
0.0
142
0.0208333333333333
142
0.0
142
0.0
142
0.0
142
0.0
142
1.0
142
0.0
142
0.0
142
0.0
142
0.0
142
1.0
179
     0
144
0.0208333333333333
144
0.0
144
0.0
144
0.0
144
0.0
144
0.0208333333333333
144
0.0
144
0.0
144
0.0
144
0.0
144
1.0
144
0.0
144
0.0
144
0.0
144
0.0
144
1.0
147
0.0208333333333333
147
0.0
147
0.0
147
0.0
147
0.0
147
0.0208333333333333
147
0.0
147
0.0
147
0.0
147
0.0
147
1.0
147
0.0
147
0.0
147
0.0
147
0.0
147
1.0
  0
MATERIAL
  5
9CB9
102
{ACAD_XDICTIONARY
360
9CBA
102
}
102
{ACAD_REACTORS
330
9CA8
102
}
330
9CA8
100
AcDbMaterial
  1
Global
 72
     0
 43
0.0208333333333333
 43
0.0
 43
0.0
 43
0.0
 43
0.0
 43
0.0208333333333333
 43
0.0
 43
0.0
 43
0.0
 43
0.0
 43
1.0
 43
0.0
 43
0.0
 43
0.0
 43
0.0
 43
1.0
 77
     0
 47
0.0208333333333333
 47
0.0
 47
0.0
 47
0.0
 47
0.0
 47
0.0208333333333333
 47
0.0
 47
0.0
 47
0.0
 47
0.0
 47
1.0
 47
0.0
 47
0.0
 47
0.0
 47
0.0
 47
1.0
171
     0
 49
0.0208333333333333
 49
0.0
 49
0.0
 49
0.0
 49
0.0
 49
0.0208333333333333
 49
0.0
 49
0.0
 49
0.0
 49
0.0
 49
1.0
 49
0.0
 49
0.0
 49
0.0
 49
0.0
 49
1.0
175
     0
142
0.0208333333333333
142
0.0
142
0.0
142
0.0
142
0.0
142
0.0208333333333333
142
0.0
142
0.0
142
0.0
142
0.0
142
1.0
142
0.0
142
0.0
142
0.0
142
0.0
142
1.0
179
     0
144
0.0208333333333333
144
0.0
144
0.0
144
0.0
144
0.0
144
0.0208333333333333
144
0.0
144
0.0
144
0.0
144
0.0
144
1.0
144
0.0
144
0.0
144
0.0
144
0.0
144
1.0
147
0.0208333333333333
147
0.0
147
0.0
147
0.0
147
0.0
147
0.0208333333333333
147
0.0
147
0.0
147
0.0
147
0.0
147
1.0
147
0.0
147
0.0
147
0.0
147
0.0
147
1.0
  0
MLEADERSTYLE
  5
9CF0
102
{ACAD_REACTORS
330
9CEF
102
}
330
9CEF
100
AcDbMLeaderStyle
170
     2
171
     1
172
     0
 90
        2
 40
0.0
 41
0.0
173
     1
 91
-1056964608
340
9A95
 92
       -2
290
     1
 42
0.09
291
     1
 43
0.36
  3
Standard
 44
0.18
300

342
9A93
174
     1
178
     6
175
     1
176
     0
 93
-1056964608
 45
0.18
292
     0
297
     0
 46
0.18
 94
-1056964608
 47
1.0
 49
1.0
140
1.0
293
     1
141
0.0
294
     1
177
     0
142
1.0
295
     0
296
     0
143
0.125
1001
ACAD_MLEADERVER
1070
     2
  0
MLINESTYLE
  5
9A99
102
{ACAD_REACTORS
330
9A98
102
}
330
9A98
100
AcDbMlineStyle
  2
STANDARD
 70
     0
  3

 62
   256
 51
90.0
 52
90.0
 71
     2
 49
0.5
 62
   256
  6
BYLAYER
 49
-0.5
 62
   256
  6
BYLAYER
  0
ACDBPLACEHOLDER
  5
9CA7
102
{ACAD_REACTORS
330
9CA6
102
}
330
9CA6
  0
SCALE
  5
9CDE
102
{ACAD_REACTORS
330
9CDD
102
}
330
9CDD
100
AcDbScale
 70
     0
300
1:1
140
1.0
141
1.0
290
     1
  0
SCALE
  5
9CDF
102
{ACAD_REACTORS
330
9CDD
102
}
330
9CDD
100
AcDbScale
 70
     0
300
1/128" = 1'-0"
140
0.0078125
141
12.0
290
     0
  0
SCALE
  5
9CE0
102
{ACAD_REACTORS
330
9CDD
102
}
330
9CDD
100
AcDbScale
 70
     0
300
1/64" = 1'-0"
140
0.015625
141
12.0
290
     0
  0
SCALE
  5
9CE1
102
{ACAD_REACTORS
330
9CDD
102
}
330
9CDD
100
AcDbScale
 70
     0
300
1/32" = 1'-0"
140
0.03125
141
12.0
290
     0
  0
SCALE
  5
9CE2
102
{ACAD_REACTORS
330
9CDD
102
}
330
9CDD
100
AcDbScale
 70
     0
300
1/16" = 1'-0"
140
0.0625
141
12.0
290
     0
  0
SCALE
  5
9CE3
102
{ACAD_REACTORS
330
9CDD
102
}
330
9CDD
100
AcDbScale
 70
     0
300
3/32" = 1'-0"
140
0.09375
141
12.0
290
     0
  0
SCALE
  5
9CE4
102
{ACAD_REACTORS
330
9CDD
102
}
330
9CDD
100
AcDbScale
 70
     0
300
1/8" = 1'-0"
140
0.125
141
12.0
290
     0
  0
SCALE
  5
9CE5
102
{ACAD_REACTORS
330
9CDD
102
}
330
9CDD
100
AcDbScale
 70
     0
300
3/16" = 1'-0"
140
0.1875
141
12.0
290
     0
  0
SCALE
  5
9CE6
102
{ACAD_REACTORS
330
9CDD
102
}
330
9CDD
100
AcDbScale
 70
     0
300
1/4" = 1'-0"
140
0.25
141
12.0
290
     0
  0
SCALE
  5
9CE7
102
{ACAD_REACTORS
330
9CDD
102
}
330
9CDD
100
AcDbScale
 70
     0
300
3/8" = 1'-0"
140
0.375
141
12.0
290
     0
  0
SCALE
  5
9CE8
102
{ACAD_REACTORS
330
9CDD
102
}
330
9CDD
100
AcDbScale
 70
     0
300
1/2" = 1'-0"
140
0.5
141
12.0
290
     0
  0
SCALE
  5
9CE9
102
{ACAD_REACTORS
330
9CDD
102
}
330
9CDD
100
AcDbScale
 70
     0
300
3/4" = 1'-0"
140
0.75
141
12.0
290
     0
  0
SCALE
  5
9CEA
102
{ACAD_REACTORS
330
9CDD
102
}
330
9CDD
100
AcDbScale
 70
     0
300
1" = 1'-0"
140
1.0
141
12.0
290
     0
  0
SCALE
  5
9CEB
102
{ACAD_REACTORS
330
9CDD
102
}
330
9CDD
100
AcDbScale
 70
     0
300
1-1/2" = 1'-0"
140
1.5
141
12.0
290
     0
  0
SCALE
  5
9CEC
102
{ACAD_REACTORS
330
9CDD
102
}
330
9CDD
100
AcDbScale
 70
     0
300
3" = 1'-0"
140
3.0
141
12.0
290
     0
  0
SCALE
  5
9CED
102
{ACAD_REACTORS
330
9CDD
102
}
330
9CDD
100
AcDbScale
 70
     0
300
6" = 1'-0"
140
6.0
141
12.0
290
     0
  0
SCALE
  5
9CEE
102
{ACAD_REACTORS
330
9CDD
102
}
330
9CDD
100
AcDbScale
 70
     0
300
1'-0" = 1'-0"
140
12.0
141
12.0
290
     0
  0
ACDBSECTIONVIEWSTYLE
  5
9CF2
102
{ACAD_XDICTIONARY
360
9D4D
102
}
102
{ACAD_REACTORS
330
9CF1
102
}
330
9CF1
100
AcDbModelDocViewStyle
 70
     0
  3
Imperial24
290
     0
100
AcDbSectionViewStyle
 70
     0
 71
     0
 90
       78
 71
     1
340
9A93
 40
0.24
340
0
340
0
 40
0.24
300
I, O, Q, S, X, Z
 40
0.48
 90
        3
 40
0.18
 90
        1
 71
     2
340
9A97
 90
       25
340
9A97
 90
       50
 40
0.24
 40
0.0
 40
0.24
 71
     3
340
9A93
 40
0.24
 90
        1
 40
0.75
 90
        1
300
%<\AcVar ViewType \f "%tc1">% %<\AcVar ViewSectionStartId>%-%<\AcVar ViewSectionEndId>%\PSCALE %<\AcVar ViewScale \f "%sn">%
 71
     4
300
ANSI31
 40
1.0
 90
        0
290
     0
290
     0
 90
        6
 40
0.0
 40
1.570796326794896
 40
0.2617993877991494
 40
1.308996938995747
 40
-0.2617993877991494
 40
1.832595714594046
  0
TABLESTYLE
  5
9CDC
102
{ACAD_XDICTIONARY
360
9D14
102
}
102
{ACAD_REACTORS
330
9CDB
102
}
330
9CDB
100
AcDbTableStyle
  3
Standard
 70
     0
 71
     0
 40
0.06
 41
0.06
280
     0
281
     0
  7
STANDARD
140
0.18
170
     2
 62
     0
 63
     7
283
     0
274
    -2
284
     1
 64
     0
275
    -2
285
     1
 65
     0
276
    -2
286
     1
 66
     0
277
    -2
287
     1
 67
     0
278
    -2
288
     1
 68
     0
279
    -2
289
     1
 69
     0
  7
STANDARD
140
0.25
170
     5
 62
     0
 63
     7
283
     0
274
    -2
284
     1
 64
     0
275
    -2
285
     1
 65
     0
276
    -2
286
     1
 66
     0
277
    -2
287
     1
 67
     0
278
    -2
288
     1
 68
     0
279
    -2
289
     1
 69
     0
  7
STANDARD
140
0.18
170
     5
 62
     0
 63
     7
283
     0
274
    -2
284
     1
 64
     0
275
    -2
285
     1
 65
     0
276
    -2
286
     1
 66
     0
277
    -2
287
     1
 67
     0
278
    -2
288
     1
 68
     0
279
    -2
289
     1
 69
     0
  0
VISUALSTYLE
  5
9CC7
102
{ACAD_XDICTIONARY
360
9D25
102
}
102
{ACAD_REACTORS
330
9CC1
102
}
330
9CC1
100
AcDbVisualStyle
  2
2dWireframe
 70
     4
 71
     0
 72
     2
 73
     0
 90
        0
 40
-0.6
 41
-30.0
 62
     5
 63
     7
 74
     1
 91
        4
 64
     7
 65
   257
 75
     1
175
     1
 42
1.0
 92
        0
 66
   257
 43
1.0
 76
     1
 77
     6
 78
     2
 67
     7
 79
     5
170
     0
171
     0
290
     0
174
     0
 93
        1
 44
0.0
173
     0
291
     0
 45
0.0
1001
ACAD
1000
AcDbSavedByObjectVersion
1070
     0
  0
VISUALSTYLE
  5
9CC6
102
{ACAD_XDICTIONARY
360
9D23
102
}
102
{ACAD_REACTORS
330
9CC1
102
}
330
9CC1
100
AcDbVisualStyle
  2
Basic
 70
     7
 71
     1
 72
     0
 73
     1
 90
        0
 40
-0.6
 41
-30.0
 62
     5
 63
     7
 74
     0
 91
        4
 64
     7
 65
   257
 75
     1
175
     1
 42
1.0
 92
        8
 66
     7
 43
1.0
 76
     1
 77
     6
 78
     2
 67
     7
 79
     5
170
     0
171
     0
290
     0
174
     0
 93
        1
 44
0.0
173
     0
291
     1
 45
0.0
1001
ACAD
1000
AcDbSavedByObjectVersion
1070
     0
  0
VISUALSTYLE
  5
9CCD
102
{ACAD_XDICTIONARY
360
9D31
102
}
102
{ACAD_REACTORS
330
9CC1
102
}
330
9CC1
100
AcDbVisualStyle
  2
Brighten
 70
    12
 71
     2
 72
     2
 73
     0
 90
        0
 40
-0.6
 41
-30.0
 62
     5
 63
     7
 74
     1
 91
        4
 64
     7
 65
   257
 75
     1
175
     1
 42
1.0
 92
        8
 66
     7
 43
1.0
 76
     1
 77
     6
 78
     2
 67
     7
 79
     5
170
     0
171
     0
290
     0
174
     0
 93
        1
 44
50.0
173
     0
291
     1
 45
0.0
1001
ACAD
1000
AcDbSavedByObjectVersion
1070
     0
  0
VISUALSTYLE
  5
9CD1
102
{ACAD_XDICTIONARY
360
9D39
102
}
102
{ACAD_REACTORS
330
9CC1
102
}
330
9CC1
100
AcDbVisualStyle
  2
ColorChange
 70
    16
 71
     2
 72
     2
 73
     3
 90
        0
 40
-0.6
 41
-30.0
 62
     5
 63
     8
 74
     1
 91
        4
 64
     7
 65
   257
 75
     1
175
     1
 42
1.0
 92
        8
 66
     8
 43
1.0
 76
     1
 77
     6
 78
     2
 67
     7
 79
     5
170
     0
171
     0
290
     0
174
     0
 93
        1
 44
0.0
173
     0
291
     1
 45
0.0
1001
ACAD
1000
AcDbSavedByObjectVersion
1070
     0
  0
VISUALSTYLE
  5
9CCA
102
{ACAD_XDICTIONARY
360
9D2B
102
}
102
{ACAD_REACTORS
330
9CC1
102
}
330
9CC1
100
AcDbVisualStyle
  2
Conceptual
 70
     9
 71
     3
 72
     2
 73
     0
 90
        0
 40
-0.6
 41
-30.0
 62
     5
 63
     7
 74
     2
 91
        2
 64
     7
 65
   257
 75
     1
175
     1
 42
179.0
 92
        8
 66
     7
 43
1.0
 76
     1
 77
     6
 78
     2
 67
     7
 79
     3
170
     0
171
     0
290
     0
174
     0
 93
        1
 44
0.0
173
     0
291
     0
 45
0.0
1001
ACAD
1000
AcDbSavedByObjectVersion
1070
     0
  0
VISUALSTYLE
  5
9CCC
102
{ACAD_XDICTIONARY
360
9D2F
102
}
102
{ACAD_REACTORS
330
9CC1
102
}
330
9CC1
100
AcDbVisualStyle
  2
Dim
 70
    11
 71
     2
 72
     2
 73
     0
 90
        0
 40
-0.6
 41
-30.0
 62
     5
 63
     7
 74
     1
 91
        4
 64
     7
 65
   257
 75
     1
175
     1
 42
1.0
 92
        8
 66
     7
 43
1.0
 76
     1
 77
     6
 78
     2
 67
     7
 79
     5
170
     0
171
     0
290
     0
174
     0
 93
        1
 44
-50.0
173
     0
291
     1
 45
0.0
1001
ACAD
1000
AcDbSavedByObjectVersion
1070
     0
  0
VISUALSTYLE
  5
9CD9
102
{ACAD_XDICTIONARY
360
9D49
102
}
102
{ACAD_REACTORS
330
9CC1
102
}
330
9CC1
100
AcDbVisualStyle
  2
EdgeColorOff
 70
    22
 71
     2
 72
     2
 73
     0
 90
        0
 40
-0.6
 41
-30.0
 62
     5
 63
     7
 74
     1
 91
        4
 64
     7
 65
   257
 75
     1
175
     1
 42
1.0
 92
        8
 66
     7
 43
1.0
 76
     1
 77
     6
 78
     2
 67
     7
 79
     5
170
     0
171
     0
290
     0
174
     0
 93
        1
 44
0.0
173
     0
291
     1
 45
0.0
1001
ACAD
1000
AcDbSavedByObjectVersion
1070
     0
  0
VISUALSTYLE
  5
9CD0
102
{ACAD_XDICTIONARY
360
9D37
102
}
102
{ACAD_REACTORS
330
9CC1
102
}
330
9CC1
100
AcDbVisualStyle
  2
Facepattern
 70
    15
 71
     2
 72
     2
 73
     0
 90
        0
 40
-0.6
 41
-30.0
 62
     5
 63
     7
 74
     1
 91
        4
 64
     7
 65
   257
 75
     1
175
     1
 42
1.0
 92
        8
 66
     7
 43
1.0
 76
     1
 77
     6
 78
     2
 67
     7
 79
     5
170
     0
171
     0
290
     0
174
     0
 93
        1
 44
0.0
173
     0
291
     1
 45
0.0
1001
ACAD
1000
AcDbSavedByObjectVersion
1070
     0
  0
VISUALSTYLE
  5
9CC2
102
{ACAD_XDICTIONARY
360
9D1B
102
}
102
{ACAD_REACTORS
330
9CC1
102
}
330
9CC1
100
AcDbVisualStyle
  2
Flat
 70
     0
 71
     2
 72
     1
 73
     1
 90
        2
 40
-0.6
 41
30.0
 62
     5
 63
     7
 74
     0
 91
        0
 64
     7
 65
   257
 75
     1
175
     1
 42
1.0
 92
        8
 66
     7
 43
1.0
 76
     1
 77
     6
 78
     2
 67
     7
 79
     5
170
     0
171
     0
290
     0
174
     0
 93
       13
 44
0.0
173
     0
291
     1
 45
0.0
1001
ACAD
1000
AcDbSavedByObjectVersion
1070
     0
  0
VISUALSTYLE
  5
9CC3
102
{ACAD_XDICTIONARY
360
9D1D
102
}
102
{ACAD_REACTORS
330
9CC1
102
}
330
9CC1
100
AcDbVisualStyle
  2
FlatWithEdges
 70
     1
 71
     2
 72
     1
 73
     1
 90
        2
 40
-0.6
 41
30.0
 62
     5
 63
     7
 74
     1
 91
        0
 64
     7
 65
   257
 75
     1
175
     1
 42
1.0
 92
        0
 66
   257
 43
1.0
 76
     1
 77
     6
 78
     2
 67
     7
 79
     5
170
     0
171
     0
290
     0
174
     0
 93
       13
 44
0.0
173
     0
291
     1
 45
0.0
1001
ACAD
1000
AcDbSavedByObjectVersion
1070
     0
  0
VISUALSTYLE
  5
9CC4
102
{ACAD_XDICTIONARY
360
9D1F
102
}
102
{ACAD_REACTORS
330
9CC1
102
}
330
9CC1
100
AcDbVisualStyle
  2
Gouraud
 70
     2
 71
     2
 72
     2
 73
     1
 90
        2
 40
-0.6
 41
30.0
 62
     5
 63
     7
 74
     0
 91
        0
 64
     7
 65
   257
 75
     1
175
     1
 42
1.0
 92
        0
 66
     7
 43
1.0
 76
     1
 77
     6
 78
     2
 67
     7
 79
     5
170
     0
171
     0
290
     0
174
     0
 93
       13
 44
0.0
173
     0
291
     1
 45
0.0
1001
ACAD
1000
AcDbSavedByObjectVersion
1070
     0
  0
VISUALSTYLE
  5
9CC5
102
{ACAD_XDICTIONARY
360
9D21
102
}
102
{ACAD_REACTORS
330
9CC1
102
}
330
9CC1
100
AcDbVisualStyle
  2
GouraudWithEdges
 70
     3
 71
     2
 72
     2
 73
     1
 90
        2
 40
-0.6
 41
30.0
 62
     5
 63
     7
 74
     1
 91
        0
 64
     7
 65
   257
 75
     1
175
     1
 42
1.0
 92
        0
 66
   257
 43
1.0
 76
     1
 77
     6
 78
     2
 67
     7
 79
     5
170
     0
171
     0
290
     0
174
     0
 93
       13
 44
0.0
173
     0
291
     1
 45
0.0
1001
ACAD
1000
AcDbSavedByObjectVersion
1070
     0
  0
VISUALSTYLE
  5
9CC9
102
{ACAD_XDICTIONARY
360
9D29
102
}
102
{ACAD_REACTORS
330
9CC1
102
}
330
9CC1
100
AcDbVisualStyle
  2
Hidden
 70
     6
 71
     1
 72
     2
 73
     2
 90
        0
 40
-0.6
 41
-30.0
 62
     5
 63
     7
 74
     2
 91
        2
 64
     7
 65
   257
 75
     2
175
     1
 42
40.0
 92
        0
 66
   257
 43
1.0
 76
     1
 77
     6
 78
     2
 67
     7
 79
     3
170
     0
171
     0
290
     0
174
     0
 93
        1
 44
0.0
173
     0
291
     0
 45
0.0
1001
ACAD
1000
AcDbSavedByObjectVersion
1070
     0
  0
VISUALSTYLE
  5
9CD7
102
{ACAD_XDICTIONARY
360
9D45
102
}
102
{ACAD_REACTORS
330
9CC1
102
}
330
9CC1
100
AcDbVisualStyle
  2
JitterOff
 70
    20
 71
     2
 72
     2
 73
     0
 90
        0
 40
-0.6
 41
-30.0
 62
     5
 63
     7
 74
     1
 91
        4
 64
     7
 65
   257
 75
     1
175
     1
 42
1.0
 92
       10
 66
     7
 43
1.0
 76
     1
 77
     6
 78
     2
 67
     7
 79
     5
170
     0
171
     0
290
     0
174
     0
 93
        1
 44
0.0
173
     0
291
     1
 45
0.0
1001
ACAD
1000
AcDbSavedByObjectVersion
1070
     0
  0
VISUALSTYLE
  5
9CCF
102
{ACAD_XDICTIONARY
360
9D35
102
}
102
{ACAD_REACTORS
330
9CC1
102
}
330
9CC1
100
AcDbVisualStyle
  2
Linepattern
 70
    14
 71
     2
 72
     2
 73
     0
 90
        0
 40
-0.6
 41
-30.0
 62
     5
 63
     7
 74
     1
 91
        4
 64
     7
 65
   257
 75
     7
175
     7
 42
1.0
 92
        8
 66
     7
 43
1.0
 76
     1
 77
     6
 78
     2
 67
     7
 79
     5
170
     0
171
     0
290
     0
174
     0
 93
        1
 44
0.0
173
     0
291
     1
 45
0.0
1001
ACAD
1000
AcDbSavedByObjectVersion
1070
     0
  0
VISUALSTYLE
  5
9CD8
102
{ACAD_XDICTIONARY
360
9D47
102
}
102
{ACAD_REACTORS
330
9CC1
102
}
330
9CC1
100
AcDbVisualStyle
  2
OverhangOff
 70
    21
 71
     2
 72
     2
 73
     0
 90
        0
 40
-0.6
 41
-30.0
 62
     5
 63
     7
 74
     1
 91
        4
 64
     7
 65
   257
 75
     1
175
     1
 42
1.0
 92
        9
 66
     7
 43
1.0
 76
     1
 77
     6
 78
     2
 67
     7
 79
     5
170
     0
171
     0
290
     0
174
     0
 93
        1
 44
0.0
173
     0
291
     1
 45
0.0
1001
ACAD
1000
AcDbSavedByObjectVersion
1070
     0
  0
VISUALSTYLE
  5
9CCB
102
{ACAD_XDICTIONARY
360
9D2D
102
}
102
{ACAD_REACTORS
330
9CC1
102
}
330
9CC1
100
AcDbVisualStyle
  2
Realistic
 70
     8
 71
     2
 72
     3
 73
     0
 90
        2
 40
-0.6
 41
30.0
 62
     5
 63
     7
 74
     0
 91
        0
 64
     7
 65
   257
 75
     1
175
     1
 42
1.0
 92
        8
 66
   257
 43
1.0
 76
     1
 77
     6
 78
     2
 67
     7
 79
     3
170
     0
171
     0
290
     0
174
     0
 93
       13
 44
0.0
173
     0
291
     0
 45
0.0
1001
ACAD
1000
AcDbSavedByObjectVersion
1070
     0
  0
VISUALSTYLE
  5
9CD6
102
{ACAD_XDICTIONARY
360
9D43
102
}
102
{ACAD_REACTORS
330
9CC1
102
}
330
9CC1
100
AcDbVisualStyle
  2
Shaded
 70
    27
 71
     2
 72
     2
 73
     1
 90
        2
 40
-0.6
 41
30.0
 62
     5
 63
     7
 74
     0
 91
        4
 64
     7
 65
   257
 75
     1
175
     1
 42
1.0
 92
        8
 66
   257
 43
1.0
 76
     1
 77
     6
 78
     2
 67
     8
 79
     3
170
     0
171
     0
290
     0
174
     0
 93
        5
 44
0.0
173
     0
291
     0
 45
0.0
1001
ACAD
1000
AcDbSavedByObjectVersion
1070
     0
  0
VISUALSTYLE
  5
9CD5
102
{ACAD_XDICTIONARY
360
9D41
102
}
102
{ACAD_REACTORS
330
9CC1
102
}
330
9CC1
100
AcDbVisualStyle
  2
Shaded with edges
 70
    26
 71
     2
 72
     2
 73
     1
 90
        2
 40
-0.6
 41
30.0
 62
     5
 63
     7
 74
     1
 91
       10
 64
     7
 65
   257
 75
     2
175
     1
 42
1.0
 92
        8
 66
   257
 43
1.0
 76
     1
 77
     6
 78
     2
 67
     7
 79
     3
170
     0
171
     0
290
     0
174
     0
 93
        5
 44
0.0
173
     0
291
     0
 45
0.0
1001
ACAD
1000
AcDbSavedByObjectVersion
1070
     0
  0
VISUALSTYLE
  5
9CD2
102
{ACAD_XDICTIONARY
360
9D3B
102
}
102
{ACAD_REACTORS
330
9CC1
102
}
330
9CC1
100
AcDbVisualStyle
  2
Shades of Gray
 70
    23
 71
     2
 72
     2
 73
     3
 90
        0
 40
-0.6
 41
-30.0
 62
     5
 63
     7
 74
     2
 91
        2
 64
     7
 65
     7
 75
     1
175
     1
 42
40.0
 92
        8
 66
     7
 43
1.0
 76
     1
 77
     6
 78
     2
 67
     7
 79
     3
170
     0
171
     0
290
     0
174
     0
 93
        1
 44
0.0
173
     0
291
     0
 45
0.0
1001
ACAD
1000
AcDbSavedByObjectVersion
1070
     0
  0
VISUALSTYLE
  5
9CD3
102
{ACAD_XDICTIONARY
360
9D3D
102
}
102
{ACAD_REACTORS
330
9CC1
102
}
330
9CC1
100
AcDbVisualStyle
  2
Sketchy
 70
    24
 71
     1
 72
     2
 73
     2
 90
        0
 40
-0.6
 41
-30.0
 62
     5
 63
     7
 74
     2
 91
        2
 64
     7
 65
     7
 75
     1
175
     1
 42
40.0
 92
       11
 66
     7
 43
1.0
 76
     1
 77
     6
 78
     2
 67
     7
 79
     6
170
     0
171
     0
290
     0
174
     0
 93
        1
 44
0.0
173
     0
291
     0
 45
0.0
1001
ACAD
1000
AcDbSavedByObjectVersion
1070
     0
  0
VISUALSTYLE
  5
9CCE
102
{ACAD_XDICTIONARY
360
9D33
102
}
102
{ACAD_REACTORS
330
9CC1
102
}
330
9CC1
100
AcDbVisualStyle
  2
Thicken
 70
    13
 71
     2
 72
     2
 73
     0
 90
        0
 40
-0.6
 41
-30.0
 62
     5
 63
     7
 74
     1
 91
        4
 64
     7
 65
   257
 75
     1
175
     1
 42
1.0
 92
       12
 66
     7
 43
1.0
 76
     1
 77
     6
 78
     2
 67
     7
 79
     5
170
     0
171
     0
290
     0
174
     0
 93
        1
 44
0.0
173
     0
291
     1
 45
0.0
1001
ACAD
1000
AcDbSavedByObjectVersion
1070
     0
  0
VISUALSTYLE
  5
9CC8
102
{ACAD_XDICTIONARY
360
9D27
102
}
102
{ACAD_REACTORS
330
9CC1
102
}
330
9CC1
100
AcDbVisualStyle
  2
Wireframe
 70
     5
 71
     0
 72
     2
 73
     0
 90
        0
 40
-0.6
 41
-30.0
 62
     5
 63
     7
 74
     1
 91
        4
 64
     7
 65
   257
 75
     1
175
     1
 42
1.0
 92
        0
 66
   257
 43
1.0
 76
     1
 77
     6
 78
     2
 67
     7
 79
     3
170
     0
171
     0
290
     0
174
     0
 93
        1
 44
0.0
173
     0
291
     0
 45
0.0
1001
ACAD
1000
AcDbSavedByObjectVersion
1070
     0
  0
VISUALSTYLE
  5
9CD4
102
{ACAD_XDICTIONARY
360
9D3F
102
}
102
{ACAD_REACTORS
330
9CC1
102
}
330
9CC1
100
AcDbVisualStyle
  2
X-Ray
 70
    25
 71
     2
 72
     2
 73
     1
 90
        1
 40
0.5
 41
-30.0
 62
     5
 63
     7
 74
     1
 91
        0
 64
     7
 65
   257
 75
     1
175
     1
 42
1.0
 92
        8
 66
     7
 43
1.0
 76
     1
 77
     6
 78
     2
 67
     7
 79
     3
170
     0
171
     0
290
     0
174
     0
 93
       13
 44
0.0
173
     0
291
     0
 45
0.0
1001
ACAD
1000
AcDbSavedByObjectVersion
1070
     0
  0
DICTIONARYVAR
  5
9D0E
102
{ACAD_REACTORS
330
9D09
102
}
330
9D09
100
DictionaryVariables
280
     0
  1
1:1
  0
DICTIONARYVAR
  5
9D0B
102
{ACAD_REACTORS
330
9D09
102
}
330
9D09
100
DictionaryVariables
280
     0
  1
STANDARD
  0
DICTIONARYVAR
  5
9D0A
102
{ACAD_REACTORS
330
9D09
102
}
330
9D09
100
DictionaryVariables
280
     0
  1
STANDARD
  0
DICTIONARYVAR
  5
9D0C
102
{ACAD_REACTORS
330
9D09
102
}
330
9D09
100
DictionaryVariables
280
     0
  1
Imperial24
  0
DICTIONARYVAR
  5
9D0D
102
{ACAD_REACTORS
330
9D09
102
}
330
9D09
100
DictionaryVariables
280
     0
  1
Imperial24
  0
DICTIONARYVAR
  5
9D11
102
{ACAD_REACTORS
330
9D09
102
}
330
9D09
100
DictionaryVariables
280
     0
  1
1
  0
DICTIONARYVAR
  5
9D10
102
{ACAD_REACTORS
330
9D09
102
}
330
9D09
100
DictionaryVariables
280
     0
  1
0
  0
DICTIONARYVAR
  5
9D0F
102
{ACAD_REACTORS
330
9D09
102
}
330
9D09
100
DictionaryVariables
280
     0
  1
127
  0
DICTIONARYVAR
  5
9D12
102
{ACAD_REACTORS
330
9D09
102
}
330
9D09
100
DictionaryVariables
280
     0
  1
2
  0
DICTIONARY
  5
9D4F
330
9CF4
100
AcDbDictionary
280
     1
281
     1
  3
ACAD_XREC_ROUNDTRIP
360
9D50
  0
DICTIONARY
  5
9D51
330
9CF5
100
AcDbDictionary
280
     1
281
     1
  3
ACAD_XREC_ROUNDTRIP
360
9D52
  0
DICTIONARY
  5
9D53
330
9CF6
100
AcDbDictionary
280
     1
281
     1
  3
ACAD_XREC_ROUNDTRIP
360
9D54
  0
DICTIONARY
  5
9CB2
330
9CB1
100
AcDbDictionary
280
     1
281
     1
  3
ACAD_XREC_ROUNDTRIP
360
9D19
  3
BUMPTILE
360
9CB4
  3
DIFFUSETILE
360
9CB3
  3
OPACITYTILE
360
9CB7
  3
REFLECTIONTILE
360
9CB6
  3
REFRACTIONTILE
360
9CB8
  3
SPECULARTILE
360
9CB5
  0
DICTIONARY
  5
9CAA
330
9CA9
100
AcDbDictionary
280
     1
281
     1
  3
ACAD_XREC_ROUNDTRIP
360
9D18
  3
BUMPTILE
360
9CAC
  3
DIFFUSETILE
360
9CAB
  3
OPACITYTILE
360
9CAF
  3
REFLECTIONTILE
360
9CAE
  3
REFRACTIONTILE
360
9CB0
  3
SPECULARTILE
360
9CAD
  0
DICTIONARY
  5
9CBA
330
9CB9
100
AcDbDictionary
280
     1
281
     1
  3
ACAD_XREC_ROUNDTRIP
360
9D1A
  3
BUMPTILE
360
9CBC
  3
DIFFUSETILE
360
9CBB
  3
OPACITYTILE
360
9CBF
  3
REFLECTIONTILE
360
9CBE
  3
REFRACTIONTILE
360
9CC0
  3
SPECULARTILE
360
9CBD
  0
DICTIONARY
  5
9D4D
330
9CF2
100
AcDbDictionary
280
     1
281
     1
  3
ACAD_XREC_ROUNDTRIP
360
9D4E
  0
DICTIONARY
  5
9D14
330
9CDC
100
AcDbDictionary
280
     1
281
     1
  3
ACAD_ROUNDTRIP_2008_TABLESTYLE_CELLSTYLEMAP
360
9D15
  3
ACAD_XREC_ROUNDTRIP
360
9D4B
  0
DICTIONARY
  5
9D25
330
9CC7
100
AcDbDictionary
280
     1
281
     1
  3
ACAD_XREC_ROUNDTRIP
360
9D26
  0
DICTIONARY
  5
9D23
330
9CC6
100
AcDbDictionary
280
     1
281
     1
  3
ACAD_XREC_ROUNDTRIP
360
9D24
  0
DICTIONARY
  5
9D31
330
9CCD
100
AcDbDictionary
280
     1
281
     1
  3
ACAD_XREC_ROUNDTRIP
360
9D32
  0
DICTIONARY
  5
9D39
330
9CD1
100
AcDbDictionary
280
     1
281
     1
  3
ACAD_XREC_ROUNDTRIP
360
9D3A
  0
DICTIONARY
  5
9D2B
330
9CCA
100
AcDbDictionary
280
     1
281
     1
  3
ACAD_XREC_ROUNDTRIP
360
9D2C
  0
DICTIONARY
  5
9D2F
330
9CCC
100
AcDbDictionary
280
     1
281
     1
  3
ACAD_XREC_ROUNDTRIP
360
9D30
  0
DICTIONARY
  5
9D49
330
9CD9
100
AcDbDictionary
280
     1
281
     1
  3
ACAD_XREC_ROUNDTRIP
360
9D4A
  0
DICTIONARY
  5
9D37
330
9CD0
100
AcDbDictionary
280
     1
281
     1
  3
ACAD_XREC_ROUNDTRIP
360
9D38
  0
DICTIONARY
  5
9D1B
330
9CC2
100
AcDbDictionary
280
     1
281
     1
  3
ACAD_XREC_ROUNDTRIP
360
9D1C
  0
DICTIONARY
  5
9D1D
330
9CC3
100
AcDbDictionary
280
     1
281
     1
  3
ACAD_XREC_ROUNDTRIP
360
9D1E
  0
DICTIONARY
  5
9D1F
330
9CC4
100
AcDbDictionary
280
     1
281
     1
  3
ACAD_XREC_ROUNDTRIP
360
9D20
  0
DICTIONARY
  5
9D21
330
9CC5
100
AcDbDictionary
280
     1
281
     1
  3
ACAD_XREC_ROUNDTRIP
360
9D22
  0
DICTIONARY
  5
9D29
330
9CC9
100
AcDbDictionary
280
     1
281
     1
  3
ACAD_XREC_ROUNDTRIP
360
9D2A
  0
DICTIONARY
  5
9D45
330
9CD7
100
AcDbDictionary
280
     1
281
     1
  3
ACAD_XREC_ROUNDTRIP
360
9D46
  0
DICTIONARY
  5
9D35
330
9CCF
100
AcDbDictionary
280
     1
281
     1
  3
ACAD_XREC_ROUNDTRIP
360
9D36
  0
DICTIONARY
  5
9D47
330
9CD8
100
AcDbDictionary
280
     1
281
     1
  3
ACAD_XREC_ROUNDTRIP
360
9D48
  0
DICTIONARY
  5
9D2D
330
9CCB
100
AcDbDictionary
280
     1
281
     1
  3
ACAD_XREC_ROUNDTRIP
360
9D2E
  0
DICTIONARY
  5
9D43
330
9CD6
100
AcDbDictionary
280
     1
281
     1
  3
ACAD_XREC_ROUNDTRIP
360
9D44
  0
DICTIONARY
  5
9D41
330
9CD5
100
AcDbDictionary
280
     1
281
     1
  3
ACAD_XREC_ROUNDTRIP
360
9D42
  0
DICTIONARY
  5
9D3B
330
9CD2
100
AcDbDictionary
280
     1
281
     1
  3
ACAD_XREC_ROUNDTRIP
360
9D3C
  0
DICTIONARY
  5
9D3D
330
9CD3
100
AcDbDictionary
280
     1
281
     1
  3
ACAD_XREC_ROUNDTRIP
360
9D3E
  0
DICTIONARY
  5
9D33
330
9CCE
100
AcDbDictionary
280
     1
281
     1
  3
ACAD_XREC_ROUNDTRIP
360
9D34
  0
DICTIONARY
  5
9D27
330
9CC8
100
AcDbDictionary
280
     1
281
     1
  3
ACAD_XREC_ROUNDTRIP
360
9D28
  0
DICTIONARY
  5
9D3F
330
9CD4
100
AcDbDictionary
280
     1
281
     1
  3
ACAD_XREC_ROUNDTRIP
360
9D40
  0
XRECORD
  5
9D50
102
{ACAD_REACTORS
330
9D4F
102
}
330
9D4F
100
AcDbXrecord
280
     1
102
DISPLAYNAME
  1
Imperial24
102
FLAGS
 90
        0
  0
XRECORD
  5
9D52
102
{ACAD_REACTORS
330
9D51
102
}
330
9D51
100
AcDbXrecord
280
     1
102
SHADEPLOT
 70
     0
102
SHADEPLOTRESLEVEL
 70
     2
102
SHADEPLOTCUSTOMDPI
 70
   300
  0
XRECORD
  5
9D54
102
{ACAD_REACTORS
330
9D53
102
}
330
9D53
100
AcDbXrecord
280
     1
102
SHADEPLOT
 70
     0
102
SHADEPLOTRESLEVEL
 70
     2
102
SHADEPLOTCUSTOMDPI
 70
   300
  0
XRECORD
  5
9D19
102
{ACAD_REACTORS
330
9CB2
102
}
330
9CB2
100
AcDbXrecord
280
     1
102
MATERIAL
148
0.0
149
0.0
149
0.0
 93
        0
 94
      127
282
     0
 72
     0
 77
     0
171
     0
175
     0
179
     0
273
     0
  0
XRECORD
  5
9CB4
102
{ACAD_REACTORS
330
9CB2
102
}
330
9CB2
100
AcDbXrecord
280
     1
270
     1
271
     1
  0
XRECORD
  5
9CB3
102
{ACAD_REACTORS
330
9CB2
102
}
330
9CB2
100
AcDbXrecord
280
     1
270
     1
271
     1
  0
XRECORD
  5
9CB7
102
{ACAD_REACTORS
330
9CB2
102
}
330
9CB2
100
AcDbXrecord
280
     1
270
     1
271
     1
  0
XRECORD
  5
9CB6
102
{ACAD_REACTORS
330
9CB2
102
}
330
9CB2
100
AcDbXrecord
280
     1
270
     1
271
     1
  0
XRECORD
  5
9CB8
102
{ACAD_REACTORS
330
9CB2
102
}
330
9CB2
100
AcDbXrecord
280
     1
270
     1
271
     1
  0
XRECORD
  5
9CB5
102
{ACAD_REACTORS
330
9CB2
102
}
330
9CB2
100
AcDbXrecord
280
     1
270
     1
271
     1
  0
XRECORD
  5
9D18
102
{ACAD_REACTORS
330
9CAA
102
}
330
9CAA
100
AcDbXrecord
280
     1
102
MATERIAL
148
0.0
149
0.0
149
0.0
 93
        0
 94
      127
282
     0
 72
     0
 77
     0
171
     0
175
     0
179
     0
273
     0
  0
XRECORD
  5
9CAC
102
{ACAD_REACTORS
330
9CAA
102
}
330
9CAA
100
AcDbXrecord
280
     1
270
     1
271
     1
  0
XRECORD
  5
9CAB
102
{ACAD_REACTORS
330
9CAA
102
}
330
9CAA
100
AcDbXrecord
280
     1
270
     1
271
     1
  0
XRECORD
  5
9CAF
102
{ACAD_REACTORS
330
9CAA
102
}
330
9CAA
100
AcDbXrecord
280
     1
270
     1
271
     1
  0
XRECORD
  5
9CAE
102
{ACAD_REACTORS
330
9CAA
102
}
330
9CAA
100
AcDbXrecord
280
     1
270
     1
271
     1
  0
XRECORD
  5
9CB0
102
{ACAD_REACTORS
330
9CAA
102
}
330
9CAA
100
AcDbXrecord
280
     1
270
     1
271
     1
  0
XRECORD
  5
9CAD
102
{ACAD_REACTORS
330
9CAA
102
}
330
9CAA
100
AcDbXrecord
280
     1
270
     1
271
     1
  0
XRECORD
  5
9D1A
102
{ACAD_REACTORS
330
9CBA
102
}
330
9CBA
100
AcDbXrecord
280
     1
102
MATERIAL
148
0.0
149
0.0
149
0.0
 93
        0
 94
      127
282
     0
 72
     0
 77
     0
171
     0
175
     0
179
     0
273
     0
  0
XRECORD
  5
9CBC
102
{ACAD_REACTORS
330
9CBA
102
}
330
9CBA
100
AcDbXrecord
280
     1
270
     1
271
     1
  0
XRECORD
  5
9CBB
102
{ACAD_REACTORS
330
9CBA
102
}
330
9CBA
100
AcDbXrecord
280
     1
270
     1
271
     1
  0
XRECORD
  5
9CBF
102
{ACAD_REACTORS
330
9CBA
102
}
330
9CBA
100
AcDbXrecord
280
     1
270
     1
271
     1
  0
XRECORD
  5
9CBE
102
{ACAD_REACTORS
330
9CBA
102
}
330
9CBA
100
AcDbXrecord
280
     1
270
     1
271
     1
  0
XRECORD
  5
9CC0
102
{ACAD_REACTORS
330
9CBA
102
}
330
9CBA
100
AcDbXrecord
280
     1
270
     1
271
     1
  0
XRECORD
  5
9CBD
102
{ACAD_REACTORS
330
9CBA
102
}
330
9CBA
100
AcDbXrecord
280
     1
270
     1
271
     1
  0
XRECORD
  5
9D4E
102
{ACAD_REACTORS
330
9D4D
102
}
330
9D4D
100
AcDbXrecord
280
     1
102
DISPLAYNAME
  1
Imperial24
102
FLAGS
 90
        0
  0
CELLSTYLEMAP
  5
9D15
102
{ACAD_REACTORS
330
9D14
102
}
330
9D14
100
AcDbCellStyleMap
 90
        3
300
CELLSTYLE
  1
TABLEFORMAT_BEGIN
 90
        5
170
     1
 91
        0
 92
    32768
 62
   257
 93
        1
300
CONTENTFORMAT
  1
CONTENTFORMAT_BEGIN
 90
        0
 91
        0
 92
      512
 93
        0
300

 40
0.0
140
1.0
 94
        5
 62
     0
340
9A93
144
0.25
309
CONTENTFORMAT_END
171
     0
 94
        0
309
TABLEFORMAT_END
  1
CELLSTYLE_BEGIN
 90
        1
 91
        1
300
_TITLE
309
CELLSTYLE_END
300
CELLSTYLE
  1
TABLEFORMAT_BEGIN
 90
        5
170
     1
 91
        0
 92
        0
 62
   257
 93
        1
300
CONTENTFORMAT
  1
CONTENTFORMAT_BEGIN
 90
        0
 91
        0
 92
      512
 93
        0
300

 40
0.0
140
1.0
 94
        5
 62
     0
340
9A93
144
0.18
309
CONTENTFORMAT_END
171
     0
 94
        0
309
TABLEFORMAT_END
  1
CELLSTYLE_BEGIN
 90
        2
 91
        1
300
_HEADER
309
CELLSTYLE_END
300
CELLSTYLE
  1
TABLEFORMAT_BEGIN
 90
        5
170
     1
 91
        0
 92
        0
 62
   257
 93
        1
300
CONTENTFORMAT
  1
CONTENTFORMAT_BEGIN
 90
        0
 91
        0
 92
      512
 93
        0
300

 40
0.0
140
1.0
 94
        2
 62
     0
340
9A93
144
0.18
309
CONTENTFORMAT_END
171
     0
 94
        0
309
TABLEFORMAT_END
  1
CELLSTYLE_BEGIN
 90
        3
 91
        2
300
_DATA
309
CELLSTYLE_END
  0
XRECORD
  5
9D4B
102
{ACAD_REACTORS
330
9D14
102
}
330
9D14
100
AcDbXrecord
280
     1
102
ACAD_ROUNDTRIP_PRE2007_TABLESTYLE
 90
      512
 91
        0
  1

 92
      512
 93
        0
  2

 94
      512
 95
        0
  3

  0
XRECORD
  5
9D26
102
{ACAD_REACTORS
330
9D25
102
}
330
9D25
100
AcDbXrecord
280
     1
102
RTVSPost2010Prop28
280
     1
102
RTVSPost2010PropOp28
 70
     1
102
RTVSPost2010Prop29
280
     1
102
RTVSPost2010PropOp29
 70
     1
102
RTVSPost2010Prop30
280
     0
102
RTVSPost2010PropOp30
 70
     1
102
RTVSPost2010Prop31
280
     0
102
RTVSPost2010PropOp31
 70
     1
102
RTVSPost2010Prop32
280
     0
102
RTVSPost2010PropOp32
 70
     1
102
RTVSPost2010Prop33
280
     0
102
RTVSPost2010PropOp33
 70
     1
102
RTVSPost2010Prop34
280
     0
102
RTVSPost2010PropOp34
 70
     1
102
RTVSPost2010Prop35
280
     0
102
RTVSPost2010PropOp35
 70
     1
102
RTVSPost2010Prop36
280
     0
102
RTVSPost2010PropOp36
 70
     1
102
RTVSPost2010Prop37
 90
       50
102
RTVSPost2010PropOp37
 70
     1
102
RTVSPost2010Prop38
140
0.0
102
RTVSPost2010PropOp38
 70
     1
102
RTVSPost2010Prop39
140
1.0
102
RTVSPost2010PropOp39
 70
     1
102
RTVSPost2010Prop40
 90
        0
102
RTVSPost2010PropOp40
 70
     1
102
RTVSPost2010Prop41ColorIndex
 90
       18
102
RTVSPost2010Prop41ColorRGB
 90
        0
102
RTVSPost2010PropOp41
 70
     1
102
RTVSPost2010Prop42
 90
       50
102
RTVSPost2010PropOp42
 70
     1
102
RTVSPost2010Prop43
 90
        3
102
RTVSPost2010PropOp43
 70
     1
102
RTVSPost2010Prop44ColorIndex
 90
        5
102
RTVSPost2010Prop44ColorRGB
 90
      255
102
RTVSPost2010PropOp44
 70
     1
102
RTVSPost2010Prop45
280
     0
102
RTVSPost2010PropOp45
 70
     1
102
RTVSPost2010Prop46
 90
       50
102
RTVSPost2010PropOp46
 70
     1
102
RTVSPost2010Prop47
 90
       50
102
RTVSPost2010PropOp47
 70
     1
102
RTVSPost2010Prop48
 90
       50
102
RTVSPost2010PropOp48
 70
     1
102
RTVSPost2010Prop49
280
     0
102
RTVSPost2010PropOp49
 70
     1
102
RTVSPost2010Prop50
 90
       50
102
RTVSPost2010PropOp50
 70
     1
102
RTVSPost2010Prop51ColorIndex
 90
      256
102
RTVSPost2010Prop51ColorRGB
 90
-16777216
102
RTVSPost2010PropOp51
 70
     0
102
RTVSPost2010Prop52
140
1.0
102
RTVSPost2010PropOp52
 70
     0
102
RTVSPost2010Prop53
 90
        2
102
RTVSPost2010PropOp53
 70
     1
102
RTVSPost2010Prop54
  1
strokes_ogs.tif
102
RTVSPost2010PropOp54
 70
     1
102
RTVSPost2010Prop55
280
     0
102
RTVSPost2010PropOp55
 70
     1
102
RTVSPost2010Prop56
140
1.0
102
RTVSPost2010PropOp56
 70
     1
102
RTVSPost2010Prop57
140
1.0
102
RTVSPost2010PropOp57
 70
     1
102
RTVSPropertyOp0
 70
     1
102
RTVSPropertyOp1
 70
     1
102
RTVSPropertyOp2
 70
     1
102
RTVSPropertyOp3
 70
     1
102
RTVSPropertyOp4
 70
     1
102
RTVSPropertyOp5
 70
     1
102
RTVSPropertyOp6
 70
     1
102
RTVSPropertyOp7
 70
     1
102
RTVSPropertyOp8
 70
     1
102
RTVSPropertyOp9
 70
     1
102
RTVSPropertyOp10
 70
     1
102
RTVSPropertyOp11
 70
     1
102
RTVSPropertyOp12
 70
     1
102
RTVSPropertyOp13
 70
     1
102
RTVSPropertyOp14
 70
     1
102
RTVSPropertyOp15
 70
     1
102
RTVSPropertyOp16
 70
     1
102
RTVSPropertyOp17
 70
     1
102
RTVSPropertyOp18
 70
     1
102
RTVSPropertyOp19
 70
     1
102
RTVSPropertyOp20
 70
     1
102
RTVSPropertyOp21
 70
     1
102
RTVSPropertyOp22
 70
     1
102
RTVSPropertyOp23
 70
     1
102
RTVSPropertyOp24
 70
     1
102
RTVSPropertyOp25
 70
     1
102
RTVSPropertyOp26
 70
     1
102
RTVSPropertyOp27
 70
     1
102
RTVSPropertyOp28
 70
     1
102
RTVSPropertyOp29
 70
     1
102
RTVSPropertyOp30
 70
     1
102
RTVSPropertyOp31
 70
     1
102
RTVSPropertyOp32
 70
     1
102
RTVSPropertyOp33
 70
     1
102
RTVSPropertyOp34
 70
     1
102
RTVSPropertyOp35
 70
     1
102
RTVSPropertyOp36
 70
     1
102
RTVSPropertyOp37
 70
     1
102
RTVSPropertyOp38
 70
     1
102
RTVSPropertyOp39
 70
     1
102
RTVSPropertyOp40
 70
     1
102
RTVSPropertyOp41
 70
     1
102
RTVSPropertyOp42
 70
     1
102
RTVSPropertyOp43
 70
     1
102
RTVSPropertyOp44
 70
     1
102
RTVSPropertyOp45
 70
     1
102
RTVSPropertyOp46
 70
     1
102
RTVSPropertyOp47
 70
     1
102
RTVSPropertyOp48
 70
     1
102
RTVSPropertyOp49
 70
     1
102
RTVSPropertyOp50
 70
     1
102
RTVSPropertyOp51
 70
     0
102
RTVSPropertyOp52
 70
     0
102
RTVSPropertyOp53
 70
     1
102
RTVSPropertyOp54
 70
     1
102
RTVSPropertyOp55
 70
     1
102
RTVSPropertyOp56
 70
     1
102
RTVSPropertyOp57
 70
     1
102
RTVSPropertyOp58
 70
     1
102
RTVSPropertyOp59
 70
     1
102
RTVSPropertyOp60
 70
     1
102
RTVSPropertyOp61
 70
     1
102
RTVSPropertyOp62
 70
     1
  0
XRECORD
  5
9D24
102
{ACAD_REACTORS
330
9D23
102
}
330
9D23
100
AcDbXrecord
280
     1
102
RTVSPost2010Prop28
280
     0
102
RTVSPost2010PropOp28
 70
     1
102
RTVSPost2010Prop29
280
     1
102
RTVSPost2010PropOp29
 70
     1
102
RTVSPost2010Prop30
280
     1
102
RTVSPost2010PropOp30
 70
     1
102
RTVSPost2010Prop31
280
     0
102
RTVSPost2010PropOp31
 70
     1
102
RTVSPost2010Prop32
280
     0
102
RTVSPost2010PropOp32
 70
     1
102
RTVSPost2010Prop33
280
     0
102
RTVSPost2010PropOp33
 70
     1
102
RTVSPost2010Prop34
280
     0
102
RTVSPost2010PropOp34
 70
     1
102
RTVSPost2010Prop35
280
     0
102
RTVSPost2010PropOp35
 70
     1
102
RTVSPost2010Prop36
280
     0
102
RTVSPost2010PropOp36
 70
     1
102
RTVSPost2010Prop37
 90
       50
102
RTVSPost2010PropOp37
 70
     1
102
RTVSPost2010Prop38
140
0.0
102
RTVSPost2010PropOp38
 70
     1
102
RTVSPost2010Prop39
140
1.0
102
RTVSPost2010PropOp39
 70
     1
102
RTVSPost2010Prop40
 90
        0
102
RTVSPost2010PropOp40
 70
     1
102
RTVSPost2010Prop41ColorIndex
 90
       18
102
RTVSPost2010Prop41ColorRGB
 90
        0
102
RTVSPost2010PropOp41
 70
     1
102
RTVSPost2010Prop42
 90
       50
102
RTVSPost2010PropOp42
 70
     1
102
RTVSPost2010Prop43
 90
        3
102
RTVSPost2010PropOp43
 70
     1
102
RTVSPost2010Prop44ColorIndex
 90
        5
102
RTVSPost2010Prop44ColorRGB
 90
      255
102
RTVSPost2010PropOp44
 70
     1
102
RTVSPost2010Prop45
280
     0
102
RTVSPost2010PropOp45
 70
     1
102
RTVSPost2010Prop46
 90
       50
102
RTVSPost2010PropOp46
 70
     1
102
RTVSPost2010Prop47
 90
       50
102
RTVSPost2010PropOp47
 70
     1
102
RTVSPost2010Prop48
 90
       50
102
RTVSPost2010PropOp48
 70
     1
102
RTVSPost2010Prop49
280
     0
102
RTVSPost2010PropOp49
 70
     1
102
RTVSPost2010Prop50
 90
       50
102
RTVSPost2010PropOp50
 70
     1
102
RTVSPost2010Prop51ColorIndex
 90
      256
102
RTVSPost2010Prop51ColorRGB
 90
-16777216
102
RTVSPost2010PropOp51
 70
     0
102
RTVSPost2010Prop52
140
1.0
102
RTVSPost2010PropOp52
 70
     0
102
RTVSPost2010Prop53
 90
        2
102
RTVSPost2010PropOp53
 70
     1
102
RTVSPost2010Prop54
  1
strokes_ogs.tif
102
RTVSPost2010PropOp54
 70
     1
102
RTVSPost2010Prop55
280
     0
102
RTVSPost2010PropOp55
 70
     1
102
RTVSPost2010Prop56
140
1.0
102
RTVSPost2010PropOp56
 70
     1
102
RTVSPost2010Prop57
140
1.0
102
RTVSPost2010PropOp57
 70
     1
102
RTVSPropertyOp0
 70
     1
102
RTVSPropertyOp1
 70
     1
102
RTVSPropertyOp2
 70
     1
102
RTVSPropertyOp3
 70
     1
102
RTVSPropertyOp4
 70
     1
102
RTVSPropertyOp5
 70
     1
102
RTVSPropertyOp6
 70
     1
102
RTVSPropertyOp7
 70
     1
102
RTVSPropertyOp8
 70
     1
102
RTVSPropertyOp9
 70
     1
102
RTVSPropertyOp10
 70
     1
102
RTVSPropertyOp11
 70
     1
102
RTVSPropertyOp12
 70
     1
102
RTVSPropertyOp13
 70
     1
102
RTVSPropertyOp14
 70
     1
102
RTVSPropertyOp15
 70
     1
102
RTVSPropertyOp16
 70
     1
102
RTVSPropertyOp17
 70
     1
102
RTVSPropertyOp18
 70
     1
102
RTVSPropertyOp19
 70
     1
102
RTVSPropertyOp20
 70
     1
102
RTVSPropertyOp21
 70
     1
102
RTVSPropertyOp22
 70
     1
102
RTVSPropertyOp23
 70
     1
102
RTVSPropertyOp24
 70
     1
102
RTVSPropertyOp25
 70
     1
102
RTVSPropertyOp26
 70
     1
102
RTVSPropertyOp27
 70
     1
102
RTVSPropertyOp28
 70
     1
102
RTVSPropertyOp29
 70
     1
102
RTVSPropertyOp30
 70
     1
102
RTVSPropertyOp31
 70
     1
102
RTVSPropertyOp32
 70
     1
102
RTVSPropertyOp33
 70
     1
102
RTVSPropertyOp34
 70
     1
102
RTVSPropertyOp35
 70
     1
102
RTVSPropertyOp36
 70
     1
102
RTVSPropertyOp37
 70
     1
102
RTVSPropertyOp38
 70
     1
102
RTVSPropertyOp39
 70
     1
102
RTVSPropertyOp40
 70
     1
102
RTVSPropertyOp41
 70
     1
102
RTVSPropertyOp42
 70
     1
102
RTVSPropertyOp43
 70
     1
102
RTVSPropertyOp44
 70
     1
102
RTVSPropertyOp45
 70
     1
102
RTVSPropertyOp46
 70
     1
102
RTVSPropertyOp47
 70
     1
102
RTVSPropertyOp48
 70
     1
102
RTVSPropertyOp49
 70
     1
102
RTVSPropertyOp50
 70
     1
102
RTVSPropertyOp51
 70
     0
102
RTVSPropertyOp52
 70
     0
102
RTVSPropertyOp53
 70
     1
102
RTVSPropertyOp54
 70
     1
102
RTVSPropertyOp55
 70
     1
102
RTVSPropertyOp56
 70
     1
102
RTVSPropertyOp57
 70
     1
102
RTVSPropertyOp58
 70
     1
102
RTVSPropertyOp59
 70
     1
102
RTVSPropertyOp60
 70
     1
102
RTVSPropertyOp61
 70
     1
102
RTVSPropertyOp62
 70
     1
  0
XRECORD
  5
9D32
102
{ACAD_REACTORS
330
9D31
102
}
330
9D31
100
AcDbXrecord
280
     1
102
RTVSPost2010Prop28
280
     0
102
RTVSPost2010PropOp28
 70
     1
102
RTVSPost2010Prop29
280
     1
102
RTVSPost2010PropOp29
 70
     1
102
RTVSPost2010Prop30
280
     1
102
RTVSPost2010PropOp30
 70
     1
102
RTVSPost2010Prop31
280
     0
102
RTVSPost2010PropOp31
 70
     1
102
RTVSPost2010Prop32
280
     0
102
RTVSPost2010PropOp32
 70
     1
102
RTVSPost2010Prop33
280
     0
102
RTVSPost2010PropOp33
 70
     1
102
RTVSPost2010Prop34
280
     0
102
RTVSPost2010PropOp34
 70
     1
102
RTVSPost2010Prop35
280
     0
102
RTVSPost2010PropOp35
 70
     1
102
RTVSPost2010Prop36
280
     0
102
RTVSPost2010PropOp36
 70
     1
102
RTVSPost2010Prop37
 90
       50
102
RTVSPost2010PropOp37
 70
     1
102
RTVSPost2010Prop38
140
0.0
102
RTVSPost2010PropOp38
 70
     1
102
RTVSPost2010Prop39
140
1.0
102
RTVSPost2010PropOp39
 70
     1
102
RTVSPost2010Prop40
 90
        0
102
RTVSPost2010PropOp40
 70
     1
102
RTVSPost2010Prop41ColorIndex
 90
       18
102
RTVSPost2010Prop41ColorRGB
 90
        0
102
RTVSPost2010PropOp41
 70
     1
102
RTVSPost2010Prop42
 90
       50
102
RTVSPost2010PropOp42
 70
     1
102
RTVSPost2010Prop43
 90
        3
102
RTVSPost2010PropOp43
 70
     1
102
RTVSPost2010Prop44ColorIndex
 90
        5
102
RTVSPost2010Prop44ColorRGB
 90
      255
102
RTVSPost2010PropOp44
 70
     1
102
RTVSPost2010Prop45
280
     0
102
RTVSPost2010PropOp45
 70
     1
102
RTVSPost2010Prop46
 90
       50
102
RTVSPost2010PropOp46
 70
     1
102
RTVSPost2010Prop47
 90
       50
102
RTVSPost2010PropOp47
 70
     1
102
RTVSPost2010Prop48
 90
       50
102
RTVSPost2010PropOp48
 70
     1
102
RTVSPost2010Prop49
280
     0
102
RTVSPost2010PropOp49
 70
     1
102
RTVSPost2010Prop50
 90
       50
102
RTVSPost2010PropOp50
 70
     1
102
RTVSPost2010Prop51ColorIndex
 90
      256
102
RTVSPost2010Prop51ColorRGB
 90
-16777216
102
RTVSPost2010PropOp51
 70
     0
102
RTVSPost2010Prop52
140
1.0
102
RTVSPost2010PropOp52
 70
     0
102
RTVSPost2010Prop53
 90
        2
102
RTVSPost2010PropOp53
 70
     1
102
RTVSPost2010Prop54
  1
strokes_ogs.tif
102
RTVSPost2010PropOp54
 70
     1
102
RTVSPost2010Prop55
280
     0
102
RTVSPost2010PropOp55
 70
     1
102
RTVSPost2010Prop56
140
1.0
102
RTVSPost2010PropOp56
 70
     1
102
RTVSPost2010Prop57
140
1.0
102
RTVSPost2010PropOp57
 70
     1
102
RTVSPropertyOp0
 70
     1
102
RTVSPropertyOp1
 70
     1
102
RTVSPropertyOp2
 70
     1
102
RTVSPropertyOp3
 70
     1
102
RTVSPropertyOp4
 70
     1
102
RTVSPropertyOp5
 70
     1
102
RTVSPropertyOp6
 70
     1
102
RTVSPropertyOp7
 70
     1
102
RTVSPropertyOp8
 70
     1
102
RTVSPropertyOp9
 70
     1
102
RTVSPropertyOp10
 70
     1
102
RTVSPropertyOp11
 70
     1
102
RTVSPropertyOp12
 70
     1
102
RTVSPropertyOp13
 70
     1
102
RTVSPropertyOp14
 70
     1
102
RTVSPropertyOp15
 70
     1
102
RTVSPropertyOp16
 70
     1
102
RTVSPropertyOp17
 70
     1
102
RTVSPropertyOp18
 70
     1
102
RTVSPropertyOp19
 70
     1
102
RTVSPropertyOp20
 70
     1
102
RTVSPropertyOp21
 70
     1
102
RTVSPropertyOp22
 70
     1
102
RTVSPropertyOp23
 70
     1
102
RTVSPropertyOp24
 70
     1
102
RTVSPropertyOp25
 70
     1
102
RTVSPropertyOp26
 70
     1
102
RTVSPropertyOp27
 70
     1
102
RTVSPropertyOp28
 70
     1
102
RTVSPropertyOp29
 70
     1
102
RTVSPropertyOp30
 70
     1
102
RTVSPropertyOp31
 70
     1
102
RTVSPropertyOp32
 70
     1
102
RTVSPropertyOp33
 70
     1
102
RTVSPropertyOp34
 70
     1
102
RTVSPropertyOp35
 70
     1
102
RTVSPropertyOp36
 70
     1
102
RTVSPropertyOp37
 70
     1
102
RTVSPropertyOp38
 70
     1
102
RTVSPropertyOp39
 70
     1
102
RTVSPropertyOp40
 70
     1
102
RTVSPropertyOp41
 70
     1
102
RTVSPropertyOp42
 70
     1
102
RTVSPropertyOp43
 70
     1
102
RTVSPropertyOp44
 70
     1
102
RTVSPropertyOp45
 70
     1
102
RTVSPropertyOp46
 70
     1
102
RTVSPropertyOp47
 70
     1
102
RTVSPropertyOp48
 70
     1
102
RTVSPropertyOp49
 70
     1
102
RTVSPropertyOp50
 70
     1
102
RTVSPropertyOp51
 70
     0
102
RTVSPropertyOp52
 70
     0
102
RTVSPropertyOp53
 70
     1
102
RTVSPropertyOp54
 70
     1
102
RTVSPropertyOp55
 70
     1
102
RTVSPropertyOp56
 70
     1
102
RTVSPropertyOp57
 70
     1
102
RTVSPropertyOp58
 70
     1
102
RTVSPropertyOp59
 70
     1
102
RTVSPropertyOp60
 70
     1
102
RTVSPropertyOp61
 70
     1
102
RTVSPropertyOp62
 70
     1
  0
XRECORD
  5
9D3A
102
{ACAD_REACTORS
330
9D39
102
}
330
9D39
100
AcDbXrecord
280
     1
102
RTVSPost2010Prop28
280
     0
102
RTVSPost2010PropOp28
 70
     1
102
RTVSPost2010Prop29
280
     1
102
RTVSPost2010PropOp29
 70
     1
102
RTVSPost2010Prop30
280
     1
102
RTVSPost2010PropOp30
 70
     1
102
RTVSPost2010Prop31
280
     0
102
RTVSPost2010PropOp31
 70
     1
102
RTVSPost2010Prop32
280
     0
102
RTVSPost2010PropOp32
 70
     1
102
RTVSPost2010Prop33
280
     0
102
RTVSPost2010PropOp33
 70
     1
102
RTVSPost2010Prop34
280
     0
102
RTVSPost2010PropOp34
 70
     1
102
RTVSPost2010Prop35
280
     0
102
RTVSPost2010PropOp35
 70
     1
102
RTVSPost2010Prop36
280
     0
102
RTVSPost2010PropOp36
 70
     1
102
RTVSPost2010Prop37
 90
       50
102
RTVSPost2010PropOp37
 70
     1
102
RTVSPost2010Prop38
140
0.0
102
RTVSPost2010PropOp38
 70
     1
102
RTVSPost2010Prop39
140
1.0
102
RTVSPost2010PropOp39
 70
     1
102
RTVSPost2010Prop40
 90
        0
102
RTVSPost2010PropOp40
 70
     1
102
RTVSPost2010Prop41ColorIndex
 90
       18
102
RTVSPost2010Prop41ColorRGB
 90
        0
102
RTVSPost2010PropOp41
 70
     1
102
RTVSPost2010Prop42
 90
       50
102
RTVSPost2010PropOp42
 70
     1
102
RTVSPost2010Prop43
 90
        3
102
RTVSPost2010PropOp43
 70
     1
102
RTVSPost2010Prop44ColorIndex
 90
        5
102
RTVSPost2010Prop44ColorRGB
 90
      255
102
RTVSPost2010PropOp44
 70
     1
102
RTVSPost2010Prop45
280
     0
102
RTVSPost2010PropOp45
 70
     1
102
RTVSPost2010Prop46
 90
       50
102
RTVSPost2010PropOp46
 70
     1
102
RTVSPost2010Prop47
 90
       50
102
RTVSPost2010PropOp47
 70
     1
102
RTVSPost2010Prop48
 90
       50
102
RTVSPost2010PropOp48
 70
     1
102
RTVSPost2010Prop49
280
     0
102
RTVSPost2010PropOp49
 70
     1
102
RTVSPost2010Prop50
 90
       50
102
RTVSPost2010PropOp50
 70
     1
102
RTVSPost2010Prop51ColorIndex
 90
      256
102
RTVSPost2010Prop51ColorRGB
 90
-16777216
102
RTVSPost2010PropOp51
 70
     0
102
RTVSPost2010Prop52
140
1.0
102
RTVSPost2010PropOp52
 70
     0
102
RTVSPost2010Prop53
 90
        2
102
RTVSPost2010PropOp53
 70
     1
102
RTVSPost2010Prop54
  1
strokes_ogs.tif
102
RTVSPost2010PropOp54
 70
     1
102
RTVSPost2010Prop55
280
     0
102
RTVSPost2010PropOp55
 70
     1
102
RTVSPost2010Prop56
140
1.0
102
RTVSPost2010PropOp56
 70
     1
102
RTVSPost2010Prop57
140
1.0
102
RTVSPost2010PropOp57
 70
     1
102
RTVSPropertyOp0
 70
     1
102
RTVSPropertyOp1
 70
     1
102
RTVSPropertyOp2
 70
     1
102
RTVSPropertyOp3
 70
     1
102
RTVSPropertyOp4
 70
     1
102
RTVSPropertyOp5
 70
     1
102
RTVSPropertyOp6
 70
     1
102
RTVSPropertyOp7
 70
     1
102
RTVSPropertyOp8
 70
     1
102
RTVSPropertyOp9
 70
     1
102
RTVSPropertyOp10
 70
     1
102
RTVSPropertyOp11
 70
     1
102
RTVSPropertyOp12
 70
     1
102
RTVSPropertyOp13
 70
     1
102
RTVSPropertyOp14
 70
     1
102
RTVSPropertyOp15
 70
     1
102
RTVSPropertyOp16
 70
     1
102
RTVSPropertyOp17
 70
     1
102
RTVSPropertyOp18
 70
     1
102
RTVSPropertyOp19
 70
     1
102
RTVSPropertyOp20
 70
     1
102
RTVSPropertyOp21
 70
     1
102
RTVSPropertyOp22
 70
     1
102
RTVSPropertyOp23
 70
     1
102
RTVSPropertyOp24
 70
     1
102
RTVSPropertyOp25
 70
     1
102
RTVSPropertyOp26
 70
     1
102
RTVSPropertyOp27
 70
     1
102
RTVSPropertyOp28
 70
     1
102
RTVSPropertyOp29
 70
     1
102
RTVSPropertyOp30
 70
     1
102
RTVSPropertyOp31
 70
     1
102
RTVSPropertyOp32
 70
     1
102
RTVSPropertyOp33
 70
     1
102
RTVSPropertyOp34
 70
     1
102
RTVSPropertyOp35
 70
     1
102
RTVSPropertyOp36
 70
     1
102
RTVSPropertyOp37
 70
     1
102
RTVSPropertyOp38
 70
     1
102
RTVSPropertyOp39
 70
     1
102
RTVSPropertyOp40
 70
     1
102
RTVSPropertyOp41
 70
     1
102
RTVSPropertyOp42
 70
     1
102
RTVSPropertyOp43
 70
     1
102
RTVSPropertyOp44
 70
     1
102
RTVSPropertyOp45
 70
     1
102
RTVSPropertyOp46
 70
     1
102
RTVSPropertyOp47
 70
     1
102
RTVSPropertyOp48
 70
     1
102
RTVSPropertyOp49
 70
     1
102
RTVSPropertyOp50
 70
     1
102
RTVSPropertyOp51
 70
     0
102
RTVSPropertyOp52
 70
     0
102
RTVSPropertyOp53
 70
     1
102
RTVSPropertyOp54
 70
     1
102
RTVSPropertyOp55
 70
     1
102
RTVSPropertyOp56
 70
     1
102
RTVSPropertyOp57
 70
     1
102
RTVSPropertyOp58
 70
     1
102
RTVSPropertyOp59
 70
     1
102
RTVSPropertyOp60
 70
     1
102
RTVSPropertyOp61
 70
     1
102
RTVSPropertyOp62
 70
     1
  0
XRECORD
  5
9D2C
102
{ACAD_REACTORS
330
9D2B
102
}
330
9D2B
100
AcDbXrecord
280
     1
102
RTVSPost2010Prop28
280
     0
102
RTVSPost2010PropOp28
 70
     1
102
RTVSPost2010Prop29
280
     1
102
RTVSPost2010PropOp29
 70
     1
102
RTVSPost2010Prop30
280
     1
102
RTVSPost2010PropOp30
 70
     1
102
RTVSPost2010Prop31
280
     0
102
RTVSPost2010PropOp31
 70
     1
102
RTVSPost2010Prop32
280
     0
102
RTVSPost2010PropOp32
 70
     1
102
RTVSPost2010Prop33
280
     0
102
RTVSPost2010PropOp33
 70
     1
102
RTVSPost2010Prop34
280
     0
102
RTVSPost2010PropOp34
 70
     1
102
RTVSPost2010Prop35
280
     0
102
RTVSPost2010PropOp35
 70
     1
102
RTVSPost2010Prop36
280
     0
102
RTVSPost2010PropOp36
 70
     1
102
RTVSPost2010Prop37
 90
       50
102
RTVSPost2010PropOp37
 70
     1
102
RTVSPost2010Prop38
140
0.0
102
RTVSPost2010PropOp38
 70
     1
102
RTVSPost2010Prop39
140
1.0
102
RTVSPost2010PropOp39
 70
     1
102
RTVSPost2010Prop40
 90
        0
102
RTVSPost2010PropOp40
 70
     1
102
RTVSPost2010Prop41ColorIndex
 90
       18
102
RTVSPost2010Prop41ColorRGB
 90
        0
102
RTVSPost2010PropOp41
 70
     1
102
RTVSPost2010Prop42
 90
       50
102
RTVSPost2010PropOp42
 70
     1
102
RTVSPost2010Prop43
 90
        3
102
RTVSPost2010PropOp43
 70
     1
102
RTVSPost2010Prop44ColorIndex
 90
        5
102
RTVSPost2010Prop44ColorRGB
 90
      255
102
RTVSPost2010PropOp44
 70
     1
102
RTVSPost2010Prop45
280
     0
102
RTVSPost2010PropOp45
 70
     1
102
RTVSPost2010Prop46
 90
       50
102
RTVSPost2010PropOp46
 70
     1
102
RTVSPost2010Prop47
 90
       50
102
RTVSPost2010PropOp47
 70
     1
102
RTVSPost2010Prop48
 90
       50
102
RTVSPost2010PropOp48
 70
     1
102
RTVSPost2010Prop49
280
     0
102
RTVSPost2010PropOp49
 70
     1
102
RTVSPost2010Prop50
 90
       50
102
RTVSPost2010PropOp50
 70
     1
102
RTVSPost2010Prop51ColorIndex
 90
      256
102
RTVSPost2010Prop51ColorRGB
 90
-16777216
102
RTVSPost2010PropOp51
 70
     0
102
RTVSPost2010Prop52
140
1.0
102
RTVSPost2010PropOp52
 70
     0
102
RTVSPost2010Prop53
 90
        2
102
RTVSPost2010PropOp53
 70
     1
102
RTVSPost2010Prop54
  1
strokes_ogs.tif
102
RTVSPost2010PropOp54
 70
     1
102
RTVSPost2010Prop55
280
     0
102
RTVSPost2010PropOp55
 70
     1
102
RTVSPost2010Prop56
140
1.0
102
RTVSPost2010PropOp56
 70
     1
102
RTVSPost2010Prop57
140
1.0
102
RTVSPost2010PropOp57
 70
     1
102
RTVSPropertyOp0
 70
     1
102
RTVSPropertyOp1
 70
     1
102
RTVSPropertyOp2
 70
     1
102
RTVSPropertyOp3
 70
     1
102
RTVSPropertyOp4
 70
     1
102
RTVSPropertyOp5
 70
     1
102
RTVSPropertyOp6
 70
     1
102
RTVSPropertyOp7
 70
     1
102
RTVSPropertyOp8
 70
     1
102
RTVSPropertyOp9
 70
     1
102
RTVSPropertyOp10
 70
     1
102
RTVSPropertyOp11
 70
     1
102
RTVSPropertyOp12
 70
     1
102
RTVSPropertyOp13
 70
     1
102
RTVSPropertyOp14
 70
     1
102
RTVSPropertyOp15
 70
     1
102
RTVSPropertyOp16
 70
     1
102
RTVSPropertyOp17
 70
     1
102
RTVSPropertyOp18
 70
     1
102
RTVSPropertyOp19
 70
     1
102
RTVSPropertyOp20
 70
     1
102
RTVSPropertyOp21
 70
     1
102
RTVSPropertyOp22
 70
     1
102
RTVSPropertyOp23
 70
     1
102
RTVSPropertyOp24
 70
     1
102
RTVSPropertyOp25
 70
     1
102
RTVSPropertyOp26
 70
     1
102
RTVSPropertyOp27
 70
     1
102
RTVSPropertyOp28
 70
     1
102
RTVSPropertyOp29
 70
     1
102
RTVSPropertyOp30
 70
     1
102
RTVSPropertyOp31
 70
     1
102
RTVSPropertyOp32
 70
     1
102
RTVSPropertyOp33
 70
     1
102
RTVSPropertyOp34
 70
     1
102
RTVSPropertyOp35
 70
     1
102
RTVSPropertyOp36
 70
     1
102
RTVSPropertyOp37
 70
     1
102
RTVSPropertyOp38
 70
     1
102
RTVSPropertyOp39
 70
     1
102
RTVSPropertyOp40
 70
     1
102
RTVSPropertyOp41
 70
     1
102
RTVSPropertyOp42
 70
     1
102
RTVSPropertyOp43
 70
     1
102
RTVSPropertyOp44
 70
     1
102
RTVSPropertyOp45
 70
     1
102
RTVSPropertyOp46
 70
     1
102
RTVSPropertyOp47
 70
     1
102
RTVSPropertyOp48
 70
     1
102
RTVSPropertyOp49
 70
     1
102
RTVSPropertyOp50
 70
     1
102
RTVSPropertyOp51
 70
     0
102
RTVSPropertyOp52
 70
     0
102
RTVSPropertyOp53
 70
     1
102
RTVSPropertyOp54
 70
     1
102
RTVSPropertyOp55
 70
     1
102
RTVSPropertyOp56
 70
     1
102
RTVSPropertyOp57
 70
     1
102
RTVSPropertyOp58
 70
     1
102
RTVSPropertyOp59
 70
     1
102
RTVSPropertyOp60
 70
     1
102
RTVSPropertyOp61
 70
     1
102
RTVSPropertyOp62
 70
     1
  0
XRECORD
  5
9D30
102
{ACAD_REACTORS
330
9D2F
102
}
330
9D2F
100
AcDbXrecord
280
     1
102
RTVSPost2010Prop28
280
     0
102
RTVSPost2010PropOp28
 70
     1
102
RTVSPost2010Prop29
280
     1
102
RTVSPost2010PropOp29
 70
     1
102
RTVSPost2010Prop30
280
     1
102
RTVSPost2010PropOp30
 70
     1
102
RTVSPost2010Prop31
280
     0
102
RTVSPost2010PropOp31
 70
     1
102
RTVSPost2010Prop32
280
     0
102
RTVSPost2010PropOp32
 70
     1
102
RTVSPost2010Prop33
280
     0
102
RTVSPost2010PropOp33
 70
     1
102
RTVSPost2010Prop34
280
     0
102
RTVSPost2010PropOp34
 70
     1
102
RTVSPost2010Prop35
280
     0
102
RTVSPost2010PropOp35
 70
     1
102
RTVSPost2010Prop36
280
     0
102
RTVSPost2010PropOp36
 70
     1
102
RTVSPost2010Prop37
 90
       50
102
RTVSPost2010PropOp37
 70
     1
102
RTVSPost2010Prop38
140
0.0
102
RTVSPost2010PropOp38
 70
     1
102
RTVSPost2010Prop39
140
1.0
102
RTVSPost2010PropOp39
 70
     1
102
RTVSPost2010Prop40
 90
        0
102
RTVSPost2010PropOp40
 70
     1
102
RTVSPost2010Prop41ColorIndex
 90
       18
102
RTVSPost2010Prop41ColorRGB
 90
        0
102
RTVSPost2010PropOp41
 70
     1
102
RTVSPost2010Prop42
 90
       50
102
RTVSPost2010PropOp42
 70
     1
102
RTVSPost2010Prop43
 90
        3
102
RTVSPost2010PropOp43
 70
     1
102
RTVSPost2010Prop44ColorIndex
 90
        5
102
RTVSPost2010Prop44ColorRGB
 90
      255
102
RTVSPost2010PropOp44
 70
     1
102
RTVSPost2010Prop45
280
     0
102
RTVSPost2010PropOp45
 70
     1
102
RTVSPost2010Prop46
 90
       50
102
RTVSPost2010PropOp46
 70
     1
102
RTVSPost2010Prop47
 90
       50
102
RTVSPost2010PropOp47
 70
     1
102
RTVSPost2010Prop48
 90
       50
102
RTVSPost2010PropOp48
 70
     1
102
RTVSPost2010Prop49
280
     0
102
RTVSPost2010PropOp49
 70
     1
102
RTVSPost2010Prop50
 90
       50
102
RTVSPost2010PropOp50
 70
     1
102
RTVSPost2010Prop51ColorIndex
 90
      256
102
RTVSPost2010Prop51ColorRGB
 90
-16777216
102
RTVSPost2010PropOp51
 70
     0
102
RTVSPost2010Prop52
140
1.0
102
RTVSPost2010PropOp52
 70
     0
102
RTVSPost2010Prop53
 90
        2
102
RTVSPost2010PropOp53
 70
     1
102
RTVSPost2010Prop54
  1
strokes_ogs.tif
102
RTVSPost2010PropOp54
 70
     1
102
RTVSPost2010Prop55
280
     0
102
RTVSPost2010PropOp55
 70
     1
102
RTVSPost2010Prop56
140
1.0
102
RTVSPost2010PropOp56
 70
     1
102
RTVSPost2010Prop57
140
1.0
102
RTVSPost2010PropOp57
 70
     1
102
RTVSPropertyOp0
 70
     1
102
RTVSPropertyOp1
 70
     1
102
RTVSPropertyOp2
 70
     1
102
RTVSPropertyOp3
 70
     1
102
RTVSPropertyOp4
 70
     1
102
RTVSPropertyOp5
 70
     1
102
RTVSPropertyOp6
 70
     1
102
RTVSPropertyOp7
 70
     1
102
RTVSPropertyOp8
 70
     1
102
RTVSPropertyOp9
 70
     1
102
RTVSPropertyOp10
 70
     1
102
RTVSPropertyOp11
 70
     1
102
RTVSPropertyOp12
 70
     1
102
RTVSPropertyOp13
 70
     1
102
RTVSPropertyOp14
 70
     1
102
RTVSPropertyOp15
 70
     1
102
RTVSPropertyOp16
 70
     1
102
RTVSPropertyOp17
 70
     1
102
RTVSPropertyOp18
 70
     1
102
RTVSPropertyOp19
 70
     1
102
RTVSPropertyOp20
 70
     1
102
RTVSPropertyOp21
 70
     1
102
RTVSPropertyOp22
 70
     1
102
RTVSPropertyOp23
 70
     1
102
RTVSPropertyOp24
 70
     1
102
RTVSPropertyOp25
 70
     1
102
RTVSPropertyOp26
 70
     1
102
RTVSPropertyOp27
 70
     1
102
RTVSPropertyOp28
 70
     1
102
RTVSPropertyOp29
 70
     1
102
RTVSPropertyOp30
 70
     1
102
RTVSPropertyOp31
 70
     1
102
RTVSPropertyOp32
 70
     1
102
RTVSPropertyOp33
 70
     1
102
RTVSPropertyOp34
 70
     1
102
RTVSPropertyOp35
 70
     1
102
RTVSPropertyOp36
 70
     1
102
RTVSPropertyOp37
 70
     1
102
RTVSPropertyOp38
 70
     1
102
RTVSPropertyOp39
 70
     1
102
RTVSPropertyOp40
 70
     1
102
RTVSPropertyOp41
 70
     1
102
RTVSPropertyOp42
 70
     1
102
RTVSPropertyOp43
 70
     1
102
RTVSPropertyOp44
 70
     1
102
RTVSPropertyOp45
 70
     1
102
RTVSPropertyOp46
 70
     1
102
RTVSPropertyOp47
 70
     1
102
RTVSPropertyOp48
 70
     1
102
RTVSPropertyOp49
 70
     1
102
RTVSPropertyOp50
 70
     1
102
RTVSPropertyOp51
 70
     0
102
RTVSPropertyOp52
 70
     0
102
RTVSPropertyOp53
 70
     1
102
RTVSPropertyOp54
 70
     1
102
RTVSPropertyOp55
 70
     1
102
RTVSPropertyOp56
 70
     1
102
RTVSPropertyOp57
 70
     1
102
RTVSPropertyOp58
 70
     1
102
RTVSPropertyOp59
 70
     1
102
RTVSPropertyOp60
 70
     1
102
RTVSPropertyOp61
 70
     1
102
RTVSPropertyOp62
 70
     1
  0
XRECORD
  5
9D4A
102
{ACAD_REACTORS
330
9D49
102
}
330
9D49
100
AcDbXrecord
280
     1
102
RTVSPost2010Prop28
280
     0
102
RTVSPost2010PropOp28
 70
     1
102
RTVSPost2010Prop29
280
     1
102
RTVSPost2010PropOp29
 70
     1
102
RTVSPost2010Prop30
280
     1
102
RTVSPost2010PropOp30
 70
     1
102
RTVSPost2010Prop31
280
     0
102
RTVSPost2010PropOp31
 70
     1
102
RTVSPost2010Prop32
280
     0
102
RTVSPost2010PropOp32
 70
     1
102
RTVSPost2010Prop33
280
     0
102
RTVSPost2010PropOp33
 70
     1
102
RTVSPost2010Prop34
280
     0
102
RTVSPost2010PropOp34
 70
     1
102
RTVSPost2010Prop35
280
     0
102
RTVSPost2010PropOp35
 70
     1
102
RTVSPost2010Prop36
280
     0
102
RTVSPost2010PropOp36
 70
     1
102
RTVSPost2010Prop37
 90
       50
102
RTVSPost2010PropOp37
 70
     0
102
RTVSPost2010Prop38
140
0.0
102
RTVSPost2010PropOp38
 70
     0
102
RTVSPost2010Prop39
140
1.0
102
RTVSPost2010PropOp39
 70
     0
102
RTVSPost2010Prop40
 90
        0
102
RTVSPost2010PropOp40
 70
     0
102
RTVSPost2010Prop41ColorIndex
 90
       18
102
RTVSPost2010Prop41ColorRGB
 90
        0
102
RTVSPost2010PropOp41
 70
     0
102
RTVSPost2010Prop42
 90
       50
102
RTVSPost2010PropOp42
 70
     0
102
RTVSPost2010Prop43
 90
        3
102
RTVSPost2010PropOp43
 70
     0
102
RTVSPost2010Prop44ColorIndex
 90
        5
102
RTVSPost2010Prop44ColorRGB
 90
      255
102
RTVSPost2010PropOp44
 70
     0
102
RTVSPost2010Prop45
280
     0
102
RTVSPost2010PropOp45
 70
     1
102
RTVSPost2010Prop46
 90
       50
102
RTVSPost2010PropOp46
 70
     0
102
RTVSPost2010Prop47
 90
       50
102
RTVSPost2010PropOp47
 70
     0
102
RTVSPost2010Prop48
 90
       50
102
RTVSPost2010PropOp48
 70
     0
102
RTVSPost2010Prop49
280
     0
102
RTVSPost2010PropOp49
 70
     1
102
RTVSPost2010Prop50
 90
       50
102
RTVSPost2010PropOp50
 70
     0
102
RTVSPost2010Prop51ColorIndex
 90
      256
102
RTVSPost2010Prop51ColorRGB
 90
-16777216
102
RTVSPost2010PropOp51
 70
     0
102
RTVSPost2010Prop52
140
1.0
102
RTVSPost2010PropOp52
 70
     0
102
RTVSPost2010Prop53
 90
        2
102
RTVSPost2010PropOp53
 70
     0
102
RTVSPost2010Prop54
  1
strokes_ogs.tif
102
RTVSPost2010PropOp54
 70
     0
102
RTVSPost2010Prop55
280
     0
102
RTVSPost2010PropOp55
 70
     1
102
RTVSPost2010Prop56
140
1.0
102
RTVSPost2010PropOp56
 70
     0
102
RTVSPost2010Prop57
140
1.0
102
RTVSPost2010PropOp57
 70
     0
102
RTVSPropertyOp0
 70
     0
102
RTVSPropertyOp1
 70
     0
102
RTVSPropertyOp2
 70
     0
102
RTVSPropertyOp3
 70
     0
102
RTVSPropertyOp4
 70
     0
102
RTVSPropertyOp5
 70
     0
102
RTVSPropertyOp6
 70
     0
102
RTVSPropertyOp7
 70
     0
102
RTVSPropertyOp8
 70
     0
102
RTVSPropertyOp9
 70
     0
102
RTVSPropertyOp10
 70
     0
102
RTVSPropertyOp11
 70
     0
102
RTVSPropertyOp12
 70
     0
102
RTVSPropertyOp13
 70
     0
102
RTVSPropertyOp14
 70
     2
102
RTVSPropertyOp15
 70
     0
102
RTVSPropertyOp16
 70
     0
102
RTVSPropertyOp17
 70
     0
102
RTVSPropertyOp18
 70
     0
102
RTVSPropertyOp19
 70
     0
102
RTVSPropertyOp20
 70
     0
102
RTVSPropertyOp21
 70
     0
102
RTVSPropertyOp22
 70
     0
102
RTVSPropertyOp23
 70
     0
102
RTVSPropertyOp24
 70
     0
102
RTVSPropertyOp25
 70
     0
102
RTVSPropertyOp26
 70
     0
102
RTVSPropertyOp27
 70
     0
102
RTVSPropertyOp28
 70
     1
102
RTVSPropertyOp29
 70
     1
102
RTVSPropertyOp30
 70
     1
102
RTVSPropertyOp31
 70
     1
102
RTVSPropertyOp32
 70
     1
102
RTVSPropertyOp33
 70
     1
102
RTVSPropertyOp34
 70
     1
102
RTVSPropertyOp35
 70
     1
102
RTVSPropertyOp36
 70
     1
102
RTVSPropertyOp37
 70
     0
102
RTVSPropertyOp38
 70
     0
102
RTVSPropertyOp39
 70
     0
102
RTVSPropertyOp40
 70
     0
102
RTVSPropertyOp41
 70
     0
102
RTVSPropertyOp42
 70
     0
102
RTVSPropertyOp43
 70
     0
102
RTVSPropertyOp44
 70
     0
102
RTVSPropertyOp45
 70
     1
102
RTVSPropertyOp46
 70
     0
102
RTVSPropertyOp47
 70
     0
102
RTVSPropertyOp48
 70
     0
102
RTVSPropertyOp49
 70
     1
102
RTVSPropertyOp50
 70
     0
102
RTVSPropertyOp51
 70
     0
102
RTVSPropertyOp52
 70
     0
102
RTVSPropertyOp53
 70
     0
102
RTVSPropertyOp54
 70
     0
102
RTVSPropertyOp55
 70
     1
102
RTVSPropertyOp56
 70
     0
102
RTVSPropertyOp57
 70
     0
102
RTVSPropertyOp58
 70
     0
102
RTVSPropertyOp59
 70
     0
102
RTVSPropertyOp60
 70
     0
102
RTVSPropertyOp61
 70
     0
102
RTVSPropertyOp62
 70
     0
  0
XRECORD
  5
9D38
102
{ACAD_REACTORS
330
9D37
102
}
330
9D37
100
AcDbXrecord
280
     1
102
RTVSPost2010Prop28
280
     0
102
RTVSPost2010PropOp28
 70
     1
102
RTVSPost2010Prop29
280
     1
102
RTVSPost2010PropOp29
 70
     1
102
RTVSPost2010Prop30
280
     1
102
RTVSPost2010PropOp30
 70
     1
102
RTVSPost2010Prop31
280
     0
102
RTVSPost2010PropOp31
 70
     1
102
RTVSPost2010Prop32
280
     0
102
RTVSPost2010PropOp32
 70
     1
102
RTVSPost2010Prop33
280
     0
102
RTVSPost2010PropOp33
 70
     1
102
RTVSPost2010Prop34
280
     0
102
RTVSPost2010PropOp34
 70
     1
102
RTVSPost2010Prop35
280
     0
102
RTVSPost2010PropOp35
 70
     1
102
RTVSPost2010Prop36
280
     0
102
RTVSPost2010PropOp36
 70
     1
102
RTVSPost2010Prop37
 90
       50
102
RTVSPost2010PropOp37
 70
     1
102
RTVSPost2010Prop38
140
0.0
102
RTVSPost2010PropOp38
 70
     1
102
RTVSPost2010Prop39
140
1.0
102
RTVSPost2010PropOp39
 70
     1
102
RTVSPost2010Prop40
 90
        0
102
RTVSPost2010PropOp40
 70
     1
102
RTVSPost2010Prop41ColorIndex
 90
       18
102
RTVSPost2010Prop41ColorRGB
 90
        0
102
RTVSPost2010PropOp41
 70
     1
102
RTVSPost2010Prop42
 90
       50
102
RTVSPost2010PropOp42
 70
     1
102
RTVSPost2010Prop43
 90
        3
102
RTVSPost2010PropOp43
 70
     1
102
RTVSPost2010Prop44ColorIndex
 90
        5
102
RTVSPost2010Prop44ColorRGB
 90
      255
102
RTVSPost2010PropOp44
 70
     1
102
RTVSPost2010Prop45
280
     0
102
RTVSPost2010PropOp45
 70
     1
102
RTVSPost2010Prop46
 90
       50
102
RTVSPost2010PropOp46
 70
     1
102
RTVSPost2010Prop47
 90
       50
102
RTVSPost2010PropOp47
 70
     1
102
RTVSPost2010Prop48
 90
       50
102
RTVSPost2010PropOp48
 70
     1
102
RTVSPost2010Prop49
280
     0
102
RTVSPost2010PropOp49
 70
     1
102
RTVSPost2010Prop50
 90
       50
102
RTVSPost2010PropOp50
 70
     1
102
RTVSPost2010Prop51ColorIndex
 90
      256
102
RTVSPost2010Prop51ColorRGB
 90
-16777216
102
RTVSPost2010PropOp51
 70
     0
102
RTVSPost2010Prop52
140
1.0
102
RTVSPost2010PropOp52
 70
     0
102
RTVSPost2010Prop53
 90
        2
102
RTVSPost2010PropOp53
 70
     1
102
RTVSPost2010Prop54
  1
strokes_ogs.tif
102
RTVSPost2010PropOp54
 70
     1
102
RTVSPost2010Prop55
280
     0
102
RTVSPost2010PropOp55
 70
     1
102
RTVSPost2010Prop56
140
1.0
102
RTVSPost2010PropOp56
 70
     1
102
RTVSPost2010Prop57
140
1.0
102
RTVSPost2010PropOp57
 70
     1
102
RTVSPropertyOp0
 70
     1
102
RTVSPropertyOp1
 70
     1
102
RTVSPropertyOp2
 70
     1
102
RTVSPropertyOp3
 70
     1
102
RTVSPropertyOp4
 70
     1
102
RTVSPropertyOp5
 70
     1
102
RTVSPropertyOp6
 70
     1
102
RTVSPropertyOp7
 70
     1
102
RTVSPropertyOp8
 70
     1
102
RTVSPropertyOp9
 70
     1
102
RTVSPropertyOp10
 70
     1
102
RTVSPropertyOp11
 70
     1
102
RTVSPropertyOp12
 70
     1
102
RTVSPropertyOp13
 70
     1
102
RTVSPropertyOp14
 70
     1
102
RTVSPropertyOp15
 70
     1
102
RTVSPropertyOp16
 70
     1
102
RTVSPropertyOp17
 70
     1
102
RTVSPropertyOp18
 70
     1
102
RTVSPropertyOp19
 70
     1
102
RTVSPropertyOp20
 70
     1
102
RTVSPropertyOp21
 70
     1
102
RTVSPropertyOp22
 70
     1
102
RTVSPropertyOp23
 70
     1
102
RTVSPropertyOp24
 70
     1
102
RTVSPropertyOp25
 70
     1
102
RTVSPropertyOp26
 70
     1
102
RTVSPropertyOp27
 70
     1
102
RTVSPropertyOp28
 70
     1
102
RTVSPropertyOp29
 70
     1
102
RTVSPropertyOp30
 70
     1
102
RTVSPropertyOp31
 70
     1
102
RTVSPropertyOp32
 70
     1
102
RTVSPropertyOp33
 70
     1
102
RTVSPropertyOp34
 70
     1
102
RTVSPropertyOp35
 70
     1
102
RTVSPropertyOp36
 70
     1
102
RTVSPropertyOp37
 70
     1
102
RTVSPropertyOp38
 70
     1
102
RTVSPropertyOp39
 70
     1
102
RTVSPropertyOp40
 70
     1
102
RTVSPropertyOp41
 70
     1
102
RTVSPropertyOp42
 70
     1
102
RTVSPropertyOp43
 70
     1
102
RTVSPropertyOp44
 70
     1
102
RTVSPropertyOp45
 70
     1
102
RTVSPropertyOp46
 70
     1
102
RTVSPropertyOp47
 70
     1
102
RTVSPropertyOp48
 70
     1
102
RTVSPropertyOp49
 70
     1
102
RTVSPropertyOp50
 70
     1
102
RTVSPropertyOp51
 70
     0
102
RTVSPropertyOp52
 70
     0
102
RTVSPropertyOp53
 70
     1
102
RTVSPropertyOp54
 70
     1
102
RTVSPropertyOp55
 70
     1
102
RTVSPropertyOp56
 70
     1
102
RTVSPropertyOp57
 70
     1
102
RTVSPropertyOp58
 70
     1
102
RTVSPropertyOp59
 70
     1
102
RTVSPropertyOp60
 70
     1
102
RTVSPropertyOp61
 70
     1
102
RTVSPropertyOp62
 70
     1
  0
XRECORD
  5
9D1C
102
{ACAD_REACTORS
330
9D1B
102
}
330
9D1B
100
AcDbXrecord
280
     1
102
RTVSPost2010Prop28
280
     0
102
RTVSPost2010PropOp28
 70
     1
102
RTVSPost2010Prop29
280
     1
102
RTVSPost2010PropOp29
 70
     1
102
RTVSPost2010Prop30
280
     1
102
RTVSPost2010PropOp30
 70
     1
102
RTVSPost2010Prop31
280
     0
102
RTVSPost2010PropOp31
 70
     1
102
RTVSPost2010Prop32
280
     0
102
RTVSPost2010PropOp32
 70
     1
102
RTVSPost2010Prop33
280
     0
102
RTVSPost2010PropOp33
 70
     1
102
RTVSPost2010Prop34
280
     0
102
RTVSPost2010PropOp34
 70
     1
102
RTVSPost2010Prop35
280
     0
102
RTVSPost2010PropOp35
 70
     1
102
RTVSPost2010Prop36
280
     0
102
RTVSPost2010PropOp36
 70
     1
102
RTVSPost2010Prop37
 90
       50
102
RTVSPost2010PropOp37
 70
     1
102
RTVSPost2010Prop38
140
0.0
102
RTVSPost2010PropOp38
 70
     1
102
RTVSPost2010Prop39
140
1.0
102
RTVSPost2010PropOp39
 70
     1
102
RTVSPost2010Prop40
 90
        0
102
RTVSPost2010PropOp40
 70
     1
102
RTVSPost2010Prop41ColorIndex
 90
       18
102
RTVSPost2010Prop41ColorRGB
 90
        0
102
RTVSPost2010PropOp41
 70
     1
102
RTVSPost2010Prop42
 90
       50
102
RTVSPost2010PropOp42
 70
     1
102
RTVSPost2010Prop43
 90
        3
102
RTVSPost2010PropOp43
 70
     1
102
RTVSPost2010Prop44ColorIndex
 90
        5
102
RTVSPost2010Prop44ColorRGB
 90
      255
102
RTVSPost2010PropOp44
 70
     1
102
RTVSPost2010Prop45
280
     0
102
RTVSPost2010PropOp45
 70
     1
102
RTVSPost2010Prop46
 90
       50
102
RTVSPost2010PropOp46
 70
     1
102
RTVSPost2010Prop47
 90
       50
102
RTVSPost2010PropOp47
 70
     1
102
RTVSPost2010Prop48
 90
       50
102
RTVSPost2010PropOp48
 70
     1
102
RTVSPost2010Prop49
280
     0
102
RTVSPost2010PropOp49
 70
     1
102
RTVSPost2010Prop50
 90
       50
102
RTVSPost2010PropOp50
 70
     1
102
RTVSPost2010Prop51ColorIndex
 90
      256
102
RTVSPost2010Prop51ColorRGB
 90
-16777216
102
RTVSPost2010PropOp51
 70
     0
102
RTVSPost2010Prop52
140
1.0
102
RTVSPost2010PropOp52
 70
     0
102
RTVSPost2010Prop53
 90
        2
102
RTVSPost2010PropOp53
 70
     1
102
RTVSPost2010Prop54
  1
strokes_ogs.tif
102
RTVSPost2010PropOp54
 70
     1
102
RTVSPost2010Prop55
280
     0
102
RTVSPost2010PropOp55
 70
     1
102
RTVSPost2010Prop56
140
1.0
102
RTVSPost2010PropOp56
 70
     1
102
RTVSPost2010Prop57
140
1.0
102
RTVSPost2010PropOp57
 70
     1
102
RTVSPropertyOp0
 70
     1
102
RTVSPropertyOp1
 70
     1
102
RTVSPropertyOp2
 70
     1
102
RTVSPropertyOp3
 70
     1
102
RTVSPropertyOp4
 70
     1
102
RTVSPropertyOp5
 70
     1
102
RTVSPropertyOp6
 70
     1
102
RTVSPropertyOp7
 70
     1
102
RTVSPropertyOp8
 70
     1
102
RTVSPropertyOp9
 70
     1
102
RTVSPropertyOp10
 70
     1
102
RTVSPropertyOp11
 70
     1
102
RTVSPropertyOp12
 70
     1
102
RTVSPropertyOp13
 70
     1
102
RTVSPropertyOp14
 70
     1
102
RTVSPropertyOp15
 70
     1
102
RTVSPropertyOp16
 70
     1
102
RTVSPropertyOp17
 70
     1
102
RTVSPropertyOp18
 70
     1
102
RTVSPropertyOp19
 70
     1
102
RTVSPropertyOp20
 70
     1
102
RTVSPropertyOp21
 70
     1
102
RTVSPropertyOp22
 70
     1
102
RTVSPropertyOp23
 70
     1
102
RTVSPropertyOp24
 70
     1
102
RTVSPropertyOp25
 70
     1
102
RTVSPropertyOp26
 70
     1
102
RTVSPropertyOp27
 70
     1
102
RTVSPropertyOp28
 70
     1
102
RTVSPropertyOp29
 70
     1
102
RTVSPropertyOp30
 70
     1
102
RTVSPropertyOp31
 70
     1
102
RTVSPropertyOp32
 70
     1
102
RTVSPropertyOp33
 70
     1
102
RTVSPropertyOp34
 70
     1
102
RTVSPropertyOp35
 70
     1
102
RTVSPropertyOp36
 70
     1
102
RTVSPropertyOp37
 70
     1
102
RTVSPropertyOp38
 70
     1
102
RTVSPropertyOp39
 70
     1
102
RTVSPropertyOp40
 70
     1
102
RTVSPropertyOp41
 70
     1
102
RTVSPropertyOp42
 70
     1
102
RTVSPropertyOp43
 70
     1
102
RTVSPropertyOp44
 70
     1
102
RTVSPropertyOp45
 70
     1
102
RTVSPropertyOp46
 70
     1
102
RTVSPropertyOp47
 70
     1
102
RTVSPropertyOp48
 70
     1
102
RTVSPropertyOp49
 70
     1
102
RTVSPropertyOp50
 70
     1
102
RTVSPropertyOp51
 70
     0
102
RTVSPropertyOp52
 70
     0
102
RTVSPropertyOp53
 70
     1
102
RTVSPropertyOp54
 70
     1
102
RTVSPropertyOp55
 70
     1
102
RTVSPropertyOp56
 70
     1
102
RTVSPropertyOp57
 70
     1
102
RTVSPropertyOp58
 70
     1
102
RTVSPropertyOp59
 70
     1
102
RTVSPropertyOp60
 70
     1
102
RTVSPropertyOp61
 70
     1
102
RTVSPropertyOp62
 70
     1
  0
XRECORD
  5
9D1E
102
{ACAD_REACTORS
330
9D1D
102
}
330
9D1D
100
AcDbXrecord
280
     1
102
RTVSPost2010Prop28
280
     0
102
RTVSPost2010PropOp28
 70
     1
102
RTVSPost2010Prop29
280
     1
102
RTVSPost2010PropOp29
 70
     1
102
RTVSPost2010Prop30
280
     1
102
RTVSPost2010PropOp30
 70
     1
102
RTVSPost2010Prop31
280
     0
102
RTVSPost2010PropOp31
 70
     1
102
RTVSPost2010Prop32
280
     0
102
RTVSPost2010PropOp32
 70
     1
102
RTVSPost2010Prop33
280
     0
102
RTVSPost2010PropOp33
 70
     1
102
RTVSPost2010Prop34
280
     0
102
RTVSPost2010PropOp34
 70
     1
102
RTVSPost2010Prop35
280
     0
102
RTVSPost2010PropOp35
 70
     1
102
RTVSPost2010Prop36
280
     0
102
RTVSPost2010PropOp36
 70
     1
102
RTVSPost2010Prop37
 90
       50
102
RTVSPost2010PropOp37
 70
     1
102
RTVSPost2010Prop38
140
0.0
102
RTVSPost2010PropOp38
 70
     1
102
RTVSPost2010Prop39
140
1.0
102
RTVSPost2010PropOp39
 70
     1
102
RTVSPost2010Prop40
 90
        0
102
RTVSPost2010PropOp40
 70
     1
102
RTVSPost2010Prop41ColorIndex
 90
       18
102
RTVSPost2010Prop41ColorRGB
 90
        0
102
RTVSPost2010PropOp41
 70
     1
102
RTVSPost2010Prop42
 90
       50
102
RTVSPost2010PropOp42
 70
     1
102
RTVSPost2010Prop43
 90
        3
102
RTVSPost2010PropOp43
 70
     1
102
RTVSPost2010Prop44ColorIndex
 90
        5
102
RTVSPost2010Prop44ColorRGB
 90
      255
102
RTVSPost2010PropOp44
 70
     1
102
RTVSPost2010Prop45
280
     0
102
RTVSPost2010PropOp45
 70
     1
102
RTVSPost2010Prop46
 90
       50
102
RTVSPost2010PropOp46
 70
     1
102
RTVSPost2010Prop47
 90
       50
102
RTVSPost2010PropOp47
 70
     1
102
RTVSPost2010Prop48
 90
       50
102
RTVSPost2010PropOp48
 70
     1
102
RTVSPost2010Prop49
280
     0
102
RTVSPost2010PropOp49
 70
     1
102
RTVSPost2010Prop50
 90
       50
102
RTVSPost2010PropOp50
 70
     1
102
RTVSPost2010Prop51ColorIndex
 90
      256
102
RTVSPost2010Prop51ColorRGB
 90
-16777216
102
RTVSPost2010PropOp51
 70
     0
102
RTVSPost2010Prop52
140
1.0
102
RTVSPost2010PropOp52
 70
     0
102
RTVSPost2010Prop53
 90
        2
102
RTVSPost2010PropOp53
 70
     1
102
RTVSPost2010Prop54
  1
strokes_ogs.tif
102
RTVSPost2010PropOp54
 70
     1
102
RTVSPost2010Prop55
280
     0
102
RTVSPost2010PropOp55
 70
     1
102
RTVSPost2010Prop56
140
1.0
102
RTVSPost2010PropOp56
 70
     1
102
RTVSPost2010Prop57
140
1.0
102
RTVSPost2010PropOp57
 70
     1
102
RTVSPropertyOp0
 70
     1
102
RTVSPropertyOp1
 70
     1
102
RTVSPropertyOp2
 70
     1
102
RTVSPropertyOp3
 70
     1
102
RTVSPropertyOp4
 70
     1
102
RTVSPropertyOp5
 70
     1
102
RTVSPropertyOp6
 70
     1
102
RTVSPropertyOp7
 70
     1
102
RTVSPropertyOp8
 70
     1
102
RTVSPropertyOp9
 70
     1
102
RTVSPropertyOp10
 70
     1
102
RTVSPropertyOp11
 70
     1
102
RTVSPropertyOp12
 70
     1
102
RTVSPropertyOp13
 70
     1
102
RTVSPropertyOp14
 70
     1
102
RTVSPropertyOp15
 70
     1
102
RTVSPropertyOp16
 70
     1
102
RTVSPropertyOp17
 70
     1
102
RTVSPropertyOp18
 70
     1
102
RTVSPropertyOp19
 70
     1
102
RTVSPropertyOp20
 70
     1
102
RTVSPropertyOp21
 70
     1
102
RTVSPropertyOp22
 70
     1
102
RTVSPropertyOp23
 70
     1
102
RTVSPropertyOp24
 70
     1
102
RTVSPropertyOp25
 70
     1
102
RTVSPropertyOp26
 70
     1
102
RTVSPropertyOp27
 70
     1
102
RTVSPropertyOp28
 70
     1
102
RTVSPropertyOp29
 70
     1
102
RTVSPropertyOp30
 70
     1
102
RTVSPropertyOp31
 70
     1
102
RTVSPropertyOp32
 70
     1
102
RTVSPropertyOp33
 70
     1
102
RTVSPropertyOp34
 70
     1
102
RTVSPropertyOp35
 70
     1
102
RTVSPropertyOp36
 70
     1
102
RTVSPropertyOp37
 70
     1
102
RTVSPropertyOp38
 70
     1
102
RTVSPropertyOp39
 70
     1
102
RTVSPropertyOp40
 70
     1
102
RTVSPropertyOp41
 70
     1
102
RTVSPropertyOp42
 70
     1
102
RTVSPropertyOp43
 70
     1
102
RTVSPropertyOp44
 70
     1
102
RTVSPropertyOp45
 70
     1
102
RTVSPropertyOp46
 70
     1
102
RTVSPropertyOp47
 70
     1
102
RTVSPropertyOp48
 70
     1
102
RTVSPropertyOp49
 70
     1
102
RTVSPropertyOp50
 70
     1
102
RTVSPropertyOp51
 70
     0
102
RTVSPropertyOp52
 70
     0
102
RTVSPropertyOp53
 70
     1
102
RTVSPropertyOp54
 70
     1
102
RTVSPropertyOp55
 70
     1
102
RTVSPropertyOp56
 70
     1
102
RTVSPropertyOp57
 70
     1
102
RTVSPropertyOp58
 70
     1
102
RTVSPropertyOp59
 70
     1
102
RTVSPropertyOp60
 70
     1
102
RTVSPropertyOp61
 70
     1
102
RTVSPropertyOp62
 70
     1
  0
XRECORD
  5
9D20
102
{ACAD_REACTORS
330
9D1F
102
}
330
9D1F
100
AcDbXrecord
280
     1
102
RTVSPost2010Prop28
280
     0
102
RTVSPost2010PropOp28
 70
     1
102
RTVSPost2010Prop29
280
     1
102
RTVSPost2010PropOp29
 70
     1
102
RTVSPost2010Prop30
280
     1
102
RTVSPost2010PropOp30
 70
     1
102
RTVSPost2010Prop31
280
     0
102
RTVSPost2010PropOp31
 70
     1
102
RTVSPost2010Prop32
280
     0
102
RTVSPost2010PropOp32
 70
     1
102
RTVSPost2010Prop33
280
     0
102
RTVSPost2010PropOp33
 70
     1
102
RTVSPost2010Prop34
280
     0
102
RTVSPost2010PropOp34
 70
     1
102
RTVSPost2010Prop35
280
     0
102
RTVSPost2010PropOp35
 70
     1
102
RTVSPost2010Prop36
280
     0
102
RTVSPost2010PropOp36
 70
     1
102
RTVSPost2010Prop37
 90
       50
102
RTVSPost2010PropOp37
 70
     1
102
RTVSPost2010Prop38
140
0.0
102
RTVSPost2010PropOp38
 70
     1
102
RTVSPost2010Prop39
140
1.0
102
RTVSPost2010PropOp39
 70
     1
102
RTVSPost2010Prop40
 90
        0
102
RTVSPost2010PropOp40
 70
     1
102
RTVSPost2010Prop41ColorIndex
 90
       18
102
RTVSPost2010Prop41ColorRGB
 90
        0
102
RTVSPost2010PropOp41
 70
     1
102
RTVSPost2010Prop42
 90
       50
102
RTVSPost2010PropOp42
 70
     1
102
RTVSPost2010Prop43
 90
        3
102
RTVSPost2010PropOp43
 70
     1
102
RTVSPost2010Prop44ColorIndex
 90
        5
102
RTVSPost2010Prop44ColorRGB
 90
      255
102
RTVSPost2010PropOp44
 70
     1
102
RTVSPost2010Prop45
280
     0
102
RTVSPost2010PropOp45
 70
     1
102
RTVSPost2010Prop46
 90
       50
102
RTVSPost2010PropOp46
 70
     1
102
RTVSPost2010Prop47
 90
       50
102
RTVSPost2010PropOp47
 70
     1
102
RTVSPost2010Prop48
 90
       50
102
RTVSPost2010PropOp48
 70
     1
102
RTVSPost2010Prop49
280
     0
102
RTVSPost2010PropOp49
 70
     1
102
RTVSPost2010Prop50
 90
       50
102
RTVSPost2010PropOp50
 70
     1
102
RTVSPost2010Prop51ColorIndex
 90
      256
102
RTVSPost2010Prop51ColorRGB
 90
-16777216
102
RTVSPost2010PropOp51
 70
     0
102
RTVSPost2010Prop52
140
1.0
102
RTVSPost2010PropOp52
 70
     0
102
RTVSPost2010Prop53
 90
        2
102
RTVSPost2010PropOp53
 70
     1
102
RTVSPost2010Prop54
  1
strokes_ogs.tif
102
RTVSPost2010PropOp54
 70
     1
102
RTVSPost2010Prop55
280
     0
102
RTVSPost2010PropOp55
 70
     1
102
RTVSPost2010Prop56
140
1.0
102
RTVSPost2010PropOp56
 70
     1
102
RTVSPost2010Prop57
140
1.0
102
RTVSPost2010PropOp57
 70
     1
102
RTVSPropertyOp0
 70
     1
102
RTVSPropertyOp1
 70
     1
102
RTVSPropertyOp2
 70
     1
102
RTVSPropertyOp3
 70
     1
102
RTVSPropertyOp4
 70
     1
102
RTVSPropertyOp5
 70
     1
102
RTVSPropertyOp6
 70
     1
102
RTVSPropertyOp7
 70
     1
102
RTVSPropertyOp8
 70
     1
102
RTVSPropertyOp9
 70
     1
102
RTVSPropertyOp10
 70
     1
102
RTVSPropertyOp11
 70
     1
102
RTVSPropertyOp12
 70
     1
102
RTVSPropertyOp13
 70
     1
102
RTVSPropertyOp14
 70
     1
102
RTVSPropertyOp15
 70
     1
102
RTVSPropertyOp16
 70
     1
102
RTVSPropertyOp17
 70
     1
102
RTVSPropertyOp18
 70
     1
102
RTVSPropertyOp19
 70
     1
102
RTVSPropertyOp20
 70
     1
102
RTVSPropertyOp21
 70
     1
102
RTVSPropertyOp22
 70
     1
102
RTVSPropertyOp23
 70
     1
102
RTVSPropertyOp24
 70
     1
102
RTVSPropertyOp25
 70
     1
102
RTVSPropertyOp26
 70
     1
102
RTVSPropertyOp27
 70
     1
102
RTVSPropertyOp28
 70
     1
102
RTVSPropertyOp29
 70
     1
102
RTVSPropertyOp30
 70
     1
102
RTVSPropertyOp31
 70
     1
102
RTVSPropertyOp32
 70
     1
102
RTVSPropertyOp33
 70
     1
102
RTVSPropertyOp34
 70
     1
102
RTVSPropertyOp35
 70
     1
102
RTVSPropertyOp36
 70
     1
102
RTVSPropertyOp37
 70
     1
102
RTVSPropertyOp38
 70
     1
102
RTVSPropertyOp39
 70
     1
102
RTVSPropertyOp40
 70
     1
102
RTVSPropertyOp41
 70
     1
102
RTVSPropertyOp42
 70
     1
102
RTVSPropertyOp43
 70
     1
102
RTVSPropertyOp44
 70
     1
102
RTVSPropertyOp45
 70
     1
102
RTVSPropertyOp46
 70
     1
102
RTVSPropertyOp47
 70
     1
102
RTVSPropertyOp48
 70
     1
102
RTVSPropertyOp49
 70
     1
102
RTVSPropertyOp50
 70
     1
102
RTVSPropertyOp51
 70
     0
102
RTVSPropertyOp52
 70
     0
102
RTVSPropertyOp53
 70
     1
102
RTVSPropertyOp54
 70
     1
102
RTVSPropertyOp55
 70
     1
102
RTVSPropertyOp56
 70
     1
102
RTVSPropertyOp57
 70
     1
102
RTVSPropertyOp58
 70
     1
102
RTVSPropertyOp59
 70
     1
102
RTVSPropertyOp60
 70
     1
102
RTVSPropertyOp61
 70
     1
102
RTVSPropertyOp62
 70
     1
  0
XRECORD
  5
9D22
102
{ACAD_REACTORS
330
9D21
102
}
330
9D21
100
AcDbXrecord
280
     1
102
RTVSPost2010Prop28
280
     0
102
RTVSPost2010PropOp28
 70
     1
102
RTVSPost2010Prop29
280
     1
102
RTVSPost2010PropOp29
 70
     1
102
RTVSPost2010Prop30
280
     1
102
RTVSPost2010PropOp30
 70
     1
102
RTVSPost2010Prop31
280
     0
102
RTVSPost2010PropOp31
 70
     1
102
RTVSPost2010Prop32
280
     0
102
RTVSPost2010PropOp32
 70
     1
102
RTVSPost2010Prop33
280
     0
102
RTVSPost2010PropOp33
 70
     1
102
RTVSPost2010Prop34
280
     0
102
RTVSPost2010PropOp34
 70
     1
102
RTVSPost2010Prop35
280
     0
102
RTVSPost2010PropOp35
 70
     1
102
RTVSPost2010Prop36
280
     0
102
RTVSPost2010PropOp36
 70
     1
102
RTVSPost2010Prop37
 90
       50
102
RTVSPost2010PropOp37
 70
     1
102
RTVSPost2010Prop38
140
0.0
102
RTVSPost2010PropOp38
 70
     1
102
RTVSPost2010Prop39
140
1.0
102
RTVSPost2010PropOp39
 70
     1
102
RTVSPost2010Prop40
 90
        0
102
RTVSPost2010PropOp40
 70
     1
102
RTVSPost2010Prop41ColorIndex
 90
       18
102
RTVSPost2010Prop41ColorRGB
 90
        0
102
RTVSPost2010PropOp41
 70
     1
102
RTVSPost2010Prop42
 90
       50
102
RTVSPost2010PropOp42
 70
     1
102
RTVSPost2010Prop43
 90
        3
102
RTVSPost2010PropOp43
 70
     1
102
RTVSPost2010Prop44ColorIndex
 90
        5
102
RTVSPost2010Prop44ColorRGB
 90
      255
102
RTVSPost2010PropOp44
 70
     1
102
RTVSPost2010Prop45
280
     0
102
RTVSPost2010PropOp45
 70
     1
102
RTVSPost2010Prop46
 90
       50
102
RTVSPost2010PropOp46
 70
     1
102
RTVSPost2010Prop47
 90
       50
102
RTVSPost2010PropOp47
 70
     1
102
RTVSPost2010Prop48
 90
       50
102
RTVSPost2010PropOp48
 70
     1
102
RTVSPost2010Prop49
280
     0
102
RTVSPost2010PropOp49
 70
     1
102
RTVSPost2010Prop50
 90
       50
102
RTVSPost2010PropOp50
 70
     1
102
RTVSPost2010Prop51ColorIndex
 90
      256
102
RTVSPost2010Prop51ColorRGB
 90
-16777216
102
RTVSPost2010PropOp51
 70
     0
102
RTVSPost2010Prop52
140
1.0
102
RTVSPost2010PropOp52
 70
     0
102
RTVSPost2010Prop53
 90
        2
102
RTVSPost2010PropOp53
 70
     1
102
RTVSPost2010Prop54
  1
strokes_ogs.tif
102
RTVSPost2010PropOp54
 70
     1
102
RTVSPost2010Prop55
280
     0
102
RTVSPost2010PropOp55
 70
     1
102
RTVSPost2010Prop56
140
1.0
102
RTVSPost2010PropOp56
 70
     1
102
RTVSPost2010Prop57
140
1.0
102
RTVSPost2010PropOp57
 70
     1
102
RTVSPropertyOp0
 70
     1
102
RTVSPropertyOp1
 70
     1
102
RTVSPropertyOp2
 70
     1
102
RTVSPropertyOp3
 70
     1
102
RTVSPropertyOp4
 70
     1
102
RTVSPropertyOp5
 70
     1
102
RTVSPropertyOp6
 70
     1
102
RTVSPropertyOp7
 70
     1
102
RTVSPropertyOp8
 70
     1
102
RTVSPropertyOp9
 70
     1
102
RTVSPropertyOp10
 70
     1
102
RTVSPropertyOp11
 70
     1
102
RTVSPropertyOp12
 70
     1
102
RTVSPropertyOp13
 70
     1
102
RTVSPropertyOp14
 70
     1
102
RTVSPropertyOp15
 70
     1
102
RTVSPropertyOp16
 70
     1
102
RTVSPropertyOp17
 70
     1
102
RTVSPropertyOp18
 70
     1
102
RTVSPropertyOp19
 70
     1
102
RTVSPropertyOp20
 70
     1
102
RTVSPropertyOp21
 70
     1
102
RTVSPropertyOp22
 70
     1
102
RTVSPropertyOp23
 70
     1
102
RTVSPropertyOp24
 70
     1
102
RTVSPropertyOp25
 70
     1
102
RTVSPropertyOp26
 70
     1
102
RTVSPropertyOp27
 70
     1
102
RTVSPropertyOp28
 70
     1
102
RTVSPropertyOp29
 70
     1
102
RTVSPropertyOp30
 70
     1
102
RTVSPropertyOp31
 70
     1
102
RTVSPropertyOp32
 70
     1
102
RTVSPropertyOp33
 70
     1
102
RTVSPropertyOp34
 70
     1
102
RTVSPropertyOp35
 70
     1
102
RTVSPropertyOp36
 70
     1
102
RTVSPropertyOp37
 70
     1
102
RTVSPropertyOp38
 70
     1
102
RTVSPropertyOp39
 70
     1
102
RTVSPropertyOp40
 70
     1
102
RTVSPropertyOp41
 70
     1
102
RTVSPropertyOp42
 70
     1
102
RTVSPropertyOp43
 70
     1
102
RTVSPropertyOp44
 70
     1
102
RTVSPropertyOp45
 70
     1
102
RTVSPropertyOp46
 70
     1
102
RTVSPropertyOp47
 70
     1
102
RTVSPropertyOp48
 70
     1
102
RTVSPropertyOp49
 70
     1
102
RTVSPropertyOp50
 70
     1
102
RTVSPropertyOp51
 70
     0
102
RTVSPropertyOp52
 70
     0
102
RTVSPropertyOp53
 70
     1
102
RTVSPropertyOp54
 70
     1
102
RTVSPropertyOp55
 70
     1
102
RTVSPropertyOp56
 70
     1
102
RTVSPropertyOp57
 70
     1
102
RTVSPropertyOp58
 70
     1
102
RTVSPropertyOp59
 70
     1
102
RTVSPropertyOp60
 70
     1
102
RTVSPropertyOp61
 70
     1
102
RTVSPropertyOp62
 70
     1
  0
XRECORD
  5
9D2A
102
{ACAD_REACTORS
330
9D29
102
}
330
9D29
100
AcDbXrecord
280
     1
102
RTVSPost2010Prop28
280
     0
102
RTVSPost2010PropOp28
 70
     1
102
RTVSPost2010Prop29
280
     1
102
RTVSPost2010PropOp29
 70
     1
102
RTVSPost2010Prop30
280
     1
102
RTVSPost2010PropOp30
 70
     1
102
RTVSPost2010Prop31
280
     0
102
RTVSPost2010PropOp31
 70
     1
102
RTVSPost2010Prop32
280
     0
102
RTVSPost2010PropOp32
 70
     1
102
RTVSPost2010Prop33
280
     0
102
RTVSPost2010PropOp33
 70
     1
102
RTVSPost2010Prop34
280
     0
102
RTVSPost2010PropOp34
 70
     1
102
RTVSPost2010Prop35
280
     0
102
RTVSPost2010PropOp35
 70
     1
102
RTVSPost2010Prop36
280
     0
102
RTVSPost2010PropOp36
 70
     1
102
RTVSPost2010Prop37
 90
       50
102
RTVSPost2010PropOp37
 70
     1
102
RTVSPost2010Prop38
140
0.0
102
RTVSPost2010PropOp38
 70
     1
102
RTVSPost2010Prop39
140
1.0
102
RTVSPost2010PropOp39
 70
     1
102
RTVSPost2010Prop40
 90
        0
102
RTVSPost2010PropOp40
 70
     1
102
RTVSPost2010Prop41ColorIndex
 90
       18
102
RTVSPost2010Prop41ColorRGB
 90
        0
102
RTVSPost2010PropOp41
 70
     1
102
RTVSPost2010Prop42
 90
       50
102
RTVSPost2010PropOp42
 70
     1
102
RTVSPost2010Prop43
 90
        3
102
RTVSPost2010PropOp43
 70
     1
102
RTVSPost2010Prop44ColorIndex
 90
        5
102
RTVSPost2010Prop44ColorRGB
 90
      255
102
RTVSPost2010PropOp44
 70
     1
102
RTVSPost2010Prop45
280
     0
102
RTVSPost2010PropOp45
 70
     1
102
RTVSPost2010Prop46
 90
       50
102
RTVSPost2010PropOp46
 70
     1
102
RTVSPost2010Prop47
 90
       50
102
RTVSPost2010PropOp47
 70
     1
102
RTVSPost2010Prop48
 90
       50
102
RTVSPost2010PropOp48
 70
     1
102
RTVSPost2010Prop49
280
     0
102
RTVSPost2010PropOp49
 70
     1
102
RTVSPost2010Prop50
 90
       50
102
RTVSPost2010PropOp50
 70
     1
102
RTVSPost2010Prop51ColorIndex
 90
      256
102
RTVSPost2010Prop51ColorRGB
 90
-16777216
102
RTVSPost2010PropOp51
 70
     0
102
RTVSPost2010Prop52
140
1.0
102
RTVSPost2010PropOp52
 70
     0
102
RTVSPost2010Prop53
 90
        2
102
RTVSPost2010PropOp53
 70
     1
102
RTVSPost2010Prop54
  1
strokes_ogs.tif
102
RTVSPost2010PropOp54
 70
     1
102
RTVSPost2010Prop55
280
     0
102
RTVSPost2010PropOp55
 70
     1
102
RTVSPost2010Prop56
140
1.0
102
RTVSPost2010PropOp56
 70
     1
102
RTVSPost2010Prop57
140
1.0
102
RTVSPost2010PropOp57
 70
     1
102
RTVSPropertyOp0
 70
     1
102
RTVSPropertyOp1
 70
     1
102
RTVSPropertyOp2
 70
     1
102
RTVSPropertyOp3
 70
     1
102
RTVSPropertyOp4
 70
     1
102
RTVSPropertyOp5
 70
     1
102
RTVSPropertyOp6
 70
     1
102
RTVSPropertyOp7
 70
     1
102
RTVSPropertyOp8
 70
     1
102
RTVSPropertyOp9
 70
     1
102
RTVSPropertyOp10
 70
     1
102
RTVSPropertyOp11
 70
     1
102
RTVSPropertyOp12
 70
     1
102
RTVSPropertyOp13
 70
     1
102
RTVSPropertyOp14
 70
     1
102
RTVSPropertyOp15
 70
     1
102
RTVSPropertyOp16
 70
     1
102
RTVSPropertyOp17
 70
     1
102
RTVSPropertyOp18
 70
     1
102
RTVSPropertyOp19
 70
     1
102
RTVSPropertyOp20
 70
     1
102
RTVSPropertyOp21
 70
     1
102
RTVSPropertyOp22
 70
     1
102
RTVSPropertyOp23
 70
     1
102
RTVSPropertyOp24
 70
     1
102
RTVSPropertyOp25
 70
     1
102
RTVSPropertyOp26
 70
     1
102
RTVSPropertyOp27
 70
     1
102
RTVSPropertyOp28
 70
     1
102
RTVSPropertyOp29
 70
     1
102
RTVSPropertyOp30
 70
     1
102
RTVSPropertyOp31
 70
     1
102
RTVSPropertyOp32
 70
     1
102
RTVSPropertyOp33
 70
     1
102
RTVSPropertyOp34
 70
     1
102
RTVSPropertyOp35
 70
     1
102
RTVSPropertyOp36
 70
     1
102
RTVSPropertyOp37
 70
     1
102
RTVSPropertyOp38
 70
     1
102
RTVSPropertyOp39
 70
     1
102
RTVSPropertyOp40
 70
     1
102
RTVSPropertyOp41
 70
     1
102
RTVSPropertyOp42
 70
     1
102
RTVSPropertyOp43
 70
     1
102
RTVSPropertyOp44
 70
     1
102
RTVSPropertyOp45
 70
     1
102
RTVSPropertyOp46
 70
     1
102
RTVSPropertyOp47
 70
     1
102
RTVSPropertyOp48
 70
     1
102
RTVSPropertyOp49
 70
     1
102
RTVSPropertyOp50
 70
     1
102
RTVSPropertyOp51
 70
     0
102
RTVSPropertyOp52
 70
     0
102
RTVSPropertyOp53
 70
     1
102
RTVSPropertyOp54
 70
     1
102
RTVSPropertyOp55
 70
     1
102
RTVSPropertyOp56
 70
     1
102
RTVSPropertyOp57
 70
     1
102
RTVSPropertyOp58
 70
     1
102
RTVSPropertyOp59
 70
     1
102
RTVSPropertyOp60
 70
     1
102
RTVSPropertyOp61
 70
     1
102
RTVSPropertyOp62
 70
     1
  0
XRECORD
  5
9D46
102
{ACAD_REACTORS
330
9D45
102
}
330
9D45
100
AcDbXrecord
280
     1
102
RTVSPost2010Prop28
280
     0
102
RTVSPost2010PropOp28
 70
     1
102
RTVSPost2010Prop29
280
     1
102
RTVSPost2010PropOp29
 70
     1
102
RTVSPost2010Prop30
280
     1
102
RTVSPost2010PropOp30
 70
     1
102
RTVSPost2010Prop31
280
     0
102
RTVSPost2010PropOp31
 70
     1
102
RTVSPost2010Prop32
280
     0
102
RTVSPost2010PropOp32
 70
     1
102
RTVSPost2010Prop33
280
     0
102
RTVSPost2010PropOp33
 70
     1
102
RTVSPost2010Prop34
280
     0
102
RTVSPost2010PropOp34
 70
     1
102
RTVSPost2010Prop35
280
     0
102
RTVSPost2010PropOp35
 70
     1
102
RTVSPost2010Prop36
280
     0
102
RTVSPost2010PropOp36
 70
     1
102
RTVSPost2010Prop37
 90
       50
102
RTVSPost2010PropOp37
 70
     0
102
RTVSPost2010Prop38
140
0.0
102
RTVSPost2010PropOp38
 70
     0
102
RTVSPost2010Prop39
140
1.0
102
RTVSPost2010PropOp39
 70
     0
102
RTVSPost2010Prop40
 90
        0
102
RTVSPost2010PropOp40
 70
     0
102
RTVSPost2010Prop41ColorIndex
 90
       18
102
RTVSPost2010Prop41ColorRGB
 90
        0
102
RTVSPost2010PropOp41
 70
     0
102
RTVSPost2010Prop42
 90
       50
102
RTVSPost2010PropOp42
 70
     0
102
RTVSPost2010Prop43
 90
        3
102
RTVSPost2010PropOp43
 70
     0
102
RTVSPost2010Prop44ColorIndex
 90
        5
102
RTVSPost2010Prop44ColorRGB
 90
      255
102
RTVSPost2010PropOp44
 70
     0
102
RTVSPost2010Prop45
280
     0
102
RTVSPost2010PropOp45
 70
     1
102
RTVSPost2010Prop46
 90
       50
102
RTVSPost2010PropOp46
 70
     0
102
RTVSPost2010Prop47
 90
       50
102
RTVSPost2010PropOp47
 70
     0
102
RTVSPost2010Prop48
 90
       50
102
RTVSPost2010PropOp48
 70
     0
102
RTVSPost2010Prop49
280
     0
102
RTVSPost2010PropOp49
 70
     1
102
RTVSPost2010Prop50
 90
       50
102
RTVSPost2010PropOp50
 70
     0
102
RTVSPost2010Prop51ColorIndex
 90
      256
102
RTVSPost2010Prop51ColorRGB
 90
-16777216
102
RTVSPost2010PropOp51
 70
     0
102
RTVSPost2010Prop52
140
1.0
102
RTVSPost2010PropOp52
 70
     0
102
RTVSPost2010Prop53
 90
        2
102
RTVSPost2010PropOp53
 70
     0
102
RTVSPost2010Prop54
  1
strokes_ogs.tif
102
RTVSPost2010PropOp54
 70
     0
102
RTVSPost2010Prop55
280
     0
102
RTVSPost2010PropOp55
 70
     1
102
RTVSPost2010Prop56
140
1.0
102
RTVSPost2010PropOp56
 70
     0
102
RTVSPost2010Prop57
140
1.0
102
RTVSPost2010PropOp57
 70
     0
102
RTVSPropertyOp0
 70
     0
102
RTVSPropertyOp1
 70
     0
102
RTVSPropertyOp2
 70
     0
102
RTVSPropertyOp3
 70
     0
102
RTVSPropertyOp4
 70
     0
102
RTVSPropertyOp5
 70
     0
102
RTVSPropertyOp6
 70
     0
102
RTVSPropertyOp7
 70
     0
102
RTVSPropertyOp8
 70
     0
102
RTVSPropertyOp9
 70
     0
102
RTVSPropertyOp10
 70
     0
102
RTVSPropertyOp11
 70
     0
102
RTVSPropertyOp12
 70
     0
102
RTVSPropertyOp13
 70
     0
102
RTVSPropertyOp14
 70
     2
102
RTVSPropertyOp15
 70
     0
102
RTVSPropertyOp16
 70
     0
102
RTVSPropertyOp17
 70
     0
102
RTVSPropertyOp18
 70
     0
102
RTVSPropertyOp19
 70
     0
102
RTVSPropertyOp20
 70
     0
102
RTVSPropertyOp21
 70
     0
102
RTVSPropertyOp22
 70
     0
102
RTVSPropertyOp23
 70
     0
102
RTVSPropertyOp24
 70
     0
102
RTVSPropertyOp25
 70
     0
102
RTVSPropertyOp26
 70
     0
102
RTVSPropertyOp27
 70
     0
102
RTVSPropertyOp28
 70
     1
102
RTVSPropertyOp29
 70
     1
102
RTVSPropertyOp30
 70
     1
102
RTVSPropertyOp31
 70
     1
102
RTVSPropertyOp32
 70
     1
102
RTVSPropertyOp33
 70
     1
102
RTVSPropertyOp34
 70
     1
102
RTVSPropertyOp35
 70
     1
102
RTVSPropertyOp36
 70
     1
102
RTVSPropertyOp37
 70
     0
102
RTVSPropertyOp38
 70
     0
102
RTVSPropertyOp39
 70
     0
102
RTVSPropertyOp40
 70
     0
102
RTVSPropertyOp41
 70
     0
102
RTVSPropertyOp42
 70
     0
102
RTVSPropertyOp43
 70
     0
102
RTVSPropertyOp44
 70
     0
102
RTVSPropertyOp45
 70
     1
102
RTVSPropertyOp46
 70
     0
102
RTVSPropertyOp47
 70
     0
102
RTVSPropertyOp48
 70
     0
102
RTVSPropertyOp49
 70
     1
102
RTVSPropertyOp50
 70
     0
102
RTVSPropertyOp51
 70
     0
102
RTVSPropertyOp52
 70
     0
102
RTVSPropertyOp53
 70
     0
102
RTVSPropertyOp54
 70
     0
102
RTVSPropertyOp55
 70
     1
102
RTVSPropertyOp56
 70
     0
102
RTVSPropertyOp57
 70
     0
102
RTVSPropertyOp58
 70
     0
102
RTVSPropertyOp59
 70
     0
102
RTVSPropertyOp60
 70
     0
102
RTVSPropertyOp61
 70
     0
102
RTVSPropertyOp62
 70
     0
  0
XRECORD
  5
9D36
102
{ACAD_REACTORS
330
9D35
102
}
330
9D35
100
AcDbXrecord
280
     1
102
RTVSPost2010Prop28
280
     0
102
RTVSPost2010PropOp28
 70
     1
102
RTVSPost2010Prop29
280
     1
102
RTVSPost2010PropOp29
 70
     1
102
RTVSPost2010Prop30
280
     1
102
RTVSPost2010PropOp30
 70
     1
102
RTVSPost2010Prop31
280
     0
102
RTVSPost2010PropOp31
 70
     1
102
RTVSPost2010Prop32
280
     0
102
RTVSPost2010PropOp32
 70
     1
102
RTVSPost2010Prop33
280
     0
102
RTVSPost2010PropOp33
 70
     1
102
RTVSPost2010Prop34
280
     0
102
RTVSPost2010PropOp34
 70
     1
102
RTVSPost2010Prop35
280
     0
102
RTVSPost2010PropOp35
 70
     1
102
RTVSPost2010Prop36
280
     0
102
RTVSPost2010PropOp36
 70
     1
102
RTVSPost2010Prop37
 90
       50
102
RTVSPost2010PropOp37
 70
     1
102
RTVSPost2010Prop38
140
0.0
102
RTVSPost2010PropOp38
 70
     1
102
RTVSPost2010Prop39
140
1.0
102
RTVSPost2010PropOp39
 70
     1
102
RTVSPost2010Prop40
 90
        0
102
RTVSPost2010PropOp40
 70
     1
102
RTVSPost2010Prop41ColorIndex
 90
       18
102
RTVSPost2010Prop41ColorRGB
 90
        0
102
RTVSPost2010PropOp41
 70
     1
102
RTVSPost2010Prop42
 90
       50
102
RTVSPost2010PropOp42
 70
     1
102
RTVSPost2010Prop43
 90
        3
102
RTVSPost2010PropOp43
 70
     1
102
RTVSPost2010Prop44ColorIndex
 90
        5
102
RTVSPost2010Prop44ColorRGB
 90
      255
102
RTVSPost2010PropOp44
 70
     1
102
RTVSPost2010Prop45
280
     0
102
RTVSPost2010PropOp45
 70
     1
102
RTVSPost2010Prop46
 90
       50
102
RTVSPost2010PropOp46
 70
     1
102
RTVSPost2010Prop47
 90
       50
102
RTVSPost2010PropOp47
 70
     1
102
RTVSPost2010Prop48
 90
       50
102
RTVSPost2010PropOp48
 70
     1
102
RTVSPost2010Prop49
280
     0
102
RTVSPost2010PropOp49
 70
     1
102
RTVSPost2010Prop50
 90
       50
102
RTVSPost2010PropOp50
 70
     1
102
RTVSPost2010Prop51ColorIndex
 90
      256
102
RTVSPost2010Prop51ColorRGB
 90
-16777216
102
RTVSPost2010PropOp51
 70
     0
102
RTVSPost2010Prop52
140
1.0
102
RTVSPost2010PropOp52
 70
     0
102
RTVSPost2010Prop53
 90
        2
102
RTVSPost2010PropOp53
 70
     1
102
RTVSPost2010Prop54
  1
strokes_ogs.tif
102
RTVSPost2010PropOp54
 70
     1
102
RTVSPost2010Prop55
280
     0
102
RTVSPost2010PropOp55
 70
     1
102
RTVSPost2010Prop56
140
1.0
102
RTVSPost2010PropOp56
 70
     1
102
RTVSPost2010Prop57
140
1.0
102
RTVSPost2010PropOp57
 70
     1
102
RTVSPropertyOp0
 70
     1
102
RTVSPropertyOp1
 70
     1
102
RTVSPropertyOp2
 70
     1
102
RTVSPropertyOp3
 70
     1
102
RTVSPropertyOp4
 70
     1
102
RTVSPropertyOp5
 70
     1
102
RTVSPropertyOp6
 70
     1
102
RTVSPropertyOp7
 70
     1
102
RTVSPropertyOp8
 70
     1
102
RTVSPropertyOp9
 70
     1
102
RTVSPropertyOp10
 70
     1
102
RTVSPropertyOp11
 70
     1
102
RTVSPropertyOp12
 70
     1
102
RTVSPropertyOp13
 70
     1
102
RTVSPropertyOp14
 70
     1
102
RTVSPropertyOp15
 70
     1
102
RTVSPropertyOp16
 70
     1
102
RTVSPropertyOp17
 70
     1
102
RTVSPropertyOp18
 70
     1
102
RTVSPropertyOp19
 70
     1
102
RTVSPropertyOp20
 70
     1
102
RTVSPropertyOp21
 70
     1
102
RTVSPropertyOp22
 70
     1
102
RTVSPropertyOp23
 70
     1
102
RTVSPropertyOp24
 70
     1
102
RTVSPropertyOp25
 70
     1
102
RTVSPropertyOp26
 70
     1
102
RTVSPropertyOp27
 70
     1
102
RTVSPropertyOp28
 70
     1
102
RTVSPropertyOp29
 70
     1
102
RTVSPropertyOp30
 70
     1
102
RTVSPropertyOp31
 70
     1
102
RTVSPropertyOp32
 70
     1
102
RTVSPropertyOp33
 70
     1
102
RTVSPropertyOp34
 70
     1
102
RTVSPropertyOp35
 70
     1
102
RTVSPropertyOp36
 70
     1
102
RTVSPropertyOp37
 70
     1
102
RTVSPropertyOp38
 70
     1
102
RTVSPropertyOp39
 70
     1
102
RTVSPropertyOp40
 70
     1
102
RTVSPropertyOp41
 70
     1
102
RTVSPropertyOp42
 70
     1
102
RTVSPropertyOp43
 70
     1
102
RTVSPropertyOp44
 70
     1
102
RTVSPropertyOp45
 70
     1
102
RTVSPropertyOp46
 70
     1
102
RTVSPropertyOp47
 70
     1
102
RTVSPropertyOp48
 70
     1
102
RTVSPropertyOp49
 70
     1
102
RTVSPropertyOp50
 70
     1
102
RTVSPropertyOp51
 70
     0
102
RTVSPropertyOp52
 70
     0
102
RTVSPropertyOp53
 70
     1
102
RTVSPropertyOp54
 70
     1
102
RTVSPropertyOp55
 70
     1
102
RTVSPropertyOp56
 70
     1
102
RTVSPropertyOp57
 70
     1
102
RTVSPropertyOp58
 70
     1
102
RTVSPropertyOp59
 70
     1
102
RTVSPropertyOp60
 70
     1
102
RTVSPropertyOp61
 70
     1
102
RTVSPropertyOp62
 70
     1
  0
XRECORD
  5
9D48
102
{ACAD_REACTORS
330
9D47
102
}
330
9D47
100
AcDbXrecord
280
     1
102
RTVSPost2010Prop28
280
     0
102
RTVSPost2010PropOp28
 70
     1
102
RTVSPost2010Prop29
280
     1
102
RTVSPost2010PropOp29
 70
     1
102
RTVSPost2010Prop30
280
     1
102
RTVSPost2010PropOp30
 70
     1
102
RTVSPost2010Prop31
280
     0
102
RTVSPost2010PropOp31
 70
     1
102
RTVSPost2010Prop32
280
     0
102
RTVSPost2010PropOp32
 70
     1
102
RTVSPost2010Prop33
280
     0
102
RTVSPost2010PropOp33
 70
     1
102
RTVSPost2010Prop34
280
     0
102
RTVSPost2010PropOp34
 70
     1
102
RTVSPost2010Prop35
280
     0
102
RTVSPost2010PropOp35
 70
     1
102
RTVSPost2010Prop36
280
     0
102
RTVSPost2010PropOp36
 70
     1
102
RTVSPost2010Prop37
 90
       50
102
RTVSPost2010PropOp37
 70
     0
102
RTVSPost2010Prop38
140
0.0
102
RTVSPost2010PropOp38
 70
     0
102
RTVSPost2010Prop39
140
1.0
102
RTVSPost2010PropOp39
 70
     0
102
RTVSPost2010Prop40
 90
        0
102
RTVSPost2010PropOp40
 70
     0
102
RTVSPost2010Prop41ColorIndex
 90
       18
102
RTVSPost2010Prop41ColorRGB
 90
        0
102
RTVSPost2010PropOp41
 70
     0
102
RTVSPost2010Prop42
 90
       50
102
RTVSPost2010PropOp42
 70
     0
102
RTVSPost2010Prop43
 90
        3
102
RTVSPost2010PropOp43
 70
     0
102
RTVSPost2010Prop44ColorIndex
 90
        5
102
RTVSPost2010Prop44ColorRGB
 90
      255
102
RTVSPost2010PropOp44
 70
     0
102
RTVSPost2010Prop45
280
     0
102
RTVSPost2010PropOp45
 70
     1
102
RTVSPost2010Prop46
 90
       50
102
RTVSPost2010PropOp46
 70
     0
102
RTVSPost2010Prop47
 90
       50
102
RTVSPost2010PropOp47
 70
     0
102
RTVSPost2010Prop48
 90
       50
102
RTVSPost2010PropOp48
 70
     0
102
RTVSPost2010Prop49
280
     0
102
RTVSPost2010PropOp49
 70
     1
102
RTVSPost2010Prop50
 90
       50
102
RTVSPost2010PropOp50
 70
     0
102
RTVSPost2010Prop51ColorIndex
 90
      256
102
RTVSPost2010Prop51ColorRGB
 90
-16777216
102
RTVSPost2010PropOp51
 70
     0
102
RTVSPost2010Prop52
140
1.0
102
RTVSPost2010PropOp52
 70
     0
102
RTVSPost2010Prop53
 90
        2
102
RTVSPost2010PropOp53
 70
     0
102
RTVSPost2010Prop54
  1
strokes_ogs.tif
102
RTVSPost2010PropOp54
 70
     0
102
RTVSPost2010Prop55
280
     0
102
RTVSPost2010PropOp55
 70
     1
102
RTVSPost2010Prop56
140
1.0
102
RTVSPost2010PropOp56
 70
     0
102
RTVSPost2010Prop57
140
1.0
102
RTVSPost2010PropOp57
 70
     0
102
RTVSPropertyOp0
 70
     0
102
RTVSPropertyOp1
 70
     0
102
RTVSPropertyOp2
 70
     0
102
RTVSPropertyOp3
 70
     0
102
RTVSPropertyOp4
 70
     0
102
RTVSPropertyOp5
 70
     0
102
RTVSPropertyOp6
 70
     0
102
RTVSPropertyOp7
 70
     0
102
RTVSPropertyOp8
 70
     0
102
RTVSPropertyOp9
 70
     0
102
RTVSPropertyOp10
 70
     0
102
RTVSPropertyOp11
 70
     0
102
RTVSPropertyOp12
 70
     0
102
RTVSPropertyOp13
 70
     0
102
RTVSPropertyOp14
 70
     2
102
RTVSPropertyOp15
 70
     0
102
RTVSPropertyOp16
 70
     0
102
RTVSPropertyOp17
 70
     0
102
RTVSPropertyOp18
 70
     0
102
RTVSPropertyOp19
 70
     0
102
RTVSPropertyOp20
 70
     0
102
RTVSPropertyOp21
 70
     0
102
RTVSPropertyOp22
 70
     0
102
RTVSPropertyOp23
 70
     0
102
RTVSPropertyOp24
 70
     0
102
RTVSPropertyOp25
 70
     0
102
RTVSPropertyOp26
 70
     0
102
RTVSPropertyOp27
 70
     0
102
RTVSPropertyOp28
 70
     1
102
RTVSPropertyOp29
 70
     1
102
RTVSPropertyOp30
 70
     1
102
RTVSPropertyOp31
 70
     1
102
RTVSPropertyOp32
 70
     1
102
RTVSPropertyOp33
 70
     1
102
RTVSPropertyOp34
 70
     1
102
RTVSPropertyOp35
 70
     1
102
RTVSPropertyOp36
 70
     1
102
RTVSPropertyOp37
 70
     0
102
RTVSPropertyOp38
 70
     0
102
RTVSPropertyOp39
 70
     0
102
RTVSPropertyOp40
 70
     0
102
RTVSPropertyOp41
 70
     0
102
RTVSPropertyOp42
 70
     0
102
RTVSPropertyOp43
 70
     0
102
RTVSPropertyOp44
 70
     0
102
RTVSPropertyOp45
 70
     1
102
RTVSPropertyOp46
 70
     0
102
RTVSPropertyOp47
 70
     0
102
RTVSPropertyOp48
 70
     0
102
RTVSPropertyOp49
 70
     1
102
RTVSPropertyOp50
 70
     0
102
RTVSPropertyOp51
 70
     0
102
RTVSPropertyOp52
 70
     0
102
RTVSPropertyOp53
 70
     0
102
RTVSPropertyOp54
 70
     0
102
RTVSPropertyOp55
 70
     1
102
RTVSPropertyOp56
 70
     0
102
RTVSPropertyOp57
 70
     0
102
RTVSPropertyOp58
 70
     0
102
RTVSPropertyOp59
 70
     0
102
RTVSPropertyOp60
 70
     0
102
RTVSPropertyOp61
 70
     0
102
RTVSPropertyOp62
 70
     0
  0
XRECORD
  5
9D2E
102
{ACAD_REACTORS
330
9D2D
102
}
330
9D2D
100
AcDbXrecord
280
     1
102
RTVSPost2010Prop28
280
     0
102
RTVSPost2010PropOp28
 70
     1
102
RTVSPost2010Prop29
280
     1
102
RTVSPost2010PropOp29
 70
     1
102
RTVSPost2010Prop30
280
     1
102
RTVSPost2010PropOp30
 70
     1
102
RTVSPost2010Prop31
280
     0
102
RTVSPost2010PropOp31
 70
     1
102
RTVSPost2010Prop32
280
     0
102
RTVSPost2010PropOp32
 70
     1
102
RTVSPost2010Prop33
280
     0
102
RTVSPost2010PropOp33
 70
     1
102
RTVSPost2010Prop34
280
     0
102
RTVSPost2010PropOp34
 70
     1
102
RTVSPost2010Prop35
280
     0
102
RTVSPost2010PropOp35
 70
     1
102
RTVSPost2010Prop36
280
     0
102
RTVSPost2010PropOp36
 70
     1
102
RTVSPost2010Prop37
 90
       50
102
RTVSPost2010PropOp37
 70
     1
102
RTVSPost2010Prop38
140
0.0
102
RTVSPost2010PropOp38
 70
     1
102
RTVSPost2010Prop39
140
1.0
102
RTVSPost2010PropOp39
 70
     1
102
RTVSPost2010Prop40
 90
        0
102
RTVSPost2010PropOp40
 70
     1
102
RTVSPost2010Prop41ColorIndex
 90
       18
102
RTVSPost2010Prop41ColorRGB
 90
        0
102
RTVSPost2010PropOp41
 70
     1
102
RTVSPost2010Prop42
 90
       50
102
RTVSPost2010PropOp42
 70
     1
102
RTVSPost2010Prop43
 90
        3
102
RTVSPost2010PropOp43
 70
     1
102
RTVSPost2010Prop44ColorIndex
 90
        5
102
RTVSPost2010Prop44ColorRGB
 90
      255
102
RTVSPost2010PropOp44
 70
     1
102
RTVSPost2010Prop45
280
     0
102
RTVSPost2010PropOp45
 70
     1
102
RTVSPost2010Prop46
 90
       50
102
RTVSPost2010PropOp46
 70
     1
102
RTVSPost2010Prop47
 90
       50
102
RTVSPost2010PropOp47
 70
     1
102
RTVSPost2010Prop48
 90
       50
102
RTVSPost2010PropOp48
 70
     1
102
RTVSPost2010Prop49
280
     0
102
RTVSPost2010PropOp49
 70
     1
102
RTVSPost2010Prop50
 90
       50
102
RTVSPost2010PropOp50
 70
     1
102
RTVSPost2010Prop51ColorIndex
 90
      256
102
RTVSPost2010Prop51ColorRGB
 90
-16777216
102
RTVSPost2010PropOp51
 70
     0
102
RTVSPost2010Prop52
140
1.0
102
RTVSPost2010PropOp52
 70
     0
102
RTVSPost2010Prop53
 90
        2
102
RTVSPost2010PropOp53
 70
     1
102
RTVSPost2010Prop54
  1
strokes_ogs.tif
102
RTVSPost2010PropOp54
 70
     1
102
RTVSPost2010Prop55
280
     0
102
RTVSPost2010PropOp55
 70
     1
102
RTVSPost2010Prop56
140
1.0
102
RTVSPost2010PropOp56
 70
     1
102
RTVSPost2010Prop57
140
1.0
102
RTVSPost2010PropOp57
 70
     1
102
RTVSPropertyOp0
 70
     1
102
RTVSPropertyOp1
 70
     1
102
RTVSPropertyOp2
 70
     1
102
RTVSPropertyOp3
 70
     1
102
RTVSPropertyOp4
 70
     1
102
RTVSPropertyOp5
 70
     1
102
RTVSPropertyOp6
 70
     1
102
RTVSPropertyOp7
 70
     1
102
RTVSPropertyOp8
 70
     1
102
RTVSPropertyOp9
 70
     1
102
RTVSPropertyOp10
 70
     1
102
RTVSPropertyOp11
 70
     1
102
RTVSPropertyOp12
 70
     1
102
RTVSPropertyOp13
 70
     1
102
RTVSPropertyOp14
 70
     1
102
RTVSPropertyOp15
 70
     1
102
RTVSPropertyOp16
 70
     1
102
RTVSPropertyOp17
 70
     1
102
RTVSPropertyOp18
 70
     1
102
RTVSPropertyOp19
 70
     1
102
RTVSPropertyOp20
 70
     1
102
RTVSPropertyOp21
 70
     1
102
RTVSPropertyOp22
 70
     1
102
RTVSPropertyOp23
 70
     1
102
RTVSPropertyOp24
 70
     1
102
RTVSPropertyOp25
 70
     1
102
RTVSPropertyOp26
 70
     1
102
RTVSPropertyOp27
 70
     1
102
RTVSPropertyOp28
 70
     1
102
RTVSPropertyOp29
 70
     1
102
RTVSPropertyOp30
 70
     1
102
RTVSPropertyOp31
 70
     1
102
RTVSPropertyOp32
 70
     1
102
RTVSPropertyOp33
 70
     1
102
RTVSPropertyOp34
 70
     1
102
RTVSPropertyOp35
 70
     1
102
RTVSPropertyOp36
 70
     1
102
RTVSPropertyOp37
 70
     1
102
RTVSPropertyOp38
 70
     1
102
RTVSPropertyOp39
 70
     1
102
RTVSPropertyOp40
 70
     1
102
RTVSPropertyOp41
 70
     1
102
RTVSPropertyOp42
 70
     1
102
RTVSPropertyOp43
 70
     1
102
RTVSPropertyOp44
 70
     1
102
RTVSPropertyOp45
 70
     1
102
RTVSPropertyOp46
 70
     1
102
RTVSPropertyOp47
 70
     1
102
RTVSPropertyOp48
 70
     1
102
RTVSPropertyOp49
 70
     1
102
RTVSPropertyOp50
 70
     1
102
RTVSPropertyOp51
 70
     0
102
RTVSPropertyOp52
 70
     0
102
RTVSPropertyOp53
 70
     1
102
RTVSPropertyOp54
 70
     1
102
RTVSPropertyOp55
 70
     1
102
RTVSPropertyOp56
 70
     1
102
RTVSPropertyOp57
 70
     1
102
RTVSPropertyOp58
 70
     1
102
RTVSPropertyOp59
 70
     1
102
RTVSPropertyOp60
 70
     1
102
RTVSPropertyOp61
 70
     1
102
RTVSPropertyOp62
 70
     1
  0
XRECORD
  5
9D44
102
{ACAD_REACTORS
330
9D43
102
}
330
9D43
100
AcDbXrecord
280
     1
102
RTVSPost2010Prop28
280
     0
102
RTVSPost2010PropOp28
 70
     1
102
RTVSPost2010Prop29
280
     1
102
RTVSPost2010PropOp29
 70
     1
102
RTVSPost2010Prop30
280
     1
102
RTVSPost2010PropOp30
 70
     1
102
RTVSPost2010Prop31
280
     0
102
RTVSPost2010PropOp31
 70
     1
102
RTVSPost2010Prop32
280
     0
102
RTVSPost2010PropOp32
 70
     1
102
RTVSPost2010Prop33
280
     0
102
RTVSPost2010PropOp33
 70
     1
102
RTVSPost2010Prop34
280
     0
102
RTVSPost2010PropOp34
 70
     1
102
RTVSPost2010Prop35
280
     0
102
RTVSPost2010PropOp35
 70
     1
102
RTVSPost2010Prop36
280
     0
102
RTVSPost2010PropOp36
 70
     1
102
RTVSPost2010Prop37
 90
       50
102
RTVSPost2010PropOp37
 70
     1
102
RTVSPost2010Prop38
140
0.0
102
RTVSPost2010PropOp38
 70
     1
102
RTVSPost2010Prop39
140
1.0
102
RTVSPost2010PropOp39
 70
     1
102
RTVSPost2010Prop40
 90
        0
102
RTVSPost2010PropOp40
 70
     1
102
RTVSPost2010Prop41ColorIndex
 90
       18
102
RTVSPost2010Prop41ColorRGB
 90
        0
102
RTVSPost2010PropOp41
 70
     1
102
RTVSPost2010Prop42
 90
       50
102
RTVSPost2010PropOp42
 70
     1
102
RTVSPost2010Prop43
 90
        3
102
RTVSPost2010PropOp43
 70
     1
102
RTVSPost2010Prop44ColorIndex
 90
        5
102
RTVSPost2010Prop44ColorRGB
 90
      255
102
RTVSPost2010PropOp44
 70
     1
102
RTVSPost2010Prop45
280
     0
102
RTVSPost2010PropOp45
 70
     1
102
RTVSPost2010Prop46
 90
       50
102
RTVSPost2010PropOp46
 70
     1
102
RTVSPost2010Prop47
 90
       50
102
RTVSPost2010PropOp47
 70
     1
102
RTVSPost2010Prop48
 90
       50
102
RTVSPost2010PropOp48
 70
     1
102
RTVSPost2010Prop49
280
     0
102
RTVSPost2010PropOp49
 70
     1
102
RTVSPost2010Prop50
 90
       50
102
RTVSPost2010PropOp50
 70
     1
102
RTVSPost2010Prop51ColorIndex
 90
      256
102
RTVSPost2010Prop51ColorRGB
 90
-16777216
102
RTVSPost2010PropOp51
 70
     0
102
RTVSPost2010Prop52
140
1.0
102
RTVSPost2010PropOp52
 70
     0
102
RTVSPost2010Prop53
 90
        2
102
RTVSPost2010PropOp53
 70
     1
102
RTVSPost2010Prop54
  1
strokes_ogs.tif
102
RTVSPost2010PropOp54
 70
     1
102
RTVSPost2010Prop55
280
     0
102
RTVSPost2010PropOp55
 70
     1
102
RTVSPost2010Prop56
140
1.0
102
RTVSPost2010PropOp56
 70
     1
102
RTVSPost2010Prop57
140
1.0
102
RTVSPost2010PropOp57
 70
     1
102
RTVSPropertyOp0
 70
     1
102
RTVSPropertyOp1
 70
     1
102
RTVSPropertyOp2
 70
     1
102
RTVSPropertyOp3
 70
     1
102
RTVSPropertyOp4
 70
     1
102
RTVSPropertyOp5
 70
     1
102
RTVSPropertyOp6
 70
     1
102
RTVSPropertyOp7
 70
     1
102
RTVSPropertyOp8
 70
     1
102
RTVSPropertyOp9
 70
     1
102
RTVSPropertyOp10
 70
     1
102
RTVSPropertyOp11
 70
     1
102
RTVSPropertyOp12
 70
     1
102
RTVSPropertyOp13
 70
     1
102
RTVSPropertyOp14
 70
     1
102
RTVSPropertyOp15
 70
     1
102
RTVSPropertyOp16
 70
     1
102
RTVSPropertyOp17
 70
     1
102
RTVSPropertyOp18
 70
     1
102
RTVSPropertyOp19
 70
     1
102
RTVSPropertyOp20
 70
     1
102
RTVSPropertyOp21
 70
     1
102
RTVSPropertyOp22
 70
     1
102
RTVSPropertyOp23
 70
     1
102
RTVSPropertyOp24
 70
     1
102
RTVSPropertyOp25
 70
     1
102
RTVSPropertyOp26
 70
     1
102
RTVSPropertyOp27
 70
     1
102
RTVSPropertyOp28
 70
     1
102
RTVSPropertyOp29
 70
     1
102
RTVSPropertyOp30
 70
     1
102
RTVSPropertyOp31
 70
     1
102
RTVSPropertyOp32
 70
     1
102
RTVSPropertyOp33
 70
     1
102
RTVSPropertyOp34
 70
     1
102
RTVSPropertyOp35
 70
     1
102
RTVSPropertyOp36
 70
     1
102
RTVSPropertyOp37
 70
     1
102
RTVSPropertyOp38
 70
     1
102
RTVSPropertyOp39
 70
     1
102
RTVSPropertyOp40
 70
     1
102
RTVSPropertyOp41
 70
     1
102
RTVSPropertyOp42
 70
     1
102
RTVSPropertyOp43
 70
     1
102
RTVSPropertyOp44
 70
     1
102
RTVSPropertyOp45
 70
     1
102
RTVSPropertyOp46
 70
     1
102
RTVSPropertyOp47
 70
     1
102
RTVSPropertyOp48
 70
     1
102
RTVSPropertyOp49
 70
     1
102
RTVSPropertyOp50
 70
     1
102
RTVSPropertyOp51
 70
     0
102
RTVSPropertyOp52
 70
     0
102
RTVSPropertyOp53
 70
     1
102
RTVSPropertyOp54
 70
     1
102
RTVSPropertyOp55
 70
     1
102
RTVSPropertyOp56
 70
     1
102
RTVSPropertyOp57
 70
     1
102
RTVSPropertyOp58
 70
     1
102
RTVSPropertyOp59
 70
     1
102
RTVSPropertyOp60
 70
     1
102
RTVSPropertyOp61
 70
     1
102
RTVSPropertyOp62
 70
     1
  0
XRECORD
  5
9D42
102
{ACAD_REACTORS
330
9D41
102
}
330
9D41
100
AcDbXrecord
280
     1
102
RTVSPost2010Prop28
280
     0
102
RTVSPost2010PropOp28
 70
     1
102
RTVSPost2010Prop29
280
     1
102
RTVSPost2010PropOp29
 70
     1
102
RTVSPost2010Prop30
280
     1
102
RTVSPost2010PropOp30
 70
     1
102
RTVSPost2010Prop31
280
     0
102
RTVSPost2010PropOp31
 70
     1
102
RTVSPost2010Prop32
280
     0
102
RTVSPost2010PropOp32
 70
     1
102
RTVSPost2010Prop33
280
     0
102
RTVSPost2010PropOp33
 70
     1
102
RTVSPost2010Prop34
280
     0
102
RTVSPost2010PropOp34
 70
     1
102
RTVSPost2010Prop35
280
     0
102
RTVSPost2010PropOp35
 70
     1
102
RTVSPost2010Prop36
280
     0
102
RTVSPost2010PropOp36
 70
     1
102
RTVSPost2010Prop37
 90
       50
102
RTVSPost2010PropOp37
 70
     1
102
RTVSPost2010Prop38
140
0.0
102
RTVSPost2010PropOp38
 70
     1
102
RTVSPost2010Prop39
140
1.0
102
RTVSPost2010PropOp39
 70
     1
102
RTVSPost2010Prop40
 90
        0
102
RTVSPost2010PropOp40
 70
     1
102
RTVSPost2010Prop41ColorIndex
 90
       18
102
RTVSPost2010Prop41ColorRGB
 90
        0
102
RTVSPost2010PropOp41
 70
     1
102
RTVSPost2010Prop42
 90
       50
102
RTVSPost2010PropOp42
 70
     1
102
RTVSPost2010Prop43
 90
        3
102
RTVSPost2010PropOp43
 70
     1
102
RTVSPost2010Prop44ColorIndex
 90
        5
102
RTVSPost2010Prop44ColorRGB
 90
      255
102
RTVSPost2010PropOp44
 70
     1
102
RTVSPost2010Prop45
280
     0
102
RTVSPost2010PropOp45
 70
     1
102
RTVSPost2010Prop46
 90
       50
102
RTVSPost2010PropOp46
 70
     1
102
RTVSPost2010Prop47
 90
       50
102
RTVSPost2010PropOp47
 70
     1
102
RTVSPost2010Prop48
 90
       50
102
RTVSPost2010PropOp48
 70
     1
102
RTVSPost2010Prop49
280
     0
102
RTVSPost2010PropOp49
 70
     1
102
RTVSPost2010Prop50
 90
       50
102
RTVSPost2010PropOp50
 70
     1
102
RTVSPost2010Prop51ColorIndex
 90
      256
102
RTVSPost2010Prop51ColorRGB
 90
-16777216
102
RTVSPost2010PropOp51
 70
     0
102
RTVSPost2010Prop52
140
1.0
102
RTVSPost2010PropOp52
 70
     0
102
RTVSPost2010Prop53
 90
        2
102
RTVSPost2010PropOp53
 70
     1
102
RTVSPost2010Prop54
  1
strokes_ogs.tif
102
RTVSPost2010PropOp54
 70
     1
102
RTVSPost2010Prop55
280
     0
102
RTVSPost2010PropOp55
 70
     1
102
RTVSPost2010Prop56
140
1.0
102
RTVSPost2010PropOp56
 70
     1
102
RTVSPost2010Prop57
140
1.0
102
RTVSPost2010PropOp57
 70
     1
102
RTVSPropertyOp0
 70
     1
102
RTVSPropertyOp1
 70
     1
102
RTVSPropertyOp2
 70
     1
102
RTVSPropertyOp3
 70
     1
102
RTVSPropertyOp4
 70
     1
102
RTVSPropertyOp5
 70
     1
102
RTVSPropertyOp6
 70
     1
102
RTVSPropertyOp7
 70
     1
102
RTVSPropertyOp8
 70
     1
102
RTVSPropertyOp9
 70
     1
102
RTVSPropertyOp10
 70
     1
102
RTVSPropertyOp11
 70
     1
102
RTVSPropertyOp12
 70
     1
102
RTVSPropertyOp13
 70
     1
102
RTVSPropertyOp14
 70
     1
102
RTVSPropertyOp15
 70
     1
102
RTVSPropertyOp16
 70
     1
102
RTVSPropertyOp17
 70
     1
102
RTVSPropertyOp18
 70
     1
102
RTVSPropertyOp19
 70
     1
102
RTVSPropertyOp20
 70
     1
102
RTVSPropertyOp21
 70
     1
102
RTVSPropertyOp22
 70
     1
102
RTVSPropertyOp23
 70
     1
102
RTVSPropertyOp24
 70
     1
102
RTVSPropertyOp25
 70
     1
102
RTVSPropertyOp26
 70
     1
102
RTVSPropertyOp27
 70
     1
102
RTVSPropertyOp28
 70
     1
102
RTVSPropertyOp29
 70
     1
102
RTVSPropertyOp30
 70
     1
102
RTVSPropertyOp31
 70
     1
102
RTVSPropertyOp32
 70
     1
102
RTVSPropertyOp33
 70
     1
102
RTVSPropertyOp34
 70
     1
102
RTVSPropertyOp35
 70
     1
102
RTVSPropertyOp36
 70
     1
102
RTVSPropertyOp37
 70
     1
102
RTVSPropertyOp38
 70
     1
102
RTVSPropertyOp39
 70
     1
102
RTVSPropertyOp40
 70
     1
102
RTVSPropertyOp41
 70
     1
102
RTVSPropertyOp42
 70
     1
102
RTVSPropertyOp43
 70
     1
102
RTVSPropertyOp44
 70
     1
102
RTVSPropertyOp45
 70
     1
102
RTVSPropertyOp46
 70
     1
102
RTVSPropertyOp47
 70
     1
102
RTVSPropertyOp48
 70
     1
102
RTVSPropertyOp49
 70
     1
102
RTVSPropertyOp50
 70
     1
102
RTVSPropertyOp51
 70
     0
102
RTVSPropertyOp52
 70
     0
102
RTVSPropertyOp53
 70
     1
102
RTVSPropertyOp54
 70
     1
102
RTVSPropertyOp55
 70
     1
102
RTVSPropertyOp56
 70
     1
102
RTVSPropertyOp57
 70
     1
102
RTVSPropertyOp58
 70
     1
102
RTVSPropertyOp59
 70
     1
102
RTVSPropertyOp60
 70
     1
102
RTVSPropertyOp61
 70
     1
102
RTVSPropertyOp62
 70
     1
  0
XRECORD
  5
9D3C
102
{ACAD_REACTORS
330
9D3B
102
}
330
9D3B
100
AcDbXrecord
280
     1
102
RTVSPost2010Prop28
280
     0
102
RTVSPost2010PropOp28
 70
     1
102
RTVSPost2010Prop29
280
     1
102
RTVSPost2010PropOp29
 70
     1
102
RTVSPost2010Prop30
280
     1
102
RTVSPost2010PropOp30
 70
     1
102
RTVSPost2010Prop31
280
     0
102
RTVSPost2010PropOp31
 70
     1
102
RTVSPost2010Prop32
280
     0
102
RTVSPost2010PropOp32
 70
     1
102
RTVSPost2010Prop33
280
     0
102
RTVSPost2010PropOp33
 70
     1
102
RTVSPost2010Prop34
280
     0
102
RTVSPost2010PropOp34
 70
     1
102
RTVSPost2010Prop35
280
     0
102
RTVSPost2010PropOp35
 70
     1
102
RTVSPost2010Prop36
280
     0
102
RTVSPost2010PropOp36
 70
     1
102
RTVSPost2010Prop37
 90
       50
102
RTVSPost2010PropOp37
 70
     1
102
RTVSPost2010Prop38
140
0.0
102
RTVSPost2010PropOp38
 70
     1
102
RTVSPost2010Prop39
140
1.0
102
RTVSPost2010PropOp39
 70
     1
102
RTVSPost2010Prop40
 90
        0
102
RTVSPost2010PropOp40
 70
     1
102
RTVSPost2010Prop41ColorIndex
 90
       18
102
RTVSPost2010Prop41ColorRGB
 90
        0
102
RTVSPost2010PropOp41
 70
     1
102
RTVSPost2010Prop42
 90
       50
102
RTVSPost2010PropOp42
 70
     1
102
RTVSPost2010Prop43
 90
        3
102
RTVSPost2010PropOp43
 70
     1
102
RTVSPost2010Prop44ColorIndex
 90
        5
102
RTVSPost2010Prop44ColorRGB
 90
      255
102
RTVSPost2010PropOp44
 70
     1
102
RTVSPost2010Prop45
280
     0
102
RTVSPost2010PropOp45
 70
     1
102
RTVSPost2010Prop46
 90
       50
102
RTVSPost2010PropOp46
 70
     1
102
RTVSPost2010Prop47
 90
       50
102
RTVSPost2010PropOp47
 70
     1
102
RTVSPost2010Prop48
 90
       50
102
RTVSPost2010PropOp48
 70
     1
102
RTVSPost2010Prop49
280
     0
102
RTVSPost2010PropOp49
 70
     1
102
RTVSPost2010Prop50
 90
       50
102
RTVSPost2010PropOp50
 70
     1
102
RTVSPost2010Prop51ColorIndex
 90
      256
102
RTVSPost2010Prop51ColorRGB
 90
-16777216
102
RTVSPost2010PropOp51
 70
     0
102
RTVSPost2010Prop52
140
1.0
102
RTVSPost2010PropOp52
 70
     0
102
RTVSPost2010Prop53
 90
        2
102
RTVSPost2010PropOp53
 70
     1
102
RTVSPost2010Prop54
  1
strokes_ogs.tif
102
RTVSPost2010PropOp54
 70
     1
102
RTVSPost2010Prop55
280
     0
102
RTVSPost2010PropOp55
 70
     1
102
RTVSPost2010Prop56
140
1.0
102
RTVSPost2010PropOp56
 70
     1
102
RTVSPost2010Prop57
140
1.0
102
RTVSPost2010PropOp57
 70
     1
102
RTVSPropertyOp0
 70
     1
102
RTVSPropertyOp1
 70
     1
102
RTVSPropertyOp2
 70
     1
102
RTVSPropertyOp3
 70
     1
102
RTVSPropertyOp4
 70
     1
102
RTVSPropertyOp5
 70
     1
102
RTVSPropertyOp6
 70
     1
102
RTVSPropertyOp7
 70
     1
102
RTVSPropertyOp8
 70
     1
102
RTVSPropertyOp9
 70
     1
102
RTVSPropertyOp10
 70
     1
102
RTVSPropertyOp11
 70
     1
102
RTVSPropertyOp12
 70
     1
102
RTVSPropertyOp13
 70
     1
102
RTVSPropertyOp14
 70
     1
102
RTVSPropertyOp15
 70
     1
102
RTVSPropertyOp16
 70
     1
102
RTVSPropertyOp17
 70
     1
102
RTVSPropertyOp18
 70
     1
102
RTVSPropertyOp19
 70
     1
102
RTVSPropertyOp20
 70
     1
102
RTVSPropertyOp21
 70
     1
102
RTVSPropertyOp22
 70
     1
102
RTVSPropertyOp23
 70
     1
102
RTVSPropertyOp24
 70
     1
102
RTVSPropertyOp25
 70
     1
102
RTVSPropertyOp26
 70
     1
102
RTVSPropertyOp27
 70
     1
102
RTVSPropertyOp28
 70
     1
102
RTVSPropertyOp29
 70
     1
102
RTVSPropertyOp30
 70
     1
102
RTVSPropertyOp31
 70
     1
102
RTVSPropertyOp32
 70
     1
102
RTVSPropertyOp33
 70
     1
102
RTVSPropertyOp34
 70
     1
102
RTVSPropertyOp35
 70
     1
102
RTVSPropertyOp36
 70
     1
102
RTVSPropertyOp37
 70
     1
102
RTVSPropertyOp38
 70
     1
102
RTVSPropertyOp39
 70
     1
102
RTVSPropertyOp40
 70
     1
102
RTVSPropertyOp41
 70
     1
102
RTVSPropertyOp42
 70
     1
102
RTVSPropertyOp43
 70
     1
102
RTVSPropertyOp44
 70
     1
102
RTVSPropertyOp45
 70
     1
102
RTVSPropertyOp46
 70
     1
102
RTVSPropertyOp47
 70
     1
102
RTVSPropertyOp48
 70
     1
102
RTVSPropertyOp49
 70
     1
102
RTVSPropertyOp50
 70
     1
102
RTVSPropertyOp51
 70
     0
102
RTVSPropertyOp52
 70
     0
102
RTVSPropertyOp53
 70
     1
102
RTVSPropertyOp54
 70
     1
102
RTVSPropertyOp55
 70
     1
102
RTVSPropertyOp56
 70
     1
102
RTVSPropertyOp57
 70
     1
102
RTVSPropertyOp58
 70
     1
102
RTVSPropertyOp59
 70
     1
102
RTVSPropertyOp60
 70
     1
102
RTVSPropertyOp61
 70
     1
102
RTVSPropertyOp62
 70
     1
  0
XRECORD
  5
9D3E
102
{ACAD_REACTORS
330
9D3D
102
}
330
9D3D
100
AcDbXrecord
280
     1
102
RTVSPost2010Prop28
280
     0
102
RTVSPost2010PropOp28
 70
     1
102
RTVSPost2010Prop29
280
     1
102
RTVSPost2010PropOp29
 70
     1
102
RTVSPost2010Prop30
280
     1
102
RTVSPost2010PropOp30
 70
     1
102
RTVSPost2010Prop31
280
     0
102
RTVSPost2010PropOp31
 70
     1
102
RTVSPost2010Prop32
280
     0
102
RTVSPost2010PropOp32
 70
     1
102
RTVSPost2010Prop33
280
     0
102
RTVSPost2010PropOp33
 70
     1
102
RTVSPost2010Prop34
280
     0
102
RTVSPost2010PropOp34
 70
     1
102
RTVSPost2010Prop35
280
     0
102
RTVSPost2010PropOp35
 70
     1
102
RTVSPost2010Prop36
280
     0
102
RTVSPost2010PropOp36
 70
     1
102
RTVSPost2010Prop37
 90
       50
102
RTVSPost2010PropOp37
 70
     1
102
RTVSPost2010Prop38
140
0.0
102
RTVSPost2010PropOp38
 70
     1
102
RTVSPost2010Prop39
140
1.0
102
RTVSPost2010PropOp39
 70
     1
102
RTVSPost2010Prop40
 90
        0
102
RTVSPost2010PropOp40
 70
     1
102
RTVSPost2010Prop41ColorIndex
 90
       18
102
RTVSPost2010Prop41ColorRGB
 90
        0
102
RTVSPost2010PropOp41
 70
     1
102
RTVSPost2010Prop42
 90
       50
102
RTVSPost2010PropOp42
 70
     1
102
RTVSPost2010Prop43
 90
        3
102
RTVSPost2010PropOp43
 70
     1
102
RTVSPost2010Prop44ColorIndex
 90
        5
102
RTVSPost2010Prop44ColorRGB
 90
      255
102
RTVSPost2010PropOp44
 70
     1
102
RTVSPost2010Prop45
280
     0
102
RTVSPost2010PropOp45
 70
     1
102
RTVSPost2010Prop46
 90
       50
102
RTVSPost2010PropOp46
 70
     1
102
RTVSPost2010Prop47
 90
       50
102
RTVSPost2010PropOp47
 70
     1
102
RTVSPost2010Prop48
 90
       50
102
RTVSPost2010PropOp48
 70
     1
102
RTVSPost2010Prop49
280
     0
102
RTVSPost2010PropOp49
 70
     1
102
RTVSPost2010Prop50
 90
       50
102
RTVSPost2010PropOp50
 70
     1
102
RTVSPost2010Prop51ColorIndex
 90
      256
102
RTVSPost2010Prop51ColorRGB
 90
-16777216
102
RTVSPost2010PropOp51
 70
     0
102
RTVSPost2010Prop52
140
1.0
102
RTVSPost2010PropOp52
 70
     0
102
RTVSPost2010Prop53
 90
        2
102
RTVSPost2010PropOp53
 70
     1
102
RTVSPost2010Prop54
  1
strokes_ogs.tif
102
RTVSPost2010PropOp54
 70
     1
102
RTVSPost2010Prop55
280
     0
102
RTVSPost2010PropOp55
 70
     1
102
RTVSPost2010Prop56
140
1.0
102
RTVSPost2010PropOp56
 70
     1
102
RTVSPost2010Prop57
140
1.0
102
RTVSPost2010PropOp57
 70
     1
102
RTVSPropertyOp0
 70
     1
102
RTVSPropertyOp1
 70
     1
102
RTVSPropertyOp2
 70
     1
102
RTVSPropertyOp3
 70
     1
102
RTVSPropertyOp4
 70
     1
102
RTVSPropertyOp5
 70
     1
102
RTVSPropertyOp6
 70
     1
102
RTVSPropertyOp7
 70
     1
102
RTVSPropertyOp8
 70
     1
102
RTVSPropertyOp9
 70
     1
102
RTVSPropertyOp10
 70
     1
102
RTVSPropertyOp11
 70
     1
102
RTVSPropertyOp12
 70
     1
102
RTVSPropertyOp13
 70
     1
102
RTVSPropertyOp14
 70
     1
102
RTVSPropertyOp15
 70
     1
102
RTVSPropertyOp16
 70
     1
102
RTVSPropertyOp17
 70
     1
102
RTVSPropertyOp18
 70
     1
102
RTVSPropertyOp19
 70
     1
102
RTVSPropertyOp20
 70
     1
102
RTVSPropertyOp21
 70
     1
102
RTVSPropertyOp22
 70
     1
102
RTVSPropertyOp23
 70
     1
102
RTVSPropertyOp24
 70
     1
102
RTVSPropertyOp25
 70
     1
102
RTVSPropertyOp26
 70
     1
102
RTVSPropertyOp27
 70
     1
102
RTVSPropertyOp28
 70
     1
102
RTVSPropertyOp29
 70
     1
102
RTVSPropertyOp30
 70
     1
102
RTVSPropertyOp31
 70
     1
102
RTVSPropertyOp32
 70
     1
102
RTVSPropertyOp33
 70
     1
102
RTVSPropertyOp34
 70
     1
102
RTVSPropertyOp35
 70
     1
102
RTVSPropertyOp36
 70
     1
102
RTVSPropertyOp37
 70
     1
102
RTVSPropertyOp38
 70
     1
102
RTVSPropertyOp39
 70
     1
102
RTVSPropertyOp40
 70
     1
102
RTVSPropertyOp41
 70
     1
102
RTVSPropertyOp42
 70
     1
102
RTVSPropertyOp43
 70
     1
102
RTVSPropertyOp44
 70
     1
102
RTVSPropertyOp45
 70
     1
102
RTVSPropertyOp46
 70
     1
102
RTVSPropertyOp47
 70
     1
102
RTVSPropertyOp48
 70
     1
102
RTVSPropertyOp49
 70
     1
102
RTVSPropertyOp50
 70
     1
102
RTVSPropertyOp51
 70
     0
102
RTVSPropertyOp52
 70
     0
102
RTVSPropertyOp53
 70
     1
102
RTVSPropertyOp54
 70
     1
102
RTVSPropertyOp55
 70
     1
102
RTVSPropertyOp56
 70
     1
102
RTVSPropertyOp57
 70
     1
102
RTVSPropertyOp58
 70
     1
102
RTVSPropertyOp59
 70
     1
102
RTVSPropertyOp60
 70
     1
102
RTVSPropertyOp61
 70
     1
102
RTVSPropertyOp62
 70
     1
  0
XRECORD
  5
9D34
102
{ACAD_REACTORS
330
9D33
102
}
330
9D33
100
AcDbXrecord
280
     1
102
RTVSPost2010Prop28
280
     0
102
RTVSPost2010PropOp28
 70
     1
102
RTVSPost2010Prop29
280
     1
102
RTVSPost2010PropOp29
 70
     1
102
RTVSPost2010Prop30
280
     1
102
RTVSPost2010PropOp30
 70
     1
102
RTVSPost2010Prop31
280
     0
102
RTVSPost2010PropOp31
 70
     1
102
RTVSPost2010Prop32
280
     0
102
RTVSPost2010PropOp32
 70
     1
102
RTVSPost2010Prop33
280
     0
102
RTVSPost2010PropOp33
 70
     1
102
RTVSPost2010Prop34
280
     0
102
RTVSPost2010PropOp34
 70
     1
102
RTVSPost2010Prop35
280
     0
102
RTVSPost2010PropOp35
 70
     1
102
RTVSPost2010Prop36
280
     0
102
RTVSPost2010PropOp36
 70
     1
102
RTVSPost2010Prop37
 90
       50
102
RTVSPost2010PropOp37
 70
     1
102
RTVSPost2010Prop38
140
0.0
102
RTVSPost2010PropOp38
 70
     1
102
RTVSPost2010Prop39
140
1.0
102
RTVSPost2010PropOp39
 70
     1
102
RTVSPost2010Prop40
 90
        0
102
RTVSPost2010PropOp40
 70
     1
102
RTVSPost2010Prop41ColorIndex
 90
       18
102
RTVSPost2010Prop41ColorRGB
 90
        0
102
RTVSPost2010PropOp41
 70
     1
102
RTVSPost2010Prop42
 90
       50
102
RTVSPost2010PropOp42
 70
     1
102
RTVSPost2010Prop43
 90
        3
102
RTVSPost2010PropOp43
 70
     1
102
RTVSPost2010Prop44ColorIndex
 90
        5
102
RTVSPost2010Prop44ColorRGB
 90
      255
102
RTVSPost2010PropOp44
 70
     1
102
RTVSPost2010Prop45
280
     0
102
RTVSPost2010PropOp45
 70
     1
102
RTVSPost2010Prop46
 90
       50
102
RTVSPost2010PropOp46
 70
     1
102
RTVSPost2010Prop47
 90
       50
102
RTVSPost2010PropOp47
 70
     1
102
RTVSPost2010Prop48
 90
       50
102
RTVSPost2010PropOp48
 70
     1
102
RTVSPost2010Prop49
280
     0
102
RTVSPost2010PropOp49
 70
     1
102
RTVSPost2010Prop50
 90
       50
102
RTVSPost2010PropOp50
 70
     1
102
RTVSPost2010Prop51ColorIndex
 90
      256
102
RTVSPost2010Prop51ColorRGB
 90
-16777216
102
RTVSPost2010PropOp51
 70
     0
102
RTVSPost2010Prop52
140
1.0
102
RTVSPost2010PropOp52
 70
     0
102
RTVSPost2010Prop53
 90
        2
102
RTVSPost2010PropOp53
 70
     1
102
RTVSPost2010Prop54
  1
strokes_ogs.tif
102
RTVSPost2010PropOp54
 70
     1
102
RTVSPost2010Prop55
280
     0
102
RTVSPost2010PropOp55
 70
     1
102
RTVSPost2010Prop56
140
1.0
102
RTVSPost2010PropOp56
 70
     1
102
RTVSPost2010Prop57
140
1.0
102
RTVSPost2010PropOp57
 70
     1
102
RTVSPropertyOp0
 70
     1
102
RTVSPropertyOp1
 70
     1
102
RTVSPropertyOp2
 70
     1
102
RTVSPropertyOp3
 70
     1
102
RTVSPropertyOp4
 70
     1
102
RTVSPropertyOp5
 70
     1
102
RTVSPropertyOp6
 70
     1
102
RTVSPropertyOp7
 70
     1
102
RTVSPropertyOp8
 70
     1
102
RTVSPropertyOp9
 70
     1
102
RTVSPropertyOp10
 70
     1
102
RTVSPropertyOp11
 70
     1
102
RTVSPropertyOp12
 70
     1
102
RTVSPropertyOp13
 70
     1
102
RTVSPropertyOp14
 70
     1
102
RTVSPropertyOp15
 70
     1
102
RTVSPropertyOp16
 70
     1
102
RTVSPropertyOp17
 70
     1
102
RTVSPropertyOp18
 70
     1
102
RTVSPropertyOp19
 70
     1
102
RTVSPropertyOp20
 70
     1
102
RTVSPropertyOp21
 70
     1
102
RTVSPropertyOp22
 70
     1
102
RTVSPropertyOp23
 70
     1
102
RTVSPropertyOp24
 70
     1
102
RTVSPropertyOp25
 70
     1
102
RTVSPropertyOp26
 70
     1
102
RTVSPropertyOp27
 70
     1
102
RTVSPropertyOp28
 70
     1
102
RTVSPropertyOp29
 70
     1
102
RTVSPropertyOp30
 70
     1
102
RTVSPropertyOp31
 70
     1
102
RTVSPropertyOp32
 70
     1
102
RTVSPropertyOp33
 70
     1
102
RTVSPropertyOp34
 70
     1
102
RTVSPropertyOp35
 70
     1
102
RTVSPropertyOp36
 70
     1
102
RTVSPropertyOp37
 70
     1
102
RTVSPropertyOp38
 70
     1
102
RTVSPropertyOp39
 70
     1
102
RTVSPropertyOp40
 70
     1
102
RTVSPropertyOp41
 70
     1
102
RTVSPropertyOp42
 70
     1
102
RTVSPropertyOp43
 70
     1
102
RTVSPropertyOp44
 70
     1
102
RTVSPropertyOp45
 70
     1
102
RTVSPropertyOp46
 70
     1
102
RTVSPropertyOp47
 70
     1
102
RTVSPropertyOp48
 70
     1
102
RTVSPropertyOp49
 70
     1
102
RTVSPropertyOp50
 70
     1
102
RTVSPropertyOp51
 70
     0
102
RTVSPropertyOp52
 70
     0
102
RTVSPropertyOp53
 70
     1
102
RTVSPropertyOp54
 70
     1
102
RTVSPropertyOp55
 70
     1
102
RTVSPropertyOp56
 70
     1
102
RTVSPropertyOp57
 70
     1
102
RTVSPropertyOp58
 70
     1
102
RTVSPropertyOp59
 70
     1
102
RTVSPropertyOp60
 70
     1
102
RTVSPropertyOp61
 70
     1
102
RTVSPropertyOp62
 70
     1
  0
XRECORD
  5
9D28
102
{ACAD_REACTORS
330
9D27
102
}
330
9D27
100
AcDbXrecord
280
     1
102
RTVSPost2010Prop28
280
     0
102
RTVSPost2010PropOp28
 70
     1
102
RTVSPost2010Prop29
280
     1
102
RTVSPost2010PropOp29
 70
     1
102
RTVSPost2010Prop30
280
     1
102
RTVSPost2010PropOp30
 70
     1
102
RTVSPost2010Prop31
280
     0
102
RTVSPost2010PropOp31
 70
     1
102
RTVSPost2010Prop32
280
     0
102
RTVSPost2010PropOp32
 70
     1
102
RTVSPost2010Prop33
280
     0
102
RTVSPost2010PropOp33
 70
     1
102
RTVSPost2010Prop34
280
     0
102
RTVSPost2010PropOp34
 70
     1
102
RTVSPost2010Prop35
280
     0
102
RTVSPost2010PropOp35
 70
     1
102
RTVSPost2010Prop36
280
     0
102
RTVSPost2010PropOp36
 70
     1
102
RTVSPost2010Prop37
 90
       50
102
RTVSPost2010PropOp37
 70
     1
102
RTVSPost2010Prop38
140
0.0
102
RTVSPost2010PropOp38
 70
     1
102
RTVSPost2010Prop39
140
1.0
102
RTVSPost2010PropOp39
 70
     1
102
RTVSPost2010Prop40
 90
        0
102
RTVSPost2010PropOp40
 70
     1
102
RTVSPost2010Prop41ColorIndex
 90
       18
102
RTVSPost2010Prop41ColorRGB
 90
        0
102
RTVSPost2010PropOp41
 70
     1
102
RTVSPost2010Prop42
 90
       50
102
RTVSPost2010PropOp42
 70
     1
102
RTVSPost2010Prop43
 90
        3
102
RTVSPost2010PropOp43
 70
     1
102
RTVSPost2010Prop44ColorIndex
 90
        5
102
RTVSPost2010Prop44ColorRGB
 90
      255
102
RTVSPost2010PropOp44
 70
     1
102
RTVSPost2010Prop45
280
     0
102
RTVSPost2010PropOp45
 70
     1
102
RTVSPost2010Prop46
 90
       50
102
RTVSPost2010PropOp46
 70
     1
102
RTVSPost2010Prop47
 90
       50
102
RTVSPost2010PropOp47
 70
     1
102
RTVSPost2010Prop48
 90
       50
102
RTVSPost2010PropOp48
 70
     1
102
RTVSPost2010Prop49
280
     0
102
RTVSPost2010PropOp49
 70
     1
102
RTVSPost2010Prop50
 90
       50
102
RTVSPost2010PropOp50
 70
     1
102
RTVSPost2010Prop51ColorIndex
 90
      256
102
RTVSPost2010Prop51ColorRGB
 90
-16777216
102
RTVSPost2010PropOp51
 70
     0
102
RTVSPost2010Prop52
140
1.0
102
RTVSPost2010PropOp52
 70
     0
102
RTVSPost2010Prop53
 90
        2
102
RTVSPost2010PropOp53
 70
     1
102
RTVSPost2010Prop54
  1
strokes_ogs.tif
102
RTVSPost2010PropOp54
 70
     1
102
RTVSPost2010Prop55
280
     0
102
RTVSPost2010PropOp55
 70
     1
102
RTVSPost2010Prop56
140
1.0
102
RTVSPost2010PropOp56
 70
     1
102
RTVSPost2010Prop57
140
1.0
102
RTVSPost2010PropOp57
 70
     1
102
RTVSPropertyOp0
 70
     1
102
RTVSPropertyOp1
 70
     1
102
RTVSPropertyOp2
 70
     1
102
RTVSPropertyOp3
 70
     1
102
RTVSPropertyOp4
 70
     1
102
RTVSPropertyOp5
 70
     1
102
RTVSPropertyOp6
 70
     1
102
RTVSPropertyOp7
 70
     1
102
RTVSPropertyOp8
 70
     1
102
RTVSPropertyOp9
 70
     1
102
RTVSPropertyOp10
 70
     1
102
RTVSPropertyOp11
 70
     1
102
RTVSPropertyOp12
 70
     1
102
RTVSPropertyOp13
 70
     1
102
RTVSPropertyOp14
 70
     1
102
RTVSPropertyOp15
 70
     1
102
RTVSPropertyOp16
 70
     1
102
RTVSPropertyOp17
 70
     1
102
RTVSPropertyOp18
 70
     1
102
RTVSPropertyOp19
 70
     1
102
RTVSPropertyOp20
 70
     1
102
RTVSPropertyOp21
 70
     1
102
RTVSPropertyOp22
 70
     1
102
RTVSPropertyOp23
 70
     1
102
RTVSPropertyOp24
 70
     1
102
RTVSPropertyOp25
 70
     1
102
RTVSPropertyOp26
 70
     1
102
RTVSPropertyOp27
 70
     1
102
RTVSPropertyOp28
 70
     1
102
RTVSPropertyOp29
 70
     1
102
RTVSPropertyOp30
 70
     1
102
RTVSPropertyOp31
 70
     1
102
RTVSPropertyOp32
 70
     1
102
RTVSPropertyOp33
 70
     1
102
RTVSPropertyOp34
 70
     1
102
RTVSPropertyOp35
 70
     1
102
RTVSPropertyOp36
 70
     1
102
RTVSPropertyOp37
 70
     1
102
RTVSPropertyOp38
 70
     1
102
RTVSPropertyOp39
 70
     1
102
RTVSPropertyOp40
 70
     1
102
RTVSPropertyOp41
 70
     1
102
RTVSPropertyOp42
 70
     1
102
RTVSPropertyOp43
 70
     1
102
RTVSPropertyOp44
 70
     1
102
RTVSPropertyOp45
 70
     1
102
RTVSPropertyOp46
 70
     1
102
RTVSPropertyOp47
 70
     1
102
RTVSPropertyOp48
 70
     1
102
RTVSPropertyOp49
 70
     1
102
RTVSPropertyOp50
 70
     1
102
RTVSPropertyOp51
 70
     0
102
RTVSPropertyOp52
 70
     0
102
RTVSPropertyOp53
 70
     1
102
RTVSPropertyOp54
 70
     1
102
RTVSPropertyOp55
 70
     1
102
RTVSPropertyOp56
 70
     1
102
RTVSPropertyOp57
 70
     1
102
RTVSPropertyOp58
 70
     1
102
RTVSPropertyOp59
 70
     1
102
RTVSPropertyOp60
 70
     1
102
RTVSPropertyOp61
 70
     1
102
RTVSPropertyOp62
 70
     1
  0
XRECORD
  5
9D40
102
{ACAD_REACTORS
330
9D3F
102
}
330
9D3F
100
AcDbXrecord
280
     1
102
RTVSPost2010Prop28
280
     0
102
RTVSPost2010PropOp28
 70
     1
102
RTVSPost2010Prop29
280
     1
102
RTVSPost2010PropOp29
 70
     1
102
RTVSPost2010Prop30
280
     1
102
RTVSPost2010PropOp30
 70
     1
102
RTVSPost2010Prop31
280
     0
102
RTVSPost2010PropOp31
 70
     1
102
RTVSPost2010Prop32
280
     0
102
RTVSPost2010PropOp32
 70
     1
102
RTVSPost2010Prop33
280
     0
102
RTVSPost2010PropOp33
 70
     1
102
RTVSPost2010Prop34
280
     0
102
RTVSPost2010PropOp34
 70
     1
102
RTVSPost2010Prop35
280
     0
102
RTVSPost2010PropOp35
 70
     1
102
RTVSPost2010Prop36
280
     0
102
RTVSPost2010PropOp36
 70
     1
102
RTVSPost2010Prop37
 90
       50
102
RTVSPost2010PropOp37
 70
     1
102
RTVSPost2010Prop38
140
0.0
102
RTVSPost2010PropOp38
 70
     1
102
RTVSPost2010Prop39
140
1.0
102
RTVSPost2010PropOp39
 70
     1
102
RTVSPost2010Prop40
 90
        0
102
RTVSPost2010PropOp40
 70
     1
102
RTVSPost2010Prop41ColorIndex
 90
       18
102
RTVSPost2010Prop41ColorRGB
 90
        0
102
RTVSPost2010PropOp41
 70
     1
102
RTVSPost2010Prop42
 90
       50
102
RTVSPost2010PropOp42
 70
     1
102
RTVSPost2010Prop43
 90
        3
102
RTVSPost2010PropOp43
 70
     1
102
RTVSPost2010Prop44ColorIndex
 90
        5
102
RTVSPost2010Prop44ColorRGB
 90
      255
102
RTVSPost2010PropOp44
 70
     1
102
RTVSPost2010Prop45
280
     0
102
RTVSPost2010PropOp45
 70
     1
102
RTVSPost2010Prop46
 90
       50
102
RTVSPost2010PropOp46
 70
     1
102
RTVSPost2010Prop47
 90
       50
102
RTVSPost2010PropOp47
 70
     1
102
RTVSPost2010Prop48
 90
       50
102
RTVSPost2010PropOp48
 70
     1
102
RTVSPost2010Prop49
280
     0
102
RTVSPost2010PropOp49
 70
     1
102
RTVSPost2010Prop50
 90
       50
102
RTVSPost2010PropOp50
 70
     1
102
RTVSPost2010Prop51ColorIndex
 90
      256
102
RTVSPost2010Prop51ColorRGB
 90
-16777216
102
RTVSPost2010PropOp51
 70
     0
102
RTVSPost2010Prop52
140
1.0
102
RTVSPost2010PropOp52
 70
     0
102
RTVSPost2010Prop53
 90
        2
102
RTVSPost2010PropOp53
 70
     1
102
RTVSPost2010Prop54
  1
strokes_ogs.tif
102
RTVSPost2010PropOp54
 70
     1
102
RTVSPost2010Prop55
280
     0
102
RTVSPost2010PropOp55
 70
     1
102
RTVSPost2010Prop56
140
1.0
102
RTVSPost2010PropOp56
 70
     1
102
RTVSPost2010Prop57
140
1.0
102
RTVSPost2010PropOp57
 70
     1
102
RTVSPropertyOp0
 70
     1
102
RTVSPropertyOp1
 70
     1
102
RTVSPropertyOp2
 70
     1
102
RTVSPropertyOp3
 70
     1
102
RTVSPropertyOp4
 70
     1
102
RTVSPropertyOp5
 70
     1
102
RTVSPropertyOp6
 70
     1
102
RTVSPropertyOp7
 70
     1
102
RTVSPropertyOp8
 70
     1
102
RTVSPropertyOp9
 70
     1
102
RTVSPropertyOp10
 70
     1
102
RTVSPropertyOp11
 70
     1
102
RTVSPropertyOp12
 70
     1
102
RTVSPropertyOp13
 70
     1
102
RTVSPropertyOp14
 70
     1
102
RTVSPropertyOp15
 70
     1
102
RTVSPropertyOp16
 70
     1
102
RTVSPropertyOp17
 70
     1
102
RTVSPropertyOp18
 70
     1
102
RTVSPropertyOp19
 70
     1
102
RTVSPropertyOp20
 70
     1
102
RTVSPropertyOp21
 70
     1
102
RTVSPropertyOp22
 70
     1
102
RTVSPropertyOp23
 70
     1
102
RTVSPropertyOp24
 70
     1
102
RTVSPropertyOp25
 70
     1
102
RTVSPropertyOp26
 70
     1
102
RTVSPropertyOp27
 70
     1
102
RTVSPropertyOp28
 70
     1
102
RTVSPropertyOp29
 70
     1
102
RTVSPropertyOp30
 70
     1
102
RTVSPropertyOp31
 70
     1
102
RTVSPropertyOp32
 70
     1
102
RTVSPropertyOp33
 70
     1
102
RTVSPropertyOp34
 70
     1
102
RTVSPropertyOp35
 70
     1
102
RTVSPropertyOp36
 70
     1
102
RTVSPropertyOp37
 70
     1
102
RTVSPropertyOp38
 70
     1
102
RTVSPropertyOp39
 70
     1
102
RTVSPropertyOp40
 70
     1
102
RTVSPropertyOp41
 70
     1
102
RTVSPropertyOp42
 70
     1
102
RTVSPropertyOp43
 70
     1
102
RTVSPropertyOp44
 70
     1
102
RTVSPropertyOp45
 70
     1
102
RTVSPropertyOp46
 70
     1
102
RTVSPropertyOp47
 70
     1
102
RTVSPropertyOp48
 70
     1
102
RTVSPropertyOp49
 70
     1
102
RTVSPropertyOp50
 70
     1
102
RTVSPropertyOp51
 70
     0
102
RTVSPropertyOp52
 70
     0
102
RTVSPropertyOp53
 70
     1
102
RTVSPropertyOp54
 70
     1
102
RTVSPropertyOp55
 70
     1
102
RTVSPropertyOp56
 70
     1
102
RTVSPropertyOp57
 70
     1
102
RTVSPropertyOp58
 70
     1
102
RTVSPropertyOp59
 70
     1
102
RTVSPropertyOp60
 70
     1
102
RTVSPropertyOp61
 70
     1
102
RTVSPropertyOp62
 70
     1
  0
ENDSEC
  0
EOF
