  0
SECTION
  2
HEADER
  9
$ACADVER
  1
AC1024
  9
$DWGCODEPAGE
  3
ANSI_932
  9
$LTSCALE
 40
20.0
  9
$FILLMODE
 70
     1
  9
$CLAYER
  8
0
  9
$PDMODE
 70
     0
  9
$SPLFRAME
 70
     0
  9
$SPLINETYPE
 70
     6
  9
$SPLINESEGS
 70
     8
  9
$DIMASZ
 40
2.000000
  9
$DIMEXE
 40
1.500000
  9
$DIMEXO
 40
0.800000
  9
$DIMTAD
 70
     1
  9
$DIMTIH
 70
     0
  9
$DIMTOH
 70
     0
  9
$DIMTVP
 40
0.500000
  9
$DIMTXT
 40
3.100000
  9
$EXTMIN
 10
0.000000
 20
0.000000
 30
0.000000
  9
$EXTMAX
 10
297.000000
 20
420.000000
 30
0.000000
  9
$MEASUREMENT
 70
  1
  9
$LIMMIN
 10
0.000000
 20
0.000000
  9
$LIMMAX
 10
297.000000
 20
420.000000
  9
$HANDSEED
  5
1C0
  9
$LWDISPLAY
290
     0
  9
$DIMBLK
  1
_OPEN
  9
$DIMDEC
 70
     2
  9
$DIMADEC
 70
     2
  9
$DIMAUNIT
 70
     0
  9
$DIMZIN
 70
     8
  9
$DIMAZIN
 70
     2
  9
$DIMTOFL
 70
     1
  0
ENDSEC
  0
SECTION
  2
CLASSES
  0
ENDSEC
  0
SECTION
  2
TABLES
  0
TABLE
  2
VPORT
  5
18B
100
AcDbSymbolTable
 70
     1
  0
VPORT
  5
18C
100
AcDbSymbolTableRecord
100
AcDbViewportTableRecord
  2
*ACTIVE
 70
     0
 12
173.545174
 22
150.704060
 40
265.408118
 41
1.232405
  0
ENDTAB
  0
TABLE
  2
LTYPE
  5
18D
100
AcDbSymbolTable
 70
     3
  0
LTYPE
  5
18E
100
AcDbSymbolTableRecord
100
AcDbLinetypeTableRecord
  2
BYBLOCK
 70
     0
  3

 72
    65
 73
     0
 40
0.0
  0
LTYPE
  5
18F
100
AcDbSymbolTableRecord
100
AcDbLinetypeTableRecord
  2
BYLAYER
 70
     0
  3

 72
    65
 73
     0
 40
0.0
  0
LTYPE
  5
190
100
AcDbSymbolTableRecord
100
AcDbLinetypeTableRecord
  2
CONTINUOUS
 70
     0
  3
Solid line (NEC CAE2D for Win R17.0 : 2023.08.17)
 72
    65
 73
     0
 40
0.0
  0
LTYPE
  5
191
100
AcDbSymbolTableRecord
100
AcDbLinetypeTableRecord
  2
CENTER
 70
     0
  3
____ _ ____ _ ____ _ ____ _ ____ _ ____
 72
    65
 73
     4
 40
2.0
 49
1.25
 74
     0
 49
-0.25
 74
     0
 49
0.25
 74
     0
 49
-0.25
 74
     0
  0
LTYPE
  5
192
100
AcDbSymbolTableRecord
100
AcDbLinetypeTableRecord
  2
PHANTOM
 70
     0
  3
______  __  __  ______  __  __  ______ 
 72
    65
 73
     6
 40
2.5
 49
1.25
 74
     0
 49
-0.25
 74
     0
 49
0.25
 74
     0
 49
-0.25
 74
     0
 49
0.25
 74
     0
 49
-0.25
 74
     0
  0
ENDTAB
  0
TABLE
  2
LAYER
  5
193
100
AcDbSymbolTable
 70
    14
  0
LAYER
  5
194
100
AcDbSymbolTableRecord
100
AcDbLayerTableRecord
  2
0
 70
     0
 62
     7
  6
CONTINUOUS
370
    -3
390

  0
LAYER
  5
195
100
AcDbSymbolTableRecord
100
AcDbLayerTableRecord
  2
A0
 70
     0
 62
     9
  6
CONTINUOUS
370
    -3
390

  0
LAYER
  5
196
100
AcDbSymbolTableRecord
100
AcDbLayerTableRecord
  2
A3
 70
     0
 62
    12
  6
CONTINUOUS
370
    -3
390

  0
LAYER
  5
197
100
AcDbSymbolTableRecord
100
AcDbLayerTableRecord
  2
A4
 70
     0
 62
     9
  6
CONTINUOUS
370
    -3
390

  0
LAYER
  5
198
100
AcDbSymbolTableRecord
100
AcDbLayerTableRecord
  2
A5
 70
     0
 62
     8
  6
CONTINUOUS
370
    -3
390

  0
LAYER
  5
199
100
AcDbSymbolTableRecord
100
AcDbLayerTableRecord
  2
A6
 70
     0
 62
    12
  6
CONTINUOUS
370
    -3
390

  0
LAYER
  5
19A
100
AcDbSymbolTableRecord
100
AcDbLayerTableRecord
  2
A8
 70
     0
 62
    10
  6
CONTINUOUS
370
    -3
390

  0
LAYER
  5
19B
100
AcDbSymbolTableRecord
100
AcDbLayerTableRecord
  2
A9
 70
     0
 62
     9
  6
CONTINUOUS
370
    -3
390

  0
LAYER
  5
19C
100
AcDbSymbolTableRecord
100
AcDbLayerTableRecord
  2
A10
 70
     0
 62
     6
  6
CONTINUOUS
370
    -3
390

  0
LAYER
  5
19D
100
AcDbSymbolTableRecord
100
AcDbLayerTableRecord
  2
A20
 70
     0
 62
     1
  6
CONTINUOUS
370
    -3
390

  0
LAYER
  5
19E
100
AcDbSymbolTableRecord
100
AcDbLayerTableRecord
  2
A30
 70
     0
 62
     1
  6
CONTINUOUS
370
    -3
390

  0
LAYER
  5
19F
100
AcDbSymbolTableRecord
100
AcDbLayerTableRecord
  2
A40
 70
     0
 62
     9
  6
CONTINUOUS
370
    -3
390

  0
LAYER
  5
1A0
100
AcDbSymbolTableRecord
100
AcDbLayerTableRecord
  2
A50
 70
     0
 62
    12
  6
CONTINUOUS
370
    -3
390

  0
LAYER
  5
1A1
100
AcDbSymbolTableRecord
100
AcDbLayerTableRecord
  2
A1023
 70
     0
 62
    16
  6
CONTINUOUS
370
    -3
390

  0
ENDTAB
  0
TABLE
  2
STYLE
  5
1A2
100
AcDbSymbolTable
 70
     4
  0
STYLE
  5
1A3
100
AcDbSymbolTableRecord
100
AcDbTextStyleTableRecord
  2
STANDARD
 70
    64
 40
0.0
 41
1.0
 50
0.0
 71
     0
 42
3.000000000000000
  3
TXT
  4

  0
STYLE
  5
1A4
100
AcDbSymbolTableRecord
100
AcDbTextStyleTableRecord
  2
ANKTATE
 70
    68
 40
0.0
 41
1.0
 50
0.0
 71
     0
 42
3.000000000000000
  3
TXT
  4

  0
STYLE
  5
1A5
100
AcDbSymbolTableRecord
100
AcDbTextStyleTableRecord
  2
KNJYOKO
 70
    64
 40
0.0
 41
1.0
 50
0.0
 71
     0
 42
3.000000000000000
  3
TXT
  4
BIGFONT
  0
STYLE
  5
1A6
100
AcDbSymbolTableRecord
100
AcDbTextStyleTableRecord
  2
KNJTATE
 70
    68
 40
0.0
 41
1.0
 50
0.0
 71
     0
 42
3.000000000000000
  3
TXT
  4
BIGFONT
  0
ENDTAB
  0
TABLE
  2
VIEW
  5
1A7
100
AcDbSymbolTable
 70
     0
  0
ENDTAB
  0
TABLE
  2
UCS
  5
1A8
100
AcDbSymbolTable
 70
     0
  0
ENDTAB
  0
TABLE
  2
APPID
  5
1A9
100
AcDbSymbolTable
 70
     1
  0
APPID
  5
1AA
100
AcDbSymbolTableRecord
100
AcDbRegAppTableRecord
  2
ACAD
 70
     0
  0
ENDTAB
  0
TABLE
  2
DIMSTYLE
  5
1AB
100
AcDbSymbolTable
 70
     2
100
AcDbDimStyleTable
  0
DIMSTYLE
105
1AC
100
AcDbSymbolTableRecord
100
AcDbDimStyleTableRecord
  2
STANDARD
 70
     0
 41
2.000000
 44
1.500000
 42
0.800000
145
0.661290
140
3.100000
144
1.000000
146
0.645161
340
1A3
  0
DIMSTYLE
105
1AD
100
AcDbSymbolTableRecord
100
AcDbDimStyleTableRecord
  2
A001
 70
     0
 41
2.000000
 44
1.500000
 42
0.800000
145
0.661290
140
3.100000
144
1.000000
146
0.645161
 77
     1
 73
     0
 74
     0
271
     2
179
     2
275
     0
 78
     8
 79
     2
172
     1
340
1A3
  0
ENDTAB
  0
TABLE
  2
BLOCK_RECORD
  5
1AE
100
AcDbSymbolTable
 70
    12
  0
BLOCK_RECORD
  5
1AF
100
AcDbSymbolTableRecord
100
AcDbBlockTableRecord
  2
*MODEL_SPACE
  0
BLOCK_RECORD
  5
1B0
100
AcDbSymbolTableRecord
100
AcDbBlockTableRecord
  2
*PAPER_SPACE
  0
BLOCK_RECORD
  5
1B1
100
AcDbSymbolTableRecord
100
AcDbBlockTableRecord
  2
*PAPER_SPACE0
  0
BLOCK_RECORD
  5
1
100
AcDbSymbolTableRecord
100
AcDbBlockTableRecord
  2
_NONE
  0
BLOCK_RECORD
  5
4
100
AcDbSymbolTableRecord
100
AcDbBlockTableRecord
  2
_CLOSED
  0
BLOCK_RECORD
  5
B
100
AcDbSymbolTableRecord
100
AcDbBlockTableRecord
  2
_DOT
  0
BLOCK_RECORD
  5
13
100
AcDbSymbolTableRecord
100
AcDbBlockTableRecord
  2
_OPEN
  0
BLOCK_RECORD
  5
19
100
AcDbSymbolTableRecord
100
AcDbBlockTableRecord
  2
_ORIGIN
  0
BLOCK_RECORD
  5
1E
100
AcDbSymbolTableRecord
100
AcDbBlockTableRecord
  2
_OPEN30
  0
BLOCK_RECORD
  5
24
100
AcDbSymbolTableRecord
100
AcDbBlockTableRecord
  2
_BOXFILLED
  0
BLOCK_RECORD
  5
29
100
AcDbSymbolTableRecord
100
AcDbBlockTableRecord
  2
_BOXBLANK
  0
BLOCK_RECORD
  5
31
100
AcDbSymbolTableRecord
100
AcDbBlockTableRecord
  2
_OBLIQUE
  0
BLOCK_RECORD
  5
35
100
AcDbSymbolTableRecord
100
AcDbBlockTableRecord
  2
_OPEN90
  0
BLOCK_RECORD
  5
3B
100
AcDbSymbolTableRecord
100
AcDbBlockTableRecord
  2
_CLOSEDBLANK
  0
BLOCK_RECORD
  5
41
100
AcDbSymbolTableRecord
100
AcDbBlockTableRecord
  2
_DOTBLANK
  0
ENDTAB
  0
ENDSEC
  0
SECTION
  2
BLOCKS
  0
BLOCK
  5
1B2
100
AcDbEntity
  8
0
100
AcDbBlockBegin
  2
*MODEL_SPACE
 70
     0
 10
0.0
 20
0.0
 30
0.0
  3
*MODEL_SPACE
  1

  0
ENDBLK
  5
1B3
100
AcDbEntity
  8
0
100
AcDbBlockEnd
  0
BLOCK
  5
1B4
100
AcDbEntity
  8
0
100
AcDbBlockBegin
  2
*PAPER_SPACE
 70
     0
 10
0.0
 20
0.0
 30
0.0
  3
*PAPER_SPACE
  1

  0
ENDBLK
  5
1B5
100
AcDbEntity
  8
0
100
AcDbBlockEnd
  0
BLOCK
  5
1B6
100
AcDbEntity
  8
0
100
AcDbBlockBegin
  2
*PAPER_SPACE0
 70
     0
 10
0.0
 20
0.0
 30
0.0
  3
*PAPER_SPACE0
  1

  0
ENDBLK
  5
1B7
100
AcDbEntity
  8
0
100
AcDbBlockEnd
  0
BLOCK
  5
2
330
1
100
AcDbEntity
  8
0
100
AcDbBlockBegin
  2
_NONE
 70
     0
 10
0.0
 20
0.0
 30
0.0
  3
_NONE
  1

  0
ENDBLK
  5
3
330
1
100
AcDbEntity
  8
0
100
AcDbBlockEnd
  0
BLOCK
  5
5
330
4
100
AcDbEntity
  8
0
100
AcDbBlockBegin
  2
_CLOSED
 70
     0
 10
0.0
 20
0.0
 30
0.0
  3
_CLOSED
  1

  0
LINE
  5
6
330
4
100
AcDbEntity
  8
0
  6
BYBLOCK
 62
     0
370
    -2
100
AcDbLine
 10
-1.0
 20
0.166667
 30
0.0
 11
0.0
 21
0.0
 31
0.0
  0
LINE
  5
7
330
4
100
AcDbEntity
  8
0
  6
BYBLOCK
 62
     0
370
    -2
100
AcDbLine
 10
0.0
 20
0.0
 30
0.0
 11
-1.0
 21
-0.166667
 31
0.0
  0
LINE
  5
8
330
4
100
AcDbEntity
  8
0
  6
BYBLOCK
 62
     0
370
    -2
100
AcDbLine
 10
-1.0
 20
0.166667
 30
0.0
 11
-1.0
 21
-0.166667
 31
0.0
  0
LINE
  5
9
330
4
100
AcDbEntity
  8
0
  6
BYBLOCK
 62
     0
370
    -2
100
AcDbLine
 10
0.0
 20
0.0
 30
0.0
 11
-1.0
 21
0.0
 31
0.0
  0
ENDBLK
  5
A
330
4
100
AcDbEntity
  8
0
100
AcDbBlockEnd
  0
BLOCK
  5
C
330
B
100
AcDbEntity
  8
0
100
AcDbBlockBegin
  2
_DOT
 70
     0
 10
0.0
 20
0.0
 30
0.0
  3
_DOT
  1

  0
POLYLINE
  5
D
330
B
100
AcDbEntity
  8
0
  6
BYBLOCK
 62
     0
370
    -2
100
AcDb2dPolyline
 66
     1
 10
0.0
 20
0.0
 30
0.0
 70
     1
 40
0.5
 41
0.5
  0
VERTEX
  5
E
330
B
100
AcDbEntity
  8
0
  6
BYBLOCK
 62
     0
370
    -2
100
AcDbVertex
100
AcDb2dVertex
 10
-0.25
 20
0.0
 30
0.0
 42
1.0
  0
VERTEX
  5
F
330
B
100
AcDbEntity
  8
0
  6
BYBLOCK
 62
     0
370
    -2
100
AcDbVertex
100
AcDb2dVertex
 10
0.25
 20
0.0
 30
0.0
 42
1.0
  0
SEQEND
  5
10
330
B
100
AcDbEntity
  8
0
  6
BYBLOCK
 62
     0
370
    -2
  0
LINE
  5
11
330
B
100
AcDbEntity
  8
0
  6
BYBLOCK
 62
     0
370
    -2
100
AcDbLine
 10
-0.5
 20
0.0
 30
0.0
 11
-1.0
 21
0.0
 31
0.0
  0
ENDBLK
  5
12
330
B
100
AcDbEntity
  8
0
100
AcDbBlockEnd
  0
BLOCK
  5
14
330
13
100
AcDbEntity
  8
0
100
AcDbBlockBegin
  2
_OPEN
 70
     0
 10
0.0
 20
0.0
 30
0.0
  3
_OPEN
  1

  0
LINE
  5
15
330
13
100
AcDbEntity
  8
0
  6
BYBLOCK
 62
     0
370
    -2
100
AcDbLine
 10
-1.0
 20
0.166667
 30
0.0
 11
0.0
 21
0.0
 31
0.0
  0
LINE
  5
16
330
13
100
AcDbEntity
  8
0
  6
BYBLOCK
 62
     0
370
    -2
100
AcDbLine
 10
0.0
 20
0.0
 30
0.0
 11
-1.0
 21
-0.166667
 31
0.0
  0
LINE
  5
17
330
13
100
AcDbEntity
  8
0
  6
BYBLOCK
 62
     0
370
    -2
100
AcDbLine
 10
0.0
 20
0.0
 30
0.0
 11
-1.0
 21
0.0
 31
0.0
  0
ENDBLK
  5
18
330
13
100
AcDbEntity
  8
0
100
AcDbBlockEnd
  0
BLOCK
  5
1A
330
19
100
AcDbEntity
  8
0
100
AcDbBlockBegin
  2
_ORIGIN
 70
     0
 10
0.0
 20
0.0
 30
0.0
  3
_ORIGIN
  1

  0
CIRCLE
  5
1B
330
19
100
AcDbEntity
  8
0
  6
BYBLOCK
 62
     0
370
    -2
100
AcDbCircle
 10
0.0
 20
0.0
 30
0.0
 40
0.5
  0
LINE
  5
1C
330
19
100
AcDbEntity
  8
0
  6
BYBLOCK
 62
     0
370
    -2
100
AcDbLine
 10
0.0
 20
0.0
 30
0.0
 11
-1.0
 21
0.0
 31
0.0
  0
ENDBLK
  5
1D
330
19
100
AcDbEntity
  8
0
100
AcDbBlockEnd
  0
BLOCK
  5
1F
330
1E
100
AcDbEntity
  8
0
100
AcDbBlockBegin
  2
_OPEN30
 70
     0
 10
0.0
 20
0.0
 30
0.0
  3
_OPEN30
  1

  0
LINE
  5
20
330
1E
100
AcDbEntity
  8
0
  6
BYBLOCK
 62
     0
370
    -2
100
AcDbLine
 10
-1.0
 20
0.267949
 30
0.0
 11
0.0
 21
0.0
 31
0.0
  0
LINE
  5
21
330
1E
100
AcDbEntity
  8
0
  6
BYBLOCK
 62
     0
370
    -2
100
AcDbLine
 10
0.0
 20
0.0
 30
0.0
 11
-1.0
 21
-0.267949
 31
0.0
  0
LINE
  5
22
330
1E
100
AcDbEntity
  8
0
  6
BYBLOCK
 62
     0
370
    -2
100
AcDbLine
 10
0.0
 20
0.0
 30
0.0
 11
-1.0
 21
0.0
 31
0.0
  0
ENDBLK
  5
23
330
1E
100
AcDbEntity
  8
0
100
AcDbBlockEnd
  0
BLOCK
  5
25
330
24
100
AcDbEntity
  8
0
100
AcDbBlockBegin
  2
_BOXFILLED
 70
     0
 10
0.0
 20
0.0
 30
0.0
  3
_BOXFILLED
  1

  0
SOLID
  5
26
330
24
100
AcDbEntity
  8
0
  6
BYBLOCK
 62
     0
370
    -2
100
AcDbTrace
 10
-0.5
 20
0.5
 30
0.0
 11
0.5
 21
0.5
 31
0.0
 12
-0.5
 22
-0.5
 32
0.0
 13
0.5
 23
-0.5
 33
0.0
  0
LINE
  5
27
330
24
100
AcDbEntity
  8
0
  6
BYBLOCK
 62
     0
370
    -2
100
AcDbLine
 10
-0.5
 20
0.0
 30
0.0
 11
-1.0
 21
0.0
 31
0.0
  0
ENDBLK
  5
28
330
24
100
AcDbEntity
  8
0
100
AcDbBlockEnd
  0
BLOCK
  5
2A
330
29
100
AcDbEntity
  8
0
100
AcDbBlockBegin
  2
_BOXBLANK
 70
     0
 10
0.0
 20
0.0
 30
0.0
  3
_BOXBLANK
  1

  0
LINE
  5
2B
330
29
100
AcDbEntity
  8
0
  6
BYBLOCK
 62
     0
370
    -2
100
AcDbLine
 10
-0.5
 20
-0.5
 30
0.0
 11
0.5
 21
-0.5
 31
0.0
  0
LINE
  5
2C
330
29
100
AcDbEntity
  8
0
  6
BYBLOCK
 62
     0
370
    -2
100
AcDbLine
 10
0.5
 20
-0.5
 30
0.0
 11
0.5
 21
0.5
 31
0.0
  0
LINE
  5
2D
330
29
100
AcDbEntity
  8
0
  6
BYBLOCK
 62
     0
370
    -2
100
AcDbLine
 10
0.5
 20
0.5
 30
0.0
 11
-0.5
 21
0.5
 31
0.0
  0
LINE
  5
2E
330
29
100
AcDbEntity
  8
0
  6
BYBLOCK
 62
     0
370
    -2
100
AcDbLine
 10
-0.5
 20
0.5
 30
0.0
 11
-0.5
 21
-0.5
 31
0.0
  0
LINE
  5
2F
330
29
100
AcDbEntity
  8
0
  6
BYBLOCK
 62
     0
370
    -2
100
AcDbLine
 10
-0.5
 20
0.0
 30
0.0
 11
-1.0
 21
0.0
 31
0.0
  0
ENDBLK
  5
30
330
29
100
AcDbEntity
  8
0
100
AcDbBlockEnd
  0
BLOCK
  5
32
330
31
100
AcDbEntity
  8
0
100
AcDbBlockBegin
  2
_OBLIQUE
 70
     0
 10
0.0
 20
0.0
 30
0.0
  3
_OBLIQUE
  1

  0
LINE
  5
33
330
31
100
AcDbEntity
  8
0
  6
BYBLOCK
 62
     0
370
    -2
100
AcDbLine
 10
-0.5
 20
-0.5
 30
0.0
 11
0.5
 21
0.5
 31
0.0
  0
ENDBLK
  5
34
330
31
100
AcDbEntity
  8
0
100
AcDbBlockEnd
  0
BLOCK
  5
36
330
35
100
AcDbEntity
  8
0
100
AcDbBlockBegin
  2
_OPEN90
 70
     0
 10
0.0
 20
0.0
 30
0.0
  3
_OPEN90
  1

  0
LINE
  5
37
330
35
100
AcDbEntity
  8
0
  6
BYBLOCK
 62
     0
370
    -2
100
AcDbLine
 10
-0.5
 20
0.5
 30
0.0
 11
0.0
 21
0.0
 31
0.0
  0
LINE
  5
38
330
35
100
AcDbEntity
  8
0
  6
BYBLOCK
 62
     0
370
    -2
100
AcDbLine
 10
0.0
 20
0.0
 30
0.0
 11
-0.5
 21
-0.5
 31
0.0
  0
LINE
  5
39
330
35
100
AcDbEntity
  8
0
  6
BYBLOCK
 62
     0
370
    -2
100
AcDbLine
 10
0.0
 20
0.0
 30
0.0
 11
-1.0
 21
0.0
 31
0.0
  0
ENDBLK
  5
3A
330
35
100
AcDbEntity
  8
0
100
AcDbBlockEnd
  0
BLOCK
  5
3C
330
3B
100
AcDbEntity
  8
0
100
AcDbBlockBegin
  2
_CLOSEDBLANK
 70
     0
 10
0.0
 20
0.0
 30
0.0
  3
_CLOSEDBLANK
  1

  0
LINE
  5
3D
330
3B
100
AcDbEntity
  8
0
  6
BYBLOCK
 62
     0
370
    -2
100
AcDbLine
 10
-1.0
 20
0.1666666666666666
 30
0.0
 11
0.0
 21
0.0
 31
0.0
  0
LINE
  5
3E
330
3B
100
AcDbEntity
  8
0
  6
BYBLOCK
 62
     0
370
    -2
100
AcDbLine
 10
0.0
 20
0.0
 30
0.0
 11
-1.0
 21
-0.1666666666666666
 31
0.0
  0
LINE
  5
3F
330
3B
100
AcDbEntity
  8
0
  6
BYBLOCK
 62
     0
370
    -2
100
AcDbLine
 10
-1.0
 20
0.1666666666666666
 30
0.0
 11
-1.0
 21
-0.1666666666666666
 31
0.0
  0
ENDBLK
  5
40
330
3B
100
AcDbEntity
  8
0
100
AcDbBlockEnd
  0
BLOCK
  5
42
330
41
100
AcDbEntity
  8
0
100
AcDbBlockBegin
  2
_DOTBLANK
 70
     0
 10
0.0
 20
0.0
 30
0.0
  3
_DOTBLANK
  1

  0
CIRCLE
  5
43
330
41
100
AcDbEntity
  8
0
  6
BYBLOCK
 62
     0
370
    -2
100
AcDbCircle
 10
0.0
 20
0.0
 30
0.0
 40
0.5
  0
LINE
  5
44
330
41
100
AcDbEntity
  8
0
  6
BYBLOCK
 62
     0
370
    -2
100
AcDbLine
 10
-0.5
 20
0.0
 30
0.0
 11
-1.0
 21
0.0
 31
0.0
  0
ENDBLK
  5
45
330
41
100
AcDbEntity
  8
0
100
AcDbBlockEnd
  0
ENDSEC
  0
SECTION
  2
ENTITIES
  0
MTEXT
  5
46
100
AcDbEntity
  8
A8
  6
CONTINUOUS
 62
3
100
AcDbMText
 10
9.999997526638502
 20
18.00000076076889
 30
0.000000000000000
 40
3.000000000000000
 41
0.000000000000000
 44
0.6739999771118164
 71
     7
 72
     1
  1
{\H0.94x;{TYPE No.TH-141-2B}}
 11
1.000000000000000
 21
0.000000000000000
 31
0.000000000000000
  7
STANDARD
  0
POINT
  5
47
100
AcDbEntity
  8
A0
  6
CONTINUOUS
 62
3
100
AcDbPoint
 10
9.999997526638502
 20
18.00000076076889
 30
0.000000000000000
  0
POINT
  5
48
100
AcDbEntity
  8
A10
  6
CONTINUOUS
 62
3
100
AcDbPoint
 10
50.00000000000000
 20
50.00000000000000
 30
0.000000000000000
  0
LINE
  5
49
100
AcDbEntity
  8
A3
  6
CENTER
 62
1
100
AcDbLine
 10
127.0903512452645
 20
72.40811843058681
 30
0.000000000000000
 11
127.0903512452645
 21
54.40811843058688
 31
0.000000000000000
  0
LINE
  5
4A
100
AcDbEntity
  8
A3
  6
CENTER
 62
1
100
AcDbLine
 10
127.0903512452645
 20
183.4081184305867
 30
0.000000000000000
 11
127.0903512452645
 21
133.4081184305869
 31
0.000000000000000
  0
LINE
  5
4B
100
AcDbEntity
  8
A3
  6
CENTER
 62
1
100
AcDbLine
 10
217.0903512452645
 20
183.4081184305867
 30
0.000000000000000
 11
217.0903512452645
 21
133.4081184305869
 31
0.000000000000000
  0
LINE
  5
4C
100
AcDbEntity
  8
A3
  6
CENTER
 62
1
100
AcDbLine
 10
307.0903512452645
 20
183.4081184305867
 30
0.000000000000000
 11
307.0903512452645
 21
133.4081184305869
 31
0.000000000000000
  0
LINE
  5
4D
100
AcDbEntity
  8
A3
  6
CENTER
 62
1
100
AcDbLine
 10
37.09035124526454
 20
183.4081184305867
 30
0.000000000000000
 11
37.09035124526454
 21
133.4081184305869
 31
0.000000000000000
  0
ARC
  5
4E
100
AcDbEntity
  8
A5
  6
CONTINUOUS
 62
7
100
AcDbCircle
 10
123.0903512452641
 20
140.4081184305869
 30
0.000000000000000
 40
2.000000000000000
100
AcDbArc
 50
180.0000000000000
 51
270.0000000000000
  0
ARC
  5
4F
100
AcDbEntity
  8
A5
  6
CONTINUOUS
 62
7
100
AcDbCircle
 10
127.0903512452645
 20
63.40811843058685
 30
0.000000000000000
 40
5.999999999999972
100
AcDbArc
 50
10.80692287486034
 51
270.0000000000000
  0
LINE
  5
50
100
AcDbEntity
  8
A5
  6
CONTINUOUS
 62
7
100
AcDbLine
 10
119.5903512452642
 20
148.4081184305851
 30
0.000000000000000
 11
134.5903512452641
 21
148.4081184305884
 31
0.000000000000000
  0
LINE
  5
51
100
AcDbEntity
  8
A5
  6
CONTINUOUS
 62
7
100
AcDbLine
 10
119.5903512452642
 20
158.4081184305867
 30
0.000000000000000
 11
134.5903512452641
 21
158.4081184305867
 31
0.000000000000000
  0
LINE
  5
52
100
AcDbEntity
  8
A5
  6
CONTINUOUS
 62
7
100
AcDbLine
 10
119.5903512452642
 20
168.4081184305869
 30
0.000000000000000
 11
134.5903512452641
 21
168.4081184305869
 31
0.000000000000000
  0
LINE
  5
53
100
AcDbEntity
  8
A5
  6
CONTINUOUS
 62
7
100
AcDbLine
 10
97.09035124526456
 20
56.90811843058685
 30
0.000000000000000
 11
157.0903512452645
 21
56.90811843058685
 31
0.000000000000000
  0
LINE
  5
54
100
AcDbEntity
  8
A5
  6
CONTINUOUS
 62
7
100
AcDbLine
 10
98.09035124526456
 20
178.4081184305867
 30
0.000000000000000
 11
131.0903512452641
 21
178.4081184305867
 31
0.000000000000000
  0
LINE
  5
55
100
AcDbEntity
  8
A5
  6
CONTINUOUS
 62
7
100
AcDbLine
 10
99.09035124526456
 20
62.90811843058685
 30
0.000000000000000
 11
119.2322344225136
 21
62.90811843058685
 31
0.000000000000000
  0
ARC
  5
56
100
AcDbEntity
  8
A5
  6
CONTINUOUS
 62
7
100
AcDbCircle
 10
99.09035124526456
 20
60.90811843058685
 30
0.000000000000000
 40
2.000000000000000
100
AcDbArc
 50
90.00000000000000
 51
180.0000000000000
  0
LINE
  5
57
100
AcDbEntity
  8
A5
  6
CONTINUOUS
 62
7
100
AcDbLine
 10
97.09035124526456
 20
60.90811843058685
 30
0.000000000000000
 11
97.09035124526456
 21
56.90811843058685
 31
0.000000000000000
  0
LINE
  5
58
100
AcDbEntity
  8
A5
  6
CONTINUOUS
 62
7
100
AcDbLine
 10
118.5903512452645
 20
61.90811843058685
 30
0.000000000000000
 11
118.5903512452645
 21
56.90811843058685
 31
0.000000000000000
  0
ARC
  5
59
100
AcDbEntity
  8
A5
  6
CONTINUOUS
 62
7
100
AcDbCircle
 10
117.5903512452645
 20
61.90811843058685
 30
0.000000000000000
 40
1.000000000000000
100
AcDbArc
 50
0.000000000000000
 51
90.00000000000000
  0
ARC
  5
5A
100
AcDbEntity
  8
A5
  6
CONTINUOUS
 62
7
100
AcDbCircle
 10
119.2322344225136
 20
64.90811843058685
 30
0.000000000000000
 40
2.000000000000000
100
AcDbArc
 50
270.0000000000000
 51
349.1930771251396
  0
CIRCLE
  5
5B
100
AcDbEntity
  8
A5
  6
CONTINUOUS
 62
7
100
AcDbCircle
 10
107.0903512452645
 20
148.4081184304810
 30
0.000000000000000
 40
5.300000000000001
  0
LINE
  5
5C
100
AcDbEntity
  8
A5
  6
CONTINUOUS
 62
7
100
AcDbLine
 10
118.5903512452642
 20
147.4081184303755
 30
0.000000000000000
 11
118.5903512452641
 21
140.4081184305867
 31
0.000000000000000
  0
LINE
  5
5D
100
AcDbEntity
  8
A5
  6
CONTINUOUS
 62
7
100
AcDbLine
 10
121.0903512452641
 20
140.4081184305869
 30
0.000000000000000
 11
121.0903512452641
 21
148.4081184303755
 31
0.000000000000000
  0
CIRCLE
  5
5E
100
AcDbEntity
  8
A5
  6
CONTINUOUS
 62
7
100
AcDbCircle
 10
107.0903512452645
 20
148.4081184304810
 30
0.000000000000000
 40
2.600000000000000
  0
LINE
  5
5F
100
AcDbEntity
  8
A5
  6
CONTINUOUS
 62
7
100
AcDbLine
 10
97.09035124526456
 20
177.4081184305869
 30
0.000000000000000
 11
97.09035124526456
 21
139.4081184305869
 31
0.000000000000000
  0
LINE
  5
60
100
AcDbEntity
  8
A5
  6
CONTINUOUS
 62
7
100
AcDbLine
 10
98.09035124526456
 20
138.4081184305869
 30
0.000000000000000
 11
116.5903512452642
 21
138.4081184305869
 31
0.000000000000000
  0
ARC
  5
61
100
AcDbEntity
  8
A5
  6
CONTINUOUS
 62
7
100
AcDbCircle
 10
98.09035124526456
 20
139.4081184305869
 30
0.000000000000000
 40
1.000000000000000
100
AcDbArc
 50
180.0000000000000
 51
270.0000000000000
  0
ARC
  5
62
100
AcDbEntity
  8
A5
  6
CONTINUOUS
 62
7
100
AcDbCircle
 10
116.5903512452642
 20
140.4081184305867
 30
0.000000000000000
 40
2.000000000000000
100
AcDbArc
 50
270.0000000000000
 51
360.0000000000000
  0
CIRCLE
  5
63
100
AcDbEntity
  8
A5
  6
CONTINUOUS
 62
7
100
AcDbCircle
 10
107.0903512452645
 20
168.4081184304810
 30
0.000000000000000
 40
5.300000000000001
  0
CIRCLE
  5
64
100
AcDbEntity
  8
A5
  6
CONTINUOUS
 62
7
100
AcDbCircle
 10
107.0903512452645
 20
168.4081184304810
 30
0.000000000000000
 40
2.600000000000000
  0
ARC
  5
65
100
AcDbEntity
  8
A5
  6
CONTINUOUS
 62
7
100
AcDbCircle
 10
98.09035124526456
 20
177.4081184305869
 30
0.000000000000000
 40
1.000000000000000
100
AcDbArc
 50
90.00000000000000
 51
180.0000000000000
  0
LINE
  5
66
100
AcDbEntity
  8
A5
  6
CONTINUOUS
 62
7
100
AcDbLine
 10
118.5903512452657
 20
169.4081184306014
 30
0.000000000000000
 11
118.5903512452700
 21
175.4081184305995
 31
0.000000000000000
  0
ARC
  5
67
100
AcDbEntity
  8
A5
  6
CONTINUOUS
 62
7
100
AcDbCircle
 10
119.5903512452642
 20
159.4081184305869
 30
0.000000000000000
 40
1.000000000000000
100
AcDbArc
 50
180.0000000000000
 51
270.0000000000000
  0
LINE
  5
68
100
AcDbEntity
  8
A5
  6
CONTINUOUS
 62
7
100
AcDbLine
 10
118.5903512452591
 20
156.2081184305868
 30
0.000000000000000
 11
118.5903512452475
 21
149.4081184306229
 31
0.000000000000000
  0
ARC
  5
69
100
AcDbEntity
  8
A5
  6
CONTINUOUS
 62
7
100
AcDbCircle
 10
119.5903512452642
 20
147.4081184305848
 30
0.000000000000000
 40
1.000000000000000
100
AcDbArc
 50
90.00000000000000
 51
180.0000000000000
  0
LINE
  5
6A
100
AcDbEntity
  8
A5
  6
CONTINUOUS
 62
7
100
AcDbLine
 10
121.0903512452641
 20
158.4081184305867
 30
0.000000000000000
 11
121.0903512452641
 21
168.4081184305869
 31
0.000000000000000
  0
LINE
  5
6B
100
AcDbEntity
  8
A5
  6
CONTINUOUS
 62
7
100
AcDbLine
 10
118.5903512452642
 20
167.4081184305869
 30
0.000000000000000
 11
118.5903512452642
 21
159.4081184305869
 31
0.000000000000000
  0
ARC
  5
6C
100
AcDbEntity
  8
A5
  6
CONTINUOUS
 62
7
100
AcDbCircle
 10
119.5903512452642
 20
167.4081184305869
 30
0.000000000000000
 40
1.000000000000000
100
AcDbArc
 50
90.00000000000000
 51
180.0000000000000
  0
LINE
  5
6D
100
AcDbEntity
  8
A5
  6
CONTINUOUS
 62
7
100
AcDbLine
 10
134.9484680680153
 20
62.90811843058685
 30
0.000000000000000
 11
155.0903512452645
 21
62.90811843058685
 31
0.000000000000000
  0
CIRCLE
  5
6E
100
AcDbEntity
  8
A5
  6
CONTINUOUS
 62
7
100
AcDbCircle
 10
127.0903512452645
 20
63.40811843058685
 30
0.000000000000000
 40
4.000000000000000
  0
LINE
  5
6F
100
AcDbEntity
  8
A5
  6
CONTINUOUS
 62
7
100
AcDbLine
 10
127.0903512452646
 20
57.40811843058685
 30
0.000000000000000
 11
127.0903512452649
 21
56.90811843058691
 31
0.000000000000000
  0
ARC
  5
70
100
AcDbEntity
  8
A5
  6
CONTINUOUS
 62
7
100
AcDbCircle
 10
134.9484680680153
 20
64.90811843058685
 30
0.000000000000000
 40
2.000000000000000
100
AcDbArc
 50
190.8069228748603
 51
270.0000000000000
  0
ARC
  5
71
100
AcDbEntity
  8
A5
  6
CONTINUOUS
 62
7
100
AcDbCircle
 10
155.0903512452645
 20
60.90811843058685
 30
0.000000000000000
 40
2.000000000000000
100
AcDbArc
 50
0.000000000000000
 51
90.00000000000000
  0
LINE
  5
72
100
AcDbEntity
  8
A5
  6
CONTINUOUS
 62
7
100
AcDbLine
 10
157.0903512452645
 20
60.90811843058685
 30
0.000000000000000
 11
157.0903512452645
 21
56.90811843058685
 31
0.000000000000000
  0
LINE
  5
73
100
AcDbEntity
  8
A5
  6
CONTINUOUS
 62
7
100
AcDbLine
 10
123.0903512452641
 20
138.4081184305869
 30
0.000000000000000
 11
156.0903512452645
 21
138.4081184305869
 31
0.000000000000000
  0
LINE
  5
74
100
AcDbEntity
  8
A5
  6
CONTINUOUS
 62
7
100
AcDbLine
 10
137.5903512452641
 20
178.4081184305867
 30
0.000000000000000
 11
156.0903512452645
 21
178.4081184305867
 31
0.000000000000000
  0
CIRCLE
  5
75
100
AcDbEntity
  8
A5
  6
CONTINUOUS
 62
7
100
AcDbCircle
 10
147.0903512452645
 20
148.4081184304812
 30
0.000000000000000
 40
5.300000000000001
  0
CIRCLE
  5
76
100
AcDbEntity
  8
A5
  6
CONTINUOUS
 62
7
100
AcDbCircle
 10
147.0903512452645
 20
148.4081184304812
 30
0.000000000000000
 40
2.600000000000000
  0
LINE
  5
77
100
AcDbEntity
  8
A5
  6
CONTINUOUS
 62
7
100
AcDbLine
 10
135.5903512452641
 20
169.4081184305869
 30
0.000000000000000
 11
135.5903512452641
 21
176.4081184305867
 31
0.000000000000000
  0
LINE
  5
78
100
AcDbEntity
  8
A5
  6
CONTINUOUS
 62
7
100
AcDbLine
 10
133.0903512452641
 20
176.4081184305865
 30
0.000000000000000
 11
133.0903512452641
 21
168.4081184305869
 31
0.000000000000000
  0
ARC
  5
79
100
AcDbEntity
  8
A5
  6
CONTINUOUS
 62
7
100
AcDbCircle
 10
134.5903512452641
 20
157.4081184305869
 30
0.000000000000000
 40
1.000000000000000
100
AcDbArc
 50
0.000000000000000
 51
90.00000000000000
  0
LINE
  5
7A
100
AcDbEntity
  8
A5
  6
CONTINUOUS
 62
7
100
AcDbLine
 10
133.0903512452641
 20
158.4081184305867
 30
0.000000000000000
 11
133.0903512452641
 21
148.4081184305884
 31
0.000000000000000
  0
LINE
  5
7B
100
AcDbEntity
  8
A5
  6
CONTINUOUS
 62
7
100
AcDbLine
 10
135.5903512452641
 20
149.4081184305888
 30
0.000000000000000
 11
135.5903512452641
 21
157.4081184305869
 31
0.000000000000000
  0
ARC
  5
7C
100
AcDbEntity
  8
A5
  6
CONTINUOUS
 62
7
100
AcDbCircle
 10
134.5903512452641
 20
149.4081184305888
 30
0.000000000000000
 40
1.000000000000000
100
AcDbArc
 50
270.0000000000000
 51
360.0000000000000
  0
LINE
  5
7D
100
AcDbEntity
  8
A5
  6
CONTINUOUS
 62
7
100
AcDbLine
 10
135.5903512452605
 20
159.4081184306055
 30
0.000000000000000
 11
135.5903512452529
 21
167.4081184306055
 31
0.000000000000000
  0
ARC
  5
7E
100
AcDbEntity
  8
A5
  6
CONTINUOUS
 62
7
100
AcDbCircle
 10
134.5903512452641
 20
169.4081184305869
 30
0.000000000000000
 40
1.000000000000000
100
AcDbArc
 50
270.0000000000000
 51
360.0000000000000
  0
ARC
  5
7F
100
AcDbEntity
  8
A5
  6
CONTINUOUS
 62
7
100
AcDbCircle
 10
131.0903512452641
 20
176.4081184305865
 30
0.000000000000000
 40
2.000000000000000
100
AcDbArc
 50
0.000000000000000
 51
90.00000000000000
  0
ARC
  5
80
100
AcDbEntity
  8
A5
  6
CONTINUOUS
 62
7
100
AcDbCircle
 10
137.5903512452641
 20
176.4081184305867
 30
0.000000000000000
 40
2.000000000000000
100
AcDbArc
 50
90.00000000000000
 51
180.0000000000000
  0
CIRCLE
  5
81
100
AcDbEntity
  8
A5
  6
CONTINUOUS
 62
7
100
AcDbCircle
 10
147.0903512452645
 20
168.4081184304810
 30
0.000000000000000
 40
5.300000000000001
  0
CIRCLE
  5
82
100
AcDbEntity
  8
A5
  6
CONTINUOUS
 62
7
100
AcDbCircle
 10
147.0903512452645
 20
168.4081184304810
 30
0.000000000000000
 40
2.600000000000000
  0
LINE
  5
83
100
AcDbEntity
  8
A5
  6
CONTINUOUS
 62
7
100
AcDbLine
 10
157.0903512452645
 20
177.4081184305869
 30
0.000000000000000
 11
157.0903512452645
 21
139.4081184305869
 31
0.000000000000000
  0
ARC
  5
84
100
AcDbEntity
  8
A5
  6
CONTINUOUS
 62
7
100
AcDbCircle
 10
156.0903512452645
 20
139.4081184305869
 30
0.000000000000000
 40
1.000000000000000
100
AcDbArc
 50
270.0000000000000
 51
360.0000000000000
  0
ARC
  5
85
100
AcDbEntity
  8
A5
  6
CONTINUOUS
 62
7
100
AcDbCircle
 10
156.0903512452645
 20
177.4081184305869
 30
0.000000000000000
 40
1.000000000000000
100
AcDbArc
 50
0.000000000000000
 51
90.00000000000000
  0
LINE
  5
86
100
AcDbEntity
  8
A3
  6
CENTER
 62
1
100
AcDbLine
 10
118.0903512452644
 20
63.40811843058685
 30
0.000000000000000
 11
136.0903512452644
 21
63.40811843058685
 31
0.000000000000000
  0
LINE
  5
87
100
AcDbEntity
  8
A5
  6
CONTINUOUS
 62
7
100
AcDbLine
 10
41.09035124526454
 20
178.4081184305867
 30
0.000000000000000
 11
30.59035124526454
 21
178.4081184305867
 31
0.000000000000000
  0
LINE
  5
88
100
AcDbEntity
  8
A5
  6
CONTINUOUS
 62
7
100
AcDbLine
 10
41.09035124526454
 20
138.4081184305867
 30
0.000000000000000
 11
30.59035124526454
 21
138.4081184305867
 31
0.000000000000000
  0
LINE
  5
89
100
AcDbEntity
  8
A5
  6
CONTINUOUS
 62
7
100
AcDbLine
 10
30.59035124526454
 20
138.4081184305867
 30
0.000000000000000
 11
30.59035124526454
 21
178.4081184305867
 31
0.000000000000000
  0
LINE
  5
8A
100
AcDbEntity
  8
A5
  6
CONTINUOUS
 62
7
100
AcDbLine
 10
36.59035124526454
 20
140.4081184305867
 30
0.000000000000000
 11
36.59035124526454
 21
176.4081184305867
 31
0.000000000000000
  0
LINE
  5
8B
100
AcDbEntity
  8
A5
  6
CONTINUOUS
 62
7
100
AcDbLine
 10
43.09035124526453
 20
140.4081184305867
 30
0.000000000000000
 11
43.09035124526453
 21
176.4081184305867
 31
0.000000000000000
  0
LINE
  5
8C
100
AcDbEntity
  8
A5
  6
CONTINUOUS
 62
7
100
AcDbLine
 10
43.09035124526453
 20
168.4081184305867
 30
0.000000000000000
 11
36.59035124526454
 21
168.4081184305868
 31
0.000000000000000
  0
LINE
  5
8D
100
AcDbEntity
  8
A5
  6
CONTINUOUS
 62
7
100
AcDbLine
 10
43.09035124526453
 20
148.4081184303755
 30
0.000000000000000
 11
36.59035124526454
 21
148.4081184303755
 31
0.000000000000000
  0
LINE
  5
8E
100
AcDbEntity
  8
A4
  6
PHANTOM
 62
6
100
AcDbLine
 10
127.5903512452645
 20
35.40811843058685
 30
0.000000000000000
 11
127.5903512452645
 21
55.55000160783605
 31
0.000000000000000
  0
LINE
  5
8F
100
AcDbEntity
  8
A4
  6
PHANTOM
 62
6
100
AcDbLine
 10
129.5903512452645
 20
33.40811843058685
 30
0.000000000000000
 11
133.5903512452645
 21
33.40811843058685
 31
0.000000000000000
  0
ARC
  5
90
100
AcDbEntity
  8
A4
  6
PHANTOM
 62
6
100
AcDbCircle
 10
129.5903512452645
 20
35.40811843058685
 30
0.000000000000000
 40
2.000000000000000
100
AcDbArc
 50
180.0000000000000
 51
270.0000000000000
  0
ARC
  5
91
100
AcDbEntity
  8
A4
  6
PHANTOM
 62
6
100
AcDbCircle
 10
128.5903512452645
 20
53.90811843058688
 30
0.000000000000000
 40
1.000000000000000
100
AcDbArc
 50
90.00000000000000
 51
180.0000000000000
  0
LINE
  5
92
100
AcDbEntity
  8
A4
  6
PHANTOM
 62
6
100
AcDbLine
 10
128.5903512452645
 20
54.90811843058685
 30
0.000000000000000
 11
133.5903512452645
 21
54.90811843058685
 31
0.000000000000000
  0
ARC
  5
93
100
AcDbEntity
  8
A4
  6
PHANTOM
 62
6
100
AcDbCircle
 10
125.5903512452645
 20
55.55000160783605
 30
0.000000000000000
 40
2.000000000000000
100
AcDbArc
 50
0.000000000000000
 51
42.77010773259492
  0
LINE
  5
94
100
AcDbEntity
  8
A4
  6
PHANTOM
 62
6
100
AcDbLine
 10
133.5903512452645
 20
33.40811843058685
 30
0.000000000000000
 11
133.5903512452645
 21
56.90811843058685
 31
0.000000000000000
  0
LINE
  5
95
100
AcDbEntity
  8
A4
  6
PHANTOM
 62
6
100
AcDbLine
 10
157.0903512452645
 20
69.90811843058684
 30
0.000000000000000
 11
127.0903512452644
 21
69.90811843058685
 31
0.000000000000000
  0
ARC
  5
96
100
AcDbEntity
  8
A4
  6
PHANTOM
 62
6
100
AcDbCircle
 10
136.5903512452644
 20
64.90811843058685
 30
0.000000000000000
 40
1.000000000000000
100
AcDbArc
 50
179.9999999999999
 51
270.0000000000000
  0
LINE
  5
97
100
AcDbEntity
  8
A4
  6
PHANTOM
 62
6
100
AcDbLine
 10
135.5903512452645
 20
64.90811843058685
 30
0.000000000000000
 11
135.5903512452645
 21
69.90811843058685
 31
0.000000000000000
  0
LINE
  5
98
100
AcDbEntity
  8
A4
  6
PHANTOM
 62
6
100
AcDbLine
 10
157.0903512452645
 20
65.90811843058682
 30
0.000000000000000
 11
157.0903512452645
 21
69.90811843058684
 31
0.000000000000000
  0
ARC
  5
99
100
AcDbEntity
  8
A4
  6
PHANTOM
 62
6
100
AcDbCircle
 10
155.0903512452645
 20
65.90811843058682
 30
0.000000000000000
 40
2.000000000000000
100
AcDbArc
 50
270.0000000000000
 51
360.0000000000000
  0
LINE
  5
9A
100
AcDbEntity
  8
A4
  6
PHANTOM
 62
6
100
AcDbLine
 10
155.0903512452645
 20
63.90811843058683
 30
0.000000000000000
 11
134.9484680680153
 21
63.90811843058685
 31
0.000000000000000
  0
ARC
  5
9B
100
AcDbEntity
  8
A4
  6
PHANTOM
 62
6
100
AcDbCircle
 10
134.9484680680153
 20
61.90811843058685
 30
0.000000000000000
 40
2.000000000000000
100
AcDbArc
 50
90.00000000000000
 51
131.4096221092698
  0
LINE
  5
9C
100
AcDbEntity
  8
A4
  6
PHANTOM
 62
6
100
AcDbLine
 10
127.0903512452645
 20
69.90811843058685
 30
0.000000000000000
 11
127.0903512452645
 21
67.40811843058685
 31
0.000000000000000
  0
LINE
  5
9D
100
AcDbEntity
  8
A3
  6
CENTER
 62
1
100
AcDbLine
 10
99.79035124526456
 20
168.4081184304810
 30
0.000000000000000
 11
114.3903512452645
 21
168.4081184304810
 31
0.000000000000000
  0
LINE
  5
9E
100
AcDbEntity
  8
A3
  6
CENTER
 62
1
100
AcDbLine
 10
107.0903512452645
 20
161.1081184304813
 30
0.000000000000000
 11
107.0903512452645
 21
175.7081184304812
 31
0.000000000000000
  0
LINE
  5
9F
100
AcDbEntity
  8
A3
  6
CENTER
 62
1
100
AcDbLine
 10
147.0903512452645
 20
161.1081184304813
 30
0.000000000000000
 11
147.0903512452645
 21
175.7081184304812
 31
0.000000000000000
  0
LINE
  5
A0
100
AcDbEntity
  8
A3
  6
CENTER
 62
1
100
AcDbLine
 10
139.7903512452645
 20
168.4081184304810
 30
0.000000000000000
 11
154.3903512452645
 21
168.4081184304810
 31
0.000000000000000
  0
LINE
  5
A1
100
AcDbEntity
  8
A3
  6
CENTER
 62
1
100
AcDbLine
 10
99.79035124526456
 20
148.4081184304810
 30
0.000000000000000
 11
114.3903512452645
 21
148.4081184304810
 31
0.000000000000000
  0
LINE
  5
A2
100
AcDbEntity
  8
A3
  6
CENTER
 62
1
100
AcDbLine
 10
107.0903512452645
 20
141.1081184304809
 30
0.000000000000000
 11
107.0903512452645
 21
155.7081184304810
 31
0.000000000000000
  0
LINE
  5
A3
100
AcDbEntity
  8
A3
  6
CENTER
 62
1
100
AcDbLine
 10
139.7903512452645
 20
148.4081184304812
 30
0.000000000000000
 11
154.3903512452645
 21
148.4081184304812
 31
0.000000000000000
  0
LINE
  5
A4
100
AcDbEntity
  8
A3
  6
CENTER
 62
1
100
AcDbLine
 10
147.0903512452645
 20
141.1081184304813
 30
0.000000000000000
 11
147.0903512452645
 21
155.7081184304812
 31
0.000000000000000
  0
LINE
  5
A5
100
AcDbEntity
  8
A3
  6
CENTER
 62
1
100
AcDbLine
 10
28.59035124526454
 20
168.4081184304810
 30
0.000000000000000
 11
38.59035124526454
 21
168.4081184304810
 31
0.000000000000000
  0
LINE
  5
A6
100
AcDbEntity
  8
A3
  6
CENTER
 62
1
100
AcDbLine
 10
28.59035124526454
 20
148.4081184304810
 30
0.000000000000000
 11
38.59035124526454
 21
148.4081184304810
 31
0.000000000000000
  0
LINE
  5
A7
100
AcDbEntity
  8
A5
  6
CONTINUOUS
 62
7
100
AcDbLine
 10
311.0903512452650
 20
138.4081184305869
 30
0.000000000000000
 11
278.0903512452645
 21
138.4081184305869
 31
0.000000000000000
  0
LINE
  5
A8
100
AcDbEntity
  8
A5
  6
CONTINUOUS
 62
7
100
AcDbLine
 10
336.0903512452645
 20
178.4081184305867
 30
0.000000000000000
 11
303.0903512452649
 21
178.4081184305867
 31
0.000000000000000
  0
LINE
  5
A9
100
AcDbEntity
  8
A5
  6
CONTINUOUS
 62
7
100
AcDbLine
 10
314.5903512452647
 20
168.4081184305869
 30
0.000000000000000
 11
299.5903512452650
 21
168.4081184305869
 31
0.000000000000000
  0
LINE
  5
AA
100
AcDbEntity
  8
A5
  6
CONTINUOUS
 62
7
100
AcDbLine
 10
314.5903512452647
 20
158.4081184305867
 30
0.000000000000000
 11
299.5903512452650
 21
158.4081184305867
 31
0.000000000000000
  0
LINE
  5
AB
100
AcDbEntity
  8
A5
  6
CONTINUOUS
 62
7
100
AcDbLine
 10
314.5903512452647
 20
148.4081184305851
 30
0.000000000000000
 11
299.5903512452649
 21
148.4081184305884
 31
0.000000000000000
  0
ARC
  5
AC
100
AcDbEntity
  8
A5
  6
CONTINUOUS
 62
7
100
AcDbCircle
 10
317.5903512452647
 20
140.4081184305867
 30
0.000000000000000
 40
2.000000000000000
100
AcDbArc
 50
180.0000000000000
 51
270.0000000000000
  0
ARC
  5
AD
100
AcDbEntity
  8
A5
  6
CONTINUOUS
 62
7
100
AcDbCircle
 10
311.0903512452650
 20
140.4081184305869
 30
0.000000000000000
 40
2.000000000000000
100
AcDbArc
 50
270.0000000000000
 51
360.0000000000000
  0
LINE
  5
AE
100
AcDbEntity
  8
A5
  6
CONTINUOUS
 62
7
100
AcDbLine
 10
315.5903512452647
 20
167.4081184305869
 30
0.000000000000000
 11
315.5903512452647
 21
159.4081184305869
 31
0.000000000000000
  0
LINE
  5
AF
100
AcDbEntity
  8
A5
  6
CONTINUOUS
 62
7
100
AcDbLine
 10
313.0903512452649
 20
158.4081184305867
 30
0.000000000000000
 11
313.0903512452649
 21
168.4081184305869
 31
0.000000000000000
  0
LINE
  5
B0
100
AcDbEntity
  8
A5
  6
CONTINUOUS
 62
7
100
AcDbLine
 10
337.0903512452645
 20
177.4081184305869
 30
0.000000000000000
 11
337.0903512452645
 21
139.4081184305869
 31
0.000000000000000
  0
LINE
  5
B1
100
AcDbEntity
  8
A3
  6
CENTER
 62
1
100
AcDbLine
 10
334.3903512452646
 20
148.4081184304810
 30
0.000000000000000
 11
319.7903512452644
 21
148.4081184304810
 31
0.000000000000000
  0
LINE
  5
B2
100
AcDbEntity
  8
A5
  6
CONTINUOUS
 62
7
100
AcDbLine
 10
336.0903512452645
 20
138.4081184305869
 30
0.000000000000000
 11
317.5903512452647
 21
138.4081184305869
 31
0.000000000000000
  0
LINE
  5
B3
100
AcDbEntity
  8
A3
  6
CENTER
 62
1
100
AcDbLine
 10
327.0903512452645
 20
141.1081184304809
 30
0.000000000000000
 11
327.0903512452645
 21
155.7081184304810
 31
0.000000000000000
  0
CIRCLE
  5
B4
100
AcDbEntity
  8
A5
  6
CONTINUOUS
 62
7
100
AcDbCircle
 10
327.0903512452645
 20
148.4081184304810
 30
0.000000000000000
 40
2.600000000000000
  0
ARC
  5
B5
100
AcDbEntity
  8
A5
  6
CONTINUOUS
 62
7
100
AcDbCircle
 10
336.0903512452645
 20
139.4081184305869
 30
0.000000000000000
 40
1.000000000000000
100
AcDbArc
 50
270.0000000000000
 51
360.0000000000000
  0
ARC
  5
B6
100
AcDbEntity
  8
A5
  6
CONTINUOUS
 62
7
100
AcDbCircle
 10
314.5903512452647
 20
147.4081184305848
 30
0.000000000000000
 40
1.000000000000000
100
AcDbArc
 50
6.999999999999999e-15
 51
90.00000000000000
  0
LINE
  5
B7
100
AcDbEntity
  8
A5
  6
CONTINUOUS
 62
7
100
AcDbLine
 10
313.0903512452650
 20
140.4081184305869
 30
0.000000000000000
 11
313.0903512452650
 21
148.4081184303755
 31
0.000000000000000
  0
LINE
  5
B8
100
AcDbEntity
  8
A5
  6
CONTINUOUS
 62
7
100
AcDbLine
 10
315.5903512452647
 20
147.4081184303755
 30
0.000000000000000
 11
315.5903512452649
 21
140.4081184305867
 31
0.000000000000000
  0
ARC
  5
B9
100
AcDbEntity
  8
A5
  6
CONTINUOUS
 62
7
100
AcDbCircle
 10
314.5903512452647
 20
159.4081184305869
 30
0.000000000000000
 40
1.000000000000000
100
AcDbArc
 50
270.0000000000000
 51
360.0000000000000
  0
LINE
  5
BA
100
AcDbEntity
  8
A3
  6
CENTER
 62
1
100
AcDbLine
 10
334.3903512452646
 20
168.4081184304810
 30
0.000000000000000
 11
319.7903512452644
 21
168.4081184304810
 31
0.000000000000000
  0
LINE
  5
BB
100
AcDbEntity
  8
A3
  6
CENTER
 62
1
100
AcDbLine
 10
327.0903512452645
 20
161.1081184304813
 30
0.000000000000000
 11
327.0903512452645
 21
175.7081184304812
 31
0.000000000000000
  0
CIRCLE
  5
BC
100
AcDbEntity
  8
A5
  6
CONTINUOUS
 62
7
100
AcDbCircle
 10
327.0903512452645
 20
168.4081184304810
 30
0.000000000000000
 40
2.600000000000000
  0
ARC
  5
BD
100
AcDbEntity
  8
A5
  6
CONTINUOUS
 62
7
100
AcDbCircle
 10
336.0903512452645
 20
177.4081184305869
 30
0.000000000000000
 40
1.000000000000000
100
AcDbArc
 50
6.999999999999999e-15
 51
90.00000000000000
  0
ARC
  5
BE
100
AcDbEntity
  8
A5
  6
CONTINUOUS
 62
7
100
AcDbCircle
 10
314.5903512452647
 20
167.4081184305869
 30
0.000000000000000
 40
1.000000000000000
100
AcDbArc
 50
6.999999999999999e-15
 51
90.00000000000000
  0
ARC
  5
BF
100
AcDbEntity
  8
A5
  6
CONTINUOUS
 62
7
100
AcDbCircle
 10
278.0903512452645
 20
177.4081184305869
 30
0.000000000000000
 40
1.000000000000000
100
AcDbArc
 50
90.00000000000000
 51
180.0000000000000
  0
ARC
  5
C0
100
AcDbEntity
  8
A5
  6
CONTINUOUS
 62
7
100
AcDbCircle
 10
278.0903512452645
 20
139.4081184305869
 30
0.000000000000000
 40
1.000000000000000
100
AcDbArc
 50
180.0000000000000
 51
270.0000000000000
  0
LINE
  5
C1
100
AcDbEntity
  8
A3
  6
CENTER
 62
1
100
AcDbLine
 10
294.3903512452646
 20
148.4081184304812
 30
0.000000000000000
 11
279.7903512452644
 21
148.4081184304812
 31
0.000000000000000
  0
ARC
  5
C2
100
AcDbEntity
  8
A5
  6
CONTINUOUS
 62
7
100
AcDbCircle
 10
299.5903512452650
 20
149.4081184305888
 30
0.000000000000000
 40
1.000000000000000
100
AcDbArc
 50
180.0000000000000
 51
270.0000000000000
  0
LINE
  5
C3
100
AcDbEntity
  8
A5
  6
CONTINUOUS
 62
7
100
AcDbLine
 10
301.0903512452649
 20
158.4081184305867
 30
0.000000000000000
 11
301.0903512452649
 21
148.4081184305884
 31
0.000000000000000
  0
LINE
  5
C4
100
AcDbEntity
  8
A5
  6
CONTINUOUS
 62
7
100
AcDbLine
 10
298.5903512452650
 20
149.4081184305888
 30
0.000000000000000
 11
298.5903512452650
 21
157.4081184305869
 31
0.000000000000000
  0
ARC
  5
C5
100
AcDbEntity
  8
A5
  6
CONTINUOUS
 62
7
100
AcDbCircle
 10
299.5903512452650
 20
157.4081184305869
 30
0.000000000000000
 40
1.000000000000000
100
AcDbArc
 50
90.00000000000000
 51
180.0000000000000
  0
LINE
  5
C6
100
AcDbEntity
  8
A3
  6
CENTER
 62
1
100
AcDbLine
 10
287.0903512452645
 20
141.1081184304813
 30
0.000000000000000
 11
287.0903512452645
 21
155.7081184304812
 31
0.000000000000000
  0
CIRCLE
  5
C7
100
AcDbEntity
  8
A5
  6
CONTINUOUS
 62
7
100
AcDbCircle
 10
287.0903512452645
 20
148.4081184304812
 30
0.000000000000000
 40
2.600000000000000
  0
LINE
  5
C8
100
AcDbEntity
  8
A3
  6
CENTER
 62
1
100
AcDbLine
 10
294.3903512452646
 20
168.4081184304810
 30
0.000000000000000
 11
279.7903512452644
 21
168.4081184304810
 31
0.000000000000000
  0
LINE
  5
C9
100
AcDbEntity
  8
A5
  6
CONTINUOUS
 62
7
100
AcDbLine
 10
296.5903512452650
 20
178.4081184305867
 30
0.000000000000000
 11
278.0903512452645
 21
178.4081184305867
 31
0.000000000000000
  0
LINE
  5
CA
100
AcDbEntity
  8
A5
  6
CONTINUOUS
 62
7
100
AcDbLine
 10
301.0903512452649
 20
176.4081184305865
 30
0.000000000000000
 11
301.0903512452649
 21
168.4081184305869
 31
0.000000000000000
  0
LINE
  5
CB
100
AcDbEntity
  8
A5
  6
CONTINUOUS
 62
7
100
AcDbLine
 10
298.5903512452650
 20
169.4081184305869
 30
0.000000000000000
 11
298.5903512452650
 21
176.4081184305867
 31
0.000000000000000
  0
ARC
  5
CC
100
AcDbEntity
  8
A5
  6
CONTINUOUS
 62
7
100
AcDbCircle
 10
299.5903512452650
 20
169.4081184305869
 30
0.000000000000000
 40
1.000000000000000
100
AcDbArc
 50
180.0000000000000
 51
270.0000000000000
  0
ARC
  5
CD
100
AcDbEntity
  8
A5
  6
CONTINUOUS
 62
7
100
AcDbCircle
 10
303.0903512452649
 20
176.4081184305865
 30
0.000000000000000
 40
2.000000000000000
100
AcDbArc
 50
90.00000000000000
 51
180.0000000000000
  0
ARC
  5
CE
100
AcDbEntity
  8
A5
  6
CONTINUOUS
 62
7
100
AcDbCircle
 10
296.5903512452650
 20
176.4081184305867
 30
0.000000000000000
 40
2.000000000000000
100
AcDbArc
 50
6.999999999999999e-15
 51
90.00000000000000
  0
LINE
  5
CF
100
AcDbEntity
  8
A3
  6
CENTER
 62
1
100
AcDbLine
 10
287.0903512452645
 20
161.1081184304813
 30
0.000000000000000
 11
287.0903512452645
 21
175.7081184304812
 31
0.000000000000000
  0
CIRCLE
  5
D0
100
AcDbEntity
  8
A5
  6
CONTINUOUS
 62
7
100
AcDbCircle
 10
287.0903512452645
 20
168.4081184304810
 30
0.000000000000000
 40
2.600000000000000
  0
LINE
  5
D1
100
AcDbEntity
  8
A5
  6
CONTINUOUS
 62
7
100
AcDbLine
 10
277.0903512452645
 20
177.4081184305869
 30
0.000000000000000
 11
277.0903512452645
 21
139.4081184305869
 31
0.000000000000000
  0
LINE
  5
D2
100
AcDbEntity
  8
A5
  6
CONTINUOUS
 62
7
100
AcDbLine
 10
326.0903512452645
 20
175.4081184305867
 30
0.000000000000000
 11
313.0903512452645
 21
175.4081184305867
 31
0.000000000000000
  0
LINE
  5
D3
100
AcDbEntity
  8
A5
  6
CONTINUOUS
 62
7
100
AcDbLine
 10
318.5903512452647
 20
170.4081184305869
 30
0.000000000000000
 11
318.5903512452647
 21
160.8645205955567
 31
0.000000000000000
  0
LINE
  5
D4
100
AcDbEntity
  8
A5
  6
CONTINUOUS
 62
7
100
AcDbLine
 10
318.5903512452647
 20
170.4081184305867
 30
0.000000000000000
 11
313.0903512452644
 21
170.4081184305869
 31
0.000000000000000
  0
LINE
  5
D5
100
AcDbEntity
  8
A5
  6
CONTINUOUS
 62
7
100
AcDbLine
 10
313.0903512452645
 20
175.4081184305867
 30
0.000000000000000
 11
313.0903512452645
 21
170.4081184305869
 31
0.000000000000000
  0
LINE
  5
D6
100
AcDbEntity
  8
A5
  6
CONTINUOUS
 62
7
100
AcDbLine
 10
326.0903512452645
 20
175.4081184305867
 30
0.000000000000000
 11
326.0903512452645
 21
173.8164453436773
 31
0.000000000000000
  0
LINE
  5
D7
100
AcDbEntity
  8
A5
  6
CONTINUOUS
 62
7
100
AcDbLine
 10
328.0903512452645
 20
175.4081184305867
 30
0.000000000000000
 11
328.0903512452645
 21
173.8164453436773
 31
0.000000000000000
  0
LINE
  5
D8
100
AcDbEntity
  8
A5
  6
CONTINUOUS
 62
7
100
AcDbLine
 10
332.8234896618212
 20
157.4081184304812
 30
0.000000000000000
 11
319.9658421789470
 21
157.4081184304812
 31
0.000000000000000
  0
LINE
  5
D9
100
AcDbEntity
  8
A5
  6
CONTINUOUS
 62
7
100
AcDbLine
 10
334.0903512452646
 20
155.7792963946254
 30
0.000000000000000
 11
334.0903512452646
 21
141.4081184305869
 31
0.000000000000000
  0
LINE
  5
DA
100
AcDbEntity
  8
A5
  6
CONTINUOUS
 62
7
100
AcDbLine
 10
334.0903512452646
 20
141.4081184305869
 30
0.000000000000000
 11
328.0903512452646
 21
141.4081184305869
 31
0.000000000000000
  0
LINE
  5
DB
100
AcDbEntity
  8
A5
  6
CONTINUOUS
 62
7
100
AcDbLine
 10
331.2000950058177
 20
152.0632526581936
 30
0.000000000000000
 11
334.0903512452646
 21
155.7792963946253
 31
0.000000000000000
  0
LINE
  5
DC
100
AcDbEntity
  8
A5
  6
CONTINUOUS
 62
7
100
AcDbLine
 10
329.6213905710651
 20
153.2911338852236
 30
0.000000000000000
 11
332.8234896618212
 21
157.4081184304814
 31
0.000000000000000
  0
LINE
  5
DD
100
AcDbEntity
  8
A5
  6
CONTINUOUS
 62
7
100
AcDbLine
 10
332.8234896618211
 20
159.4081184304810
 30
0.000000000000000
 11
319.9658421789468
 21
159.4081184304810
 31
0.000000000000000
  0
LINE
  5
DE
100
AcDbEntity
  8
A5
  6
CONTINUOUS
 62
7
100
AcDbLine
 10
334.0903512452646
 20
175.4081184305867
 30
0.000000000000000
 11
334.0903512452646
 21
161.0369404663371
 31
0.000000000000000
  0
LINE
  5
DF
100
AcDbEntity
  8
A5
  6
CONTINUOUS
 62
7
100
AcDbLine
 10
329.6213905710651
 20
163.5251029757389
 30
0.000000000000000
 11
332.8234896618213
 21
159.4081184304814
 31
0.000000000000000
  0
LINE
  5
E0
100
AcDbEntity
  8
A5
  6
CONTINUOUS
 62
7
100
AcDbLine
 10
331.2000950058177
 20
164.7529842027689
 30
0.000000000000000
 11
334.0903512452646
 21
161.0369404663371
 31
0.000000000000000
  0
LINE
  5
E1
100
AcDbEntity
  8
A5
  6
CONTINUOUS
 62
7
100
AcDbLine
 10
334.0903512452646
 20
175.4081184305867
 30
0.000000000000000
 11
328.0903512452645
 21
175.4081184305867
 31
0.000000000000000
  0
ARC
  5
E2
100
AcDbEntity
  8
A5
  6
CONTINUOUS
 62
7
100
AcDbCircle
 10
327.0903512452645
 20
168.4081184304810
 30
0.000000000000000
 40
5.500000000000000
100
AcDbArc
 50
318.3506653474885
 51
439.5243183036096
  0
ARC
  5
E3
100
AcDbEntity
  8
A5
  6
CONTINUOUS
 62
7
100
AcDbCircle
 10
327.0903512452645
 20
168.4081184304810
 30
0.000000000000000
 40
5.500000000000000
100
AcDbArc
 50
237.1122587380073
 51
297.3993019547089
  0
LINE
  5
E4
100
AcDbEntity
  8
A5
  6
CONTINUOUS
 62
7
100
AcDbLine
 10
318.1593047559275
 20
156.4081184305866
 30
0.000000000000000
 11
322.6498535601535
 21
151.6534196967003
 31
0.000000000000000
  0
LINE
  5
E5
100
AcDbEntity
  8
A5
  6
CONTINUOUS
 62
7
100
AcDbLine
 10
319.9658421789472
 20
157.4081184304811
 30
0.000000000000000
 11
324.1038798652532
 21
153.0266667626277
 31
0.000000000000000
  0
LINE
  5
E6
100
AcDbEntity
  8
A5
  6
CONTINUOUS
 62
7
100
AcDbLine
 10
326.0903512452646
 20
141.4081184305869
 30
0.000000000000000
 11
318.5903512452649
 21
141.4081184305869
 31
0.000000000000000
  0
LINE
  5
E7
100
AcDbEntity
  8
A5
  6
CONTINUOUS
 62
7
100
AcDbLine
 10
318.5903512452649
 20
151.4081184305842
 30
0.000000000000000
 11
318.5903512452649
 21
141.4081184305869
 31
0.000000000000000
  0
LINE
  5
E8
100
AcDbEntity
  8
A5
  6
CONTINUOUS
 62
7
100
AcDbLine
 10
318.5903512452647
 20
151.4081184305842
 30
0.000000000000000
 11
313.0903512452637
 21
151.4081184305856
 31
0.000000000000000
  0
LINE
  5
E9
100
AcDbEntity
  8
A5
  6
CONTINUOUS
 62
7
100
AcDbLine
 10
318.1593047559275
 20
156.4081184305869
 30
0.000000000000000
 11
313.0903512452644
 21
156.4081184305869
 31
0.000000000000000
  0
LINE
  5
EA
100
AcDbEntity
  8
A5
  6
CONTINUOUS
 62
7
100
AcDbLine
 10
324.1038798652531
 20
163.7895700983349
 30
0.000000000000000
 11
319.9658421789467
 21
159.4081184304811
 31
0.000000000000000
  0
LINE
  5
EB
100
AcDbEntity
  8
A5
  6
CONTINUOUS
 62
7
100
AcDbLine
 10
322.6498535601534
 20
165.1628171642621
 30
0.000000000000000
 11
318.5903512452647
 21
160.8645205955566
 31
0.000000000000000
  0
LINE
  5
EC
100
AcDbEntity
  8
A5
  6
CONTINUOUS
 62
7
100
AcDbLine
 10
313.0903512452644
 20
156.4081184305869
 30
0.000000000000000
 11
313.0903512452644
 21
151.4081184305855
 31
0.000000000000000
  0
ARC
  5
ED
100
AcDbEntity
  8
A5
  6
CONTINUOUS
 62
7
100
AcDbCircle
 10
327.0903512452645
 20
168.4081184304810
 30
0.000000000000000
 40
5.500000000000000
100
AcDbArc
 50
100.4756816963904
 51
216.1608953452286
  0
ARC
  5
EE
100
AcDbEntity
  8
A5
  6
CONTINUOUS
 62
7
100
AcDbCircle
 10
327.0903512452647
 20
148.4081184304812
 30
0.000000000000000
 40
5.500000000000000
100
AcDbArc
 50
62.60069804529113
 51
122.8877412619926
  0
ARC
  5
EF
100
AcDbEntity
  8
A5
  6
CONTINUOUS
 62
7
100
AcDbCircle
 10
327.0903512452647
 20
148.4081184304812
 30
0.000000000000000
 40
5.500000000000000
100
AcDbArc
 50
143.8391046547704
 51
259.5243183036095
  0
ARC
  5
F0
100
AcDbEntity
  8
A5
  6
CONTINUOUS
 62
7
100
AcDbCircle
 10
327.0903512452647
 20
148.4081184304812
 30
0.000000000000000
 40
5.500000000000000
100
AcDbArc
 50
279.5940682268616
 51
401.6493346525115
  0
LINE
  5
F1
100
AcDbEntity
  8
A5
  6
CONTINUOUS
 62
7
100
AcDbLine
 10
328.0903512452646
 20
142.9997915172852
 30
0.000000000000000
 11
328.0903512452646
 21
141.4081184305869
 31
0.000000000000000
  0
LINE
  5
F2
100
AcDbEntity
  8
A5
  6
CONTINUOUS
 62
7
100
AcDbLine
 10
326.0903512452646
 20
142.9997915172852
 30
0.000000000000000
 11
326.0903512452646
 21
141.4081184305869
 31
0.000000000000000
  0
LINE
  5
F3
100
AcDbEntity
  8
A5
  6
CONTINUOUS
 62
7
100
AcDbLine
 10
288.0903512452645
 20
141.4081184305869
 30
0.000000000000000
 11
301.0903512452645
 21
141.4081184305869
 31
0.000000000000000
  0
LINE
  5
F4
100
AcDbEntity
  8
A5
  6
CONTINUOUS
 62
7
100
AcDbLine
 10
295.5903512452643
 20
146.4081184305869
 30
0.000000000000000
 11
301.0903512452646
 21
146.4081184305869
 31
0.000000000000000
  0
LINE
  5
F5
100
AcDbEntity
  8
A5
  6
CONTINUOUS
 62
7
100
AcDbLine
 10
301.0903512452645
 20
141.4081184305869
 30
0.000000000000000
 11
301.0903512452645
 21
146.4081184305869
 31
0.000000000000000
  0
LINE
  5
F6
100
AcDbEntity
  8
A5
  6
CONTINUOUS
 62
7
100
AcDbLine
 10
288.0903512452645
 20
141.4081184305869
 30
0.000000000000000
 11
288.0903512452645
 21
142.9997915174964
 31
0.000000000000000
  0
LINE
  5
F7
100
AcDbEntity
  8
A5
  6
CONTINUOUS
 62
7
100
AcDbLine
 10
284.5593119194639
 20
153.2911338854346
 30
0.000000000000000
 11
281.3572128287079
 21
157.4081184306924
 31
0.000000000000000
  0
ARC
  5
F8
100
AcDbEntity
  8
A5
  6
CONTINUOUS
 62
7
100
AcDbCircle
 10
287.0903512452645
 20
148.4081184306924
 30
0.000000000000000
 40
5.500000000000000
100
AcDbArc
 50
138.3506653474885
 51
259.5243183036096
  0
LINE
  5
F9
100
AcDbEntity
  8
A5
  6
CONTINUOUS
 62
7
100
AcDbLine
 10
280.0903512452643
 20
141.4081184305869
 30
0.000000000000000
 11
280.0903512452643
 21
155.7792963948365
 31
0.000000000000000
  0
LINE
  5
FA
100
AcDbEntity
  8
A5
  6
CONTINUOUS
 62
7
100
AcDbLine
 10
282.9806074847114
 20
152.0632526584047
 30
0.000000000000000
 11
280.0903512452643
 21
155.7792963948365
 31
0.000000000000000
  0
LINE
  5
FB
100
AcDbEntity
  8
A5
  6
CONTINUOUS
 62
7
100
AcDbLine
 10
280.0903512452643
 20
141.4081184305869
 30
0.000000000000000
 11
286.0903512452645
 21
141.4081184305869
 31
0.000000000000000
  0
LINE
  5
FC
100
AcDbEntity
  8
A5
  6
CONTINUOUS
 62
7
100
AcDbLine
 10
286.0903512452645
 20
141.4081184305869
 30
0.000000000000000
 11
286.0903512452645
 21
142.9997915174964
 31
0.000000000000000
  0
LINE
  5
FD
100
AcDbEntity
  8
A5
  6
CONTINUOUS
 62
7
100
AcDbLine
 10
291.5308489303757
 20
151.6534196969114
 30
0.000000000000000
 11
295.5903512452643
 21
155.9517162656169
 31
0.000000000000000
  0
LINE
  5
FE
100
AcDbEntity
  8
A5
  6
CONTINUOUS
 62
7
100
AcDbLine
 10
290.0768226252759
 20
153.0266667628388
 30
0.000000000000000
 11
294.2148603115821
 21
157.4081184306924
 31
0.000000000000000
  0
LINE
  5
FF
100
AcDbEntity
  8
A5
  6
CONTINUOUS
 62
7
100
AcDbLine
 10
295.5903512452643
 20
146.4081184305869
 30
0.000000000000000
 11
295.5903512452643
 21
155.9517162656169
 31
0.000000000000000
  0
ARC
  5
100
100
AcDbEntity
  8
A5
  6
CONTINUOUS
 62
7
100
AcDbCircle
 10
287.0903512452645
 20
148.4081184306924
 30
0.000000000000000
 40
5.500000000000000
100
AcDbArc
 50
57.11225873800736
 51
117.3993019547088
  0
ARC
  5
101
100
AcDbEntity
  8
A5
  6
CONTINUOUS
 62
7
100
AcDbCircle
 10
287.0903512452645
 20
148.4081184306924
 30
0.000000000000000
 40
5.500000000000000
100
AcDbArc
 50
280.4756816963904
 51
396.1608953452286
  0
LINE
  5
102
100
AcDbEntity
  8
A5
  6
CONTINUOUS
 62
7
100
AcDbLine
 10
281.3572128287078
 20
157.4081184306924
 30
0.000000000000000
 11
294.2148603115821
 21
157.4081184306924
 31
0.000000000000000
  0
LINE
  5
103
100
AcDbEntity
  8
A5
  6
CONTINUOUS
 62
7
100
AcDbLine
 10
296.0213977346015
 20
160.4081184305869
 30
0.000000000000000
 11
291.5308489303756
 21
165.1628171644732
 31
0.000000000000000
  0
LINE
  5
104
100
AcDbEntity
  8
A5
  6
CONTINUOUS
 62
7
100
AcDbLine
 10
296.0213977346016
 20
160.4081184305869
 30
0.000000000000000
 11
301.0903512452646
 21
160.4081184305869
 31
0.000000000000000
  0
LINE
  5
105
100
AcDbEntity
  8
A5
  6
CONTINUOUS
 62
7
100
AcDbLine
 10
295.5903512452641
 20
165.4081184305895
 30
0.000000000000000
 11
301.0903512452654
 21
165.4081184305881
 31
0.000000000000000
  0
LINE
  5
106
100
AcDbEntity
  8
A5
  6
CONTINUOUS
 62
7
100
AcDbLine
 10
301.0903512452646
 20
160.4081184305869
 30
0.000000000000000
 11
301.0903512452646
 21
165.4081184305880
 31
0.000000000000000
  0
LINE
  5
107
100
AcDbEntity
  8
A5
  6
CONTINUOUS
 62
7
100
AcDbLine
 10
294.2148603115817
 20
159.4081184306925
 30
0.000000000000000
 11
290.0768226252758
 21
163.7895700985460
 31
0.000000000000000
  0
LINE
  5
108
100
AcDbEntity
  8
A5
  6
CONTINUOUS
 62
7
100
AcDbLine
 10
281.3572128287078
 20
159.4081184306924
 30
0.000000000000000
 11
294.2148603115819
 21
159.4081184306924
 31
0.000000000000000
  0
LINE
  5
109
100
AcDbEntity
  8
A5
  6
CONTINUOUS
 62
7
100
AcDbLine
 10
284.5593119194639
 20
163.5251029759501
 30
0.000000000000000
 11
281.3572128287079
 21
159.4081184306924
 31
0.000000000000000
  0
ARC
  5
10A
100
AcDbEntity
  8
A5
  6
CONTINUOUS
 62
7
100
AcDbCircle
 10
287.0903512452643
 20
168.4081184306924
 30
0.000000000000000
 40
5.500000000000000
100
AcDbArc
 50
242.6006980452912
 51
302.8877412619927
  0
LINE
  5
10B
100
AcDbEntity
  8
A5
  6
CONTINUOUS
 62
7
100
AcDbLine
 10
280.0903512452643
 20
161.0369404665483
 30
0.000000000000000
 11
280.0903512452643
 21
175.4081184305867
 31
0.000000000000000
  0
LINE
  5
10C
100
AcDbEntity
  8
A5
  6
CONTINUOUS
 62
7
100
AcDbLine
 10
282.9806074847111
 20
164.7529842029800
 30
0.000000000000000
 11
280.0903512452641
 21
161.0369404665482
 31
0.000000000000000
  0
ARC
  5
10D
100
AcDbEntity
  8
A5
  6
CONTINUOUS
 62
7
100
AcDbCircle
 10
287.0903512452643
 20
168.4081184306924
 30
0.000000000000000
 40
5.500000000000000
100
AcDbArc
 50
99.59406822686162
 51
221.6493346525115
  0
LINE
  5
10E
100
AcDbEntity
  8
A5
  6
CONTINUOUS
 62
7
100
AcDbLine
 10
280.0903512452643
 20
175.4081184305868
 30
0.000000000000000
 11
286.0903512452643
 21
175.4081184305869
 31
0.000000000000000
  0
LINE
  5
10F
100
AcDbEntity
  8
A5
  6
CONTINUOUS
 62
7
100
AcDbLine
 10
286.0903512452643
 20
173.8164453438885
 30
0.000000000000000
 11
286.0903512452643
 21
175.4081184305869
 31
0.000000000000000
  0
ARC
  5
110
100
AcDbEntity
  8
A5
  6
CONTINUOUS
 62
7
100
AcDbCircle
 10
287.0903512452643
 20
168.4081184306924
 30
0.000000000000000
 40
5.500000000000000
100
AcDbArc
 50
323.8391046547704
 51
439.5243183036096
  0
LINE
  5
111
100
AcDbEntity
  8
A5
  6
CONTINUOUS
 62
7
100
AcDbLine
 10
288.0903512452643
 20
175.4081184305869
 30
0.000000000000000
 11
295.5903512452642
 21
175.4081184305869
 31
0.000000000000000
  0
LINE
  5
112
100
AcDbEntity
  8
A5
  6
CONTINUOUS
 62
7
100
AcDbLine
 10
288.0903512452643
 20
173.8164453438885
 30
0.000000000000000
 11
288.0903512452643
 21
175.4081184305869
 31
0.000000000000000
  0
LINE
  5
113
100
AcDbEntity
  8
A5
  6
CONTINUOUS
 62
7
100
AcDbLine
 10
295.5903512452642
 20
165.4081184305894
 30
0.000000000000000
 11
295.5903512452642
 21
175.4081184305869
 31
0.000000000000000
  0
LINE
  5
114
100
AcDbEntity
  8
A5
  6
CONTINUOUS
 62
7
100
AcDbLine
 10
307.0903512452645
 20
178.4081184305867
 30
0.000000000000000
 11
307.0903512452645
 21
138.4081184305869
 31
0.000000000000000
  0
LINE
  5
115
100
AcDbEntity
  8
A3
  6
CENTER
 62
1
100
AcDbLine
 10
107.0903512452645
 20
54.90811843058685
 30
0.000000000000000
 11
107.0903512452645
 21
64.90811843058685
 31
0.000000000000000
  0
LINE
  5
116
100
AcDbEntity
  8
A3
  6
CENTER
 62
1
100
AcDbLine
 10
147.0903512452645
 20
71.90811843058685
 30
0.000000000000000
 11
147.0903512452645
 21
54.90811843058685
 31
0.000000000000000
  0
CIRCLE
  5
117
100
AcDbEntity
  8
A5
  6
CONTINUOUS
 62
7
100
AcDbCircle
 10
127.0903512452643
 20
253.4081184305867
 30
0.000000000000000
 40
4.000000000000000
  0
LINE
  5
118
100
AcDbEntity
  8
A5
  6
CONTINUOUS
 62
7
100
AcDbLine
 10
157.0903512452644
 20
259.9081184305869
 30
0.000000000000000
 11
97.09035124526442
 21
259.9081184305867
 31
0.000000000000000
  0
ARC
  5
119
100
AcDbEntity
  8
A5
  6
CONTINUOUS
 62
7
100
AcDbCircle
 10
127.0903512452643
 20
253.4081184305867
 30
0.000000000000000
 40
5.999999999999972
100
AcDbArc
 50
190.8069228748603
 51
450.0000000000001
  0
LINE
  5
11A
100
AcDbEntity
  8
A3
  6
CENTER
 62
1
100
AcDbLine
 10
136.0903512452644
 20
253.4081184305869
 30
0.000000000000000
 11
118.0903512452644
 21
253.4081184305869
 31
0.000000000000000
  0
LINE
  5
11B
100
AcDbEntity
  8
A5
  6
CONTINUOUS
 62
7
100
AcDbLine
 10
155.0903512452644
 20
253.9081184305869
 30
0.000000000000000
 11
134.9484680680152
 21
253.9081184305869
 31
0.000000000000000
  0
LINE
  5
11C
100
AcDbEntity
  8
A3
  6
CENTER
 62
1
100
AcDbLine
 10
147.0903512452643
 20
261.9081184305869
 30
0.000000000000000
 11
147.0903512452644
 21
251.9081184305869
 31
0.000000000000000
  0
LINE
  5
11D
100
AcDbEntity
  8
A5
  6
CONTINUOUS
 62
7
100
AcDbLine
 10
157.0903512452644
 20
255.9081184305869
 30
0.000000000000000
 11
157.0903512452644
 21
259.9081184305869
 31
0.000000000000000
  0
ARC
  5
11E
100
AcDbEntity
  8
A5
  6
CONTINUOUS
 62
7
100
AcDbCircle
 10
155.0903512452644
 20
255.9081184305869
 30
0.000000000000000
 40
2.000000000000000
100
AcDbArc
 50
270.0000000000000
 51
360.0000000000000
  0
ARC
  5
11F
100
AcDbEntity
  8
A5
  6
CONTINUOUS
 62
7
100
AcDbCircle
 10
136.5903512452643
 20
254.9081184305869
 30
0.000000000000000
 40
1.000000000000000
100
AcDbArc
 50
180.0000000000000
 51
270.0000000000000
  0
LINE
  5
120
100
AcDbEntity
  8
A5
  6
CONTINUOUS
 62
7
100
AcDbLine
 10
135.5903512452644
 20
254.9081184305868
 30
0.000000000000000
 11
135.5903512452643
 21
259.9081184305869
 31
0.000000000000000
  0
ARC
  5
121
100
AcDbEntity
  8
A5
  6
CONTINUOUS
 62
7
100
AcDbCircle
 10
134.9484680680152
 20
251.9081184305869
 30
0.000000000000000
 40
2.000000000000000
100
AcDbArc
 50
90.00000000000006
 51
169.1930771251396
  0
LINE
  5
122
100
AcDbEntity
  8
A4
  6
PHANTOM
 62
6
100
AcDbLine
 10
120.5903512452644
 20
283.4081184305869
 30
0.000000000000000
 11
120.5903512452644
 21
259.9081184305869
 31
0.000000000000000
  0
LINE
  5
123
100
AcDbEntity
  8
A4
  6
PHANTOM
 62
6
100
AcDbLine
 10
126.5903512452644
 20
281.4081184305869
 30
0.000000000000000
 11
126.5903512452644
 21
261.2662352533376
 31
0.000000000000000
  0
ARC
  5
124
100
AcDbEntity
  8
A4
  6
PHANTOM
 62
6
100
AcDbCircle
 10
124.5903512452644
 20
281.4081184305869
 30
0.000000000000000
 40
2.000000000000000
100
AcDbArc
 50
2.540000000000000e-14
 51
90.00000000000006
  0
LINE
  5
125
100
AcDbEntity
  8
A4
  6
PHANTOM
 62
6
100
AcDbLine
 10
124.5903512452644
 20
283.4081184305869
 30
0.000000000000000
 11
120.5903512452644
 21
283.4081184305869
 31
0.000000000000000
  0
ARC
  5
126
100
AcDbEntity
  8
A5
  6
CONTINUOUS
 62
7
100
AcDbCircle
 10
99.09035124526443
 20
255.9081184305867
 30
0.000000000000000
 40
2.000000000000000
100
AcDbArc
 50
180.0000000000000
 51
270.0000000000000
  0
LINE
  5
127
100
AcDbEntity
  8
A3
  6
CENTER
 62
1
100
AcDbLine
 10
107.0903512452644
 20
244.9081184305869
 30
0.000000000000000
 11
107.0903512452644
 21
261.9081184305867
 31
0.000000000000000
  0
LINE
  5
128
100
AcDbEntity
  8
A3
  6
CENTER
 62
1
100
AcDbLine
 10
127.0903512452644
 20
244.4081184305869
 30
0.000000000000000
 11
127.0903512452643
 21
262.4081184305869
 31
0.000000000000000
  0
LINE
  5
129
100
AcDbEntity
  8
A5
  6
CONTINUOUS
 62
7
100
AcDbLine
 10
119.2322344225135
 20
253.9081184305869
 30
0.000000000000000
 11
99.09035124526450
 21
253.9081184305868
 31
0.000000000000000
  0
ARC
  5
12A
100
AcDbEntity
  8
A4
  6
PHANTOM
 62
6
100
AcDbCircle
 10
128.5903512452644
 20
261.2662352533378
 30
0.000000000000000
 40
2.000000000000000
100
AcDbArc
 50
180.0000000000000
 51
222.7701077325949
  0
LINE
  5
12B
100
AcDbEntity
  8
A4
  6
PHANTOM
 62
6
100
AcDbLine
 10
125.5903512452644
 20
261.9081184305869
 30
0.000000000000000
 11
120.5903512452644
 21
261.9081184305869
 31
0.000000000000000
  0
ARC
  5
12C
100
AcDbEntity
  8
A4
  6
PHANTOM
 62
6
100
AcDbCircle
 10
125.5903512452644
 20
262.9081184305869
 30
0.000000000000000
 40
1.000000000000000
100
AcDbArc
 50
270.0000000000000
 51
360.0000000000000
  0
ARC
  5
12D
100
AcDbEntity
  8
A5
  6
CONTINUOUS
 62
7
100
AcDbCircle
 10
119.2322344225135
 20
251.9081184305867
 30
0.000000000000000
 40
2.000000000000000
100
AcDbArc
 50
10.80692287486037
 51
90.00000000000006
  0
LINE
  5
12E
100
AcDbEntity
  8
A5
  6
CONTINUOUS
 62
7
100
AcDbLine
 10
127.0903512452642
 20
259.4081184305869
 30
0.000000000000000
 11
127.0903512452640
 21
259.9081184305867
 31
0.000000000000000
  0
LINE
  5
12F
100
AcDbEntity
  8
A5
  6
CONTINUOUS
 62
7
100
AcDbLine
 10
97.09035124526449
 20
255.9081184305868
 30
0.000000000000000
 11
97.09035124526442
 21
259.9081184305867
 31
0.000000000000000
  0
LINE
  5
130
100
AcDbEntity
  8
A4
  6
PHANTOM
 62
6
100
AcDbLine
 10
127.0903512452646
 20
246.9081184305871
 30
0.000000000000000
 11
157.0903512452642
 21
246.9081184305869
 31
0.000000000000000
  0
LINE
  5
131
100
AcDbEntity
  8
A4
  6
PHANTOM
 62
6
100
AcDbLine
 10
157.0903512452642
 20
250.9081184305869
 30
0.000000000000000
 11
157.0903512452642
 21
246.9081184305869
 31
0.000000000000000
  0
ARC
  5
132
100
AcDbEntity
  8
A4
  6
PHANTOM
 62
6
100
AcDbCircle
 10
155.0903512452642
 20
250.9081184305869
 30
0.000000000000000
 40
2.000000000000000
100
AcDbArc
 50
0.000000000000000
 51
90.00000000000000
  0
LINE
  5
133
100
AcDbEntity
  8
A4
  6
PHANTOM
 62
6
100
AcDbLine
 10
134.9484680680151
 20
252.9081184305869
 30
0.000000000000000
 11
155.0903512452642
 21
252.9081184305869
 31
0.000000000000000
  0
ARC
  5
134
100
AcDbEntity
  8
A4
  6
PHANTOM
 62
6
100
AcDbCircle
 10
134.9484680680151
 20
254.9081184305869
 30
0.000000000000000
 40
2.000000000000000
100
AcDbArc
 50
228.5903778907318
 51
270.0000000000000
  0
ARC
  5
135
100
AcDbEntity
  8
A4
  6
PHANTOM
 62
6
100
AcDbCircle
 10
127.0903512452642
 20
253.4081184305869
 30
0.000000000000000
 40
5.999999999999972
100
AcDbArc
 50
10.80692287486034
 51
270.0000000000000
  0
LINE
  5
136
100
AcDbEntity
  8
A4
  6
PHANTOM
 62
6
100
AcDbLine
 10
127.0903512452644
 20
247.4081184305869
 30
0.000000000000000
 11
127.0903512452646
 21
246.9081184305871
 31
0.000000000000000
  0
ARC
  5
137
100
AcDbEntity
  8
A5
  6
CONTINUOUS
 62
7
100
AcDbCircle
 10
220.5903512452645
 20
141.4081184305867
 30
0.000000000000000
 40
3.000000000000000
100
AcDbArc
 50
180.0000000000000
 51
269.9999999999997
  0
ARC
  5
138
100
AcDbEntity
  8
A5
  6
CONTINUOUS
 62
7
100
AcDbCircle
 10
214.0903512452645
 20
141.4081184305869
 30
0.000000000000000
 40
3.000000000000000
100
AcDbArc
 50
180.0000000000000
 51
269.9999999999998
  0
LINE
  5
139
100
AcDbEntity
  8
A5
  6
CONTINUOUS
 62
7
100
AcDbLine
 10
211.0903512452645
 20
148.4081184303755
 30
0.000000000000000
 11
217.5903512452645
 21
148.4081184303755
 31
0.000000000000000
  0
LINE
  5
13A
100
AcDbEntity
  8
A5
  6
CONTINUOUS
 62
7
100
AcDbLine
 10
211.0903512452645
 20
168.4081184305867
 30
0.000000000000000
 11
217.5903512452645
 21
168.4081184305869
 31
0.000000000000000
  0
ARC
  5
13B
100
AcDbEntity
  8
A5
  6
CONTINUOUS
 62
7
100
AcDbCircle
 10
214.0903512452645
 20
175.4081184305867
 30
0.000000000000000
 40
3.000000000000000
100
AcDbArc
 50
90.00000000000011
 51
180.0000000000000
  0
LINE
  5
13C
100
AcDbEntity
  8
A5
  6
CONTINUOUS
 62
7
100
AcDbLine
 10
217.5903512452645
 20
141.4081184305867
 30
0.000000000000000
 11
217.5903512452645
 21
175.4081184305867
 31
0.000000000000000
  0
LINE
  5
13D
100
AcDbEntity
  8
A5
  6
CONTINUOUS
 62
7
100
AcDbLine
 10
223.5903512452645
 20
138.4081184305867
 30
0.000000000000000
 11
223.5903512452645
 21
178.4081184305867
 31
0.000000000000000
  0
LINE
  5
13E
100
AcDbEntity
  8
A3
  6
CENTER
 62
1
100
AcDbLine
 10
225.5903512452645
 20
148.4081184304810
 30
0.000000000000000
 11
215.5903512452645
 21
148.4081184304810
 31
0.000000000000000
  0
LINE
  5
13F
100
AcDbEntity
  8
A5
  6
CONTINUOUS
 62
7
100
AcDbLine
 10
214.0903512452645
 20
138.4081184305867
 30
0.000000000000000
 11
223.5903512452645
 21
138.4081184305867
 31
0.000000000000000
  0
LINE
  5
140
100
AcDbEntity
  8
A3
  6
CENTER
 62
1
100
AcDbLine
 10
225.5903512452645
 20
168.4081184304810
 30
0.000000000000000
 11
215.5903512452645
 21
168.4081184304810
 31
0.000000000000000
  0
LINE
  5
141
100
AcDbEntity
  8
A5
  6
CONTINUOUS
 62
7
100
AcDbLine
 10
214.0903512452645
 20
178.4081184305869
 30
0.000000000000000
 11
223.5903512452645
 21
178.4081184305867
 31
0.000000000000000
  0
ARC
  5
142
100
AcDbEntity
  8
A5
  6
CONTINUOUS
 62
7
100
AcDbCircle
 10
220.5903512452645
 20
175.4081184305867
 30
0.000000000000000
 40
3.000000000000000
100
AcDbArc
 50
90.00000000000000
 51
180.0000000000000
  0
LINE
  5
143
100
AcDbEntity
  8
A5
  6
CONTINUOUS
 62
7
100
AcDbLine
 10
211.0903512452645
 20
141.4081184305869
 30
0.000000000000000
 11
211.0903512452645
 21
175.4081184305867
 31
0.000000000000000
  0
LINE
  5
144
100
AcDbEntity
  8
A5
  6
CONTINUOUS
 62
7
100
AcDbLine
 10
43.09035124526453
 20
158.4081184305867
 30
0.000000000000000
 11
36.59035124526454
 21
158.4081184305867
 31
0.000000000000000
  0
LINE
  5
145
100
AcDbEntity
  8
A5
  6
CONTINUOUS
 62
7
100
AcDbLine
 10
211.0903512452645
 20
158.4081184305867
 30
0.000000000000000
 11
217.5903512452645
 21
158.4081184305867
 31
0.000000000000000
  0
ARC
  5
146
100
AcDbEntity
  8
A5
  6
CONTINUOUS
 62
7
100
AcDbCircle
 10
314.5903753328121
 20
153.9081184305631
 30
0.000000000000000
 40
0.8590595467416470
100
AcDbArc
 50
125.5376777920008
 51
166.5374393917331
  0
ARC
  5
147
100
AcDbEntity
  8
A5
  6
CONTINUOUS
 62
7
100
AcDbCircle
 10
316.5903512452643
 20
151.1081521531327
 30
0.000000000000000
 40
4.299948211772383
100
AcDbArc
 50
54.46232220799917
 51
125.5376777920008
  0
ARC
  5
148
100
AcDbEntity
  8
A5
  6
CONTINUOUS
 62
7
100
AcDbCircle
 10
318.5903271577167
 20
153.9081184305631
 30
0.000000000000000
 40
0.8590595467416478
100
AcDbArc
 50
332.2496545546282
 51
414.4623222079991
  0
ARC
  5
149
100
AcDbEntity
  8
A5
  6
CONTINUOUS
 62
7
100
AcDbCircle
 10
314.5903753328121
 20
153.9081184305631
 30
0.000000000000000
 40
0.8590595467416470
100
AcDbArc
 50
180.0000000000000
 51
234.4623222080521
  0
ARC
  5
14A
100
AcDbEntity
  8
A5
  6
CONTINUOUS
 62
7
100
AcDbCircle
 10
316.5903512452643
 20
156.7080847079991
 30
0.000000000000000
 40
4.299948211772383
100
AcDbArc
 50
234.4623222080521
 51
305.5376777919478
  0
ARC
  5
14B
100
AcDbEntity
  8
A5
  6
CONTINUOUS
 62
7
100
AcDbCircle
 10
318.5903271577167
 20
153.9081184305631
 30
0.000000000000000
 40
0.8590595467416478
100
AcDbArc
 50
305.5376777919478
 51
315.6988392796169
  0
LINE
  5
14C
100
AcDbEntity
  8
A5
  6
CONTINUOUS
 62
7
100
AcDbLine
 10
314.4237106734412
 20
154.8223442936196
 30
0.000000000000000
 11
314.4237106734412
 21
153.3854751800716
 31
0.000000000000000
  0
LINE
  5
14D
100
AcDbEntity
  8
A5
  6
CONTINUOUS
 62
7
100
AcDbLine
 10
314.7570399921832
 20
153.2931262441845
 30
0.000000000000000
 11
314.7570399921832
 21
154.5231106169473
 31
0.000000000000000
  0
ARC
  5
14E
100
AcDbEntity
  8
A5
  6
CONTINUOUS
 62
7
100
AcDbCircle
 10
314.9237046515542
 20
154.5231106169473
 30
0.000000000000000
 40
0.1666646593710226
100
AcDbArc
 50
116.0143659996365
 51
180.0000000000000
  0
ARC
  5
14F
100
AcDbEntity
  8
A5
  6
CONTINUOUS
 62
7
100
AcDbCircle
 10
316.5903512452643
 20
151.1081521531327
 30
0.000000000000000
 40
3.966618893030337
100
AcDbArc
 50
112.9439535565376
 51
116.0143659996365
  0
ARC
  5
150
100
AcDbEntity
  8
A5
  6
CONTINUOUS
 62
7
100
AcDbCircle
 10
315.0570363790511
 20
154.7302625839833
 30
0.000000000000000
 40
0.03333293187420450
100
AcDbArc
 50
0.000000000000000
 51
112.9439535565376
  0
LINE
  5
151
100
AcDbEntity
  8
A5
  6
CONTINUOUS
 62
7
100
AcDbLine
 10
315.0903693109252
 20
154.7302625839833
 30
0.000000000000000
 11
315.0903693109252
 21
153.0859742771484
 31
0.000000000000000
  0
ARC
  5
152
100
AcDbEntity
  8
A5
  6
CONTINUOUS
 62
7
100
AcDbCircle
 10
315.0570363790511
 20
153.0859742771484
 30
0.000000000000000
 40
0.03333293187420450
100
AcDbArc
 50
247.0560464434623
 51
360.0000000000000
  0
ARC
  5
153
100
AcDbEntity
  8
A5
  6
CONTINUOUS
 62
7
100
AcDbCircle
 10
316.5903512452643
 20
156.7080847079991
 30
0.000000000000000
 40
3.966618893030337
100
AcDbArc
 50
243.9856340003634
 51
247.0560464434623
  0
ARC
  5
154
100
AcDbEntity
  8
A5
  6
CONTINUOUS
 62
7
100
AcDbCircle
 10
314.9237046515542
 20
153.2931262441845
 30
0.000000000000000
 40
0.1666646593710226
100
AcDbArc
 50
180.0000000000000
 51
243.9856340003634
  0
LINE
  5
155
100
AcDbEntity
  8
A5
  6
CONTINUOUS
 62
7
100
AcDbLine
 10
315.7570279484092
 20
154.3081136130536
 30
0.000000000000000
 11
315.7570279484092
 21
154.9447711638545
 31
0.000000000000000
  0
ARC
  5
156
100
AcDbEntity
  8
A5
  6
CONTINUOUS
 62
7
100
AcDbCircle
 10
315.7236950165352
 20
154.9447711638545
 30
0.000000000000000
 40
0.03333293187420450
100
AcDbArc
 50
0.000000000000000
 51
102.7289438731228
  0
ARC
  5
157
100
AcDbEntity
  8
A5
  6
CONTINUOUS
 62
7
100
AcDbCircle
 10
316.5903512452643
 20
151.1081521531327
 30
0.000000000000000
 40
3.966618893030337
100
AcDbArc
 50
102.7289438731228
 51
103.2681189705562
  0
ARC
  5
158
100
AcDbEntity
  8
A5
  6
CONTINUOUS
 62
7
100
AcDbCircle
 10
316.5903512452643
 20
151.1081521531327
 30
0.000000000000000
 40
3.966618893030337
100
AcDbArc
 50
103.2681189705562
 51
105.2575232904567
  0
ARC
  5
159
100
AcDbEntity
  8
A5
  6
CONTINUOUS
 62
7
100
AcDbCircle
 10
315.5903632890382
 20
154.7741685558931
 30
0.000000000000000
 40
0.1666646593710226
100
AcDbArc
 50
105.2575232904567
 51
180.0000000000000
  0
LINE
  5
15A
100
AcDbEntity
  8
A5
  6
CONTINUOUS
 62
7
100
AcDbLine
 10
315.4236986296672
 20
154.7741685558931
 30
0.000000000000000
 11
315.4236986296672
 21
153.0420683052388
 31
0.000000000000000
  0
ARC
  5
15B
100
AcDbEntity
  8
A5
  6
CONTINUOUS
 62
7
100
AcDbCircle
 10
315.5903632890382
 20
153.0420683052388
 30
0.000000000000000
 40
0.1666646593710226
100
AcDbArc
 50
180.0000000000000
 51
254.7424767095439
  0
ARC
  5
15C
100
AcDbEntity
  8
A5
  6
CONTINUOUS
 62
7
100
AcDbCircle
 10
316.5903512452643
 20
156.7080847079991
 30
0.000000000000000
 40
3.966618893030337
100
AcDbArc
 50
254.7424767095439
 51
254.7937121239421
  0
ARC
  5
15D
100
AcDbEntity
  8
A5
  6
CONTINUOUS
 62
7
100
AcDbCircle
 10
316.5903512452643
 20
156.7080847079991
 30
0.000000000000000
 40
3.966618893030337
100
AcDbArc
 50
254.7937121239421
 51
257.2710561268771
  0
ARC
  5
15E
100
AcDbEntity
  8
A5
  6
CONTINUOUS
 62
7
100
AcDbCircle
 10
315.7236950165352
 20
152.8714656972772
 30
0.000000000000000
 40
0.03333293187420450
100
AcDbArc
 50
257.2710561268771
 51
360.0000000000000
  0
LINE
  5
15F
100
AcDbEntity
  8
A5
  6
CONTINUOUS
 62
7
100
AcDbLine
 10
315.7570279484092
 20
152.8714656972772
 30
0.000000000000000
 11
315.7570279484092
 21
153.5081232480728
 31
0.000000000000000
  0
LINE
  5
160
100
AcDbEntity
  8
A5
  6
CONTINUOUS
 62
7
100
AcDbLine
 10
316.0903572671514
 20
155.0431326441131
 30
0.000000000000000
 11
316.0903572671514
 21
152.7731042170188
 31
0.000000000000000
  0
LINE
  5
161
100
AcDbEntity
  8
A5
  6
CONTINUOUS
 62
7
100
AcDbLine
 10
316.4236865858934
 20
155.0712681410722
 30
0.000000000000000
 11
316.4236865858934
 21
152.7449687200595
 31
0.000000000000000
  0
LINE
  5
162
100
AcDbEntity
  8
A5
  6
CONTINUOUS
 62
7
100
AcDbLine
 10
316.4236865858934
 20
153.9081184305631
 30
0.000000000000000
 11
316.0903572671514
 21
153.9081184305631
 31
0.000000000000000
  0
LINE
  5
163
100
AcDbEntity
  8
A5
  6
CONTINUOUS
 62
7
100
AcDbLine
 10
316.7570159046354
 20
155.0712681410722
 30
0.000000000000000
 11
316.7570159046354
 21
152.7449687200595
 31
0.000000000000000
  0
LINE
  5
164
100
AcDbEntity
  8
A5
  6
CONTINUOUS
 62
7
100
AcDbLine
 10
317.4236745421196
 20
154.3081136130536
 30
0.000000000000000
 11
317.4236745421196
 21
154.8491705223703
 31
0.000000000000000
  0
ARC
  5
165
100
AcDbEntity
  8
A5
  6
CONTINUOUS
 62
7
100
AcDbCircle
 10
317.2570098827487
 20
154.8491705223703
 30
0.000000000000000
 40
0.1666646593710226
100
AcDbArc
 50
0.000000000000000
 51
79.89581728387475
  0
ARC
  5
166
100
AcDbEntity
  8
A5
  6
CONTINUOUS
 62
7
100
AcDbCircle
 10
316.5903512452643
 20
151.1081521531327
 30
0.000000000000000
 40
3.966618893030337
100
AcDbArc
 50
79.89581728387475
 51
82.20707566457726
  0
ARC
  5
167
100
AcDbEntity
  8
A5
  6
CONTINUOUS
 62
7
100
AcDbCircle
 10
317.1236781552516
 20
155.0051126173036
 30
0.000000000000000
 40
0.03333293187420450
100
AcDbArc
 50
82.20707566457726
 51
180.0000000000000
  0
LINE
  5
168
100
AcDbEntity
  8
A5
  6
CONTINUOUS
 62
7
100
AcDbLine
 10
317.0903452233775
 20
155.0051126173036
 30
0.000000000000000
 11
317.0903452233775
 21
152.8111242438281
 31
0.000000000000000
  0
ARC
  5
169
100
AcDbEntity
  8
A5
  6
CONTINUOUS
 62
7
100
AcDbCircle
 10
317.1236781552516
 20
152.8111242438281
 30
0.000000000000000
 40
0.03333293187420450
100
AcDbArc
 50
180.0000000000000
 51
277.7929243354226
  0
ARC
  5
16A
100
AcDbEntity
  8
A5
  6
CONTINUOUS
 62
7
100
AcDbCircle
 10
316.5903512452643
 20
156.7080847079991
 30
0.000000000000000
 40
3.966618893030337
100
AcDbArc
 50
277.7929243354226
 51
280.1041827161251
  0
ARC
  5
16B
100
AcDbEntity
  8
A5
  6
CONTINUOUS
 62
7
100
AcDbCircle
 10
317.2570098827487
 20
152.9670663387614
 30
0.000000000000000
 40
0.1666646593710226
100
AcDbArc
 50
280.1041827161251
 51
360.0000000000000
  0
LINE
  5
16C
100
AcDbEntity
  8
A5
  6
CONTINUOUS
 62
7
100
AcDbLine
 10
317.4236745421196
 20
152.9670663387614
 30
0.000000000000000
 11
317.4236745421196
 21
153.9081184305631
 31
0.000000000000000
  0
LINE
  5
16D
100
AcDbEntity
  8
A5
  6
CONTINUOUS
 62
7
100
AcDbLine
 10
317.4236745421196
 20
153.9081184305631
 30
0.000000000000000
 11
317.2570098827487
 21
153.9081184305631
 31
0.000000000000000
  0
LINE
  5
16E
100
AcDbEntity
  8
A5
  6
CONTINUOUS
 62
7
100
AcDbLine
 10
317.7570038608616
 20
155.0038293856797
 30
0.000000000000000
 11
317.7570038608616
 21
152.9169124464069
 31
0.000000000000000
  0
LINE
  5
16F
100
AcDbEntity
  8
A5
  6
CONTINUOUS
 62
7
100
AcDbLine
 10
318.0903331796037
 20
154.8467937633189
 30
0.000000000000000
 11
318.0903331796037
 21
154.0747830899342
 31
0.000000000000000
  0
ARC
  5
170
100
AcDbEntity
  8
A5
  6
CONTINUOUS
 62
7
100
AcDbCircle
 10
318.2569978389746
 20
154.0747830899342
 30
0.000000000000000
 40
0.1666646593710234
100
AcDbArc
 50
180.0000000000000
 51
360.0000000000000
  0
LINE
  5
171
100
AcDbEntity
  8
A5
  6
CONTINUOUS
 62
7
100
AcDbLine
 10
318.4236624983457
 20
154.0747830899342
 30
0.000000000000000
 11
318.4236624983457
 21
154.7868757565695
 31
0.000000000000000
  0
LINE
  5
172
100
AcDbEntity
  8
A5
  6
CONTINUOUS
 62
7
100
AcDbLine
 10
318.2569978389746
 20
153.9081184305631
 30
0.000000000000000
 11
318.2569978389746
 21
153.1085910527443
 31
0.000000000000000
  0
LINE
  5
173
100
AcDbEntity
  8
A5
  6
CONTINUOUS
 62
7
100
AcDbLine
 10
318.5933821983122
 20
153.2843539294948
 30
0.000000000000000
 11
318.9699311633897
 21
154.6896537986971
 31
0.000000000000000
  0
LINE
  5
174
100
AcDbEntity
  8
A5
  6
CONTINUOUS
 62
7
100
AcDbLine
 10
319.4493867044584
 20
153.9081184305631
 30
0.000000000000000
 11
318.7605193926412
 21
153.9081184305631
 31
0.000000000000000
  0
ARC
  5
175
100
AcDbEntity
  8
A5
  6
CONTINUOUS
 62
7
100
AcDbCircle
 10
34.59035124526454
 20
176.4081184305867
 30
0.000000000000000
 40
2.000000000000000
100
AcDbArc
 50
0.000000000000000
 51
90.00000000000018
  0
ARC
  5
176
100
AcDbEntity
  8
A5
  6
CONTINUOUS
 62
7
100
AcDbCircle
 10
41.09035124526454
 20
176.4081184305867
 30
0.000000000000000
 40
2.000000000000000
100
AcDbArc
 50
0.000000000000000
 51
90.00000000000000
  0
ARC
  5
177
100
AcDbEntity
  8
A5
  6
CONTINUOUS
 62
7
100
AcDbCircle
 10
34.59035124526454
 20
140.4081184305867
 30
0.000000000000000
 40
2.000000000000000
100
AcDbArc
 50
269.9999999999997
 51
360.0000000000000
  0
ARC
  5
178
100
AcDbEntity
  8
A5
  6
CONTINUOUS
 62
7
100
AcDbCircle
 10
41.09035124526454
 20
140.4081184305867
 30
0.000000000000000
 40
2.000000000000000
100
AcDbArc
 50
269.9999999999996
 51
360.0000000000000
  0
LINE
  5
179
100
AcDbEntity
  8
A5
  6
CONTINUOUS
 62
7
100
AcDbLine
 10
135.5903512452604
 20
139.4081184306075
 30
0.000000000000000
 11
135.5903512452528
 21
147.4081184306074
 31
0.000000000000000
  0
LINE
  5
17A
100
AcDbEntity
  8
A5
  6
CONTINUOUS
 62
7
100
AcDbLine
 10
317.1599105174970
 20
172.9081184305869
 30
0.000000000000000
 11
316.2207919730319
 21
172.9081184305869
 31
0.000000000000000
  0
LINE
  5
17B
100
AcDbEntity
  8
A5
  6
CONTINUOUS
 62
7
100
AcDbLine
 10
313.8903512452645
 20
173.9081184305869
 30
0.000000000000000
 11
313.8903512452645
 21
171.9081184305869
 31
0.000000000000000
  0
LINE
  5
17C
100
AcDbEntity
  8
A5
  6
CONTINUOUS
 62
7
100
AcDbLine
 10
314.7153512452644
 20
173.9081184305869
 30
0.000000000000000
 11
314.7153512452644
 21
171.9081184305869
 31
0.000000000000000
  0
LINE
  5
17D
100
AcDbEntity
  8
A5
  6
CONTINUOUS
 62
7
100
AcDbLine
 10
315.8653512452644
 20
173.9081184305869
 30
0.000000000000000
 11
315.8653512452644
 21
171.9081184305869
 31
0.000000000000000
  0
LINE
  5
17E
100
AcDbEntity
  8
A5
  6
CONTINUOUS
 62
7
100
AcDbLine
 10
314.7153512452644
 20
172.9081184305869
 30
0.000000000000000
 11
315.8653512452644
 21
172.9081184305869
 31
0.000000000000000
  0
LINE
  5
17F
100
AcDbEntity
  8
A5
  6
CONTINUOUS
 62
7
100
AcDbLine
 10
314.4903512452644
 20
173.9081184305869
 30
0.000000000000000
 11
313.2903512452644
 21
173.9081184305869
 31
0.000000000000000
  0
LINE
  5
180
100
AcDbEntity
  8
A5
  6
CONTINUOUS
 62
7
100
AcDbLine
 10
317.5903512452645
 20
173.9081184305869
 30
0.000000000000000
 11
317.3463524780840
 21
173.3848613857726
 31
0.000000000000000
  0
LINE
  5
181
100
AcDbEntity
  8
A5
  6
CONTINUOUS
 62
7
100
AcDbLine
 10
317.5903512452644
 20
173.9081184305869
 30
0.000000000000000
 11
317.5903512452644
 21
171.9081184305869
 31
0.000000000000000
  0
LINE
  5
182
100
AcDbEntity
  8
A5
  6
CONTINUOUS
 62
7
100
AcDbLine
 10
318.7403512452644
 20
173.9081184305870
 30
0.000000000000000
 11
318.0403512452642
 21
172.6581184305869
 31
0.000000000000000
  0
LINE
  5
183
100
AcDbEntity
  8
A5
  6
CONTINUOUS
 62
7
100
AcDbLine
 10
318.0403512452643
 20
172.6581184305869
 30
0.000000000000000
 11
319.0403512452644
 21
172.6581184305869
 31
0.000000000000000
  0
LINE
  5
184
100
AcDbEntity
  8
A5
  6
CONTINUOUS
 62
7
100
AcDbLine
 10
318.7403512452644
 20
173.9081184305869
 30
0.000000000000000
 11
318.7403512452644
 21
171.9081184305869
 31
0.000000000000000
  0
LINE
  5
185
100
AcDbEntity
  8
A5
  6
CONTINUOUS
 62
7
100
AcDbLine
 10
319.8903512452644
 20
173.9081184305869
 30
0.000000000000000
 11
319.6463524780839
 21
173.3848613857726
 31
0.000000000000000
  0
LINE
  5
186
100
AcDbEntity
  8
A5
  6
CONTINUOUS
 62
7
100
AcDbLine
 10
319.8903512452644
 20
173.9081184305869
 30
0.000000000000000
 11
319.8903512452644
 21
171.9081184305869
 31
0.000000000000000
  0
LINE
  5
187
100
AcDbEntity
  8
A5
  6
CONTINUOUS
 62
7
100
AcDbLine
 10
321.2599105174970
 20
172.9081184305869
 30
0.000000000000000
 11
320.3207919730316
 21
172.9081184305869
 31
0.000000000000000
  0
ARC
  5
188
100
AcDbEntity
  8
A5
  6
CONTINUOUS
 62
7
100
AcDbCircle
 10
322.1903512452643
 20
173.4081184305869
 30
0.000000000000000
 40
0.5000000000000006
100
AcDbArc
 50
323.1301023541566
 51
540.0000000000000
  0
LINE
  5
189
100
AcDbEntity
  8
A5
  6
CONTINUOUS
 62
7
100
AcDbLine
 10
322.6903512452643
 20
171.9081184305869
 30
0.000000000000000
 11
321.6903512452643
 21
171.9081184305869
 31
0.000000000000000
  0
LINE
  5
18A
100
AcDbEntity
  8
A5
  6
CONTINUOUS
 62
7
100
AcDbLine
 10
322.5903512452643
 20
173.1081184305868
 30
0.000000000000000
 11
321.6903512452644
 21
171.9081184305868
 31
0.000000000000000
  0
ENDSEC
  0
SECTION
  2
OBJECTS
  0
DICTIONARY
  5
1B8
100
AcDbDictionary
  3
ACAD_GROUP
350
1B9
  3
ACAD_LAYOUT
350
1BA
  3
ACAD_MLINESTYLE
350
1BB
  0
DICTIONARY
  5
1B9
102
{ACAD_REACTORS
330
1B8
102
}
330
1B8
100
AcDbDictionary
  0
DICTIONARY
  5
1BA
102
{ACAD_REACTORS
330
1B8
102
}
330
1B8
100
AcDbDictionary
  3
Model
350
1BC
  3
ﾚｲｱｳﾄ1
350
1BD
  3
ﾚｲｱｳﾄ2
350
1BE
  0
DICTIONARY
  5
1BB
102
{ACAD_REACTORS
330
1B8
102
}
330
1B8
100
AcDbDictionary
  3
STANDARD
350
1BF
  0
LAYOUT
  5
1BC
102
{ACAD_REACTORS
330
1BA
102
}
330
1BA
100
AcDbPlotSettings
 70
11952
  4
A3
 44
297.000000
 45
420.000000
 73
  1
 72
  1
100
AcDbLayout
  1
Model
 71
0
330
1AF
  0
LAYOUT
  5
1BD
102
{ACAD_REACTORS
330
1BA
102
}
330
1BA
100
AcDbPlotSettings
100
AcDbLayout
  1
ﾚｲｱｳﾄ1
 71
1
330
1B0
  0
LAYOUT
  5
1BE
102
{ACAD_REACTORS
330
1BA
102
}
330
1BA
100
AcDbPlotSettings
100
AcDbLayout
  1
ﾚｲｱｳﾄ2
 71
2
330
1B1
  0
MLINESTYLE
  5
1BF
102
{ACAD_REACTORS
330
1BB
102
}
330
1BB
100
AcDbMlineStyle
  2
STANDARD
 70
     0
  3

 62
   256
 51
90.00
 52
90.00
 71
     2
 49
0.50
 62
   256
  6
BYLAYER
 49
-0.50
 62
   256
  6
BYLAYER
  0
ENDSEC
  0
EOF
