  0
SECTION
  2
HEADER
  9
$ACADVER
  1
AC1015
  9
$ACADMAINTVER
 70
    20
  9
$DWGCODEPAGE
  3
ANSI_932
  9
$INSBASE
 10
0.0
 20
0.0
 30
0.0
  9
$EXTMIN
 10
9.9999975266385
 20
10.0
 30
0.0
  9
$EXTMAX
 10
283.2558054268156
 20
209.4130949755606
 30
0.0
  9
$LIMMIN
 10
0.0000015376081137
 20
-0.0000001931532552
  9
$LIMMAX
 10
396.0000015376081
 20
272.9999998068465
  9
$ORTHOMODE
 70
     1
  9
$REGENMODE
 70
     1
  9
$FILLMODE
 70
     1
  9
$QTEXTMODE
 70
     0
  9
$MIRRTEXT
 70
     1
  9
$LTSCALE
 40
1.0
  9
$ATTMODE
 70
     1
  9
$TEXTSIZE
 40
2.5
  9
$TRACEWID
 40
1.0
  9
$TEXTSTYLE
  7
STANDARD
  9
$CLAYER
  8
0
  9
$CELTYPE
  6
BYLAYER
  9
$CECOLOR
 62
   256
  9
$CELTSCALE
 40
1.0
  9
$DISPSILH
 70
     0
  9
$DIMSCALE
 40
1.0
  9
$DIMASZ
 40
3.0
  9
$DIMEXO
 40
1.0
  9
$DIMDLI
 40
10.0
  9
$DIMRND
 40
0.0
  9
$DIMDLE
 40
0.0
  9
$DIMEXE
 40
1.0
  9
$DIMTP
 40
0.0
  9
$DIMTM
 40
0.0
  9
$DIMTXT
 40
3.2
  9
$DIMCEN
 40
0.0
  9
$DIMTSZ
 40
0.0
  9
$DIMTOL
 70
     0
  9
$DIMLIM
 70
     0
  9
$DIMTIH
 70
     0
  9
$DIMTOH
 70
     0
  9
$DIMSE1
 70
     0
  9
$DIMSE2
 70
     0
  9
$DIMTAD
 70
     3
  9
$DIMZIN
 70
     8
  9
$DIMBLK
  1

  9
$DIMASO
 70
     1
  9
$DIMSHO
 70
     1
  9
$DIMPOST
  1

  9
$DIMAPOST
  1

  9
$DIMALT
 70
     0
  9
$DIMALTD
 70
     2
  9
$DIMALTF
 40
25.4
  9
$DIMLFAC
 40
1.0
  9
$DIMTOFL
 70
     1
  9
$DIMTVP
 40
0.0
  9
$DIMTIX
 70
     0
  9
$DIMSOXD
 70
     0
  9
$DIMSAH
 70
     1
  9
$DIMBLK1
  1
OPEN
  9
$DIMBLK2
  1
OPEN
  9
$DIMSTYLE
  2
STANDARD
  9
$DIMCLRD
 70
     0
  9
$DIMCLRE
 70
     0
  9
$DIMCLRT
 70
     0
  9
$DIMTFAC
 40
1.0
  9
$DIMGAP
 40
1.0
  9
$DIMJUST
 70
     0
  9
$DIMSD1
 70
     0
  9
$DIMSD2
 70
     0
  9
$DIMTOLJ
 70
     1
  9
$DIMTZIN
 70
     0
  9
$DIMALTZ
 70
     0
  9
$DIMALTTZ
 70
     0
  9
$DIMUPT
 70
     0
  9
$DIMDEC
 70
     4
  9
$DIMTDEC
 70
     4
  9
$DIMALTU
 70
     2
  9
$DIMALTTD
 70
     2
  9
$DIMTXSTY
  7
STANDARD
  9
$DIMAUNIT
 70
     0
  9
$DIMADEC
 70
     0
  9
$DIMALTRND
 40
0.0
  9
$DIMAZIN
 70
     0
  9
$DIMDSEP
 70
    46
  9
$DIMATFIT
 70
     3
  9
$DIMFRAC
 70
     0
  9
$DIMLDRBLK
  1
OPEN
  9
$DIMLUNIT
 70
     2
  9
$DIMLWD
 70
    -2
  9
$DIMLWE
 70
    -2
  9
$DIMTMOVE
 70
     0
  9
$LUNITS
 70
     2
  9
$LUPREC
 70
     4
  9
$SKETCHINC
 40
1.0
  9
$FILLETRAD
 40
0.0
  9
$AUNITS
 70
     0
  9
$AUPREC
 70
     0
  9
$MENU
  1
.
  9
$ELEVATION
 40
0.0
  9
$PELEVATION
 40
0.0
  9
$THICKNESS
 40
0.0
  9
$LIMCHECK
 70
     0
  9
$CHAMFERA
 40
10.0
  9
$CHAMFERB
 40
10.0
  9
$CHAMFERC
 40
20.0
  9
$CHAMFERD
 40
0.0
  9
$SKPOLY
 70
     0
  9
$TDCREATE
 40
2455658.633546100
  9
$TDUCREATE
 40
2455658.258546100
  9
$TDUPDATE
 40
2457192.616803727
  9
$TDUUPDATE
 40
2457192.241803727
  9
$TDINDWG
 40
0.2830987616
  9
$TDUSRTIMER
 40
0.2830987616
  9
$USRTIMER
 70
     1
  9
$ANGBASE
 50
0.0
  9
$ANGDIR
 70
     0
  9
$PDMODE
 70
     0
  9
$PDSIZE
 40
0.0
  9
$PLINEWID
 40
0.0
  9
$SPLFRAME
 70
     0
  9
$SPLINETYPE
 70
     6
  9
$SPLINESEGS
 70
     8
  9
$HANDSEED
  5
2767
  9
$SURFTAB1
 70
     6
  9
$SURFTAB2
 70
     6
  9
$SURFTYPE
 70
     6
  9
$SURFU
 70
     6
  9
$SURFV
 70
     6
  9
$UCSBASE
  2

  9
$UCSNAME
  2

  9
$UCSORG
 10
0.0
 20
0.0
 30
0.0
  9
$UCSXDIR
 10
1.0
 20
0.0
 30
0.0
  9
$UCSYDIR
 10
0.0
 20
1.0
 30
0.0
  9
$UCSORTHOREF
  2

  9
$UCSORTHOVIEW
 70
     0
  9
$UCSORGTOP
 10
0.0
 20
0.0
 30
0.0
  9
$UCSORGBOTTOM
 10
0.0
 20
0.0
 30
0.0
  9
$UCSORGLEFT
 10
0.0
 20
0.0
 30
0.0
  9
$UCSORGRIGHT
 10
0.0
 20
0.0
 30
0.0
  9
$UCSORGFRONT
 10
0.0
 20
0.0
 30
0.0
  9
$UCSORGBACK
 10
0.0
 20
0.0
 30
0.0
  9
$PUCSBASE
  2

  9
$PUCSNAME
  2

  9
$PUCSORG
 10
0.0
 20
0.0
 30
0.0
  9
$PUCSXDIR
 10
1.0
 20
0.0
 30
0.0
  9
$PUCSYDIR
 10
0.0
 20
1.0
 30
0.0
  9
$PUCSORTHOREF
  2

  9
$PUCSORTHOVIEW
 70
     0
  9
$PUCSORGTOP
 10
0.0
 20
0.0
 30
0.0
  9
$PUCSORGBOTTOM
 10
0.0
 20
0.0
 30
0.0
  9
$PUCSORGLEFT
 10
0.0
 20
0.0
 30
0.0
  9
$PUCSORGRIGHT
 10
0.0
 20
0.0
 30
0.0
  9
$PUCSORGFRONT
 10
0.0
 20
0.0
 30
0.0
  9
$PUCSORGBACK
 10
0.0
 20
0.0
 30
0.0
  9
$USERI1
 70
     0
  9
$USERI2
 70
     0
  9
$USERI3
 70
     0
  9
$USERI4
 70
     0
  9
$USERI5
 70
     0
  9
$USERR1
 40
0.0
  9
$USERR2
 40
0.0
  9
$USERR3
 40
0.0
  9
$USERR4
 40
0.0
  9
$USERR5
 40
0.0
  9
$WORLDVIEW
 70
     1
  9
$SHADEDGE
 70
     3
  9
$SHADEDIF
 70
    70
  9
$TILEMODE
 70
     1
  9
$MAXACTVP
 70
    48
  9
$PINSBASE
 10
0.0
 20
0.0
 30
0.0
  9
$PLIMCHECK
 70
     0
  9
$PEXTMIN
 10
1.000000000000000E+20
 20
1.000000000000000E+20
 30
1.000000000000000E+20
  9
$PEXTMAX
 10
-1.000000000000000E+20
 20
-1.000000000000000E+20
 30
-1.000000000000000E+20
  9
$PLIMMIN
 10
0.0
 20
0.0
  9
$PLIMMAX
 10
420.0
 20
297.0
  9
$UNITMODE
 70
     0
  9
$VISRETAIN
 70
     1
  9
$PLINEGEN
 70
     0
  9
$PSLTSCALE
 70
     1
  9
$TREEDEPTH
 70
  3020
  9
$CMLSTYLE
  2
STANDARD
  9
$CMLJUST
 70
     0
  9
$CMLSCALE
 40
20.0
  9
$PROXYGRAPHICS
 70
     1
  9
$MEASUREMENT
 70
     0
  9
$CELWEIGHT
370
    -1
  9
$ENDCAPS
280
     0
  9
$JOINSTYLE
280
     0
  9
$LWDISPLAY
290
     0
  9
$INSUNITS
 70
     0
  9
$HYPERLINKBASE
  1

  9
$STYLESHEET
  1

  9
$XEDIT
290
     1
  9
$CEPSNTYPE
380
     0
  9
$PSTYLEMODE
290
     1
  9
$FINGERPRINTGUID
  2
{70745A7A-F21E-4B2A-BB1D-7C5195DAFE68}
  9
$VERSIONGUID
  2
{84523A21-0B58-4AA3-A918-462D6941B8B6}
  9
$EXTNAMES
290
     1
  9
$PSVPSCALE
 40
0.0
  9
$OLESTARTUP
290
     0
  0
ENDSEC
  0
SECTION
  2
CLASSES
  0
CLASS
  1
ACDBDICTIONARYWDFLT
  2
AcDbDictionaryWithDefault
  3
ObjectDBX Classes
 90
        0
280
     0
281
     0
  0
CLASS
  1
ACDBPLACEHOLDER
  2
AcDbPlaceHolder
  3
ObjectDBX Classes
 90
        0
280
     0
281
     0
  0
CLASS
  1
LAYOUT
  2
AcDbLayout
  3
ObjectDBX Classes
 90
        0
280
     0
281
     0
  0
CLASS
  1
MATERIAL
  2
AcDbMaterial
  3
ObjectDBX Classes
 90
     1153
280
     0
281
     0
  0
CLASS
  1
VISUALSTYLE
  2
AcDbVisualStyle
  3
ObjectDBX Classes
 90
     4095
280
     0
281
     0
  0
CLASS
  1
TABLESTYLE
  2
AcDbTableStyle
  3
ObjectDBX Classes
 90
     4095
280
     0
281
     0
  0
CLASS
  1
SCALE
  2
AcDbScale
  3
ObjectDBX Classes
 90
     1153
280
     0
281
     0
  0
CLASS
  1
MLEADERSTYLE
  2
AcDbMLeaderStyle
  3
ACDB_MLEADERSTYLE_CLASS
 90
     4095
280
     0
281
     0
  0
CLASS
  1
ACDBSECTIONVIEWSTYLE
  2
AcDbSectionViewStyle
  3
ObjectDBX Classes
 90
     1025
280
     0
281
     0
  0
CLASS
  1
ACDBDETAILVIEWSTYLE
  2
AcDbDetailViewStyle
  3
ObjectDBX Classes
 90
     1025
280
     0
281
     0
  0
CLASS
  1
DICTIONARYVAR
  2
AcDbDictionaryVar
  3
ObjectDBX Classes
 90
        0
280
     0
281
     0
  0
CLASS
  1
CELLSTYLEMAP
  2
AcDbCellStyleMap
  3
ObjectDBX Classes
 90
     1152
280
     0
281
     0
  0
ENDSEC
  0
SECTION
  2
TABLES
  0
TABLE
  2
VPORT
  5
8
330
0
100
AcDbSymbolTable
 70
     1
  0
VPORT
  5
26B1
330
8
100
AcDbSymbolTableRecord
100
AcDbViewportTableRecord
  2
*ACTIVE
 70
     0
 10
0.0
 20
0.0
 11
1.0
 21
1.0
 12
226.6628668181229
 22
109.7044605553231
 13
0.0
 23
0.0
 14
10.0
 24
10.0
 15
10.0
 25
10.0
 16
0.0
 26
0.0
 36
1.0
 17
0.0
 27
0.0
 37
0.0
 40
200.999227672737
 41
1.899603698811096
 42
50.0
 43
0.0
 44
0.0
 50
0.0
 51
0.0
 71
     0
 72
   100
 73
     1
 74
     0
 75
     0
 76
     0
 77
     0
 78
     0
281
     0
 65
     1
110
0.0
120
0.0
130
0.0
111
1.0
121
0.0
131
0.0
112
0.0
122
1.0
132
0.0
 79
     0
146
0.0
1001
ACAD_NAV_VCDISPLAY
1070
     3
  0
ENDTAB
  0
TABLE
  2
LTYPE
  5
5
330
0
100
AcDbSymbolTable
 70
     4
  0
LTYPE
  5
12
330
5
100
AcDbSymbolTableRecord
100
AcDbLinetypeTableRecord
  2
BYBLOCK
 70
     0
  3

 72
    65
 73
     0
 40
0.0
  0
LTYPE
  5
13
330
5
100
AcDbSymbolTableRecord
100
AcDbLinetypeTableRecord
  2
BYLAYER
 70
     0
  3

 72
    65
 73
     0
 40
0.0
  0
LTYPE
  5
14
330
5
100
AcDbSymbolTableRecord
100
AcDbLinetypeTableRecord
  2
CONTINUOUS
 70
     0
  3
Solid line
 72
    65
 73
     0
 40
0.0
  0
LTYPE
  5
4B
330
5
100
AcDbSymbolTableRecord
100
AcDbLinetypeTableRecord
  2
DASHED
 70
     0
  3
Dashed __ __ __ __ __ __ __ __ __ __ __ __ __ _
 72
    65
 73
     2
 40
19.04999999999999
 49
12.7
 74
     0
 49
-6.349999999999998
 74
     0
  0
LTYPE
  5
4C
330
5
100
AcDbSymbolTableRecord
100
AcDbLinetypeTableRecord
  2
CENTER
 70
     0
  3
Center ____ _ ____ _ ____ _ ____ _ ____ _ ____
 72
    65
 73
     4
 40
50.8
 49
31.75
 74
     0
 49
-6.349999999999998
 74
     0
 49
6.349999999999998
 74
     0
 49
-6.349999999999998
 74
     0
  0
LTYPE
  5
4D
330
5
100
AcDbSymbolTableRecord
100
AcDbLinetypeTableRecord
  2
PHANTOM
 70
     0
  3
Phantom ______  __  __  ______  __  __  ______
 72
    65
 73
     6
 40
63.5
 49
31.75
 74
     0
 49
-6.349999999999998
 74
     0
 49
6.349999999999998
 74
     0
 49
-6.349999999999998
 74
     0
 49
6.349999999999998
 74
     0
 49
-6.349999999999998
 74
     0
  0
ENDTAB
  0
TABLE
  2
LAYER
  5
2
330
0
100
AcDbSymbolTable
 70
     8
  0
LAYER
  5
E
102
{ACAD_XDICTIONARY
360
270B
102
}
330
2
100
AcDbSymbolTableRecord
100
AcDbLayerTableRecord
  2
0
 70
     0
 62
     7
  6
CONTINUOUS
370
    -3
390
26BA
  0
LAYER
  5
4E
102
{ACAD_XDICTIONARY
360
270D
102
}
330
2
100
AcDbSymbolTableRecord
100
AcDbLayerTableRecord
  2
4
 70
     0
 62
     1
  6
CENTER
370
    -3
390
26BA
  0
LAYER
  5
4F
102
{ACAD_XDICTIONARY
360
270F
102
}
330
2
100
AcDbSymbolTableRecord
100
AcDbLayerTableRecord
  2
5
 70
     0
 62
     6
  6
PHANTOM
370
    -3
390
26BA
  0
LAYER
  5
50
102
{ACAD_XDICTIONARY
360
2711
102
}
330
2
100
AcDbSymbolTableRecord
100
AcDbLayerTableRecord
  2
1
 70
     0
 62
     7
  6
CONTINUOUS
370
    -3
390
26BA
  0
LAYER
  5
51
102
{ACAD_XDICTIONARY
360
2713
102
}
330
2
100
AcDbSymbolTableRecord
100
AcDbLayerTableRecord
  2
2
 70
     0
 62
     4
  6
CONTINUOUS
370
    -3
390
26BA
  0
LAYER
  5
52
102
{ACAD_XDICTIONARY
360
2715
102
}
330
2
100
AcDbSymbolTableRecord
100
AcDbLayerTableRecord
  2
3
 70
     0
 62
     2
  6
DASHED
370
    -3
390
26BA
  0
LAYER
  5
53
102
{ACAD_XDICTIONARY
360
2717
102
}
330
2
100
AcDbSymbolTableRecord
100
AcDbLayerTableRecord
  2
6
 70
     0
 62
     5
  6
CONTINUOUS
370
    -3
390
26BA
  0
LAYER
  5
54
102
{ACAD_XDICTIONARY
360
2719
102
}
330
2
100
AcDbSymbolTableRecord
100
AcDbLayerTableRecord
  2
7
 70
     0
 62
     3
  6
CONTINUOUS
370
    -3
390
26BA
  0
ENDTAB
  0
TABLE
  2
STYLE
  5
3
330
0
100
AcDbSymbolTable
 70
     1
  0
STYLE
  5
F
330
3
100
AcDbSymbolTableRecord
100
AcDbTextStyleTableRecord
  2
STANDARD
 70
     0
 40
0.0
 41
1.0
 50
0.0
 71
     0
 42
2.5
  3
simplex.shx
  4

  0
ENDTAB
  0
TABLE
  2
VIEW
  5
6
330
0
100
AcDbSymbolTable
 70
     0
  0
ENDTAB
  0
TABLE
  2
UCS
  5
7
330
0
100
AcDbSymbolTable
 70
     0
  0
ENDTAB
  0
TABLE
  2
APPID
  5
9
330
0
100
AcDbSymbolTable
 70
     5
  0
APPID
  5
10
330
9
100
AcDbSymbolTableRecord
100
AcDbRegAppTableRecord
  2
ACAD
 70
     0
  0
APPID
  5
3E
330
9
100
AcDbSymbolTableRecord
100
AcDbRegAppTableRecord
  2
CONTENTTABDATA
 70
     0
  0
APPID
  5
3F
330
9
100
AcDbSymbolTableRecord
100
AcDbRegAppTableRecord
  2
CONTENTCURRENTTAB
 70
     0
  0
APPID
  5
2725
330
9
100
AcDbSymbolTableRecord
100
AcDbRegAppTableRecord
  2
ACAD_NAV_VCDISPLAY
 70
     0
  0
APPID
  5
275E
330
9
100
AcDbSymbolTableRecord
100
AcDbRegAppTableRecord
  2
ACAD_MLEADERVER
 70
     0
  0
ENDTAB
  0
TABLE
  2
DIMSTYLE
  5
A
330
0
100
AcDbSymbolTable
 70
     1
100
AcDbDimStyleTable
 71
     0
  0
DIMSTYLE
105
1D
330
A
100
AcDbSymbolTableRecord
100
AcDbDimStyleTableRecord
  2
STANDARD
 70
     0
 41
3.0
 42
1.0
 43
10.0
 44
1.0
 73
     0
 74
     0
 77
     3
 78
     8
140
3.2
141
0.0
147
1.0
172
     1
173
     1
340
F
341
2E
343
2E
344
2E
  0
ENDTAB
  0
TABLE
  2
BLOCK_RECORD
  5
1
330
0
100
AcDbSymbolTable
 70
     1
  0
BLOCK_RECORD
  5
18
102
{ACAD_XDICTIONARY
360
26B4
102
}
330
1
100
AcDbSymbolTableRecord
100
AcDbBlockTableRecord
  2
*MODEL_SPACE
340
2708
  0
BLOCK_RECORD
  5
15
102
{ACAD_XDICTIONARY
360
26B2
102
}
330
1
100
AcDbSymbolTableRecord
100
AcDbBlockTableRecord
  2
*PAPER_SPACE
340
2709
  0
BLOCK_RECORD
  5
2E
330
1
100
AcDbSymbolTableRecord
100
AcDbBlockTableRecord
  2
_OPEN
340
0
  0
ENDTAB
  0
ENDSEC
  0
SECTION
  2
BLOCKS
  0
BLOCK
  5
19
330
18
100
AcDbEntity
  8
0
100
AcDbBlockBegin
  2
*MODEL_SPACE
 70
     0
 10
0.0
 20
0.0
 30
0.0
  3
*MODEL_SPACE
  1

  0
ENDBLK
  5
1A
330
18
100
AcDbEntity
  8
0
100
AcDbBlockEnd
  0
BLOCK
  5
16
330
15
100
AcDbEntity
 67
     1
  8
0
100
AcDbBlockBegin
  2
*PAPER_SPACE
 70
     0
 10
0.0
 20
0.0
 30
0.0
  3
*PAPER_SPACE
  1

  0
ENDBLK
  5
17
330
15
100
AcDbEntity
 67
     1
  8
0
100
AcDbBlockEnd
  0
BLOCK
  5
2F
330
2E
100
AcDbEntity
  8
0
100
AcDbBlockBegin
  2
_OPEN
 70
     0
 10
0.0
 20
0.0
 30
0.0
  3
_OPEN
  1

  0
LINE
  5
30
330
2E
100
AcDbEntity
  8
0
  6
ByBlock
 62
     0
100
AcDbLine
 10
-1.0
 20
0.1666666666666666
 30
0.0
 11
0.0
 21
0.0
 31
0.0
  0
LINE
  5
31
330
2E
100
AcDbEntity
  8
0
  6
ByBlock
 62
     0
100
AcDbLine
 10
0.0
 20
0.0
 30
0.0
 11
-1.0
 21
-0.1666666666666666
 31
0.0
  0
LINE
  5
32
330
2E
100
AcDbEntity
  8
0
  6
ByBlock
 62
     0
100
AcDbLine
 10
0.0
 20
0.0
 30
0.0
 11
-1.0
 21
0.0
 31
0.0
  0
ENDBLK
  5
33
330
2E
100
AcDbEntity
  8
0
100
AcDbBlockEnd
  0
ENDSEC
  0
SECTION
  2
ENTITIES
  0
TEXT
  5
63
330
18
100
AcDbEntity
  8
4
  6
CENTER
 48
0.25
100
AcDbText
 10
23.97950852663849
 20
10.0
 30
0.0
 40
1.399999999999999
  1
4
100
AcDbText
  0
TEXT
  5
64
330
18
100
AcDbEntity
  8
7
  6
Continuous
 48
0.25
100
AcDbText
 10
9.999997526638502
 20
26.0000007607689
 30
0.0
 40
3.0
  1
CODE No.2779
100
AcDbText
  0
TEXT
  5
65
330
18
100
AcDbEntity
  8
7
  6
Continuous
 48
0.25
100
AcDbText
 10
9.999997526638502
 20
18.00000076076889
 30
0.0
 40
3.0
  1
TYPE No.TH-158-A
100
AcDbText
  0
TEXT
  5
66
330
18
100
AcDbEntity
  8
1
  6
Continuous
 48
0.25
100
AcDbText
 10
9.999997526638502
 20
10.00000076076889
 30
0.0
 40
1.399999999999999
  1
LAYER
100
AcDbText
  0
TEXT
  5
67
330
18
100
AcDbEntity
  8
2
  6
Continuous
 48
0.25
100
AcDbText
 10
19.9795085266385
 20
10.0
 30
0.0
 40
1.399999999999999
  1
2
100
AcDbText
  0
TEXT
  5
68
330
18
100
AcDbEntity
  8
3
  6
DASHED
 48
0.25
100
AcDbText
 10
21.9795085266385
 20
10.0
 30
0.0
 40
1.399999999999999
  1
3
100
AcDbText
  0
TEXT
  5
69
330
18
100
AcDbEntity
  8
1
  6
Continuous
 48
0.25
100
AcDbText
 10
17.9795085266385
 20
10.0
 30
0.0
 40
1.399999999999999
  1
1
100
AcDbText
  0
TEXT
  5
6A
330
18
100
AcDbEntity
  8
5
  6
PHANTOM
 48
0.25
100
AcDbText
 10
25.9795085266385
 20
10.0
 30
0.0
 40
1.399999999999999
  1
5
100
AcDbText
  0
TEXT
  5
6B
330
18
100
AcDbEntity
  8
6
  6
Continuous
 48
0.25
100
AcDbText
 10
27.9795085266385
 20
10.0
 30
0.0
 40
1.399999999999999
  1
6
100
AcDbText
  0
TEXT
  5
6C
330
18
100
AcDbEntity
  8
7
  6
Continuous
 48
0.25
100
AcDbText
 10
29.9795085266385
 20
10.0
 30
0.0
 40
1.399999999999999
  1
7
100
AcDbText
  0
LINE
  5
480
330
18
100
AcDbEntity
  8
1
  6
Continuous
100
AcDbLine
 10
100.7477863092656
 20
126.6192466774133
 30
0.0
 11
102.7477863092656
 21
126.6192466774139
 31
0.0
  0
LINE
  5
482
330
18
100
AcDbEntity
  8
1
  6
Continuous
100
AcDbLine
 10
102.7477863092695
 20
114.6192466774139
 30
0.0
 11
102.7477863092655
 21
126.6192466774139
 31
0.0
  0
LINE
  5
483
330
18
100
AcDbEntity
  8
1
  6
Continuous
100
AcDbLine
 10
100.7477863092695
 20
114.6192466774134
 30
0.0
 11
102.7477863092695
 21
114.6192466774139
 31
0.0
  0
LINE
  5
484
330
18
100
AcDbEntity
  8
1
  6
Continuous
100
AcDbLine
 10
100.7477863092695
 20
114.6192466774134
 30
0.0
 11
100.7477863092655
 21
126.6192466774133
 31
0.0
  0
LINE
  5
4E3
330
18
100
AcDbEntity
  8
5
  6
PHANTOM
 48
0.25
100
AcDbLine
 10
111.0977863093245
 20
188.8130949755607
 30
0.0
 11
91.09778630932439
 21
188.8130949755607
 31
0.0
  0
LINE
  5
4E4
330
18
100
AcDbEntity
  8
5
  6
PHANTOM
 48
0.25
100
AcDbLine
 10
91.09778630932439
 20
193.3130949755607
 30
0.0
 11
91.09778630932439
 21
188.8130949755607
 31
0.0
  0
ARC
  5
4E5
330
18
100
AcDbEntity
  8
5
  6
PHANTOM
 48
0.25
100
AcDbCircle
 10
91.59778630932439
 20
193.3130949755607
 30
0.0
 40
0.5
100
AcDbArc
 50
90.0
 51
180.0
  0
ARC
  5
4E6
330
18
100
AcDbEntity
  8
5
  6
PHANTOM
 48
0.25
100
AcDbCircle
 10
100.6694595020173
 20
198.8130949755607
 30
0.0
 40
5.0
100
AcDbArc
 50
270.0
 51
341.4469954649796
  0
LINE
  5
4E7
330
18
100
AcDbEntity
  8
5
  6
PHANTOM
 48
0.25
100
AcDbLine
 10
100.6694595020173
 20
193.8130949755607
 30
0.0
 11
91.59778630932439
 21
193.8130949755607
 31
0.0
  0
LINE
  5
4E8
330
18
100
AcDbEntity
  8
5
  6
PHANTOM
 48
0.25
100
AcDbLine
 10
117.5977863093245
 20
195.3130949755607
 30
0.0
 11
117.5977863093245
 21
175.3130949755606
 31
0.0
  0
LINE
  5
4E9
330
18
100
AcDbEntity
  8
5
  6
PHANTOM
 48
0.25
100
AcDbLine
 10
113.0977863093245
 20
175.3130949755606
 30
0.0
 11
117.5977863093245
 21
175.3130949755606
 31
0.0
  0
ARC
  5
4EA
330
18
100
AcDbEntity
  8
5
  6
PHANTOM
 48
0.25
100
AcDbCircle
 10
113.0977863093245
 20
175.8130949755605
 30
0.0
 40
0.5
100
AcDbArc
 50
180.0
 51
270.0
  0
ARC
  5
4EB
330
18
100
AcDbEntity
  8
5
  6
PHANTOM
 48
0.25
100
AcDbCircle
 10
107.5977863093245
 20
184.8847681682535
 30
0.0
 40
5.0
100
AcDbArc
 50
0.0
 51
71.44699546497959
  0
LINE
  5
4EC
330
18
100
AcDbEntity
  8
5
  6
PHANTOM
 48
0.25
100
AcDbLine
 10
112.5977863093245
 20
184.8847681682535
 30
0.0
 11
112.5977863093245
 21
175.8130949755606
 31
0.0
  0
LINE
  5
52B
330
18
100
AcDbEntity
  8
4
  6
CENTER
 48
0.25
100
AcDbLine
 10
111.0977863092676
 20
148.6192466773911
 30
0.0
 11
111.0977863092675
 21
92.61924667739114
 31
0.0
  0
LINE
  5
52C
330
18
100
AcDbEntity
  8
4
  6
CENTER
 48
0.25
100
AcDbLine
 10
136.0977863092675
 20
120.6192466774168
 30
0.0
 11
86.09778630926758
 21
120.6192466774168
 31
0.0
  0
LINE
  5
533
330
18
100
AcDbEntity
  8
1
  6
Continuous
100
AcDbLine
 10
129.0977863092674
 20
134.6192466773912
 30
0.0
 11
129.0977863092674
 21
106.6192466773909
 31
0.0
  0
LINE
  5
534
330
18
100
AcDbEntity
  8
1
  6
Continuous
100
AcDbLine
 10
123.0977863092673
 20
106.6192466773909
 30
0.0
 11
123.0977863092672
 21
134.6192466773912
 31
0.0
  0
ARC
  5
549
330
18
100
AcDbEntity
  8
1
  6
Continuous
100
AcDbCircle
 10
126.0977863092674
 20
106.6192466773909
 30
0.0
 40
3.000000000000028
100
AcDbArc
 50
180.0
 51
0.0
  0
ARC
  5
54B
330
18
100
AcDbEntity
  8
1
  6
Continuous
100
AcDbCircle
 10
126.0977863092674
 20
134.6192466773912
 30
0.0
 40
3.000000000000028
100
AcDbArc
 50
0.0
 51
180.0
  0
ARC
  5
54C
330
18
100
AcDbEntity
  8
1
  6
Continuous
100
AcDbCircle
 10
104.0977863093106
 20
196.113859477646
 30
0.0
 40
0.5
100
AcDbArc
 50
231.4401241028845
 51
0.0
  0
LINE
  5
54D
330
18
100
AcDbEntity
  8
1
  6
Continuous
100
AcDbLine
 10
104.5977863093105
 20
196.1138594776468
 30
0.0
 11
104.5977863093006
 21
201.8130949755776
 31
0.0
  0
ARC
  5
54E
330
18
100
AcDbEntity
  8
1
  6
Continuous
100
AcDbCircle
 10
103.5977863092788
 20
142.6192466774183
 30
0.0
 40
1.0
100
AcDbArc
 50
0.000000000018705
 51
90.00000000001872
  0
ARC
  5
54F
330
18
100
AcDbEntity
  8
1
  6
Continuous
100
AcDbCircle
 10
103.5977863093171
 20
98.61924667741837
 30
0.0
 40
1.0
100
AcDbArc
 50
270.0000000000187
 51
0.000000000018705
  0
LINE
  5
550
330
18
100
AcDbEntity
  8
1
  6
Continuous
100
AcDbLine
 10
92.94778630926286
 20
134.6192466774142
 30
0.0
 11
92.94778630927218
 21
106.619246677414
 31
0.0
  0
LINE
  5
551
330
18
100
AcDbEntity
  8
1
  6
Continuous
100
AcDbLine
 10
99.24778630927221
 20
106.6192466774161
 30
0.0
 11
99.24778630926301
 21
134.6192466774163
 31
0.0
  0
ARC
  5
55C
330
18
100
AcDbEntity
  8
1
  6
Continuous
100
AcDbCircle
 10
96.09778630926108
 20
134.6192466774153
 30
0.0
 40
3.149999999999999
100
AcDbArc
 50
0.000000000018705
 51
180.0000000000187
  0
ARC
  5
567
330
18
100
AcDbEntity
  8
1
  6
Continuous
100
AcDbCircle
 10
96.0977863092723
 20
106.619246677415
 30
0.0
 40
3.149999999999999
100
AcDbArc
 50
180.0000000000187
 51
0.000000000018705
  0
LINE
  5
568
330
18
100
AcDbEntity
  8
1
  6
Continuous
100
AcDbLine
 10
104.597786309306
 20
111.2192466774186
 30
0.0
 11
104.597786309317
 21
98.61924667741915
 31
0.0
  0
LINE
  5
569
330
18
100
AcDbEntity
  8
1
  6
Continuous
100
AcDbLine
 10
104.5977863092788
 20
142.6192466774191
 30
0.0
 11
104.5977863092897
 21
130.0192466774186
 31
0.0
  0
LINE
  5
56D
330
18
100
AcDbEntity
  8
1
  6
Continuous
100
AcDbLine
 10
117.0977863092578
 20
130.0192466774227
 30
0.0
 11
117.0977863092609
 21
111.2192466774228
 31
0.0
  0
ARC
  5
56E
330
18
100
AcDbEntity
  8
1
  6
Continuous
100
AcDbCircle
 10
94.09778630925908
 20
140.619246677415
 30
0.0
 40
3.0
100
AcDbArc
 50
90.00000000001872
 51
180.0000000000187
  0
ARC
  5
56F
330
18
100
AcDbEntity
  8
1
  6
Continuous
100
AcDbCircle
 10
94.09778630927419
 20
100.6192466774151
 30
0.0
 40
3.0
100
AcDbArc
 50
180.0000000000187
 51
270.0000000000187
  0
LINE
  5
570
330
18
100
AcDbEntity
  8
1
  6
Continuous
100
AcDbLine
 10
91.09778630926099
 20
140.6192466774141
 30
0.0
 11
91.09778630927415
 21
100.6192466774141
 31
0.0
  0
LINE
  5
571
330
18
100
AcDbEntity
  8
1
  6
Continuous
100
AcDbLine
 10
104.597786309285
 20
130.0192466774186
 30
0.0
 11
117.0977863092585
 21
130.0192466774227
 31
0.0
  0
LINE
  5
572
330
18
100
AcDbEntity
  8
1
  6
Continuous
100
AcDbLine
 10
104.597786309309
 20
111.2192466774186
 30
0.0
 11
117.0977863092616
 21
111.2192466774227
 31
0.0
  0
LINE
  5
573
330
18
100
AcDbEntity
  8
1
  6
Continuous
100
AcDbLine
 10
94.09778630925812
 20
143.619246677415
 30
0.0
 11
103.5977863092785
 21
143.6192466774182
 31
0.0
  0
LINE
  5
574
330
18
100
AcDbEntity
  8
1
  6
Continuous
100
AcDbLine
 10
94.09778630927515
 20
97.61924667741517
 30
0.0
 11
103.5977863093173
 21
97.6192466774184
 31
0.0
  0
LINE
  5
576
330
18
100
AcDbEntity
  8
1
  6
Continuous
100
AcDbLine
 10
92.62166374440715
 20
204.8130949755111
 30
0.0
 11
93.6663109984372
 21
206.813094975514
 31
0.0
  0
LINE
  5
577
330
18
100
AcDbEntity
  8
1
  6
Continuous
100
AcDbLine
 10
92.62166374440715
 20
204.8130949755111
 30
0.0
 11
93.1397464177572
 21
201.8130949755126
 31
0.0
  0
LINE
  5
579
330
18
100
AcDbEntity
  8
1
  6
Continuous
100
AcDbLine
 10
93.6663109984372
 20
206.813094975514
 30
0.0
 11
95.03713969183218
 21
206.8130949755176
 31
0.0
  0
LINE
  5
57A
330
18
100
AcDbEntity
  8
1
  6
Continuous
100
AcDbLine
 10
92.62166374440715
 20
204.8130949755111
 30
0.0
 11
95.26139833882206
 21
204.8130949755182
 31
0.0
  0
LINE
  5
581
330
18
100
AcDbEntity
  8
4
  6
CENTER
 48
0.25
100
AcDbLine
 10
102.0977863093245
 20
195.3130949755365
 30
0.0
 11
120.0977863093245
 21
195.3130949755848
 31
0.0
  0
CIRCLE
  5
582
330
18
100
AcDbEntity
  8
1
  6
Continuous
100
AcDbCircle
 10
111.0977863093244
 20
195.3130949755607
 30
0.0
 40
2.049999999999998
  0
LINE
  5
583
330
18
100
AcDbEntity
  8
4
  6
CENTER
 48
0.25
100
AcDbLine
 10
96.09778630928666
 20
209.4130949755205
 30
0.0
 11
96.09778630932574
 21
194.8130949755205
 31
0.0
  0
ARC
  5
584
330
18
100
AcDbEntity
  8
1
  6
Continuous
100
AcDbCircle
 10
100.6694595020267
 20
191.8130949755327
 30
0.0
 40
5.0
100
AcDbArc
 50
18.55300453517411
 51
90.0
  0
ARC
  5
585
330
18
100
AcDbEntity
  8
1
  6
Continuous
100
AcDbCircle
 10
91.59778630931901
 20
197.3130949755084
 30
0.0
 40
0.5
100
AcDbArc
 50
180.000000000153
 51
270.000000000153
  0
LINE
  5
586
330
18
100
AcDbEntity
  8
1
  6
Continuous
100
AcDbLine
 10
100.6694595020133
 20
196.8130949755327
 30
0.0
 11
91.59778630932041
 21
196.8130949755084
 31
0.0
  0
LINE
  5
587
330
18
100
AcDbEntity
  8
1
  6
Continuous
100
AcDbLine
 10
91.09778630931913
 20
197.3130949755071
 30
0.0
 11
91.097786309307
 21
201.8130949755071
 31
0.0
  0
LINE
  5
588
330
18
100
AcDbEntity
  8
1
  6
Continuous
100
AcDbLine
 10
111.0977863093083
 20
201.3130949755606
 30
0.0
 11
111.0977863093074
 21
201.8130949755607
 31
0.0
  0
LINE
  5
589
330
18
100
AcDbEntity
  8
1
  6
Continuous
100
AcDbLine
 10
131.0977863093246
 20
201.8130949756142
 30
0.0
 11
91.097786309307
 21
201.8130949755071
 31
0.0
  0
ARC
  5
58B
330
18
100
AcDbEntity
  8
1
  6
Continuous
100
AcDbCircle
 10
111.0977863093245
 20
195.3130949755607
 30
0.0
 40
6.0
100
AcDbArc
 50
127.1807557814565
 51
341.4469954649796
  0
ARC
  5
58C
330
18
100
AcDbEntity
  8
1
  6
Continuous
100
AcDbCircle
 10
111.0977863093245
 20
195.3130949755607
 30
0.0
 40
6.0
100
AcDbArc
 50
90.0
 51
112.8192442185413
  0
ARC
  5
58F
330
18
100
AcDbEntity
  8
1
  6
Continuous
100
AcDbCircle
 10
111.0977863093246
 20
195.3130949755607
 30
0.0
 40
4.75
100
AcDbArc
 50
132.0005331142082
 51
137.1046351766438
  0
ARC
  5
590
330
18
100
AcDbEntity
  8
1
  6
Continuous
100
AcDbCircle
 10
111.0977863093246
 20
195.3130949755607
 30
0.0
 40
4.75
100
AcDbArc
 50
102.8953648233564
 51
107.9994668857906
  0
LINE
  5
591
330
18
100
AcDbEntity
  8
4
  6
CENTER
 48
0.05
100
AcDbLine
 10
110.1493084628961
 20
198.6672856951636
 30
0.0
 11
110.1493084628961
 21
200.2474239875837
 31
0.0
  0
LINE
  5
592
330
18
100
AcDbEntity
  8
4
  6
CENTER
 48
0.05
100
AcDbLine
 10
109.3606873626316
 20
199.4559067954283
 30
0.0
 11
110.9379295631611
 21
199.4559067954283
 31
0.0
  0
ARC
  5
594
330
18
100
AcDbEntity
  8
1
  6
Continuous
100
AcDbCircle
 10
107.7186418283053
 20
199.0659449028022
 30
0.0
 40
0.3
100
AcDbArc
 50
312.0005331142094
 51
30.00000000000012
  0
ARC
  5
595
330
18
100
AcDbEntity
  8
1
  6
Continuous
100
AcDbCircle
 10
109.5372951762526
 20
200.1159449028022
 30
0.0
 40
0.3
100
AcDbArc
 50
210.0000000000008
 51
287.9994668857897
  0
ARC
  5
596
330
18
100
AcDbEntity
  8
1
  6
Continuous
100
AcDbCircle
 10
111.0977863093246
 20
195.3130949755607
 30
0.0
 40
3.75
100
AcDbArc
 50
102.8953648233564
 51
137.1046351766438
  0
ARC
  5
597
330
18
100
AcDbEntity
  8
1
  6
Continuous
100
AcDbCircle
 10
110.1493084628961
 20
199.4559067954283
 30
0.0
 40
0.5
100
AcDbArc
 50
282.8953648233564
 51
102.8953648233564
  0
ARC
  5
598
330
18
100
AcDbEntity
  8
1
  6
Continuous
100
AcDbCircle
 10
107.9842449534351
 20
198.2059067954283
 30
0.0
 40
0.5
100
AcDbArc
 50
137.1046351766438
 51
317.1046351766439
  0
ARC
  5
599
330
18
100
AcDbEntity
  8
4
  6
CENTER
 48
0.05
100
AcDbCircle
 10
111.0977863093246
 20
195.3130949755607
 30
0.0
 40
4.25
100
AcDbArc
 50
92.23546140322667
 51
146.642931088711
  0
LINE
  5
59A
330
18
100
AcDbEntity
  8
1
  6
Continuous
100
AcDbLine
 10
109.2774875551172
 20
199.9659449028021
 30
0.0
 11
108.7708351372152
 21
200.843492632386
 31
0.0
  0
LINE
  5
59B
330
18
100
AcDbEntity
  8
1
  6
Continuous
100
AcDbLine
 10
107.9784494494406
 20
199.2159449028022
 30
0.0
 11
107.4717970315386
 21
200.0934926323861
 31
0.0
  0
LINE
  5
59C
330
18
100
AcDbEntity
  8
4
  6
CENTER
 48
0.25
100
AcDbLine
 10
111.0977863093245
 20
204.3130949755607
 30
0.0
 11
111.0977863093245
 21
186.3130949755607
 31
0.0
  0
CIRCLE
  5
5A8
330
18
100
AcDbEntity
  8
1
  6
Continuous
100
AcDbCircle
 10
111.0977863093245
 20
195.3130949755607
 30
0.0
 40
3.0
  0
LINE
  5
5A9
330
18
100
AcDbEntity
  8
4
  6
CENTER
 48
0.25
100
AcDbLine
 10
126.0977863093245
 20
209.4130949755606
 30
0.0
 11
126.0977863093245
 21
194.8130949755607
 31
0.0
  0
ARC
  5
5AA
330
18
100
AcDbEntity
  8
1
  6
Continuous
100
AcDbCircle
 10
121.5261131166317
 20
191.8130949755606
 30
0.0
 40
5.0
100
AcDbArc
 50
90.0
 51
161.4469954649788
  0
ARC
  5
5AB
330
18
100
AcDbEntity
  8
1
  6
Continuous
100
AcDbCircle
 10
130.5977863093246
 20
197.3130949755606
 30
0.0
 40
0.5
100
AcDbArc
 50
270.0
 51
0.0
  0
LINE
  5
5AC
330
18
100
AcDbEntity
  8
1
  6
Continuous
100
AcDbLine
 10
121.5261131166316
 20
196.8130949755607
 30
0.0
 11
130.5977863093246
 21
196.8130949755607
 31
0.0
  0
LINE
  5
5AD
330
18
100
AcDbEntity
  8
1
  6
Continuous
100
AcDbLine
 10
131.0977863093246
 20
197.3130949755607
 30
0.0
 11
131.0977863093246
 21
201.8130949755607
 31
0.0
  0
LINE
  5
5B1
330
18
100
AcDbEntity
  8
4
  6
CENTER
 48
0.25
100
AcDbLine
 10
126.0977863092674
 20
140.7692466773911
 30
0.0
 11
126.0977863092674
 21
100.4692466773909
 31
0.0
  0
LINE
  5
5B2
330
18
100
AcDbEntity
  8
4
  6
CENTER
 48
0.25
100
AcDbLine
 10
132.2477863092675
 20
134.6192466773911
 30
0.0
 11
119.9477863092675
 21
134.6192466773911
 31
0.0
  0
LINE
  5
5B3
330
18
100
AcDbEntity
  8
4
  6
CENTER
 48
0.25
100
AcDbLine
 10
132.2477863092675
 20
106.6192466773909
 30
0.0
 11
119.9477863092675
 21
106.6192466773909
 31
0.0
  0
LINE
  5
5B4
330
18
100
AcDbEntity
  8
1
  6
Continuous
100
AcDbLine
 10
129.2477863092675
 20
134.6192466773911
 30
0.0
 11
129.2477863092675
 21
106.6192466773909
 31
0.0
  0
LINE
  5
5B5
330
18
100
AcDbEntity
  8
1
  6
Continuous
100
AcDbLine
 10
122.9477863092675
 20
106.6192466773909
 30
0.0
 11
122.9477863092675
 21
134.6192466773911
 31
0.0
  0
ARC
  5
5C0
330
18
100
AcDbEntity
  8
1
  6
Continuous
100
AcDbCircle
 10
126.0977863092694
 20
134.6192466773911
 30
0.0
 40
3.149999999999999
100
AcDbArc
 50
0.0
 51
180.0
  0
ARC
  5
5CB
330
18
100
AcDbEntity
  8
1
  6
Continuous
100
AcDbCircle
 10
126.0977863092674
 20
106.6192466773909
 30
0.0
 40
3.149999999999999
100
AcDbArc
 50
180.0
 51
0.0
  0
LINE
  5
5CC
330
18
100
AcDbEntity
  8
1
  6
Continuous
100
AcDbLine
 10
105.0977863092759
 20
111.1192466773911
 30
0.0
 11
105.097786309278
 21
97.61924667751518
 31
0.0
  0
LINE
  5
5CD
330
18
100
AcDbEntity
  8
1
  6
Continuous
100
AcDbLine
 10
105.0977863092718
 20
143.6192466773911
 30
0.0
 11
105.097786309274
 21
130.1192466773911
 31
0.0
  0
ARC
  5
5CE
330
18
100
AcDbEntity
  8
1
  6
Continuous
100
AcDbCircle
 10
128.0977863092694
 20
140.6192466773911
 30
0.0
 40
3.0
100
AcDbArc
 50
0.0
 51
90.0
  0
ARC
  5
5CF
330
18
100
AcDbEntity
  8
1
  6
Continuous
100
AcDbCircle
 10
128.0977863092675
 20
100.6192466773911
 30
0.0
 40
3.0
100
AcDbArc
 50
270.0
 51
0.0
  0
LINE
  5
5D0
330
18
100
AcDbEntity
  8
1
  6
Continuous
100
AcDbLine
 10
131.0977863092675
 20
140.6192466773911
 30
0.0
 11
131.0977863092675
 21
100.6192466773911
 31
0.0
  0
LINE
  5
5D1
330
18
100
AcDbEntity
  8
1
  6
Continuous
100
AcDbLine
 10
117.5977863092422
 20
130.1192466773911
 30
0.0
 11
117.5977863092319
 21
111.1192466773911
 31
0.0
  0
LINE
  5
5D2
330
18
100
AcDbEntity
  8
1
  6
Continuous
100
AcDbLine
 10
117.5977863092471
 20
130.1192466773911
 30
0.0
 11
105.0977863092735
 21
130.1192466773911
 31
0.0
  0
LINE
  5
5D3
330
18
100
AcDbEntity
  8
1
  6
Continuous
100
AcDbLine
 10
117.597786309229
 20
111.1192466773911
 30
0.0
 11
105.0977863092765
 21
111.1192466773911
 31
0.0
  0
LINE
  5
5D4
330
18
100
AcDbEntity
  8
1
  6
Continuous
100
AcDbLine
 10
128.0977863092694
 20
143.6192466773911
 30
0.0
 11
105.0977863092718
 21
143.6192466773911
 31
0.0
  0
LINE
  5
5D5
330
18
100
AcDbEntity
  8
1
  6
Continuous
100
AcDbLine
 10
128.0977863092675
 20
97.61924667739116
 30
0.0
 11
105.0977863092781
 21
97.61924667739116
 31
0.0
  0
LINE
  5
16AA
330
18
100
AcDbEntity
  8
1
  6
Continuous
100
AcDbLine
 10
95.09780547794877
 20
207.4130949755204
 30
0.0
 11
97.09780547794901
 21
207.4130949755204
 31
0.0
  0
ARC
  5
16AB
330
18
100
AcDbEntity
  8
1
  6
Continuous
100
AcDbCircle
 10
97.09780547794901
 20
206.9130949755205
 30
0.0
 40
0.5
100
AcDbArc
 50
0.0
 51
90.0
  0
LINE
  5
16AC
330
18
100
AcDbEntity
  8
1
  6
Continuous
100
AcDbLine
 10
97.59780547794859
 20
206.8130949755164
 30
0.0
 11
97.59780547794902
 21
206.9130949755185
 31
0.0
  0
ARC
  5
16AD
330
18
100
AcDbEntity
  8
1
  6
Continuous
100
AcDbCircle
 10
95.09780547794878
 20
206.9130949755205
 30
0.0
 40
0.5
100
AcDbArc
 50
90.0
 51
180.0
  0
LINE
  5
16AE
330
18
100
AcDbEntity
  8
1
  6
Continuous
100
AcDbLine
 10
94.5978054779484
 20
206.8130949755164
 30
0.0
 11
94.59780547794876
 21
206.9130949755224
 31
0.0
  0
LINE
  5
16C7
330
18
100
AcDbEntity
  8
1
  6
Continuous
100
AcDbLine
 10
95.03713969183218
 20
206.8130949755176
 30
0.0
 11
95.59778630930692
 21
201.8130949755192
 31
0.0
  0
LINE
  5
16C9
330
18
100
AcDbEntity
  8
1
  6
Continuous
100
AcDbLine
 10
99.57390887420679
 20
204.8130949755111
 30
0.0
 11
96.93417427979193
 21
204.8130949755182
 31
0.0
  0
LINE
  5
16CA
330
18
100
AcDbEntity
  8
1
  6
Continuous
100
AcDbLine
 10
99.57390887420679
 20
204.8130949755111
 30
0.0
 11
98.52926162017677
 21
206.813094975514
 31
0.0
  0
LINE
  5
16CB
330
18
100
AcDbEntity
  8
1
  6
Continuous
100
AcDbLine
 10
99.57390887420679
 20
204.8130949755111
 30
0.0
 11
99.05582620085676
 21
201.8130949755126
 31
0.0
  0
LINE
  5
16CC
330
18
100
AcDbEntity
  8
1
  6
Continuous
100
AcDbLine
 10
98.52926162017677
 20
206.813094975514
 30
0.0
 11
97.15843292678179
 21
206.8130949755176
 31
0.0
  0
LINE
  5
16CD
330
18
100
AcDbEntity
  8
1
  6
Continuous
100
AcDbLine
 10
97.15843292678179
 20
206.8130949755176
 30
0.0
 11
96.59778630930709
 21
201.8130949755192
 31
0.0
  0
LINE
  5
16CE
330
18
100
AcDbEntity
  8
1
  6
Continuous
100
AcDbLine
 10
122.6216637444247
 20
204.8130949755513
 30
0.0
 11
125.2613983388396
 21
204.8130949755583
 31
0.0
  0
LINE
  5
16CF
330
18
100
AcDbEntity
  8
1
  6
Continuous
100
AcDbLine
 10
123.6663109984547
 20
206.8130949755541
 30
0.0
 11
125.0371396918497
 21
206.8130949755578
 31
0.0
  0
ARC
  5
16D0
330
18
100
AcDbEntity
  8
1
  6
Continuous
100
AcDbCircle
 10
125.0978054779663
 20
206.9130949755606
 30
0.0
 40
0.5
100
AcDbArc
 50
90.0
 51
180.0
  0
LINE
  5
16D1
330
18
100
AcDbEntity
  8
1
  6
Continuous
100
AcDbLine
 10
127.5978054779661
 20
206.8130949755566
 30
0.0
 11
127.5978054779665
 21
206.9130949755587
 31
0.0
  0
LINE
  5
16D2
330
18
100
AcDbEntity
  8
1
  6
Continuous
100
AcDbLine
 10
127.1584329267993
 20
206.8130949755578
 30
0.0
 11
126.5977863093246
 21
201.8130949755593
 31
0.0
  0
LINE
  5
16D3
330
18
100
AcDbEntity
  8
1
  6
Continuous
100
AcDbLine
 10
128.5292616201943
 20
206.8130949755541
 30
0.0
 11
127.1584329267993
 21
206.8130949755578
 31
0.0
  0
LINE
  5
16D4
330
18
100
AcDbEntity
  8
1
  6
Continuous
100
AcDbLine
 10
129.5739088742243
 20
204.8130949755513
 30
0.0
 11
129.0558262008743
 21
201.8130949755527
 31
0.0
  0
LINE
  5
16D5
330
18
100
AcDbEntity
  8
1
  6
Continuous
100
AcDbLine
 10
129.5739088742243
 20
204.8130949755513
 30
0.0
 11
128.5292616201943
 21
206.8130949755541
 31
0.0
  0
LINE
  5
16D6
330
18
100
AcDbEntity
  8
1
  6
Continuous
100
AcDbLine
 10
129.5739088742243
 20
204.8130949755513
 30
0.0
 11
126.9341742798094
 21
204.8130949755583
 31
0.0
  0
LINE
  5
16D7
330
18
100
AcDbEntity
  8
1
  6
Continuous
100
AcDbLine
 10
125.0371396918497
 20
206.8130949755578
 30
0.0
 11
125.5977863093244
 21
201.8130949755593
 31
0.0
  0
ARC
  5
16D8
330
18
100
AcDbEntity
  8
1
  6
Continuous
100
AcDbCircle
 10
127.0978054779665
 20
206.9130949755606
 30
0.0
 40
0.5
100
AcDbArc
 50
0.0
 51
90.0
  0
LINE
  5
16D9
330
18
100
AcDbEntity
  8
1
  6
Continuous
100
AcDbLine
 10
125.0978054779663
 20
207.4130949755606
 30
0.0
 11
127.0978054779665
 21
207.4130949755606
 31
0.0
  0
LINE
  5
16DA
330
18
100
AcDbEntity
  8
1
  6
Continuous
100
AcDbLine
 10
124.5978054779659
 20
206.8130949755566
 30
0.0
 11
124.5978054779663
 21
206.9130949755625
 31
0.0
  0
LINE
  5
16DB
330
18
100
AcDbEntity
  8
1
  6
Continuous
100
AcDbLine
 10
122.6216637444247
 20
204.8130949755513
 30
0.0
 11
123.6663109984547
 21
206.8130949755541
 31
0.0
  0
LINE
  5
16DC
330
18
100
AcDbEntity
  8
1
  6
Continuous
100
AcDbLine
 10
122.6216637444247
 20
204.8130949755513
 30
0.0
 11
123.1397464177747
 21
201.8130949755527
 31
0.0
  0
ARC
  5
16DE
330
18
100
AcDbEntity
  8
1
  6
Continuous
100
AcDbCircle
 10
96.0977863092723
 20
134.6192466774158
 30
0.0
 40
3.000000000000028
100
AcDbArc
 50
0.0
 51
180.0
  0
LINE
  5
16DF
330
18
100
AcDbEntity
  8
1
  6
Continuous
100
AcDbLine
 10
93.09778630927219
 20
106.6192466774155
 30
0.0
 11
93.0977863092721
 21
134.6192466774158
 31
0.0
  0
LINE
  5
16E0
330
18
100
AcDbEntity
  8
1
  6
Continuous
100
AcDbLine
 10
99.09778630927231
 20
134.6192466774158
 30
0.0
 11
99.09778630927229
 21
106.6192466774155
 31
0.0
  0
ARC
  5
16E1
330
18
100
AcDbEntity
  8
1
  6
Continuous
100
AcDbCircle
 10
96.0977863092723
 20
106.6192466774155
 30
0.0
 40
3.000000000000028
100
AcDbArc
 50
180.0
 51
0.0
  0
LINE
  5
1702
330
18
100
AcDbEntity
  8
1
  6
Continuous
100
AcDbLine
 10
101.7477863092655
 20
116.8527895481696
 30
0.0
 11
100.9477863092655
 21
116.8527895481696
 31
0.0
  0
LINE
  5
1703
330
18
100
AcDbEntity
  8
1
  6
Continuous
100
AcDbLine
 10
102.5477863092655
 20
117.8826943388543
 30
0.0
 11
100.9477863092655
 21
117.8826943388543
 31
0.0
  0
LINE
  5
1704
330
18
100
AcDbEntity
  8
1
  6
Continuous
100
AcDbLine
 10
100.9477863092655
 20
116.2005835216197
 30
0.0
 11
102.5477863092655
 21
115.7205835216198
 31
0.0
  0
LINE
  5
1705
330
18
100
AcDbEntity
  8
1
  6
Continuous
100
AcDbLine
 10
102.5477863092655
 20
115.7205835216198
 30
0.0
 11
100.9477863092655
 21
115.2405835216197
 31
0.0
  0
ARC
  5
1706
330
18
100
AcDbEntity
  8
1
  6
Continuous
100
AcDbCircle
 10
101.3271491630395
 20
124.2325077408404
 30
0.0
 40
0.3793628537739409
100
AcDbArc
 50
122.0053832080828
 51
237.994616791917
  0
ARC
  5
1707
330
18
100
AcDbEntity
  8
1
  6
Continuous
100
AcDbCircle
 10
101.3271491630395
 20
122.7476719284789
 30
0.0
 40
0.3793628537739409
100
AcDbArc
 50
122.0053832080828
 51
237.994616791917
  0
LINE
  5
1708
330
18
100
AcDbEntity
  8
1
  6
Continuous
100
AcDbLine
 10
102.5477863092655
 20
125.6150030156706
 30
0.0
 11
100.9477863092655
 21
125.6150030156706
 31
0.0
  0
LINE
  5
1709
330
18
100
AcDbEntity
  8
1
  6
Continuous
100
AcDbLine
 10
102.5477863092655
 20
120.2963270444353
 30
0.0
 11
100.9477863092655
 21
120.2963270444353
 31
0.0
  0
LINE
  5
170A
330
18
100
AcDbEntity
  8
1
  6
Continuous
100
AcDbLine
 10
102.5477863092655
 20
120.9763270444353
 30
0.0
 11
100.9477863092655
 21
120.9763270444353
 31
0.0
  0
LINE
  5
170B
330
18
100
AcDbEntity
  8
1
  6
Continuous
100
AcDbLine
 10
102.5477863092655
 20
121.8963270444353
 30
0.0
 11
100.9477863092655
 21
121.8963270444353
 31
0.0
  0
ARC
  5
170C
330
18
100
AcDbEntity
  8
1
  6
Continuous
100
AcDbCircle
 10
101.3643558149262
 20
119.074344608878
 30
0.0
 40
0.4165695056606838
100
AcDbArc
 50
124.8882680994076
 51
235.1117319005923
  0
LINE
  5
170D
330
18
100
AcDbEntity
  8
1
  6
Continuous
100
AcDbLine
 10
102.5477863092655
 20
125.1350030156706
 30
0.0
 11
102.5477863092655
 21
126.0950030156706
 31
0.0
  0
ARC
  5
170E
330
18
100
AcDbEntity
  8
1
  6
Continuous
100
AcDbCircle
 10
102.1684234554916
 20
122.7476719284789
 30
0.0
 40
0.3793628537739409
100
AcDbArc
 50
302.0053832080829
 51
57.99461679191715
  0
ARC
  5
170F
330
18
100
AcDbEntity
  8
1
  6
Continuous
100
AcDbCircle
 10
101.7477863092655
 20
123.5594883068787
 30
0.0
 40
1.173019433961701
100
AcDbArc
 50
57.99461679191715
 51
122.0053832080828
  0
ARC
  5
1710
330
18
100
AcDbEntity
  8
1
  6
Continuous
100
AcDbCircle
 10
101.7477863092655
 20
124.9055271748021
 30
0.0
 40
1.173019433961701
100
AcDbArc
 50
237.994616791917
 51
302.0053832080829
  0
ARC
  5
1711
330
18
100
AcDbEntity
  8
1
  6
Continuous
100
AcDbCircle
 10
101.7477863092655
 20
122.0746524945173
 30
0.0
 40
1.173019433961701
100
AcDbArc
 50
57.99461679191715
 51
122.0053832080828
  0
ARC
  5
1712
330
18
100
AcDbEntity
  8
1
  6
Continuous
100
AcDbCircle
 10
102.1684234554916
 20
124.2325077408404
 30
0.0
 40
0.3793628537739409
100
AcDbArc
 50
302.0053832080829
 51
57.99461679191715
  0
LINE
  5
1713
330
18
100
AcDbEntity
  8
1
  6
Continuous
100
AcDbLine
 10
101.7477863092655
 20
121.8963270444353
 30
0.0
 11
101.7477863092655
 21
120.9763270444353
 31
0.0
  0
LINE
  5
1714
330
18
100
AcDbEntity
  8
1
  6
Continuous
100
AcDbLine
 10
101.7477863092655
 20
116.8527895481696
 30
0.0
 11
102.5477863092655
 21
116.3727895481696
 31
0.0
  0
ARC
  5
1715
330
18
100
AcDbEntity
  8
1
  6
Continuous
100
AcDbCircle
 10
101.8249575053077
 20
119.7285389457689
 30
0.0
 40
1.216644270621656
100
AcDbArc
 50
234.9406618563478
 51
266.3633132383578
  0
LINE
  5
1716
330
18
100
AcDbEntity
  8
1
  6
Continuous
100
AcDbLine
 10
101.7477863092655
 20
118.514344608878
 30
0.0
 11
101.0253128314744
 21
118.514344608878
 31
0.0
  0
LINE
  5
1717
330
18
100
AcDbEntity
  8
1
  6
Continuous
100
AcDbLine
 10
101.7477863092655
 20
118.514344608878
 30
0.0
 11
101.7477863092655
 21
119.0656394444504
 31
0.0
  0
ARC
  5
1718
330
18
100
AcDbEntity
  8
1
  6
Continuous
100
AcDbCircle
 10
101.6706151132234
 20
119.7285389457689
 30
0.0
 40
1.216644270621656
100
AcDbArc
 50
295.7201063039176
 51
305.0593381436521
  0
LINE
  5
1719
330
18
100
AcDbEntity
  8
1
  6
Continuous
100
AcDbLine
 10
102.5477863092655
 20
117.3327895481696
 30
0.0
 11
101.7477863092655
 21
116.8527895481696
 31
0.0
  0
ARC
  5
171A
330
18
100
AcDbEntity
  8
1
  6
Continuous
100
AcDbCircle
 10
101.7477863092655
 20
118.4213251749163
 30
0.0
 40
1.173019433961701
100
AcDbArc
 50
57.99461679191715
 51
122.0053832080828
  0
ARC
  5
171B
330
18
100
AcDbEntity
  8
1
  6
Continuous
100
AcDbCircle
 10
102.1312168036049
 20
119.074344608878
 30
0.0
 40
0.4165695056606838
100
AcDbArc
 50
304.8882680994076
 51
55.11173190059235
  0
LINE
  5
171C
330
18
100
AcDbEntity
  8
1
  6
Continuous
100
AcDbLine
 10
101.5477863092655
 20
116.0205835216197
 30
0.0
 11
101.5477863092655
 21
115.4205835216197
 31
0.0
  0
LINE
  5
1720
330
18
100
AcDbEntity
  8
4
  6
CENTER
 48
0.25
100
AcDbLine
 10
102.2477863092723
 20
134.6192466774152
 30
0.0
 11
89.94778630927234
 21
134.6192466774152
 31
0.0
  0
LINE
  5
1721
330
18
100
AcDbEntity
  8
4
  6
CENTER
 48
0.25
100
AcDbLine
 10
96.0977863092723
 20
140.7692466774151
 30
0.0
 11
96.0977863092723
 21
100.469246677415
 31
0.0
  0
LINE
  5
1722
330
18
100
AcDbEntity
  8
4
  6
CENTER
 48
0.25
100
AcDbLine
 10
102.2477863092723
 20
106.619246677415
 30
0.0
 11
89.9477863092723
 21
106.619246677415
 31
0.0
  0
LINE
  5
1728
330
18
100
AcDbEntity
  8
4
  6
CENTER
 48
0.05
100
AcDbLine
 10
107.1956238531705
 20
198.2059067954283
 30
0.0
 11
108.7728660537
 21
198.2059067954283
 31
0.0
  0
LINE
  5
1729
330
18
100
AcDbEntity
  8
4
  6
CENTER
 48
0.05
100
AcDbLine
 10
107.9842449534351
 20
197.4172856951636
 30
0.0
 11
107.9842449534351
 21
198.9974239875837
 31
0.0
  0
LINE
  5
1891
330
18
100
AcDbEntity
  8
5
  6
PHANTOM
 48
0.25
100
AcDbLine
 10
117.5977863093245
 20
45.925398379273
 30
0.0
 11
117.5977863093245
 21
65.92539837927311
 31
0.0
  0
ARC
  5
1892
330
18
100
AcDbEntity
  8
5
  6
PHANTOM
 48
0.25
100
AcDbCircle
 10
107.5977863093245
 20
56.35372518658013
 30
0.0
 40
5.0
100
AcDbArc
 50
288.5530045350203
 51
0.0
  0
LINE
  5
1893
330
18
100
AcDbEntity
  8
4
  6
CENTER
 48
0.25
100
AcDbLine
 10
111.0977863093245
 20
36.92539837927299
 30
0.0
 11
111.0977863093245
 21
54.92539837927299
 31
0.0
  0
LINE
  5
1894
330
18
100
AcDbEntity
  8
5
  6
PHANTOM
 48
0.25
100
AcDbLine
 10
113.0977863093245
 20
65.92539837927311
 30
0.0
 11
117.5977863093245
 21
65.92539837927311
 31
0.0
  0
LINE
  5
1895
330
18
100
AcDbEntity
  8
5
  6
PHANTOM
 48
0.25
100
AcDbLine
 10
112.5977863093245
 20
56.35372518658013
 30
0.0
 11
112.5977863093245
 21
65.42539837927311
 31
0.0
  0
ARC
  5
1896
330
18
100
AcDbEntity
  8
5
  6
PHANTOM
 48
0.25
100
AcDbCircle
 10
113.0977863093245
 20
65.42539837927313
 30
0.0
 40
0.5
100
AcDbArc
 50
90.00000000000005
 51
180.0
  0
LINE
  5
189B
330
18
100
AcDbEntity
  8
1
  6
Continuous
100
AcDbLine
 10
131.0977863093246
 20
39.42539837921947
 30
0.0
 11
91.097786309307
 21
39.42539837932653
 31
0.0
  0
LINE
  5
189C
330
18
100
AcDbEntity
  8
4
  6
CENTER
 48
0.25
100
AcDbLine
 10
102.0977863093245
 20
45.92539837929711
 30
0.0
 11
120.0977863093245
 21
45.9253983792489
 31
0.0
  0
ARC
  5
189D
330
18
100
AcDbEntity
  8
1
  6
Continuous
100
AcDbCircle
 10
121.5261131166317
 20
49.42539837927302
 30
0.0
 40
5.0
100
AcDbArc
 50
198.5530045350211
 51
270.0
  0
LINE
  5
189F
330
18
100
AcDbEntity
  8
4
  6
CENTER
 48
0.25
100
AcDbLine
 10
96.09778630928666
 20
31.82539837931318
 30
0.0
 11
96.09778630932574
 21
46.42539837931314
 31
0.0
  0
LINE
  5
18A0
330
18
100
AcDbEntity
  8
5
  6
PHANTOM
 48
0.25
100
AcDbLine
 10
111.0977863093245
 20
52.42539837927296
 30
0.0
 11
91.09778630932439
 21
52.42539837927296
 31
0.0
  0
ARC
  5
18A1
330
18
100
AcDbEntity
  8
1
  6
Continuous
100
AcDbCircle
 10
100.6694595020267
 20
49.42539837930095
 30
0.0
 40
5.0
100
AcDbArc
 50
270.0
 51
341.4469954648258
  0
ARC
  5
18A2
330
18
100
AcDbEntity
  8
5
  6
PHANTOM
 48
0.25
100
AcDbCircle
 10
100.6694595020173
 20
42.42539837927298
 30
0.0
 40
5.0
100
AcDbArc
 50
18.55300453502039
 51
90.00000000000005
  0
LINE
  5
18A3
330
18
100
AcDbEntity
  8
1
  6
Continuous
100
AcDbLine
 10
91.09778630931913
 20
43.92539837932655
 30
0.0
 11
91.097786309307
 21
39.42539837932653
 31
0.0
  0
LINE
  5
18A4
330
18
100
AcDbEntity
  8
1
  6
Continuous
100
AcDbLine
 10
100.6694595020133
 20
44.42539837930095
 30
0.0
 11
91.59778630932041
 21
44.42539837932523
 31
0.0
  0
LINE
  5
18A5
330
18
100
AcDbEntity
  8
5
  6
PHANTOM
 48
0.25
100
AcDbLine
 10
100.6694595020173
 20
47.42539837927295
 30
0.0
 11
91.59778630932439
 21
47.42539837927295
 31
0.0
  0
ARC
  5
18A6
330
18
100
AcDbEntity
  8
1
  6
Continuous
100
AcDbCircle
 10
91.59778630931901
 20
43.92539837932523
 30
0.0
 40
0.5
100
AcDbArc
 50
89.99999999984693
 51
179.9999999998469
  0
LINE
  5
18A7
330
18
100
AcDbEntity
  8
5
  6
PHANTOM
 48
0.25
100
AcDbLine
 10
91.09778630932439
 20
47.92539837927292
 30
0.0
 11
91.09778630932439
 21
52.42539837927296
 31
0.0
  0
ARC
  5
18A8
330
18
100
AcDbEntity
  8
5
  6
PHANTOM
 48
0.25
100
AcDbCircle
 10
91.59778630932439
 20
47.92539837927299
 30
0.0
 40
0.5
100
AcDbArc
 50
180.0
 51
270.0
  0
LINE
  5
18A9
330
18
100
AcDbEntity
  8
1
  6
Continuous
100
AcDbLine
 10
93.6663109984372
 20
34.4253983793197
 30
0.0
 11
95.03713969183218
 21
34.42539837931602
 31
0.0
  0
LINE
  5
18AA
330
18
100
AcDbEntity
  8
1
  6
Continuous
100
AcDbLine
 10
92.62166374440715
 20
36.4253983793225
 30
0.0
 11
95.26139833882206
 21
36.42539837931546
 31
0.0
  0
LINE
  5
18AB
330
18
100
AcDbEntity
  8
1
  6
Continuous
100
AcDbLine
 10
92.62166374440715
 20
36.4253983793225
 30
0.0
 11
93.1397464177572
 21
39.42539837932108
 31
0.0
  0
LINE
  5
18AC
330
18
100
AcDbEntity
  8
1
  6
Continuous
100
AcDbLine
 10
92.62166374440715
 20
36.4253983793225
 30
0.0
 11
93.6663109984372
 21
34.4253983793197
 31
0.0
  0
LINE
  5
18AD
330
18
100
AcDbEntity
  8
1
  6
Continuous
100
AcDbLine
 10
98.52926162017677
 20
34.4253983793197
 30
0.0
 11
97.15843292678179
 21
34.42539837931602
 31
0.0
  0
LINE
  5
18AE
330
18
100
AcDbEntity
  8
1
  6
Continuous
100
AcDbLine
 10
94.5978054779484
 20
34.42539837931722
 30
0.0
 11
94.59780547794876
 21
34.3253983793113
 31
0.0
  0
ARC
  5
18AF
330
18
100
AcDbEntity
  8
1
  6
Continuous
100
AcDbCircle
 10
95.09780547794878
 20
34.32539837931321
 30
0.0
 40
0.5
100
AcDbArc
 50
180.0
 51
270.0
  0
LINE
  5
18B0
330
18
100
AcDbEntity
  8
1
  6
Continuous
100
AcDbLine
 10
97.59780547794859
 20
34.42539837931722
 30
0.0
 11
97.59780547794902
 21
34.32539837931511
 31
0.0
  0
ARC
  5
18B1
330
18
100
AcDbEntity
  8
1
  6
Continuous
100
AcDbCircle
 10
97.09780547794901
 20
34.32539837931321
 30
0.0
 40
0.5
100
AcDbArc
 50
270.0
 51
0.0
  0
LINE
  5
18B2
330
18
100
AcDbEntity
  8
1
  6
Continuous
100
AcDbLine
 10
95.09780547794877
 20
33.82539837931322
 30
0.0
 11
97.09780547794901
 21
33.82539837931322
 31
0.0
  0
LINE
  5
18B3
330
18
100
AcDbEntity
  8
1
  6
Continuous
100
AcDbLine
 10
99.57390887420679
 20
36.4253983793225
 30
0.0
 11
99.05582620085676
 21
39.42539837932108
 31
0.0
  0
LINE
  5
18B4
330
18
100
AcDbEntity
  8
1
  6
Continuous
100
AcDbLine
 10
99.57390887420679
 20
36.4253983793225
 30
0.0
 11
96.93417427979193
 21
36.42539837931546
 31
0.0
  0
LINE
  5
18B5
330
18
100
AcDbEntity
  8
1
  6
Continuous
100
AcDbLine
 10
97.15843292678179
 20
34.42539837931602
 30
0.0
 11
96.59778630930709
 21
39.42539837931451
 31
0.0
  0
LINE
  5
18B6
330
18
100
AcDbEntity
  8
1
  6
Continuous
100
AcDbLine
 10
95.03713969183218
 20
34.42539837931602
 30
0.0
 11
95.59778630930692
 21
39.42539837931451
 31
0.0
  0
LINE
  5
18B7
330
18
100
AcDbEntity
  8
1
  6
Continuous
100
AcDbLine
 10
99.57390887420679
 20
36.4253983793225
 30
0.0
 11
98.52926162017677
 21
34.4253983793197
 31
0.0
  0
LINE
  5
18B8
330
18
100
AcDbEntity
  8
1
  6
Continuous
100
AcDbLine
 10
104.5977863093105
 20
45.12463387718682
 30
0.0
 11
104.5977863093006
 21
39.42539837925611
 31
0.0
  0
ARC
  5
18B9
330
18
100
AcDbEntity
  8
1
  6
Continuous
100
AcDbCircle
 10
107.9842449534351
 20
43.03258655940537
 30
0.0
 40
0.5
100
AcDbArc
 50
42.89536482335612
 51
222.8953648233561
  0
LINE
  5
18BA
330
18
100
AcDbEntity
  8
4
  6
CENTER
 48
0.05
100
AcDbLine
 10
107.9842449534351
 20
43.82120765967011
 30
0.0
 11
107.9842449534351
 21
42.24106936724999
 31
0.0
  0
ARC
  5
18BB
330
18
100
AcDbEntity
  8
1
  6
Continuous
100
AcDbCircle
 10
111.0977863093246
 20
45.92539837927295
 30
0.0
 40
3.75
100
AcDbArc
 50
222.8953648233561
 51
257.1046351766435
  0
ARC
  5
18BC
330
18
100
AcDbEntity
  8
4
  6
CENTER
 48
0.05
100
AcDbCircle
 10
111.0977863093246
 20
45.92539837927295
 30
0.0
 40
4.25
100
AcDbArc
 50
213.3570689112889
 51
267.7645385967733
  0
ARC
  5
18BD
330
18
100
AcDbEntity
  8
1
  6
Continuous
100
AcDbCircle
 10
111.0977863093245
 20
45.925398379273
 30
0.0
 40
6.0
100
AcDbArc
 50
18.55300453502039
 51
232.8192442185434
  0
CIRCLE
  5
18C0
330
18
100
AcDbEntity
  8
1
  6
Continuous
100
AcDbCircle
 10
111.0977863093245
 20
45.925398379273
 30
0.0
 40
3.0
  0
LINE
  5
18C1
330
18
100
AcDbEntity
  8
4
  6
CENTER
 48
0.05
100
AcDbLine
 10
107.1956238531705
 20
43.03258655940535
 30
0.0
 11
108.7728660537
 21
43.03258655940535
 31
0.0
  0
ARC
  5
18C2
330
18
100
AcDbEntity
  8
1
  6
Continuous
100
AcDbCircle
 10
104.0977863093106
 20
45.12463387718766
 30
0.0
 40
0.5
100
AcDbArc
 50
0.0
 51
128.5598758971154
  0
ARC
  5
18C3
330
18
100
AcDbEntity
  8
1
  6
Continuous
100
AcDbCircle
 10
111.0977863093245
 20
45.925398379273
 30
0.0
 40
6.0
100
AcDbArc
 50
247.1807557814585
 51
270.0
  0
ARC
  5
18C4
330
18
100
AcDbEntity
  8
1
  6
Continuous
100
AcDbCircle
 10
111.0977863093246
 20
45.92539837927295
 30
0.0
 40
4.75
100
AcDbArc
 50
252.0005331142094
 51
257.1046351766435
  0
LINE
  5
18C5
330
18
100
AcDbEntity
  8
4
  6
CENTER
 48
0.05
100
AcDbLine
 10
109.3606873626316
 20
41.78258655940536
 30
0.0
 11
110.9379295631611
 21
41.78258655940536
 31
0.0
  0
LINE
  5
18C6
330
18
100
AcDbEntity
  8
1
  6
Continuous
100
AcDbLine
 10
107.9784494494406
 20
42.02254845203142
 30
0.0
 11
107.4717970315386
 21
41.14500072244758
 31
0.0
  0
LINE
  5
18C7
330
18
100
AcDbEntity
  8
1
  6
Continuous
100
AcDbLine
 10
109.2774875551172
 20
41.27254845203154
 30
0.0
 11
108.7708351372152
 21
40.39500072244763
 31
0.0
  0
ARC
  5
18C8
330
18
100
AcDbEntity
  8
1
  6
Continuous
100
AcDbCircle
 10
109.5372951762526
 20
41.12254845203145
 30
0.0
 40
0.3
100
AcDbArc
 50
72.00053311421026
 51
149.9999999999992
  0
ARC
  5
18C9
330
18
100
AcDbEntity
  8
1
  6
Continuous
100
AcDbCircle
 10
107.7186418283053
 20
42.17254845203142
 30
0.0
 40
0.3
100
AcDbArc
 50
329.9999999999998
 51
47.99946688579058
  0
ARC
  5
18CA
330
18
100
AcDbEntity
  8
1
  6
Continuous
100
AcDbCircle
 10
111.0977863093246
 20
45.92539837927295
 30
0.0
 40
4.75
100
AcDbArc
 50
222.8953648233561
 51
227.9994668857917
  0
ARC
  5
18CB
330
18
100
AcDbEntity
  8
1
  6
Continuous
100
AcDbCircle
 10
110.1493084628961
 20
41.78258655940536
 30
0.0
 40
0.5
100
AcDbArc
 50
257.1046351766435
 51
77.10463517664354
  0
LINE
  5
18CC
330
18
100
AcDbEntity
  8
1
  6
Continuous
100
AcDbLine
 10
111.0977863093083
 20
39.92539837927305
 30
0.0
 11
111.0977863093074
 21
39.42539837927293
 31
0.0
  0
LINE
  5
18CD
330
18
100
AcDbEntity
  8
4
  6
CENTER
 48
0.05
100
AcDbLine
 10
110.1493084628961
 20
42.57120765967011
 30
0.0
 11
110.1493084628961
 21
40.99106936724999
 31
0.0
  0
LINE
  5
18CE
330
18
100
AcDbEntity
  8
4
  6
CENTER
 48
0.25
100
AcDbLine
 10
126.0977863093245
 20
31.82539837927308
 30
0.0
 11
126.0977863093245
 21
46.425398379273
 31
0.0
  0
LINE
  5
18D0
330
18
100
AcDbEntity
  8
1
  6
Continuous
100
AcDbLine
 10
131.0977863093246
 20
43.92539837927295
 30
0.0
 11
131.0977863093246
 21
39.42539837927299
 31
0.0
  0
LINE
  5
18D1
330
18
100
AcDbEntity
  8
1
  6
Continuous
100
AcDbLine
 10
121.5261131166316
 20
44.425398379273
 30
0.0
 11
130.5977863093246
 21
44.425398379273
 31
0.0
  0
ARC
  5
18D2
330
18
100
AcDbEntity
  8
1
  6
Continuous
100
AcDbCircle
 10
130.5977863093246
 20
43.92539837927301
 30
0.0
 40
0.5
100
AcDbArc
 50
0.0
 51
90.00000000000005
  0
LINE
  5
18D3
330
18
100
AcDbEntity
  8
1
  6
Continuous
100
AcDbLine
 10
125.0978054779663
 20
33.82539837927307
 30
0.0
 11
127.0978054779665
 21
33.82539837927307
 31
0.0
  0
LINE
  5
18D4
330
18
100
AcDbEntity
  8
1
  6
Continuous
100
AcDbLine
 10
125.0371396918497
 20
34.42539837927589
 30
0.0
 11
125.5977863093244
 21
39.42539837927435
 31
0.0
  0
LINE
  5
18D5
330
18
100
AcDbEntity
  8
1
  6
Continuous
100
AcDbLine
 10
124.5978054779659
 20
34.42539837927708
 30
0.0
 11
124.5978054779663
 21
34.32539837927115
 31
0.0
  0
ARC
  5
18D6
330
18
100
AcDbEntity
  8
1
  6
Continuous
100
AcDbCircle
 10
125.0978054779663
 20
34.32539837927311
 30
0.0
 40
0.5
100
AcDbArc
 50
180.0
 51
270.0
  0
LINE
  5
18D7
330
18
100
AcDbEntity
  8
1
  6
Continuous
100
AcDbLine
 10
123.6663109984547
 20
34.42539837927952
 30
0.0
 11
125.0371396918497
 21
34.42539837927589
 31
0.0
  0
LINE
  5
18D8
330
18
100
AcDbEntity
  8
1
  6
Continuous
100
AcDbLine
 10
122.6216637444247
 20
36.42539837928236
 30
0.0
 11
123.1397464177747
 21
39.42539837928092
 31
0.0
  0
LINE
  5
18D9
330
18
100
AcDbEntity
  8
1
  6
Continuous
100
AcDbLine
 10
122.6216637444247
 20
36.42539837928236
 30
0.0
 11
125.2613983388396
 21
36.42539837927529
 31
0.0
  0
LINE
  5
18DA
330
18
100
AcDbEntity
  8
1
  6
Continuous
100
AcDbLine
 10
122.6216637444247
 20
36.42539837928236
 30
0.0
 11
123.6663109984547
 21
34.42539837927952
 31
0.0
  0
ARC
  5
18DB
330
18
100
AcDbEntity
  8
1
  6
Continuous
100
AcDbCircle
 10
127.0978054779665
 20
34.32539837927311
 30
0.0
 40
0.5
100
AcDbArc
 50
270.0
 51
0.0
  0
LINE
  5
18DC
330
18
100
AcDbEntity
  8
1
  6
Continuous
100
AcDbLine
 10
128.5292616201943
 20
34.42539837927952
 30
0.0
 11
127.1584329267993
 21
34.42539837927589
 31
0.0
  0
LINE
  5
18DD
330
18
100
AcDbEntity
  8
1
  6
Continuous
100
AcDbLine
 10
127.5978054779661
 20
34.42539837927706
 30
0.0
 11
127.5978054779665
 21
34.32539837927496
 31
0.0
  0
LINE
  5
18DE
330
18
100
AcDbEntity
  8
1
  6
Continuous
100
AcDbLine
 10
129.5739088742243
 20
36.42539837928236
 30
0.0
 11
129.0558262008743
 21
39.42539837928092
 31
0.0
  0
LINE
  5
18DF
330
18
100
AcDbEntity
  8
1
  6
Continuous
100
AcDbLine
 10
129.5739088742243
 20
36.42539837928236
 30
0.0
 11
126.9341742798094
 21
36.42539837927529
 31
0.0
  0
LINE
  5
18E0
330
18
100
AcDbEntity
  8
1
  6
Continuous
100
AcDbLine
 10
127.1584329267993
 20
34.42539837927589
 30
0.0
 11
126.5977863093246
 21
39.42539837927435
 31
0.0
  0
LINE
  5
18E1
330
18
100
AcDbEntity
  8
1
  6
Continuous
100
AcDbLine
 10
129.5739088742243
 20
36.42539837928236
 30
0.0
 11
128.5292616201943
 21
34.42539837927952
 31
0.0
  0
LINE
  5
1A8A
330
18
100
AcDbEntity
  8
1
  6
Continuous
100
AcDbLine
 10
34.06877675041154
 20
143.6192466774157
 30
0.0
 11
34.06877675053467
 21
97.61924667741579
 31
0.0
  0
LINE
  5
1A8B
330
18
100
AcDbEntity
  8
1
  6
Continuous
100
AcDbLine
 10
39.06877675041296
 20
143.1192466774185
 30
0.0
 11
39.06877675053335
 21
98.1192466774187
 31
0.0
  0
LINE
  5
1A8C
330
18
100
AcDbEntity
  8
1
  6
Continuous
100
AcDbLine
 10
34.06877675053467
 20
97.61924667741579
 30
0.0
 11
46.06877675047672
 21
97.61924667741991
 31
0.0
  0
LINE
  5
1A8D
330
18
100
AcDbEntity
  8
1
  6
Continuous
100
AcDbLine
 10
34.06877675041154
 20
143.6192466774157
 30
0.0
 11
46.06877675047639
 21
143.6192466774197
 31
0.0
  0
ARC
  5
1A8E
330
18
100
AcDbEntity
  8
1
  6
Continuous
100
AcDbCircle
 10
38.56877675041296
 20
143.1192466774172
 30
0.0
 40
0.5
100
AcDbArc
 50
0.0000000001533027
 51
90.0000000000193
  0
ARC
  5
1A8F
330
18
100
AcDbEntity
  8
1
  6
Continuous
100
AcDbCircle
 10
38.56877675053335
 20
98.11924667741735
 30
0.0
 40
0.5
100
AcDbArc
 50
270.0000000000196
 51
0.00000000015329
  0
LINE
  5
1A90
330
18
100
AcDbEntity
  8
1
  6
Continuous
100
AcDbLine
 10
46.56877675047657
 20
143.1192466774197
 30
0.0
 11
46.56877675047657
 21
130.6192466773911
 31
0.0
  0
LINE
  5
1A94
330
18
100
AcDbEntity
  8
1
  6
Continuous
100
AcDbLine
 10
29.06877675044216
 20
132.1877713665454
 30
0.0
 11
29.06877675043849
 21
133.5586000599403
 31
0.0
  0
LINE
  5
1A95
330
18
100
AcDbEntity
  8
1
  6
Continuous
100
AcDbLine
 10
31.06877675044497
 20
131.1431241125153
 30
0.0
 11
31.06877675043794
 21
133.7828587069302
 31
0.0
  0
LINE
  5
1A96
330
18
100
AcDbEntity
  8
1
  6
Continuous
100
AcDbLine
 10
31.06877675044497
 20
131.1431241125153
 30
0.0
 11
29.06877675044216
 21
132.1877713665454
 31
0.0
  0
LINE
  5
1A97
330
18
100
AcDbEntity
  8
1
  6
Continuous
100
AcDbLine
 10
31.06877675044497
 20
131.1431241125153
 30
0.0
 11
34.06877675044356
 21
131.6612067858654
 31
0.0
  0
LINE
  5
1A98
330
18
100
AcDbEntity
  8
1
  6
Continuous
100
AcDbLine
 10
31.06877675044497
 20
138.095369242315
 30
0.0
 11
31.06877675043794
 21
135.4556346479
 31
0.0
  0
LINE
  5
1A99
330
18
100
AcDbEntity
  8
1
  6
Continuous
100
AcDbLine
 10
29.06877675044216
 20
137.0507219882849
 30
0.0
 11
29.06877675043849
 21
135.6798932948899
 31
0.0
  0
LINE
  5
1A9A
330
18
100
AcDbEntity
  8
1
  6
Continuous
100
AcDbLine
 10
29.06877675043849
 20
133.5586000599403
 30
0.0
 11
34.06877675043699
 21
134.1192466774151
 31
0.0
  0
LINE
  5
1A9B
330
18
100
AcDbEntity
  8
1
  6
Continuous
100
AcDbLine
 10
29.06877675043849
 20
135.6798932948899
 30
0.0
 11
34.06877675043699
 21
135.1192466774152
 31
0.0
  0
LINE
  5
1A9C
330
18
100
AcDbEntity
  8
1
  6
Continuous
100
AcDbLine
 10
28.46877675043569
 20
133.6192658460569
 30
0.0
 11
28.46877675043569
 21
135.6192658460572
 31
0.0
  0
ARC
  5
1A9D
330
18
100
AcDbEntity
  8
1
  6
Continuous
100
AcDbCircle
 10
28.9687767504357
 20
135.6192658460572
 30
0.0
 40
0.5
100
AcDbArc
 50
90.0
 51
180.0
  0
LINE
  5
1A9E
330
18
100
AcDbEntity
  8
1
  6
Continuous
100
AcDbLine
 10
29.06877675043969
 20
136.1192658460568
 30
0.0
 11
28.96877675043759
 21
136.1192658460572
 31
0.0
  0
ARC
  5
1A9F
330
18
100
AcDbEntity
  8
1
  6
Continuous
100
AcDbCircle
 10
28.9687767504357
 20
133.6192658460569
 30
0.0
 40
0.5
100
AcDbArc
 50
180.0
 51
270.0
  0
LINE
  5
1AA0
330
18
100
AcDbEntity
  8
1
  6
Continuous
100
AcDbLine
 10
29.06877675043969
 20
133.1192658460566
 30
0.0
 11
28.96877675043378
 21
133.1192658460569
 31
0.0
  0
LINE
  5
1AA1
330
18
100
AcDbEntity
  8
1
  6
Continuous
100
AcDbLine
 10
31.06877675044497
 20
138.095369242315
 30
0.0
 11
29.06877675044216
 21
137.0507219882849
 31
0.0
  0
LINE
  5
1AA2
330
18
100
AcDbEntity
  8
1
  6
Continuous
100
AcDbLine
 10
31.06877675044497
 20
138.095369242315
 30
0.0
 11
34.06877675044356
 21
137.5772865689649
 31
0.0
  0
LINE
  5
1AA4
330
18
100
AcDbEntity
  8
1
  6
Continuous
100
AcDbLine
 10
28.46877675051063
 20
105.6192658460568
 30
0.0
 11
28.46877675051063
 21
107.619265846057
 31
0.0
  0
LINE
  5
1AA5
330
18
100
AcDbEntity
  8
1
  6
Continuous
100
AcDbLine
 10
29.06877675051463
 20
105.1192658460564
 30
0.0
 11
28.96877675050874
 21
105.1192658460567
 31
0.0
  0
ARC
  5
1AA6
330
18
100
AcDbEntity
  8
1
  6
Continuous
100
AcDbCircle
 10
28.96877675051064
 20
105.6192658460568
 30
0.0
 40
0.5
100
AcDbArc
 50
180.0
 51
270.0
  0
LINE
  5
1AA7
330
18
100
AcDbEntity
  8
1
  6
Continuous
100
AcDbLine
 10
29.06877675051344
 20
105.5586000599401
 30
0.0
 11
34.06877675051193
 21
106.1192466774149
 31
0.0
  0
LINE
  5
1AA8
330
18
100
AcDbEntity
  8
1
  6
Continuous
100
AcDbLine
 10
31.06877675051992
 20
103.1431241125152
 30
0.0
 11
34.0687767505185
 21
103.6612067858652
 31
0.0
  0
LINE
  5
1AA9
330
18
100
AcDbEntity
  8
1
  6
Continuous
100
AcDbLine
 10
31.06877675051992
 20
103.1431241125152
 30
0.0
 11
29.06877675051711
 21
104.1877713665452
 31
0.0
  0
LINE
  5
1AAA
330
18
100
AcDbEntity
  8
1
  6
Continuous
100
AcDbLine
 10
31.06877675051992
 20
103.1431241125152
 30
0.0
 11
31.06877675051287
 21
105.78285870693
 31
0.0
  0
LINE
  5
1AAB
330
18
100
AcDbEntity
  8
1
  6
Continuous
100
AcDbLine
 10
29.06877675051711
 20
104.1877713665452
 30
0.0
 11
29.06877675051344
 21
105.5586000599401
 31
0.0
  0
LINE
  5
1AAC
330
18
100
AcDbEntity
  8
1
  6
Continuous
100
AcDbLine
 10
31.06877675051992
 20
110.0953692423148
 30
0.0
 11
34.0687767505185
 21
109.5772865689648
 31
0.0
  0
LINE
  5
1AAD
330
18
100
AcDbEntity
  8
1
  6
Continuous
100
AcDbLine
 10
31.06877675051992
 20
110.0953692423148
 30
0.0
 11
29.06877675051711
 21
109.0507219882847
 31
0.0
  0
LINE
  5
1AAE
330
18
100
AcDbEntity
  8
1
  6
Continuous
100
AcDbLine
 10
29.06877675051463
 20
108.1192658460566
 30
0.0
 11
28.96877675051253
 21
108.119265846057
 31
0.0
  0
ARC
  5
1AAF
330
18
100
AcDbEntity
  8
1
  6
Continuous
100
AcDbCircle
 10
28.96877675051064
 20
107.619265846057
 30
0.0
 40
0.5
100
AcDbArc
 50
90.0
 51
180.0
  0
LINE
  5
1AB0
330
18
100
AcDbEntity
  8
1
  6
Continuous
100
AcDbLine
 10
29.06877675051344
 20
107.6798932948898
 30
0.0
 11
34.06877675051193
 21
107.1192466774151
 31
0.0
  0
LINE
  5
1AB1
330
18
100
AcDbEntity
  8
1
  6
Continuous
100
AcDbLine
 10
29.06877675051711
 20
109.0507219882847
 30
0.0
 11
29.06877675051344
 21
107.6798932948898
 31
0.0
  0
LINE
  5
1AB2
330
18
100
AcDbEntity
  8
1
  6
Continuous
100
AcDbLine
 10
31.06877675051992
 20
110.0953692423148
 30
0.0
 11
31.06877675051287
 21
107.4556346478999
 31
0.0
  0
LINE
  5
1AB4
330
18
100
AcDbEntity
  8
4
  6
CENTER
 48
0.25
100
AcDbLine
 10
26.46877675043566
 20
134.6192466773947
 30
0.0
 11
41.06877675043563
 21
134.6192466774339
 31
0.0
  0
LINE
  5
1AB5
330
18
100
AcDbEntity
  8
4
  6
CENTER
 48
0.25
100
AcDbLine
 10
26.46877675051062
 20
106.6192466773947
 30
0.0
 11
41.06877675051058
 21
106.6192466774337
 31
0.0
  0
LINE
  5
1AB6
330
18
100
AcDbEntity
  8
1
  6
Continuous
100
AcDbLine
 10
46.06877675047657
 20
130.1192466773912
 30
0.0
 11
40.26801224839124
 21
130.1192466773911
 31
0.0
  0
LINE
  5
1AB7
330
18
100
AcDbEntity
  8
1
  6
Continuous
100
AcDbLine
 10
40.26801224839124
 20
130.0192466774199
 30
0.0
 11
46.06877675047639
 21
130.0192466774218
 31
0.0
  0
LINE
  5
1AB8
330
18
100
AcDbEntity
  8
1
  6
Continuous
100
AcDbLine
 10
46.06877675047657
 20
111.1192466773911
 30
0.0
 11
40.26801224839124
 21
111.1192466773911
 31
0.0
  0
LINE
  5
1AB9
330
18
100
AcDbEntity
  8
1
  6
Continuous
100
AcDbLine
 10
40.26801224839124
 20
111.2192466774199
 30
0.0
 11
46.06877675047674
 21
111.2192466774218
 31
0.0
  0
ARC
  5
1ABD
330
18
100
AcDbEntity
  8
1
  6
Continuous
100
AcDbCircle
 10
46.06877675047657
 20
143.1192466774197
 30
0.0
 40
0.5
100
AcDbArc
 50
0.0
 51
90.00000000001918
  0
ARC
  5
1ABE
330
18
100
AcDbEntity
  8
1
  6
Continuous
100
AcDbCircle
 10
46.06877675047655
 20
98.1192466774199
 30
0.0
 40
0.5
100
AcDbArc
 50
270.0000000000195
 51
0.0
  0
LINE
  5
1ABF
330
18
100
AcDbEntity
  8
1
  6
Continuous
100
AcDbLine
 10
46.56877675047657
 20
110.6192466773911
 30
0.0
 11
46.56877675047655
 21
98.1192466774199
 31
0.0
  0
LINE
  5
1AC0
330
18
100
AcDbEntity
  8
1
  6
Continuous
100
AcDbLine
 10
46.56877675047655
 20
129.5192466774218
 30
0.0
 11
46.56877675047658
 21
111.7192466774218
 31
0.0
  0
ARC
  5
1AC1
330
18
100
AcDbEntity
  8
1
  6
Continuous
100
AcDbCircle
 10
46.06877675047657
 20
130.6192466773911
 30
0.0
 40
0.5
100
AcDbArc
 50
270.0
 51
0.0
  0
ARC
  5
1AC2
330
18
100
AcDbEntity
  8
1
  6
Continuous
100
AcDbCircle
 10
46.06877675047655
 20
129.5192466774218
 30
0.0
 40
0.5
100
AcDbArc
 50
0.0000000000000127
 51
90.00000000001888
  0
ARC
  5
1AC3
330
18
100
AcDbEntity
  8
1
  6
Continuous
100
AcDbCircle
 10
46.06877675047657
 20
110.6192466773911
 30
0.0
 40
0.5
100
AcDbArc
 50
0.0
 51
90.0
  0
ARC
  5
1AC4
330
18
100
AcDbEntity
  8
1
  6
Continuous
100
AcDbCircle
 10
46.06877675047658
 20
111.7192466774218
 30
0.0
 40
0.5
100
AcDbArc
 50
270.0000000000187
 51
0.0000000000000127
  0
LINE
  5
1AC6
330
18
100
AcDbEntity
  8
1
  6
Continuous
100
AcDbLine
 10
40.26801224839124
 20
143.1192466774176
 30
0.0
 11
40.26801224839124
 21
130.0192466774199
 31
0.0
  0
ARC
  5
1AC7
330
18
100
AcDbEntity
  8
1
  6
Continuous
100
AcDbCircle
 10
39.76801224839126
 20
143.1192466774176
 30
0.0
 40
0.5
100
AcDbArc
 50
0.0
 51
90.00000000001923
  0
ARC
  5
1AC8
330
18
100
AcDbEntity
  8
1
  6
Continuous
100
AcDbCircle
 10
39.76801224839126
 20
98.11924667741386
 30
0.0
 40
0.5
100
AcDbArc
 50
269.9999999999807
 51
0.0
  0
LINE
  5
1AC9
330
18
100
AcDbEntity
  8
1
  6
Continuous
100
AcDbLine
 10
40.26801224839124
 20
98.11924667741386
 30
0.0
 11
40.26801224839124
 21
111.2192466774115
 31
0.0
  0
LINE
  5
1ACC
330
18
100
AcDbEntity
  8
4
  6
CENTER
 48
0.25
100
AcDbLine
 10
40.56877675046417
 20
148.6192466774179
 30
0.0
 11
40.56877675046414
 21
92.61924667741793
 31
0.0
  0
LINE
  5
1ACD
330
18
100
AcDbEntity
  8
4
  6
CENTER
 48
0.25
100
AcDbLine
 10
181.6267958680709
 20
148.6192466774179
 30
0.0
 11
181.6267958680709
 21
92.61924667741793
 31
0.0
  0
LINE
  5
1ACF
330
18
100
AcDbEntity
  8
1
  6
Continuous
100
AcDbLine
 10
175.6267958680586
 20
110.6192466773911
 30
0.0
 11
175.6267958680586
 21
98.1192466774199
 31
0.0
  0
LINE
  5
1AD1
330
18
100
AcDbEntity
  8
1
  6
Continuous
100
AcDbLine
 10
188.1267958681236
 20
143.6192466774157
 30
0.0
 11
188.1267958680005
 21
97.61924667741579
 31
0.0
  0
LINE
  5
1AD2
330
18
100
AcDbEntity
  8
1
  6
Continuous
100
AcDbLine
 10
188.1267958680005
 20
97.61924667741579
 30
0.0
 11
176.1267958680584
 21
97.61924667741991
 31
0.0
  0
ARC
  5
1AD5
330
18
100
AcDbEntity
  8
1
  6
Continuous
100
AcDbCircle
 10
176.1267958680586
 20
98.1192466774199
 30
0.0
 40
0.5
100
AcDbArc
 50
180.0
 51
269.9999999999804
  0
LINE
  5
1AD9
330
18
100
AcDbEntity
  8
1
  6
Continuous
100
AcDbLine
 10
175.6267958680586
 20
129.5192466774218
 30
0.0
 11
175.6267958680586
 21
111.7192466774218
 31
0.0
  0
LINE
  5
1ADA
330
18
100
AcDbEntity
  8
1
  6
Continuous
100
AcDbLine
 10
181.2200544240712
 20
111.2192466774202
 30
0.0
 11
176.1267958680584
 21
111.2192466774218
 31
0.0
  0
LINE
  5
1ADB
330
18
100
AcDbEntity
  8
1
  6
Continuous
100
AcDbLine
 10
176.1267958680586
 20
111.1192466773911
 30
0.0
 11
181.2200544240712
 21
111.1192466773911
 31
0.0
  0
LINE
  5
1ADC
330
18
100
AcDbEntity
  8
4
  6
CENTER
 48
0.25
100
AcDbLine
 10
195.7267958680245
 20
106.6192466773947
 30
0.0
 11
181.1267958680246
 21
106.6192466774337
 31
0.0
  0
LINE
  5
1ADD
330
18
100
AcDbEntity
  8
1
  6
Continuous
100
AcDbLine
 10
193.1267958680217
 20
107.6798932948898
 30
0.0
 11
188.1267958680232
 21
107.1192466774151
 31
0.0
  0
LINE
  5
1ADE
330
18
100
AcDbEntity
  8
1
  6
Continuous
100
AcDbLine
 10
191.1267958680151
 20
110.0953692423148
 30
0.0
 11
188.1267958680167
 21
109.5772865689648
 31
0.0
  0
LINE
  5
1ADF
330
18
100
AcDbEntity
  8
1
  6
Continuous
100
AcDbLine
 10
191.1267958680151
 20
103.1431241125152
 30
0.0
 11
188.1267958680167
 21
103.6612067858652
 31
0.0
  0
LINE
  5
1AE0
330
18
100
AcDbEntity
  8
1
  6
Continuous
100
AcDbLine
 10
193.1267958680217
 20
105.5586000599401
 30
0.0
 11
188.1267958680232
 21
106.1192466774149
 31
0.0
  0
LINE
  5
1AE1
330
18
100
AcDbEntity
  8
1
  6
Continuous
100
AcDbLine
 10
191.1267958680151
 20
110.0953692423148
 30
0.0
 11
191.1267958680223
 21
107.4556346478999
 31
0.0
  0
LINE
  5
1AE2
330
18
100
AcDbEntity
  8
1
  6
Continuous
100
AcDbLine
 10
193.126795868018
 20
109.0507219882847
 30
0.0
 11
193.1267958680217
 21
107.6798932948898
 31
0.0
  0
ARC
  5
1AE3
330
18
100
AcDbEntity
  8
1
  6
Continuous
100
AcDbCircle
 10
193.2267958680245
 20
107.619265846057
 30
0.0
 40
0.5
100
AcDbArc
 50
0.000000000000007
 51
90.0
  0
LINE
  5
1AE4
330
18
100
AcDbEntity
  8
1
  6
Continuous
100
AcDbLine
 10
193.1267958680205
 20
108.1192658460566
 30
0.0
 11
193.2267958680226
 21
108.119265846057
 31
0.0
  0
LINE
  5
1AE5
330
18
100
AcDbEntity
  8
1
  6
Continuous
100
AcDbLine
 10
191.1267958680151
 20
110.0953692423148
 30
0.0
 11
193.126795868018
 21
109.0507219882847
 31
0.0
  0
LINE
  5
1AE6
330
18
100
AcDbEntity
  8
1
  6
Continuous
100
AcDbLine
 10
193.126795868018
 20
104.1877713665452
 30
0.0
 11
193.1267958680217
 21
105.5586000599401
 31
0.0
  0
LINE
  5
1AE7
330
18
100
AcDbEntity
  8
1
  6
Continuous
100
AcDbLine
 10
191.1267958680151
 20
103.1431241125152
 30
0.0
 11
191.1267958680223
 21
105.78285870693
 31
0.0
  0
LINE
  5
1AE8
330
18
100
AcDbEntity
  8
1
  6
Continuous
100
AcDbLine
 10
191.1267958680151
 20
103.1431241125152
 30
0.0
 11
193.126795868018
 21
104.1877713665452
 31
0.0
  0
ARC
  5
1AE9
330
18
100
AcDbEntity
  8
1
  6
Continuous
100
AcDbCircle
 10
193.2267958680245
 20
105.6192658460568
 30
0.0
 40
0.5
100
AcDbArc
 50
270.0
 51
0.000000000000007
  0
LINE
  5
1AEA
330
18
100
AcDbEntity
  8
1
  6
Continuous
100
AcDbLine
 10
193.1267958680205
 20
105.1192658460564
 30
0.0
 11
193.2267958680263
 21
105.1192658460567
 31
0.0
  0
LINE
  5
1AEB
330
18
100
AcDbEntity
  8
1
  6
Continuous
100
AcDbLine
 10
193.7267958680244
 20
105.6192658460568
 30
0.0
 11
193.7267958680244
 21
107.619265846057
 31
0.0
  0
ARC
  5
1AEC
330
18
100
AcDbEntity
  8
1
  6
Continuous
100
AcDbCircle
 10
176.1267958680586
 20
111.7192466774218
 30
0.0
 40
0.5
100
AcDbArc
 50
180.0
 51
269.9999999999813
  0
ARC
  5
1AED
330
18
100
AcDbEntity
  8
1
  6
Continuous
100
AcDbCircle
 10
176.1267958680586
 20
110.6192466773911
 30
0.0
 40
0.5
100
AcDbArc
 50
90.0
 51
180.0
  0
LINE
  5
1AEE
330
18
100
AcDbEntity
  8
1
  6
Continuous
100
AcDbLine
 10
188.1267958681236
 20
143.6192466774157
 30
0.0
 11
176.1267958680588
 21
143.6192466774197
 31
0.0
  0
LINE
  5
1AEF
330
18
100
AcDbEntity
  8
1
  6
Continuous
100
AcDbLine
 10
176.1267958680586
 20
130.1192466773912
 30
0.0
 11
181.2200544240712
 21
130.1192466773911
 31
0.0
  0
LINE
  5
1AF0
330
18
100
AcDbEntity
  8
1
  6
Continuous
100
AcDbLine
 10
181.2200544240712
 20
130.0192466774201
 30
0.0
 11
176.1267958680588
 21
130.0192466774218
 31
0.0
  0
LINE
  5
1AF1
330
18
100
AcDbEntity
  8
4
  6
CENTER
 48
0.25
100
AcDbLine
 10
195.7267958680995
 20
134.6192466773947
 30
0.0
 11
181.1267958680995
 21
134.6192466774339
 31
0.0
  0
LINE
  5
1AF3
330
18
100
AcDbEntity
  8
1
  6
Continuous
100
AcDbLine
 10
193.7267958680995
 20
133.6192658460569
 30
0.0
 11
193.7267958680995
 21
135.6192658460572
 31
0.0
  0
LINE
  5
1AF4
330
18
100
AcDbEntity
  8
1
  6
Continuous
100
AcDbLine
 10
193.1267958680967
 20
133.5586000599403
 30
0.0
 11
188.1267958680982
 21
134.1192466774151
 31
0.0
  0
LINE
  5
1AF5
330
18
100
AcDbEntity
  8
1
  6
Continuous
100
AcDbLine
 10
191.1267958680902
 20
131.1431241125153
 30
0.0
 11
188.1267958680916
 21
131.6612067858654
 31
0.0
  0
LINE
  5
1AF6
330
18
100
AcDbEntity
  8
1
  6
Continuous
100
AcDbLine
 10
193.1267958680955
 20
133.1192658460566
 30
0.0
 11
193.2267958681014
 21
133.1192658460569
 31
0.0
  0
ARC
  5
1AF7
330
18
100
AcDbEntity
  8
1
  6
Continuous
100
AcDbCircle
 10
193.2267958680995
 20
133.6192658460569
 30
0.0
 40
0.5
100
AcDbArc
 50
270.0
 51
0.000000000000007
  0
LINE
  5
1AF8
330
18
100
AcDbEntity
  8
1
  6
Continuous
100
AcDbLine
 10
191.1267958680902
 20
131.1431241125153
 30
0.0
 11
193.126795868093
 21
132.1877713665454
 31
0.0
  0
LINE
  5
1AF9
330
18
100
AcDbEntity
  8
1
  6
Continuous
100
AcDbLine
 10
191.1267958680902
 20
131.1431241125153
 30
0.0
 11
191.1267958680972
 21
133.7828587069302
 31
0.0
  0
LINE
  5
1AFA
330
18
100
AcDbEntity
  8
1
  6
Continuous
100
AcDbLine
 10
193.126795868093
 20
132.1877713665454
 30
0.0
 11
193.1267958680967
 21
133.5586000599403
 31
0.0
  0
LINE
  5
1AFB
330
18
100
AcDbEntity
  8
1
  6
Continuous
100
AcDbLine
 10
191.1267958680902
 20
138.095369242315
 30
0.0
 11
188.1267958680916
 21
137.5772865689649
 31
0.0
  0
LINE
  5
1AFC
330
18
100
AcDbEntity
  8
1
  6
Continuous
100
AcDbLine
 10
193.1267958680967
 20
135.6798932948899
 30
0.0
 11
188.1267958680982
 21
135.1192466774152
 31
0.0
  0
LINE
  5
1AFD
330
18
100
AcDbEntity
  8
1
  6
Continuous
100
AcDbLine
 10
191.1267958680902
 20
138.095369242315
 30
0.0
 11
193.126795868093
 21
137.0507219882849
 31
0.0
  0
LINE
  5
1AFE
330
18
100
AcDbEntity
  8
1
  6
Continuous
100
AcDbLine
 10
193.1267958680955
 20
136.1192658460568
 30
0.0
 11
193.2267958680976
 21
136.1192658460572
 31
0.0
  0
ARC
  5
1AFF
330
18
100
AcDbEntity
  8
1
  6
Continuous
100
AcDbCircle
 10
193.2267958680995
 20
135.6192658460572
 30
0.0
 40
0.5
100
AcDbArc
 50
0.000000000000007
 51
90.0
  0
LINE
  5
1B00
330
18
100
AcDbEntity
  8
1
  6
Continuous
100
AcDbLine
 10
193.126795868093
 20
137.0507219882849
 30
0.0
 11
193.1267958680967
 21
135.6798932948899
 31
0.0
  0
LINE
  5
1B01
330
18
100
AcDbEntity
  8
1
  6
Continuous
100
AcDbLine
 10
191.1267958680902
 20
138.095369242315
 30
0.0
 11
191.1267958680972
 21
135.4556346479
 31
0.0
  0
LINE
  5
1B04
330
18
100
AcDbEntity
  8
1
  6
Continuous
100
AcDbLine
 10
175.6267958680586
 20
143.1192466774197
 30
0.0
 11
175.6267958680586
 21
130.6192466773911
 31
0.0
  0
ARC
  5
1B05
330
18
100
AcDbEntity
  8
1
  6
Continuous
100
AcDbCircle
 10
176.1267958680586
 20
129.5192466774218
 30
0.0
 40
0.5
100
AcDbArc
 50
89.99999999998111
 51
180.0
  0
ARC
  5
1B06
330
18
100
AcDbEntity
  8
1
  6
Continuous
100
AcDbCircle
 10
176.1267958680586
 20
130.6192466773911
 30
0.0
 40
0.5
100
AcDbArc
 50
180.0
 51
270.0
  0
ARC
  5
1B07
330
18
100
AcDbEntity
  8
1
  6
Continuous
100
AcDbCircle
 10
176.1267958680586
 20
143.1192466774197
 30
0.0
 40
0.5
100
AcDbArc
 50
89.99999999998083
 51
180.0
  0
LINE
  5
1B4D
330
18
100
AcDbEntity
  8
1
  6
Continuous
100
AcDbLine
 10
181.2200544240712
 20
130.1192466773912
 30
0.0
 11
181.2200544240712
 21
111.1192466773911
 31
0.0
  0
LINE
  5
1CDC
330
18
100
AcDbEntity
  8
1
  6
Continuous
100
AcDbLine
 10
264.7558054267982
 20
130.0192466774186
 30
0.0
 11
260.255805426816
 21
130.0192466774201
 31
0.0
  0
LINE
  5
1CDD
330
18
100
AcDbEntity
  8
1
  6
Continuous
100
AcDbLine
 10
264.7558054267741
 20
111.2192466774186
 30
0.0
 11
260.255805426816
 21
111.2192466774201
 31
0.0
  0
LINE
  5
1CDE
330
18
100
AcDbEntity
  8
1
  6
Continuous
100
AcDbLine
 10
251.7558054268541
 20
111.1192466773911
 30
0.0
 11
256.2558054268157
 21
111.1192466773911
 31
0.0
  0
LINE
  5
1CE0
330
18
100
AcDbEntity
  8
1
  6
Continuous
100
AcDbLine
 10
241.2558054268138
 20
143.6192466773911
 30
0.0
 11
264.2558054268113
 21
143.6192466773911
 31
0.0
  0
LINE
  5
1CE3
330
18
100
AcDbEntity
  8
4
  6
CENTER
 48
0.25
100
AcDbLine
 10
233.2558054268156
 20
120.6192466774168
 30
0.0
 11
283.2558054268156
 21
120.6192466774168
 31
0.0
  0
LINE
  5
1CE5
330
18
100
AcDbEntity
  8
1
  6
Continuous
100
AcDbLine
 10
241.2558054268156
 20
97.61924667739116
 30
0.0
 11
264.255805426805
 21
97.61924667739116
 31
0.0
  0
LINE
  5
1CE6
330
18
100
AcDbEntity
  8
4
  6
CENTER
 48
0.25
100
AcDbLine
 10
258.2558054268156
 20
148.6192466773911
 30
0.0
 11
258.2558054268156
 21
92.61924667739114
 31
0.0
  0
LINE
  5
1CE7
330
18
100
AcDbEntity
  8
4
  6
CENTER
 48
0.25
100
AcDbLine
 10
273.2558054268109
 20
140.7692466774151
 30
0.0
 11
273.2558054268109
 21
100.469246677415
 31
0.0
  0
LINE
  5
1CE8
330
18
100
AcDbEntity
  8
1
  6
Continuous
100
AcDbLine
 10
264.7558054267771
 20
111.2192466774186
 30
0.0
 11
264.7558054267661
 21
98.61924667741915
 31
0.0
  0
LINE
  5
1CE9
330
18
100
AcDbEntity
  8
1
  6
Continuous
100
AcDbLine
 10
264.2558054268071
 20
111.1192466773911
 30
0.0
 11
264.2558054268051
 21
97.61924667751518
 31
0.0
  0
LINE
  5
1CEA
330
18
100
AcDbEntity
  8
1
  6
Continuous
100
AcDbLine
 10
278.2558054268222
 20
140.6192466774141
 30
0.0
 11
278.255805426809
 21
100.6192466774141
 31
0.0
  0
LINE
  5
1CEC
330
18
100
AcDbEntity
  8
1
  6
Continuous
100
AcDbLine
 10
275.255805426808
 20
97.61924667741517
 30
0.0
 11
265.7558054267659
 21
97.6192466774184
 31
0.0
  0
ARC
  5
1CED
330
18
100
AcDbEntity
  8
1
  6
Continuous
100
AcDbCircle
 10
275.255805426809
 20
100.6192466774151
 30
0.0
 40
3.0
100
AcDbArc
 50
269.9999999999813
 51
359.9999999999813
  0
ARC
  5
1CEE
330
18
100
AcDbEntity
  8
1
  6
Continuous
100
AcDbCircle
 10
265.7558054267661
 20
98.61924667741837
 30
0.0
 40
1.0
100
AcDbArc
 50
179.9999999999813
 51
269.9999999999813
  0
LINE
  5
1CF8
330
18
100
AcDbEntity
  8
4
  6
CENTER
 48
0.25
100
AcDbLine
 10
267.1058054268108
 20
106.619246677415
 30
0.0
 11
279.4058054268109
 21
106.619246677415
 31
0.0
  0
LINE
  5
1D11
330
18
100
AcDbEntity
  8
4
  6
CENTER
 48
0.25
100
AcDbLine
 10
267.1058054268108
 20
134.6192466774152
 30
0.0
 11
279.4058054268109
 21
134.6192466774152
 31
0.0
  0
LINE
  5
1D12
330
18
100
AcDbEntity
  8
1
  6
Continuous
100
AcDbLine
 10
275.2558054268249
 20
143.619246677415
 30
0.0
 11
265.7558054268047
 21
143.6192466774182
 31
0.0
  0
ARC
  5
1D13
330
18
100
AcDbEntity
  8
1
  6
Continuous
100
AcDbCircle
 10
275.2558054268241
 20
140.619246677415
 30
0.0
 40
3.0
100
AcDbArc
 50
359.9999999999813
 51
89.99999999998131
  0
LINE
  5
1D14
330
18
100
AcDbEntity
  8
1
  6
Continuous
100
AcDbLine
 10
264.7558054268043
 20
142.6192466774191
 30
0.0
 11
264.7558054267934
 21
130.0192466774186
 31
0.0
  0
LINE
  5
1D15
330
18
100
AcDbEntity
  8
1
  6
Continuous
100
AcDbLine
 10
264.2558054268113
 20
143.6192466773911
 30
0.0
 11
264.2558054268091
 21
130.1192466773911
 31
0.0
  0
ARC
  5
1D1D
330
18
100
AcDbEntity
  8
1
  6
Continuous
100
AcDbCircle
 10
265.7558054268043
 20
142.6192466774183
 30
0.0
 40
1.0
100
AcDbArc
 50
89.99999999998131
 51
179.9999999999813
  0
LINE
  5
1D1F
330
18
100
AcDbEntity
  8
4
  6
CENTER
 48
0.25
100
AcDbLine
 10
243.2558054268157
 20
140.7692466773911
 30
0.0
 11
243.2558054268157
 21
100.4692466773909
 31
0.0
  0
LINE
  5
1D20
330
18
100
AcDbEntity
  8
1
  6
Continuous
100
AcDbLine
 10
238.2558054268156
 20
140.6192466773911
 30
0.0
 11
238.2558054268156
 21
100.6192466773911
 31
0.0
  0
ARC
  5
1D22
330
18
100
AcDbEntity
  8
1
  6
Continuous
100
AcDbCircle
 10
241.2558054268156
 20
100.6192466773911
 30
0.0
 40
3.0
100
AcDbArc
 50
180.0
 51
270.0
  0
LINE
  5
1D29
330
18
100
AcDbEntity
  8
1
  6
Continuous
100
AcDbLine
 10
251.7558054268409
 20
130.1192466773911
 30
0.0
 11
251.7558054268512
 21
111.1192466773911
 31
0.0
  0
LINE
  5
1D2C
330
18
100
AcDbEntity
  8
1
  6
Continuous
100
AcDbLine
 10
252.2558054268253
 20
130.0192466774227
 30
0.0
 11
252.2558054268222
 21
111.2192466774228
 31
0.0
  0
LINE
  5
1D2D
330
18
100
AcDbEntity
  8
4
  6
CENTER
 48
0.25
100
AcDbLine
 10
237.1058054268156
 20
106.6192466773909
 30
0.0
 11
249.4058054268157
 21
106.6192466773909
 31
0.0
  0
ARC
  5
1D30
330
18
100
AcDbEntity
  8
1
  6
Continuous
100
AcDbCircle
 10
241.2558054268138
 20
140.6192466773911
 30
0.0
 40
3.0
100
AcDbArc
 50
90.0
 51
180.0
  0
LINE
  5
1D31
330
18
100
AcDbEntity
  8
4
  6
CENTER
 48
0.25
100
AcDbLine
 10
237.1058054268156
 20
134.6192466773911
 30
0.0
 11
249.4058054268156
 21
134.6192466773911
 31
0.0
  0
LINE
  5
1E4E
330
18
100
AcDbEntity
  8
1
  6
Continuous
100
AcDbLine
 10
242.1951588093169
 20
131.3088906785352
 30
0.0
 11
242.1951588093169
 21
133.5585458434356
 31
0.0
  0
CIRCLE
  5
1E51
330
18
100
AcDbEntity
  8
1
  6
Continuous
100
AcDbCircle
 10
243.2558054268157
 20
134.6192466773911
 30
0.0
 40
1.500019168666085
  0
ARC
  5
1E52
330
18
100
AcDbEntity
  8
1
  6
Continuous
100
AcDbCircle
 10
243.2558054268157
 20
134.6192466773911
 30
0.0
 40
3.476122564923854
100
AcDbArc
 50
197.7655929729313
 51
252.2344070270686
  0
ARC
  5
1E53
330
18
100
AcDbEntity
  8
1
  6
Continuous
100
AcDbCircle
 10
243.2558054268157
 20
134.6192466773911
 30
0.0
 40
2.431475310893801
100
AcDbArc
 50
205.8626475413036
 51
244.1373524586964
  0
LINE
  5
1E54
330
18
100
AcDbEntity
  8
1
  6
Continuous
100
AcDbLine
 10
244.3164520443145
 20
131.3088906785352
 30
0.0
 11
244.3164520443145
 21
133.5585458434356
 31
0.0
  0
ARC
  5
1E55
330
18
100
AcDbEntity
  8
1
  6
Continuous
100
AcDbCircle
 10
243.2558054268157
 20
134.6192466773911
 30
0.0
 40
2.431475310893801
100
AcDbArc
 50
25.86264754130363
 51
64.13735245869637
  0
ARC
  5
1E56
330
18
100
AcDbEntity
  8
1
  6
Continuous
100
AcDbCircle
 10
243.2558054268157
 20
134.6192466773911
 30
0.0
 40
3.476122564923854
100
AcDbArc
 50
17.76559297293136
 51
72.23440702706864
  0
ARC
  5
1E57
330
18
100
AcDbEntity
  8
1
  6
Continuous
100
AcDbCircle
 10
243.2558054268157
 20
134.6192466773911
 30
0.0
 40
2.431475310893801
100
AcDbArc
 50
115.8626475413036
 51
154.1373524586963
  0
ARC
  5
1E58
330
18
100
AcDbEntity
  8
1
  6
Continuous
100
AcDbCircle
 10
243.2558054268157
 20
134.6192466773911
 30
0.0
 40
3.476122564923854
100
AcDbArc
 50
107.7655929729313
 51
162.2344070270686
  0
ARC
  5
1E59
330
18
100
AcDbEntity
  8
1
  6
Continuous
100
AcDbCircle
 10
243.2558054268157
 20
134.6192466773911
 30
0.0
 40
2.431475310893801
100
AcDbArc
 50
295.8626475413037
 51
334.1373524586964
  0
ARC
  5
1E5A
330
18
100
AcDbEntity
  8
1
  6
Continuous
100
AcDbCircle
 10
243.2558054268157
 20
134.6192466773911
 30
0.0
 40
3.476122564923854
100
AcDbArc
 50
287.7655929729313
 51
342.2344070270686
  0
LINE
  5
1E5B
330
18
100
AcDbEntity
  8
1
  6
Continuous
100
AcDbLine
 10
244.3164520443145
 20
135.6799475113466
 30
0.0
 11
244.3164520443145
 21
137.929602676247
 31
0.0
  0
LINE
  5
1E5C
330
18
100
AcDbEntity
  8
1
  6
Continuous
100
AcDbLine
 10
242.1951588093169
 20
135.6799475113466
 30
0.0
 11
242.1951588093169
 21
137.929602676247
 31
0.0
  0
LINE
  5
1E5E
330
18
100
AcDbEntity
  8
1
  6
Continuous
100
AcDbLine
 10
239.9454494279599
 20
133.5586000598923
 30
0.0
 11
242.1951045928602
 21
133.5586000598923
 31
0.0
  0
LINE
  5
1E5F
330
18
100
AcDbEntity
  8
1
  6
Continuous
100
AcDbLine
 10
246.5661614256716
 20
135.6798932948899
 30
0.0
 11
244.3165062607712
 21
135.6798932948899
 31
0.0
  0
LINE
  5
1E60
330
18
100
AcDbEntity
  8
1
  6
Continuous
100
AcDbLine
 10
242.1951045928602
 20
135.6798932948899
 30
0.0
 11
239.9454494279599
 21
135.6798932948899
 31
0.0
  0
LINE
  5
1E61
330
18
100
AcDbEntity
  8
1
  6
Continuous
100
AcDbLine
 10
244.3165062607712
 20
133.5586000598923
 30
0.0
 11
246.5661614256716
 21
133.5586000598923
 31
0.0
  0
ARC
  5
2123
330
18
100
AcDbEntity
  8
1
  6
Continuous
100
AcDbCircle
 10
274.2558054268201
 20
141.619246677422
 30
0.0
 40
0.5
100
AcDbArc
 50
90.0
 51
180.0
  0
ARC
  5
2124
330
18
100
AcDbEntity
  8
1
  6
Continuous
100
AcDbCircle
 10
272.2558054268201
 20
141.6192466774214
 30
0.0
 40
0.5
100
AcDbArc
 50
0.0
 51
90.0
  0
ARC
  5
2125
330
18
100
AcDbEntity
  8
1
  6
Continuous
100
AcDbCircle
 10
266.7558054267884
 20
135.6192466774121
 30
0.0
 40
0.5
100
AcDbArc
 50
180.0
 51
270.0
  0
ARC
  5
2126
330
18
100
AcDbEntity
  8
1
  6
Continuous
100
AcDbCircle
 10
266.7558054267879
 20
133.6192466774121
 30
0.0
 40
0.5
100
AcDbArc
 50
90.0
 51
180.0
  0
ARC
  5
2127
330
18
100
AcDbEntity
  8
1
  6
Continuous
100
AcDbCircle
 10
272.2558054268201
 20
129.6192466774168
 30
0.0
 40
0.5
100
AcDbArc
 50
270.0
 51
0.0
  0
ARC
  5
2128
330
18
100
AcDbEntity
  8
1
  6
Continuous
100
AcDbCircle
 10
274.2558054268201
 20
129.6192466774168
 30
0.0
 40
0.5
100
AcDbArc
 50
180.0
 51
270.0
  0
LINE
  5
2129
330
18
100
AcDbEntity
  8
1
  6
Continuous
100
AcDbLine
 10
266.2558054267879
 20
133.6192466774122
 30
0.0
 11
266.255805426787
 21
129.6192466774169
 31
0.0
  0
LINE
  5
212A
330
18
100
AcDbEntity
  8
1
  6
Continuous
100
AcDbLine
 10
266.2558054267896
 20
141.6192466774196
 30
0.0
 11
266.2558054267882
 21
135.6192466774122
 31
0.0
  0
ARC
  5
212B
330
18
100
AcDbEntity
  8
1
  6
Continuous
100
AcDbCircle
 10
273.2558054268109
 20
134.6192466774217
 30
0.0
 40
4.0
100
AcDbArc
 50
187.1807557815973
 51
262.819244218673
  0
ARC
  5
212C
330
18
100
AcDbEntity
  8
1
  6
Continuous
100
AcDbCircle
 10
273.2558054268109
 20
134.6192466774217
 30
0.0
 40
4.0
100
AcDbArc
 50
97.1807557813269
 51
172.8192442186803
  0
LINE
  5
212D
330
18
100
AcDbEntity
  8
1
  6
Continuous
100
AcDbLine
 10
272.2558054268201
 20
142.1192466774214
 30
0.0
 11
266.7558054267896
 21
142.1192466774195
 31
0.0
  0
LINE
  5
212E
330
18
100
AcDbEntity
  8
1
  6
Continuous
100
AcDbLine
 10
275.2558054268106
 20
142.1192466774223
 30
0.0
 11
274.2558054268201
 21
142.119246677422
 31
0.0
  0
ARC
  5
212F
330
18
100
AcDbEntity
  8
1
  6
Continuous
100
AcDbCircle
 10
273.2558054268109
 20
134.6192466774217
 30
0.0
 40
4.0
100
AcDbArc
 50
48.18968510423785
 51
82.8192442184104
  0
LINE
  5
2130
330
18
100
AcDbEntity
  8
1
  6
Continuous
100
AcDbLine
 10
272.2558054268201
 20
129.1192466774168
 30
0.0
 11
266.755805426787
 21
129.1192466774168
 31
0.0
  0
LINE
  5
2131
330
18
100
AcDbEntity
  8
1
  6
Continuous
100
AcDbLine
 10
276.2558054268126
 20
129.1192466774168
 30
0.0
 11
274.2558054268201
 21
129.1192466774168
 31
0.0
  0
ARC
  5
2132
330
18
100
AcDbEntity
  8
1
  6
Continuous
100
AcDbCircle
 10
273.2558054268109
 20
134.6192466774217
 30
0.0
 40
4.0
100
AcDbArc
 50
277.1807557815896
 51
311.8103148957974
  0
LINE
  5
2133
330
18
100
AcDbEntity
  8
1
  6
Continuous
100
AcDbLine
 10
273.7558054268201
 20
130.6506197108153
 30
0.0
 11
273.7558054268201
 21
129.6192466774167
 31
0.0
  0
LINE
  5
2134
330
18
100
AcDbEntity
  8
1
  6
Continuous
100
AcDbLine
 10
272.7558054268201
 20
130.6506197108153
 30
0.0
 11
272.7558054268201
 21
129.6192466774167
 31
0.0
  0
LINE
  5
2135
330
18
100
AcDbEntity
  8
1
  6
Continuous
100
AcDbLine
 10
273.7558054268201
 20
141.6192466774115
 30
0.0
 11
273.7558054268201
 21
138.5878736440091
 31
0.0
  0
LINE
  5
2136
330
18
100
AcDbEntity
  8
1
  6
Continuous
100
AcDbLine
 10
272.7558054268201
 20
141.6192466774121
 30
0.0
 11
272.7558054268201
 21
138.5878736440091
 31
0.0
  0
LINE
  5
2137
330
18
100
AcDbEntity
  8
1
  6
Continuous
100
AcDbLine
 10
266.7558054267821
 20
135.1192466774121
 30
0.0
 11
269.2871784602232
 21
135.1192466774121
 31
0.0
  0
LINE
  5
2138
330
18
100
AcDbEntity
  8
1
  6
Continuous
100
AcDbLine
 10
266.7558054267824
 20
134.1192466774121
 30
0.0
 11
269.2871784602232
 21
134.1192466774121
 31
0.0
  0
ARC
  5
2139
330
18
100
AcDbEntity
  8
1
  6
Continuous
100
AcDbCircle
 10
274.2558054268201
 20
111.6192466774168
 30
0.0
 40
0.5
100
AcDbArc
 50
90.0
 51
180.0
  0
ARC
  5
213A
330
18
100
AcDbEntity
  8
1
  6
Continuous
100
AcDbCircle
 10
272.2558054268201
 20
111.6192466774168
 30
0.0
 40
0.5
100
AcDbArc
 50
0.0
 51
90.0
  0
ARC
  5
213B
330
18
100
AcDbEntity
  8
1
  6
Continuous
100
AcDbCircle
 10
266.7558054267824
 20
107.6192466774214
 30
0.0
 40
0.5
100
AcDbArc
 50
180.0
 51
270.0
  0
ARC
  5
213C
330
18
100
AcDbEntity
  8
1
  6
Continuous
100
AcDbCircle
 10
266.7558054267821
 20
105.6192466774214
 30
0.0
 40
0.5
100
AcDbArc
 50
90.0
 51
180.0
  0
ARC
  5
213D
330
18
100
AcDbEntity
  8
1
  6
Continuous
100
AcDbCircle
 10
272.2558054268201
 20
99.61924667742144
 30
0.0
 40
0.5
100
AcDbArc
 50
270.0
 51
0.0
  0
ARC
  5
213E
330
18
100
AcDbEntity
  8
1
  6
Continuous
100
AcDbCircle
 10
274.2558054268201
 20
99.61924667742207
 30
0.0
 40
0.5
100
AcDbArc
 50
180.0
 51
270.0
  0
LINE
  5
213F
330
18
100
AcDbEntity
  8
1
  6
Continuous
100
AcDbLine
 10
272.2558054268201
 20
112.1192466774168
 30
0.0
 11
266.7558054267832
 21
112.1192466774168
 31
0.0
  0
LINE
  5
2140
330
18
100
AcDbEntity
  8
1
  6
Continuous
100
AcDbLine
 10
276.2558054268186
 20
112.1192466774168
 30
0.0
 11
274.2558054268201
 21
112.1192466774168
 31
0.0
  0
ARC
  5
2141
330
18
100
AcDbEntity
  8
1
  6
Continuous
100
AcDbCircle
 10
273.2558054268201
 20
106.6192466774214
 30
0.0
 40
4.0
100
AcDbArc
 50
97.18075578145823
 51
172.819244218542
  0
ARC
  5
2142
330
18
100
AcDbEntity
  8
1
  6
Continuous
100
AcDbCircle
 10
273.2558054268201
 20
106.6192466774214
 30
0.0
 40
4.0
100
AcDbArc
 50
48.18968510423785
 51
82.81924421854176
  0
LINE
  5
2143
330
18
100
AcDbEntity
  8
1
  6
Continuous
100
AcDbLine
 10
272.2558054268203
 20
99.11924667742146
 30
0.0
 11
266.7558054267809
 21
99.11924667741972
 31
0.0
  0
LINE
  5
2144
330
18
100
AcDbEntity
  8
1
  6
Continuous
100
AcDbLine
 10
275.2558054268226
 20
99.11924667742235
 30
0.0
 11
274.2558054268203
 21
99.11924667742205
 31
0.0
  0
ARC
  5
2145
330
18
100
AcDbEntity
  8
1
  6
Continuous
100
AcDbCircle
 10
273.2558054268201
 20
106.6192466774214
 30
0.0
 40
4.0
100
AcDbArc
 50
277.1807557814582
 51
311.8103148957977
  0
ARC
  5
2146
330
18
100
AcDbEntity
  8
1
  6
Continuous
100
AcDbCircle
 10
273.2558054268201
 20
106.6192466774214
 30
0.0
 40
4.0
100
AcDbArc
 50
187.1807557814579
 51
262.8192442185417
  0
LINE
  5
2147
330
18
100
AcDbEntity
  8
1
  6
Continuous
100
AcDbLine
 10
273.7558054268201
 20
99.61924667742207
 30
0.0
 11
273.7558054268201
 21
102.6506197108245
 31
0.0
  0
LINE
  5
2148
330
18
100
AcDbEntity
  8
1
  6
Continuous
100
AcDbLine
 10
273.7558054268201
 20
110.5878736440183
 30
0.0
 11
273.7558054268201
 21
111.6192466774168
 31
0.0
  0
LINE
  5
2149
330
18
100
AcDbEntity
  8
1
  6
Continuous
100
AcDbLine
 10
272.7558054268201
 20
99.61924667742144
 30
0.0
 11
272.7558054268201
 21
102.6506197108245
 31
0.0
  0
LINE
  5
214A
330
18
100
AcDbEntity
  8
1
  6
Continuous
100
AcDbLine
 10
272.7558054268201
 20
110.5878736440183
 30
0.0
 11
272.7558054268201
 21
111.6192466774168
 31
0.0
  0
LINE
  5
214B
330
18
100
AcDbEntity
  8
1
  6
Continuous
100
AcDbLine
 10
266.255805426782
 20
105.6192466774215
 30
0.0
 11
266.2558054267808
 21
99.61924667741978
 31
0.0
  0
LINE
  5
214C
330
18
100
AcDbEntity
  8
1
  6
Continuous
100
AcDbLine
 10
266.2558054267833
 20
111.619246677417
 30
0.0
 11
266.2558054267825
 21
107.6192466774215
 31
0.0
  0
LINE
  5
214D
330
18
100
AcDbEntity
  8
1
  6
Continuous
100
AcDbLine
 10
266.7558054267821
 20
106.1192466774214
 30
0.0
 11
269.2871784602232
 21
106.1192466774214
 31
0.0
  0
LINE
  5
214E
330
18
100
AcDbEntity
  8
1
  6
Continuous
100
AcDbLine
 10
266.7558054267824
 20
107.1192466774214
 30
0.0
 11
269.2871784602232
 21
107.1192466774214
 31
0.0
  0
ARC
  5
2152
330
18
100
AcDbEntity
  8
1
  6
Continuous
100
AcDbCircle
 10
266.7558054267832
 20
111.6192466774169
 30
0.0
 40
0.5
100
AcDbArc
 50
90.0
 51
180.0
  0
ARC
  5
2153
330
18
100
AcDbEntity
  8
1
  6
Continuous
100
AcDbCircle
 10
276.2558054268186
 20
111.6192466774168
 30
0.0
 40
0.5
100
AcDbArc
 50
0.0
 51
90.0
  0
ARC
  5
2154
330
18
100
AcDbEntity
  8
1
  6
Continuous
100
AcDbCircle
 10
266.7558054268373
 20
113.6192466774168
 30
0.0
 40
0.5
100
AcDbArc
 50
180.0
 51
270.0
  0
ARC
  5
2155
330
18
100
AcDbEntity
  8
1
  6
Continuous
100
AcDbCircle
 10
276.2558054268181
 20
113.6192466774168
 30
0.0
 40
0.5
100
AcDbArc
 50
270.0
 51
0.0
  0
ARC
  5
2156
330
18
100
AcDbEntity
  8
1
  6
Continuous
100
AcDbCircle
 10
276.2558054268132
 20
127.6192466774168
 30
0.0
 40
0.5
100
AcDbArc
 50
0.0
 51
90.0
  0
ARC
  5
2157
330
18
100
AcDbEntity
  8
1
  6
Continuous
100
AcDbCircle
 10
266.7558054267944
 20
127.6192466774168
 30
0.0
 40
0.5
100
AcDbArc
 50
90.0
 51
180.0
  0
ARC
  5
2158
330
18
100
AcDbEntity
  8
1
  6
Continuous
100
AcDbCircle
 10
266.755805426787
 20
129.6192466774168
 30
0.0
 40
0.5
100
AcDbArc
 50
180.0
 51
270.0
  0
ARC
  5
2159
330
18
100
AcDbEntity
  8
1
  6
Continuous
100
AcDbCircle
 10
276.2558054268126
 20
129.6192466774169
 30
0.0
 40
0.5
100
AcDbArc
 50
270.0
 51
0.0
  0
LINE
  5
215A
330
18
100
AcDbEntity
  8
1
  6
Continuous
100
AcDbLine
 10
276.2558054268132
 20
128.1192466774168
 30
0.0
 11
266.7558054267944
 21
128.1192466774168
 31
0.0
  0
LINE
  5
215B
330
18
100
AcDbEntity
  8
1
  6
Continuous
100
AcDbLine
 10
276.2558054268181
 20
113.1192466774168
 30
0.0
 11
266.7558054268373
 21
113.1192466774168
 31
0.0
  0
LINE
  5
2164
330
18
100
AcDbEntity
  8
1
  6
Continuous
100
AcDbLine
 10
276.7558054268185
 20
111.619246677417
 30
0.0
 11
276.7558054268191
 21
109.9733486436722
 31
0.0
  0
LINE
  5
2165
330
18
100
AcDbEntity
  8
1
  6
Continuous
100
AcDbLine
 10
276.7558054268133
 20
127.619246677417
 30
0.0
 11
276.755805426818
 21
113.619246677417
 31
0.0
  0
LINE
  5
2166
330
18
100
AcDbEntity
  8
1
  6
Continuous
100
AcDbLine
 10
276.755805426812
 20
131.2651447111732
 30
0.0
 11
276.7558054268126
 21
129.6192466774169
 31
0.0
  0
LINE
  5
2167
330
18
100
AcDbEntity
  8
1
  6
Continuous
100
AcDbLine
 10
266.2558054267944
 20
127.6192466774153
 30
0.0
 11
266.2558054268373
 21
113.6192466774153
 31
0.0
  0
ARC
  5
2168
330
18
100
AcDbEntity
  8
1
  6
Continuous
100
AcDbCircle
 10
276.2558054268099
 20
137.9733486436723
 30
0.0
 40
0.5
100
AcDbArc
 50
228.1896851042372
 51
0.0
  0
ARC
  5
2169
330
18
100
AcDbEntity
  8
1
  6
Continuous
100
AcDbCircle
 10
276.2558054268121
 20
131.265144711173
 30
0.0
 40
0.5
100
AcDbArc
 50
0.0
 51
131.8103148958017
  0
ARC
  5
216A
330
18
100
AcDbEntity
  8
1
  6
Continuous
100
AcDbCircle
 10
276.2558054268191
 20
109.973348643672
 30
0.0
 40
0.5
100
AcDbArc
 50
228.1896851042372
 51
0.0
  0
ARC
  5
216B
330
18
100
AcDbEntity
  8
1
  6
Continuous
100
AcDbCircle
 10
276.2558054268211
 20
103.2651447111728
 30
0.0
 40
0.5
100
AcDbArc
 50
0.0
 51
131.8103148958017
  0
LINE
  5
216C
330
18
100
AcDbEntity
  8
1
  6
Continuous
100
AcDbLine
 10
276.7558054268211
 20
103.2651447111729
 30
0.0
 11
276.7558054268222
 21
100.6192466774229
 31
0.0
  0
LINE
  5
216D
330
18
100
AcDbEntity
  8
1
  6
Continuous
100
AcDbLine
 10
276.755805426809
 20
140.6192466774229
 30
0.0
 11
276.7558054268099
 21
137.9733486436725
 31
0.0
  0
ARC
  5
216E
330
18
100
AcDbEntity
  8
1
  6
Continuous
100
AcDbCircle
 10
266.7558054267896
 20
141.6192466774196
 30
0.0
 40
0.5
100
AcDbArc
 50
90.0
 51
180.0
  0
ARC
  5
216F
330
18
100
AcDbEntity
  8
1
  6
Continuous
100
AcDbCircle
 10
275.2558054268109
 20
140.6192466774224
 30
0.0
 40
1.5
100
AcDbArc
 50
0.000000000018705
 51
90.0000000000195
  0
ARC
  5
2170
330
18
100
AcDbEntity
  8
1
  6
Continuous
100
AcDbCircle
 10
266.7558054267808
 20
99.61924667741978
 30
0.0
 40
0.5
100
AcDbArc
 50
180.0
 51
270.0
  0
ARC
  5
2171
330
18
100
AcDbEntity
  8
1
  6
Continuous
100
AcDbCircle
 10
275.2558054268222
 20
100.6192466774224
 30
0.0
 40
1.5
100
AcDbArc
 50
270.0000000000195
 51
0.000000000018705
  0
LINE
  5
2190
330
18
100
AcDbEntity
  8
1
  6
Continuous
100
AcDbLine
 10
264.2558054269752
 20
116.1192466774188
 30
0.0
 11
262.2558054269749
 21
116.1192466774182
 31
0.0
  0
LINE
  5
2191
330
18
100
AcDbEntity
  8
1
  6
Continuous
100
AcDbLine
 10
264.2558054269749
 20
125.1192466774188
 30
0.0
 11
262.2558054269749
 21
125.1192466774182
 31
0.0
  0
LINE
  5
2192
330
18
100
AcDbEntity
  8
1
  6
Continuous
100
AcDbLine
 10
262.255805426975
 20
116.1192466774182
 30
0.0
 11
262.255805426975
 21
125.1192466774182
 31
0.0
  0
LINE
  5
2193
330
18
100
AcDbEntity
  8
1
  6
Continuous
100
AcDbLine
 10
264.255805426975
 20
116.1192466774187
 30
0.0
 11
264.255805426975
 21
125.1192466774188
 31
0.0
  0
LINE
  5
2195
330
18
100
AcDbEntity
  8
1
  6
Continuous
100
AcDbLine
 10
254.6298161489775
 20
126.6192466774159
 30
0.0
 11
254.6298161489822
 21
114.6192466774162
 31
0.0
  0
LINE
  5
2196
330
18
100
AcDbEntity
  8
1
  6
Continuous
100
AcDbLine
 10
255.9288542546325
 20
126.6192466774163
 30
0.0
 11
255.9288542546267
 21
114.6192466774162
 31
0.0
  0
LINE
  5
2197
330
18
100
AcDbEntity
  8
1
  6
Continuous
100
AcDbLine
 10
258.2558054266476
 20
126.619246677417
 30
0.0
 11
258.2558054265967
 21
114.6192466774162
 31
0.0
  0
LINE
  5
219A
330
18
100
AcDbEntity
  8
1
  6
Continuous
100
AcDbLine
 10
254.2558054267382
 20
126.6192466774157
 30
0.0
 11
254.2558054267309
 21
130.0192466774156
 31
0.0
  0
LINE
  5
219B
330
18
100
AcDbEntity
  8
1
  6
Continuous
100
AcDbLine
 10
262.255805426971
 20
126.6192466774183
 30
0.0
 11
262.255805426982
 21
130.0192466774183
 31
0.0
  0
LINE
  5
219C
330
18
100
AcDbEntity
  8
1
  6
Continuous
100
AcDbLine
 10
262.255805426971
 20
126.6192466774183
 30
0.0
 11
254.2558054267383
 21
126.6192466774157
 31
0.0
  0
LINE
  5
219D
330
18
100
AcDbEntity
  8
1
  6
Continuous
100
AcDbLine
 10
254.255805426742
 20
114.6192466774154
 30
0.0
 11
254.2558054267371
 21
111.2192466774154
 31
0.0
  0
LINE
  5
219E
330
18
100
AcDbEntity
  8
1
  6
Continuous
100
AcDbLine
 10
262.255805426975
 20
114.619246677418
 30
0.0
 11
262.2558054269882
 21
111.2192466774182
 31
0.0
  0
LINE
  5
219F
330
18
100
AcDbEntity
  8
1
  6
Continuous
100
AcDbLine
 10
262.2558054269749
 20
114.6192466774182
 30
0.0
 11
254.255805426742
 21
114.6192466774154
 31
0.0
  0
ARC
  5
22B8
330
18
100
AcDbEntity
  8
1
  6
Continuous
100
AcDbCircle
 10
242.2558054268369
 20
111.6192466773802
 30
0.0
 40
0.5
100
AcDbArc
 50
0.0
 51
90.0
  0
ARC
  5
22B9
330
18
100
AcDbEntity
  8
1
  6
Continuous
100
AcDbCircle
 10
244.2558054268372
 20
111.6192466773924
 30
0.0
 40
0.5
100
AcDbArc
 50
90.0
 51
180.0
  0
ARC
  5
22BA
330
18
100
AcDbEntity
  8
1
  6
Continuous
100
AcDbCircle
 10
242.2558054268372
 20
99.61924667738545
 30
0.0
 40
0.5
100
AcDbArc
 50
270.0
 51
0.0
  0
ARC
  5
22BB
330
18
100
AcDbEntity
  8
1
  6
Continuous
100
AcDbCircle
 10
244.2558054268372
 20
99.61924667739694
 30
0.0
 40
0.5
100
AcDbArc
 50
180.0
 51
270.0
  0
ARC
  5
22BC
330
18
100
AcDbEntity
  8
1
  6
Continuous
100
AcDbCircle
 10
249.7558054268472
 20
107.6192466773902
 30
0.0
 40
0.5
100
AcDbArc
 50
270.0
 51
0.0
  0
ARC
  5
22BD
330
18
100
AcDbEntity
  8
1
  6
Continuous
100
AcDbCircle
 10
249.75580542686
 20
105.6192466773903
 30
0.0
 40
0.5
100
AcDbArc
 50
0.0
 51
90.0
  0
LINE
  5
22BE
330
18
100
AcDbEntity
  8
1
  6
Continuous
100
AcDbLine
 10
240.2558054267836
 20
112.1192466773679
 30
0.0
 11
242.255805426834
 21
112.1192466773802
 31
0.0
  0
LINE
  5
22BF
330
18
100
AcDbEntity
  8
1
  6
Continuous
100
AcDbLine
 10
244.255805426834
 20
112.1192466773924
 30
0.0
 11
249.7558054268188
 21
112.1192466774261
 31
0.0
  0
ARC
  5
22C0
330
18
100
AcDbEntity
  8
1
  6
Continuous
100
AcDbCircle
 10
243.2558054268157
 20
106.6192466773909
 30
0.0
 40
4.0
100
AcDbArc
 50
97.18075578114969
 51
131.8103148961119
  0
ARC
  5
22C1
330
18
100
AcDbEntity
  8
1
  6
Continuous
100
AcDbCircle
 10
243.2558054268157
 20
106.6192466773909
 30
0.0
 40
4.0
100
AcDbArc
 50
7.1807557814485
 51
82.81924421823317
  0
LINE
  5
22C2
330
18
100
AcDbEntity
  8
1
  6
Continuous
100
AcDbLine
 10
250.25580542686
 20
105.6192466773933
 30
0.0
 11
250.255805426898
 21
99.61924667743216
 31
0.0
  0
LINE
  5
22C3
330
18
100
AcDbEntity
  8
1
  6
Continuous
100
AcDbLine
 10
250.255805426822
 20
111.6192466774293
 30
0.0
 11
250.2558054268472
 21
107.6192466773933
 31
0.0
  0
ARC
  5
22C4
330
18
100
AcDbEntity
  8
1
  6
Continuous
100
AcDbCircle
 10
243.2558054268157
 20
106.6192466773909
 30
0.0
 40
4.0
100
AcDbArc
 50
277.1807557817668
 51
352.8192442185317
  0
LINE
  5
22C5
330
18
100
AcDbEntity
  8
1
  6
Continuous
100
AcDbLine
 10
241.2558054268592
 20
99.11924667737968
 30
0.0
 11
242.2558054268399
 21
99.11924667738546
 31
0.0
  0
LINE
  5
22C6
330
18
100
AcDbEntity
  8
1
  6
Continuous
100
AcDbLine
 10
244.25580542684
 20
99.11924667739706
 30
0.0
 11
249.7558054269009
 21
99.11924667742887
 31
0.0
  0
ARC
  5
22C7
330
18
100
AcDbEntity
  8
1
  6
Continuous
100
AcDbCircle
 10
243.2558054268157
 20
106.6192466773909
 30
0.0
 40
4.0
100
AcDbArc
 50
228.1896851045522
 51
262.8192442188503
  0
LINE
  5
22C8
330
18
100
AcDbEntity
  8
1
  6
Continuous
100
AcDbLine
 10
242.7558054268371
 20
111.6192466774011
 30
0.0
 11
242.7558054268371
 21
110.5878736439869
 31
0.0
  0
LINE
  5
22C9
330
18
100
AcDbEntity
  8
1
  6
Continuous
100
AcDbLine
 10
243.7558054268371
 20
111.6192466773888
 30
0.0
 11
243.7558054268371
 21
110.5878736439869
 31
0.0
  0
LINE
  5
22CA
330
18
100
AcDbEntity
  8
1
  6
Continuous
100
AcDbLine
 10
247.2244323934338
 20
107.1192466773903
 30
0.0
 11
249.7558054268663
 21
107.1192466773903
 31
0.0
  0
LINE
  5
22CB
330
18
100
AcDbEntity
  8
1
  6
Continuous
100
AcDbLine
 10
247.2244323934339
 20
106.1192466773902
 30
0.0
 11
249.7558054268536
 21
106.1192466773902
 31
0.0
  0
LINE
  5
22CC
330
18
100
AcDbEntity
  8
1
  6
Continuous
100
AcDbLine
 10
242.7558054268371
 20
102.6506197107932
 30
0.0
 11
242.7558054268371
 21
99.619246677396
 31
0.0
  0
LINE
  5
22CD
330
18
100
AcDbEntity
  8
1
  6
Continuous
100
AcDbLine
 10
243.7558054268371
 20
102.6506197107932
 30
0.0
 11
243.7558054268371
 21
99.61924667738438
 31
0.0
  0
ARC
  5
22CE
330
18
100
AcDbEntity
  8
1
  6
Continuous
100
AcDbCircle
 10
242.2558054268157
 20
141.6192466773855
 30
0.0
 40
0.5
100
AcDbArc
 50
0.0
 51
90.0
  0
ARC
  5
22CF
330
18
100
AcDbEntity
  8
1
  6
Continuous
100
AcDbCircle
 10
244.2558054268157
 20
141.619246677397
 30
0.0
 40
0.5
100
AcDbArc
 50
90.0
 51
180.0
  0
ARC
  5
22D0
330
18
100
AcDbEntity
  8
1
  6
Continuous
100
AcDbCircle
 10
242.2558054268157
 20
129.6192466773803
 30
0.0
 40
0.5
100
AcDbArc
 50
270.0
 51
0.0
  0
ARC
  5
22D1
330
18
100
AcDbEntity
  8
1
  6
Continuous
100
AcDbCircle
 10
244.2558054268157
 20
129.6192466773925
 30
0.0
 40
0.5
100
AcDbArc
 50
180.0
 51
270.0
  0
ARC
  5
22D2
330
18
100
AcDbEntity
  8
1
  6
Continuous
100
AcDbCircle
 10
249.7558054268322
 20
135.6192466773911
 30
0.0
 40
0.5
100
AcDbArc
 50
270.0
 51
0.0
  0
ARC
  5
22D3
330
18
100
AcDbEntity
  8
1
  6
Continuous
100
AcDbCircle
 10
249.7558054268449
 20
133.6192466773911
 30
0.0
 40
0.5
100
AcDbArc
 50
0.0
 51
90.0
  0
ARC
  5
22D4
330
18
100
AcDbEntity
  8
1
  6
Continuous
100
AcDbCircle
 10
243.2558054268157
 20
134.6192466773913
 30
0.0
 40
4.0
100
AcDbArc
 50
7.180755781455612
 51
82.81924421854176
  0
ARC
  5
22D5
330
18
100
AcDbEntity
  8
1
  6
Continuous
100
AcDbCircle
 10
243.2558054268157
 20
134.6192466773913
 30
0.0
 40
4.0
100
AcDbArc
 50
277.1807557814582
 51
352.8192442185396
  0
LINE
  5
22D6
330
18
100
AcDbEntity
  8
1
  6
Continuous
100
AcDbLine
 10
250.2558054268449
 20
133.6192466773943
 30
0.0
 11
250.2558054268702
 21
129.6192466774294
 31
0.0
  0
LINE
  5
22D7
330
18
100
AcDbEntity
  8
1
  6
Continuous
100
AcDbLine
 10
250.2558054267943
 20
141.6192466774321
 30
0.0
 11
250.2558054268322
 21
135.6192466773943
 31
0.0
  0
LINE
  5
22D8
330
18
100
AcDbEntity
  8
1
  6
Continuous
100
AcDbLine
 10
240.2558054268477
 20
129.119246677368
 30
0.0
 11
242.2558054268188
 21
129.1192466773803
 31
0.0
  0
LINE
  5
22D9
330
18
100
AcDbEntity
  8
1
  6
Continuous
100
AcDbLine
 10
244.2558054268188
 20
129.1192466773925
 30
0.0
 11
249.7558054268732
 21
129.1192466774262
 31
0.0
  0
ARC
  5
22DA
330
18
100
AcDbEntity
  8
1
  6
Continuous
100
AcDbCircle
 10
243.2558054268157
 20
134.6192466773913
 30
0.0
 40
4.0
100
AcDbArc
 50
228.1896851045522
 51
262.8192442185417
  0
ARC
  5
22DB
330
18
100
AcDbEntity
  8
1
  6
Continuous
100
AcDbCircle
 10
243.2558054268157
 20
134.6192466773913
 30
0.0
 40
4.0
100
AcDbArc
 50
97.18075578145823
 51
131.8103148961119
  0
LINE
  5
22DC
330
18
100
AcDbEntity
  8
1
  6
Continuous
100
AcDbLine
 10
241.2558054267702
 20
142.1192466773797
 30
0.0
 11
242.2558054268127
 21
142.1192466773855
 31
0.0
  0
LINE
  5
22DD
330
18
100
AcDbEntity
  8
1
  6
Continuous
100
AcDbLine
 10
244.2558054268127
 20
142.119246677397
 30
0.0
 11
249.755805426791
 21
142.1192466774289
 31
0.0
  0
LINE
  5
22DE
330
18
100
AcDbEntity
  8
1
  6
Continuous
100
AcDbLine
 10
243.7558054268157
 20
129.6192466773925
 30
0.0
 11
243.7558054268157
 21
130.6506197107944
 31
0.0
  0
LINE
  5
22DF
330
18
100
AcDbEntity
  8
1
  6
Continuous
100
AcDbLine
 10
243.7558054268157
 20
138.5878736439882
 30
0.0
 11
243.7558054268157
 21
141.619246677397
 31
0.0
  0
LINE
  5
22E0
330
18
100
AcDbEntity
  8
1
  6
Continuous
100
AcDbLine
 10
242.7558054268158
 20
129.6192466773803
 30
0.0
 11
242.7558054268158
 21
130.6506197107944
 31
0.0
  0
LINE
  5
22E1
330
18
100
AcDbEntity
  8
1
  6
Continuous
100
AcDbLine
 10
242.7558054268158
 20
138.5878736439882
 30
0.0
 11
242.7558054268158
 21
141.6192466773855
 31
0.0
  0
LINE
  5
22E4
330
18
100
AcDbEntity
  8
1
  6
Continuous
100
AcDbLine
 10
247.2244323934124
 20
134.1192466773911
 30
0.0
 11
249.7558054268449
 21
134.1192466773911
 31
0.0
  0
LINE
  5
22E5
330
18
100
AcDbEntity
  8
1
  6
Continuous
100
AcDbLine
 10
247.2244323934126
 20
135.1192466773911
 30
0.0
 11
249.7558054268322
 21
135.1192466773911
 31
0.0
  0
ARC
  5
22EF
330
18
100
AcDbEntity
  8
1
  6
Continuous
100
AcDbCircle
 10
240.2558054267749
 20
113.6192466773679
 30
0.0
 40
0.5
100
AcDbArc
 50
180.0000000003509
 51
270.0000000003517
  0
LINE
  5
22F0
330
18
100
AcDbEntity
  8
1
  6
Continuous
100
AcDbLine
 10
239.7558054266939
 20
127.619246677365
 30
0.0
 11
239.7558054267751
 21
113.619246677365
 31
0.0
  0
ARC
  5
22F1
330
18
100
AcDbEntity
  8
1
  6
Continuous
100
AcDbCircle
 10
240.2558054266939
 20
127.6192466773679
 30
0.0
 40
0.5
100
AcDbArc
 50
90.0000000003517
 51
180.0000000003509
  0
LINE
  5
22F2
330
18
100
AcDbEntity
  8
1
  6
Continuous
100
AcDbLine
 10
240.2558054266908
 20
128.1192466773679
 30
0.0
 11
249.7558054267098
 21
128.1192466774262
 31
0.0
  0
ARC
  5
22F3
330
18
100
AcDbEntity
  8
1
  6
Continuous
100
AcDbCircle
 10
249.7558054267127
 20
127.6192466774261
 30
0.0
 40
0.5
100
AcDbArc
 50
0.0000000003509193
 51
90.0000000003517
  0
LINE
  5
22F4
330
18
100
AcDbEntity
  8
1
  6
Continuous
100
AcDbLine
 10
250.2558054267127
 20
127.6192466774277
 30
0.0
 11
250.2558054267558
 21
113.6192466774277
 31
0.0
  0
ARC
  5
22F5
330
18
100
AcDbEntity
  8
1
  6
Continuous
100
AcDbCircle
 10
249.7558054267557
 20
113.6192466774261
 30
0.0
 40
0.5
100
AcDbArc
 50
270.0000000003517
 51
0.0000000003509193
  0
LINE
  5
22F6
330
18
100
AcDbEntity
  8
1
  6
Continuous
100
AcDbLine
 10
240.2558054267781
 20
113.1192466773679
 30
0.0
 11
249.7558054267588
 21
113.1192466774261
 31
0.0
  0
ARC
  5
22F7
330
18
100
AcDbEntity
  8
1
  6
Continuous
100
AcDbCircle
 10
249.7558054268702
 20
129.6192466774262
 30
0.0
 40
0.5
100
AcDbArc
 50
270.0000000003517
 51
0.0000000003509193
  0
ARC
  5
22F8
330
18
100
AcDbEntity
  8
1
  6
Continuous
100
AcDbCircle
 10
249.7558054267942
 20
141.6192466774289
 30
0.0
 40
0.5
100
AcDbArc
 50
0.0000000003509193
 51
90.0000000003517
  0
ARC
  5
22F9
330
18
100
AcDbEntity
  8
1
  6
Continuous
100
AcDbCircle
 10
241.255805426779
 20
140.6192466773797
 30
0.0
 40
1.5
100
AcDbArc
 50
90.00000000033223
 51
180.0000000003322
  0
LINE
  5
22FA
330
18
100
AcDbEntity
  8
1
  6
Continuous
100
AcDbLine
 10
239.7558054267809
 20
140.619246677371
 30
0.0
 11
239.7558054267962
 21
137.9733486436207
 31
0.0
  0
ARC
  5
22FB
330
18
100
AcDbEntity
  8
1
  6
Continuous
100
AcDbCircle
 10
240.2558054267962
 20
137.9733486436235
 30
0.0
 40
0.5
100
AcDbArc
 50
180.0000000003509
 51
311.8103148961162
  0
ARC
  5
22FC
330
18
100
AcDbEntity
  8
1
  6
Continuous
100
AcDbCircle
 10
240.2558054268351
 20
131.2651447111242
 30
0.0
 40
0.5
100
AcDbArc
 50
48.18968510455175
 51
180.0000000003509
  0
LINE
  5
22FD
330
18
100
AcDbEntity
  8
1
  6
Continuous
100
AcDbLine
 10
239.7558054268351
 20
131.2651447111212
 30
0.0
 11
239.7558054268447
 21
129.6192466773652
 31
0.0
  0
ARC
  5
22FE
330
18
100
AcDbEntity
  8
1
  6
Continuous
100
AcDbCircle
 10
240.2558054268447
 20
129.6192466773681
 30
0.0
 40
0.5
100
AcDbArc
 50
180.0000000003509
 51
270.0000000003517
  0
ARC
  5
22FF
330
18
100
AcDbEntity
  8
1
  6
Continuous
100
AcDbCircle
 10
241.2558054268503
 20
100.6192466773796
 30
0.0
 40
1.5
100
AcDbArc
 50
180.0000000003322
 51
270.0000000003321
  0
ARC
  5
2300
330
18
100
AcDbEntity
  8
1
  6
Continuous
100
AcDbCircle
 10
249.755805426898
 20
99.61924667742891
 30
0.0
 40
0.5
100
AcDbArc
 50
270.0000000003517
 51
0.0000000003509193
  0
ARC
  5
2301
330
18
100
AcDbEntity
  8
1
  6
Continuous
100
AcDbCircle
 10
249.755805426822
 20
111.6192466774261
 30
0.0
 40
0.5
100
AcDbArc
 50
0.0000000003509193
 51
90.0000000003517
  0
ARC
  5
2302
330
18
100
AcDbEntity
  8
1
  6
Continuous
100
AcDbCircle
 10
240.2558054267867
 20
111.6192466773679
 30
0.0
 40
0.5
100
AcDbArc
 50
90.0000000003517
 51
180.0000000003509
  0
LINE
  5
2303
330
18
100
AcDbEntity
  8
1
  6
Continuous
100
AcDbLine
 10
239.7558054267867
 20
111.619246677365
 30
0.0
 11
239.7558054267963
 21
109.9733486436202
 31
0.0
  0
ARC
  5
2304
330
18
100
AcDbEntity
  8
1
  6
Continuous
100
AcDbCircle
 10
240.2558054267963
 20
109.9733486436231
 30
0.0
 40
0.5
100
AcDbArc
 50
180.0000000003509
 51
311.8103148961162
  0
ARC
  5
2305
330
18
100
AcDbEntity
  8
1
  6
Continuous
100
AcDbCircle
 10
240.2558054268351
 20
103.2651447111238
 30
0.0
 40
0.5
100
AcDbArc
 50
48.18968510455175
 51
180.0000000003509
  0
LINE
  5
2306
330
18
100
AcDbEntity
  8
1
  6
Continuous
100
AcDbLine
 10
239.7558054268351
 20
103.265144711121
 30
0.0
 11
239.7558054268504
 21
100.6192466773709
 31
0.0
  0
LINE
  5
2313
330
18
100
AcDbEntity
  8
1
  6
Continuous
100
AcDbLine
 10
254.255805426838
 20
133.6192466773597
 30
0.0
 11
263.9126596763036
 21
133.6192466773598
 31
0.0
  0
LINE
  5
2314
330
18
100
AcDbEntity
  8
1
  6
Continuous
100
AcDbLine
 10
263.9126596763036
 20
133.6192466773597
 30
0.0
 11
263.9126596763036
 21
130.1192466774167
 31
0.0
  0
LINE
  5
2315
330
18
100
AcDbEntity
  8
1
  6
Continuous
100
AcDbLine
 10
260.5827565988971
 20
143.6192466774169
 30
0.0
 11
260.5827565988781
 21
133.6192466773597
 31
0.0
  0
LINE
  5
2316
330
18
100
AcDbEntity
  8
1
  6
Continuous
100
AcDbLine
 10
261.881794704624
 20
143.6192466774168
 30
0.0
 11
261.8817947046384
 21
133.6192466773597
 31
0.0
  0
LINE
  5
2317
330
18
100
AcDbEntity
  8
1
  6
Continuous
100
AcDbLine
 10
258.2558054268018
 20
143.6192466774167
 30
0.0
 11
258.2558054268156
 21
133.6192466773597
 31
0.0
  0
LINE
  5
2318
330
18
100
AcDbEntity
  8
1
  6
Continuous
100
AcDbLine
 10
254.2558054268364
 20
130.1192466774167
 30
0.0
 11
254.255805426838
 21
133.6192466773596
 31
0.0
  0
LINE
  5
2319
330
18
100
AcDbEntity
  8
1
  6
Continuous
100
AcDbLine
 10
262.2558054267648
 20
133.6192466773597
 30
0.0
 11
262.2558054267605
 21
130.1192466774167
 31
0.0
  0
LINE
  5
231D
330
18
100
AcDbEntity
  8
1
  6
Continuous
100
AcDbLine
 10
254.255805426838
 20
107.6192466774738
 30
0.0
 11
263.9126596763036
 21
107.6192466774738
 31
0.0
  0
LINE
  5
231E
330
18
100
AcDbEntity
  8
1
  6
Continuous
100
AcDbLine
 10
263.9126596763036
 20
107.6192466774738
 30
0.0
 11
263.9126596763036
 21
111.1192466774168
 31
0.0
  0
LINE
  5
231F
330
18
100
AcDbEntity
  8
1
  6
Continuous
100
AcDbLine
 10
260.582756598897
 20
97.619246677417
 30
0.0
 11
260.5827565988781
 21
107.6192466774738
 31
0.0
  0
LINE
  5
2320
330
18
100
AcDbEntity
  8
1
  6
Continuous
100
AcDbLine
 10
261.8817947046239
 20
97.61924667741688
 30
0.0
 11
261.8817947046384
 21
107.6192466774738
 31
0.0
  0
LINE
  5
2321
330
18
100
AcDbEntity
  8
1
  6
Continuous
100
AcDbLine
 10
258.2558054268018
 20
97.61924667741688
 30
0.0
 11
258.2558054267917
 21
107.6192466774738
 31
0.0
  0
LINE
  5
234C
330
18
100
AcDbEntity
  8
1
  6
Continuous
100
AcDbLine
 10
254.2558054268365
 20
111.1192466774169
 30
0.0
 11
254.255805426838
 21
107.6192466774738
 31
0.0
  0
LINE
  5
234D
330
18
100
AcDbEntity
  8
1
  6
Continuous
100
AcDbLine
 10
262.2558054267646
 20
107.6192466774738
 30
0.0
 11
262.2558054267605
 21
111.1192466774168
 31
0.0
  0
ARC
  5
23D9
330
18
100
AcDbEntity
  8
1
  6
Continuous
100
AcDbCircle
 10
243.2558054268157
 20
106.6192466773909
 30
0.0
 40
3.476122564923854
100
AcDbArc
 50
287.7655929729313
 51
342.2344070270686
  0
ARC
  5
23DA
330
18
100
AcDbEntity
  8
1
  6
Continuous
100
AcDbCircle
 10
243.2558054268157
 20
106.6192466773909
 30
0.0
 40
2.431475310893801
100
AcDbArc
 50
295.8626475413037
 51
334.1373524586964
  0
LINE
  5
23DB
330
18
100
AcDbEntity
  8
1
  6
Continuous
100
AcDbLine
 10
244.3165062607712
 20
105.5586000598921
 30
0.0
 11
246.5661614256716
 21
105.5586000598921
 31
0.0
  0
LINE
  5
23DC
330
18
100
AcDbEntity
  8
1
  6
Continuous
100
AcDbLine
 10
244.3164520443145
 20
103.3088906785351
 30
0.0
 11
244.3164520443145
 21
105.5585458434354
 31
0.0
  0
CIRCLE
  5
23DD
330
18
100
AcDbEntity
  8
1
  6
Continuous
100
AcDbCircle
 10
243.2558054268157
 20
106.6192466773909
 30
0.0
 40
1.500019168666085
  0
LINE
  5
23DE
330
18
100
AcDbEntity
  8
1
  6
Continuous
100
AcDbLine
 10
242.1951588093169
 20
103.3088906785351
 30
0.0
 11
242.1951588093169
 21
105.5585458434354
 31
0.0
  0
ARC
  5
23DF
330
18
100
AcDbEntity
  8
1
  6
Continuous
100
AcDbCircle
 10
243.2558054268157
 20
106.6192466773909
 30
0.0
 40
2.431475310893801
100
AcDbArc
 50
205.8626475413036
 51
244.1373524586964
  0
ARC
  5
23E0
330
18
100
AcDbEntity
  8
1
  6
Continuous
100
AcDbCircle
 10
243.2558054268157
 20
106.6192466773909
 30
0.0
 40
3.476122564923854
100
AcDbArc
 50
197.7655929729313
 51
252.2344070270686
  0
LINE
  5
23E1
330
18
100
AcDbEntity
  8
1
  6
Continuous
100
AcDbLine
 10
239.9454494279599
 20
105.5586000598921
 30
0.0
 11
242.1951045928602
 21
105.5586000598921
 31
0.0
  0
LINE
  5
23E2
330
18
100
AcDbEntity
  8
1
  6
Continuous
100
AcDbLine
 10
242.1951588093169
 20
107.6799475113465
 30
0.0
 11
242.1951588093169
 21
109.9296026762468
 31
0.0
  0
LINE
  5
23E3
330
18
100
AcDbEntity
  8
1
  6
Continuous
100
AcDbLine
 10
242.1951045928602
 20
107.6798932948898
 30
0.0
 11
239.9454494279599
 21
107.6798932948898
 31
0.0
  0
ARC
  5
23E4
330
18
100
AcDbEntity
  8
1
  6
Continuous
100
AcDbCircle
 10
243.2558054268157
 20
106.6192466773909
 30
0.0
 40
2.431475310893801
100
AcDbArc
 50
115.8626475413036
 51
154.1373524586963
  0
ARC
  5
23E5
330
18
100
AcDbEntity
  8
1
  6
Continuous
100
AcDbCircle
 10
243.2558054268157
 20
106.6192466773909
 30
0.0
 40
3.476122564923854
100
AcDbArc
 50
107.7655929729313
 51
162.2344070270686
  0
LINE
  5
23E6
330
18
100
AcDbEntity
  8
1
  6
Continuous
100
AcDbLine
 10
244.3164520443145
 20
107.6799475113465
 30
0.0
 11
244.3164520443145
 21
109.9296026762468
 31
0.0
  0
LINE
  5
23E7
330
18
100
AcDbEntity
  8
1
  6
Continuous
100
AcDbLine
 10
246.5661614256716
 20
107.6798932948898
 30
0.0
 11
244.3165062607712
 21
107.6798932948898
 31
0.0
  0
ARC
  5
23E8
330
18
100
AcDbEntity
  8
1
  6
Continuous
100
AcDbCircle
 10
243.2558054268157
 20
106.6192466773909
 30
0.0
 40
2.431475310893801
100
AcDbArc
 50
25.86264754130363
 51
64.13735245869637
  0
ARC
  5
23E9
330
18
100
AcDbEntity
  8
1
  6
Continuous
100
AcDbCircle
 10
243.2558054268157
 20
106.6192466773909
 30
0.0
 40
3.476122564923854
100
AcDbArc
 50
17.76559297293136
 51
72.23440702706864
  0
CIRCLE
  5
23EB
330
18
100
AcDbEntity
  8
1
  6
Continuous
100
AcDbCircle
 10
273.2558054268109
 20
134.6192466774217
 30
0.0
 40
1.500019168666085
  0
ARC
  5
23EC
330
18
100
AcDbEntity
  8
1
  6
Continuous
100
AcDbCircle
 10
273.2558054268109
 20
134.6192466774217
 30
0.0
 40
3.476122564923854
100
AcDbArc
 50
17.76559297293136
 51
72.23440702706864
  0
LINE
  5
23ED
330
18
100
AcDbEntity
  8
1
  6
Continuous
100
AcDbLine
 10
276.5661614256667
 20
135.6798932949205
 30
0.0
 11
274.3165062607664
 21
135.6798932949205
 31
0.0
  0
LINE
  5
23EE
330
18
100
AcDbEntity
  8
1
  6
Continuous
100
AcDbLine
 10
274.3164520443097
 20
135.6799475113772
 30
0.0
 11
274.3164520443097
 21
137.9296026762776
 31
0.0
  0
ARC
  5
23EF
330
18
100
AcDbEntity
  8
1
  6
Continuous
100
AcDbCircle
 10
273.2558054268109
 20
134.6192466774217
 30
0.0
 40
2.431475310893801
100
AcDbArc
 50
25.86264754130363
 51
64.13735245869637
  0
LINE
  5
23F0
330
18
100
AcDbEntity
  8
1
  6
Continuous
100
AcDbLine
 10
272.1951045928554
 20
135.6798932949205
 30
0.0
 11
269.945449427955
 21
135.6798932949205
 31
0.0
  0
LINE
  5
23F1
330
18
100
AcDbEntity
  8
1
  6
Continuous
100
AcDbLine
 10
272.1951588093121
 20
135.6799475113772
 30
0.0
 11
272.1951588093121
 21
137.9296026762776
 31
0.0
  0
ARC
  5
23F2
330
18
100
AcDbEntity
  8
1
  6
Continuous
100
AcDbCircle
 10
273.2558054268109
 20
134.6192466774217
 30
0.0
 40
3.476122564923854
100
AcDbArc
 50
107.7655929729313
 51
162.2344070270686
  0
ARC
  5
23F3
330
18
100
AcDbEntity
  8
1
  6
Continuous
100
AcDbCircle
 10
273.2558054268109
 20
134.6192466774217
 30
0.0
 40
2.431475310893801
100
AcDbArc
 50
115.8626475413036
 51
154.1373524586963
  0
LINE
  5
23F4
330
18
100
AcDbEntity
  8
1
  6
Continuous
100
AcDbLine
 10
269.945449427955
 20
133.5586000599229
 30
0.0
 11
272.1951045928554
 21
133.5586000599229
 31
0.0
  0
ARC
  5
23F5
330
18
100
AcDbEntity
  8
1
  6
Continuous
100
AcDbCircle
 10
273.2558054268109
 20
134.6192466774217
 30
0.0
 40
2.431475310893801
100
AcDbArc
 50
205.8626475413036
 51
244.1373524586964
  0
ARC
  5
23F6
330
18
100
AcDbEntity
  8
1
  6
Continuous
100
AcDbCircle
 10
273.2558054268109
 20
134.6192466774217
 30
0.0
 40
3.476122564923854
100
AcDbArc
 50
197.7655929729313
 51
252.2344070270686
  0
LINE
  5
23F7
330
18
100
AcDbEntity
  8
1
  6
Continuous
100
AcDbLine
 10
272.1951588093121
 20
131.3088906785657
 30
0.0
 11
272.1951588093121
 21
133.5585458434662
 31
0.0
  0
LINE
  5
23F8
330
18
100
AcDbEntity
  8
1
  6
Continuous
100
AcDbLine
 10
274.3165062607664
 20
133.5586000599229
 30
0.0
 11
276.5661614256667
 21
133.5586000599229
 31
0.0
  0
ARC
  5
23F9
330
18
100
AcDbEntity
  8
1
  6
Continuous
100
AcDbCircle
 10
273.2558054268109
 20
134.6192466774217
 30
0.0
 40
2.431475310893801
100
AcDbArc
 50
295.8626475413037
 51
334.1373524586964
  0
LINE
  5
23FA
330
18
100
AcDbEntity
  8
1
  6
Continuous
100
AcDbLine
 10
274.3164520443097
 20
131.3088906785657
 30
0.0
 11
274.3164520443097
 21
133.5585458434662
 31
0.0
  0
ARC
  5
23FB
330
18
100
AcDbEntity
  8
1
  6
Continuous
100
AcDbCircle
 10
273.2558054268109
 20
134.6192466774217
 30
0.0
 40
3.476122564923854
100
AcDbArc
 50
287.7655929729313
 51
342.2344070270686
  0
CIRCLE
  5
23FC
330
18
100
AcDbEntity
  8
1
  6
Continuous
100
AcDbCircle
 10
273.2558054268201
 20
106.6192466774214
 30
0.0
 40
1.500019168666085
  0
ARC
  5
23FD
330
18
100
AcDbEntity
  8
1
  6
Continuous
100
AcDbCircle
 10
273.2558054268201
 20
106.6192466774214
 30
0.0
 40
3.476122564923854
100
AcDbArc
 50
17.76559297293136
 51
72.23440702706864
  0
LINE
  5
23FE
330
18
100
AcDbEntity
  8
1
  6
Continuous
100
AcDbLine
 10
276.566161425676
 20
107.6798932949202
 30
0.0
 11
274.3165062607757
 21
107.6798932949202
 31
0.0
  0
LINE
  5
23FF
330
18
100
AcDbEntity
  8
1
  6
Continuous
100
AcDbLine
 10
274.316452044319
 20
107.6799475113769
 30
0.0
 11
274.316452044319
 21
109.9296026762773
 31
0.0
  0
ARC
  5
2400
330
18
100
AcDbEntity
  8
1
  6
Continuous
100
AcDbCircle
 10
273.2558054268201
 20
106.6192466774214
 30
0.0
 40
2.431475310893801
100
AcDbArc
 50
25.86264754130363
 51
64.13735245869637
  0
LINE
  5
2401
330
18
100
AcDbEntity
  8
1
  6
Continuous
100
AcDbLine
 10
272.1951045928646
 20
107.6798932949202
 30
0.0
 11
269.9454494279643
 21
107.6798932949202
 31
0.0
  0
LINE
  5
2402
330
18
100
AcDbEntity
  8
1
  6
Continuous
100
AcDbLine
 10
272.1951588093213
 20
107.6799475113769
 30
0.0
 11
272.1951588093213
 21
109.9296026762773
 31
0.0
  0
ARC
  5
2403
330
18
100
AcDbEntity
  8
1
  6
Continuous
100
AcDbCircle
 10
273.2558054268201
 20
106.6192466774214
 30
0.0
 40
3.476122564923854
100
AcDbArc
 50
107.7655929729313
 51
162.2344070270686
  0
ARC
  5
2404
330
18
100
AcDbEntity
  8
1
  6
Continuous
100
AcDbCircle
 10
273.2558054268201
 20
106.6192466774214
 30
0.0
 40
2.431475310893801
100
AcDbArc
 50
115.8626475413036
 51
154.1373524586963
  0
LINE
  5
2405
330
18
100
AcDbEntity
  8
1
  6
Continuous
100
AcDbLine
 10
269.9454494279643
 20
105.5586000599226
 30
0.0
 11
272.1951045928646
 21
105.5586000599226
 31
0.0
  0
ARC
  5
2406
330
18
100
AcDbEntity
  8
1
  6
Continuous
100
AcDbCircle
 10
273.2558054268201
 20
106.6192466774214
 30
0.0
 40
2.431475310893801
100
AcDbArc
 50
205.8626475413036
 51
244.1373524586964
  0
ARC
  5
2407
330
18
100
AcDbEntity
  8
1
  6
Continuous
100
AcDbCircle
 10
273.2558054268201
 20
106.6192466774214
 30
0.0
 40
3.476122564923854
100
AcDbArc
 50
197.7655929729313
 51
252.2344070270686
  0
LINE
  5
2408
330
18
100
AcDbEntity
  8
1
  6
Continuous
100
AcDbLine
 10
272.1951588093213
 20
103.3088906785655
 30
0.0
 11
272.1951588093213
 21
105.5585458434659
 31
0.0
  0
LINE
  5
2409
330
18
100
AcDbEntity
  8
1
  6
Continuous
100
AcDbLine
 10
274.3165062607757
 20
105.5586000599226
 30
0.0
 11
276.566161425676
 21
105.5586000599226
 31
0.0
  0
ARC
  5
240A
330
18
100
AcDbEntity
  8
1
  6
Continuous
100
AcDbCircle
 10
273.2558054268201
 20
106.6192466774214
 30
0.0
 40
2.431475310893801
100
AcDbArc
 50
295.8626475413037
 51
334.1373524586964
  0
LINE
  5
240B
330
18
100
AcDbEntity
  8
1
  6
Continuous
100
AcDbLine
 10
274.316452044319
 20
103.3088906785655
 30
0.0
 11
274.316452044319
 21
105.5585458434659
 31
0.0
  0
ARC
  5
240C
330
18
100
AcDbEntity
  8
1
  6
Continuous
100
AcDbCircle
 10
273.2558054268201
 20
106.6192466774214
 30
0.0
 40
3.476122564923854
100
AcDbArc
 50
287.7655929729313
 51
342.2344070270686
  0
CIRCLE
  5
2470
330
18
100
AcDbEntity
  8
1
  6
Continuous
100
AcDbCircle
 10
263.6558054269748
 20
124.0688997668187
 30
0.0
 40
0.3999999999999999
  0
ARC
  5
2478
330
18
100
AcDbEntity
  8
1
  6
Continuous
100
AcDbCircle
 10
263.6558054269748
 20
122.6601374313144
 30
0.0
 40
0.4
100
AcDbArc
 50
0.0
 51
180.0
  0
LINE
  5
247B
330
18
100
AcDbEntity
  8
1
  6
Continuous
100
AcDbLine
 10
262.4558054269749
 20
121.3524429503328
 30
0.0
 11
264.0558054269749
 21
121.3524429503328
 31
0.0
  0
LINE
  5
2480
330
18
100
AcDbEntity
  8
1
  6
Continuous
100
AcDbLine
 10
264.0558054269749
 20
122.6601374313144
 30
0.0
 11
264.0558054269749
 21
122.2601374313144
 31
0.0
  0
LINE
  5
2485
330
18
100
AcDbEntity
  8
1
  6
Continuous
100
AcDbLine
 10
262.4558054269749
 20
121.3524429503328
 30
0.0
 11
262.8744110628263
 21
121.1572439365885
 31
0.0
  0
LINE
  5
2487
330
18
100
AcDbEntity
  8
1
  6
Continuous
100
AcDbLine
 10
262.4558054269749
 20
123.0601374313144
 30
0.0
 11
262.4558054269749
 21
122.2601374313144
 31
0.0
  0
LINE
  5
2488
330
18
100
AcDbEntity
  8
1
  6
Continuous
100
AcDbLine
 10
263.2558054269748
 20
122.6601374313144
 30
0.0
 11
263.2558054269748
 21
122.2601374313144
 31
0.0
  0
LINE
  5
248B
330
18
100
AcDbEntity
  8
1
  6
Continuous
100
AcDbLine
 10
262.4558054269749
 20
122.2601374313144
 30
0.0
 11
263.2558054269748
 21
122.2601374313144
 31
0.0
  0
CIRCLE
  5
248F
330
18
100
AcDbEntity
  8
1
  6
Continuous
100
AcDbCircle
 10
262.8558054269749
 20
124.0688997668187
 30
0.0
 40
0.3999999999999999
  0
LINE
  5
24AD
330
18
100
AcDbEntity
  8
1
  6
Continuous
100
AcDbLine
 10
262.4558054269749
 20
116.9609899783391
 30
0.0
 11
264.0558054269749
 21
116.9609899783391
 31
0.0
  0
LINE
  5
24AE
330
18
100
AcDbEntity
  8
1
  6
Continuous
100
AcDbLine
 10
262.4558054269749
 20
117.9989089040734
 30
0.0
 11
264.0558054269749
 21
117.9989089040734
 31
0.0
  0
LINE
  5
24AF
330
18
100
AcDbEntity
  8
1
  6
Continuous
100
AcDbLine
 10
262.4558054269749
 20
118.9189089040734
 30
0.0
 11
264.0558054269749
 21
118.9189089040734
 31
0.0
  0
LINE
  5
24B2
330
18
100
AcDbEntity
  8
1
  6
Continuous
100
AcDbLine
 10
263.2558054269748
 20
117.9989089040734
 30
0.0
 11
263.2558054269748
 21
118.9189089040734
 31
0.0
  0
LINE
  5
24B3
330
18
100
AcDbEntity
  8
1
  6
Continuous
100
AcDbLine
 10
262.4558054269749
 20
117.4409899783391
 30
0.0
 11
262.4558054269749
 21
116.480989978339
 31
0.0
  0
LINE
  5
24B4
330
18
100
AcDbEntity
  8
1
  6
Continuous
100
AcDbLine
 10
263.2558054269748
 20
120.199107485945
 30
0.0
 11
263.2558054269748
 21
119.4478126503727
 31
0.0
  0
LINE
  5
24C2
330
18
100
AcDbEntity
  8
1
  6
Continuous
100
AcDbLine
 10
256.2558054268157
 20
133.6192466773598
 30
0.0
 11
256.2558054268157
 21
126.6192466774163
 31
0.0
  0
LINE
  5
24C3
330
18
100
AcDbEntity
  8
1
  6
Continuous
100
AcDbLine
 10
260.2558054268156
 20
133.6192466773598
 30
0.0
 11
260.2558054268164
 21
126.6192466774177
 31
0.0
  0
LINE
  5
2507
330
18
100
AcDbEntity
  8
1
  6
Continuous
100
AcDbLine
 10
256.2558054268156
 20
111.2192466774214
 30
0.0
 11
252.2558054268215
 21
111.2192466774227
 31
0.0
  0
LINE
  5
2508
330
18
100
AcDbEntity
  8
1
  6
Continuous
100
AcDbLine
 10
260.255805426816
 20
111.1192466773911
 30
0.0
 11
264.2558054268066
 21
111.1192466773911
 31
0.0
  0
LINE
  5
250A
330
18
100
AcDbEntity
  8
1
  6
Continuous
100
AcDbLine
 10
260.2558054268156
 20
107.6192466774739
 30
0.0
 11
260.2558054268164
 21
114.6192466774175
 31
0.0
  0
LINE
  5
250B
330
18
100
AcDbEntity
  8
1
  6
Continuous
100
AcDbLine
 10
256.2558054268157
 20
107.6192466774739
 30
0.0
 11
256.2558054268157
 21
114.6192466774161
 31
0.0
  0
LINE
  5
2533
330
18
100
AcDbEntity
  8
1
  6
Continuous
100
AcDbLine
 10
251.7558054268409
 20
130.1192466773911
 30
0.0
 11
256.2558054268157
 21
130.1192466773911
 31
0.0
  0
LINE
  5
253B
330
18
100
AcDbEntity
  8
1
  6
Continuous
100
AcDbLine
 10
183.1267958681236
 20
143.6192466774157
 30
0.0
 11
183.1267958680005
 21
97.61924667741579
 31
0.0
  0
LINE
  5
26A3
330
18
100
AcDbEntity
  8
1
  6
Continuous
100
AcDbLine
 10
260.255805426816
 20
130.1192466773911
 30
0.0
 11
264.2558054268095
 21
130.1192466773911
 31
0.0
  0
LINE
  5
26A4
330
18
100
AcDbEntity
  8
1
  6
Continuous
100
AcDbLine
 10
256.2558054268157
 20
130.0192466774214
 30
0.0
 11
252.2558054268253
 21
130.0192466774228
 31
0.0
  0
ENDSEC
  0
SECTION
  2
OBJECTS
  0
DICTIONARY
  5
C
330
0
100
AcDbDictionary
281
     1
  3
ACAD_CIP_PREVIOUS_PRODUCT_INFO
350
270A
  3
ACAD_COLOR
350
26ED
  3
ACAD_DETAILVIEWSTYLE
350
2706
  3
ACAD_GROUP
350
D
  3
ACAD_LAYOUT
350
94
  3
ACAD_MATERIAL
350
26BB
  3
ACAD_MLEADERSTYLE
350
2702
  3
ACAD_MLINESTYLE
350
1B
  3
ACAD_PLOTSETTINGS
350
95
  3
ACAD_PLOTSTYLENAME
350
26B9
  3
ACAD_SCALELIST
350
26F0
  3
ACAD_SECTIONVIEWSTYLE
350
2704
  3
ACAD_TABLESTYLE
350
26EE
  3
ACAD_VISUALSTYLE
350
26D4
  3
ACDB_RECOMPOSE_DATA
350
2728
  3
AcDbVariableDictionary
350
271B
  3
CONTENTDICTIONARY
350
3D
  3
DWGPROPS
350
2729
  0
DICTIONARY
  5
270B
330
E
100
AcDbDictionary
280
     1
281
     1
  3
ADSK_XREC_LAYER_RECONCILED
360
270C
  0
DICTIONARY
  5
270D
330
4E
100
AcDbDictionary
280
     1
281
     1
  3
ADSK_XREC_LAYER_RECONCILED
360
270E
  0
DICTIONARY
  5
270F
330
4F
100
AcDbDictionary
280
     1
281
     1
  3
ADSK_XREC_LAYER_RECONCILED
360
2710
  0
DICTIONARY
  5
2711
330
50
100
AcDbDictionary
280
     1
281
     1
  3
ADSK_XREC_LAYER_RECONCILED
360
2712
  0
DICTIONARY
  5
2713
330
51
100
AcDbDictionary
280
     1
281
     1
  3
ADSK_XREC_LAYER_RECONCILED
360
2714
  0
DICTIONARY
  5
2715
330
52
100
AcDbDictionary
280
     1
281
     1
  3
ADSK_XREC_LAYER_RECONCILED
360
2716
  0
DICTIONARY
  5
2717
330
53
100
AcDbDictionary
280
     1
281
     1
  3
ADSK_XREC_LAYER_RECONCILED
360
2718
  0
DICTIONARY
  5
2719
330
54
100
AcDbDictionary
280
     1
281
     1
  3
ADSK_XREC_LAYER_RECONCILED
360
271A
  0
DICTIONARY
  5
26B4
330
18
100
AcDbDictionary
281
     1
  3
ACAD_LAYOUTSELFREF
350
26B5
  0
DICTIONARY
  5
26B2
330
15
100
AcDbDictionary
281
     1
  3
ACAD_LAYOUTSELFREF
350
26B3
  0
XRECORD
  5
270A
102
{ACAD_REACTORS
330
C
102
}
330
C
100
AcDbXrecord
280
     1
300
ACDLT
300
2014
300
ACDLT_F_S
  0
DICTIONARY
  5
26ED
102
{ACAD_REACTORS
330
C
102
}
330
C
100
AcDbDictionary
281
     1
  0
DICTIONARY
  5
2706
102
{ACAD_REACTORS
330
C
102
}
330
C
100
AcDbDictionary
281
     1
  3
Imperial24
350
2707
  0
DICTIONARY
  5
D
102
{ACAD_REACTORS
330
C
102
}
330
C
100
AcDbDictionary
281
     1
  0
DICTIONARY
  5
94
102
{ACAD_REACTORS
330
C
102
}
330
C
100
AcDbDictionary
281
     1
  3
Model
350
2708
  3
レイアウト1
350
2709
  0
DICTIONARY
  5
26BB
102
{ACAD_REACTORS
330
C
102
}
330
C
100
AcDbDictionary
281
     1
  3
ByBlock
350
26C4
  3
ByLayer
350
26BC
  3
Global
350
26CC
  0
DICTIONARY
  5
2702
102
{ACAD_REACTORS
330
C
102
}
330
C
100
AcDbDictionary
281
     1
  3
Standard
350
2703
  0
DICTIONARY
  5
1B
102
{ACAD_REACTORS
330
C
102
}
330
C
100
AcDbDictionary
281
     1
  3
STANDARD
350
1C
  0
DICTIONARY
  5
95
102
{ACAD_REACTORS
330
C
102
}
330
C
100
AcDbDictionary
281
     1
  0
ACDBDICTIONARYWDFLT
  5
26B9
102
{ACAD_REACTORS
330
C
102
}
330
C
100
AcDbDictionary
281
     1
  3
Normal
350
26BA
100
AcDbDictionaryWithDefault
340
26BA
  0
DICTIONARY
  5
26F0
102
{ACAD_REACTORS
330
C
102
}
330
C
100
AcDbDictionary
281
     1
  3
A0
350
26F1
  3
A1
350
26F2
  3
A2
350
26F3
  3
A3
350
26F4
  3
A4
350
26F5
  3
A5
350
26F6
  3
A6
350
26F7
  3
A7
350
26F8
  3
A8
350
26F9
  3
A9
350
26FA
  3
B0
350
26FB
  3
B1
350
26FC
  3
B2
350
26FD
  3
B3
350
26FE
  3
B4
350
26FF
  3
B5
350
2700
  3
B6
350
2701
  0
DICTIONARY
  5
2704
102
{ACAD_REACTORS
330
C
102
}
330
C
100
AcDbDictionary
281
     1
  3
Imperial24
350
2705
  0
DICTIONARY
  5
26EE
102
{ACAD_REACTORS
330
C
102
}
330
C
100
AcDbDictionary
281
     1
  3
Standard
350
26EF
  0
DICTIONARY
  5
26D4
102
{ACAD_REACTORS
330
C
102
}
330
C
100
AcDbDictionary
281
     1
  3
2dWireframe
350
26DA
  3
Basic
350
26D9
  3
Brighten
350
26E0
  3
ColorChange
350
26E4
  3
Conceptual
350
26DD
  3
Dim
350
26DF
  3
EdgeColorOff
350
26EC
  3
Facepattern
350
26E3
  3
Flat
350
26D5
  3
FlatWithEdges
350
26D6
  3
Gouraud
350
26D7
  3
GouraudWithEdges
350
26D8
  3
Hidden
350
26DC
  3
JitterOff
350
26EA
  3
Linepattern
350
26E2
  3
OverhangOff
350
26EB
  3
Realistic
350
26DE
  3
Shaded
350
26E9
  3
Shaded with edges
350
26E8
  3
Shades of Gray
350
26E5
  3
Sketchy
350
26E6
  3
Thicken
350
26E1
  3
Wireframe
350
26DB
  3
X-Ray
350
26E7
  0
XRECORD
  5
2728
102
{ACAD_REACTORS
330
C
102
}
330
C
100
AcDbXrecord
280
     1
 90
        1
330
26EF
  0
DICTIONARY
  5
271B
102
{ACAD_REACTORS
330
C
102
}
330
C
100
AcDbDictionary
281
     1
  3
CANNOSCALE
350
2720
  3
CMLEADERSTYLE
350
271D
  3
CTABLESTYLE
350
271C
  3
CVIEWDETAILSTYLE
350
271E
  3
CVIEWSECTIONSTYLE
350
271F
  3
DIMASSOC
350
2723
  3
INDEXCTL
350
2722
  3
SORTENTS
350
2721
  3
XCLIPFRAME
350
2724
  0
DICTIONARY
  5
3D
102
{ACAD_REACTORS
330
C
102
}
330
C
100
AcDbDictionary
281
     1
  0
XRECORD
  5
2729
102
{ACAD_REACTORS
330
C
102
}
330
C
100
AcDbXrecord
280
     1
  1
DWGPROPS COOKIE
  2

  3

  4

  6

  7

  8
Yoshitsune
  9

300
=
301
=
302
=
303
=
304
=
305
=
306
=
307
=
308
=
309
=
 40
0.2830980439814815
 41
2455658.6335461
 42
2457192.616803727
  1

 90
        0
  0
XRECORD
  5
270C
102
{ACAD_REACTORS
330
270B
102
}
330
270B
100
AcDbXrecord
280
     1
290
     1
  0
XRECORD
  5
270E
102
{ACAD_REACTORS
330
270D
102
}
330
270D
100
AcDbXrecord
280
     1
290
     1
  0
XRECORD
  5
2710
102
{ACAD_REACTORS
330
270F
102
}
330
270F
100
AcDbXrecord
280
     1
290
     1
  0
XRECORD
  5
2712
102
{ACAD_REACTORS
330
2711
102
}
330
2711
100
AcDbXrecord
280
     1
290
     1
  0
XRECORD
  5
2714
102
{ACAD_REACTORS
330
2713
102
}
330
2713
100
AcDbXrecord
280
     1
290
     1
  0
XRECORD
  5
2716
102
{ACAD_REACTORS
330
2715
102
}
330
2715
100
AcDbXrecord
280
     1
290
     1
  0
XRECORD
  5
2718
102
{ACAD_REACTORS
330
2717
102
}
330
2717
100
AcDbXrecord
280
     1
290
     1
  0
XRECORD
  5
271A
102
{ACAD_REACTORS
330
2719
102
}
330
2719
100
AcDbXrecord
280
     1
290
     1
  0
XRECORD
  5
26B5
102
{ACAD_REACTORS
330
26B4
102
}
330
26B4
100
AcDbXrecord
280
     1
340
18
  0
XRECORD
  5
26B3
102
{ACAD_REACTORS
330
26B2
102
}
330
26B2
100
AcDbXrecord
280
     1
340
15
  0
ACDBDETAILVIEWSTYLE
  5
2707
102
{ACAD_XDICTIONARY
360
2761
102
}
102
{ACAD_REACTORS
330
2706
102
}
330
2706
100
AcDbModelDocViewStyle
 70
     0
  3
Imperial24
290
     0
100
AcDbDetailViewStyle
 70
     0
 71
     0
 90
        3
 71
     1
340
F
 40
0.24
340
0
 40
0.24
300

 40
0.36
280
     3
 71
     2
340
14
 90
       25
 71
     3
340
F
 40
0.24
 90
        1
 40
0.75
 90
        1
300
%<\AcVar ViewType \f "%tc1">% %<\AcVar ViewDetailId>%\PSCALE %<\AcVar ViewScale \f "%sn">%
 71
     4
340
14
 90
       25
340
14
 90
       25
280
     0
  0
LAYOUT
  5
2708
102
{ACAD_XDICTIONARY
360
2763
102
}
102
{ACAD_REACTORS
330
94
102
}
330
94
100
AcDbPlotSettings
  1

  2
Canon LBP9100C
  4

  6

 40
0.0
 41
0.0
 42
0.0
 43
0.0
 44
0.0
 45
0.0
 46
0.0
 47
0.0
 48
0.0
 49
0.0
140
0.0
141
0.0
142
1.0
143
1.0
 70
  1712
 72
     0
 73
     0
 74
     0
  7

 75
     0
147
1.0
148
0.0
149
0.0
100
AcDbLayout
  1
Model
 70
     1
 71
     0
 10
0.0
 20
0.0
 11
12.0
 21
9.0
 12
0.0
 22
0.0
 32
0.0
 14
0.0
 24
0.0
 34
0.0
 15
0.0
 25
0.0
 35
0.0
146
0.0
 13
0.0
 23
0.0
 33
0.0
 16
1.0
 26
0.0
 36
0.0
 17
0.0
 27
1.0
 37
0.0
 76
     0
330
18
331
26B1
  0
LAYOUT
  5
2709
102
{ACAD_XDICTIONARY
360
2765
102
}
102
{ACAD_REACTORS
330
94
102
}
330
94
100
AcDbPlotSettings
  1

  2
Canon LBP9100C
  4

  6

 40
0.0
 41
0.0
 42
0.0
 43
0.0
 44
0.0
 45
0.0
 46
0.0
 47
0.0
 48
0.0
 49
0.0
140
0.0
141
0.0
142
1.0
143
1.0
 70
   688
 72
     0
 73
     0
 74
     5
  7

 75
    16
147
1.0
148
0.0
149
0.0
100
AcDbLayout
  1
レイアウト1
 70
     1
 71
     1
 10
0.0
 20
0.0
 11
420.0
 21
297.0
 12
0.0
 22
0.0
 32
0.0
 14
1.000000000000000E+20
 24
1.000000000000000E+20
 34
1.000000000000000E+20
 15
-1.000000000000000E+20
 25
-1.000000000000000E+20
 35
-1.000000000000000E+20
146
0.0
 13
0.0
 23
0.0
 33
0.0
 16
1.0
 26
0.0
 36
0.0
 17
0.0
 27
1.0
 37
0.0
 76
     0
330
15
  0
MATERIAL
  5
26C4
102
{ACAD_XDICTIONARY
360
26C5
102
}
102
{ACAD_REACTORS
330
26BB
102
}
330
26BB
100
AcDbMaterial
  1
ByBlock
 72
     0
 43
0.0208333333333333
 43
0.0
 43
0.0
 43
0.0
 43
0.0
 43
0.0208333333333333
 43
0.0
 43
0.0
 43
0.0
 43
0.0
 43
1.0
 43
0.0
 43
0.0
 43
0.0
 43
0.0
 43
1.0
 77
     0
 47
0.0208333333333333
 47
0.0
 47
0.0
 47
0.0
 47
0.0
 47
0.0208333333333333
 47
0.0
 47
0.0
 47
0.0
 47
0.0
 47
1.0
 47
0.0
 47
0.0
 47
0.0
 47
0.0
 47
1.0
171
     0
 49
0.0208333333333333
 49
0.0
 49
0.0
 49
0.0
 49
0.0
 49
0.0208333333333333
 49
0.0
 49
0.0
 49
0.0
 49
0.0
 49
1.0
 49
0.0
 49
0.0
 49
0.0
 49
0.0
 49
1.0
175
     0
142
0.0208333333333333
142
0.0
142
0.0
142
0.0
142
0.0
142
0.0208333333333333
142
0.0
142
0.0
142
0.0
142
0.0
142
1.0
142
0.0
142
0.0
142
0.0
142
0.0
142
1.0
179
     0
144
0.0208333333333333
144
0.0
144
0.0
144
0.0
144
0.0
144
0.0208333333333333
144
0.0
144
0.0
144
0.0
144
0.0
144
1.0
144
0.0
144
0.0
144
0.0
144
0.0
144
1.0
147
0.0208333333333333
147
0.0
147
0.0
147
0.0
147
0.0
147
0.0208333333333333
147
0.0
147
0.0
147
0.0
147
0.0
147
1.0
147
0.0
147
0.0
147
0.0
147
0.0
147
1.0
  0
MATERIAL
  5
26BC
102
{ACAD_XDICTIONARY
360
26BD
102
}
102
{ACAD_REACTORS
330
26BB
102
}
330
26BB
100
AcDbMaterial
  1
ByLayer
 72
     0
 43
0.0208333333333333
 43
0.0
 43
0.0
 43
0.0
 43
0.0
 43
0.0208333333333333
 43
0.0
 43
0.0
 43
0.0
 43
0.0
 43
1.0
 43
0.0
 43
0.0
 43
0.0
 43
0.0
 43
1.0
 77
     0
 47
0.0208333333333333
 47
0.0
 47
0.0
 47
0.0
 47
0.0
 47
0.0208333333333333
 47
0.0
 47
0.0
 47
0.0
 47
0.0
 47
1.0
 47
0.0
 47
0.0
 47
0.0
 47
0.0
 47
1.0
171
     0
 49
0.0208333333333333
 49
0.0
 49
0.0
 49
0.0
 49
0.0
 49
0.0208333333333333
 49
0.0
 49
0.0
 49
0.0
 49
0.0
 49
1.0
 49
0.0
 49
0.0
 49
0.0
 49
0.0
 49
1.0
175
     0
142
0.0208333333333333
142
0.0
142
0.0
142
0.0
142
0.0
142
0.0208333333333333
142
0.0
142
0.0
142
0.0
142
0.0
142
1.0
142
0.0
142
0.0
142
0.0
142
0.0
142
1.0
179
     0
144
0.0208333333333333
144
0.0
144
0.0
144
0.0
144
0.0
144
0.0208333333333333
144
0.0
144
0.0
144
0.0
144
0.0
144
1.0
144
0.0
144
0.0
144
0.0
144
0.0
144
1.0
147
0.0208333333333333
147
0.0
147
0.0
147
0.0
147
0.0
147
0.0208333333333333
147
0.0
147
0.0
147
0.0
147
0.0
147
1.0
147
0.0
147
0.0
147
0.0
147
0.0
147
1.0
  0
MATERIAL
  5
26CC
102
{ACAD_XDICTIONARY
360
26CD
102
}
102
{ACAD_REACTORS
330
26BB
102
}
330
26BB
100
AcDbMaterial
  1
Global
 72
     0
 43
0.0208333333333333
 43
0.0
 43
0.0
 43
0.0
 43
0.0
 43
0.0208333333333333
 43
0.0
 43
0.0
 43
0.0
 43
0.0
 43
1.0
 43
0.0
 43
0.0
 43
0.0
 43
0.0
 43
1.0
 77
     0
 47
0.0208333333333333
 47
0.0
 47
0.0
 47
0.0
 47
0.0
 47
0.0208333333333333
 47
0.0
 47
0.0
 47
0.0
 47
0.0
 47
1.0
 47
0.0
 47
0.0
 47
0.0
 47
0.0
 47
1.0
171
     0
 49
0.0208333333333333
 49
0.0
 49
0.0
 49
0.0
 49
0.0
 49
0.0208333333333333
 49
0.0
 49
0.0
 49
0.0
 49
0.0
 49
1.0
 49
0.0
 49
0.0
 49
0.0
 49
0.0
 49
1.0
175
     0
142
0.0208333333333333
142
0.0
142
0.0
142
0.0
142
0.0
142
0.0208333333333333
142
0.0
142
0.0
142
0.0
142
0.0
142
1.0
142
0.0
142
0.0
142
0.0
142
0.0
142
1.0
179
     0
144
0.0208333333333333
144
0.0
144
0.0
144
0.0
144
0.0
144
0.0208333333333333
144
0.0
144
0.0
144
0.0
144
0.0
144
1.0
144
0.0
144
0.0
144
0.0
144
0.0
144
1.0
147
0.0208333333333333
147
0.0
147
0.0
147
0.0
147
0.0
147
0.0208333333333333
147
0.0
147
0.0
147
0.0
147
0.0
147
1.0
147
0.0
147
0.0
147
0.0
147
0.0
147
1.0
  0
MLEADERSTYLE
  5
2703
102
{ACAD_REACTORS
330
2702
102
}
330
2702
100
AcDbMLeaderStyle
170
     2
171
     1
172
     0
 90
        2
 40
0.0
 41
0.0
173
     1
 91
-1056964608
340
12
 92
       -2
290
     1
 42
0.09
291
     1
 43
0.36
  3
Standard
 44
0.18
300

342
F
174
     1
178
     6
175
     1
176
     0
 93
-1056964608
 45
0.18
292
     0
297
     0
 46
0.18
 94
-1056964608
 47
1.0
 49
1.0
140
1.0
293
     1
141
0.0
294
     1
177
     0
142
1.0
295
     0
296
     0
143
0.125
1001
ACAD_MLEADERVER
1070
     2
  0
MLINESTYLE
  5
1C
102
{ACAD_REACTORS
330
1B
102
}
330
1B
100
AcDbMlineStyle
  2
STANDARD
 70
     0
  3

 62
   256
 51
90.0
 52
90.0
 71
     2
 49
0.5
 62
   256
  6
BYLAYER
 49
-0.5
 62
   256
  6
BYLAYER
  0
ACDBPLACEHOLDER
  5
26BA
102
{ACAD_REACTORS
330
26B9
102
}
330
26B9
  0
SCALE
  5
26F1
102
{ACAD_REACTORS
330
26F0
102
}
330
26F0
100
AcDbScale
 70
     0
300
1:1
140
1.0
141
1.0
290
     1
  0
SCALE
  5
26F2
102
{ACAD_REACTORS
330
26F0
102
}
330
26F0
100
AcDbScale
 70
     0
300
1/128" = 1'-0"
140
0.0078125
141
12.0
290
     0
  0
SCALE
  5
26F3
102
{ACAD_REACTORS
330
26F0
102
}
330
26F0
100
AcDbScale
 70
     0
300
1/64" = 1'-0"
140
0.015625
141
12.0
290
     0
  0
SCALE
  5
26F4
102
{ACAD_REACTORS
330
26F0
102
}
330
26F0
100
AcDbScale
 70
     0
300
1/32" = 1'-0"
140
0.03125
141
12.0
290
     0
  0
SCALE
  5
26F5
102
{ACAD_REACTORS
330
26F0
102
}
330
26F0
100
AcDbScale
 70
     0
300
1/16" = 1'-0"
140
0.0625
141
12.0
290
     0
  0
SCALE
  5
26F6
102
{ACAD_REACTORS
330
26F0
102
}
330
26F0
100
AcDbScale
 70
     0
300
3/32" = 1'-0"
140
0.09375
141
12.0
290
     0
  0
SCALE
  5
26F7
102
{ACAD_REACTORS
330
26F0
102
}
330
26F0
100
AcDbScale
 70
     0
300
1/8" = 1'-0"
140
0.125
141
12.0
290
     0
  0
SCALE
  5
26F8
102
{ACAD_REACTORS
330
26F0
102
}
330
26F0
100
AcDbScale
 70
     0
300
3/16" = 1'-0"
140
0.1875
141
12.0
290
     0
  0
SCALE
  5
26F9
102
{ACAD_REACTORS
330
26F0
102
}
330
26F0
100
AcDbScale
 70
     0
300
1/4" = 1'-0"
140
0.25
141
12.0
290
     0
  0
SCALE
  5
26FA
102
{ACAD_REACTORS
330
26F0
102
}
330
26F0
100
AcDbScale
 70
     0
300
3/8" = 1'-0"
140
0.375
141
12.0
290
     0
  0
SCALE
  5
26FB
102
{ACAD_REACTORS
330
26F0
102
}
330
26F0
100
AcDbScale
 70
     0
300
1/2" = 1'-0"
140
0.5
141
12.0
290
     0
  0
SCALE
  5
26FC
102
{ACAD_REACTORS
330
26F0
102
}
330
26F0
100
AcDbScale
 70
     0
300
3/4" = 1'-0"
140
0.75
141
12.0
290
     0
  0
SCALE
  5
26FD
102
{ACAD_REACTORS
330
26F0
102
}
330
26F0
100
AcDbScale
 70
     0
300
1" = 1'-0"
140
1.0
141
12.0
290
     0
  0
SCALE
  5
26FE
102
{ACAD_REACTORS
330
26F0
102
}
330
26F0
100
AcDbScale
 70
     0
300
1-1/2" = 1'-0"
140
1.5
141
12.0
290
     0
  0
SCALE
  5
26FF
102
{ACAD_REACTORS
330
26F0
102
}
330
26F0
100
AcDbScale
 70
     0
300
3" = 1'-0"
140
3.0
141
12.0
290
     0
  0
SCALE
  5
2700
102
{ACAD_REACTORS
330
26F0
102
}
330
26F0
100
AcDbScale
 70
     0
300
6" = 1'-0"
140
6.0
141
12.0
290
     0
  0
SCALE
  5
2701
102
{ACAD_REACTORS
330
26F0
102
}
330
26F0
100
AcDbScale
 70
     0
300
1'-0" = 1'-0"
140
12.0
141
12.0
290
     0
  0
ACDBSECTIONVIEWSTYLE
  5
2705
102
{ACAD_XDICTIONARY
360
275F
102
}
102
{ACAD_REACTORS
330
2704
102
}
330
2704
100
AcDbModelDocViewStyle
 70
     0
  3
Imperial24
290
     0
100
AcDbSectionViewStyle
 70
     0
 71
     0
 90
       78
 71
     1
340
F
 40
0.24
340
0
340
0
 40
0.24
300
I, O, Q, S, X, Z
 40
0.48
 90
        3
 40
0.18
 90
        1
 71
     2
340
14
 90
       25
340
14
 90
       50
 40
0.24
 40
0.0
 40
0.24
 71
     3
340
F
 40
0.24
 90
        1
 40
0.75
 90
        1
300
%<\AcVar ViewType \f "%tc1">% %<\AcVar ViewSectionStartId>%-%<\AcVar ViewSectionEndId>%\PSCALE %<\AcVar ViewScale \f "%sn">%
 71
     4
300
ANSI31
 40
1.0
 90
        0
290
     0
290
     0
 90
        6
 40
0.0
 40
1.570796326794896
 40
0.2617993877991494
 40
1.308996938995747
 40
-0.2617993877991494
 40
1.832595714594046
  0
TABLESTYLE
  5
26EF
102
{ACAD_XDICTIONARY
360
2726
102
}
102
{ACAD_REACTORS
330
26EE
102
}
330
26EE
100
AcDbTableStyle
  3
Standard
 70
     0
 71
     0
 40
0.06
 41
0.06
280
     0
281
     0
  7
STANDARD
140
0.18
170
     2
 62
     0
 63
     7
283
     0
274
    -2
284
     1
 64
     0
275
    -2
285
     1
 65
     0
276
    -2
286
     1
 66
     0
277
    -2
287
     1
 67
     0
278
    -2
288
     1
 68
     0
279
    -2
289
     1
 69
     0
  7
STANDARD
140
0.25
170
     5
 62
     0
 63
     7
283
     0
274
    -2
284
     1
 64
     0
275
    -2
285
     1
 65
     0
276
    -2
286
     1
 66
     0
277
    -2
287
     1
 67
     0
278
    -2
288
     1
 68
     0
279
    -2
289
     1
 69
     0
  7
STANDARD
140
0.18
170
     5
 62
     0
 63
     7
283
     0
274
    -2
284
     1
 64
     0
275
    -2
285
     1
 65
     0
276
    -2
286
     1
 66
     0
277
    -2
287
     1
 67
     0
278
    -2
288
     1
 68
     0
279
    -2
289
     1
 69
     0
  0
VISUALSTYLE
  5
26DA
102
{ACAD_XDICTIONARY
360
2737
102
}
102
{ACAD_REACTORS
330
26D4
102
}
330
26D4
100
AcDbVisualStyle
  2
2dWireframe
 70
     4
 71
     0
 72
     2
 73
     0
 90
        0
 40
-0.6
 41
-30.0
 62
     5
 63
     7
 74
     1
 91
        4
 64
     7
 65
   257
 75
     1
175
     1
 42
1.0
 92
        0
 66
   257
 43
1.0
 76
     1
 77
     6
 78
     2
 67
     7
 79
     5
170
     0
171
     0
290
     0
174
     0
 93
        1
 44
0.0
173
     0
291
     0
 45
0.0
1001
ACAD
1000
AcDbSavedByObjectVersion
1070
     0
  0
VISUALSTYLE
  5
26D9
102
{ACAD_XDICTIONARY
360
2735
102
}
102
{ACAD_REACTORS
330
26D4
102
}
330
26D4
100
AcDbVisualStyle
  2
Basic
 70
     7
 71
     1
 72
     0
 73
     1
 90
        0
 40
-0.6
 41
-30.0
 62
     5
 63
     7
 74
     0
 91
        4
 64
     7
 65
   257
 75
     1
175
     1
 42
1.0
 92
        8
 66
     7
 43
1.0
 76
     1
 77
     6
 78
     2
 67
     7
 79
     5
170
     0
171
     0
290
     0
174
     0
 93
        1
 44
0.0
173
     0
291
     1
 45
0.0
1001
ACAD
1000
AcDbSavedByObjectVersion
1070
     0
  0
VISUALSTYLE
  5
26E0
102
{ACAD_XDICTIONARY
360
2743
102
}
102
{ACAD_REACTORS
330
26D4
102
}
330
26D4
100
AcDbVisualStyle
  2
Brighten
 70
    12
 71
     2
 72
     2
 73
     0
 90
        0
 40
-0.6
 41
-30.0
 62
     5
 63
     7
 74
     1
 91
        4
 64
     7
 65
   257
 75
     1
175
     1
 42
1.0
 92
        8
 66
     7
 43
1.0
 76
     1
 77
     6
 78
     2
 67
     7
 79
     5
170
     0
171
     0
290
     0
174
     0
 93
        1
 44
50.0
173
     0
291
     1
 45
0.0
1001
ACAD
1000
AcDbSavedByObjectVersion
1070
     0
  0
VISUALSTYLE
  5
26E4
102
{ACAD_XDICTIONARY
360
274B
102
}
102
{ACAD_REACTORS
330
26D4
102
}
330
26D4
100
AcDbVisualStyle
  2
ColorChange
 70
    16
 71
     2
 72
     2
 73
     3
 90
        0
 40
-0.6
 41
-30.0
 62
     5
 63
     8
 74
     1
 91
        4
 64
     7
 65
   257
 75
     1
175
     1
 42
1.0
 92
        8
 66
     8
 43
1.0
 76
     1
 77
     6
 78
     2
 67
     7
 79
     5
170
     0
171
     0
290
     0
174
     0
 93
        1
 44
0.0
173
     0
291
     1
 45
0.0
1001
ACAD
1000
AcDbSavedByObjectVersion
1070
     0
  0
VISUALSTYLE
  5
26DD
102
{ACAD_XDICTIONARY
360
273D
102
}
102
{ACAD_REACTORS
330
26D4
102
}
330
26D4
100
AcDbVisualStyle
  2
Conceptual
 70
     9
 71
     3
 72
     2
 73
     0
 90
        0
 40
-0.6
 41
-30.0
 62
     5
 63
     7
 74
     2
 91
        2
 64
     7
 65
   257
 75
     1
175
     1
 42
179.0
 92
        8
 66
     7
 43
1.0
 76
     1
 77
     6
 78
     2
 67
     7
 79
     3
170
     0
171
     0
290
     0
174
     0
 93
        1
 44
0.0
173
     0
291
     0
 45
0.0
1001
ACAD
1000
AcDbSavedByObjectVersion
1070
     0
  0
VISUALSTYLE
  5
26DF
102
{ACAD_XDICTIONARY
360
2741
102
}
102
{ACAD_REACTORS
330
26D4
102
}
330
26D4
100
AcDbVisualStyle
  2
Dim
 70
    11
 71
     2
 72
     2
 73
     0
 90
        0
 40
-0.6
 41
-30.0
 62
     5
 63
     7
 74
     1
 91
        4
 64
     7
 65
   257
 75
     1
175
     1
 42
1.0
 92
        8
 66
     7
 43
1.0
 76
     1
 77
     6
 78
     2
 67
     7
 79
     5
170
     0
171
     0
290
     0
174
     0
 93
        1
 44
-50.0
173
     0
291
     1
 45
0.0
1001
ACAD
1000
AcDbSavedByObjectVersion
1070
     0
  0
VISUALSTYLE
  5
26EC
102
{ACAD_XDICTIONARY
360
275B
102
}
102
{ACAD_REACTORS
330
26D4
102
}
330
26D4
100
AcDbVisualStyle
  2
EdgeColorOff
 70
    22
 71
     2
 72
     2
 73
     0
 90
        0
 40
-0.6
 41
-30.0
 62
     5
 63
     7
 74
     1
 91
        4
 64
     7
 65
   257
 75
     1
175
     1
 42
1.0
 92
        8
 66
     7
 43
1.0
 76
     1
 77
     6
 78
     2
 67
     7
 79
     5
170
     0
171
     0
290
     0
174
     0
 93
        1
 44
0.0
173
     0
291
     1
 45
0.0
1001
ACAD
1000
AcDbSavedByObjectVersion
1070
     0
  0
VISUALSTYLE
  5
26E3
102
{ACAD_XDICTIONARY
360
2749
102
}
102
{ACAD_REACTORS
330
26D4
102
}
330
26D4
100
AcDbVisualStyle
  2
Facepattern
 70
    15
 71
     2
 72
     2
 73
     0
 90
        0
 40
-0.6
 41
-30.0
 62
     5
 63
     7
 74
     1
 91
        4
 64
     7
 65
   257
 75
     1
175
     1
 42
1.0
 92
        8
 66
     7
 43
1.0
 76
     1
 77
     6
 78
     2
 67
     7
 79
     5
170
     0
171
     0
290
     0
174
     0
 93
        1
 44
0.0
173
     0
291
     1
 45
0.0
1001
ACAD
1000
AcDbSavedByObjectVersion
1070
     0
  0
VISUALSTYLE
  5
26D5
102
{ACAD_XDICTIONARY
360
272D
102
}
102
{ACAD_REACTORS
330
26D4
102
}
330
26D4
100
AcDbVisualStyle
  2
Flat
 70
     0
 71
     2
 72
     1
 73
     1
 90
        2
 40
-0.6
 41
30.0
 62
     5
 63
     7
 74
     0
 91
        0
 64
     7
 65
   257
 75
     1
175
     1
 42
1.0
 92
        8
 66
     7
 43
1.0
 76
     1
 77
     6
 78
     2
 67
     7
 79
     5
170
     0
171
     0
290
     0
174
     0
 93
       13
 44
0.0
173
     0
291
     1
 45
0.0
1001
ACAD
1000
AcDbSavedByObjectVersion
1070
     0
  0
VISUALSTYLE
  5
26D6
102
{ACAD_XDICTIONARY
360
272F
102
}
102
{ACAD_REACTORS
330
26D4
102
}
330
26D4
100
AcDbVisualStyle
  2
FlatWithEdges
 70
     1
 71
     2
 72
     1
 73
     1
 90
        2
 40
-0.6
 41
30.0
 62
     5
 63
     7
 74
     1
 91
        0
 64
     7
 65
   257
 75
     1
175
     1
 42
1.0
 92
        0
 66
   257
 43
1.0
 76
     1
 77
     6
 78
     2
 67
     7
 79
     5
170
     0
171
     0
290
     0
174
     0
 93
       13
 44
0.0
173
     0
291
     1
 45
0.0
1001
ACAD
1000
AcDbSavedByObjectVersion
1070
     0
  0
VISUALSTYLE
  5
26D7
102
{ACAD_XDICTIONARY
360
2731
102
}
102
{ACAD_REACTORS
330
26D4
102
}
330
26D4
100
AcDbVisualStyle
  2
Gouraud
 70
     2
 71
     2
 72
     2
 73
     1
 90
        2
 40
-0.6
 41
30.0
 62
     5
 63
     7
 74
     0
 91
        0
 64
     7
 65
   257
 75
     1
175
     1
 42
1.0
 92
        0
 66
     7
 43
1.0
 76
     1
 77
     6
 78
     2
 67
     7
 79
     5
170
     0
171
     0
290
     0
174
     0
 93
       13
 44
0.0
173
     0
291
     1
 45
0.0
1001
ACAD
1000
AcDbSavedByObjectVersion
1070
     0
  0
VISUALSTYLE
  5
26D8
102
{ACAD_XDICTIONARY
360
2733
102
}
102
{ACAD_REACTORS
330
26D4
102
}
330
26D4
100
AcDbVisualStyle
  2
GouraudWithEdges
 70
     3
 71
     2
 72
     2
 73
     1
 90
        2
 40
-0.6
 41
30.0
 62
     5
 63
     7
 74
     1
 91
        0
 64
     7
 65
   257
 75
     1
175
     1
 42
1.0
 92
        0
 66
   257
 43
1.0
 76
     1
 77
     6
 78
     2
 67
     7
 79
     5
170
     0
171
     0
290
     0
174
     0
 93
       13
 44
0.0
173
     0
291
     1
 45
0.0
1001
ACAD
1000
AcDbSavedByObjectVersion
1070
     0
  0
VISUALSTYLE
  5
26DC
102
{ACAD_XDICTIONARY
360
273B
102
}
102
{ACAD_REACTORS
330
26D4
102
}
330
26D4
100
AcDbVisualStyle
  2
Hidden
 70
     6
 71
     1
 72
     2
 73
     2
 90
        0
 40
-0.6
 41
-30.0
 62
     5
 63
     7
 74
     2
 91
        2
 64
     7
 65
   257
 75
     2
175
     1
 42
40.0
 92
        0
 66
   257
 43
1.0
 76
     1
 77
     6
 78
     2
 67
     7
 79
     3
170
     0
171
     0
290
     0
174
     0
 93
        1
 44
0.0
173
     0
291
     0
 45
0.0
1001
ACAD
1000
AcDbSavedByObjectVersion
1070
     0
  0
VISUALSTYLE
  5
26EA
102
{ACAD_XDICTIONARY
360
2757
102
}
102
{ACAD_REACTORS
330
26D4
102
}
330
26D4
100
AcDbVisualStyle
  2
JitterOff
 70
    20
 71
     2
 72
     2
 73
     0
 90
        0
 40
-0.6
 41
-30.0
 62
     5
 63
     7
 74
     1
 91
        4
 64
     7
 65
   257
 75
     1
175
     1
 42
1.0
 92
       10
 66
     7
 43
1.0
 76
     1
 77
     6
 78
     2
 67
     7
 79
     5
170
     0
171
     0
290
     0
174
     0
 93
        1
 44
0.0
173
     0
291
     1
 45
0.0
1001
ACAD
1000
AcDbSavedByObjectVersion
1070
     0
  0
VISUALSTYLE
  5
26E2
102
{ACAD_XDICTIONARY
360
2747
102
}
102
{ACAD_REACTORS
330
26D4
102
}
330
26D4
100
AcDbVisualStyle
  2
Linepattern
 70
    14
 71
     2
 72
     2
 73
     0
 90
        0
 40
-0.6
 41
-30.0
 62
     5
 63
     7
 74
     1
 91
        4
 64
     7
 65
   257
 75
     7
175
     7
 42
1.0
 92
        8
 66
     7
 43
1.0
 76
     1
 77
     6
 78
     2
 67
     7
 79
     5
170
     0
171
     0
290
     0
174
     0
 93
        1
 44
0.0
173
     0
291
     1
 45
0.0
1001
ACAD
1000
AcDbSavedByObjectVersion
1070
     0
  0
VISUALSTYLE
  5
26EB
102
{ACAD_XDICTIONARY
360
2759
102
}
102
{ACAD_REACTORS
330
26D4
102
}
330
26D4
100
AcDbVisualStyle
  2
OverhangOff
 70
    21
 71
     2
 72
     2
 73
     0
 90
        0
 40
-0.6
 41
-30.0
 62
     5
 63
     7
 74
     1
 91
        4
 64
     7
 65
   257
 75
     1
175
     1
 42
1.0
 92
        9
 66
     7
 43
1.0
 76
     1
 77
     6
 78
     2
 67
     7
 79
     5
170
     0
171
     0
290
     0
174
     0
 93
        1
 44
0.0
173
     0
291
     1
 45
0.0
1001
ACAD
1000
AcDbSavedByObjectVersion
1070
     0
  0
VISUALSTYLE
  5
26DE
102
{ACAD_XDICTIONARY
360
273F
102
}
102
{ACAD_REACTORS
330
26D4
102
}
330
26D4
100
AcDbVisualStyle
  2
Realistic
 70
     8
 71
     2
 72
     3
 73
     0
 90
        2
 40
-0.6
 41
30.0
 62
     5
 63
     7
 74
     0
 91
        0
 64
     7
 65
   257
 75
     1
175
     1
 42
1.0
 92
        8
 66
   257
 43
1.0
 76
     1
 77
     6
 78
     2
 67
     7
 79
     3
170
     0
171
     0
290
     0
174
     0
 93
       13
 44
0.0
173
     0
291
     0
 45
0.0
1001
ACAD
1000
AcDbSavedByObjectVersion
1070
     0
  0
VISUALSTYLE
  5
26E9
102
{ACAD_XDICTIONARY
360
2755
102
}
102
{ACAD_REACTORS
330
26D4
102
}
330
26D4
100
AcDbVisualStyle
  2
Shaded
 70
    27
 71
     2
 72
     2
 73
     1
 90
        2
 40
-0.6
 41
30.0
 62
     5
 63
     7
 74
     0
 91
        4
 64
     7
 65
   257
 75
     1
175
     1
 42
1.0
 92
        8
 66
   257
 43
1.0
 76
     1
 77
     6
 78
     2
 67
     8
 79
     3
170
     0
171
     0
290
     0
174
     0
 93
        5
 44
0.0
173
     0
291
     0
 45
0.0
1001
ACAD
1000
AcDbSavedByObjectVersion
1070
     0
  0
VISUALSTYLE
  5
26E8
102
{ACAD_XDICTIONARY
360
2753
102
}
102
{ACAD_REACTORS
330
26D4
102
}
330
26D4
100
AcDbVisualStyle
  2
Shaded with edges
 70
    26
 71
     2
 72
     2
 73
     1
 90
        2
 40
-0.6
 41
30.0
 62
     5
 63
     7
 74
     1
 91
       10
 64
     7
 65
   257
 75
     2
175
     1
 42
1.0
 92
        8
 66
   257
 43
1.0
 76
     1
 77
     6
 78
     2
 67
     7
 79
     3
170
     0
171
     0
290
     0
174
     0
 93
        5
 44
0.0
173
     0
291
     0
 45
0.0
1001
ACAD
1000
AcDbSavedByObjectVersion
1070
     0
  0
VISUALSTYLE
  5
26E5
102
{ACAD_XDICTIONARY
360
274D
102
}
102
{ACAD_REACTORS
330
26D4
102
}
330
26D4
100
AcDbVisualStyle
  2
Shades of Gray
 70
    23
 71
     2
 72
     2
 73
     3
 90
        0
 40
-0.6
 41
-30.0
 62
     5
 63
     7
 74
     2
 91
        2
 64
     7
 65
     7
 75
     1
175
     1
 42
40.0
 92
        8
 66
     7
 43
1.0
 76
     1
 77
     6
 78
     2
 67
     7
 79
     3
170
     0
171
     0
290
     0
174
     0
 93
        1
 44
0.0
173
     0
291
     0
 45
0.0
1001
ACAD
1000
AcDbSavedByObjectVersion
1070
     0
  0
VISUALSTYLE
  5
26E6
102
{ACAD_XDICTIONARY
360
274F
102
}
102
{ACAD_REACTORS
330
26D4
102
}
330
26D4
100
AcDbVisualStyle
  2
Sketchy
 70
    24
 71
     1
 72
     2
 73
     2
 90
        0
 40
-0.6
 41
-30.0
 62
     5
 63
     7
 74
     2
 91
        2
 64
     7
 65
     7
 75
     1
175
     1
 42
40.0
 92
       11
 66
     7
 43
1.0
 76
     1
 77
     6
 78
     2
 67
     7
 79
     6
170
     0
171
     0
290
     0
174
     0
 93
        1
 44
0.0
173
     0
291
     0
 45
0.0
1001
ACAD
1000
AcDbSavedByObjectVersion
1070
     0
  0
VISUALSTYLE
  5
26E1
102
{ACAD_XDICTIONARY
360
2745
102
}
102
{ACAD_REACTORS
330
26D4
102
}
330
26D4
100
AcDbVisualStyle
  2
Thicken
 70
    13
 71
     2
 72
     2
 73
     0
 90
        0
 40
-0.6
 41
-30.0
 62
     5
 63
     7
 74
     1
 91
        4
 64
     7
 65
   257
 75
     1
175
     1
 42
1.0
 92
       12
 66
     7
 43
1.0
 76
     1
 77
     6
 78
     2
 67
     7
 79
     5
170
     0
171
     0
290
     0
174
     0
 93
        1
 44
0.0
173
     0
291
     1
 45
0.0
1001
ACAD
1000
AcDbSavedByObjectVersion
1070
     0
  0
VISUALSTYLE
  5
26DB
102
{ACAD_XDICTIONARY
360
2739
102
}
102
{ACAD_REACTORS
330
26D4
102
}
330
26D4
100
AcDbVisualStyle
  2
Wireframe
 70
     5
 71
     0
 72
     2
 73
     0
 90
        0
 40
-0.6
 41
-30.0
 62
     5
 63
     7
 74
     1
 91
        4
 64
     7
 65
   257
 75
     1
175
     1
 42
1.0
 92
        0
 66
   257
 43
1.0
 76
     1
 77
     6
 78
     2
 67
     7
 79
     3
170
     0
171
     0
290
     0
174
     0
 93
        1
 44
0.0
173
     0
291
     0
 45
0.0
1001
ACAD
1000
AcDbSavedByObjectVersion
1070
     0
  0
VISUALSTYLE
  5
26E7
102
{ACAD_XDICTIONARY
360
2751
102
}
102
{ACAD_REACTORS
330
26D4
102
}
330
26D4
100
AcDbVisualStyle
  2
X-Ray
 70
    25
 71
     2
 72
     2
 73
     1
 90
        1
 40
0.5
 41
-30.0
 62
     5
 63
     7
 74
     1
 91
        0
 64
     7
 65
   257
 75
     1
175
     1
 42
1.0
 92
        8
 66
     7
 43
1.0
 76
     1
 77
     6
 78
     2
 67
     7
 79
     3
170
     0
171
     0
290
     0
174
     0
 93
       13
 44
0.0
173
     0
291
     0
 45
0.0
1001
ACAD
1000
AcDbSavedByObjectVersion
1070
     0
  0
DICTIONARYVAR
  5
2720
102
{ACAD_REACTORS
330
271B
102
}
330
271B
100
DictionaryVariables
280
     0
  1
1:1
  0
DICTIONARYVAR
  5
271D
102
{ACAD_REACTORS
330
271B
102
}
330
271B
100
DictionaryVariables
280
     0
  1
STANDARD
  0
DICTIONARYVAR
  5
271C
102
{ACAD_REACTORS
330
271B
102
}
330
271B
100
DictionaryVariables
280
     0
  1
STANDARD
  0
DICTIONARYVAR
  5
271E
102
{ACAD_REACTORS
330
271B
102
}
330
271B
100
DictionaryVariables
280
     0
  1
Imperial24
  0
DICTIONARYVAR
  5
271F
102
{ACAD_REACTORS
330
271B
102
}
330
271B
100
DictionaryVariables
280
     0
  1
Imperial24
  0
DICTIONARYVAR
  5
2723
102
{ACAD_REACTORS
330
271B
102
}
330
271B
100
DictionaryVariables
280
     0
  1
1
  0
DICTIONARYVAR
  5
2722
102
{ACAD_REACTORS
330
271B
102
}
330
271B
100
DictionaryVariables
280
     0
  1
0
  0
DICTIONARYVAR
  5
2721
102
{ACAD_REACTORS
330
271B
102
}
330
271B
100
DictionaryVariables
280
     0
  1
127
  0
DICTIONARYVAR
  5
2724
102
{ACAD_REACTORS
330
271B
102
}
330
271B
100
DictionaryVariables
280
     0
  1
2
  0
DICTIONARY
  5
2761
330
2707
100
AcDbDictionary
280
     1
281
     1
  3
ACAD_XREC_ROUNDTRIP
360
2762
  0
DICTIONARY
  5
2763
330
2708
100
AcDbDictionary
280
     1
281
     1
  3
ACAD_XREC_ROUNDTRIP
360
2764
  0
DICTIONARY
  5
2765
330
2709
100
AcDbDictionary
280
     1
281
     1
  3
ACAD_XREC_ROUNDTRIP
360
2766
  0
DICTIONARY
  5
26C5
330
26C4
100
AcDbDictionary
280
     1
281
     1
  3
ACAD_XREC_ROUNDTRIP
360
272B
  3
BUMPTILE
360
26C7
  3
DIFFUSETILE
360
26C6
  3
OPACITYTILE
360
26CA
  3
REFLECTIONTILE
360
26C9
  3
REFRACTIONTILE
360
26CB
  3
SPECULARTILE
360
26C8
  0
DICTIONARY
  5
26BD
330
26BC
100
AcDbDictionary
280
     1
281
     1
  3
ACAD_XREC_ROUNDTRIP
360
272A
  3
BUMPTILE
360
26BF
  3
DIFFUSETILE
360
26BE
  3
OPACITYTILE
360
26C2
  3
REFLECTIONTILE
360
26C1
  3
REFRACTIONTILE
360
26C3
  3
SPECULARTILE
360
26C0
  0
DICTIONARY
  5
26CD
330
26CC
100
AcDbDictionary
280
     1
281
     1
  3
ACAD_XREC_ROUNDTRIP
360
272C
  3
BUMPTILE
360
26CF
  3
DIFFUSETILE
360
26CE
  3
OPACITYTILE
360
26D2
  3
REFLECTIONTILE
360
26D1
  3
REFRACTIONTILE
360
26D3
  3
SPECULARTILE
360
26D0
  0
DICTIONARY
  5
275F
330
2705
100
AcDbDictionary
280
     1
281
     1
  3
ACAD_XREC_ROUNDTRIP
360
2760
  0
DICTIONARY
  5
2726
330
26EF
100
AcDbDictionary
280
     1
281
     1
  3
ACAD_ROUNDTRIP_2008_TABLESTYLE_CELLSTYLEMAP
360
2727
  3
ACAD_XREC_ROUNDTRIP
360
275D
  0
DICTIONARY
  5
2737
330
26DA
100
AcDbDictionary
280
     1
281
     1
  3
ACAD_XREC_ROUNDTRIP
360
2738
  0
DICTIONARY
  5
2735
330
26D9
100
AcDbDictionary
280
     1
281
     1
  3
ACAD_XREC_ROUNDTRIP
360
2736
  0
DICTIONARY
  5
2743
330
26E0
100
AcDbDictionary
280
     1
281
     1
  3
ACAD_XREC_ROUNDTRIP
360
2744
  0
DICTIONARY
  5
274B
330
26E4
100
AcDbDictionary
280
     1
281
     1
  3
ACAD_XREC_ROUNDTRIP
360
274C
  0
DICTIONARY
  5
273D
330
26DD
100
AcDbDictionary
280
     1
281
     1
  3
ACAD_XREC_ROUNDTRIP
360
273E
  0
DICTIONARY
  5
2741
330
26DF
100
AcDbDictionary
280
     1
281
     1
  3
ACAD_XREC_ROUNDTRIP
360
2742
  0
DICTIONARY
  5
275B
330
26EC
100
AcDbDictionary
280
     1
281
     1
  3
ACAD_XREC_ROUNDTRIP
360
275C
  0
DICTIONARY
  5
2749
330
26E3
100
AcDbDictionary
280
     1
281
     1
  3
ACAD_XREC_ROUNDTRIP
360
274A
  0
DICTIONARY
  5
272D
330
26D5
100
AcDbDictionary
280
     1
281
     1
  3
ACAD_XREC_ROUNDTRIP
360
272E
  0
DICTIONARY
  5
272F
330
26D6
100
AcDbDictionary
280
     1
281
     1
  3
ACAD_XREC_ROUNDTRIP
360
2730
  0
DICTIONARY
  5
2731
330
26D7
100
AcDbDictionary
280
     1
281
     1
  3
ACAD_XREC_ROUNDTRIP
360
2732
  0
DICTIONARY
  5
2733
330
26D8
100
AcDbDictionary
280
     1
281
     1
  3
ACAD_XREC_ROUNDTRIP
360
2734
  0
DICTIONARY
  5
273B
330
26DC
100
AcDbDictionary
280
     1
281
     1
  3
ACAD_XREC_ROUNDTRIP
360
273C
  0
DICTIONARY
  5
2757
330
26EA
100
AcDbDictionary
280
     1
281
     1
  3
ACAD_XREC_ROUNDTRIP
360
2758
  0
DICTIONARY
  5
2747
330
26E2
100
AcDbDictionary
280
     1
281
     1
  3
ACAD_XREC_ROUNDTRIP
360
2748
  0
DICTIONARY
  5
2759
330
26EB
100
AcDbDictionary
280
     1
281
     1
  3
ACAD_XREC_ROUNDTRIP
360
275A
  0
DICTIONARY
  5
273F
330
26DE
100
AcDbDictionary
280
     1
281
     1
  3
ACAD_XREC_ROUNDTRIP
360
2740
  0
DICTIONARY
  5
2755
330
26E9
100
AcDbDictionary
280
     1
281
     1
  3
ACAD_XREC_ROUNDTRIP
360
2756
  0
DICTIONARY
  5
2753
330
26E8
100
AcDbDictionary
280
     1
281
     1
  3
ACAD_XREC_ROUNDTRIP
360
2754
  0
DICTIONARY
  5
274D
330
26E5
100
AcDbDictionary
280
     1
281
     1
  3
ACAD_XREC_ROUNDTRIP
360
274E
  0
DICTIONARY
  5
274F
330
26E6
100
AcDbDictionary
280
     1
281
     1
  3
ACAD_XREC_ROUNDTRIP
360
2750
  0
DICTIONARY
  5
2745
330
26E1
100
AcDbDictionary
280
     1
281
     1
  3
ACAD_XREC_ROUNDTRIP
360
2746
  0
DICTIONARY
  5
2739
330
26DB
100
AcDbDictionary
280
     1
281
     1
  3
ACAD_XREC_ROUNDTRIP
360
273A
  0
DICTIONARY
  5
2751
330
26E7
100
AcDbDictionary
280
     1
281
     1
  3
ACAD_XREC_ROUNDTRIP
360
2752
  0
XRECORD
  5
2762
102
{ACAD_REACTORS
330
2761
102
}
330
2761
100
AcDbXrecord
280
     1
102
DISPLAYNAME
  1
Imperial24
102
FLAGS
 90
        0
  0
XRECORD
  5
2764
102
{ACAD_REACTORS
330
2763
102
}
330
2763
100
AcDbXrecord
280
     1
102
SHADEPLOT
 70
     0
102
SHADEPLOTRESLEVEL
 70
     2
102
SHADEPLOTCUSTOMDPI
 70
   300
  0
XRECORD
  5
2766
102
{ACAD_REACTORS
330
2765
102
}
330
2765
100
AcDbXrecord
280
     1
102
SHADEPLOT
 70
     0
102
SHADEPLOTRESLEVEL
 70
     2
102
SHADEPLOTCUSTOMDPI
 70
   300
  0
XRECORD
  5
272B
102
{ACAD_REACTORS
330
26C5
102
}
330
26C5
100
AcDbXrecord
280
     1
102
MATERIAL
148
0.0
149
0.0
149
0.0
 93
        0
 94
      127
282
     0
 72
     0
 77
     0
171
     0
175
     0
179
     0
273
     0
  0
XRECORD
  5
26C7
102
{ACAD_REACTORS
330
26C5
102
}
330
26C5
100
AcDbXrecord
280
     1
270
     1
271
     1
  0
XRECORD
  5
26C6
102
{ACAD_REACTORS
330
26C5
102
}
330
26C5
100
AcDbXrecord
280
     1
270
     1
271
     1
  0
XRECORD
  5
26CA
102
{ACAD_REACTORS
330
26C5
102
}
330
26C5
100
AcDbXrecord
280
     1
270
     1
271
     1
  0
XRECORD
  5
26C9
102
{ACAD_REACTORS
330
26C5
102
}
330
26C5
100
AcDbXrecord
280
     1
270
     1
271
     1
  0
XRECORD
  5
26CB
102
{ACAD_REACTORS
330
26C5
102
}
330
26C5
100
AcDbXrecord
280
     1
270
     1
271
     1
  0
XRECORD
  5
26C8
102
{ACAD_REACTORS
330
26C5
102
}
330
26C5
100
AcDbXrecord
280
     1
270
     1
271
     1
  0
XRECORD
  5
272A
102
{ACAD_REACTORS
330
26BD
102
}
330
26BD
100
AcDbXrecord
280
     1
102
MATERIAL
148
0.0
149
0.0
149
0.0
 93
        0
 94
      127
282
     0
 72
     0
 77
     0
171
     0
175
     0
179
     0
273
     0
  0
XRECORD
  5
26BF
102
{ACAD_REACTORS
330
26BD
102
}
330
26BD
100
AcDbXrecord
280
     1
270
     1
271
     1
  0
XRECORD
  5
26BE
102
{ACAD_REACTORS
330
26BD
102
}
330
26BD
100
AcDbXrecord
280
     1
270
     1
271
     1
  0
XRECORD
  5
26C2
102
{ACAD_REACTORS
330
26BD
102
}
330
26BD
100
AcDbXrecord
280
     1
270
     1
271
     1
  0
XRECORD
  5
26C1
102
{ACAD_REACTORS
330
26BD
102
}
330
26BD
100
AcDbXrecord
280
     1
270
     1
271
     1
  0
XRECORD
  5
26C3
102
{ACAD_REACTORS
330
26BD
102
}
330
26BD
100
AcDbXrecord
280
     1
270
     1
271
     1
  0
XRECORD
  5
26C0
102
{ACAD_REACTORS
330
26BD
102
}
330
26BD
100
AcDbXrecord
280
     1
270
     1
271
     1
  0
XRECORD
  5
272C
102
{ACAD_REACTORS
330
26CD
102
}
330
26CD
100
AcDbXrecord
280
     1
102
MATERIAL
148
0.0
149
0.0
149
0.0
 93
        0
 94
      127
282
     0
 72
     0
 77
     0
171
     0
175
     0
179
     0
273
     0
  0
XRECORD
  5
26CF
102
{ACAD_REACTORS
330
26CD
102
}
330
26CD
100
AcDbXrecord
280
     1
270
     1
271
     1
  0
XRECORD
  5
26CE
102
{ACAD_REACTORS
330
26CD
102
}
330
26CD
100
AcDbXrecord
280
     1
270
     1
271
     1
  0
XRECORD
  5
26D2
102
{ACAD_REACTORS
330
26CD
102
}
330
26CD
100
AcDbXrecord
280
     1
270
     1
271
     1
  0
XRECORD
  5
26D1
102
{ACAD_REACTORS
330
26CD
102
}
330
26CD
100
AcDbXrecord
280
     1
270
     1
271
     1
  0
XRECORD
  5
26D3
102
{ACAD_REACTORS
330
26CD
102
}
330
26CD
100
AcDbXrecord
280
     1
270
     1
271
     1
  0
XRECORD
  5
26D0
102
{ACAD_REACTORS
330
26CD
102
}
330
26CD
100
AcDbXrecord
280
     1
270
     1
271
     1
  0
XRECORD
  5
2760
102
{ACAD_REACTORS
330
275F
102
}
330
275F
100
AcDbXrecord
280
     1
102
DISPLAYNAME
  1
Imperial24
102
FLAGS
 90
        0
  0
CELLSTYLEMAP
  5
2727
102
{ACAD_REACTORS
330
2726
102
}
330
2726
100
AcDbCellStyleMap
 90
        3
300
CELLSTYLE
  1
TABLEFORMAT_BEGIN
 90
        5
170
     1
 91
        0
 92
    32768
 62
   257
 93
        1
300
CONTENTFORMAT
  1
CONTENTFORMAT_BEGIN
 90
        0
 91
        0
 92
      512
 93
        0
300

 40
0.0
140
1.0
 94
        5
 62
     0
340
F
144
0.25
309
CONTENTFORMAT_END
171
     0
 94
        0
309
TABLEFORMAT_END
  1
CELLSTYLE_BEGIN
 90
        1
 91
        1
300
_TITLE
309
CELLSTYLE_END
300
CELLSTYLE
  1
TABLEFORMAT_BEGIN
 90
        5
170
     1
 91
        0
 92
        0
 62
   257
 93
        1
300
CONTENTFORMAT
  1
CONTENTFORMAT_BEGIN
 90
        0
 91
        0
 92
      512
 93
        0
300

 40
0.0
140
1.0
 94
        5
 62
     0
340
F
144
0.18
309
CONTENTFORMAT_END
171
     0
 94
        0
309
TABLEFORMAT_END
  1
CELLSTYLE_BEGIN
 90
        2
 91
        1
300
_HEADER
309
CELLSTYLE_END
300
CELLSTYLE
  1
TABLEFORMAT_BEGIN
 90
        5
170
     1
 91
        0
 92
        0
 62
   257
 93
        1
300
CONTENTFORMAT
  1
CONTENTFORMAT_BEGIN
 90
        0
 91
        0
 92
      512
 93
        0
300

 40
0.0
140
1.0
 94
        2
 62
     0
340
F
144
0.18
309
CONTENTFORMAT_END
171
     0
 94
        0
309
TABLEFORMAT_END
  1
CELLSTYLE_BEGIN
 90
        3
 91
        2
300
_DATA
309
CELLSTYLE_END
  0
XRECORD
  5
275D
102
{ACAD_REACTORS
330
2726
102
}
330
2726
100
AcDbXrecord
280
     1
102
ACAD_ROUNDTRIP_PRE2007_TABLESTYLE
 90
      512
 91
        0
  1

 92
      512
 93
        0
  2

 94
      512
 95
        0
  3

  0
XRECORD
  5
2738
102
{ACAD_REACTORS
330
2737
102
}
330
2737
100
AcDbXrecord
280
     1
102
RTVSPost2010Prop28
280
     1
102
RTVSPost2010PropOp28
 70
     1
102
RTVSPost2010Prop29
280
     1
102
RTVSPost2010PropOp29
 70
     1
102
RTVSPost2010Prop30
280
     0
102
RTVSPost2010PropOp30
 70
     1
102
RTVSPost2010Prop31
280
     0
102
RTVSPost2010PropOp31
 70
     1
102
RTVSPost2010Prop32
280
     0
102
RTVSPost2010PropOp32
 70
     1
102
RTVSPost2010Prop33
280
     0
102
RTVSPost2010PropOp33
 70
     1
102
RTVSPost2010Prop34
280
     0
102
RTVSPost2010PropOp34
 70
     1
102
RTVSPost2010Prop35
280
     0
102
RTVSPost2010PropOp35
 70
     1
102
RTVSPost2010Prop36
280
     0
102
RTVSPost2010PropOp36
 70
     1
102
RTVSPost2010Prop37
 90
       50
102
RTVSPost2010PropOp37
 70
     1
102
RTVSPost2010Prop38
140
0.0
102
RTVSPost2010PropOp38
 70
     1
102
RTVSPost2010Prop39
140
1.0
102
RTVSPost2010PropOp39
 70
     1
102
RTVSPost2010Prop40
 90
        0
102
RTVSPost2010PropOp40
 70
     1
102
RTVSPost2010Prop41ColorIndex
 90
       18
102
RTVSPost2010Prop41ColorRGB
 90
        0
102
RTVSPost2010PropOp41
 70
     1
102
RTVSPost2010Prop42
 90
       50
102
RTVSPost2010PropOp42
 70
     1
102
RTVSPost2010Prop43
 90
        3
102
RTVSPost2010PropOp43
 70
     1
102
RTVSPost2010Prop44ColorIndex
 90
        5
102
RTVSPost2010Prop44ColorRGB
 90
      255
102
RTVSPost2010PropOp44
 70
     1
102
RTVSPost2010Prop45
280
     0
102
RTVSPost2010PropOp45
 70
     1
102
RTVSPost2010Prop46
 90
       50
102
RTVSPost2010PropOp46
 70
     1
102
RTVSPost2010Prop47
 90
       50
102
RTVSPost2010PropOp47
 70
     1
102
RTVSPost2010Prop48
 90
       50
102
RTVSPost2010PropOp48
 70
     1
102
RTVSPost2010Prop49
280
     0
102
RTVSPost2010PropOp49
 70
     1
102
RTVSPost2010Prop50
 90
       50
102
RTVSPost2010PropOp50
 70
     1
102
RTVSPost2010Prop51ColorIndex
 90
      256
102
RTVSPost2010Prop51ColorRGB
 90
-16777216
102
RTVSPost2010PropOp51
 70
     0
102
RTVSPost2010Prop52
140
1.0
102
RTVSPost2010PropOp52
 70
     0
102
RTVSPost2010Prop53
 90
        2
102
RTVSPost2010PropOp53
 70
     1
102
RTVSPost2010Prop54
  1
strokes_ogs.tif
102
RTVSPost2010PropOp54
 70
     1
102
RTVSPost2010Prop55
280
     0
102
RTVSPost2010PropOp55
 70
     1
102
RTVSPost2010Prop56
140
1.0
102
RTVSPost2010PropOp56
 70
     1
102
RTVSPost2010Prop57
140
1.0
102
RTVSPost2010PropOp57
 70
     1
102
RTVSPropertyOp0
 70
     1
102
RTVSPropertyOp1
 70
     1
102
RTVSPropertyOp2
 70
     1
102
RTVSPropertyOp3
 70
     1
102
RTVSPropertyOp4
 70
     1
102
RTVSPropertyOp5
 70
     1
102
RTVSPropertyOp6
 70
     1
102
RTVSPropertyOp7
 70
     1
102
RTVSPropertyOp8
 70
     1
102
RTVSPropertyOp9
 70
     1
102
RTVSPropertyOp10
 70
     1
102
RTVSPropertyOp11
 70
     1
102
RTVSPropertyOp12
 70
     1
102
RTVSPropertyOp13
 70
     1
102
RTVSPropertyOp14
 70
     1
102
RTVSPropertyOp15
 70
     1
102
RTVSPropertyOp16
 70
     1
102
RTVSPropertyOp17
 70
     1
102
RTVSPropertyOp18
 70
     1
102
RTVSPropertyOp19
 70
     1
102
RTVSPropertyOp20
 70
     1
102
RTVSPropertyOp21
 70
     1
102
RTVSPropertyOp22
 70
     1
102
RTVSPropertyOp23
 70
     1
102
RTVSPropertyOp24
 70
     1
102
RTVSPropertyOp25
 70
     1
102
RTVSPropertyOp26
 70
     1
102
RTVSPropertyOp27
 70
     1
102
RTVSPropertyOp28
 70
     1
102
RTVSPropertyOp29
 70
     1
102
RTVSPropertyOp30
 70
     1
102
RTVSPropertyOp31
 70
     1
102
RTVSPropertyOp32
 70
     1
102
RTVSPropertyOp33
 70
     1
102
RTVSPropertyOp34
 70
     1
102
RTVSPropertyOp35
 70
     1
102
RTVSPropertyOp36
 70
     1
102
RTVSPropertyOp37
 70
     1
102
RTVSPropertyOp38
 70
     1
102
RTVSPropertyOp39
 70
     1
102
RTVSPropertyOp40
 70
     1
102
RTVSPropertyOp41
 70
     1
102
RTVSPropertyOp42
 70
     1
102
RTVSPropertyOp43
 70
     1
102
RTVSPropertyOp44
 70
     1
102
RTVSPropertyOp45
 70
     1
102
RTVSPropertyOp46
 70
     1
102
RTVSPropertyOp47
 70
     1
102
RTVSPropertyOp48
 70
     1
102
RTVSPropertyOp49
 70
     1
102
RTVSPropertyOp50
 70
     1
102
RTVSPropertyOp51
 70
     0
102
RTVSPropertyOp52
 70
     0
102
RTVSPropertyOp53
 70
     1
102
RTVSPropertyOp54
 70
     1
102
RTVSPropertyOp55
 70
     1
102
RTVSPropertyOp56
 70
     1
102
RTVSPropertyOp57
 70
     1
102
RTVSPropertyOp58
 70
     1
102
RTVSPropertyOp59
 70
     1
102
RTVSPropertyOp60
 70
     1
102
RTVSPropertyOp61
 70
     1
102
RTVSPropertyOp62
 70
     1
  0
XRECORD
  5
2736
102
{ACAD_REACTORS
330
2735
102
}
330
2735
100
AcDbXrecord
280
     1
102
RTVSPost2010Prop28
280
     0
102
RTVSPost2010PropOp28
 70
     1
102
RTVSPost2010Prop29
280
     1
102
RTVSPost2010PropOp29
 70
     1
102
RTVSPost2010Prop30
280
     1
102
RTVSPost2010PropOp30
 70
     1
102
RTVSPost2010Prop31
280
     0
102
RTVSPost2010PropOp31
 70
     1
102
RTVSPost2010Prop32
280
     0
102
RTVSPost2010PropOp32
 70
     1
102
RTVSPost2010Prop33
280
     0
102
RTVSPost2010PropOp33
 70
     1
102
RTVSPost2010Prop34
280
     0
102
RTVSPost2010PropOp34
 70
     1
102
RTVSPost2010Prop35
280
     0
102
RTVSPost2010PropOp35
 70
     1
102
RTVSPost2010Prop36
280
     0
102
RTVSPost2010PropOp36
 70
     1
102
RTVSPost2010Prop37
 90
       50
102
RTVSPost2010PropOp37
 70
     1
102
RTVSPost2010Prop38
140
0.0
102
RTVSPost2010PropOp38
 70
     1
102
RTVSPost2010Prop39
140
1.0
102
RTVSPost2010PropOp39
 70
     1
102
RTVSPost2010Prop40
 90
        0
102
RTVSPost2010PropOp40
 70
     1
102
RTVSPost2010Prop41ColorIndex
 90
       18
102
RTVSPost2010Prop41ColorRGB
 90
        0
102
RTVSPost2010PropOp41
 70
     1
102
RTVSPost2010Prop42
 90
       50
102
RTVSPost2010PropOp42
 70
     1
102
RTVSPost2010Prop43
 90
        3
102
RTVSPost2010PropOp43
 70
     1
102
RTVSPost2010Prop44ColorIndex
 90
        5
102
RTVSPost2010Prop44ColorRGB
 90
      255
102
RTVSPost2010PropOp44
 70
     1
102
RTVSPost2010Prop45
280
     0
102
RTVSPost2010PropOp45
 70
     1
102
RTVSPost2010Prop46
 90
       50
102
RTVSPost2010PropOp46
 70
     1
102
RTVSPost2010Prop47
 90
       50
102
RTVSPost2010PropOp47
 70
     1
102
RTVSPost2010Prop48
 90
       50
102
RTVSPost2010PropOp48
 70
     1
102
RTVSPost2010Prop49
280
     0
102
RTVSPost2010PropOp49
 70
     1
102
RTVSPost2010Prop50
 90
       50
102
RTVSPost2010PropOp50
 70
     1
102
RTVSPost2010Prop51ColorIndex
 90
      256
102
RTVSPost2010Prop51ColorRGB
 90
-16777216
102
RTVSPost2010PropOp51
 70
     0
102
RTVSPost2010Prop52
140
1.0
102
RTVSPost2010PropOp52
 70
     0
102
RTVSPost2010Prop53
 90
        2
102
RTVSPost2010PropOp53
 70
     1
102
RTVSPost2010Prop54
  1
strokes_ogs.tif
102
RTVSPost2010PropOp54
 70
     1
102
RTVSPost2010Prop55
280
     0
102
RTVSPost2010PropOp55
 70
     1
102
RTVSPost2010Prop56
140
1.0
102
RTVSPost2010PropOp56
 70
     1
102
RTVSPost2010Prop57
140
1.0
102
RTVSPost2010PropOp57
 70
     1
102
RTVSPropertyOp0
 70
     1
102
RTVSPropertyOp1
 70
     1
102
RTVSPropertyOp2
 70
     1
102
RTVSPropertyOp3
 70
     1
102
RTVSPropertyOp4
 70
     1
102
RTVSPropertyOp5
 70
     1
102
RTVSPropertyOp6
 70
     1
102
RTVSPropertyOp7
 70
     1
102
RTVSPropertyOp8
 70
     1
102
RTVSPropertyOp9
 70
     1
102
RTVSPropertyOp10
 70
     1
102
RTVSPropertyOp11
 70
     1
102
RTVSPropertyOp12
 70
     1
102
RTVSPropertyOp13
 70
     1
102
RTVSPropertyOp14
 70
     1
102
RTVSPropertyOp15
 70
     1
102
RTVSPropertyOp16
 70
     1
102
RTVSPropertyOp17
 70
     1
102
RTVSPropertyOp18
 70
     1
102
RTVSPropertyOp19
 70
     1
102
RTVSPropertyOp20
 70
     1
102
RTVSPropertyOp21
 70
     1
102
RTVSPropertyOp22
 70
     1
102
RTVSPropertyOp23
 70
     1
102
RTVSPropertyOp24
 70
     1
102
RTVSPropertyOp25
 70
     1
102
RTVSPropertyOp26
 70
     1
102
RTVSPropertyOp27
 70
     1
102
RTVSPropertyOp28
 70
     1
102
RTVSPropertyOp29
 70
     1
102
RTVSPropertyOp30
 70
     1
102
RTVSPropertyOp31
 70
     1
102
RTVSPropertyOp32
 70
     1
102
RTVSPropertyOp33
 70
     1
102
RTVSPropertyOp34
 70
     1
102
RTVSPropertyOp35
 70
     1
102
RTVSPropertyOp36
 70
     1
102
RTVSPropertyOp37
 70
     1
102
RTVSPropertyOp38
 70
     1
102
RTVSPropertyOp39
 70
     1
102
RTVSPropertyOp40
 70
     1
102
RTVSPropertyOp41
 70
     1
102
RTVSPropertyOp42
 70
     1
102
RTVSPropertyOp43
 70
     1
102
RTVSPropertyOp44
 70
     1
102
RTVSPropertyOp45
 70
     1
102
RTVSPropertyOp46
 70
     1
102
RTVSPropertyOp47
 70
     1
102
RTVSPropertyOp48
 70
     1
102
RTVSPropertyOp49
 70
     1
102
RTVSPropertyOp50
 70
     1
102
RTVSPropertyOp51
 70
     0
102
RTVSPropertyOp52
 70
     0
102
RTVSPropertyOp53
 70
     1
102
RTVSPropertyOp54
 70
     1
102
RTVSPropertyOp55
 70
     1
102
RTVSPropertyOp56
 70
     1
102
RTVSPropertyOp57
 70
     1
102
RTVSPropertyOp58
 70
     1
102
RTVSPropertyOp59
 70
     1
102
RTVSPropertyOp60
 70
     1
102
RTVSPropertyOp61
 70
     1
102
RTVSPropertyOp62
 70
     1
  0
XRECORD
  5
2744
102
{ACAD_REACTORS
330
2743
102
}
330
2743
100
AcDbXrecord
280
     1
102
RTVSPost2010Prop28
280
     0
102
RTVSPost2010PropOp28
 70
     1
102
RTVSPost2010Prop29
280
     1
102
RTVSPost2010PropOp29
 70
     1
102
RTVSPost2010Prop30
280
     1
102
RTVSPost2010PropOp30
 70
     1
102
RTVSPost2010Prop31
280
     0
102
RTVSPost2010PropOp31
 70
     1
102
RTVSPost2010Prop32
280
     0
102
RTVSPost2010PropOp32
 70
     1
102
RTVSPost2010Prop33
280
     0
102
RTVSPost2010PropOp33
 70
     1
102
RTVSPost2010Prop34
280
     0
102
RTVSPost2010PropOp34
 70
     1
102
RTVSPost2010Prop35
280
     0
102
RTVSPost2010PropOp35
 70
     1
102
RTVSPost2010Prop36
280
     0
102
RTVSPost2010PropOp36
 70
     1
102
RTVSPost2010Prop37
 90
       50
102
RTVSPost2010PropOp37
 70
     1
102
RTVSPost2010Prop38
140
0.0
102
RTVSPost2010PropOp38
 70
     1
102
RTVSPost2010Prop39
140
1.0
102
RTVSPost2010PropOp39
 70
     1
102
RTVSPost2010Prop40
 90
        0
102
RTVSPost2010PropOp40
 70
     1
102
RTVSPost2010Prop41ColorIndex
 90
       18
102
RTVSPost2010Prop41ColorRGB
 90
        0
102
RTVSPost2010PropOp41
 70
     1
102
RTVSPost2010Prop42
 90
       50
102
RTVSPost2010PropOp42
 70
     1
102
RTVSPost2010Prop43
 90
        3
102
RTVSPost2010PropOp43
 70
     1
102
RTVSPost2010Prop44ColorIndex
 90
        5
102
RTVSPost2010Prop44ColorRGB
 90
      255
102
RTVSPost2010PropOp44
 70
     1
102
RTVSPost2010Prop45
280
     0
102
RTVSPost2010PropOp45
 70
     1
102
RTVSPost2010Prop46
 90
       50
102
RTVSPost2010PropOp46
 70
     1
102
RTVSPost2010Prop47
 90
       50
102
RTVSPost2010PropOp47
 70
     1
102
RTVSPost2010Prop48
 90
       50
102
RTVSPost2010PropOp48
 70
     1
102
RTVSPost2010Prop49
280
     0
102
RTVSPost2010PropOp49
 70
     1
102
RTVSPost2010Prop50
 90
       50
102
RTVSPost2010PropOp50
 70
     1
102
RTVSPost2010Prop51ColorIndex
 90
      256
102
RTVSPost2010Prop51ColorRGB
 90
-16777216
102
RTVSPost2010PropOp51
 70
     0
102
RTVSPost2010Prop52
140
1.0
102
RTVSPost2010PropOp52
 70
     0
102
RTVSPost2010Prop53
 90
        2
102
RTVSPost2010PropOp53
 70
     1
102
RTVSPost2010Prop54
  1
strokes_ogs.tif
102
RTVSPost2010PropOp54
 70
     1
102
RTVSPost2010Prop55
280
     0
102
RTVSPost2010PropOp55
 70
     1
102
RTVSPost2010Prop56
140
1.0
102
RTVSPost2010PropOp56
 70
     1
102
RTVSPost2010Prop57
140
1.0
102
RTVSPost2010PropOp57
 70
     1
102
RTVSPropertyOp0
 70
     1
102
RTVSPropertyOp1
 70
     1
102
RTVSPropertyOp2
 70
     1
102
RTVSPropertyOp3
 70
     1
102
RTVSPropertyOp4
 70
     1
102
RTVSPropertyOp5
 70
     1
102
RTVSPropertyOp6
 70
     1
102
RTVSPropertyOp7
 70
     1
102
RTVSPropertyOp8
 70
     1
102
RTVSPropertyOp9
 70
     1
102
RTVSPropertyOp10
 70
     1
102
RTVSPropertyOp11
 70
     1
102
RTVSPropertyOp12
 70
     1
102
RTVSPropertyOp13
 70
     1
102
RTVSPropertyOp14
 70
     1
102
RTVSPropertyOp15
 70
     1
102
RTVSPropertyOp16
 70
     1
102
RTVSPropertyOp17
 70
     1
102
RTVSPropertyOp18
 70
     1
102
RTVSPropertyOp19
 70
     1
102
RTVSPropertyOp20
 70
     1
102
RTVSPropertyOp21
 70
     1
102
RTVSPropertyOp22
 70
     1
102
RTVSPropertyOp23
 70
     1
102
RTVSPropertyOp24
 70
     1
102
RTVSPropertyOp25
 70
     1
102
RTVSPropertyOp26
 70
     1
102
RTVSPropertyOp27
 70
     1
102
RTVSPropertyOp28
 70
     1
102
RTVSPropertyOp29
 70
     1
102
RTVSPropertyOp30
 70
     1
102
RTVSPropertyOp31
 70
     1
102
RTVSPropertyOp32
 70
     1
102
RTVSPropertyOp33
 70
     1
102
RTVSPropertyOp34
 70
     1
102
RTVSPropertyOp35
 70
     1
102
RTVSPropertyOp36
 70
     1
102
RTVSPropertyOp37
 70
     1
102
RTVSPropertyOp38
 70
     1
102
RTVSPropertyOp39
 70
     1
102
RTVSPropertyOp40
 70
     1
102
RTVSPropertyOp41
 70
     1
102
RTVSPropertyOp42
 70
     1
102
RTVSPropertyOp43
 70
     1
102
RTVSPropertyOp44
 70
     1
102
RTVSPropertyOp45
 70
     1
102
RTVSPropertyOp46
 70
     1
102
RTVSPropertyOp47
 70
     1
102
RTVSPropertyOp48
 70
     1
102
RTVSPropertyOp49
 70
     1
102
RTVSPropertyOp50
 70
     1
102
RTVSPropertyOp51
 70
     0
102
RTVSPropertyOp52
 70
     0
102
RTVSPropertyOp53
 70
     1
102
RTVSPropertyOp54
 70
     1
102
RTVSPropertyOp55
 70
     1
102
RTVSPropertyOp56
 70
     1
102
RTVSPropertyOp57
 70
     1
102
RTVSPropertyOp58
 70
     1
102
RTVSPropertyOp59
 70
     1
102
RTVSPropertyOp60
 70
     1
102
RTVSPropertyOp61
 70
     1
102
RTVSPropertyOp62
 70
     1
  0
XRECORD
  5
274C
102
{ACAD_REACTORS
330
274B
102
}
330
274B
100
AcDbXrecord
280
     1
102
RTVSPost2010Prop28
280
     0
102
RTVSPost2010PropOp28
 70
     1
102
RTVSPost2010Prop29
280
     1
102
RTVSPost2010PropOp29
 70
     1
102
RTVSPost2010Prop30
280
     1
102
RTVSPost2010PropOp30
 70
     1
102
RTVSPost2010Prop31
280
     0
102
RTVSPost2010PropOp31
 70
     1
102
RTVSPost2010Prop32
280
     0
102
RTVSPost2010PropOp32
 70
     1
102
RTVSPost2010Prop33
280
     0
102
RTVSPost2010PropOp33
 70
     1
102
RTVSPost2010Prop34
280
     0
102
RTVSPost2010PropOp34
 70
     1
102
RTVSPost2010Prop35
280
     0
102
RTVSPost2010PropOp35
 70
     1
102
RTVSPost2010Prop36
280
     0
102
RTVSPost2010PropOp36
 70
     1
102
RTVSPost2010Prop37
 90
       50
102
RTVSPost2010PropOp37
 70
     1
102
RTVSPost2010Prop38
140
0.0
102
RTVSPost2010PropOp38
 70
     1
102
RTVSPost2010Prop39
140
1.0
102
RTVSPost2010PropOp39
 70
     1
102
RTVSPost2010Prop40
 90
        0
102
RTVSPost2010PropOp40
 70
     1
102
RTVSPost2010Prop41ColorIndex
 90
       18
102
RTVSPost2010Prop41ColorRGB
 90
        0
102
RTVSPost2010PropOp41
 70
     1
102
RTVSPost2010Prop42
 90
       50
102
RTVSPost2010PropOp42
 70
     1
102
RTVSPost2010Prop43
 90
        3
102
RTVSPost2010PropOp43
 70
     1
102
RTVSPost2010Prop44ColorIndex
 90
        5
102
RTVSPost2010Prop44ColorRGB
 90
      255
102
RTVSPost2010PropOp44
 70
     1
102
RTVSPost2010Prop45
280
     0
102
RTVSPost2010PropOp45
 70
     1
102
RTVSPost2010Prop46
 90
       50
102
RTVSPost2010PropOp46
 70
     1
102
RTVSPost2010Prop47
 90
       50
102
RTVSPost2010PropOp47
 70
     1
102
RTVSPost2010Prop48
 90
       50
102
RTVSPost2010PropOp48
 70
     1
102
RTVSPost2010Prop49
280
     0
102
RTVSPost2010PropOp49
 70
     1
102
RTVSPost2010Prop50
 90
       50
102
RTVSPost2010PropOp50
 70
     1
102
RTVSPost2010Prop51ColorIndex
 90
      256
102
RTVSPost2010Prop51ColorRGB
 90
-16777216
102
RTVSPost2010PropOp51
 70
     0
102
RTVSPost2010Prop52
140
1.0
102
RTVSPost2010PropOp52
 70
     0
102
RTVSPost2010Prop53
 90
        2
102
RTVSPost2010PropOp53
 70
     1
102
RTVSPost2010Prop54
  1
strokes_ogs.tif
102
RTVSPost2010PropOp54
 70
     1
102
RTVSPost2010Prop55
280
     0
102
RTVSPost2010PropOp55
 70
     1
102
RTVSPost2010Prop56
140
1.0
102
RTVSPost2010PropOp56
 70
     1
102
RTVSPost2010Prop57
140
1.0
102
RTVSPost2010PropOp57
 70
     1
102
RTVSPropertyOp0
 70
     1
102
RTVSPropertyOp1
 70
     1
102
RTVSPropertyOp2
 70
     1
102
RTVSPropertyOp3
 70
     1
102
RTVSPropertyOp4
 70
     1
102
RTVSPropertyOp5
 70
     1
102
RTVSPropertyOp6
 70
     1
102
RTVSPropertyOp7
 70
     1
102
RTVSPropertyOp8
 70
     1
102
RTVSPropertyOp9
 70
     1
102
RTVSPropertyOp10
 70
     1
102
RTVSPropertyOp11
 70
     1
102
RTVSPropertyOp12
 70
     1
102
RTVSPropertyOp13
 70
     1
102
RTVSPropertyOp14
 70
     1
102
RTVSPropertyOp15
 70
     1
102
RTVSPropertyOp16
 70
     1
102
RTVSPropertyOp17
 70
     1
102
RTVSPropertyOp18
 70
     1
102
RTVSPropertyOp19
 70
     1
102
RTVSPropertyOp20
 70
     1
102
RTVSPropertyOp21
 70
     1
102
RTVSPropertyOp22
 70
     1
102
RTVSPropertyOp23
 70
     1
102
RTVSPropertyOp24
 70
     1
102
RTVSPropertyOp25
 70
     1
102
RTVSPropertyOp26
 70
     1
102
RTVSPropertyOp27
 70
     1
102
RTVSPropertyOp28
 70
     1
102
RTVSPropertyOp29
 70
     1
102
RTVSPropertyOp30
 70
     1
102
RTVSPropertyOp31
 70
     1
102
RTVSPropertyOp32
 70
     1
102
RTVSPropertyOp33
 70
     1
102
RTVSPropertyOp34
 70
     1
102
RTVSPropertyOp35
 70
     1
102
RTVSPropertyOp36
 70
     1
102
RTVSPropertyOp37
 70
     1
102
RTVSPropertyOp38
 70
     1
102
RTVSPropertyOp39
 70
     1
102
RTVSPropertyOp40
 70
     1
102
RTVSPropertyOp41
 70
     1
102
RTVSPropertyOp42
 70
     1
102
RTVSPropertyOp43
 70
     1
102
RTVSPropertyOp44
 70
     1
102
RTVSPropertyOp45
 70
     1
102
RTVSPropertyOp46
 70
     1
102
RTVSPropertyOp47
 70
     1
102
RTVSPropertyOp48
 70
     1
102
RTVSPropertyOp49
 70
     1
102
RTVSPropertyOp50
 70
     1
102
RTVSPropertyOp51
 70
     0
102
RTVSPropertyOp52
 70
     0
102
RTVSPropertyOp53
 70
     1
102
RTVSPropertyOp54
 70
     1
102
RTVSPropertyOp55
 70
     1
102
RTVSPropertyOp56
 70
     1
102
RTVSPropertyOp57
 70
     1
102
RTVSPropertyOp58
 70
     1
102
RTVSPropertyOp59
 70
     1
102
RTVSPropertyOp60
 70
     1
102
RTVSPropertyOp61
 70
     1
102
RTVSPropertyOp62
 70
     1
  0
XRECORD
  5
273E
102
{ACAD_REACTORS
330
273D
102
}
330
273D
100
AcDbXrecord
280
     1
102
RTVSPost2010Prop28
280
     0
102
RTVSPost2010PropOp28
 70
     1
102
RTVSPost2010Prop29
280
     1
102
RTVSPost2010PropOp29
 70
     1
102
RTVSPost2010Prop30
280
     1
102
RTVSPost2010PropOp30
 70
     1
102
RTVSPost2010Prop31
280
     0
102
RTVSPost2010PropOp31
 70
     1
102
RTVSPost2010Prop32
280
     0
102
RTVSPost2010PropOp32
 70
     1
102
RTVSPost2010Prop33
280
     0
102
RTVSPost2010PropOp33
 70
     1
102
RTVSPost2010Prop34
280
     0
102
RTVSPost2010PropOp34
 70
     1
102
RTVSPost2010Prop35
280
     0
102
RTVSPost2010PropOp35
 70
     1
102
RTVSPost2010Prop36
280
     0
102
RTVSPost2010PropOp36
 70
     1
102
RTVSPost2010Prop37
 90
       50
102
RTVSPost2010PropOp37
 70
     1
102
RTVSPost2010Prop38
140
0.0
102
RTVSPost2010PropOp38
 70
     1
102
RTVSPost2010Prop39
140
1.0
102
RTVSPost2010PropOp39
 70
     1
102
RTVSPost2010Prop40
 90
        0
102
RTVSPost2010PropOp40
 70
     1
102
RTVSPost2010Prop41ColorIndex
 90
       18
102
RTVSPost2010Prop41ColorRGB
 90
        0
102
RTVSPost2010PropOp41
 70
     1
102
RTVSPost2010Prop42
 90
       50
102
RTVSPost2010PropOp42
 70
     1
102
RTVSPost2010Prop43
 90
        3
102
RTVSPost2010PropOp43
 70
     1
102
RTVSPost2010Prop44ColorIndex
 90
        5
102
RTVSPost2010Prop44ColorRGB
 90
      255
102
RTVSPost2010PropOp44
 70
     1
102
RTVSPost2010Prop45
280
     0
102
RTVSPost2010PropOp45
 70
     1
102
RTVSPost2010Prop46
 90
       50
102
RTVSPost2010PropOp46
 70
     1
102
RTVSPost2010Prop47
 90
       50
102
RTVSPost2010PropOp47
 70
     1
102
RTVSPost2010Prop48
 90
       50
102
RTVSPost2010PropOp48
 70
     1
102
RTVSPost2010Prop49
280
     0
102
RTVSPost2010PropOp49
 70
     1
102
RTVSPost2010Prop50
 90
       50
102
RTVSPost2010PropOp50
 70
     1
102
RTVSPost2010Prop51ColorIndex
 90
      256
102
RTVSPost2010Prop51ColorRGB
 90
-16777216
102
RTVSPost2010PropOp51
 70
     0
102
RTVSPost2010Prop52
140
1.0
102
RTVSPost2010PropOp52
 70
     0
102
RTVSPost2010Prop53
 90
        2
102
RTVSPost2010PropOp53
 70
     1
102
RTVSPost2010Prop54
  1
strokes_ogs.tif
102
RTVSPost2010PropOp54
 70
     1
102
RTVSPost2010Prop55
280
     0
102
RTVSPost2010PropOp55
 70
     1
102
RTVSPost2010Prop56
140
1.0
102
RTVSPost2010PropOp56
 70
     1
102
RTVSPost2010Prop57
140
1.0
102
RTVSPost2010PropOp57
 70
     1
102
RTVSPropertyOp0
 70
     1
102
RTVSPropertyOp1
 70
     1
102
RTVSPropertyOp2
 70
     1
102
RTVSPropertyOp3
 70
     1
102
RTVSPropertyOp4
 70
     1
102
RTVSPropertyOp5
 70
     1
102
RTVSPropertyOp6
 70
     1
102
RTVSPropertyOp7
 70
     1
102
RTVSPropertyOp8
 70
     1
102
RTVSPropertyOp9
 70
     1
102
RTVSPropertyOp10
 70
     1
102
RTVSPropertyOp11
 70
     1
102
RTVSPropertyOp12
 70
     1
102
RTVSPropertyOp13
 70
     1
102
RTVSPropertyOp14
 70
     1
102
RTVSPropertyOp15
 70
     1
102
RTVSPropertyOp16
 70
     1
102
RTVSPropertyOp17
 70
     1
102
RTVSPropertyOp18
 70
     1
102
RTVSPropertyOp19
 70
     1
102
RTVSPropertyOp20
 70
     1
102
RTVSPropertyOp21
 70
     1
102
RTVSPropertyOp22
 70
     1
102
RTVSPropertyOp23
 70
     1
102
RTVSPropertyOp24
 70
     1
102
RTVSPropertyOp25
 70
     1
102
RTVSPropertyOp26
 70
     1
102
RTVSPropertyOp27
 70
     1
102
RTVSPropertyOp28
 70
     1
102
RTVSPropertyOp29
 70
     1
102
RTVSPropertyOp30
 70
     1
102
RTVSPropertyOp31
 70
     1
102
RTVSPropertyOp32
 70
     1
102
RTVSPropertyOp33
 70
     1
102
RTVSPropertyOp34
 70
     1
102
RTVSPropertyOp35
 70
     1
102
RTVSPropertyOp36
 70
     1
102
RTVSPropertyOp37
 70
     1
102
RTVSPropertyOp38
 70
     1
102
RTVSPropertyOp39
 70
     1
102
RTVSPropertyOp40
 70
     1
102
RTVSPropertyOp41
 70
     1
102
RTVSPropertyOp42
 70
     1
102
RTVSPropertyOp43
 70
     1
102
RTVSPropertyOp44
 70
     1
102
RTVSPropertyOp45
 70
     1
102
RTVSPropertyOp46
 70
     1
102
RTVSPropertyOp47
 70
     1
102
RTVSPropertyOp48
 70
     1
102
RTVSPropertyOp49
 70
     1
102
RTVSPropertyOp50
 70
     1
102
RTVSPropertyOp51
 70
     0
102
RTVSPropertyOp52
 70
     0
102
RTVSPropertyOp53
 70
     1
102
RTVSPropertyOp54
 70
     1
102
RTVSPropertyOp55
 70
     1
102
RTVSPropertyOp56
 70
     1
102
RTVSPropertyOp57
 70
     1
102
RTVSPropertyOp58
 70
     1
102
RTVSPropertyOp59
 70
     1
102
RTVSPropertyOp60
 70
     1
102
RTVSPropertyOp61
 70
     1
102
RTVSPropertyOp62
 70
     1
  0
XRECORD
  5
2742
102
{ACAD_REACTORS
330
2741
102
}
330
2741
100
AcDbXrecord
280
     1
102
RTVSPost2010Prop28
280
     0
102
RTVSPost2010PropOp28
 70
     1
102
RTVSPost2010Prop29
280
     1
102
RTVSPost2010PropOp29
 70
     1
102
RTVSPost2010Prop30
280
     1
102
RTVSPost2010PropOp30
 70
     1
102
RTVSPost2010Prop31
280
     0
102
RTVSPost2010PropOp31
 70
     1
102
RTVSPost2010Prop32
280
     0
102
RTVSPost2010PropOp32
 70
     1
102
RTVSPost2010Prop33
280
     0
102
RTVSPost2010PropOp33
 70
     1
102
RTVSPost2010Prop34
280
     0
102
RTVSPost2010PropOp34
 70
     1
102
RTVSPost2010Prop35
280
     0
102
RTVSPost2010PropOp35
 70
     1
102
RTVSPost2010Prop36
280
     0
102
RTVSPost2010PropOp36
 70
     1
102
RTVSPost2010Prop37
 90
       50
102
RTVSPost2010PropOp37
 70
     1
102
RTVSPost2010Prop38
140
0.0
102
RTVSPost2010PropOp38
 70
     1
102
RTVSPost2010Prop39
140
1.0
102
RTVSPost2010PropOp39
 70
     1
102
RTVSPost2010Prop40
 90
        0
102
RTVSPost2010PropOp40
 70
     1
102
RTVSPost2010Prop41ColorIndex
 90
       18
102
RTVSPost2010Prop41ColorRGB
 90
        0
102
RTVSPost2010PropOp41
 70
     1
102
RTVSPost2010Prop42
 90
       50
102
RTVSPost2010PropOp42
 70
     1
102
RTVSPost2010Prop43
 90
        3
102
RTVSPost2010PropOp43
 70
     1
102
RTVSPost2010Prop44ColorIndex
 90
        5
102
RTVSPost2010Prop44ColorRGB
 90
      255
102
RTVSPost2010PropOp44
 70
     1
102
RTVSPost2010Prop45
280
     0
102
RTVSPost2010PropOp45
 70
     1
102
RTVSPost2010Prop46
 90
       50
102
RTVSPost2010PropOp46
 70
     1
102
RTVSPost2010Prop47
 90
       50
102
RTVSPost2010PropOp47
 70
     1
102
RTVSPost2010Prop48
 90
       50
102
RTVSPost2010PropOp48
 70
     1
102
RTVSPost2010Prop49
280
     0
102
RTVSPost2010PropOp49
 70
     1
102
RTVSPost2010Prop50
 90
       50
102
RTVSPost2010PropOp50
 70
     1
102
RTVSPost2010Prop51ColorIndex
 90
      256
102
RTVSPost2010Prop51ColorRGB
 90
-16777216
102
RTVSPost2010PropOp51
 70
     0
102
RTVSPost2010Prop52
140
1.0
102
RTVSPost2010PropOp52
 70
     0
102
RTVSPost2010Prop53
 90
        2
102
RTVSPost2010PropOp53
 70
     1
102
RTVSPost2010Prop54
  1
strokes_ogs.tif
102
RTVSPost2010PropOp54
 70
     1
102
RTVSPost2010Prop55
280
     0
102
RTVSPost2010PropOp55
 70
     1
102
RTVSPost2010Prop56
140
1.0
102
RTVSPost2010PropOp56
 70
     1
102
RTVSPost2010Prop57
140
1.0
102
RTVSPost2010PropOp57
 70
     1
102
RTVSPropertyOp0
 70
     1
102
RTVSPropertyOp1
 70
     1
102
RTVSPropertyOp2
 70
     1
102
RTVSPropertyOp3
 70
     1
102
RTVSPropertyOp4
 70
     1
102
RTVSPropertyOp5
 70
     1
102
RTVSPropertyOp6
 70
     1
102
RTVSPropertyOp7
 70
     1
102
RTVSPropertyOp8
 70
     1
102
RTVSPropertyOp9
 70
     1
102
RTVSPropertyOp10
 70
     1
102
RTVSPropertyOp11
 70
     1
102
RTVSPropertyOp12
 70
     1
102
RTVSPropertyOp13
 70
     1
102
RTVSPropertyOp14
 70
     1
102
RTVSPropertyOp15
 70
     1
102
RTVSPropertyOp16
 70
     1
102
RTVSPropertyOp17
 70
     1
102
RTVSPropertyOp18
 70
     1
102
RTVSPropertyOp19
 70
     1
102
RTVSPropertyOp20
 70
     1
102
RTVSPropertyOp21
 70
     1
102
RTVSPropertyOp22
 70
     1
102
RTVSPropertyOp23
 70
     1
102
RTVSPropertyOp24
 70
     1
102
RTVSPropertyOp25
 70
     1
102
RTVSPropertyOp26
 70
     1
102
RTVSPropertyOp27
 70
     1
102
RTVSPropertyOp28
 70
     1
102
RTVSPropertyOp29
 70
     1
102
RTVSPropertyOp30
 70
     1
102
RTVSPropertyOp31
 70
     1
102
RTVSPropertyOp32
 70
     1
102
RTVSPropertyOp33
 70
     1
102
RTVSPropertyOp34
 70
     1
102
RTVSPropertyOp35
 70
     1
102
RTVSPropertyOp36
 70
     1
102
RTVSPropertyOp37
 70
     1
102
RTVSPropertyOp38
 70
     1
102
RTVSPropertyOp39
 70
     1
102
RTVSPropertyOp40
 70
     1
102
RTVSPropertyOp41
 70
     1
102
RTVSPropertyOp42
 70
     1
102
RTVSPropertyOp43
 70
     1
102
RTVSPropertyOp44
 70
     1
102
RTVSPropertyOp45
 70
     1
102
RTVSPropertyOp46
 70
     1
102
RTVSPropertyOp47
 70
     1
102
RTVSPropertyOp48
 70
     1
102
RTVSPropertyOp49
 70
     1
102
RTVSPropertyOp50
 70
     1
102
RTVSPropertyOp51
 70
     0
102
RTVSPropertyOp52
 70
     0
102
RTVSPropertyOp53
 70
     1
102
RTVSPropertyOp54
 70
     1
102
RTVSPropertyOp55
 70
     1
102
RTVSPropertyOp56
 70
     1
102
RTVSPropertyOp57
 70
     1
102
RTVSPropertyOp58
 70
     1
102
RTVSPropertyOp59
 70
     1
102
RTVSPropertyOp60
 70
     1
102
RTVSPropertyOp61
 70
     1
102
RTVSPropertyOp62
 70
     1
  0
XRECORD
  5
275C
102
{ACAD_REACTORS
330
275B
102
}
330
275B
100
AcDbXrecord
280
     1
102
RTVSPost2010Prop28
280
     0
102
RTVSPost2010PropOp28
 70
     1
102
RTVSPost2010Prop29
280
     1
102
RTVSPost2010PropOp29
 70
     1
102
RTVSPost2010Prop30
280
     1
102
RTVSPost2010PropOp30
 70
     1
102
RTVSPost2010Prop31
280
     0
102
RTVSPost2010PropOp31
 70
     1
102
RTVSPost2010Prop32
280
     0
102
RTVSPost2010PropOp32
 70
     1
102
RTVSPost2010Prop33
280
     0
102
RTVSPost2010PropOp33
 70
     1
102
RTVSPost2010Prop34
280
     0
102
RTVSPost2010PropOp34
 70
     1
102
RTVSPost2010Prop35
280
     0
102
RTVSPost2010PropOp35
 70
     1
102
RTVSPost2010Prop36
280
     0
102
RTVSPost2010PropOp36
 70
     1
102
RTVSPost2010Prop37
 90
       50
102
RTVSPost2010PropOp37
 70
     0
102
RTVSPost2010Prop38
140
0.0
102
RTVSPost2010PropOp38
 70
     0
102
RTVSPost2010Prop39
140
1.0
102
RTVSPost2010PropOp39
 70
     0
102
RTVSPost2010Prop40
 90
        0
102
RTVSPost2010PropOp40
 70
     0
102
RTVSPost2010Prop41ColorIndex
 90
       18
102
RTVSPost2010Prop41ColorRGB
 90
        0
102
RTVSPost2010PropOp41
 70
     0
102
RTVSPost2010Prop42
 90
       50
102
RTVSPost2010PropOp42
 70
     0
102
RTVSPost2010Prop43
 90
        3
102
RTVSPost2010PropOp43
 70
     0
102
RTVSPost2010Prop44ColorIndex
 90
        5
102
RTVSPost2010Prop44ColorRGB
 90
      255
102
RTVSPost2010PropOp44
 70
     0
102
RTVSPost2010Prop45
280
     0
102
RTVSPost2010PropOp45
 70
     1
102
RTVSPost2010Prop46
 90
       50
102
RTVSPost2010PropOp46
 70
     0
102
RTVSPost2010Prop47
 90
       50
102
RTVSPost2010PropOp47
 70
     0
102
RTVSPost2010Prop48
 90
       50
102
RTVSPost2010PropOp48
 70
     0
102
RTVSPost2010Prop49
280
     0
102
RTVSPost2010PropOp49
 70
     1
102
RTVSPost2010Prop50
 90
       50
102
RTVSPost2010PropOp50
 70
     0
102
RTVSPost2010Prop51ColorIndex
 90
      256
102
RTVSPost2010Prop51ColorRGB
 90
-16777216
102
RTVSPost2010PropOp51
 70
     0
102
RTVSPost2010Prop52
140
1.0
102
RTVSPost2010PropOp52
 70
     0
102
RTVSPost2010Prop53
 90
        2
102
RTVSPost2010PropOp53
 70
     0
102
RTVSPost2010Prop54
  1
strokes_ogs.tif
102
RTVSPost2010PropOp54
 70
     0
102
RTVSPost2010Prop55
280
     0
102
RTVSPost2010PropOp55
 70
     1
102
RTVSPost2010Prop56
140
1.0
102
RTVSPost2010PropOp56
 70
     0
102
RTVSPost2010Prop57
140
1.0
102
RTVSPost2010PropOp57
 70
     0
102
RTVSPropertyOp0
 70
     0
102
RTVSPropertyOp1
 70
     0
102
RTVSPropertyOp2
 70
     0
102
RTVSPropertyOp3
 70
     0
102
RTVSPropertyOp4
 70
     0
102
RTVSPropertyOp5
 70
     0
102
RTVSPropertyOp6
 70
     0
102
RTVSPropertyOp7
 70
     0
102
RTVSPropertyOp8
 70
     0
102
RTVSPropertyOp9
 70
     0
102
RTVSPropertyOp10
 70
     0
102
RTVSPropertyOp11
 70
     0
102
RTVSPropertyOp12
 70
     0
102
RTVSPropertyOp13
 70
     0
102
RTVSPropertyOp14
 70
     2
102
RTVSPropertyOp15
 70
     0
102
RTVSPropertyOp16
 70
     0
102
RTVSPropertyOp17
 70
     0
102
RTVSPropertyOp18
 70
     0
102
RTVSPropertyOp19
 70
     0
102
RTVSPropertyOp20
 70
     0
102
RTVSPropertyOp21
 70
     0
102
RTVSPropertyOp22
 70
     0
102
RTVSPropertyOp23
 70
     0
102
RTVSPropertyOp24
 70
     0
102
RTVSPropertyOp25
 70
     0
102
RTVSPropertyOp26
 70
     0
102
RTVSPropertyOp27
 70
     0
102
RTVSPropertyOp28
 70
     1
102
RTVSPropertyOp29
 70
     1
102
RTVSPropertyOp30
 70
     1
102
RTVSPropertyOp31
 70
     1
102
RTVSPropertyOp32
 70
     1
102
RTVSPropertyOp33
 70
     1
102
RTVSPropertyOp34
 70
     1
102
RTVSPropertyOp35
 70
     1
102
RTVSPropertyOp36
 70
     1
102
RTVSPropertyOp37
 70
     0
102
RTVSPropertyOp38
 70
     0
102
RTVSPropertyOp39
 70
     0
102
RTVSPropertyOp40
 70
     0
102
RTVSPropertyOp41
 70
     0
102
RTVSPropertyOp42
 70
     0
102
RTVSPropertyOp43
 70
     0
102
RTVSPropertyOp44
 70
     0
102
RTVSPropertyOp45
 70
     1
102
RTVSPropertyOp46
 70
     0
102
RTVSPropertyOp47
 70
     0
102
RTVSPropertyOp48
 70
     0
102
RTVSPropertyOp49
 70
     1
102
RTVSPropertyOp50
 70
     0
102
RTVSPropertyOp51
 70
     0
102
RTVSPropertyOp52
 70
     0
102
RTVSPropertyOp53
 70
     0
102
RTVSPropertyOp54
 70
     0
102
RTVSPropertyOp55
 70
     1
102
RTVSPropertyOp56
 70
     0
102
RTVSPropertyOp57
 70
     0
102
RTVSPropertyOp58
 70
     0
102
RTVSPropertyOp59
 70
     0
102
RTVSPropertyOp60
 70
     0
102
RTVSPropertyOp61
 70
     0
102
RTVSPropertyOp62
 70
     0
  0
XRECORD
  5
274A
102
{ACAD_REACTORS
330
2749
102
}
330
2749
100
AcDbXrecord
280
     1
102
RTVSPost2010Prop28
280
     0
102
RTVSPost2010PropOp28
 70
     1
102
RTVSPost2010Prop29
280
     1
102
RTVSPost2010PropOp29
 70
     1
102
RTVSPost2010Prop30
280
     1
102
RTVSPost2010PropOp30
 70
     1
102
RTVSPost2010Prop31
280
     0
102
RTVSPost2010PropOp31
 70
     1
102
RTVSPost2010Prop32
280
     0
102
RTVSPost2010PropOp32
 70
     1
102
RTVSPost2010Prop33
280
     0
102
RTVSPost2010PropOp33
 70
     1
102
RTVSPost2010Prop34
280
     0
102
RTVSPost2010PropOp34
 70
     1
102
RTVSPost2010Prop35
280
     0
102
RTVSPost2010PropOp35
 70
     1
102
RTVSPost2010Prop36
280
     0
102
RTVSPost2010PropOp36
 70
     1
102
RTVSPost2010Prop37
 90
       50
102
RTVSPost2010PropOp37
 70
     1
102
RTVSPost2010Prop38
140
0.0
102
RTVSPost2010PropOp38
 70
     1
102
RTVSPost2010Prop39
140
1.0
102
RTVSPost2010PropOp39
 70
     1
102
RTVSPost2010Prop40
 90
        0
102
RTVSPost2010PropOp40
 70
     1
102
RTVSPost2010Prop41ColorIndex
 90
       18
102
RTVSPost2010Prop41ColorRGB
 90
        0
102
RTVSPost2010PropOp41
 70
     1
102
RTVSPost2010Prop42
 90
       50
102
RTVSPost2010PropOp42
 70
     1
102
RTVSPost2010Prop43
 90
        3
102
RTVSPost2010PropOp43
 70
     1
102
RTVSPost2010Prop44ColorIndex
 90
        5
102
RTVSPost2010Prop44ColorRGB
 90
      255
102
RTVSPost2010PropOp44
 70
     1
102
RTVSPost2010Prop45
280
     0
102
RTVSPost2010PropOp45
 70
     1
102
RTVSPost2010Prop46
 90
       50
102
RTVSPost2010PropOp46
 70
     1
102
RTVSPost2010Prop47
 90
       50
102
RTVSPost2010PropOp47
 70
     1
102
RTVSPost2010Prop48
 90
       50
102
RTVSPost2010PropOp48
 70
     1
102
RTVSPost2010Prop49
280
     0
102
RTVSPost2010PropOp49
 70
     1
102
RTVSPost2010Prop50
 90
       50
102
RTVSPost2010PropOp50
 70
     1
102
RTVSPost2010Prop51ColorIndex
 90
      256
102
RTVSPost2010Prop51ColorRGB
 90
-16777216
102
RTVSPost2010PropOp51
 70
     0
102
RTVSPost2010Prop52
140
1.0
102
RTVSPost2010PropOp52
 70
     0
102
RTVSPost2010Prop53
 90
        2
102
RTVSPost2010PropOp53
 70
     1
102
RTVSPost2010Prop54
  1
strokes_ogs.tif
102
RTVSPost2010PropOp54
 70
     1
102
RTVSPost2010Prop55
280
     0
102
RTVSPost2010PropOp55
 70
     1
102
RTVSPost2010Prop56
140
1.0
102
RTVSPost2010PropOp56
 70
     1
102
RTVSPost2010Prop57
140
1.0
102
RTVSPost2010PropOp57
 70
     1
102
RTVSPropertyOp0
 70
     1
102
RTVSPropertyOp1
 70
     1
102
RTVSPropertyOp2
 70
     1
102
RTVSPropertyOp3
 70
     1
102
RTVSPropertyOp4
 70
     1
102
RTVSPropertyOp5
 70
     1
102
RTVSPropertyOp6
 70
     1
102
RTVSPropertyOp7
 70
     1
102
RTVSPropertyOp8
 70
     1
102
RTVSPropertyOp9
 70
     1
102
RTVSPropertyOp10
 70
     1
102
RTVSPropertyOp11
 70
     1
102
RTVSPropertyOp12
 70
     1
102
RTVSPropertyOp13
 70
     1
102
RTVSPropertyOp14
 70
     1
102
RTVSPropertyOp15
 70
     1
102
RTVSPropertyOp16
 70
     1
102
RTVSPropertyOp17
 70
     1
102
RTVSPropertyOp18
 70
     1
102
RTVSPropertyOp19
 70
     1
102
RTVSPropertyOp20
 70
     1
102
RTVSPropertyOp21
 70
     1
102
RTVSPropertyOp22
 70
     1
102
RTVSPropertyOp23
 70
     1
102
RTVSPropertyOp24
 70
     1
102
RTVSPropertyOp25
 70
     1
102
RTVSPropertyOp26
 70
     1
102
RTVSPropertyOp27
 70
     1
102
RTVSPropertyOp28
 70
     1
102
RTVSPropertyOp29
 70
     1
102
RTVSPropertyOp30
 70
     1
102
RTVSPropertyOp31
 70
     1
102
RTVSPropertyOp32
 70
     1
102
RTVSPropertyOp33
 70
     1
102
RTVSPropertyOp34
 70
     1
102
RTVSPropertyOp35
 70
     1
102
RTVSPropertyOp36
 70
     1
102
RTVSPropertyOp37
 70
     1
102
RTVSPropertyOp38
 70
     1
102
RTVSPropertyOp39
 70
     1
102
RTVSPropertyOp40
 70
     1
102
RTVSPropertyOp41
 70
     1
102
RTVSPropertyOp42
 70
     1
102
RTVSPropertyOp43
 70
     1
102
RTVSPropertyOp44
 70
     1
102
RTVSPropertyOp45
 70
     1
102
RTVSPropertyOp46
 70
     1
102
RTVSPropertyOp47
 70
     1
102
RTVSPropertyOp48
 70
     1
102
RTVSPropertyOp49
 70
     1
102
RTVSPropertyOp50
 70
     1
102
RTVSPropertyOp51
 70
     0
102
RTVSPropertyOp52
 70
     0
102
RTVSPropertyOp53
 70
     1
102
RTVSPropertyOp54
 70
     1
102
RTVSPropertyOp55
 70
     1
102
RTVSPropertyOp56
 70
     1
102
RTVSPropertyOp57
 70
     1
102
RTVSPropertyOp58
 70
     1
102
RTVSPropertyOp59
 70
     1
102
RTVSPropertyOp60
 70
     1
102
RTVSPropertyOp61
 70
     1
102
RTVSPropertyOp62
 70
     1
  0
XRECORD
  5
272E
102
{ACAD_REACTORS
330
272D
102
}
330
272D
100
AcDbXrecord
280
     1
102
RTVSPost2010Prop28
280
     0
102
RTVSPost2010PropOp28
 70
     1
102
RTVSPost2010Prop29
280
     1
102
RTVSPost2010PropOp29
 70
     1
102
RTVSPost2010Prop30
280
     1
102
RTVSPost2010PropOp30
 70
     1
102
RTVSPost2010Prop31
280
     0
102
RTVSPost2010PropOp31
 70
     1
102
RTVSPost2010Prop32
280
     0
102
RTVSPost2010PropOp32
 70
     1
102
RTVSPost2010Prop33
280
     0
102
RTVSPost2010PropOp33
 70
     1
102
RTVSPost2010Prop34
280
     0
102
RTVSPost2010PropOp34
 70
     1
102
RTVSPost2010Prop35
280
     0
102
RTVSPost2010PropOp35
 70
     1
102
RTVSPost2010Prop36
280
     0
102
RTVSPost2010PropOp36
 70
     1
102
RTVSPost2010Prop37
 90
       50
102
RTVSPost2010PropOp37
 70
     1
102
RTVSPost2010Prop38
140
0.0
102
RTVSPost2010PropOp38
 70
     1
102
RTVSPost2010Prop39
140
1.0
102
RTVSPost2010PropOp39
 70
     1
102
RTVSPost2010Prop40
 90
        0
102
RTVSPost2010PropOp40
 70
     1
102
RTVSPost2010Prop41ColorIndex
 90
       18
102
RTVSPost2010Prop41ColorRGB
 90
        0
102
RTVSPost2010PropOp41
 70
     1
102
RTVSPost2010Prop42
 90
       50
102
RTVSPost2010PropOp42
 70
     1
102
RTVSPost2010Prop43
 90
        3
102
RTVSPost2010PropOp43
 70
     1
102
RTVSPost2010Prop44ColorIndex
 90
        5
102
RTVSPost2010Prop44ColorRGB
 90
      255
102
RTVSPost2010PropOp44
 70
     1
102
RTVSPost2010Prop45
280
     0
102
RTVSPost2010PropOp45
 70
     1
102
RTVSPost2010Prop46
 90
       50
102
RTVSPost2010PropOp46
 70
     1
102
RTVSPost2010Prop47
 90
       50
102
RTVSPost2010PropOp47
 70
     1
102
RTVSPost2010Prop48
 90
       50
102
RTVSPost2010PropOp48
 70
     1
102
RTVSPost2010Prop49
280
     0
102
RTVSPost2010PropOp49
 70
     1
102
RTVSPost2010Prop50
 90
       50
102
RTVSPost2010PropOp50
 70
     1
102
RTVSPost2010Prop51ColorIndex
 90
      256
102
RTVSPost2010Prop51ColorRGB
 90
-16777216
102
RTVSPost2010PropOp51
 70
     0
102
RTVSPost2010Prop52
140
1.0
102
RTVSPost2010PropOp52
 70
     0
102
RTVSPost2010Prop53
 90
        2
102
RTVSPost2010PropOp53
 70
     1
102
RTVSPost2010Prop54
  1
strokes_ogs.tif
102
RTVSPost2010PropOp54
 70
     1
102
RTVSPost2010Prop55
280
     0
102
RTVSPost2010PropOp55
 70
     1
102
RTVSPost2010Prop56
140
1.0
102
RTVSPost2010PropOp56
 70
     1
102
RTVSPost2010Prop57
140
1.0
102
RTVSPost2010PropOp57
 70
     1
102
RTVSPropertyOp0
 70
     1
102
RTVSPropertyOp1
 70
     1
102
RTVSPropertyOp2
 70
     1
102
RTVSPropertyOp3
 70
     1
102
RTVSPropertyOp4
 70
     1
102
RTVSPropertyOp5
 70
     1
102
RTVSPropertyOp6
 70
     1
102
RTVSPropertyOp7
 70
     1
102
RTVSPropertyOp8
 70
     1
102
RTVSPropertyOp9
 70
     1
102
RTVSPropertyOp10
 70
     1
102
RTVSPropertyOp11
 70
     1
102
RTVSPropertyOp12
 70
     1
102
RTVSPropertyOp13
 70
     1
102
RTVSPropertyOp14
 70
     1
102
RTVSPropertyOp15
 70
     1
102
RTVSPropertyOp16
 70
     1
102
RTVSPropertyOp17
 70
     1
102
RTVSPropertyOp18
 70
     1
102
RTVSPropertyOp19
 70
     1
102
RTVSPropertyOp20
 70
     1
102
RTVSPropertyOp21
 70
     1
102
RTVSPropertyOp22
 70
     1
102
RTVSPropertyOp23
 70
     1
102
RTVSPropertyOp24
 70
     1
102
RTVSPropertyOp25
 70
     1
102
RTVSPropertyOp26
 70
     1
102
RTVSPropertyOp27
 70
     1
102
RTVSPropertyOp28
 70
     1
102
RTVSPropertyOp29
 70
     1
102
RTVSPropertyOp30
 70
     1
102
RTVSPropertyOp31
 70
     1
102
RTVSPropertyOp32
 70
     1
102
RTVSPropertyOp33
 70
     1
102
RTVSPropertyOp34
 70
     1
102
RTVSPropertyOp35
 70
     1
102
RTVSPropertyOp36
 70
     1
102
RTVSPropertyOp37
 70
     1
102
RTVSPropertyOp38
 70
     1
102
RTVSPropertyOp39
 70
     1
102
RTVSPropertyOp40
 70
     1
102
RTVSPropertyOp41
 70
     1
102
RTVSPropertyOp42
 70
     1
102
RTVSPropertyOp43
 70
     1
102
RTVSPropertyOp44
 70
     1
102
RTVSPropertyOp45
 70
     1
102
RTVSPropertyOp46
 70
     1
102
RTVSPropertyOp47
 70
     1
102
RTVSPropertyOp48
 70
     1
102
RTVSPropertyOp49
 70
     1
102
RTVSPropertyOp50
 70
     1
102
RTVSPropertyOp51
 70
     0
102
RTVSPropertyOp52
 70
     0
102
RTVSPropertyOp53
 70
     1
102
RTVSPropertyOp54
 70
     1
102
RTVSPropertyOp55
 70
     1
102
RTVSPropertyOp56
 70
     1
102
RTVSPropertyOp57
 70
     1
102
RTVSPropertyOp58
 70
     1
102
RTVSPropertyOp59
 70
     1
102
RTVSPropertyOp60
 70
     1
102
RTVSPropertyOp61
 70
     1
102
RTVSPropertyOp62
 70
     1
  0
XRECORD
  5
2730
102
{ACAD_REACTORS
330
272F
102
}
330
272F
100
AcDbXrecord
280
     1
102
RTVSPost2010Prop28
280
     0
102
RTVSPost2010PropOp28
 70
     1
102
RTVSPost2010Prop29
280
     1
102
RTVSPost2010PropOp29
 70
     1
102
RTVSPost2010Prop30
280
     1
102
RTVSPost2010PropOp30
 70
     1
102
RTVSPost2010Prop31
280
     0
102
RTVSPost2010PropOp31
 70
     1
102
RTVSPost2010Prop32
280
     0
102
RTVSPost2010PropOp32
 70
     1
102
RTVSPost2010Prop33
280
     0
102
RTVSPost2010PropOp33
 70
     1
102
RTVSPost2010Prop34
280
     0
102
RTVSPost2010PropOp34
 70
     1
102
RTVSPost2010Prop35
280
     0
102
RTVSPost2010PropOp35
 70
     1
102
RTVSPost2010Prop36
280
     0
102
RTVSPost2010PropOp36
 70
     1
102
RTVSPost2010Prop37
 90
       50
102
RTVSPost2010PropOp37
 70
     1
102
RTVSPost2010Prop38
140
0.0
102
RTVSPost2010PropOp38
 70
     1
102
RTVSPost2010Prop39
140
1.0
102
RTVSPost2010PropOp39
 70
     1
102
RTVSPost2010Prop40
 90
        0
102
RTVSPost2010PropOp40
 70
     1
102
RTVSPost2010Prop41ColorIndex
 90
       18
102
RTVSPost2010Prop41ColorRGB
 90
        0
102
RTVSPost2010PropOp41
 70
     1
102
RTVSPost2010Prop42
 90
       50
102
RTVSPost2010PropOp42
 70
     1
102
RTVSPost2010Prop43
 90
        3
102
RTVSPost2010PropOp43
 70
     1
102
RTVSPost2010Prop44ColorIndex
 90
        5
102
RTVSPost2010Prop44ColorRGB
 90
      255
102
RTVSPost2010PropOp44
 70
     1
102
RTVSPost2010Prop45
280
     0
102
RTVSPost2010PropOp45
 70
     1
102
RTVSPost2010Prop46
 90
       50
102
RTVSPost2010PropOp46
 70
     1
102
RTVSPost2010Prop47
 90
       50
102
RTVSPost2010PropOp47
 70
     1
102
RTVSPost2010Prop48
 90
       50
102
RTVSPost2010PropOp48
 70
     1
102
RTVSPost2010Prop49
280
     0
102
RTVSPost2010PropOp49
 70
     1
102
RTVSPost2010Prop50
 90
       50
102
RTVSPost2010PropOp50
 70
     1
102
RTVSPost2010Prop51ColorIndex
 90
      256
102
RTVSPost2010Prop51ColorRGB
 90
-16777216
102
RTVSPost2010PropOp51
 70
     0
102
RTVSPost2010Prop52
140
1.0
102
RTVSPost2010PropOp52
 70
     0
102
RTVSPost2010Prop53
 90
        2
102
RTVSPost2010PropOp53
 70
     1
102
RTVSPost2010Prop54
  1
strokes_ogs.tif
102
RTVSPost2010PropOp54
 70
     1
102
RTVSPost2010Prop55
280
     0
102
RTVSPost2010PropOp55
 70
     1
102
RTVSPost2010Prop56
140
1.0
102
RTVSPost2010PropOp56
 70
     1
102
RTVSPost2010Prop57
140
1.0
102
RTVSPost2010PropOp57
 70
     1
102
RTVSPropertyOp0
 70
     1
102
RTVSPropertyOp1
 70
     1
102
RTVSPropertyOp2
 70
     1
102
RTVSPropertyOp3
 70
     1
102
RTVSPropertyOp4
 70
     1
102
RTVSPropertyOp5
 70
     1
102
RTVSPropertyOp6
 70
     1
102
RTVSPropertyOp7
 70
     1
102
RTVSPropertyOp8
 70
     1
102
RTVSPropertyOp9
 70
     1
102
RTVSPropertyOp10
 70
     1
102
RTVSPropertyOp11
 70
     1
102
RTVSPropertyOp12
 70
     1
102
RTVSPropertyOp13
 70
     1
102
RTVSPropertyOp14
 70
     1
102
RTVSPropertyOp15
 70
     1
102
RTVSPropertyOp16
 70
     1
102
RTVSPropertyOp17
 70
     1
102
RTVSPropertyOp18
 70
     1
102
RTVSPropertyOp19
 70
     1
102
RTVSPropertyOp20
 70
     1
102
RTVSPropertyOp21
 70
     1
102
RTVSPropertyOp22
 70
     1
102
RTVSPropertyOp23
 70
     1
102
RTVSPropertyOp24
 70
     1
102
RTVSPropertyOp25
 70
     1
102
RTVSPropertyOp26
 70
     1
102
RTVSPropertyOp27
 70
     1
102
RTVSPropertyOp28
 70
     1
102
RTVSPropertyOp29
 70
     1
102
RTVSPropertyOp30
 70
     1
102
RTVSPropertyOp31
 70
     1
102
RTVSPropertyOp32
 70
     1
102
RTVSPropertyOp33
 70
     1
102
RTVSPropertyOp34
 70
     1
102
RTVSPropertyOp35
 70
     1
102
RTVSPropertyOp36
 70
     1
102
RTVSPropertyOp37
 70
     1
102
RTVSPropertyOp38
 70
     1
102
RTVSPropertyOp39
 70
     1
102
RTVSPropertyOp40
 70
     1
102
RTVSPropertyOp41
 70
     1
102
RTVSPropertyOp42
 70
     1
102
RTVSPropertyOp43
 70
     1
102
RTVSPropertyOp44
 70
     1
102
RTVSPropertyOp45
 70
     1
102
RTVSPropertyOp46
 70
     1
102
RTVSPropertyOp47
 70
     1
102
RTVSPropertyOp48
 70
     1
102
RTVSPropertyOp49
 70
     1
102
RTVSPropertyOp50
 70
     1
102
RTVSPropertyOp51
 70
     0
102
RTVSPropertyOp52
 70
     0
102
RTVSPropertyOp53
 70
     1
102
RTVSPropertyOp54
 70
     1
102
RTVSPropertyOp55
 70
     1
102
RTVSPropertyOp56
 70
     1
102
RTVSPropertyOp57
 70
     1
102
RTVSPropertyOp58
 70
     1
102
RTVSPropertyOp59
 70
     1
102
RTVSPropertyOp60
 70
     1
102
RTVSPropertyOp61
 70
     1
102
RTVSPropertyOp62
 70
     1
  0
XRECORD
  5
2732
102
{ACAD_REACTORS
330
2731
102
}
330
2731
100
AcDbXrecord
280
     1
102
RTVSPost2010Prop28
280
     0
102
RTVSPost2010PropOp28
 70
     1
102
RTVSPost2010Prop29
280
     1
102
RTVSPost2010PropOp29
 70
     1
102
RTVSPost2010Prop30
280
     1
102
RTVSPost2010PropOp30
 70
     1
102
RTVSPost2010Prop31
280
     0
102
RTVSPost2010PropOp31
 70
     1
102
RTVSPost2010Prop32
280
     0
102
RTVSPost2010PropOp32
 70
     1
102
RTVSPost2010Prop33
280
     0
102
RTVSPost2010PropOp33
 70
     1
102
RTVSPost2010Prop34
280
     0
102
RTVSPost2010PropOp34
 70
     1
102
RTVSPost2010Prop35
280
     0
102
RTVSPost2010PropOp35
 70
     1
102
RTVSPost2010Prop36
280
     0
102
RTVSPost2010PropOp36
 70
     1
102
RTVSPost2010Prop37
 90
       50
102
RTVSPost2010PropOp37
 70
     1
102
RTVSPost2010Prop38
140
0.0
102
RTVSPost2010PropOp38
 70
     1
102
RTVSPost2010Prop39
140
1.0
102
RTVSPost2010PropOp39
 70
     1
102
RTVSPost2010Prop40
 90
        0
102
RTVSPost2010PropOp40
 70
     1
102
RTVSPost2010Prop41ColorIndex
 90
       18
102
RTVSPost2010Prop41ColorRGB
 90
        0
102
RTVSPost2010PropOp41
 70
     1
102
RTVSPost2010Prop42
 90
       50
102
RTVSPost2010PropOp42
 70
     1
102
RTVSPost2010Prop43
 90
        3
102
RTVSPost2010PropOp43
 70
     1
102
RTVSPost2010Prop44ColorIndex
 90
        5
102
RTVSPost2010Prop44ColorRGB
 90
      255
102
RTVSPost2010PropOp44
 70
     1
102
RTVSPost2010Prop45
280
     0
102
RTVSPost2010PropOp45
 70
     1
102
RTVSPost2010Prop46
 90
       50
102
RTVSPost2010PropOp46
 70
     1
102
RTVSPost2010Prop47
 90
       50
102
RTVSPost2010PropOp47
 70
     1
102
RTVSPost2010Prop48
 90
       50
102
RTVSPost2010PropOp48
 70
     1
102
RTVSPost2010Prop49
280
     0
102
RTVSPost2010PropOp49
 70
     1
102
RTVSPost2010Prop50
 90
       50
102
RTVSPost2010PropOp50
 70
     1
102
RTVSPost2010Prop51ColorIndex
 90
      256
102
RTVSPost2010Prop51ColorRGB
 90
-16777216
102
RTVSPost2010PropOp51
 70
     0
102
RTVSPost2010Prop52
140
1.0
102
RTVSPost2010PropOp52
 70
     0
102
RTVSPost2010Prop53
 90
        2
102
RTVSPost2010PropOp53
 70
     1
102
RTVSPost2010Prop54
  1
strokes_ogs.tif
102
RTVSPost2010PropOp54
 70
     1
102
RTVSPost2010Prop55
280
     0
102
RTVSPost2010PropOp55
 70
     1
102
RTVSPost2010Prop56
140
1.0
102
RTVSPost2010PropOp56
 70
     1
102
RTVSPost2010Prop57
140
1.0
102
RTVSPost2010PropOp57
 70
     1
102
RTVSPropertyOp0
 70
     1
102
RTVSPropertyOp1
 70
     1
102
RTVSPropertyOp2
 70
     1
102
RTVSPropertyOp3
 70
     1
102
RTVSPropertyOp4
 70
     1
102
RTVSPropertyOp5
 70
     1
102
RTVSPropertyOp6
 70
     1
102
RTVSPropertyOp7
 70
     1
102
RTVSPropertyOp8
 70
     1
102
RTVSPropertyOp9
 70
     1
102
RTVSPropertyOp10
 70
     1
102
RTVSPropertyOp11
 70
     1
102
RTVSPropertyOp12
 70
     1
102
RTVSPropertyOp13
 70
     1
102
RTVSPropertyOp14
 70
     1
102
RTVSPropertyOp15
 70
     1
102
RTVSPropertyOp16
 70
     1
102
RTVSPropertyOp17
 70
     1
102
RTVSPropertyOp18
 70
     1
102
RTVSPropertyOp19
 70
     1
102
RTVSPropertyOp20
 70
     1
102
RTVSPropertyOp21
 70
     1
102
RTVSPropertyOp22
 70
     1
102
RTVSPropertyOp23
 70
     1
102
RTVSPropertyOp24
 70
     1
102
RTVSPropertyOp25
 70
     1
102
RTVSPropertyOp26
 70
     1
102
RTVSPropertyOp27
 70
     1
102
RTVSPropertyOp28
 70
     1
102
RTVSPropertyOp29
 70
     1
102
RTVSPropertyOp30
 70
     1
102
RTVSPropertyOp31
 70
     1
102
RTVSPropertyOp32
 70
     1
102
RTVSPropertyOp33
 70
     1
102
RTVSPropertyOp34
 70
     1
102
RTVSPropertyOp35
 70
     1
102
RTVSPropertyOp36
 70
     1
102
RTVSPropertyOp37
 70
     1
102
RTVSPropertyOp38
 70
     1
102
RTVSPropertyOp39
 70
     1
102
RTVSPropertyOp40
 70
     1
102
RTVSPropertyOp41
 70
     1
102
RTVSPropertyOp42
 70
     1
102
RTVSPropertyOp43
 70
     1
102
RTVSPropertyOp44
 70
     1
102
RTVSPropertyOp45
 70
     1
102
RTVSPropertyOp46
 70
     1
102
RTVSPropertyOp47
 70
     1
102
RTVSPropertyOp48
 70
     1
102
RTVSPropertyOp49
 70
     1
102
RTVSPropertyOp50
 70
     1
102
RTVSPropertyOp51
 70
     0
102
RTVSPropertyOp52
 70
     0
102
RTVSPropertyOp53
 70
     1
102
RTVSPropertyOp54
 70
     1
102
RTVSPropertyOp55
 70
     1
102
RTVSPropertyOp56
 70
     1
102
RTVSPropertyOp57
 70
     1
102
RTVSPropertyOp58
 70
     1
102
RTVSPropertyOp59
 70
     1
102
RTVSPropertyOp60
 70
     1
102
RTVSPropertyOp61
 70
     1
102
RTVSPropertyOp62
 70
     1
  0
XRECORD
  5
2734
102
{ACAD_REACTORS
330
2733
102
}
330
2733
100
AcDbXrecord
280
     1
102
RTVSPost2010Prop28
280
     0
102
RTVSPost2010PropOp28
 70
     1
102
RTVSPost2010Prop29
280
     1
102
RTVSPost2010PropOp29
 70
     1
102
RTVSPost2010Prop30
280
     1
102
RTVSPost2010PropOp30
 70
     1
102
RTVSPost2010Prop31
280
     0
102
RTVSPost2010PropOp31
 70
     1
102
RTVSPost2010Prop32
280
     0
102
RTVSPost2010PropOp32
 70
     1
102
RTVSPost2010Prop33
280
     0
102
RTVSPost2010PropOp33
 70
     1
102
RTVSPost2010Prop34
280
     0
102
RTVSPost2010PropOp34
 70
     1
102
RTVSPost2010Prop35
280
     0
102
RTVSPost2010PropOp35
 70
     1
102
RTVSPost2010Prop36
280
     0
102
RTVSPost2010PropOp36
 70
     1
102
RTVSPost2010Prop37
 90
       50
102
RTVSPost2010PropOp37
 70
     1
102
RTVSPost2010Prop38
140
0.0
102
RTVSPost2010PropOp38
 70
     1
102
RTVSPost2010Prop39
140
1.0
102
RTVSPost2010PropOp39
 70
     1
102
RTVSPost2010Prop40
 90
        0
102
RTVSPost2010PropOp40
 70
     1
102
RTVSPost2010Prop41ColorIndex
 90
       18
102
RTVSPost2010Prop41ColorRGB
 90
        0
102
RTVSPost2010PropOp41
 70
     1
102
RTVSPost2010Prop42
 90
       50
102
RTVSPost2010PropOp42
 70
     1
102
RTVSPost2010Prop43
 90
        3
102
RTVSPost2010PropOp43
 70
     1
102
RTVSPost2010Prop44ColorIndex
 90
        5
102
RTVSPost2010Prop44ColorRGB
 90
      255
102
RTVSPost2010PropOp44
 70
     1
102
RTVSPost2010Prop45
280
     0
102
RTVSPost2010PropOp45
 70
     1
102
RTVSPost2010Prop46
 90
       50
102
RTVSPost2010PropOp46
 70
     1
102
RTVSPost2010Prop47
 90
       50
102
RTVSPost2010PropOp47
 70
     1
102
RTVSPost2010Prop48
 90
       50
102
RTVSPost2010PropOp48
 70
     1
102
RTVSPost2010Prop49
280
     0
102
RTVSPost2010PropOp49
 70
     1
102
RTVSPost2010Prop50
 90
       50
102
RTVSPost2010PropOp50
 70
     1
102
RTVSPost2010Prop51ColorIndex
 90
      256
102
RTVSPost2010Prop51ColorRGB
 90
-16777216
102
RTVSPost2010PropOp51
 70
     0
102
RTVSPost2010Prop52
140
1.0
102
RTVSPost2010PropOp52
 70
     0
102
RTVSPost2010Prop53
 90
        2
102
RTVSPost2010PropOp53
 70
     1
102
RTVSPost2010Prop54
  1
strokes_ogs.tif
102
RTVSPost2010PropOp54
 70
     1
102
RTVSPost2010Prop55
280
     0
102
RTVSPost2010PropOp55
 70
     1
102
RTVSPost2010Prop56
140
1.0
102
RTVSPost2010PropOp56
 70
     1
102
RTVSPost2010Prop57
140
1.0
102
RTVSPost2010PropOp57
 70
     1
102
RTVSPropertyOp0
 70
     1
102
RTVSPropertyOp1
 70
     1
102
RTVSPropertyOp2
 70
     1
102
RTVSPropertyOp3
 70
     1
102
RTVSPropertyOp4
 70
     1
102
RTVSPropertyOp5
 70
     1
102
RTVSPropertyOp6
 70
     1
102
RTVSPropertyOp7
 70
     1
102
RTVSPropertyOp8
 70
     1
102
RTVSPropertyOp9
 70
     1
102
RTVSPropertyOp10
 70
     1
102
RTVSPropertyOp11
 70
     1
102
RTVSPropertyOp12
 70
     1
102
RTVSPropertyOp13
 70
     1
102
RTVSPropertyOp14
 70
     1
102
RTVSPropertyOp15
 70
     1
102
RTVSPropertyOp16
 70
     1
102
RTVSPropertyOp17
 70
     1
102
RTVSPropertyOp18
 70
     1
102
RTVSPropertyOp19
 70
     1
102
RTVSPropertyOp20
 70
     1
102
RTVSPropertyOp21
 70
     1
102
RTVSPropertyOp22
 70
     1
102
RTVSPropertyOp23
 70
     1
102
RTVSPropertyOp24
 70
     1
102
RTVSPropertyOp25
 70
     1
102
RTVSPropertyOp26
 70
     1
102
RTVSPropertyOp27
 70
     1
102
RTVSPropertyOp28
 70
     1
102
RTVSPropertyOp29
 70
     1
102
RTVSPropertyOp30
 70
     1
102
RTVSPropertyOp31
 70
     1
102
RTVSPropertyOp32
 70
     1
102
RTVSPropertyOp33
 70
     1
102
RTVSPropertyOp34
 70
     1
102
RTVSPropertyOp35
 70
     1
102
RTVSPropertyOp36
 70
     1
102
RTVSPropertyOp37
 70
     1
102
RTVSPropertyOp38
 70
     1
102
RTVSPropertyOp39
 70
     1
102
RTVSPropertyOp40
 70
     1
102
RTVSPropertyOp41
 70
     1
102
RTVSPropertyOp42
 70
     1
102
RTVSPropertyOp43
 70
     1
102
RTVSPropertyOp44
 70
     1
102
RTVSPropertyOp45
 70
     1
102
RTVSPropertyOp46
 70
     1
102
RTVSPropertyOp47
 70
     1
102
RTVSPropertyOp48
 70
     1
102
RTVSPropertyOp49
 70
     1
102
RTVSPropertyOp50
 70
     1
102
RTVSPropertyOp51
 70
     0
102
RTVSPropertyOp52
 70
     0
102
RTVSPropertyOp53
 70
     1
102
RTVSPropertyOp54
 70
     1
102
RTVSPropertyOp55
 70
     1
102
RTVSPropertyOp56
 70
     1
102
RTVSPropertyOp57
 70
     1
102
RTVSPropertyOp58
 70
     1
102
RTVSPropertyOp59
 70
     1
102
RTVSPropertyOp60
 70
     1
102
RTVSPropertyOp61
 70
     1
102
RTVSPropertyOp62
 70
     1
  0
XRECORD
  5
273C
102
{ACAD_REACTORS
330
273B
102
}
330
273B
100
AcDbXrecord
280
     1
102
RTVSPost2010Prop28
280
     0
102
RTVSPost2010PropOp28
 70
     1
102
RTVSPost2010Prop29
280
     1
102
RTVSPost2010PropOp29
 70
     1
102
RTVSPost2010Prop30
280
     1
102
RTVSPost2010PropOp30
 70
     1
102
RTVSPost2010Prop31
280
     0
102
RTVSPost2010PropOp31
 70
     1
102
RTVSPost2010Prop32
280
     0
102
RTVSPost2010PropOp32
 70
     1
102
RTVSPost2010Prop33
280
     0
102
RTVSPost2010PropOp33
 70
     1
102
RTVSPost2010Prop34
280
     0
102
RTVSPost2010PropOp34
 70
     1
102
RTVSPost2010Prop35
280
     0
102
RTVSPost2010PropOp35
 70
     1
102
RTVSPost2010Prop36
280
     0
102
RTVSPost2010PropOp36
 70
     1
102
RTVSPost2010Prop37
 90
       50
102
RTVSPost2010PropOp37
 70
     1
102
RTVSPost2010Prop38
140
0.0
102
RTVSPost2010PropOp38
 70
     1
102
RTVSPost2010Prop39
140
1.0
102
RTVSPost2010PropOp39
 70
     1
102
RTVSPost2010Prop40
 90
        0
102
RTVSPost2010PropOp40
 70
     1
102
RTVSPost2010Prop41ColorIndex
 90
       18
102
RTVSPost2010Prop41ColorRGB
 90
        0
102
RTVSPost2010PropOp41
 70
     1
102
RTVSPost2010Prop42
 90
       50
102
RTVSPost2010PropOp42
 70
     1
102
RTVSPost2010Prop43
 90
        3
102
RTVSPost2010PropOp43
 70
     1
102
RTVSPost2010Prop44ColorIndex
 90
        5
102
RTVSPost2010Prop44ColorRGB
 90
      255
102
RTVSPost2010PropOp44
 70
     1
102
RTVSPost2010Prop45
280
     0
102
RTVSPost2010PropOp45
 70
     1
102
RTVSPost2010Prop46
 90
       50
102
RTVSPost2010PropOp46
 70
     1
102
RTVSPost2010Prop47
 90
       50
102
RTVSPost2010PropOp47
 70
     1
102
RTVSPost2010Prop48
 90
       50
102
RTVSPost2010PropOp48
 70
     1
102
RTVSPost2010Prop49
280
     0
102
RTVSPost2010PropOp49
 70
     1
102
RTVSPost2010Prop50
 90
       50
102
RTVSPost2010PropOp50
 70
     1
102
RTVSPost2010Prop51ColorIndex
 90
      256
102
RTVSPost2010Prop51ColorRGB
 90
-16777216
102
RTVSPost2010PropOp51
 70
     0
102
RTVSPost2010Prop52
140
1.0
102
RTVSPost2010PropOp52
 70
     0
102
RTVSPost2010Prop53
 90
        2
102
RTVSPost2010PropOp53
 70
     1
102
RTVSPost2010Prop54
  1
strokes_ogs.tif
102
RTVSPost2010PropOp54
 70
     1
102
RTVSPost2010Prop55
280
     0
102
RTVSPost2010PropOp55
 70
     1
102
RTVSPost2010Prop56
140
1.0
102
RTVSPost2010PropOp56
 70
     1
102
RTVSPost2010Prop57
140
1.0
102
RTVSPost2010PropOp57
 70
     1
102
RTVSPropertyOp0
 70
     1
102
RTVSPropertyOp1
 70
     1
102
RTVSPropertyOp2
 70
     1
102
RTVSPropertyOp3
 70
     1
102
RTVSPropertyOp4
 70
     1
102
RTVSPropertyOp5
 70
     1
102
RTVSPropertyOp6
 70
     1
102
RTVSPropertyOp7
 70
     1
102
RTVSPropertyOp8
 70
     1
102
RTVSPropertyOp9
 70
     1
102
RTVSPropertyOp10
 70
     1
102
RTVSPropertyOp11
 70
     1
102
RTVSPropertyOp12
 70
     1
102
RTVSPropertyOp13
 70
     1
102
RTVSPropertyOp14
 70
     1
102
RTVSPropertyOp15
 70
     1
102
RTVSPropertyOp16
 70
     1
102
RTVSPropertyOp17
 70
     1
102
RTVSPropertyOp18
 70
     1
102
RTVSPropertyOp19
 70
     1
102
RTVSPropertyOp20
 70
     1
102
RTVSPropertyOp21
 70
     1
102
RTVSPropertyOp22
 70
     1
102
RTVSPropertyOp23
 70
     1
102
RTVSPropertyOp24
 70
     1
102
RTVSPropertyOp25
 70
     1
102
RTVSPropertyOp26
 70
     1
102
RTVSPropertyOp27
 70
     1
102
RTVSPropertyOp28
 70
     1
102
RTVSPropertyOp29
 70
     1
102
RTVSPropertyOp30
 70
     1
102
RTVSPropertyOp31
 70
     1
102
RTVSPropertyOp32
 70
     1
102
RTVSPropertyOp33
 70
     1
102
RTVSPropertyOp34
 70
     1
102
RTVSPropertyOp35
 70
     1
102
RTVSPropertyOp36
 70
     1
102
RTVSPropertyOp37
 70
     1
102
RTVSPropertyOp38
 70
     1
102
RTVSPropertyOp39
 70
     1
102
RTVSPropertyOp40
 70
     1
102
RTVSPropertyOp41
 70
     1
102
RTVSPropertyOp42
 70
     1
102
RTVSPropertyOp43
 70
     1
102
RTVSPropertyOp44
 70
     1
102
RTVSPropertyOp45
 70
     1
102
RTVSPropertyOp46
 70
     1
102
RTVSPropertyOp47
 70
     1
102
RTVSPropertyOp48
 70
     1
102
RTVSPropertyOp49
 70
     1
102
RTVSPropertyOp50
 70
     1
102
RTVSPropertyOp51
 70
     0
102
RTVSPropertyOp52
 70
     0
102
RTVSPropertyOp53
 70
     1
102
RTVSPropertyOp54
 70
     1
102
RTVSPropertyOp55
 70
     1
102
RTVSPropertyOp56
 70
     1
102
RTVSPropertyOp57
 70
     1
102
RTVSPropertyOp58
 70
     1
102
RTVSPropertyOp59
 70
     1
102
RTVSPropertyOp60
 70
     1
102
RTVSPropertyOp61
 70
     1
102
RTVSPropertyOp62
 70
     1
  0
XRECORD
  5
2758
102
{ACAD_REACTORS
330
2757
102
}
330
2757
100
AcDbXrecord
280
     1
102
RTVSPost2010Prop28
280
     0
102
RTVSPost2010PropOp28
 70
     1
102
RTVSPost2010Prop29
280
     1
102
RTVSPost2010PropOp29
 70
     1
102
RTVSPost2010Prop30
280
     1
102
RTVSPost2010PropOp30
 70
     1
102
RTVSPost2010Prop31
280
     0
102
RTVSPost2010PropOp31
 70
     1
102
RTVSPost2010Prop32
280
     0
102
RTVSPost2010PropOp32
 70
     1
102
RTVSPost2010Prop33
280
     0
102
RTVSPost2010PropOp33
 70
     1
102
RTVSPost2010Prop34
280
     0
102
RTVSPost2010PropOp34
 70
     1
102
RTVSPost2010Prop35
280
     0
102
RTVSPost2010PropOp35
 70
     1
102
RTVSPost2010Prop36
280
     0
102
RTVSPost2010PropOp36
 70
     1
102
RTVSPost2010Prop37
 90
       50
102
RTVSPost2010PropOp37
 70
     0
102
RTVSPost2010Prop38
140
0.0
102
RTVSPost2010PropOp38
 70
     0
102
RTVSPost2010Prop39
140
1.0
102
RTVSPost2010PropOp39
 70
     0
102
RTVSPost2010Prop40
 90
        0
102
RTVSPost2010PropOp40
 70
     0
102
RTVSPost2010Prop41ColorIndex
 90
       18
102
RTVSPost2010Prop41ColorRGB
 90
        0
102
RTVSPost2010PropOp41
 70
     0
102
RTVSPost2010Prop42
 90
       50
102
RTVSPost2010PropOp42
 70
     0
102
RTVSPost2010Prop43
 90
        3
102
RTVSPost2010PropOp43
 70
     0
102
RTVSPost2010Prop44ColorIndex
 90
        5
102
RTVSPost2010Prop44ColorRGB
 90
      255
102
RTVSPost2010PropOp44
 70
     0
102
RTVSPost2010Prop45
280
     0
102
RTVSPost2010PropOp45
 70
     1
102
RTVSPost2010Prop46
 90
       50
102
RTVSPost2010PropOp46
 70
     0
102
RTVSPost2010Prop47
 90
       50
102
RTVSPost2010PropOp47
 70
     0
102
RTVSPost2010Prop48
 90
       50
102
RTVSPost2010PropOp48
 70
     0
102
RTVSPost2010Prop49
280
     0
102
RTVSPost2010PropOp49
 70
     1
102
RTVSPost2010Prop50
 90
       50
102
RTVSPost2010PropOp50
 70
     0
102
RTVSPost2010Prop51ColorIndex
 90
      256
102
RTVSPost2010Prop51ColorRGB
 90
-16777216
102
RTVSPost2010PropOp51
 70
     0
102
RTVSPost2010Prop52
140
1.0
102
RTVSPost2010PropOp52
 70
     0
102
RTVSPost2010Prop53
 90
        2
102
RTVSPost2010PropOp53
 70
     0
102
RTVSPost2010Prop54
  1
strokes_ogs.tif
102
RTVSPost2010PropOp54
 70
     0
102
RTVSPost2010Prop55
280
     0
102
RTVSPost2010PropOp55
 70
     1
102
RTVSPost2010Prop56
140
1.0
102
RTVSPost2010PropOp56
 70
     0
102
RTVSPost2010Prop57
140
1.0
102
RTVSPost2010PropOp57
 70
     0
102
RTVSPropertyOp0
 70
     0
102
RTVSPropertyOp1
 70
     0
102
RTVSPropertyOp2
 70
     0
102
RTVSPropertyOp3
 70
     0
102
RTVSPropertyOp4
 70
     0
102
RTVSPropertyOp5
 70
     0
102
RTVSPropertyOp6
 70
     0
102
RTVSPropertyOp7
 70
     0
102
RTVSPropertyOp8
 70
     0
102
RTVSPropertyOp9
 70
     0
102
RTVSPropertyOp10
 70
     0
102
RTVSPropertyOp11
 70
     0
102
RTVSPropertyOp12
 70
     0
102
RTVSPropertyOp13
 70
     0
102
RTVSPropertyOp14
 70
     2
102
RTVSPropertyOp15
 70
     0
102
RTVSPropertyOp16
 70
     0
102
RTVSPropertyOp17
 70
     0
102
RTVSPropertyOp18
 70
     0
102
RTVSPropertyOp19
 70
     0
102
RTVSPropertyOp20
 70
     0
102
RTVSPropertyOp21
 70
     0
102
RTVSPropertyOp22
 70
     0
102
RTVSPropertyOp23
 70
     0
102
RTVSPropertyOp24
 70
     0
102
RTVSPropertyOp25
 70
     0
102
RTVSPropertyOp26
 70
     0
102
RTVSPropertyOp27
 70
     0
102
RTVSPropertyOp28
 70
     1
102
RTVSPropertyOp29
 70
     1
102
RTVSPropertyOp30
 70
     1
102
RTVSPropertyOp31
 70
     1
102
RTVSPropertyOp32
 70
     1
102
RTVSPropertyOp33
 70
     1
102
RTVSPropertyOp34
 70
     1
102
RTVSPropertyOp35
 70
     1
102
RTVSPropertyOp36
 70
     1
102
RTVSPropertyOp37
 70
     0
102
RTVSPropertyOp38
 70
     0
102
RTVSPropertyOp39
 70
     0
102
RTVSPropertyOp40
 70
     0
102
RTVSPropertyOp41
 70
     0
102
RTVSPropertyOp42
 70
     0
102
RTVSPropertyOp43
 70
     0
102
RTVSPropertyOp44
 70
     0
102
RTVSPropertyOp45
 70
     1
102
RTVSPropertyOp46
 70
     0
102
RTVSPropertyOp47
 70
     0
102
RTVSPropertyOp48
 70
     0
102
RTVSPropertyOp49
 70
     1
102
RTVSPropertyOp50
 70
     0
102
RTVSPropertyOp51
 70
     0
102
RTVSPropertyOp52
 70
     0
102
RTVSPropertyOp53
 70
     0
102
RTVSPropertyOp54
 70
     0
102
RTVSPropertyOp55
 70
     1
102
RTVSPropertyOp56
 70
     0
102
RTVSPropertyOp57
 70
     0
102
RTVSPropertyOp58
 70
     0
102
RTVSPropertyOp59
 70
     0
102
RTVSPropertyOp60
 70
     0
102
RTVSPropertyOp61
 70
     0
102
RTVSPropertyOp62
 70
     0
  0
XRECORD
  5
2748
102
{ACAD_REACTORS
330
2747
102
}
330
2747
100
AcDbXrecord
280
     1
102
RTVSPost2010Prop28
280
     0
102
RTVSPost2010PropOp28
 70
     1
102
RTVSPost2010Prop29
280
     1
102
RTVSPost2010PropOp29
 70
     1
102
RTVSPost2010Prop30
280
     1
102
RTVSPost2010PropOp30
 70
     1
102
RTVSPost2010Prop31
280
     0
102
RTVSPost2010PropOp31
 70
     1
102
RTVSPost2010Prop32
280
     0
102
RTVSPost2010PropOp32
 70
     1
102
RTVSPost2010Prop33
280
     0
102
RTVSPost2010PropOp33
 70
     1
102
RTVSPost2010Prop34
280
     0
102
RTVSPost2010PropOp34
 70
     1
102
RTVSPost2010Prop35
280
     0
102
RTVSPost2010PropOp35
 70
     1
102
RTVSPost2010Prop36
280
     0
102
RTVSPost2010PropOp36
 70
     1
102
RTVSPost2010Prop37
 90
       50
102
RTVSPost2010PropOp37
 70
     1
102
RTVSPost2010Prop38
140
0.0
102
RTVSPost2010PropOp38
 70
     1
102
RTVSPost2010Prop39
140
1.0
102
RTVSPost2010PropOp39
 70
     1
102
RTVSPost2010Prop40
 90
        0
102
RTVSPost2010PropOp40
 70
     1
102
RTVSPost2010Prop41ColorIndex
 90
       18
102
RTVSPost2010Prop41ColorRGB
 90
        0
102
RTVSPost2010PropOp41
 70
     1
102
RTVSPost2010Prop42
 90
       50
102
RTVSPost2010PropOp42
 70
     1
102
RTVSPost2010Prop43
 90
        3
102
RTVSPost2010PropOp43
 70
     1
102
RTVSPost2010Prop44ColorIndex
 90
        5
102
RTVSPost2010Prop44ColorRGB
 90
      255
102
RTVSPost2010PropOp44
 70
     1
102
RTVSPost2010Prop45
280
     0
102
RTVSPost2010PropOp45
 70
     1
102
RTVSPost2010Prop46
 90
       50
102
RTVSPost2010PropOp46
 70
     1
102
RTVSPost2010Prop47
 90
       50
102
RTVSPost2010PropOp47
 70
     1
102
RTVSPost2010Prop48
 90
       50
102
RTVSPost2010PropOp48
 70
     1
102
RTVSPost2010Prop49
280
     0
102
RTVSPost2010PropOp49
 70
     1
102
RTVSPost2010Prop50
 90
       50
102
RTVSPost2010PropOp50
 70
     1
102
RTVSPost2010Prop51ColorIndex
 90
      256
102
RTVSPost2010Prop51ColorRGB
 90
-16777216
102
RTVSPost2010PropOp51
 70
     0
102
RTVSPost2010Prop52
140
1.0
102
RTVSPost2010PropOp52
 70
     0
102
RTVSPost2010Prop53
 90
        2
102
RTVSPost2010PropOp53
 70
     1
102
RTVSPost2010Prop54
  1
strokes_ogs.tif
102
RTVSPost2010PropOp54
 70
     1
102
RTVSPost2010Prop55
280
     0
102
RTVSPost2010PropOp55
 70
     1
102
RTVSPost2010Prop56
140
1.0
102
RTVSPost2010PropOp56
 70
     1
102
RTVSPost2010Prop57
140
1.0
102
RTVSPost2010PropOp57
 70
     1
102
RTVSPropertyOp0
 70
     1
102
RTVSPropertyOp1
 70
     1
102
RTVSPropertyOp2
 70
     1
102
RTVSPropertyOp3
 70
     1
102
RTVSPropertyOp4
 70
     1
102
RTVSPropertyOp5
 70
     1
102
RTVSPropertyOp6
 70
     1
102
RTVSPropertyOp7
 70
     1
102
RTVSPropertyOp8
 70
     1
102
RTVSPropertyOp9
 70
     1
102
RTVSPropertyOp10
 70
     1
102
RTVSPropertyOp11
 70
     1
102
RTVSPropertyOp12
 70
     1
102
RTVSPropertyOp13
 70
     1
102
RTVSPropertyOp14
 70
     1
102
RTVSPropertyOp15
 70
     1
102
RTVSPropertyOp16
 70
     1
102
RTVSPropertyOp17
 70
     1
102
RTVSPropertyOp18
 70
     1
102
RTVSPropertyOp19
 70
     1
102
RTVSPropertyOp20
 70
     1
102
RTVSPropertyOp21
 70
     1
102
RTVSPropertyOp22
 70
     1
102
RTVSPropertyOp23
 70
     1
102
RTVSPropertyOp24
 70
     1
102
RTVSPropertyOp25
 70
     1
102
RTVSPropertyOp26
 70
     1
102
RTVSPropertyOp27
 70
     1
102
RTVSPropertyOp28
 70
     1
102
RTVSPropertyOp29
 70
     1
102
RTVSPropertyOp30
 70
     1
102
RTVSPropertyOp31
 70
     1
102
RTVSPropertyOp32
 70
     1
102
RTVSPropertyOp33
 70
     1
102
RTVSPropertyOp34
 70
     1
102
RTVSPropertyOp35
 70
     1
102
RTVSPropertyOp36
 70
     1
102
RTVSPropertyOp37
 70
     1
102
RTVSPropertyOp38
 70
     1
102
RTVSPropertyOp39
 70
     1
102
RTVSPropertyOp40
 70
     1
102
RTVSPropertyOp41
 70
     1
102
RTVSPropertyOp42
 70
     1
102
RTVSPropertyOp43
 70
     1
102
RTVSPropertyOp44
 70
     1
102
RTVSPropertyOp45
 70
     1
102
RTVSPropertyOp46
 70
     1
102
RTVSPropertyOp47
 70
     1
102
RTVSPropertyOp48
 70
     1
102
RTVSPropertyOp49
 70
     1
102
RTVSPropertyOp50
 70
     1
102
RTVSPropertyOp51
 70
     0
102
RTVSPropertyOp52
 70
     0
102
RTVSPropertyOp53
 70
     1
102
RTVSPropertyOp54
 70
     1
102
RTVSPropertyOp55
 70
     1
102
RTVSPropertyOp56
 70
     1
102
RTVSPropertyOp57
 70
     1
102
RTVSPropertyOp58
 70
     1
102
RTVSPropertyOp59
 70
     1
102
RTVSPropertyOp60
 70
     1
102
RTVSPropertyOp61
 70
     1
102
RTVSPropertyOp62
 70
     1
  0
XRECORD
  5
275A
102
{ACAD_REACTORS
330
2759
102
}
330
2759
100
AcDbXrecord
280
     1
102
RTVSPost2010Prop28
280
     0
102
RTVSPost2010PropOp28
 70
     1
102
RTVSPost2010Prop29
280
     1
102
RTVSPost2010PropOp29
 70
     1
102
RTVSPost2010Prop30
280
     1
102
RTVSPost2010PropOp30
 70
     1
102
RTVSPost2010Prop31
280
     0
102
RTVSPost2010PropOp31
 70
     1
102
RTVSPost2010Prop32
280
     0
102
RTVSPost2010PropOp32
 70
     1
102
RTVSPost2010Prop33
280
     0
102
RTVSPost2010PropOp33
 70
     1
102
RTVSPost2010Prop34
280
     0
102
RTVSPost2010PropOp34
 70
     1
102
RTVSPost2010Prop35
280
     0
102
RTVSPost2010PropOp35
 70
     1
102
RTVSPost2010Prop36
280
     0
102
RTVSPost2010PropOp36
 70
     1
102
RTVSPost2010Prop37
 90
       50
102
RTVSPost2010PropOp37
 70
     0
102
RTVSPost2010Prop38
140
0.0
102
RTVSPost2010PropOp38
 70
     0
102
RTVSPost2010Prop39
140
1.0
102
RTVSPost2010PropOp39
 70
     0
102
RTVSPost2010Prop40
 90
        0
102
RTVSPost2010PropOp40
 70
     0
102
RTVSPost2010Prop41ColorIndex
 90
       18
102
RTVSPost2010Prop41ColorRGB
 90
        0
102
RTVSPost2010PropOp41
 70
     0
102
RTVSPost2010Prop42
 90
       50
102
RTVSPost2010PropOp42
 70
     0
102
RTVSPost2010Prop43
 90
        3
102
RTVSPost2010PropOp43
 70
     0
102
RTVSPost2010Prop44ColorIndex
 90
        5
102
RTVSPost2010Prop44ColorRGB
 90
      255
102
RTVSPost2010PropOp44
 70
     0
102
RTVSPost2010Prop45
280
     0
102
RTVSPost2010PropOp45
 70
     1
102
RTVSPost2010Prop46
 90
       50
102
RTVSPost2010PropOp46
 70
     0
102
RTVSPost2010Prop47
 90
       50
102
RTVSPost2010PropOp47
 70
     0
102
RTVSPost2010Prop48
 90
       50
102
RTVSPost2010PropOp48
 70
     0
102
RTVSPost2010Prop49
280
     0
102
RTVSPost2010PropOp49
 70
     1
102
RTVSPost2010Prop50
 90
       50
102
RTVSPost2010PropOp50
 70
     0
102
RTVSPost2010Prop51ColorIndex
 90
      256
102
RTVSPost2010Prop51ColorRGB
 90
-16777216
102
RTVSPost2010PropOp51
 70
     0
102
RTVSPost2010Prop52
140
1.0
102
RTVSPost2010PropOp52
 70
     0
102
RTVSPost2010Prop53
 90
        2
102
RTVSPost2010PropOp53
 70
     0
102
RTVSPost2010Prop54
  1
strokes_ogs.tif
102
RTVSPost2010PropOp54
 70
     0
102
RTVSPost2010Prop55
280
     0
102
RTVSPost2010PropOp55
 70
     1
102
RTVSPost2010Prop56
140
1.0
102
RTVSPost2010PropOp56
 70
     0
102
RTVSPost2010Prop57
140
1.0
102
RTVSPost2010PropOp57
 70
     0
102
RTVSPropertyOp0
 70
     0
102
RTVSPropertyOp1
 70
     0
102
RTVSPropertyOp2
 70
     0
102
RTVSPropertyOp3
 70
     0
102
RTVSPropertyOp4
 70
     0
102
RTVSPropertyOp5
 70
     0
102
RTVSPropertyOp6
 70
     0
102
RTVSPropertyOp7
 70
     0
102
RTVSPropertyOp8
 70
     0
102
RTVSPropertyOp9
 70
     0
102
RTVSPropertyOp10
 70
     0
102
RTVSPropertyOp11
 70
     0
102
RTVSPropertyOp12
 70
     0
102
RTVSPropertyOp13
 70
     0
102
RTVSPropertyOp14
 70
     2
102
RTVSPropertyOp15
 70
     0
102
RTVSPropertyOp16
 70
     0
102
RTVSPropertyOp17
 70
     0
102
RTVSPropertyOp18
 70
     0
102
RTVSPropertyOp19
 70
     0
102
RTVSPropertyOp20
 70
     0
102
RTVSPropertyOp21
 70
     0
102
RTVSPropertyOp22
 70
     0
102
RTVSPropertyOp23
 70
     0
102
RTVSPropertyOp24
 70
     0
102
RTVSPropertyOp25
 70
     0
102
RTVSPropertyOp26
 70
     0
102
RTVSPropertyOp27
 70
     0
102
RTVSPropertyOp28
 70
     1
102
RTVSPropertyOp29
 70
     1
102
RTVSPropertyOp30
 70
     1
102
RTVSPropertyOp31
 70
     1
102
RTVSPropertyOp32
 70
     1
102
RTVSPropertyOp33
 70
     1
102
RTVSPropertyOp34
 70
     1
102
RTVSPropertyOp35
 70
     1
102
RTVSPropertyOp36
 70
     1
102
RTVSPropertyOp37
 70
     0
102
RTVSPropertyOp38
 70
     0
102
RTVSPropertyOp39
 70
     0
102
RTVSPropertyOp40
 70
     0
102
RTVSPropertyOp41
 70
     0
102
RTVSPropertyOp42
 70
     0
102
RTVSPropertyOp43
 70
     0
102
RTVSPropertyOp44
 70
     0
102
RTVSPropertyOp45
 70
     1
102
RTVSPropertyOp46
 70
     0
102
RTVSPropertyOp47
 70
     0
102
RTVSPropertyOp48
 70
     0
102
RTVSPropertyOp49
 70
     1
102
RTVSPropertyOp50
 70
     0
102
RTVSPropertyOp51
 70
     0
102
RTVSPropertyOp52
 70
     0
102
RTVSPropertyOp53
 70
     0
102
RTVSPropertyOp54
 70
     0
102
RTVSPropertyOp55
 70
     1
102
RTVSPropertyOp56
 70
     0
102
RTVSPropertyOp57
 70
     0
102
RTVSPropertyOp58
 70
     0
102
RTVSPropertyOp59
 70
     0
102
RTVSPropertyOp60
 70
     0
102
RTVSPropertyOp61
 70
     0
102
RTVSPropertyOp62
 70
     0
  0
XRECORD
  5
2740
102
{ACAD_REACTORS
330
273F
102
}
330
273F
100
AcDbXrecord
280
     1
102
RTVSPost2010Prop28
280
     0
102
RTVSPost2010PropOp28
 70
     1
102
RTVSPost2010Prop29
280
     1
102
RTVSPost2010PropOp29
 70
     1
102
RTVSPost2010Prop30
280
     1
102
RTVSPost2010PropOp30
 70
     1
102
RTVSPost2010Prop31
280
     0
102
RTVSPost2010PropOp31
 70
     1
102
RTVSPost2010Prop32
280
     0
102
RTVSPost2010PropOp32
 70
     1
102
RTVSPost2010Prop33
280
     0
102
RTVSPost2010PropOp33
 70
     1
102
RTVSPost2010Prop34
280
     0
102
RTVSPost2010PropOp34
 70
     1
102
RTVSPost2010Prop35
280
     0
102
RTVSPost2010PropOp35
 70
     1
102
RTVSPost2010Prop36
280
     0
102
RTVSPost2010PropOp36
 70
     1
102
RTVSPost2010Prop37
 90
       50
102
RTVSPost2010PropOp37
 70
     1
102
RTVSPost2010Prop38
140
0.0
102
RTVSPost2010PropOp38
 70
     1
102
RTVSPost2010Prop39
140
1.0
102
RTVSPost2010PropOp39
 70
     1
102
RTVSPost2010Prop40
 90
        0
102
RTVSPost2010PropOp40
 70
     1
102
RTVSPost2010Prop41ColorIndex
 90
       18
102
RTVSPost2010Prop41ColorRGB
 90
        0
102
RTVSPost2010PropOp41
 70
     1
102
RTVSPost2010Prop42
 90
       50
102
RTVSPost2010PropOp42
 70
     1
102
RTVSPost2010Prop43
 90
        3
102
RTVSPost2010PropOp43
 70
     1
102
RTVSPost2010Prop44ColorIndex
 90
        5
102
RTVSPost2010Prop44ColorRGB
 90
      255
102
RTVSPost2010PropOp44
 70
     1
102
RTVSPost2010Prop45
280
     0
102
RTVSPost2010PropOp45
 70
     1
102
RTVSPost2010Prop46
 90
       50
102
RTVSPost2010PropOp46
 70
     1
102
RTVSPost2010Prop47
 90
       50
102
RTVSPost2010PropOp47
 70
     1
102
RTVSPost2010Prop48
 90
       50
102
RTVSPost2010PropOp48
 70
     1
102
RTVSPost2010Prop49
280
     0
102
RTVSPost2010PropOp49
 70
     1
102
RTVSPost2010Prop50
 90
       50
102
RTVSPost2010PropOp50
 70
     1
102
RTVSPost2010Prop51ColorIndex
 90
      256
102
RTVSPost2010Prop51ColorRGB
 90
-16777216
102
RTVSPost2010PropOp51
 70
     0
102
RTVSPost2010Prop52
140
1.0
102
RTVSPost2010PropOp52
 70
     0
102
RTVSPost2010Prop53
 90
        2
102
RTVSPost2010PropOp53
 70
     1
102
RTVSPost2010Prop54
  1
strokes_ogs.tif
102
RTVSPost2010PropOp54
 70
     1
102
RTVSPost2010Prop55
280
     0
102
RTVSPost2010PropOp55
 70
     1
102
RTVSPost2010Prop56
140
1.0
102
RTVSPost2010PropOp56
 70
     1
102
RTVSPost2010Prop57
140
1.0
102
RTVSPost2010PropOp57
 70
     1
102
RTVSPropertyOp0
 70
     1
102
RTVSPropertyOp1
 70
     1
102
RTVSPropertyOp2
 70
     1
102
RTVSPropertyOp3
 70
     1
102
RTVSPropertyOp4
 70
     1
102
RTVSPropertyOp5
 70
     1
102
RTVSPropertyOp6
 70
     1
102
RTVSPropertyOp7
 70
     1
102
RTVSPropertyOp8
 70
     1
102
RTVSPropertyOp9
 70
     1
102
RTVSPropertyOp10
 70
     1
102
RTVSPropertyOp11
 70
     1
102
RTVSPropertyOp12
 70
     1
102
RTVSPropertyOp13
 70
     1
102
RTVSPropertyOp14
 70
     1
102
RTVSPropertyOp15
 70
     1
102
RTVSPropertyOp16
 70
     1
102
RTVSPropertyOp17
 70
     1
102
RTVSPropertyOp18
 70
     1
102
RTVSPropertyOp19
 70
     1
102
RTVSPropertyOp20
 70
     1
102
RTVSPropertyOp21
 70
     1
102
RTVSPropertyOp22
 70
     1
102
RTVSPropertyOp23
 70
     1
102
RTVSPropertyOp24
 70
     1
102
RTVSPropertyOp25
 70
     1
102
RTVSPropertyOp26
 70
     1
102
RTVSPropertyOp27
 70
     1
102
RTVSPropertyOp28
 70
     1
102
RTVSPropertyOp29
 70
     1
102
RTVSPropertyOp30
 70
     1
102
RTVSPropertyOp31
 70
     1
102
RTVSPropertyOp32
 70
     1
102
RTVSPropertyOp33
 70
     1
102
RTVSPropertyOp34
 70
     1
102
RTVSPropertyOp35
 70
     1
102
RTVSPropertyOp36
 70
     1
102
RTVSPropertyOp37
 70
     1
102
RTVSPropertyOp38
 70
     1
102
RTVSPropertyOp39
 70
     1
102
RTVSPropertyOp40
 70
     1
102
RTVSPropertyOp41
 70
     1
102
RTVSPropertyOp42
 70
     1
102
RTVSPropertyOp43
 70
     1
102
RTVSPropertyOp44
 70
     1
102
RTVSPropertyOp45
 70
     1
102
RTVSPropertyOp46
 70
     1
102
RTVSPropertyOp47
 70
     1
102
RTVSPropertyOp48
 70
     1
102
RTVSPropertyOp49
 70
     1
102
RTVSPropertyOp50
 70
     1
102
RTVSPropertyOp51
 70
     0
102
RTVSPropertyOp52
 70
     0
102
RTVSPropertyOp53
 70
     1
102
RTVSPropertyOp54
 70
     1
102
RTVSPropertyOp55
 70
     1
102
RTVSPropertyOp56
 70
     1
102
RTVSPropertyOp57
 70
     1
102
RTVSPropertyOp58
 70
     1
102
RTVSPropertyOp59
 70
     1
102
RTVSPropertyOp60
 70
     1
102
RTVSPropertyOp61
 70
     1
102
RTVSPropertyOp62
 70
     1
  0
XRECORD
  5
2756
102
{ACAD_REACTORS
330
2755
102
}
330
2755
100
AcDbXrecord
280
     1
102
RTVSPost2010Prop28
280
     0
102
RTVSPost2010PropOp28
 70
     1
102
RTVSPost2010Prop29
280
     1
102
RTVSPost2010PropOp29
 70
     1
102
RTVSPost2010Prop30
280
     1
102
RTVSPost2010PropOp30
 70
     1
102
RTVSPost2010Prop31
280
     0
102
RTVSPost2010PropOp31
 70
     1
102
RTVSPost2010Prop32
280
     0
102
RTVSPost2010PropOp32
 70
     1
102
RTVSPost2010Prop33
280
     0
102
RTVSPost2010PropOp33
 70
     1
102
RTVSPost2010Prop34
280
     0
102
RTVSPost2010PropOp34
 70
     1
102
RTVSPost2010Prop35
280
     0
102
RTVSPost2010PropOp35
 70
     1
102
RTVSPost2010Prop36
280
     0
102
RTVSPost2010PropOp36
 70
     1
102
RTVSPost2010Prop37
 90
       50
102
RTVSPost2010PropOp37
 70
     1
102
RTVSPost2010Prop38
140
0.0
102
RTVSPost2010PropOp38
 70
     1
102
RTVSPost2010Prop39
140
1.0
102
RTVSPost2010PropOp39
 70
     1
102
RTVSPost2010Prop40
 90
        0
102
RTVSPost2010PropOp40
 70
     1
102
RTVSPost2010Prop41ColorIndex
 90
       18
102
RTVSPost2010Prop41ColorRGB
 90
        0
102
RTVSPost2010PropOp41
 70
     1
102
RTVSPost2010Prop42
 90
       50
102
RTVSPost2010PropOp42
 70
     1
102
RTVSPost2010Prop43
 90
        3
102
RTVSPost2010PropOp43
 70
     1
102
RTVSPost2010Prop44ColorIndex
 90
        5
102
RTVSPost2010Prop44ColorRGB
 90
      255
102
RTVSPost2010PropOp44
 70
     1
102
RTVSPost2010Prop45
280
     0
102
RTVSPost2010PropOp45
 70
     1
102
RTVSPost2010Prop46
 90
       50
102
RTVSPost2010PropOp46
 70
     1
102
RTVSPost2010Prop47
 90
       50
102
RTVSPost2010PropOp47
 70
     1
102
RTVSPost2010Prop48
 90
       50
102
RTVSPost2010PropOp48
 70
     1
102
RTVSPost2010Prop49
280
     0
102
RTVSPost2010PropOp49
 70
     1
102
RTVSPost2010Prop50
 90
       50
102
RTVSPost2010PropOp50
 70
     1
102
RTVSPost2010Prop51ColorIndex
 90
      256
102
RTVSPost2010Prop51ColorRGB
 90
-16777216
102
RTVSPost2010PropOp51
 70
     0
102
RTVSPost2010Prop52
140
1.0
102
RTVSPost2010PropOp52
 70
     0
102
RTVSPost2010Prop53
 90
        2
102
RTVSPost2010PropOp53
 70
     1
102
RTVSPost2010Prop54
  1
strokes_ogs.tif
102
RTVSPost2010PropOp54
 70
     1
102
RTVSPost2010Prop55
280
     0
102
RTVSPost2010PropOp55
 70
     1
102
RTVSPost2010Prop56
140
1.0
102
RTVSPost2010PropOp56
 70
     1
102
RTVSPost2010Prop57
140
1.0
102
RTVSPost2010PropOp57
 70
     1
102
RTVSPropertyOp0
 70
     1
102
RTVSPropertyOp1
 70
     1
102
RTVSPropertyOp2
 70
     1
102
RTVSPropertyOp3
 70
     1
102
RTVSPropertyOp4
 70
     1
102
RTVSPropertyOp5
 70
     1
102
RTVSPropertyOp6
 70
     1
102
RTVSPropertyOp7
 70
     1
102
RTVSPropertyOp8
 70
     1
102
RTVSPropertyOp9
 70
     1
102
RTVSPropertyOp10
 70
     1
102
RTVSPropertyOp11
 70
     1
102
RTVSPropertyOp12
 70
     1
102
RTVSPropertyOp13
 70
     1
102
RTVSPropertyOp14
 70
     1
102
RTVSPropertyOp15
 70
     1
102
RTVSPropertyOp16
 70
     1
102
RTVSPropertyOp17
 70
     1
102
RTVSPropertyOp18
 70
     1
102
RTVSPropertyOp19
 70
     1
102
RTVSPropertyOp20
 70
     1
102
RTVSPropertyOp21
 70
     1
102
RTVSPropertyOp22
 70
     1
102
RTVSPropertyOp23
 70
     1
102
RTVSPropertyOp24
 70
     1
102
RTVSPropertyOp25
 70
     1
102
RTVSPropertyOp26
 70
     1
102
RTVSPropertyOp27
 70
     1
102
RTVSPropertyOp28
 70
     1
102
RTVSPropertyOp29
 70
     1
102
RTVSPropertyOp30
 70
     1
102
RTVSPropertyOp31
 70
     1
102
RTVSPropertyOp32
 70
     1
102
RTVSPropertyOp33
 70
     1
102
RTVSPropertyOp34
 70
     1
102
RTVSPropertyOp35
 70
     1
102
RTVSPropertyOp36
 70
     1
102
RTVSPropertyOp37
 70
     1
102
RTVSPropertyOp38
 70
     1
102
RTVSPropertyOp39
 70
     1
102
RTVSPropertyOp40
 70
     1
102
RTVSPropertyOp41
 70
     1
102
RTVSPropertyOp42
 70
     1
102
RTVSPropertyOp43
 70
     1
102
RTVSPropertyOp44
 70
     1
102
RTVSPropertyOp45
 70
     1
102
RTVSPropertyOp46
 70
     1
102
RTVSPropertyOp47
 70
     1
102
RTVSPropertyOp48
 70
     1
102
RTVSPropertyOp49
 70
     1
102
RTVSPropertyOp50
 70
     1
102
RTVSPropertyOp51
 70
     0
102
RTVSPropertyOp52
 70
     0
102
RTVSPropertyOp53
 70
     1
102
RTVSPropertyOp54
 70
     1
102
RTVSPropertyOp55
 70
     1
102
RTVSPropertyOp56
 70
     1
102
RTVSPropertyOp57
 70
     1
102
RTVSPropertyOp58
 70
     1
102
RTVSPropertyOp59
 70
     1
102
RTVSPropertyOp60
 70
     1
102
RTVSPropertyOp61
 70
     1
102
RTVSPropertyOp62
 70
     1
  0
XRECORD
  5
2754
102
{ACAD_REACTORS
330
2753
102
}
330
2753
100
AcDbXrecord
280
     1
102
RTVSPost2010Prop28
280
     0
102
RTVSPost2010PropOp28
 70
     1
102
RTVSPost2010Prop29
280
     1
102
RTVSPost2010PropOp29
 70
     1
102
RTVSPost2010Prop30
280
     1
102
RTVSPost2010PropOp30
 70
     1
102
RTVSPost2010Prop31
280
     0
102
RTVSPost2010PropOp31
 70
     1
102
RTVSPost2010Prop32
280
     0
102
RTVSPost2010PropOp32
 70
     1
102
RTVSPost2010Prop33
280
     0
102
RTVSPost2010PropOp33
 70
     1
102
RTVSPost2010Prop34
280
     0
102
RTVSPost2010PropOp34
 70
     1
102
RTVSPost2010Prop35
280
     0
102
RTVSPost2010PropOp35
 70
     1
102
RTVSPost2010Prop36
280
     0
102
RTVSPost2010PropOp36
 70
     1
102
RTVSPost2010Prop37
 90
       50
102
RTVSPost2010PropOp37
 70
     1
102
RTVSPost2010Prop38
140
0.0
102
RTVSPost2010PropOp38
 70
     1
102
RTVSPost2010Prop39
140
1.0
102
RTVSPost2010PropOp39
 70
     1
102
RTVSPost2010Prop40
 90
        0
102
RTVSPost2010PropOp40
 70
     1
102
RTVSPost2010Prop41ColorIndex
 90
       18
102
RTVSPost2010Prop41ColorRGB
 90
        0
102
RTVSPost2010PropOp41
 70
     1
102
RTVSPost2010Prop42
 90
       50
102
RTVSPost2010PropOp42
 70
     1
102
RTVSPost2010Prop43
 90
        3
102
RTVSPost2010PropOp43
 70
     1
102
RTVSPost2010Prop44ColorIndex
 90
        5
102
RTVSPost2010Prop44ColorRGB
 90
      255
102
RTVSPost2010PropOp44
 70
     1
102
RTVSPost2010Prop45
280
     0
102
RTVSPost2010PropOp45
 70
     1
102
RTVSPost2010Prop46
 90
       50
102
RTVSPost2010PropOp46
 70
     1
102
RTVSPost2010Prop47
 90
       50
102
RTVSPost2010PropOp47
 70
     1
102
RTVSPost2010Prop48
 90
       50
102
RTVSPost2010PropOp48
 70
     1
102
RTVSPost2010Prop49
280
     0
102
RTVSPost2010PropOp49
 70
     1
102
RTVSPost2010Prop50
 90
       50
102
RTVSPost2010PropOp50
 70
     1
102
RTVSPost2010Prop51ColorIndex
 90
      256
102
RTVSPost2010Prop51ColorRGB
 90
-16777216
102
RTVSPost2010PropOp51
 70
     0
102
RTVSPost2010Prop52
140
1.0
102
RTVSPost2010PropOp52
 70
     0
102
RTVSPost2010Prop53
 90
        2
102
RTVSPost2010PropOp53
 70
     1
102
RTVSPost2010Prop54
  1
strokes_ogs.tif
102
RTVSPost2010PropOp54
 70
     1
102
RTVSPost2010Prop55
280
     0
102
RTVSPost2010PropOp55
 70
     1
102
RTVSPost2010Prop56
140
1.0
102
RTVSPost2010PropOp56
 70
     1
102
RTVSPost2010Prop57
140
1.0
102
RTVSPost2010PropOp57
 70
     1
102
RTVSPropertyOp0
 70
     1
102
RTVSPropertyOp1
 70
     1
102
RTVSPropertyOp2
 70
     1
102
RTVSPropertyOp3
 70
     1
102
RTVSPropertyOp4
 70
     1
102
RTVSPropertyOp5
 70
     1
102
RTVSPropertyOp6
 70
     1
102
RTVSPropertyOp7
 70
     1
102
RTVSPropertyOp8
 70
     1
102
RTVSPropertyOp9
 70
     1
102
RTVSPropertyOp10
 70
     1
102
RTVSPropertyOp11
 70
     1
102
RTVSPropertyOp12
 70
     1
102
RTVSPropertyOp13
 70
     1
102
RTVSPropertyOp14
 70
     1
102
RTVSPropertyOp15
 70
     1
102
RTVSPropertyOp16
 70
     1
102
RTVSPropertyOp17
 70
     1
102
RTVSPropertyOp18
 70
     1
102
RTVSPropertyOp19
 70
     1
102
RTVSPropertyOp20
 70
     1
102
RTVSPropertyOp21
 70
     1
102
RTVSPropertyOp22
 70
     1
102
RTVSPropertyOp23
 70
     1
102
RTVSPropertyOp24
 70
     1
102
RTVSPropertyOp25
 70
     1
102
RTVSPropertyOp26
 70
     1
102
RTVSPropertyOp27
 70
     1
102
RTVSPropertyOp28
 70
     1
102
RTVSPropertyOp29
 70
     1
102
RTVSPropertyOp30
 70
     1
102
RTVSPropertyOp31
 70
     1
102
RTVSPropertyOp32
 70
     1
102
RTVSPropertyOp33
 70
     1
102
RTVSPropertyOp34
 70
     1
102
RTVSPropertyOp35
 70
     1
102
RTVSPropertyOp36
 70
     1
102
RTVSPropertyOp37
 70
     1
102
RTVSPropertyOp38
 70
     1
102
RTVSPropertyOp39
 70
     1
102
RTVSPropertyOp40
 70
     1
102
RTVSPropertyOp41
 70
     1
102
RTVSPropertyOp42
 70
     1
102
RTVSPropertyOp43
 70
     1
102
RTVSPropertyOp44
 70
     1
102
RTVSPropertyOp45
 70
     1
102
RTVSPropertyOp46
 70
     1
102
RTVSPropertyOp47
 70
     1
102
RTVSPropertyOp48
 70
     1
102
RTVSPropertyOp49
 70
     1
102
RTVSPropertyOp50
 70
     1
102
RTVSPropertyOp51
 70
     0
102
RTVSPropertyOp52
 70
     0
102
RTVSPropertyOp53
 70
     1
102
RTVSPropertyOp54
 70
     1
102
RTVSPropertyOp55
 70
     1
102
RTVSPropertyOp56
 70
     1
102
RTVSPropertyOp57
 70
     1
102
RTVSPropertyOp58
 70
     1
102
RTVSPropertyOp59
 70
     1
102
RTVSPropertyOp60
 70
     1
102
RTVSPropertyOp61
 70
     1
102
RTVSPropertyOp62
 70
     1
  0
XRECORD
  5
274E
102
{ACAD_REACTORS
330
274D
102
}
330
274D
100
AcDbXrecord
280
     1
102
RTVSPost2010Prop28
280
     0
102
RTVSPost2010PropOp28
 70
     1
102
RTVSPost2010Prop29
280
     1
102
RTVSPost2010PropOp29
 70
     1
102
RTVSPost2010Prop30
280
     1
102
RTVSPost2010PropOp30
 70
     1
102
RTVSPost2010Prop31
280
     0
102
RTVSPost2010PropOp31
 70
     1
102
RTVSPost2010Prop32
280
     0
102
RTVSPost2010PropOp32
 70
     1
102
RTVSPost2010Prop33
280
     0
102
RTVSPost2010PropOp33
 70
     1
102
RTVSPost2010Prop34
280
     0
102
RTVSPost2010PropOp34
 70
     1
102
RTVSPost2010Prop35
280
     0
102
RTVSPost2010PropOp35
 70
     1
102
RTVSPost2010Prop36
280
     0
102
RTVSPost2010PropOp36
 70
     1
102
RTVSPost2010Prop37
 90
       50
102
RTVSPost2010PropOp37
 70
     1
102
RTVSPost2010Prop38
140
0.0
102
RTVSPost2010PropOp38
 70
     1
102
RTVSPost2010Prop39
140
1.0
102
RTVSPost2010PropOp39
 70
     1
102
RTVSPost2010Prop40
 90
        0
102
RTVSPost2010PropOp40
 70
     1
102
RTVSPost2010Prop41ColorIndex
 90
       18
102
RTVSPost2010Prop41ColorRGB
 90
        0
102
RTVSPost2010PropOp41
 70
     1
102
RTVSPost2010Prop42
 90
       50
102
RTVSPost2010PropOp42
 70
     1
102
RTVSPost2010Prop43
 90
        3
102
RTVSPost2010PropOp43
 70
     1
102
RTVSPost2010Prop44ColorIndex
 90
        5
102
RTVSPost2010Prop44ColorRGB
 90
      255
102
RTVSPost2010PropOp44
 70
     1
102
RTVSPost2010Prop45
280
     0
102
RTVSPost2010PropOp45
 70
     1
102
RTVSPost2010Prop46
 90
       50
102
RTVSPost2010PropOp46
 70
     1
102
RTVSPost2010Prop47
 90
       50
102
RTVSPost2010PropOp47
 70
     1
102
RTVSPost2010Prop48
 90
       50
102
RTVSPost2010PropOp48
 70
     1
102
RTVSPost2010Prop49
280
     0
102
RTVSPost2010PropOp49
 70
     1
102
RTVSPost2010Prop50
 90
       50
102
RTVSPost2010PropOp50
 70
     1
102
RTVSPost2010Prop51ColorIndex
 90
      256
102
RTVSPost2010Prop51ColorRGB
 90
-16777216
102
RTVSPost2010PropOp51
 70
     0
102
RTVSPost2010Prop52
140
1.0
102
RTVSPost2010PropOp52
 70
     0
102
RTVSPost2010Prop53
 90
        2
102
RTVSPost2010PropOp53
 70
     1
102
RTVSPost2010Prop54
  1
strokes_ogs.tif
102
RTVSPost2010PropOp54
 70
     1
102
RTVSPost2010Prop55
280
     0
102
RTVSPost2010PropOp55
 70
     1
102
RTVSPost2010Prop56
140
1.0
102
RTVSPost2010PropOp56
 70
     1
102
RTVSPost2010Prop57
140
1.0
102
RTVSPost2010PropOp57
 70
     1
102
RTVSPropertyOp0
 70
     1
102
RTVSPropertyOp1
 70
     1
102
RTVSPropertyOp2
 70
     1
102
RTVSPropertyOp3
 70
     1
102
RTVSPropertyOp4
 70
     1
102
RTVSPropertyOp5
 70
     1
102
RTVSPropertyOp6
 70
     1
102
RTVSPropertyOp7
 70
     1
102
RTVSPropertyOp8
 70
     1
102
RTVSPropertyOp9
 70
     1
102
RTVSPropertyOp10
 70
     1
102
RTVSPropertyOp11
 70
     1
102
RTVSPropertyOp12
 70
     1
102
RTVSPropertyOp13
 70
     1
102
RTVSPropertyOp14
 70
     1
102
RTVSPropertyOp15
 70
     1
102
RTVSPropertyOp16
 70
     1
102
RTVSPropertyOp17
 70
     1
102
RTVSPropertyOp18
 70
     1
102
RTVSPropertyOp19
 70
     1
102
RTVSPropertyOp20
 70
     1
102
RTVSPropertyOp21
 70
     1
102
RTVSPropertyOp22
 70
     1
102
RTVSPropertyOp23
 70
     1
102
RTVSPropertyOp24
 70
     1
102
RTVSPropertyOp25
 70
     1
102
RTVSPropertyOp26
 70
     1
102
RTVSPropertyOp27
 70
     1
102
RTVSPropertyOp28
 70
     1
102
RTVSPropertyOp29
 70
     1
102
RTVSPropertyOp30
 70
     1
102
RTVSPropertyOp31
 70
     1
102
RTVSPropertyOp32
 70
     1
102
RTVSPropertyOp33
 70
     1
102
RTVSPropertyOp34
 70
     1
102
RTVSPropertyOp35
 70
     1
102
RTVSPropertyOp36
 70
     1
102
RTVSPropertyOp37
 70
     1
102
RTVSPropertyOp38
 70
     1
102
RTVSPropertyOp39
 70
     1
102
RTVSPropertyOp40
 70
     1
102
RTVSPropertyOp41
 70
     1
102
RTVSPropertyOp42
 70
     1
102
RTVSPropertyOp43
 70
     1
102
RTVSPropertyOp44
 70
     1
102
RTVSPropertyOp45
 70
     1
102
RTVSPropertyOp46
 70
     1
102
RTVSPropertyOp47
 70
     1
102
RTVSPropertyOp48
 70
     1
102
RTVSPropertyOp49
 70
     1
102
RTVSPropertyOp50
 70
     1
102
RTVSPropertyOp51
 70
     0
102
RTVSPropertyOp52
 70
     0
102
RTVSPropertyOp53
 70
     1
102
RTVSPropertyOp54
 70
     1
102
RTVSPropertyOp55
 70
     1
102
RTVSPropertyOp56
 70
     1
102
RTVSPropertyOp57
 70
     1
102
RTVSPropertyOp58
 70
     1
102
RTVSPropertyOp59
 70
     1
102
RTVSPropertyOp60
 70
     1
102
RTVSPropertyOp61
 70
     1
102
RTVSPropertyOp62
 70
     1
  0
XRECORD
  5
2750
102
{ACAD_REACTORS
330
274F
102
}
330
274F
100
AcDbXrecord
280
     1
102
RTVSPost2010Prop28
280
     0
102
RTVSPost2010PropOp28
 70
     1
102
RTVSPost2010Prop29
280
     1
102
RTVSPost2010PropOp29
 70
     1
102
RTVSPost2010Prop30
280
     1
102
RTVSPost2010PropOp30
 70
     1
102
RTVSPost2010Prop31
280
     0
102
RTVSPost2010PropOp31
 70
     1
102
RTVSPost2010Prop32
280
     0
102
RTVSPost2010PropOp32
 70
     1
102
RTVSPost2010Prop33
280
     0
102
RTVSPost2010PropOp33
 70
     1
102
RTVSPost2010Prop34
280
     0
102
RTVSPost2010PropOp34
 70
     1
102
RTVSPost2010Prop35
280
     0
102
RTVSPost2010PropOp35
 70
     1
102
RTVSPost2010Prop36
280
     0
102
RTVSPost2010PropOp36
 70
     1
102
RTVSPost2010Prop37
 90
       50
102
RTVSPost2010PropOp37
 70
     1
102
RTVSPost2010Prop38
140
0.0
102
RTVSPost2010PropOp38
 70
     1
102
RTVSPost2010Prop39
140
1.0
102
RTVSPost2010PropOp39
 70
     1
102
RTVSPost2010Prop40
 90
        0
102
RTVSPost2010PropOp40
 70
     1
102
RTVSPost2010Prop41ColorIndex
 90
       18
102
RTVSPost2010Prop41ColorRGB
 90
        0
102
RTVSPost2010PropOp41
 70
     1
102
RTVSPost2010Prop42
 90
       50
102
RTVSPost2010PropOp42
 70
     1
102
RTVSPost2010Prop43
 90
        3
102
RTVSPost2010PropOp43
 70
     1
102
RTVSPost2010Prop44ColorIndex
 90
        5
102
RTVSPost2010Prop44ColorRGB
 90
      255
102
RTVSPost2010PropOp44
 70
     1
102
RTVSPost2010Prop45
280
     0
102
RTVSPost2010PropOp45
 70
     1
102
RTVSPost2010Prop46
 90
       50
102
RTVSPost2010PropOp46
 70
     1
102
RTVSPost2010Prop47
 90
       50
102
RTVSPost2010PropOp47
 70
     1
102
RTVSPost2010Prop48
 90
       50
102
RTVSPost2010PropOp48
 70
     1
102
RTVSPost2010Prop49
280
     0
102
RTVSPost2010PropOp49
 70
     1
102
RTVSPost2010Prop50
 90
       50
102
RTVSPost2010PropOp50
 70
     1
102
RTVSPost2010Prop51ColorIndex
 90
      256
102
RTVSPost2010Prop51ColorRGB
 90
-16777216
102
RTVSPost2010PropOp51
 70
     0
102
RTVSPost2010Prop52
140
1.0
102
RTVSPost2010PropOp52
 70
     0
102
RTVSPost2010Prop53
 90
        2
102
RTVSPost2010PropOp53
 70
     1
102
RTVSPost2010Prop54
  1
strokes_ogs.tif
102
RTVSPost2010PropOp54
 70
     1
102
RTVSPost2010Prop55
280
     0
102
RTVSPost2010PropOp55
 70
     1
102
RTVSPost2010Prop56
140
1.0
102
RTVSPost2010PropOp56
 70
     1
102
RTVSPost2010Prop57
140
1.0
102
RTVSPost2010PropOp57
 70
     1
102
RTVSPropertyOp0
 70
     1
102
RTVSPropertyOp1
 70
     1
102
RTVSPropertyOp2
 70
     1
102
RTVSPropertyOp3
 70
     1
102
RTVSPropertyOp4
 70
     1
102
RTVSPropertyOp5
 70
     1
102
RTVSPropertyOp6
 70
     1
102
RTVSPropertyOp7
 70
     1
102
RTVSPropertyOp8
 70
     1
102
RTVSPropertyOp9
 70
     1
102
RTVSPropertyOp10
 70
     1
102
RTVSPropertyOp11
 70
     1
102
RTVSPropertyOp12
 70
     1
102
RTVSPropertyOp13
 70
     1
102
RTVSPropertyOp14
 70
     1
102
RTVSPropertyOp15
 70
     1
102
RTVSPropertyOp16
 70
     1
102
RTVSPropertyOp17
 70
     1
102
RTVSPropertyOp18
 70
     1
102
RTVSPropertyOp19
 70
     1
102
RTVSPropertyOp20
 70
     1
102
RTVSPropertyOp21
 70
     1
102
RTVSPropertyOp22
 70
     1
102
RTVSPropertyOp23
 70
     1
102
RTVSPropertyOp24
 70
     1
102
RTVSPropertyOp25
 70
     1
102
RTVSPropertyOp26
 70
     1
102
RTVSPropertyOp27
 70
     1
102
RTVSPropertyOp28
 70
     1
102
RTVSPropertyOp29
 70
     1
102
RTVSPropertyOp30
 70
     1
102
RTVSPropertyOp31
 70
     1
102
RTVSPropertyOp32
 70
     1
102
RTVSPropertyOp33
 70
     1
102
RTVSPropertyOp34
 70
     1
102
RTVSPropertyOp35
 70
     1
102
RTVSPropertyOp36
 70
     1
102
RTVSPropertyOp37
 70
     1
102
RTVSPropertyOp38
 70
     1
102
RTVSPropertyOp39
 70
     1
102
RTVSPropertyOp40
 70
     1
102
RTVSPropertyOp41
 70
     1
102
RTVSPropertyOp42
 70
     1
102
RTVSPropertyOp43
 70
     1
102
RTVSPropertyOp44
 70
     1
102
RTVSPropertyOp45
 70
     1
102
RTVSPropertyOp46
 70
     1
102
RTVSPropertyOp47
 70
     1
102
RTVSPropertyOp48
 70
     1
102
RTVSPropertyOp49
 70
     1
102
RTVSPropertyOp50
 70
     1
102
RTVSPropertyOp51
 70
     0
102
RTVSPropertyOp52
 70
     0
102
RTVSPropertyOp53
 70
     1
102
RTVSPropertyOp54
 70
     1
102
RTVSPropertyOp55
 70
     1
102
RTVSPropertyOp56
 70
     1
102
RTVSPropertyOp57
 70
     1
102
RTVSPropertyOp58
 70
     1
102
RTVSPropertyOp59
 70
     1
102
RTVSPropertyOp60
 70
     1
102
RTVSPropertyOp61
 70
     1
102
RTVSPropertyOp62
 70
     1
  0
XRECORD
  5
2746
102
{ACAD_REACTORS
330
2745
102
}
330
2745
100
AcDbXrecord
280
     1
102
RTVSPost2010Prop28
280
     0
102
RTVSPost2010PropOp28
 70
     1
102
RTVSPost2010Prop29
280
     1
102
RTVSPost2010PropOp29
 70
     1
102
RTVSPost2010Prop30
280
     1
102
RTVSPost2010PropOp30
 70
     1
102
RTVSPost2010Prop31
280
     0
102
RTVSPost2010PropOp31
 70
     1
102
RTVSPost2010Prop32
280
     0
102
RTVSPost2010PropOp32
 70
     1
102
RTVSPost2010Prop33
280
     0
102
RTVSPost2010PropOp33
 70
     1
102
RTVSPost2010Prop34
280
     0
102
RTVSPost2010PropOp34
 70
     1
102
RTVSPost2010Prop35
280
     0
102
RTVSPost2010PropOp35
 70
     1
102
RTVSPost2010Prop36
280
     0
102
RTVSPost2010PropOp36
 70
     1
102
RTVSPost2010Prop37
 90
       50
102
RTVSPost2010PropOp37
 70
     1
102
RTVSPost2010Prop38
140
0.0
102
RTVSPost2010PropOp38
 70
     1
102
RTVSPost2010Prop39
140
1.0
102
RTVSPost2010PropOp39
 70
     1
102
RTVSPost2010Prop40
 90
        0
102
RTVSPost2010PropOp40
 70
     1
102
RTVSPost2010Prop41ColorIndex
 90
       18
102
RTVSPost2010Prop41ColorRGB
 90
        0
102
RTVSPost2010PropOp41
 70
     1
102
RTVSPost2010Prop42
 90
       50
102
RTVSPost2010PropOp42
 70
     1
102
RTVSPost2010Prop43
 90
        3
102
RTVSPost2010PropOp43
 70
     1
102
RTVSPost2010Prop44ColorIndex
 90
        5
102
RTVSPost2010Prop44ColorRGB
 90
      255
102
RTVSPost2010PropOp44
 70
     1
102
RTVSPost2010Prop45
280
     0
102
RTVSPost2010PropOp45
 70
     1
102
RTVSPost2010Prop46
 90
       50
102
RTVSPost2010PropOp46
 70
     1
102
RTVSPost2010Prop47
 90
       50
102
RTVSPost2010PropOp47
 70
     1
102
RTVSPost2010Prop48
 90
       50
102
RTVSPost2010PropOp48
 70
     1
102
RTVSPost2010Prop49
280
     0
102
RTVSPost2010PropOp49
 70
     1
102
RTVSPost2010Prop50
 90
       50
102
RTVSPost2010PropOp50
 70
     1
102
RTVSPost2010Prop51ColorIndex
 90
      256
102
RTVSPost2010Prop51ColorRGB
 90
-16777216
102
RTVSPost2010PropOp51
 70
     0
102
RTVSPost2010Prop52
140
1.0
102
RTVSPost2010PropOp52
 70
     0
102
RTVSPost2010Prop53
 90
        2
102
RTVSPost2010PropOp53
 70
     1
102
RTVSPost2010Prop54
  1
strokes_ogs.tif
102
RTVSPost2010PropOp54
 70
     1
102
RTVSPost2010Prop55
280
     0
102
RTVSPost2010PropOp55
 70
     1
102
RTVSPost2010Prop56
140
1.0
102
RTVSPost2010PropOp56
 70
     1
102
RTVSPost2010Prop57
140
1.0
102
RTVSPost2010PropOp57
 70
     1
102
RTVSPropertyOp0
 70
     1
102
RTVSPropertyOp1
 70
     1
102
RTVSPropertyOp2
 70
     1
102
RTVSPropertyOp3
 70
     1
102
RTVSPropertyOp4
 70
     1
102
RTVSPropertyOp5
 70
     1
102
RTVSPropertyOp6
 70
     1
102
RTVSPropertyOp7
 70
     1
102
RTVSPropertyOp8
 70
     1
102
RTVSPropertyOp9
 70
     1
102
RTVSPropertyOp10
 70
     1
102
RTVSPropertyOp11
 70
     1
102
RTVSPropertyOp12
 70
     1
102
RTVSPropertyOp13
 70
     1
102
RTVSPropertyOp14
 70
     1
102
RTVSPropertyOp15
 70
     1
102
RTVSPropertyOp16
 70
     1
102
RTVSPropertyOp17
 70
     1
102
RTVSPropertyOp18
 70
     1
102
RTVSPropertyOp19
 70
     1
102
RTVSPropertyOp20
 70
     1
102
RTVSPropertyOp21
 70
     1
102
RTVSPropertyOp22
 70
     1
102
RTVSPropertyOp23
 70
     1
102
RTVSPropertyOp24
 70
     1
102
RTVSPropertyOp25
 70
     1
102
RTVSPropertyOp26
 70
     1
102
RTVSPropertyOp27
 70
     1
102
RTVSPropertyOp28
 70
     1
102
RTVSPropertyOp29
 70
     1
102
RTVSPropertyOp30
 70
     1
102
RTVSPropertyOp31
 70
     1
102
RTVSPropertyOp32
 70
     1
102
RTVSPropertyOp33
 70
     1
102
RTVSPropertyOp34
 70
     1
102
RTVSPropertyOp35
 70
     1
102
RTVSPropertyOp36
 70
     1
102
RTVSPropertyOp37
 70
     1
102
RTVSPropertyOp38
 70
     1
102
RTVSPropertyOp39
 70
     1
102
RTVSPropertyOp40
 70
     1
102
RTVSPropertyOp41
 70
     1
102
RTVSPropertyOp42
 70
     1
102
RTVSPropertyOp43
 70
     1
102
RTVSPropertyOp44
 70
     1
102
RTVSPropertyOp45
 70
     1
102
RTVSPropertyOp46
 70
     1
102
RTVSPropertyOp47
 70
     1
102
RTVSPropertyOp48
 70
     1
102
RTVSPropertyOp49
 70
     1
102
RTVSPropertyOp50
 70
     1
102
RTVSPropertyOp51
 70
     0
102
RTVSPropertyOp52
 70
     0
102
RTVSPropertyOp53
 70
     1
102
RTVSPropertyOp54
 70
     1
102
RTVSPropertyOp55
 70
     1
102
RTVSPropertyOp56
 70
     1
102
RTVSPropertyOp57
 70
     1
102
RTVSPropertyOp58
 70
     1
102
RTVSPropertyOp59
 70
     1
102
RTVSPropertyOp60
 70
     1
102
RTVSPropertyOp61
 70
     1
102
RTVSPropertyOp62
 70
     1
  0
XRECORD
  5
273A
102
{ACAD_REACTORS
330
2739
102
}
330
2739
100
AcDbXrecord
280
     1
102
RTVSPost2010Prop28
280
     0
102
RTVSPost2010PropOp28
 70
     1
102
RTVSPost2010Prop29
280
     1
102
RTVSPost2010PropOp29
 70
     1
102
RTVSPost2010Prop30
280
     1
102
RTVSPost2010PropOp30
 70
     1
102
RTVSPost2010Prop31
280
     0
102
RTVSPost2010PropOp31
 70
     1
102
RTVSPost2010Prop32
280
     0
102
RTVSPost2010PropOp32
 70
     1
102
RTVSPost2010Prop33
280
     0
102
RTVSPost2010PropOp33
 70
     1
102
RTVSPost2010Prop34
280
     0
102
RTVSPost2010PropOp34
 70
     1
102
RTVSPost2010Prop35
280
     0
102
RTVSPost2010PropOp35
 70
     1
102
RTVSPost2010Prop36
280
     0
102
RTVSPost2010PropOp36
 70
     1
102
RTVSPost2010Prop37
 90
       50
102
RTVSPost2010PropOp37
 70
     1
102
RTVSPost2010Prop38
140
0.0
102
RTVSPost2010PropOp38
 70
     1
102
RTVSPost2010Prop39
140
1.0
102
RTVSPost2010PropOp39
 70
     1
102
RTVSPost2010Prop40
 90
        0
102
RTVSPost2010PropOp40
 70
     1
102
RTVSPost2010Prop41ColorIndex
 90
       18
102
RTVSPost2010Prop41ColorRGB
 90
        0
102
RTVSPost2010PropOp41
 70
     1
102
RTVSPost2010Prop42
 90
       50
102
RTVSPost2010PropOp42
 70
     1
102
RTVSPost2010Prop43
 90
        3
102
RTVSPost2010PropOp43
 70
     1
102
RTVSPost2010Prop44ColorIndex
 90
        5
102
RTVSPost2010Prop44ColorRGB
 90
      255
102
RTVSPost2010PropOp44
 70
     1
102
RTVSPost2010Prop45
280
     0
102
RTVSPost2010PropOp45
 70
     1
102
RTVSPost2010Prop46
 90
       50
102
RTVSPost2010PropOp46
 70
     1
102
RTVSPost2010Prop47
 90
       50
102
RTVSPost2010PropOp47
 70
     1
102
RTVSPost2010Prop48
 90
       50
102
RTVSPost2010PropOp48
 70
     1
102
RTVSPost2010Prop49
280
     0
102
RTVSPost2010PropOp49
 70
     1
102
RTVSPost2010Prop50
 90
       50
102
RTVSPost2010PropOp50
 70
     1
102
RTVSPost2010Prop51ColorIndex
 90
      256
102
RTVSPost2010Prop51ColorRGB
 90
-16777216
102
RTVSPost2010PropOp51
 70
     0
102
RTVSPost2010Prop52
140
1.0
102
RTVSPost2010PropOp52
 70
     0
102
RTVSPost2010Prop53
 90
        2
102
RTVSPost2010PropOp53
 70
     1
102
RTVSPost2010Prop54
  1
strokes_ogs.tif
102
RTVSPost2010PropOp54
 70
     1
102
RTVSPost2010Prop55
280
     0
102
RTVSPost2010PropOp55
 70
     1
102
RTVSPost2010Prop56
140
1.0
102
RTVSPost2010PropOp56
 70
     1
102
RTVSPost2010Prop57
140
1.0
102
RTVSPost2010PropOp57
 70
     1
102
RTVSPropertyOp0
 70
     1
102
RTVSPropertyOp1
 70
     1
102
RTVSPropertyOp2
 70
     1
102
RTVSPropertyOp3
 70
     1
102
RTVSPropertyOp4
 70
     1
102
RTVSPropertyOp5
 70
     1
102
RTVSPropertyOp6
 70
     1
102
RTVSPropertyOp7
 70
     1
102
RTVSPropertyOp8
 70
     1
102
RTVSPropertyOp9
 70
     1
102
RTVSPropertyOp10
 70
     1
102
RTVSPropertyOp11
 70
     1
102
RTVSPropertyOp12
 70
     1
102
RTVSPropertyOp13
 70
     1
102
RTVSPropertyOp14
 70
     1
102
RTVSPropertyOp15
 70
     1
102
RTVSPropertyOp16
 70
     1
102
RTVSPropertyOp17
 70
     1
102
RTVSPropertyOp18
 70
     1
102
RTVSPropertyOp19
 70
     1
102
RTVSPropertyOp20
 70
     1
102
RTVSPropertyOp21
 70
     1
102
RTVSPropertyOp22
 70
     1
102
RTVSPropertyOp23
 70
     1
102
RTVSPropertyOp24
 70
     1
102
RTVSPropertyOp25
 70
     1
102
RTVSPropertyOp26
 70
     1
102
RTVSPropertyOp27
 70
     1
102
RTVSPropertyOp28
 70
     1
102
RTVSPropertyOp29
 70
     1
102
RTVSPropertyOp30
 70
     1
102
RTVSPropertyOp31
 70
     1
102
RTVSPropertyOp32
 70
     1
102
RTVSPropertyOp33
 70
     1
102
RTVSPropertyOp34
 70
     1
102
RTVSPropertyOp35
 70
     1
102
RTVSPropertyOp36
 70
     1
102
RTVSPropertyOp37
 70
     1
102
RTVSPropertyOp38
 70
     1
102
RTVSPropertyOp39
 70
     1
102
RTVSPropertyOp40
 70
     1
102
RTVSPropertyOp41
 70
     1
102
RTVSPropertyOp42
 70
     1
102
RTVSPropertyOp43
 70
     1
102
RTVSPropertyOp44
 70
     1
102
RTVSPropertyOp45
 70
     1
102
RTVSPropertyOp46
 70
     1
102
RTVSPropertyOp47
 70
     1
102
RTVSPropertyOp48
 70
     1
102
RTVSPropertyOp49
 70
     1
102
RTVSPropertyOp50
 70
     1
102
RTVSPropertyOp51
 70
     0
102
RTVSPropertyOp52
 70
     0
102
RTVSPropertyOp53
 70
     1
102
RTVSPropertyOp54
 70
     1
102
RTVSPropertyOp55
 70
     1
102
RTVSPropertyOp56
 70
     1
102
RTVSPropertyOp57
 70
     1
102
RTVSPropertyOp58
 70
     1
102
RTVSPropertyOp59
 70
     1
102
RTVSPropertyOp60
 70
     1
102
RTVSPropertyOp61
 70
     1
102
RTVSPropertyOp62
 70
     1
  0
XRECORD
  5
2752
102
{ACAD_REACTORS
330
2751
102
}
330
2751
100
AcDbXrecord
280
     1
102
RTVSPost2010Prop28
280
     0
102
RTVSPost2010PropOp28
 70
     1
102
RTVSPost2010Prop29
280
     1
102
RTVSPost2010PropOp29
 70
     1
102
RTVSPost2010Prop30
280
     1
102
RTVSPost2010PropOp30
 70
     1
102
RTVSPost2010Prop31
280
     0
102
RTVSPost2010PropOp31
 70
     1
102
RTVSPost2010Prop32
280
     0
102
RTVSPost2010PropOp32
 70
     1
102
RTVSPost2010Prop33
280
     0
102
RTVSPost2010PropOp33
 70
     1
102
RTVSPost2010Prop34
280
     0
102
RTVSPost2010PropOp34
 70
     1
102
RTVSPost2010Prop35
280
     0
102
RTVSPost2010PropOp35
 70
     1
102
RTVSPost2010Prop36
280
     0
102
RTVSPost2010PropOp36
 70
     1
102
RTVSPost2010Prop37
 90
       50
102
RTVSPost2010PropOp37
 70
     1
102
RTVSPost2010Prop38
140
0.0
102
RTVSPost2010PropOp38
 70
     1
102
RTVSPost2010Prop39
140
1.0
102
RTVSPost2010PropOp39
 70
     1
102
RTVSPost2010Prop40
 90
        0
102
RTVSPost2010PropOp40
 70
     1
102
RTVSPost2010Prop41ColorIndex
 90
       18
102
RTVSPost2010Prop41ColorRGB
 90
        0
102
RTVSPost2010PropOp41
 70
     1
102
RTVSPost2010Prop42
 90
       50
102
RTVSPost2010PropOp42
 70
     1
102
RTVSPost2010Prop43
 90
        3
102
RTVSPost2010PropOp43
 70
     1
102
RTVSPost2010Prop44ColorIndex
 90
        5
102
RTVSPost2010Prop44ColorRGB
 90
      255
102
RTVSPost2010PropOp44
 70
     1
102
RTVSPost2010Prop45
280
     0
102
RTVSPost2010PropOp45
 70
     1
102
RTVSPost2010Prop46
 90
       50
102
RTVSPost2010PropOp46
 70
     1
102
RTVSPost2010Prop47
 90
       50
102
RTVSPost2010PropOp47
 70
     1
102
RTVSPost2010Prop48
 90
       50
102
RTVSPost2010PropOp48
 70
     1
102
RTVSPost2010Prop49
280
     0
102
RTVSPost2010PropOp49
 70
     1
102
RTVSPost2010Prop50
 90
       50
102
RTVSPost2010PropOp50
 70
     1
102
RTVSPost2010Prop51ColorIndex
 90
      256
102
RTVSPost2010Prop51ColorRGB
 90
-16777216
102
RTVSPost2010PropOp51
 70
     0
102
RTVSPost2010Prop52
140
1.0
102
RTVSPost2010PropOp52
 70
     0
102
RTVSPost2010Prop53
 90
        2
102
RTVSPost2010PropOp53
 70
     1
102
RTVSPost2010Prop54
  1
strokes_ogs.tif
102
RTVSPost2010PropOp54
 70
     1
102
RTVSPost2010Prop55
280
     0
102
RTVSPost2010PropOp55
 70
     1
102
RTVSPost2010Prop56
140
1.0
102
RTVSPost2010PropOp56
 70
     1
102
RTVSPost2010Prop57
140
1.0
102
RTVSPost2010PropOp57
 70
     1
102
RTVSPropertyOp0
 70
     1
102
RTVSPropertyOp1
 70
     1
102
RTVSPropertyOp2
 70
     1
102
RTVSPropertyOp3
 70
     1
102
RTVSPropertyOp4
 70
     1
102
RTVSPropertyOp5
 70
     1
102
RTVSPropertyOp6
 70
     1
102
RTVSPropertyOp7
 70
     1
102
RTVSPropertyOp8
 70
     1
102
RTVSPropertyOp9
 70
     1
102
RTVSPropertyOp10
 70
     1
102
RTVSPropertyOp11
 70
     1
102
RTVSPropertyOp12
 70
     1
102
RTVSPropertyOp13
 70
     1
102
RTVSPropertyOp14
 70
     1
102
RTVSPropertyOp15
 70
     1
102
RTVSPropertyOp16
 70
     1
102
RTVSPropertyOp17
 70
     1
102
RTVSPropertyOp18
 70
     1
102
RTVSPropertyOp19
 70
     1
102
RTVSPropertyOp20
 70
     1
102
RTVSPropertyOp21
 70
     1
102
RTVSPropertyOp22
 70
     1
102
RTVSPropertyOp23
 70
     1
102
RTVSPropertyOp24
 70
     1
102
RTVSPropertyOp25
 70
     1
102
RTVSPropertyOp26
 70
     1
102
RTVSPropertyOp27
 70
     1
102
RTVSPropertyOp28
 70
     1
102
RTVSPropertyOp29
 70
     1
102
RTVSPropertyOp30
 70
     1
102
RTVSPropertyOp31
 70
     1
102
RTVSPropertyOp32
 70
     1
102
RTVSPropertyOp33
 70
     1
102
RTVSPropertyOp34
 70
     1
102
RTVSPropertyOp35
 70
     1
102
RTVSPropertyOp36
 70
     1
102
RTVSPropertyOp37
 70
     1
102
RTVSPropertyOp38
 70
     1
102
RTVSPropertyOp39
 70
     1
102
RTVSPropertyOp40
 70
     1
102
RTVSPropertyOp41
 70
     1
102
RTVSPropertyOp42
 70
     1
102
RTVSPropertyOp43
 70
     1
102
RTVSPropertyOp44
 70
     1
102
RTVSPropertyOp45
 70
     1
102
RTVSPropertyOp46
 70
     1
102
RTVSPropertyOp47
 70
     1
102
RTVSPropertyOp48
 70
     1
102
RTVSPropertyOp49
 70
     1
102
RTVSPropertyOp50
 70
     1
102
RTVSPropertyOp51
 70
     0
102
RTVSPropertyOp52
 70
     0
102
RTVSPropertyOp53
 70
     1
102
RTVSPropertyOp54
 70
     1
102
RTVSPropertyOp55
 70
     1
102
RTVSPropertyOp56
 70
     1
102
RTVSPropertyOp57
 70
     1
102
RTVSPropertyOp58
 70
     1
102
RTVSPropertyOp59
 70
     1
102
RTVSPropertyOp60
 70
     1
102
RTVSPropertyOp61
 70
     1
102
RTVSPropertyOp62
 70
     1
  0
ENDSEC
  0
EOF
