  0
SECTION
  2
HEADER
  9
$ACADVER
  1
AC1015
  9
$ACADMAINTVER
 70
    20
  9
$DWGCODEPAGE
  3
ANSI_932
  9
$INSBASE
 10
0.0
 20
0.0
 30
0.0
  9
$EXTMIN
 10
9.9999975266385
 20
10.0
 30
0.0
  9
$EXTMAX
 10
274.0426738138475
 20
180.5193992661807
 30
0.0
  9
$LIMMIN
 10
0.0000015376081137
 20
-0.0000001931532552
  9
$LIMMAX
 10
326.0000015376081
 20
224.7424240492708
  9
$ORTHOMODE
 70
     1
  9
$REGENMODE
 70
     1
  9
$FILLMODE
 70
     1
  9
$QTEXTMODE
 70
     0
  9
$MIRRTEXT
 70
     1
  9
$LTSCALE
 40
1.0
  9
$ATTMODE
 70
     1
  9
$TEXTSIZE
 40
2.5
  9
$TRACEWID
 40
1.0
  9
$TEXTSTYLE
  7
STANDARD
  9
$CLAYER
  8
0
  9
$CELTYPE
  6
BYLAYER
  9
$CECOLOR
 62
   256
  9
$CELTSCALE
 40
1.0
  9
$DISPSILH
 70
     0
  9
$DIMSCALE
 40
1.0
  9
$DIMASZ
 40
3.0
  9
$DIMEXO
 40
1.0
  9
$DIMDLI
 40
10.0
  9
$DIMRND
 40
0.0
  9
$DIMDLE
 40
0.0
  9
$DIMEXE
 40
1.0
  9
$DIMTP
 40
0.0
  9
$DIMTM
 40
0.0
  9
$DIMTXT
 40
2.5
  9
$DIMCEN
 40
0.0
  9
$DIMTSZ
 40
0.0
  9
$DIMTOL
 70
     0
  9
$DIMLIM
 70
     0
  9
$DIMTIH
 70
     0
  9
$DIMTOH
 70
     0
  9
$DIMSE1
 70
     0
  9
$DIMSE2
 70
     0
  9
$DIMTAD
 70
     3
  9
$DIMZIN
 70
     8
  9
$DIMBLK
  1

  9
$DIMASO
 70
     1
  9
$DIMSHO
 70
     1
  9
$DIMPOST
  1

  9
$DIMAPOST
  1

  9
$DIMALT
 70
     0
  9
$DIMALTD
 70
     2
  9
$DIMALTF
 40
25.4
  9
$DIMLFAC
 40
1.0
  9
$DIMTOFL
 70
     1
  9
$DIMTVP
 40
0.0
  9
$DIMTIX
 70
     0
  9
$DIMSOXD
 70
     0
  9
$DIMSAH
 70
     1
  9
$DIMBLK1
  1
OPEN
  9
$DIMBLK2
  1
OPEN
  9
$DIMSTYLE
  2
STANDARD
  9
$DIMCLRD
 70
     0
  9
$DIMCLRE
 70
     0
  9
$DIMCLRT
 70
     0
  9
$DIMTFAC
 40
1.0
  9
$DIMGAP
 40
1.0
  9
$DIMJUST
 70
     0
  9
$DIMSD1
 70
     0
  9
$DIMSD2
 70
     0
  9
$DIMTOLJ
 70
     1
  9
$DIMTZIN
 70
     0
  9
$DIMALTZ
 70
     0
  9
$DIMALTTZ
 70
     0
  9
$DIMUPT
 70
     0
  9
$DIMDEC
 70
     4
  9
$DIMTDEC
 70
     4
  9
$DIMALTU
 70
     2
  9
$DIMALTTD
 70
     2
  9
$DIMTXSTY
  7
STANDARD
  9
$DIMAUNIT
 70
     0
  9
$DIMADEC
 70
     0
  9
$DIMALTRND
 40
0.0
  9
$DIMAZIN
 70
     0
  9
$DIMDSEP
 70
    46
  9
$DIMATFIT
 70
     3
  9
$DIMFRAC
 70
     0
  9
$DIMLDRBLK
  1
OPEN
  9
$DIMLUNIT
 70
     2
  9
$DIMLWD
 70
    -2
  9
$DIMLWE
 70
    -2
  9
$DIMTMOVE
 70
     0
  9
$LUNITS
 70
     2
  9
$LUPREC
 70
     4
  9
$SKETCHINC
 40
1.0
  9
$FILLETRAD
 40
0.0
  9
$AUNITS
 70
     0
  9
$AUPREC
 70
     0
  9
$MENU
  1
.
  9
$ELEVATION
 40
0.0
  9
$PELEVATION
 40
0.0
  9
$THICKNESS
 40
0.0
  9
$LIMCHECK
 70
     0
  9
$CHAMFERA
 40
10.0
  9
$CHAMFERB
 40
10.0
  9
$CHAMFERC
 40
20.0
  9
$CHAMFERD
 40
0.0
  9
$SKPOLY
 70
     0
  9
$TDCREATE
 40
2456442.426355023
  9
$TDUCREATE
 40
2456442.051355023
  9
$TDUPDATE
 40
2457192.616850614
  9
$TDUUPDATE
 40
2457192.241850614
  9
$TDINDWG
 40
0.1813433565
  9
$TDUSRTIMER
 40
0.1813433449
  9
$USRTIMER
 70
     1
  9
$ANGBASE
 50
0.0
  9
$ANGDIR
 70
     0
  9
$PDMODE
 70
     0
  9
$PDSIZE
 40
0.0
  9
$PLINEWID
 40
0.0
  9
$SPLFRAME
 70
     0
  9
$SPLINETYPE
 70
     6
  9
$SPLINESEGS
 70
     8
  9
$HANDSEED
  5
1370
  9
$SURFTAB1
 70
     6
  9
$SURFTAB2
 70
     6
  9
$SURFTYPE
 70
     6
  9
$SURFU
 70
     6
  9
$SURFV
 70
     6
  9
$UCSBASE
  2

  9
$UCSNAME
  2

  9
$UCSORG
 10
0.0
 20
0.0
 30
0.0
  9
$UCSXDIR
 10
1.0
 20
0.0
 30
0.0
  9
$UCSYDIR
 10
0.0
 20
1.0
 30
0.0
  9
$UCSORTHOREF
  2

  9
$UCSORTHOVIEW
 70
     0
  9
$UCSORGTOP
 10
0.0
 20
0.0
 30
0.0
  9
$UCSORGBOTTOM
 10
0.0
 20
0.0
 30
0.0
  9
$UCSORGLEFT
 10
0.0
 20
0.0
 30
0.0
  9
$UCSORGRIGHT
 10
0.0
 20
0.0
 30
0.0
  9
$UCSORGFRONT
 10
0.0
 20
0.0
 30
0.0
  9
$UCSORGBACK
 10
0.0
 20
0.0
 30
0.0
  9
$PUCSBASE
  2

  9
$PUCSNAME
  2

  9
$PUCSORG
 10
0.0
 20
0.0
 30
0.0
  9
$PUCSXDIR
 10
1.0
 20
0.0
 30
0.0
  9
$PUCSYDIR
 10
0.0
 20
1.0
 30
0.0
  9
$PUCSORTHOREF
  2

  9
$PUCSORTHOVIEW
 70
     0
  9
$PUCSORGTOP
 10
0.0
 20
0.0
 30
0.0
  9
$PUCSORGBOTTOM
 10
0.0
 20
0.0
 30
0.0
  9
$PUCSORGLEFT
 10
0.0
 20
0.0
 30
0.0
  9
$PUCSORGRIGHT
 10
0.0
 20
0.0
 30
0.0
  9
$PUCSORGFRONT
 10
0.0
 20
0.0
 30
0.0
  9
$PUCSORGBACK
 10
0.0
 20
0.0
 30
0.0
  9
$USERI1
 70
     0
  9
$USERI2
 70
     0
  9
$USERI3
 70
     0
  9
$USERI4
 70
     0
  9
$USERI5
 70
     0
  9
$USERR1
 40
0.0
  9
$USERR2
 40
0.0
  9
$USERR3
 40
0.0
  9
$USERR4
 40
0.0
  9
$USERR5
 40
0.0
  9
$WORLDVIEW
 70
     1
  9
$SHADEDGE
 70
     3
  9
$SHADEDIF
 70
    70
  9
$TILEMODE
 70
     1
  9
$MAXACTVP
 70
    48
  9
$PINSBASE
 10
0.0
 20
0.0
 30
0.0
  9
$PLIMCHECK
 70
     0
  9
$PEXTMIN
 10
1.000000000000000E+20
 20
1.000000000000000E+20
 30
1.000000000000000E+20
  9
$PEXTMAX
 10
-1.000000000000000E+20
 20
-1.000000000000000E+20
 30
-1.000000000000000E+20
  9
$PLIMMIN
 10
0.0
 20
0.0
  9
$PLIMMAX
 10
420.0
 20
297.0
  9
$UNITMODE
 70
     0
  9
$VISRETAIN
 70
     1
  9
$PLINEGEN
 70
     0
  9
$PSLTSCALE
 70
     1
  9
$TREEDEPTH
 70
  3020
  9
$CMLSTYLE
  2
STANDARD
  9
$CMLJUST
 70
     0
  9
$CMLSCALE
 40
20.0
  9
$PROXYGRAPHICS
 70
     1
  9
$MEASUREMENT
 70
     0
  9
$CELWEIGHT
370
    -1
  9
$ENDCAPS
280
     0
  9
$JOINSTYLE
280
     0
  9
$LWDISPLAY
290
     0
  9
$INSUNITS
 70
     0
  9
$HYPERLINKBASE
  1

  9
$STYLESHEET
  1

  9
$XEDIT
290
     1
  9
$CEPSNTYPE
380
     0
  9
$PSTYLEMODE
290
     1
  9
$FINGERPRINTGUID
  2
{0EB1045B-1DA5-40E8-9F66-76D3040BB8B5}
  9
$VERSIONGUID
  2
{0DBC253E-9EEA-491D-B828-DFAB08AE1D61}
  9
$EXTNAMES
290
     1
  9
$PSVPSCALE
 40
0.0
  9
$OLESTARTUP
290
     0
  0
ENDSEC
  0
SECTION
  2
CLASSES
  0
CLASS
  1
ACDBDICTIONARYWDFLT
  2
AcDbDictionaryWithDefault
  3
ObjectDBX Classes
 90
        0
280
     0
281
     0
  0
CLASS
  1
ACDBPLACEHOLDER
  2
AcDbPlaceHolder
  3
ObjectDBX Classes
 90
        0
280
     0
281
     0
  0
CLASS
  1
LAYOUT
  2
AcDbLayout
  3
ObjectDBX Classes
 90
        0
280
     0
281
     0
  0
CLASS
  1
MATERIAL
  2
AcDbMaterial
  3
ObjectDBX Classes
 90
     1153
280
     0
281
     0
  0
CLASS
  1
VISUALSTYLE
  2
AcDbVisualStyle
  3
ObjectDBX Classes
 90
     4095
280
     0
281
     0
  0
CLASS
  1
TABLESTYLE
  2
AcDbTableStyle
  3
ObjectDBX Classes
 90
     4095
280
     0
281
     0
  0
CLASS
  1
SCALE
  2
AcDbScale
  3
ObjectDBX Classes
 90
     1153
280
     0
281
     0
  0
CLASS
  1
MLEADERSTYLE
  2
AcDbMLeaderStyle
  3
ACDB_MLEADERSTYLE_CLASS
 90
     4095
280
     0
281
     0
  0
CLASS
  1
ACDBSECTIONVIEWSTYLE
  2
AcDbSectionViewStyle
  3
ObjectDBX Classes
 90
     1025
280
     0
281
     0
  0
CLASS
  1
ACDBDETAILVIEWSTYLE
  2
AcDbDetailViewStyle
  3
ObjectDBX Classes
 90
     1025
280
     0
281
     0
  0
CLASS
  1
DICTIONARYVAR
  2
AcDbDictionaryVar
  3
ObjectDBX Classes
 90
        0
280
     0
281
     0
  0
CLASS
  1
CELLSTYLEMAP
  2
AcDbCellStyleMap
  3
ObjectDBX Classes
 90
     1152
280
     0
281
     0
  0
ENDSEC
  0
SECTION
  2
TABLES
  0
TABLE
  2
VPORT
  5
8
330
0
100
AcDbSymbolTable
 70
     1
  0
VPORT
  5
12BA
330
8
100
AcDbSymbolTableRecord
100
AcDbViewportTableRecord
  2
*ACTIVE
 70
     0
 10
0.0
 20
0.0
 11
1.0
 21
1.0
 12
235.9792165408203
 22
107.4702519225075
 13
0.0
 23
0.0
 14
10.0
 24
10.0
 15
10.0
 25
10.0
 16
0.0
 26
0.0
 36
1.0
 17
0.0
 27
0.0
 37
0.0
 40
203.0756096892778
 41
1.899603698811096
 42
50.0
 43
0.0
 44
0.0
 50
0.0
 51
0.0
 71
     0
 72
   100
 73
     1
 74
     0
 75
     0
 76
     0
 77
     0
 78
     0
281
     0
 65
     1
110
0.0
120
0.0
130
0.0
111
1.0
121
0.0
131
0.0
112
0.0
122
1.0
132
0.0
 79
     0
146
0.0
1001
ACAD_NAV_VCDISPLAY
1070
     3
  0
ENDTAB
  0
TABLE
  2
LTYPE
  5
5
330
0
100
AcDbSymbolTable
 70
     4
  0
LTYPE
  5
12
330
5
100
AcDbSymbolTableRecord
100
AcDbLinetypeTableRecord
  2
BYBLOCK
 70
     0
  3

 72
    65
 73
     0
 40
0.0
  0
LTYPE
  5
13
330
5
100
AcDbSymbolTableRecord
100
AcDbLinetypeTableRecord
  2
BYLAYER
 70
     0
  3

 72
    65
 73
     0
 40
0.0
  0
LTYPE
  5
14
330
5
100
AcDbSymbolTableRecord
100
AcDbLinetypeTableRecord
  2
CONTINUOUS
 70
     0
  3
Solid line
 72
    65
 73
     0
 40
0.0
  0
LTYPE
  5
4B
330
5
100
AcDbSymbolTableRecord
100
AcDbLinetypeTableRecord
  2
DASHED
 70
     0
  3
Dashed __ __ __ __ __ __ __ __ __ __ __ __ __ _
 72
    65
 73
     2
 40
19.04999999999999
 49
12.7
 74
     0
 49
-6.349999999999998
 74
     0
  0
LTYPE
  5
4C
330
5
100
AcDbSymbolTableRecord
100
AcDbLinetypeTableRecord
  2
CENTER
 70
     0
  3
Center ____ _ ____ _ ____ _ ____ _ ____ _ ____
 72
    65
 73
     4
 40
50.8
 49
31.75
 74
     0
 49
-6.349999999999998
 74
     0
 49
6.349999999999998
 74
     0
 49
-6.349999999999998
 74
     0
  0
LTYPE
  5
4D
330
5
100
AcDbSymbolTableRecord
100
AcDbLinetypeTableRecord
  2
PHANTOM
 70
     0
  3
Phantom ______  __  __  ______  __  __  ______
 72
    65
 73
     6
 40
63.5
 49
31.75
 74
     0
 49
-6.349999999999998
 74
     0
 49
6.349999999999998
 74
     0
 49
-6.349999999999998
 74
     0
 49
6.349999999999998
 74
     0
 49
-6.349999999999998
 74
     0
  0
ENDTAB
  0
TABLE
  2
LAYER
  5
2
330
0
100
AcDbSymbolTable
 70
     8
  0
LAYER
  5
E
102
{ACAD_XDICTIONARY
360
1314
102
}
330
2
100
AcDbSymbolTableRecord
100
AcDbLayerTableRecord
  2
0
 70
     0
 62
     7
  6
CONTINUOUS
370
    -3
390
12C3
  0
LAYER
  5
4E
102
{ACAD_XDICTIONARY
360
1316
102
}
330
2
100
AcDbSymbolTableRecord
100
AcDbLayerTableRecord
  2
4
 70
     0
 62
     1
  6
CENTER
370
    -3
390
12C3
  0
LAYER
  5
4F
102
{ACAD_XDICTIONARY
360
1318
102
}
330
2
100
AcDbSymbolTableRecord
100
AcDbLayerTableRecord
  2
5
 70
     0
 62
     6
  6
PHANTOM
370
    -3
390
12C3
  0
LAYER
  5
50
102
{ACAD_XDICTIONARY
360
131A
102
}
330
2
100
AcDbSymbolTableRecord
100
AcDbLayerTableRecord
  2
1
 70
     0
 62
     7
  6
CONTINUOUS
370
    -3
390
12C3
  0
LAYER
  5
51
102
{ACAD_XDICTIONARY
360
131C
102
}
330
2
100
AcDbSymbolTableRecord
100
AcDbLayerTableRecord
  2
2
 70
     0
 62
     4
  6
CONTINUOUS
370
    -3
390
12C3
  0
LAYER
  5
52
102
{ACAD_XDICTIONARY
360
131E
102
}
330
2
100
AcDbSymbolTableRecord
100
AcDbLayerTableRecord
  2
3
 70
     0
 62
     2
  6
DASHED
370
    -3
390
12C3
  0
LAYER
  5
53
102
{ACAD_XDICTIONARY
360
1320
102
}
330
2
100
AcDbSymbolTableRecord
100
AcDbLayerTableRecord
  2
6
 70
     0
 62
     5
  6
CONTINUOUS
370
    -3
390
12C3
  0
LAYER
  5
54
102
{ACAD_XDICTIONARY
360
1322
102
}
330
2
100
AcDbSymbolTableRecord
100
AcDbLayerTableRecord
  2
7
 70
     0
 62
     3
  6
CONTINUOUS
370
    -3
390
12C3
  0
ENDTAB
  0
TABLE
  2
STYLE
  5
3
330
0
100
AcDbSymbolTable
 70
     1
  0
STYLE
  5
F
330
3
100
AcDbSymbolTableRecord
100
AcDbTextStyleTableRecord
  2
STANDARD
 70
     0
 40
0.0
 41
1.0
 50
0.0
 71
     0
 42
2.5
  3
simplex.shx
  4

  0
ENDTAB
  0
TABLE
  2
VIEW
  5
6
330
0
100
AcDbSymbolTable
 70
     0
  0
ENDTAB
  0
TABLE
  2
UCS
  5
7
330
0
100
AcDbSymbolTable
 70
     0
  0
ENDTAB
  0
TABLE
  2
APPID
  5
9
330
0
100
AcDbSymbolTable
 70
     5
  0
APPID
  5
10
330
9
100
AcDbSymbolTableRecord
100
AcDbRegAppTableRecord
  2
ACAD
 70
     0
  0
APPID
  5
3E
330
9
100
AcDbSymbolTableRecord
100
AcDbRegAppTableRecord
  2
CONTENTTABDATA
 70
     0
  0
APPID
  5
3F
330
9
100
AcDbSymbolTableRecord
100
AcDbRegAppTableRecord
  2
CONTENTCURRENTTAB
 70
     0
  0
APPID
  5
132E
330
9
100
AcDbSymbolTableRecord
100
AcDbRegAppTableRecord
  2
ACAD_NAV_VCDISPLAY
 70
     0
  0
APPID
  5
1367
330
9
100
AcDbSymbolTableRecord
100
AcDbRegAppTableRecord
  2
ACAD_MLEADERVER
 70
     0
  0
ENDTAB
  0
TABLE
  2
DIMSTYLE
  5
A
330
0
100
AcDbSymbolTable
 70
     1
100
AcDbDimStyleTable
 71
     0
  0
DIMSTYLE
105
1D
330
A
100
AcDbSymbolTableRecord
100
AcDbDimStyleTableRecord
  2
STANDARD
 70
     0
 41
3.0
 42
1.0
 43
10.0
 44
1.0
 73
     0
 74
     0
 77
     3
 78
     8
140
2.5
141
0.0
147
1.0
172
     1
173
     1
340
F
341
2E
343
2E
344
2E
  0
ENDTAB
  0
TABLE
  2
BLOCK_RECORD
  5
1
330
0
100
AcDbSymbolTable
 70
     1
  0
BLOCK_RECORD
  5
18
102
{ACAD_XDICTIONARY
360
12BD
102
}
330
1
100
AcDbSymbolTableRecord
100
AcDbBlockTableRecord
  2
*MODEL_SPACE
340
1311
  0
BLOCK_RECORD
  5
15
102
{ACAD_XDICTIONARY
360
12BB
102
}
330
1
100
AcDbSymbolTableRecord
100
AcDbBlockTableRecord
  2
*PAPER_SPACE
340
1312
  0
BLOCK_RECORD
  5
2E
330
1
100
AcDbSymbolTableRecord
100
AcDbBlockTableRecord
  2
_OPEN
340
0
  0
ENDTAB
  0
ENDSEC
  0
SECTION
  2
BLOCKS
  0
BLOCK
  5
19
330
18
100
AcDbEntity
  8
0
100
AcDbBlockBegin
  2
*MODEL_SPACE
 70
     0
 10
0.0
 20
0.0
 30
0.0
  3
*MODEL_SPACE
  1

  0
ENDBLK
  5
1A
330
18
100
AcDbEntity
  8
0
100
AcDbBlockEnd
  0
BLOCK
  5
16
330
15
100
AcDbEntity
 67
     1
  8
0
100
AcDbBlockBegin
  2
*PAPER_SPACE
 70
     0
 10
0.0
 20
0.0
 30
0.0
  3
*PAPER_SPACE
  1

  0
ENDBLK
  5
17
330
15
100
AcDbEntity
 67
     1
  8
0
100
AcDbBlockEnd
  0
BLOCK
  5
2F
330
2E
100
AcDbEntity
  8
0
100
AcDbBlockBegin
  2
_OPEN
 70
     0
 10
0.0
 20
0.0
 30
0.0
  3
_OPEN
  1

  0
LINE
  5
30
330
2E
100
AcDbEntity
  8
0
  6
ByBlock
 62
     0
100
AcDbLine
 10
-1.0
 20
0.1666666666666666
 30
0.0
 11
0.0
 21
0.0
 31
0.0
  0
LINE
  5
31
330
2E
100
AcDbEntity
  8
0
  6
ByBlock
 62
     0
100
AcDbLine
 10
0.0
 20
0.0
 30
0.0
 11
-1.0
 21
-0.1666666666666666
 31
0.0
  0
LINE
  5
32
330
2E
100
AcDbEntity
  8
0
  6
ByBlock
 62
     0
100
AcDbLine
 10
0.0
 20
0.0
 30
0.0
 11
-1.0
 21
0.0
 31
0.0
  0
ENDBLK
  5
33
330
2E
100
AcDbEntity
  8
0
100
AcDbBlockEnd
  0
ENDSEC
  0
SECTION
  2
ENTITIES
  0
TEXT
  5
63
330
18
100
AcDbEntity
  8
4
  6
CENTER
 48
0.25
100
AcDbText
 10
23.97950852663849
 20
10.0
 30
0.0
 40
1.399999999999999
  1
4
100
AcDbText
  0
TEXT
  5
64
330
18
100
AcDbEntity
  8
7
  6
Continuous
 48
0.25
100
AcDbText
 10
9.999997526638502
 20
26.0000007607689
 30
0.0
 40
3.0
  1
CODE No.2861
100
AcDbText
  0
TEXT
  5
65
330
18
100
AcDbEntity
  8
7
  6
Continuous
 48
0.25
100
AcDbText
 10
9.999997526638502
 20
18.00000076076889
 30
0.0
 40
3.0
  1
TYPE No.TH-159-2R
100
AcDbText
  0
TEXT
  5
66
330
18
100
AcDbEntity
  8
1
  6
Continuous
 48
0.25
100
AcDbText
 10
9.999997526638502
 20
10.00000076076889
 30
0.0
 40
1.399999999999999
  1
LAYER
100
AcDbText
  0
TEXT
  5
67
330
18
100
AcDbEntity
  8
2
  6
Continuous
 48
0.25
100
AcDbText
 10
19.9795085266385
 20
10.0
 30
0.0
 40
1.399999999999999
  1
2
100
AcDbText
  0
TEXT
  5
68
330
18
100
AcDbEntity
  8
3
  6
DASHED
 48
0.25
100
AcDbText
 10
21.9795085266385
 20
10.0
 30
0.0
 40
1.399999999999999
  1
3
100
AcDbText
  0
TEXT
  5
69
330
18
100
AcDbEntity
  8
1
  6
Continuous
 48
0.25
100
AcDbText
 10
17.9795085266385
 20
10.0
 30
0.0
 40
1.399999999999999
  1
1
100
AcDbText
  0
TEXT
  5
6A
330
18
100
AcDbEntity
  8
5
  6
PHANTOM
 48
0.25
100
AcDbText
 10
25.9795085266385
 20
10.0
 30
0.0
 40
1.399999999999999
  1
5
100
AcDbText
  0
TEXT
  5
6B
330
18
100
AcDbEntity
  8
6
  6
Continuous
 48
0.25
100
AcDbText
 10
27.9795085266385
 20
10.0
 30
0.0
 40
1.399999999999999
  1
6
100
AcDbText
  0
TEXT
  5
6C
330
18
100
AcDbEntity
  8
7
  6
Continuous
 48
0.25
100
AcDbText
 10
29.9795085266385
 20
10.0
 30
0.0
 40
1.399999999999999
  1
7
100
AcDbText
  0
ARC
  5
183
330
18
100
AcDbEntity
  8
1
  6
Continuous
100
AcDbCircle
 10
99.64256423377552
 20
130.1693992662788
 30
0.0
 40
0.5
100
AcDbArc
 50
239.9999999999962
 51
270.0
  0
ARC
  5
184
330
18
100
AcDbEntity
  8
1
  6
Continuous
100
AcDbCircle
 10
97.6425642337754
 20
130.1693992662791
 30
0.0
 40
0.5
100
AcDbArc
 50
59.99999999999513
 51
90.0
  0
ARC
  5
185
330
18
100
AcDbEntity
  8
1
  6
Continuous
100
AcDbCircle
 10
91.67653882999188
 20
130.1693992662791
 30
0.0
 40
0.5
100
AcDbArc
 50
90.0
 51
180.0
  0
ARC
  5
186
330
18
100
AcDbEntity
  8
1
  6
Continuous
100
AcDbCircle
 10
91.67653882999259
 20
125.5193992662795
 30
0.0
 40
0.5
100
AcDbArc
 50
180.0
 51
270.0
  0
LINE
  5
18C
330
18
100
AcDbEntity
  8
1
  6
Continuous
100
AcDbLine
 10
101.6765388298805
 20
129.6693992662789
 30
0.0
 11
99.64256423377561
 21
129.6693992662788
 31
0.0
  0
LINE
  5
18D
330
18
100
AcDbEntity
  8
1
  6
Continuous
100
AcDbLine
 10
99.39256423377551
 20
129.7363865643866
 30
0.0
 11
97.8925642337754
 21
130.6024119681712
 31
0.0
  0
LINE
  5
18E
330
18
100
AcDbEntity
  8
1
  6
Continuous
100
AcDbLine
 10
97.6425642337754
 20
130.6693992662791
 30
0.0
 11
91.67653882999188
 21
130.6693992662791
 31
0.0
  0
LINE
  5
18F
330
18
100
AcDbEntity
  8
3
  6
DASHED
 48
0.25
100
AcDbLine
 10
108.6765388298807
 20
129.91939926628
 30
0.0
 11
103.6765388298805
 21
129.91939926628
 31
0.0
  0
LINE
  5
190
330
18
100
AcDbEntity
  8
3
  6
DASHED
 48
0.25
100
AcDbLine
 10
107.4265388298806
 20
132.0193992662795
 30
0.0
 11
108.6765388298807
 21
129.91939926628
 31
0.0
  0
LINE
  5
191
330
18
100
AcDbEntity
  8
3
  6
DASHED
 48
0.25
100
AcDbLine
 10
107.4265388298806
 20
132.0193992662795
 30
0.0
 11
104.9265388298805
 21
132.0193992662795
 31
0.0
  0
LINE
  5
192
330
18
100
AcDbEntity
  8
3
  6
DASHED
 48
0.25
100
AcDbLine
 10
104.9265388298805
 20
132.0193992662795
 30
0.0
 11
103.6765388298805
 21
129.91939926628
 31
0.0
  0
LINE
  5
194
330
18
100
AcDbEntity
  8
1
  6
Continuous
100
AcDbLine
 10
94.92652076421713
 20
104.6603638070858
 30
0.0
 11
94.92652076421713
 21
105.3492311189031
 31
0.0
  0
LINE
  5
195
330
18
100
AcDbEntity
  8
1
  6
Continuous
100
AcDbLine
 10
94.30275626314871
 20
105.5163683132321
 30
0.0
 11
95.70805613235114
 21
105.1398193481544
 31
0.0
  0
LINE
  5
196
330
18
100
AcDbEntity
  8
1
  6
Continuous
100
AcDbLine
 10
94.92652076421713
 20
105.8527526725696
 30
0.0
 11
94.12699338639823
 21
105.8527526725696
 31
0.0
  0
LINE
  5
197
330
18
100
AcDbEntity
  8
1
  6
Continuous
100
AcDbLine
 10
95.09318542358808
 20
105.6860880131984
 30
0.0
 11
95.8052780902236
 21
105.6860880131984
 31
0.0
  0
ARC
  5
198
330
18
100
AcDbEntity
  8
1
  6
Continuous
100
AcDbCircle
 10
95.09318542358808
 20
105.8527526725693
 30
0.0
 40
0.1666646593710234
100
AcDbArc
 50
90.00000000000005
 51
270.0
  0
LINE
  5
199
330
18
100
AcDbEntity
  8
1
  6
Continuous
100
AcDbLine
 10
95.8651960969729
 20
106.0194173319405
 30
0.0
 11
95.09318542358808
 21
106.0194173319405
 31
0.0
  0
LINE
  5
19A
330
18
100
AcDbEntity
  8
1
  6
Continuous
100
AcDbLine
 10
96.02223171933374
 20
106.3527466506825
 30
0.0
 11
93.9353147800608
 21
106.3527466506825
 31
0.0
  0
LINE
  5
19B
330
18
100
AcDbEntity
  8
1
  6
Continuous
100
AcDbLine
 10
94.92652076421713
 20
106.6860759694246
 30
0.0
 11
94.92652076421713
 21
106.8527406287956
 31
0.0
  0
LINE
  5
19C
330
18
100
AcDbEntity
  8
1
  6
Continuous
100
AcDbLine
 10
93.9854686724154
 20
106.6860759694246
 30
0.0
 11
94.92652076421713
 21
106.6860759694246
 31
0.0
  0
ARC
  5
19D
330
18
100
AcDbEntity
  8
1
  6
Continuous
100
AcDbCircle
 10
93.9854686724154
 20
106.8527406287956
 30
0.0
 40
0.1666646593710226
100
AcDbArc
 50
190.1041827161253
 51
270.0
  0
ARC
  5
19E
330
18
100
AcDbEntity
  8
1
  6
Continuous
100
AcDbCircle
 10
97.726487041653
 20
107.5193992662796
 30
0.0
 40
3.966618893030337
100
AcDbArc
 50
187.7929243354227
 51
190.1041827161253
  0
ARC
  5
19F
330
18
100
AcDbEntity
  8
1
  6
Continuous
100
AcDbCircle
 10
93.82952657748209
 20
106.9860723562924
 30
0.0
 40
0.0333329318742045
100
AcDbArc
 50
90.00000000000005
 51
187.7929243354227
  0
LINE
  5
1A0
330
18
100
AcDbEntity
  8
1
  6
Continuous
100
AcDbLine
 10
96.0235149509576
 20
107.0194052881666
 30
0.0
 11
93.82952657748209
 21
107.0194052881666
 31
0.0
  0
ARC
  5
1A1
330
18
100
AcDbEntity
  8
1
  6
Continuous
100
AcDbCircle
 10
96.0235149509576
 20
106.9860723562924
 30
0.0
 40
0.0333329318742045
100
AcDbArc
 50
352.2070756645772
 51
90.00000000000005
  0
ARC
  5
1A2
330
18
100
AcDbEntity
  8
1
  6
Continuous
100
AcDbCircle
 10
92.12655448678672
 20
107.5193992662796
 30
0.0
 40
3.966618893030337
100
AcDbArc
 50
349.8958172838746
 51
352.2070756645772
  0
ARC
  5
1A3
330
18
100
AcDbEntity
  8
1
  6
Continuous
100
AcDbCircle
 10
95.86757285602431
 20
106.8527406287956
 30
0.0
 40
0.1666646593710226
100
AcDbArc
 50
270.0
 51
349.8958172838746
  0
LINE
  5
1A4
330
18
100
AcDbEntity
  8
1
  6
Continuous
100
AcDbLine
 10
95.32651594670751
 20
106.6860759694246
 30
0.0
 11
95.86757285602431
 21
106.6860759694246
 31
0.0
  0
LINE
  5
1A5
330
18
100
AcDbEntity
  8
1
  6
Continuous
100
AcDbLine
 10
96.08967047472624
 20
107.3527346069086
 30
0.0
 11
93.76337105371352
 21
107.3527346069086
 31
0.0
  0
LINE
  5
1A6
330
18
100
AcDbEntity
  8
1
  6
Continuous
100
AcDbLine
 10
94.92652076421713
 20
107.6860639256507
 30
0.0
 11
94.92652076421713
 21
108.0193932443928
 31
0.0
  0
LINE
  5
1A7
330
18
100
AcDbEntity
  8
1
  6
Continuous
100
AcDbLine
 10
96.08967047472624
 20
107.6860639256507
 30
0.0
 11
93.76337105371352
 21
107.6860639256507
 31
0.0
  0
LINE
  5
1A8
330
18
100
AcDbEntity
  8
1
  6
Continuous
100
AcDbLine
 10
96.06153497776702
 20
108.0193932443928
 30
0.0
 11
93.79150655067272
 21
108.0193932443928
 31
0.0
  0
LINE
  5
1A9
330
18
100
AcDbEntity
  8
1
  6
Continuous
100
AcDbLine
 10
93.88986803093112
 20
108.3527225631348
 30
0.0
 11
94.52652558172664
 21
108.3527225631348
 31
0.0
  0
ARC
  5
1AA
330
18
100
AcDbEntity
  8
1
  6
Continuous
100
AcDbCircle
 10
93.88986803093112
 20
108.3860554950088
 30
0.0
 40
0.0333329318742045
100
AcDbArc
 50
167.271056126877
 51
270.0
  0
ARC
  5
1AB
330
18
100
AcDbEntity
  8
1
  6
Continuous
100
AcDbCircle
 10
97.726487041653
 20
107.5193992662796
 30
0.0
 40
3.966618893030337
100
AcDbArc
 50
164.7937121239421
 51
167.271056126877
  0
ARC
  5
1AC
330
18
100
AcDbEntity
  8
1
  6
Continuous
100
AcDbCircle
 10
97.726487041653
 20
107.5193992662796
 30
0.0
 40
3.966618893030337
100
AcDbArc
 50
164.7424767095431
 51
164.7937121239421
  0
ARC
  5
1AD
330
18
100
AcDbEntity
  8
1
  6
Continuous
100
AcDbCircle
 10
94.06047063889259
 20
108.5193872225058
 30
0.0
 40
0.1666646593710226
100
AcDbArc
 50
90.00000000000005
 51
164.7424767095431
  0
LINE
  5
1AE
330
18
100
AcDbEntity
  8
1
  6
Continuous
100
AcDbLine
 10
95.79257088954701
 20
108.6860518818768
 30
0.0
 11
94.06047063889273
 21
108.6860518818768
 31
0.0
  0
ARC
  5
1AF
330
18
100
AcDbEntity
  8
1
  6
Continuous
100
AcDbCircle
 10
95.79257088954701
 20
108.5193872225058
 30
0.0
 40
0.1666646593710226
100
AcDbArc
 50
15.25752329045683
 51
90.00000000000005
  0
ARC
  5
1B0
330
18
100
AcDbEntity
  8
1
  6
Continuous
100
AcDbCircle
 10
92.12655448678672
 20
107.5193992662796
 30
0.0
 40
3.966618893030337
100
AcDbArc
 50
13.26811897055617
 51
15.25752329045683
  0
ARC
  5
1B1
330
18
100
AcDbEntity
  8
1
  6
Continuous
100
AcDbCircle
 10
92.12655448678672
 20
107.5193992662796
 30
0.0
 40
3.966618893030337
100
AcDbArc
 50
12.72894387312287
 51
13.26811897055617
  0
ARC
  5
1B2
330
18
100
AcDbEntity
  8
1
  6
Continuous
100
AcDbCircle
 10
95.96317349750851
 20
108.3860554950088
 30
0.0
 40
0.0333329318742045
100
AcDbArc
 50
270.0
 51
12.72894387312287
  0
LINE
  5
1B3
330
18
100
AcDbEntity
  8
1
  6
Continuous
100
AcDbLine
 10
95.32651594670751
 20
108.3527225631348
 30
0.0
 11
95.96317349750851
 21
108.3527225631348
 31
0.0
  0
ARC
  5
1B4
330
18
100
AcDbEntity
  8
1
  6
Continuous
100
AcDbCircle
 10
94.31152857783841
 20
109.1860458599898
 30
0.0
 40
0.1666646593710226
100
AcDbArc
 50
90.00000000000005
 51
153.9856340003634
  0
ARC
  5
1B5
330
18
100
AcDbEntity
  8
1
  6
Continuous
100
AcDbCircle
 10
97.726487041653
 20
107.5193992662796
 30
0.0
 40
3.966618893030337
100
AcDbArc
 50
153.9856340003634
 51
157.0560464434622
  0
ARC
  5
1B6
330
18
100
AcDbEntity
  8
1
  6
Continuous
100
AcDbCircle
 10
94.1043766108023
 20
109.0527141324932
 30
0.0
 40
0.0333329318742045
100
AcDbArc
 50
157.0560464434622
 51
270.0
  0
LINE
  5
1B7
330
18
100
AcDbEntity
  8
1
  6
Continuous
100
AcDbLine
 10
95.74866491763732
 20
109.0193812006189
 30
0.0
 11
94.1043766108023
 21
109.0193812006189
 31
0.0
  0
ARC
  5
1B8
330
18
100
AcDbEntity
  8
1
  6
Continuous
100
AcDbCircle
 10
95.74866491763732
 20
109.0527141324932
 30
0.0
 40
0.0333329318742045
100
AcDbArc
 50
270.0
 51
22.94395355653777
  0
ARC
  5
1B9
330
18
100
AcDbEntity
  8
1
  6
Continuous
100
AcDbCircle
 10
92.12655448678672
 20
107.5193992662796
 30
0.0
 40
3.966618893030337
100
AcDbArc
 50
22.94395355653777
 51
26.01436599963643
  0
ARC
  5
1BA
330
18
100
AcDbEntity
  8
1
  6
Continuous
100
AcDbCircle
 10
95.54151295060131
 20
109.1860458599898
 30
0.0
 40
0.1666646593710226
100
AcDbArc
 50
26.01436599963643
 51
90.00000000000005
  0
LINE
  5
1BB
330
18
100
AcDbEntity
  8
1
  6
Continuous
100
AcDbLine
 10
94.31152857783841
 20
109.3527105193609
 30
0.0
 11
95.54151295060131
 21
109.3527105193609
 31
0.0
  0
LINE
  5
1BC
330
18
100
AcDbEntity
  8
1
  6
Continuous
100
AcDbLine
 10
95.84074662727351
 20
109.686039838103
 30
0.0
 11
94.4038775137256
 21
109.686039838103
 31
0.0
  0
ARC
  5
1BD
330
18
100
AcDbEntity
  8
1
  6
Continuous
100
AcDbCircle
 10
94.92652076421713
 20
105.5194233538274
 30
0.0
 40
0.8590595467416477
100
AcDbArc
 50
215.5376777919479
 51
225.698839279617
  0
ARC
  5
1BE
330
18
100
AcDbEntity
  8
1
  6
Continuous
100
AcDbCircle
 10
97.726487041653
 20
107.5193992662796
 30
0.0
 40
4.299948211772383
100
AcDbArc
 50
144.4623222080521
 51
215.5376777919479
  0
ARC
  5
1BF
330
18
100
AcDbEntity
  8
1
  6
Continuous
100
AcDbCircle
 10
94.92652076421713
 20
109.519375178732
 30
0.0
 40
0.859059546741647
100
AcDbArc
 50
90.00000000000005
 51
144.4623222080521
  0
ARC
  5
1C0
330
18
100
AcDbEntity
  8
1
  6
Continuous
100
AcDbCircle
 10
94.92652076421713
 20
105.5194233538274
 30
0.0
 40
0.8590595467416477
100
AcDbArc
 50
242.2496545546283
 51
324.462322207999
  0
ARC
  5
1C1
330
18
100
AcDbEntity
  8
1
  6
Continuous
100
AcDbCircle
 10
92.12655448678672
 20
107.5193992662796
 30
0.0
 40
4.299948211772383
100
AcDbArc
 50
324.462322207999
 51
35.53767779200097
  0
ARC
  5
1C2
330
18
100
AcDbEntity
  8
1
  6
Continuous
100
AcDbCircle
 10
94.92652076421713
 20
109.519375178732
 30
0.0
 40
0.859059546741647
100
AcDbArc
 50
35.53767779200097
 51
76.53743939173326
  0
LINE
  5
1C3
330
18
100
AcDbEntity
  8
3
  6
DASHED
 48
0.25
100
AcDbLine
 10
104.9265388298804
 20
129.41939926628
 30
0.0
 11
104.9265388298804
 21
124.5193992662836
 31
0.0
  0
LINE
  5
1C4
330
18
100
AcDbEntity
  8
3
  6
DASHED
 48
0.25
100
AcDbLine
 10
107.4265388298806
 20
129.4193992662802
 30
0.0
 11
107.4265388298806
 21
124.51939926628
 31
0.0
  0
LINE
  5
1C5
330
18
100
AcDbEntity
  8
3
  6
DASHED
 48
0.25
100
AcDbLine
 10
108.6765388298805
 20
124.5193992662784
 30
0.0
 11
103.6765388298785
 21
124.5193992662853
 31
0.0
  0
LINE
  5
1C6
330
18
100
AcDbEntity
  8
3
  6
DASHED
 48
0.25
100
AcDbLine
 10
108.6765388298805
 20
129.4193992662802
 30
0.0
 11
103.6765388298805
 21
129.41939926628
 31
0.0
  0
LINE
  5
1C7
330
18
100
AcDbEntity
  8
5
  6
PHANTOM
 48
0.1
100
AcDbLine
 10
105.1396356362347
 20
39.75507701701981
 30
0.0
 11
104.7804547838243
 21
39.57903976169701
 31
0.0
  0
ARC
  5
1C8
330
18
100
AcDbEntity
  8
5
  6
PHANTOM
 48
0.1
100
AcDbCircle
 10
95.0662318432469
 20
38.11490963606958
 30
0.0
 40
0.5
100
AcDbArc
 50
201.3918379832058
 51
277.3555945152787
  0
ARC
  5
1C9
330
18
100
AcDbEntity
  8
5
  6
PHANTOM
 48
0.1
100
AcDbCircle
 10
100.177700951168
 20
38.77474564506602
 30
0.0
 40
0.5
100
AcDbArc
 50
277.3555945152787
 51
21.39183798320584
  0
LINE
  5
1CA
330
18
100
AcDbEntity
  8
5
  6
PHANTOM
 48
0.1
100
AcDbLine
 10
95.1302453387924
 20
37.6190242940922
 30
0.0
 11
100.2417144467135
 21
38.27886030308861
 31
0.0
  0
LINE
  5
1CB
330
18
100
AcDbEntity
  8
5
  6
PHANTOM
 48
0.1
100
AcDbLine
 10
100.6432548434668
 20
38.95711771904029
 30
0.0
 11
99.74612583435948
 21
41.24728141012551
 31
0.0
  0
LINE
  5
1CC
330
18
100
AcDbEntity
  8
5
  6
PHANTOM
 48
0.1
100
AcDbLine
 10
94.60067795094849
 20
37.9325375620953
 30
0.0
 11
94.15947912677692
 21
39.0588165224342
 31
0.0
  0
ARC
  5
1CD
330
18
100
AcDbEntity
  8
5
  6
PHANTOM
 48
0.1
100
AcDbCircle
 10
100.6617902048314
 20
40.96158217767789
 30
0.0
 40
0.6
100
AcDbArc
 50
351.1098238776169
 51
111.3918379832058
  0
LINE
  5
1CE
330
18
100
AcDbEntity
  8
5
  6
PHANTOM
 48
0.1
100
AcDbLine
 10
100.4429437160623
 20
41.52024684843619
 30
0.0
 11
91.98287799562663
 21
38.20617353293451
 31
0.0
  0
LINE
  5
1CF
330
18
100
AcDbEntity
  8
5
  6
PHANTOM
 48
0.1
100
AcDbLine
 10
100.2970460568828
 20
41.892689962275
 30
0.0
 11
91.83698033644722
 21
38.57861664677329
 31
0.0
  0
ARC
  5
1D0
330
18
100
AcDbEntity
  8
5
  6
PHANTOM
 48
0.1
100
AcDbCircle
 10
100.6617902048314
 20
40.96158217767789
 30
0.0
 40
1.0
100
AcDbArc
 50
351.1098238776169
 51
111.3918379832058
  0
LINE
  5
1D1
330
18
100
AcDbEntity
  8
5
  6
PHANTOM
 48
0.1
100
AcDbLine
 10
105.5299099791916
 20
38.9587735815904
 30
0.0
 11
105.1396356362347
 21
39.75507701701981
 31
0.0
  0
LINE
  5
1D2
330
18
100
AcDbEntity
  8
5
  6
PHANTOM
 48
0.1
100
AcDbLine
 10
105.1707291267811
 20
38.78273632626761
 30
0.0
 11
104.7804547838242
 21
39.57903976169701
 31
0.0
  0
ARC
  5
1D3
330
18
100
AcDbEntity
  8
5
  6
PHANTOM
 48
0.1
100
AcDbCircle
 10
104.6319578481651
 20
38.51868044328301
 30
0.0
 40
0.6000000000000001
100
AcDbArc
 50
261.1098238776169
 51
26.10982387761785
  0
ARC
  5
1D4
330
18
100
AcDbEntity
  8
5
  6
PHANTOM
 48
0.1
100
AcDbCircle
 10
104.6319578481651
 20
38.5186804432831
 30
0.0
 40
1.0
100
AcDbArc
 50
261.1098238776169
 51
26.10982387761711
  0
ARC
  5
1D5
330
18
100
AcDbEntity
  8
5
  6
PHANTOM
 48
0.1
100
AcDbCircle
 10
101.9643946282759
 20
38.93594111467921
 30
0.0
 40
1.0
100
AcDbArc
 50
171.1098238776169
 51
261.1098238776169
  0
ARC
  5
1D6
330
18
100
AcDbEntity
  8
5
  6
PHANTOM
 48
0.1
100
AcDbCircle
 10
101.9643946282759
 20
38.93594111467911
 30
0.0
 40
0.6000000000000001
100
AcDbArc
 50
171.1098238776169
 51
261.1098238776169
  0
LINE
  5
1D7
330
18
100
AcDbEntity
  8
5
  6
PHANTOM
 48
0.1
100
AcDbLine
 10
101.2545820314733
 20
40.8688575840344
 30
0.0
 11
100.976408250539
 21
39.09048210408511
 31
0.0
  0
LINE
  5
1D8
330
18
100
AcDbEntity
  8
5
  6
PHANTOM
 48
0.1
100
AcDbLine
 10
101.8098536388698
 20
37.94795473694239
 30
0.0
 11
104.4774168587593
 21
37.53069406554632
 31
0.0
  0
LINE
  5
1D9
330
18
100
AcDbEntity
  8
5
  6
PHANTOM
 48
0.1
100
AcDbLine
 10
101.8716700346323
 20
38.34314928803701
 30
0.0
 11
104.5392332545215
 21
37.92588861664089
 31
0.0
  0
LINE
  5
1DA
330
18
100
AcDbEntity
  8
5
  6
PHANTOM
 48
0.1
100
AcDbLine
 10
101.6497765825681
 20
40.80704118827201
 30
0.0
 11
101.3716028016338
 21
39.0286657083227
 31
0.0
  0
CIRCLE
  5
1DB
330
18
100
AcDbEntity
  8
1
  6
Continuous
100
AcDbCircle
 10
106.1765388298898
 20
42.01939926637831
 30
0.0
 40
2.85
  0
LINE
  5
1DC
330
18
100
AcDbEntity
  8
1
  6
Continuous
100
AcDbLine
 10
108.7295871168552
 20
40.75273259971989
 30
0.0
 11
110.2076677040455
 21
40.01939926639139
 31
0.0
  0
LINE
  5
1E5
330
18
100
AcDbEntity
  8
1
  6
Continuous
100
AcDbLine
 10
101.7765388298899
 20
39.91939926637819
 30
0.0
 11
102.1965890814634
 21
39.91939926637819
 31
0.0
  0
ARC
  5
1E6
330
18
100
AcDbEntity
  8
1
  6
Continuous
100
AcDbCircle
 10
101.7765388298899
 20
40.51939926637831
 30
0.0
 40
1.0
100
AcDbArc
 50
180.0
 51
270.0
  0
ARC
  5
1E7
330
18
100
AcDbEntity
  8
1
  6
Continuous
100
AcDbCircle
 10
101.7765388298899
 20
40.51939926637831
 30
0.0
 40
0.6000000000000001
100
AcDbArc
 50
180.0
 51
270.0
  0
LINE
  5
1E8
330
18
100
AcDbEntity
  8
1
  6
Continuous
100
AcDbLine
 10
101.1765388298899
 20
42.3193992664016
 30
0.0
 11
101.1765388298899
 21
40.51939926637831
 31
0.0
  0
LINE
  5
1E9
330
18
100
AcDbEntity
  8
1
  6
Continuous
100
AcDbLine
 10
100.7765388298899
 20
42.3193992664016
 30
0.0
 11
100.7765388298899
 21
40.51939926637831
 31
0.0
  0
ARC
  5
1EA
330
18
100
AcDbEntity
  8
1
  6
Continuous
100
AcDbCircle
 10
100.1765388298899
 20
42.3193992664016
 30
0.0
 40
1.0
100
AcDbArc
 50
0.000000000000007
 51
120.2820141055885
  0
ARC
  5
1EB
330
18
100
AcDbEntity
  8
1
  6
Continuous
100
AcDbCircle
 10
100.1765388298899
 20
42.3193992664016
 30
0.0
 40
0.6
100
AcDbArc
 50
0.000000000000007
 51
120.2820141055885
  0
LINE
  5
1EC
330
18
100
AcDbEntity
  8
1
  6
Continuous
100
AcDbLine
 10
99.88581075023892
 20
39.51939926637832
 30
0.0
 11
100.176100196052
 21
39.6039876757659
 31
0.0
  0
LINE
  5
1ED
330
18
100
AcDbEntity
  8
1
  6
Continuous
100
AcDbLine
 10
100.4679980660221
 20
40.33615121352581
 30
0.0
 11
99.22772266322979
 21
42.46015853841321
 31
0.0
  0
ARC
  5
1EE
330
18
100
AcDbEntity
  8
1
  6
Continuous
100
AcDbCircle
 10
100.0362211230808
 20
40.08402292962201
 30
0.0
 40
0.5
100
AcDbArc
 50
286.2457706376618
 51
30.28201410558859
  0
LINE
  5
1F2
330
18
100
AcDbEntity
  8
1
  6
Continuous
100
AcDbLine
 10
94.19158776893929
 20
39.51939926637832
 30
0.0
 11
99.87398488920531
 21
42.8375315979312
 31
0.0
  0
LINE
  5
1F3
330
18
100
AcDbEntity
  8
1
  6
Continuous
100
AcDbLine
 10
93.3983407880639
 20
39.5193992663784
 30
0.0
 11
99.67228226208231
 21
43.1829531522843
 31
0.0
  0
LINE
  5
1FB
330
18
100
AcDbEntity
  8
1
  6
Continuous
100
AcDbLine
 10
126.176538829854
 20
39.51939926644289
 30
0.0
 11
107.5449320482384
 21
39.51939926638269
 31
0.0
  0
ARC
  5
1FF
330
18
100
AcDbEntity
  8
1
  6
Continuous
100
AcDbCircle
 10
90.50017411070371
 20
38.51939926637832
 30
0.0
 40
2.0
100
AcDbArc
 50
52.63074021479786
 51
90.0
  0
LINE
  5
200
330
18
100
AcDbEntity
  8
1
  6
Continuous
100
AcDbLine
 10
91.71407317993223
 20
40.10888001483859
 30
0.0
 11
92.48593990676059
 21
39.5193992663784
 31
0.0
  0
LINE
  5
201
330
18
100
AcDbEntity
  8
1
  6
Continuous
100
AcDbLine
 10
90.50017411070371
 20
40.51939926637831
 30
0.0
 11
86.17653882988992
 21
40.51939926637831
 31
0.0
  0
LINE
  5
202
330
18
100
AcDbEntity
  8
4
  6
CENTER
 48
0.25
100
AcDbLine
 10
118.6765388298895
 20
41.51939926641867
 30
0.0
 11
118.6765388298896
 21
35.5193992663824
 31
0.0
  0
LINE
  5
203
330
18
100
AcDbEntity
  8
1
  6
Continuous
100
AcDbLine
 10
106.1765388299043
 20
37.5193992663784
 30
0.0
 11
126.1765388298605
 21
37.51939926638481
 31
0.0
  0
LINE
  5
204
330
18
100
AcDbEntity
  8
1
  6
Continuous
100
AcDbLine
 10
126.1765388298977
 20
39.51939926644289
 30
0.0
 11
126.1765388299041
 21
37.51939926644239
 31
0.0
  0
ARC
  5
205
330
18
100
AcDbEntity
  8
1
  6
Continuous
100
AcDbCircle
 10
106.1765388298898
 20
42.01939926637831
 30
0.0
 40
4.499999999999943
100
AcDbArc
 50
333.6122000389433
 51
270.0000000001832
  0
LINE
  5
207
330
18
100
AcDbEntity
  8
1
  6
Continuous
100
AcDbLine
 10
106.1765388298898
 20
37.51939926637831
 30
0.0
 11
86.17653882988992
 21
37.51939926637831
 31
0.0
  0
LINE
  5
208
330
18
100
AcDbEntity
  8
1
  6
Continuous
100
AcDbLine
 10
100.6765388297708
 20
39.51939926637832
 30
0.0
 11
100.6765388297681
 21
37.51939926643039
 31
0.0
  0
LINE
  5
209
330
18
100
AcDbEntity
  8
4
  6
CENTER
 48
0.25
100
AcDbLine
 10
93.67653882988987
 20
41.51939926637831
 30
0.0
 11
93.67653882988998
 21
35.51939926637832
 31
0.0
  0
LINE
  5
20A
330
18
100
AcDbEntity
  8
1
  6
Continuous
100
AcDbLine
 10
102.4348814431158
 20
39.51939926637832
 30
0.0
 11
86.17653882988992
 21
39.51939926637832
 31
0.0
  0
LINE
  5
20B
330
18
100
AcDbEntity
  8
4
  6
CENTER
 48
0.25
100
AcDbLine
 10
106.1765388298898
 20
49.51939926637826
 30
0.0
 11
106.1765388298897
 21
34.51939926637831
 31
0.0
  0
LINE
  5
20C
330
18
100
AcDbEntity
  8
4
  6
CENTER
 48
0.25
100
AcDbLine
 10
98.67653882988987
 20
42.01939926637831
 30
0.0
 11
113.6765388298897
 21
42.01939926637831
 31
0.0
  0
LINE
  5
20D
330
18
100
AcDbEntity
  8
1
  6
Continuous
100
AcDbLine
 10
86.17653882988992
 20
40.51939926637831
 30
0.0
 11
86.17653882988992
 21
37.51939926637831
 31
0.0
  0
ARC
  5
20E
330
18
100
AcDbEntity
  8
1
  6
Continuous
100
AcDbCircle
 10
91.1765388299927
 20
130.5193992662794
 30
0.0
 40
1.0
100
AcDbArc
 50
8.626926558662507
 51
90.0
  0
LINE
  5
20F
330
18
100
AcDbEntity
  8
1
  6
Continuous
100
AcDbLine
 10
91.1765388299926
 20
131.5193992662794
 30
0.0
 11
86.4444880223117
 21
131.5193992662792
 31
0.0
  0
ARC
  5
210
330
18
100
AcDbEntity
  8
1
  6
Continuous
100
AcDbCircle
 10
91.1765388299927
 20
125.0193992662795
 30
0.0
 40
1.0
100
AcDbArc
 50
270.0
 51
0.000000000000007
  0
LINE
  5
211
330
18
100
AcDbEntity
  8
1
  6
Continuous
100
AcDbLine
 10
91.1765388299927
 20
124.0193992662795
 30
0.0
 11
86.17653882988429
 21
124.0193992662796
 31
0.0
  0
CIRCLE
  5
212
330
18
100
AcDbEntity
  8
1
  6
Continuous
100
AcDbCircle
 10
118.6765388298806
 20
94.5193992662795
 30
0.0
 40
1.6
  0
CIRCLE
  5
213
330
18
100
AcDbEntity
  8
1
  6
Continuous
100
AcDbCircle
 10
118.6765388298807
 20
120.5193992662795
 30
0.0
 40
1.6
  0
LINE
  5
214
330
18
100
AcDbEntity
  8
4
  6
CENTER
 48
0.2
100
AcDbLine
 10
118.6765388298806
 20
99.76939926627951
 30
0.0
 11
118.6765388298806
 21
89.2693992662795
 31
0.0
  0
LINE
  5
215
330
18
100
AcDbEntity
  8
4
  6
CENTER
 48
0.2
100
AcDbLine
 10
113.4265388298806
 20
94.5193992662795
 30
0.0
 11
123.9265388298806
 21
94.5193992662795
 31
0.0
  0
CIRCLE
  5
216
330
18
100
AcDbEntity
  8
1
  6
Continuous
100
AcDbCircle
 10
118.6765388298806
 20
94.5193992662795
 30
0.0
 40
3.25
  0
CIRCLE
  5
219
330
18
100
AcDbEntity
  8
1
  6
Continuous
100
AcDbCircle
 10
118.6765388298807
 20
120.5193992662795
 30
0.0
 40
3.25
  0
CIRCLE
  5
21A
330
18
100
AcDbEntity
  8
1
  6
Continuous
100
AcDbCircle
 10
93.67653882988053
 20
94.5193992662795
 30
0.0
 40
1.6
  0
CIRCLE
  5
21B
330
18
100
AcDbEntity
  8
1
  6
Continuous
100
AcDbCircle
 10
93.67653882988053
 20
120.5193992662795
 30
0.0
 40
1.6
  0
CIRCLE
  5
21E
330
18
100
AcDbEntity
  8
1
  6
Continuous
100
AcDbCircle
 10
93.67653882988053
 20
94.5193992662795
 30
0.0
 40
3.25
  0
CIRCLE
  5
221
330
18
100
AcDbEntity
  8
1
  6
Continuous
100
AcDbCircle
 10
93.67653882988053
 20
120.5193992662795
 30
0.0
 40
3.25
  0
ARC
  5
222
330
18
100
AcDbEntity
  8
1
  6
Continuous
100
AcDbCircle
 10
104.9301102584512
 20
81.51939926627958
 30
0.0
 40
1.60357142857066
100
AcDbArc
 50
141.4199075616043
 51
180.0
  0
ARC
  5
223
330
18
100
AcDbEntity
  8
1
  6
Continuous
100
AcDbCircle
 10
107.4229674013098
 20
81.51939926627958
 30
0.0
 40
1.60357142857066
100
AcDbArc
 50
0.000000000000007
 51
38.58009243839566
  0
LINE
  5
224
330
18
100
AcDbEntity
  8
1
  6
Continuous
100
AcDbLine
 10
93.84569672080328
 20
129.4193992662796
 30
0.0
 11
93.84569672080342
 21
129.0193992662798
 31
0.0
  0
LINE
  5
225
330
18
100
AcDbEntity
  8
1
  6
Continuous
100
AcDbLine
 10
99.02702003610023
 20
129.4193992662795
 30
0.0
 11
99.02702003610031
 21
129.0193992662796
 31
0.0
  0
LINE
  5
226
330
18
100
AcDbEntity
  8
1
  6
Continuous
100
AcDbLine
 10
100.5372211230709
 20
129.4193992662796
 30
0.0
 11
100.5372211230708
 21
129.0193992662798
 31
0.0
  0
LINE
  5
227
330
18
100
AcDbEntity
  8
1
  6
Continuous
100
AcDbLine
 10
100.5372211230709
 20
129.4193992662796
 30
0.0
 11
93.84569672080322
 21
129.4193992662796
 31
0.0
  0
LINE
  5
228
330
18
100
AcDbEntity
  8
1
  6
Continuous
100
AcDbLine
 10
103.3265388298806
 20
81.51939926627951
 30
0.0
 11
109.0265388298806
 21
81.51939926627951
 31
0.0
  0
LINE
  5
22F
330
18
100
AcDbEntity
  8
4
  6
CENTER
 48
0.25
100
AcDbLine
 10
106.1765388298806
 20
78.51939926627953
 30
0.0
 11
106.1765388298806
 21
135.5193992662794
 31
0.0
  0
ARC
  5
230
330
18
100
AcDbEntity
  8
1
  6
Continuous
100
AcDbCircle
 10
110.1765388298806
 20
107.5193992662795
 30
0.0
 40
0.4999999999999716
100
AcDbArc
 50
270.0
 51
90.0
  0
ARC
  5
231
330
18
100
AcDbEntity
  8
1
  6
Continuous
100
AcDbCircle
 10
102.1765388298806
 20
107.5193992662796
 30
0.0
 40
0.4999999999999716
100
AcDbArc
 50
90.0
 51
270.0
  0
LINE
  5
232
330
18
100
AcDbEntity
  8
1
  6
Continuous
100
AcDbLine
 10
110.6765388298805
 20
108.0193992662795
 30
0.0
 11
101.6765388298805
 21
108.0193992662795
 31
0.0
  0
ARC
  5
233
330
18
100
AcDbEntity
  8
1
  6
Continuous
100
AcDbCircle
 10
101.6765388298805
 20
107.0193992662795
 30
0.0
 40
1.0
100
AcDbArc
 50
90.0
 51
180.0
  0
LINE
  5
235
330
18
100
AcDbEntity
  8
1
  6
Continuous
100
AcDbLine
 10
101.6765388298805
 20
125.0193992662784
 30
0.0
 11
91.67653882999259
 21
125.0193992662795
 31
0.0
  0
LINE
  5
23C
330
18
100
AcDbEntity
  8
1
  6
Continuous
100
AcDbLine
 10
93.84569672080322
 20
129.0193992662786
 30
0.0
 11
91.17653882999212
 21
129.0193992662786
 31
0.0
  0
LINE
  5
23D
330
18
100
AcDbEntity
  8
1
  6
Continuous
100
AcDbLine
 10
101.6765388298805
 20
129.0193992662786
 30
0.0
 11
99.02702003610031
 21
129.0193992662786
 31
0.0
  0
LINE
  5
241
330
18
100
AcDbEntity
  8
1
  6
Continuous
100
AcDbLine
 10
101.1765388298804
 20
125.0193992662786
 30
0.0
 11
101.1765388298803
 21
129.0193992662786
 31
0.0
  0
LINE
  5
242
330
18
100
AcDbEntity
  8
1
  6
Continuous
100
AcDbLine
 10
91.67653882988041
 20
125.0193992662784
 30
0.0
 11
91.67653882988032
 21
129.0193992662786
 31
0.0
  0
LINE
  5
244
330
18
100
AcDbEntity
  8
1
  6
Continuous
100
AcDbLine
 10
91.1765388299926
 20
125.5193992662794
 30
0.0
 11
91.1765388299919
 21
130.1693992662791
 31
0.0
  0
ARC
  5
245
330
18
100
AcDbEntity
  8
1
  6
Continuous
100
AcDbCircle
 10
110.6765388298805
 20
108.0193992662795
 30
0.0
 40
1.0
100
AcDbArc
 50
270.0
 51
0.000000000000007
  0
ARC
  5
246
330
18
100
AcDbEntity
  8
1
  6
Continuous
100
AcDbCircle
 10
112.6765388298806
 20
131.5193992662796
 30
0.0
 40
1.0
100
AcDbArc
 50
90.0
 51
180.0
  0
ARC
  5
247
330
18
100
AcDbEntity
  8
1
  6
Continuous
100
AcDbCircle
 10
99.67653882988059
 20
83.51939926627961
 30
0.0
 40
1.0
100
AcDbArc
 50
270.0
 51
0.000000000000007
  0
ARC
  5
248
330
18
100
AcDbEntity
  8
1
  6
Continuous
100
AcDbCircle
 10
124.1765388298806
 20
130.5193992662795
 30
0.0
 40
2.0
100
AcDbArc
 50
0.000000000000007
 51
90.0
  0
ARC
  5
249
330
18
100
AcDbEntity
  8
1
  6
Continuous
100
AcDbCircle
 10
124.1765388298806
 20
84.51939926627952
 30
0.0
 40
2.0
100
AcDbArc
 50
270.0
 51
0.000000000000007
  0
ARC
  5
24A
330
18
100
AcDbEntity
  8
1
  6
Continuous
100
AcDbCircle
 10
88.17653882988061
 20
84.51939926627952
 30
0.0
 40
2.0
100
AcDbArc
 50
180.0
 51
270.0
  0
ARC
  5
24B
330
18
100
AcDbEntity
  8
1
  6
Continuous
100
AcDbCircle
 10
88.17653882988061
 20
130.5193992662795
 30
0.0
 40
2.0
100
AcDbArc
 50
90.0
 51
180.0
  0
LINE
  5
24C
330
18
100
AcDbEntity
  8
3
  6
DASHED
 48
0.25
100
AcDbLine
 10
103.6765388298805
 20
132.5193992662796
 30
0.0
 11
103.6765388298805
 21
82.51939926627953
 31
0.0
  0
LINE
  5
24D
330
18
100
AcDbEntity
  8
3
  6
DASHED
 48
0.25
100
AcDbLine
 10
108.6765388298805
 20
132.5193992662796
 30
0.0
 11
108.6765388298805
 21
82.51939926627953
 31
0.0
  0
LINE
  5
24E
330
18
100
AcDbEntity
  8
1
  6
Continuous
100
AcDbLine
 10
110.6765388298805
 20
107.0193992662795
 30
0.0
 11
110.6765388298805
 21
82.51939926627953
 31
0.0
  0
LINE
  5
24F
330
18
100
AcDbEntity
  8
1
  6
Continuous
100
AcDbLine
 10
101.6765388298805
 20
107.0193992662795
 30
0.0
 11
101.6765388298805
 21
82.51939926627953
 31
0.0
  0
LINE
  5
250
330
18
100
AcDbEntity
  8
1
  6
Continuous
100
AcDbLine
 10
110.6765388298805
 20
132.5193992662795
 30
0.0
 11
88.17653882988061
 21
132.5193992662795
 31
0.0
  0
LINE
  5
251
330
18
100
AcDbEntity
  8
1
  6
Continuous
100
AcDbLine
 10
99.67653882988059
 20
82.51939926627953
 30
0.0
 11
88.17653882988061
 21
82.51939926627953
 31
0.0
  0
LINE
  5
252
330
18
100
AcDbEntity
  8
1
  6
Continuous
100
AcDbLine
 10
100.6765388298805
 20
107.0193992662795
 30
0.0
 11
100.6765388298805
 21
83.51939926627961
 31
0.0
  0
LINE
  5
253
330
18
100
AcDbEntity
  8
1
  6
Continuous
100
AcDbLine
 10
111.6765388298806
 20
131.5193992662796
 30
0.0
 11
111.6765388298806
 21
108.0193992662795
 31
0.0
  0
LINE
  5
254
330
18
100
AcDbEntity
  8
1
  6
Continuous
100
AcDbLine
 10
110.6765388298805
 20
132.5193992662795
 30
0.0
 11
110.6765388298805
 21
108.0193992662795
 31
0.0
  0
LINE
  5
255
330
18
100
AcDbEntity
  8
1
  6
Continuous
100
AcDbLine
 10
101.6765388298805
 20
132.5193992662795
 30
0.0
 11
101.6765388298805
 21
108.0193992662795
 31
0.0
  0
LINE
  5
256
330
18
100
AcDbEntity
  8
1
  6
Continuous
100
AcDbLine
 10
110.6765388298805
 20
107.0193992662795
 30
0.0
 11
101.6765388298805
 21
107.0193992662795
 31
0.0
  0
LINE
  5
257
330
18
100
AcDbEntity
  8
1
  6
Continuous
100
AcDbLine
 10
124.1765388298806
 20
82.51939926627953
 30
0.0
 11
101.6765388298805
 21
82.51939926627953
 31
0.0
  0
LINE
  5
258
330
18
100
AcDbEntity
  8
1
  6
Continuous
100
AcDbLine
 10
124.1765388298806
 20
132.5193992662795
 30
0.0
 11
112.6765388298806
 21
132.5193992662795
 31
0.0
  0
LINE
  5
259
330
18
100
AcDbEntity
  8
1
  6
Continuous
100
AcDbLine
 10
126.1765388298806
 20
130.5193992662795
 30
0.0
 11
126.1765388298806
 21
84.51939926627952
 31
0.0
  0
LINE
  5
25A
330
18
100
AcDbEntity
  8
1
  6
Continuous
100
AcDbLine
 10
86.17653882988062
 20
130.5193992662795
 30
0.0
 11
86.17653882988062
 21
84.51939926627952
 31
0.0
  0
LINE
  5
2B6
330
18
100
AcDbEntity
  8
1
  6
Continuous
100
AcDbLine
 10
92.67653882988062
 20
107.5253569582012
 30
0.0
 11
92.67653882988062
 21
108.2753569582012
 31
0.0
  0
ARC
  5
2B7
330
18
100
AcDbEntity
  8
1
  6
Continuous
100
AcDbCircle
 10
91.55153882988065
 20
107.9003569582012
 30
0.0
 40
0.375
100
AcDbArc
 50
180.0
 51
0.0
  0
LINE
  5
2B8
330
18
100
AcDbEntity
  8
1
  6
Continuous
100
AcDbLine
 10
92.0765388298806
 20
103.1014951627061
 30
0.0
 11
91.17653882988063
 21
103.7764951627061
 31
0.0
  0
LINE
  5
2B9
330
18
100
AcDbEntity
  8
1
  6
Continuous
100
AcDbLine
 10
91.17653882988063
 20
103.026495162706
 30
0.0
 11
91.17653882988063
 21
103.7764951627061
 31
0.0
  0
LINE
  5
2BA
330
18
100
AcDbEntity
  8
1
  6
Continuous
100
AcDbLine
 10
92.67653882988062
 20
109.1368643928254
 30
0.0
 11
92.28409604626991
 21
109.3198634682107
 31
0.0
  0
LINE
  5
2BB
330
18
100
AcDbEntity
  8
1
  6
Continuous
100
AcDbLine
 10
92.67653882988062
 20
109.1368643928254
 30
0.0
 11
91.17653882988063
 21
109.1368643928254
 31
0.0
  0
ARC
  5
2BC
330
18
100
AcDbEntity
  8
1
  6
Continuous
100
AcDbCircle
 10
92.3015388298806
 20
103.4014951627061
 30
0.0
 40
0.3750000000000003
100
AcDbArc
 50
233.1301023541559
 51
90.00000000000005
  0
LINE
  5
2C1
330
18
100
AcDbEntity
  8
1
  6
Continuous
100
AcDbLine
 10
91.92653882988064
 20
107.9003569582012
 30
0.0
 11
91.92653882988064
 21
108.2753569582012
 31
0.0
  0
LINE
  5
2C2
330
18
100
AcDbEntity
  8
1
  6
Continuous
100
AcDbLine
 10
91.17653882988063
 20
107.9003569582012
 30
0.0
 11
91.17653882988063
 21
108.2753569582012
 31
0.0
  0
LINE
  5
2C5
330
18
100
AcDbEntity
  8
1
  6
Continuous
100
AcDbLine
 10
92.67653882988062
 20
108.2753569582012
 30
0.0
 11
91.92653882988064
 21
108.2753569582012
 31
0.0
  0
LINE
  5
2CC
330
18
100
AcDbEntity
  8
1
  6
Continuous
100
AcDbLine
 10
91.17653882988063
 20
106.5283757241173
 30
0.0
 11
92.17653882988065
 21
106.174822333524
 31
0.0
  0
CIRCLE
  5
2CD
330
18
100
AcDbEntity
  8
1
  6
Continuous
100
AcDbCircle
 10
92.3015388298806
 20
106.5283757241173
 30
0.0
 40
0.3749999999999998
  0
LINE
  5
2E3
330
18
100
AcDbEntity
  8
1
  6
Continuous
100
AcDbLine
 10
91.92653882988064
 20
109.9816967620881
 30
0.0
 11
91.92653882988064
 21
110.6860356704371
 31
0.0
  0
LINE
  5
2F0
330
18
100
AcDbEntity
  8
1
  6
Continuous
100
AcDbLine
 10
92.67653882988062
 20
112.5860664415725
 30
0.0
 11
92.67653882988062
 21
113.4860664415725
 31
0.0
  0
LINE
  5
2F2
330
18
100
AcDbEntity
  8
1
  6
Continuous
100
AcDbLine
 10
92.67653882988062
 20
113.0360664415725
 30
0.0
 11
91.17653882988063
 21
113.0360664415725
 31
0.0
  0
LINE
  5
2F3
330
18
100
AcDbEntity
  8
1
  6
Continuous
100
AcDbLine
 10
91.92653882988064
 20
112.1647225078734
 30
0.0
 11
91.92653882988064
 21
111.3022225078734
 31
0.0
  0
LINE
  5
2F4
330
18
100
AcDbEntity
  8
1
  6
Continuous
100
AcDbLine
 10
92.67653882988062
 20
112.1647225078734
 30
0.0
 11
91.17653882988063
 21
112.1647225078734
 31
0.0
  0
LINE
  5
2F5
330
18
100
AcDbEntity
  8
1
  6
Continuous
100
AcDbLine
 10
92.67653882988062
 20
111.3022225078734
 30
0.0
 11
91.17653882988063
 21
111.3022225078734
 31
0.0
  0
LINE
  5
2FF
330
18
100
AcDbEntity
  8
1
  6
Continuous
100
AcDbLine
 10
91.92653882988064
 20
104.589752951762
 30
0.0
 11
91.92653882988064
 21
105.2940918601111
 31
0.0
  0
LINE
  5
302
330
18
100
AcDbEntity
  8
1
  6
Continuous
100
AcDbLine
 10
92.67653882988062
 20
102.1771810175632
 30
0.0
 11
91.17653882988063
 21
102.1771810175632
 31
0.0
  0
ARC
  5
303
330
18
100
AcDbEntity
  8
1
  6
Continuous
100
AcDbCircle
 10
92.3015388298806
 20
101.7271810175639
 30
0.0
 40
0.375
100
AcDbArc
 50
179.9999999999641
 51
359.9999999999625
  0
LINE
  5
304
330
18
100
AcDbEntity
  8
1
  6
Continuous
100
AcDbLine
 10
91.92653882988064
 20
102.1771810175632
 30
0.0
 11
91.92653882988064
 21
101.7271810175639
 31
0.0
  0
LINE
  5
305
330
18
100
AcDbEntity
  8
1
  6
Continuous
100
AcDbLine
 10
91.92653882988064
 20
101.9521810175635
 30
0.0
 11
91.17653882988063
 21
101.3521810175639
 31
0.0
  0
LINE
  5
306
330
18
100
AcDbEntity
  8
1
  6
Continuous
100
AcDbLine
 10
92.67653882988062
 20
102.1771810175632
 30
0.0
 11
92.67653882988062
 21
101.7271810175639
 31
0.0
  0
LINE
  5
30A
330
18
100
AcDbEntity
  8
4
  6
CENTER
 48
0.2
100
AcDbLine
 10
88.4265388298805
 20
94.5193992662795
 30
0.0
 11
98.92653882988053
 21
94.5193992662795
 31
0.0
  0
LINE
  5
30B
330
18
100
AcDbEntity
  8
4
  6
CENTER
 48
0.2
100
AcDbLine
 10
93.67653882988053
 20
99.76939926627951
 30
0.0
 11
93.67653882988053
 21
89.2693992662795
 31
0.0
  0
LINE
  5
30C
330
18
100
AcDbEntity
  8
4
  6
CENTER
 48
0.2
100
AcDbLine
 10
88.4265388298805
 20
120.5193992662795
 30
0.0
 11
98.92653882988053
 21
120.5193992662795
 31
0.0
  0
LINE
  5
30D
330
18
100
AcDbEntity
  8
4
  6
CENTER
 48
0.2
100
AcDbLine
 10
93.67653882988053
 20
125.7693992662795
 30
0.0
 11
93.67653882988053
 21
115.2693992662795
 31
0.0
  0
LINE
  5
30E
330
18
100
AcDbEntity
  8
4
  6
CENTER
 48
0.2
100
AcDbLine
 10
113.4265388298807
 20
120.5193992662795
 30
0.0
 11
123.9265388298807
 21
120.5193992662795
 31
0.0
  0
LINE
  5
30F
330
18
100
AcDbEntity
  8
4
  6
CENTER
 48
0.2
100
AcDbLine
 10
118.6765388298807
 20
125.7693992662795
 30
0.0
 11
118.6765388298807
 21
115.2693992662795
 31
0.0
  0
LINE
  5
4F2
330
18
100
AcDbEntity
  8
4
  6
CENTER
 48
0.25
100
AcDbLine
 10
118.6765388298895
 20
173.5193992661403
 30
0.0
 11
118.6765388298896
 21
179.5193992661766
 31
0.0
  0
LINE
  5
4F3
330
18
100
AcDbEntity
  8
4
  6
CENTER
 48
0.25
100
AcDbLine
 10
93.67653882988987
 20
173.5193992661807
 30
0.0
 11
93.67653882988998
 21
179.5193992661807
 31
0.0
  0
LINE
  5
4F4
330
18
100
AcDbEntity
  8
4
  6
CENTER
 48
0.25
100
AcDbLine
 10
106.1765388298897
 20
165.5193992661807
 30
0.0
 11
106.1765388298897
 21
180.5193992661807
 31
0.0
  0
LINE
  5
4F6
330
18
100
AcDbEntity
  8
1
  6
Continuous
100
AcDbLine
 10
106.1765388299042
 20
177.5193992661806
 30
0.0
 11
126.1765388298605
 21
177.5193992661742
 31
0.0
  0
LINE
  5
4F7
330
18
100
AcDbEntity
  8
1
  6
Continuous
100
AcDbLine
 10
86.17653882992561
 20
175.5193992661161
 30
0.0
 11
106.1765388298897
 21
175.5193992661807
 31
0.0
  0
LINE
  5
4F8
330
18
100
AcDbEntity
  8
1
  6
Continuous
100
AcDbLine
 10
126.1765388298977
 20
175.5193992661161
 30
0.0
 11
126.1765388299041
 21
177.5193992661166
 31
0.0
  0
LINE
  5
4F9
330
18
100
AcDbEntity
  8
5
  6
PHANTOM
 48
0.1
100
AcDbLine
 10
100.2970460568828
 20
173.146108570284
 30
0.0
 11
91.83698033644722
 21
176.4601818857857
 31
0.0
  0
LINE
  5
4FA
330
18
100
AcDbEntity
  8
5
  6
PHANTOM
 48
0.1
100
AcDbLine
 10
100.4429437160623
 20
173.5185516841228
 30
0.0
 11
99.74612583435948
 21
173.7915171224335
 31
0.0
  0
LINE
  5
4FB
330
18
100
AcDbEntity
  8
5
  6
PHANTOM
 48
0.1
100
AcDbLine
 10
95.1302453387924
 20
177.4197742384668
 30
0.0
 11
100.2417144467135
 21
176.7599382294704
 31
0.0
  0
LINE
  5
4FC
330
18
100
AcDbEntity
  8
4
  6
CENTER
 48
0.25
100
AcDbLine
 10
98.67653882988987
 20
173.0193992661807
 30
0.0
 11
113.6765388298897
 21
173.0193992661807
 31
0.0
  0
LINE
  5
4FD
330
18
100
AcDbEntity
  8
1
  6
Continuous
100
AcDbLine
 10
109.9181962166637
 20
175.5193992661807
 30
0.0
 11
126.1765388298897
 21
175.5193992661807
 31
0.0
  0
LINE
  5
4FE
330
18
100
AcDbEntity
  8
1
  6
Continuous
100
AcDbLine
 10
106.1765388298897
 20
177.5193992661807
 30
0.0
 11
86.17653882988992
 21
177.5193992661807
 31
0.0
  0
LINE
  5
4FF
330
18
100
AcDbEntity
  8
1
  6
Continuous
100
AcDbLine
 10
93.3983407880639
 20
175.5193992661806
 30
0.0
 11
99.67228226208231
 21
171.8558453802747
 31
0.0
  0
LINE
  5
500
330
18
100
AcDbEntity
  8
1
  6
Continuous
100
AcDbLine
 10
99.22772266322979
 20
172.5786399941457
 30
0.0
 11
99.87398488920531
 21
172.2012669346278
 31
0.0
  0
ARC
  5
501
330
18
100
AcDbEntity
  8
1
  6
Continuous
100
AcDbCircle
 10
106.1765388298897
 20
173.0193992661807
 30
0.0
 40
4.499999999999943
100
AcDbArc
 50
153.6122000389434
 51
90.00000000018317
  0
CIRCLE
  5
502
330
18
100
AcDbEntity
  8
1
  6
Continuous
100
AcDbCircle
 10
106.1765388298897
 20
173.0193992661807
 30
0.0
 40
2.500000000000028
  0
LINE
  5
503
330
18
100
AcDbEntity
  8
1
  6
Continuous
100
AcDbLine
 10
103.9370227886921
 20
174.1305103772845
 30
0.0
 11
102.145409955734
 21
175.0193992661676
 31
0.0
  0
LINE
  5
504
330
18
100
AcDbEntity
  8
5
  6
PHANTOM
 48
0.1
100
AcDbLine
 10
101.6497765825681
 20
174.231757344287
 30
0.0
 11
101.3716028016338
 21
176.0101328242363
 31
0.0
  0
LINE
  5
505
330
18
100
AcDbEntity
  8
5
  6
PHANTOM
 48
0.1
100
AcDbLine
 10
101.8716700346323
 20
176.695649244522
 30
0.0
 11
104.5392332545215
 21
177.1129099159181
 31
0.0
  0
LINE
  5
506
330
18
100
AcDbEntity
  8
5
  6
PHANTOM
 48
0.1
100
AcDbLine
 10
101.8098536388698
 20
177.0908437956166
 30
0.0
 11
104.4774168587593
 21
177.5081044670127
 31
0.0
  0
LINE
  5
507
330
18
100
AcDbEntity
  8
5
  6
PHANTOM
 48
0.1
100
AcDbLine
 10
101.2545820314733
 20
174.1699409485246
 30
0.0
 11
100.976408250539
 21
175.9483164284739
 31
0.0
  0
ARC
  5
508
330
18
100
AcDbEntity
  8
5
  6
PHANTOM
 48
0.1
100
AcDbCircle
 10
101.9643946282759
 20
176.1028574178799
 30
0.0
 40
0.6000000000000001
100
AcDbArc
 50
98.89017612238305
 51
188.890176122383
  0
ARC
  5
509
330
18
100
AcDbEntity
  8
5
  6
PHANTOM
 48
0.1
100
AcDbCircle
 10
101.9643946282759
 20
176.1028574178798
 30
0.0
 40
1.0
100
AcDbArc
 50
98.89017612238305
 51
188.890176122383
  0
ARC
  5
50A
330
18
100
AcDbEntity
  8
5
  6
PHANTOM
 48
0.1
100
AcDbCircle
 10
104.6319578481651
 20
176.5201180892758
 30
0.0
 40
1.0
100
AcDbArc
 50
333.8901761223829
 51
98.89017612238305
  0
ARC
  5
50B
330
18
100
AcDbEntity
  8
5
  6
PHANTOM
 48
0.1
100
AcDbCircle
 10
104.6319578481651
 20
176.520118089276
 30
0.0
 40
0.6000000000000001
100
AcDbArc
 50
333.8901761223821
 51
98.89017612238305
  0
LINE
  5
50C
330
18
100
AcDbEntity
  8
5
  6
PHANTOM
 48
0.1
100
AcDbLine
 10
105.1707291267811
 20
176.2560622062914
 30
0.0
 11
104.7804547838242
 21
175.459758770862
 31
0.0
  0
LINE
  5
50D
330
18
100
AcDbEntity
  8
5
  6
PHANTOM
 48
0.1
100
AcDbLine
 10
105.5299099791916
 20
176.0800249509685
 30
0.0
 11
105.1396356362347
 21
175.2837215155391
 31
0.0
  0
ARC
  5
50E
330
18
100
AcDbEntity
  8
5
  6
PHANTOM
 48
0.1
100
AcDbCircle
 10
100.6617902048314
 20
174.0772163548811
 30
0.0
 40
1.0
100
AcDbArc
 50
248.6081620167941
 51
8.89017612238306
  0
ARC
  5
50F
330
18
100
AcDbEntity
  8
5
  6
PHANTOM
 48
0.1
100
AcDbCircle
 10
100.6617902048314
 20
174.0772163548811
 30
0.0
 40
0.6
100
AcDbArc
 50
248.6081620167941
 51
8.89017612238306
  0
LINE
  5
510
330
18
100
AcDbEntity
  8
5
  6
PHANTOM
 48
0.1
100
AcDbLine
 10
100.6432548434668
 20
176.0816808135187
 30
0.0
 11
99.60022817518005
 21
173.4190740085946
 31
0.0
  0
ARC
  5
511
330
18
100
AcDbEntity
  8
5
  6
PHANTOM
 48
0.1
100
AcDbCircle
 10
100.177700951168
 20
176.264052887493
 30
0.0
 40
0.5
100
AcDbArc
 50
338.6081620167942
 51
82.64440548472128
  0
LINE
  5
512
330
18
100
AcDbEntity
  8
5
  6
PHANTOM
 48
0.1
100
AcDbLine
 10
105.1396356362347
 20
175.2837215155391
 30
0.0
 11
104.7804547838243
 21
175.459758770862
 31
0.0
  0
ARC
  5
514
330
18
100
AcDbEntity
  8
1
  6
Continuous
100
AcDbCircle
 10
104.4765388298898
 20
174.5193992661807
 30
0.0
 40
0.6000000000000001
100
AcDbArc
 50
64.57861881840286
 51
89.99999999999998
  0
ARC
  5
515
330
18
100
AcDbEntity
  8
1
  6
Continuous
100
AcDbCircle
 10
104.47653882989
 20
174.5193992661807
 30
0.0
 40
1.0
100
AcDbArc
 50
49.96643542123649
 51
89.99999999999998
  0
LINE
  5
51A
330
18
100
AcDbEntity
  8
1
  6
Continuous
100
AcDbLine
 10
111.6765388300088
 20
175.5193992661807
 30
0.0
 11
111.6765388300115
 21
177.5193992661286
 31
0.0
  0
ARC
  5
51B
330
18
100
AcDbEntity
  8
1
  6
Continuous
100
AcDbCircle
 10
100.0362211230808
 20
174.954775602937
 30
0.0
 40
0.5
100
AcDbArc
 50
329.7179858944114
 51
73.75422936233807
  0
LINE
  5
51C
330
18
100
AcDbEntity
  8
1
  6
Continuous
100
AcDbLine
 10
100.4679980660221
 20
174.7026473190332
 30
0.0
 11
99.0260200361067
 21
172.2332184397926
 31
0.0
  0
LINE
  5
51D
330
18
100
AcDbEntity
  8
1
  6
Continuous
100
AcDbLine
 10
99.88581075023892
 20
175.5193992661807
 30
0.0
 11
100.176100196052
 21
175.4348108567931
 31
0.0
  0
ARC
  5
51E
330
18
100
AcDbEntity
  8
1
  6
Continuous
100
AcDbCircle
 10
100.1765388298899
 20
172.7193992661574
 30
0.0
 40
0.6
100
AcDbArc
 50
239.7179858944114
 51
0.000000000000007
  0
ARC
  5
51F
330
18
100
AcDbEntity
  8
1
  6
Continuous
100
AcDbCircle
 10
100.1765388298899
 20
172.7193992661574
 30
0.0
 40
1.0
100
AcDbArc
 50
239.7179858944114
 51
0.000000000000007
  0
LINE
  5
520
330
18
100
AcDbEntity
  8
1
  6
Continuous
100
AcDbLine
 10
100.7765388298899
 20
172.7193992661574
 30
0.0
 11
100.7765388298899
 21
174.5193992661807
 31
0.0
  0
LINE
  5
521
330
18
100
AcDbEntity
  8
1
  6
Continuous
100
AcDbLine
 10
101.1765388298899
 20
172.7193992661574
 30
0.0
 11
101.1765388298899
 21
174.5193992661807
 31
0.0
  0
ARC
  5
522
330
18
100
AcDbEntity
  8
1
  6
Continuous
100
AcDbCircle
 10
101.7765388298899
 20
174.5193992661807
 30
0.0
 40
0.6000000000000001
100
AcDbArc
 50
89.99999999999998
 51
180.0
  0
ARC
  5
523
330
18
100
AcDbEntity
  8
1
  6
Continuous
100
AcDbCircle
 10
101.7765388298899
 20
174.5193992661807
 30
0.0
 40
1.0
100
AcDbArc
 50
89.99999999999998
 51
180.0
  0
LINE
  5
524
330
18
100
AcDbEntity
  8
1
  6
Continuous
100
AcDbLine
 10
101.7765388298899
 20
175.1193992661808
 30
0.0
 11
104.4765388298898
 21
175.1193992661808
 31
0.0
  0
ARC
  5
525
330
18
100
AcDbEntity
  8
1
  6
Continuous
100
AcDbCircle
 10
90.50017411070371
 20
176.5193992661807
 30
0.0
 40
2.0
100
AcDbArc
 50
270.0
 51
307.3692597852021
  0
LINE
  5
526
330
18
100
AcDbEntity
  8
5
  6
PHANTOM
 48
0.1
100
AcDbLine
 10
94.60067795094849
 20
177.1062609704636
 30
0.0
 11
94.01358146759749
 21
175.607538896286
 31
0.0
  0
ARC
  5
527
330
18
100
AcDbEntity
  8
5
  6
PHANTOM
 48
0.1
100
AcDbCircle
 10
95.0662318432469
 20
176.9238888964894
 30
0.0
 40
0.5
100
AcDbArc
 50
82.64440548472128
 51
158.6081620167941
  0
LINE
  5
528
330
18
100
AcDbEntity
  8
1
  6
Continuous
100
AcDbLine
 10
91.71407317993223
 20
174.9299185177204
 30
0.0
 11
92.48593990676059
 21
175.5193992661806
 31
0.0
  0
LINE
  5
529
330
18
100
AcDbEntity
  8
1
  6
Continuous
100
AcDbLine
 10
86.17653882988992
 20
174.5193992661807
 30
0.0
 11
86.17653882988992
 21
177.5193992661807
 31
0.0
  0
LINE
  5
52A
330
18
100
AcDbEntity
  8
1
  6
Continuous
100
AcDbLine
 10
90.50017411070371
 20
174.5193992661807
 30
0.0
 11
86.17653882988992
 21
174.5193992661807
 31
0.0
  0
CIRCLE
  5
5E0
330
18
100
AcDbEntity
  8
1
  6
Continuous
100
AcDbCircle
 10
106.1765388298897
 20
173.0193992661807
 30
0.0
 40
1.250000000009291
  0
LINE
  5
8F5
330
18
100
AcDbEntity
  8
1
  6
Continuous
100
AcDbLine
 10
182.6096063217549
 20
132.5193992662794
 30
0.0
 11
182.6096063219165
 21
82.51939926627953
 31
0.0
  0
LINE
  5
8F6
330
18
100
AcDbEntity
  8
1
  6
Continuous
100
AcDbLine
 10
184.6096063218692
 20
82.51939926627953
 30
0.0
 11
184.6096063218531
 21
132.5193992662794
 31
0.0
  0
LINE
  5
93A
330
18
100
AcDbEntity
  8
1
  6
Continuous
100
AcDbLine
 10
184.6096063218692
 20
82.51939926627953
 30
0.0
 11
175.6096063218641
 21
82.51939926627953
 31
0.0
  0
LINE
  5
93B
330
18
100
AcDbEntity
  8
1
  6
Continuous
100
AcDbLine
 10
184.6096063218531
 20
132.5193992662794
 30
0.0
 11
175.6096063218641
 21
132.5193992662794
 31
0.0
  0
LINE
  5
93E
330
18
100
AcDbEntity
  8
4
  6
CENTER
 48
0.25
100
AcDbLine
 10
180.6096063218653
 20
94.51939926627948
 30
0.0
 11
186.6096063218653
 21
94.51939926627956
 31
0.0
  0
LINE
  5
93F
330
18
100
AcDbEntity
  8
4
  6
CENTER
 48
0.25
100
AcDbLine
 10
180.609606321857
 20
120.5193992662794
 30
0.0
 11
186.609606321857
 21
120.5193992662795
 31
0.0
  0
ARC
  5
940
330
18
100
AcDbEntity
  8
1
  6
Continuous
100
AcDbCircle
 10
176.109606321864
 20
107.5193992662796
 30
0.0
 40
0.4999999999999716
100
AcDbArc
 50
90.0
 51
270.0
  0
LINE
  5
941
330
18
100
AcDbEntity
  8
4
  6
CENTER
 48
0.25
100
AcDbLine
 10
180.1096063218641
 20
78.51939926627953
 30
0.0
 11
180.109606321864
 21
135.5193992662794
 31
0.0
  0
LINE
  5
942
330
18
100
AcDbEntity
  8
1
  6
Continuous
100
AcDbLine
 10
175.6096063218641
 20
82.51939926627953
 30
0.0
 11
175.6096063218641
 21
107.0193992662795
 31
0.0
  0
LINE
  5
943
330
18
100
AcDbEntity
  8
1
  6
Continuous
100
AcDbLine
 10
182.6096063218373
 20
107.0193992662795
 30
0.0
 11
175.6096063218641
 21
107.0193992662795
 31
0.0
  0
LINE
  5
945
330
18
100
AcDbEntity
  8
1
  6
Continuous
100
AcDbLine
 10
175.6096063218641
 20
132.5193992662796
 30
0.0
 11
175.6096063218641
 21
108.0193992662797
 31
0.0
  0
LINE
  5
946
330
18
100
AcDbEntity
  8
1
  6
Continuous
100
AcDbLine
 10
182.6096063218373
 20
108.0193992662796
 30
0.0
 11
175.6096063218641
 21
108.0193992662797
 31
0.0
  0
LINE
  5
948
330
18
100
AcDbEntity
  8
1
  6
Continuous
100
AcDbLine
 10
182.1096063218509
 20
82.51939926627953
 30
0.0
 11
182.1096063218509
 21
107.0193992662795
 31
0.0
  0
ARC
  5
94B
330
18
100
AcDbEntity
  8
1
  6
Continuous
100
AcDbCircle
 10
178.8631777504347
 20
81.51939926627958
 30
0.0
 40
1.60357142857066
100
AcDbArc
 50
141.4199075616043
 51
180.0
  0
LINE
  5
94C
330
18
100
AcDbEntity
  8
1
  6
Continuous
100
AcDbLine
 10
177.2596063218641
 20
81.51939926627951
 30
0.0
 11
182.9596063218641
 21
81.51939926627951
 31
0.0
  0
ARC
  5
94D
330
18
100
AcDbEntity
  8
1
  6
Continuous
100
AcDbCircle
 10
181.3560348932934
 20
81.51939926627958
 30
0.0
 40
1.60357142857066
100
AcDbArc
 50
0.000000000000007
 51
38.58009243839566
  0
LINE
  5
9F0
330
18
100
AcDbEntity
  8
4
  6
CENTER
 48
0.25
100
AcDbLine
 10
32.24347133789709
 20
78.51939926627953
 30
0.0
 11
32.24347133789712
 21
135.5193992662794
 31
0.0
  0
LINE
  5
9F1
330
18
100
AcDbEntity
  8
1
  6
Continuous
100
AcDbLine
 10
30.24347133791025
 20
132.5193992662797
 30
0.0
 11
30.24347133791025
 21
131.0193992662762
 31
0.0
  0
LINE
  5
9F2
330
18
100
AcDbEntity
  8
1
  6
Continuous
100
AcDbLine
 10
36.74347133789703
 20
82.51939926627953
 30
0.0
 11
36.74347133789703
 21
107.0193992662795
 31
0.0
  0
LINE
  5
9F3
330
18
100
AcDbEntity
  8
1
  6
Continuous
100
AcDbLine
 10
27.74347133789197
 20
82.51939926627953
 30
0.0
 11
27.743471337908
 21
132.5193992662794
 31
0.0
  0
LINE
  5
9F4
330
18
100
AcDbEntity
  8
1
  6
Continuous
100
AcDbLine
 10
29.74347133800623
 20
132.5193992662794
 30
0.0
 11
29.74347133800299
 21
131.5193992662792
 31
0.0
  0
LINE
  5
A23
330
18
100
AcDbEntity
  8
1
  6
Continuous
100
AcDbLine
 10
27.74347133789197
 20
82.51939926627953
 30
0.0
 11
36.74347133789703
 21
82.51939926627953
 31
0.0
  0
ARC
  5
A25
330
18
100
AcDbEntity
  8
1
  6
Continuous
100
AcDbCircle
 10
30.99704276646778
 20
81.51939926627958
 30
0.0
 40
1.60357142857066
100
AcDbArc
 50
141.4199075616043
 51
180.0
  0
LINE
  5
A26
330
18
100
AcDbEntity
  8
1
  6
Continuous
100
AcDbLine
 10
35.09347133789708
 20
81.51939926627951
 30
0.0
 11
29.39347133789707
 21
81.51939926627951
 31
0.0
  0
ARC
  5
A27
330
18
100
AcDbEntity
  8
1
  6
Continuous
100
AcDbCircle
 10
33.48989990932648
 20
81.51939926627958
 30
0.0
 40
1.60357142857066
100
AcDbArc
 50
0.000000000000007
 51
38.58009243839566
  0
LINE
  5
A28
330
18
100
AcDbEntity
  8
4
  6
CENTER
 48
0.25
100
AcDbLine
 10
31.74347133789581
 20
94.51939926627948
 30
0.0
 11
25.74347133789584
 21
94.51939926627956
 31
0.0
  0
LINE
  5
A29
330
18
100
AcDbEntity
  8
1
  6
Continuous
100
AcDbLine
 10
27.743471337908
 20
132.5193992662794
 30
0.0
 11
36.74347133789703
 21
132.5193992662794
 31
0.0
  0
LINE
  5
A2A
330
18
100
AcDbEntity
  8
1
  6
Continuous
100
AcDbLine
 10
29.74347133792383
 20
108.0193992662796
 30
0.0
 11
36.74347133789703
 21
108.0193992662797
 31
0.0
  0
LINE
  5
A2B
330
18
100
AcDbEntity
  8
1
  6
Continuous
100
AcDbLine
 10
29.74347133792383
 20
107.0193992662795
 30
0.0
 11
36.74347133789703
 21
107.0193992662795
 31
0.0
  0
ARC
  5
A2C
330
18
100
AcDbEntity
  8
1
  6
Continuous
100
AcDbCircle
 10
36.24347133789711
 20
107.5193992662796
 30
0.0
 40
0.4999999999999716
100
AcDbArc
 50
270.0
 51
90.0
  0
LINE
  5
A2E
330
18
100
AcDbEntity
  8
4
  6
CENTER
 48
0.25
100
AcDbLine
 10
31.74347133790416
 20
120.5193992662794
 30
0.0
 11
25.74347133790416
 21
120.5193992662795
 31
0.0
  0
LINE
  5
A30
330
18
100
AcDbEntity
  8
1
  6
Continuous
100
AcDbLine
 10
36.74347133789703
 20
132.5193992662796
 30
0.0
 11
36.74347133789703
 21
108.0193992662797
 31
0.0
  0
LINE
  5
ACE
330
18
100
AcDbEntity
  8
1
  6
Continuous
100
AcDbLine
 10
30.24347133791022
 20
124.5193992662806
 30
0.0
 11
30.24347133791025
 21
108.0193992662796
 31
0.0
  0
LINE
  5
ACF
330
18
100
AcDbEntity
  8
1
  6
Continuous
100
AcDbLine
 10
29.74347133797877
 20
124.0193992662796
 30
0.0
 11
29.74347133784468
 21
82.51939926627953
 31
0.0
  0
LINE
  5
B04
330
18
100
AcDbEntity
  8
1
  6
Continuous
100
AcDbLine
 10
29.743471337908
 20
131.5193992662792
 30
0.0
 11
29.743471337908
 21
132.5193992662793
 31
0.0
  0
ARC
  5
B05
330
18
100
AcDbEntity
  8
1
  6
Continuous
100
AcDbCircle
 10
28.243471337908
 20
129.5193992662792
 30
0.0
 40
2.5
100
AcDbArc
 50
0.000000000000007
 51
53.13010235415436
  0
LINE
  5
B06
330
18
100
AcDbEntity
  8
1
  6
Continuous
100
AcDbLine
 10
30.74347133790812
 20
126.0193992662777
 30
0.0
 11
30.74347133790812
 21
129.5193992662793
 31
0.0
  0
LINE
  5
B07
330
18
100
AcDbEntity
  8
1
  6
Continuous
100
AcDbLine
 10
28.743471337908
 20
130.5193992662794
 30
0.0
 11
28.743471337908
 21
125.0193992662785
 31
0.0
  0
LINE
  5
B08
330
18
100
AcDbEntity
  8
1
  6
Continuous
100
AcDbLine
 10
28.743471337908
 20
130.5193992662794
 30
0.0
 11
27.743471337908
 21
130.5193992662794
 31
0.0
  0
LINE
  5
B09
330
18
100
AcDbEntity
  8
1
  6
Continuous
100
AcDbLine
 10
28.743471337908
 20
125.0193992662785
 30
0.0
 11
27.743471337908
 21
125.0193992662785
 31
0.0
  0
LINE
  5
B0A
330
18
100
AcDbEntity
  8
1
  6
Continuous
100
AcDbLine
 10
28.743471337908
 20
129.6693992664176
 30
0.0
 11
27.74347133790829
 21
129.6693992664192
 31
0.0
  0
LINE
  5
B0B
330
18
100
AcDbEntity
  8
1
  6
Continuous
100
AcDbLine
 10
28.34347133790797
 20
126.5193992662795
 30
0.0
 11
27.74347133790829
 21
126.5193992662795
 31
0.0
  0
ARC
  5
B0C
330
18
100
AcDbEntity
  8
1
  6
Continuous
100
AcDbCircle
 10
28.243471337908
 20
126.0193992662776
 30
0.0
 40
2.5
100
AcDbArc
 50
306.8698976458457
 51
0.000000000000007
  0
LINE
  5
B0D
330
18
100
AcDbEntity
  8
1
  6
Continuous
100
AcDbLine
 10
28.34347133790799
 20
129.0193992662786
 30
0.0
 11
28.34347133790799
 21
125.0193992662785
 31
0.0
  0
LINE
  5
B0F
330
18
100
AcDbEntity
  8
1
  6
Continuous
100
AcDbLine
 10
28.743471337908
 20
129.0193992662786
 30
0.0
 11
28.277004985676
 21
129.0193992662786
 31
0.0
  0
LINE
  5
B10
330
18
100
AcDbEntity
  8
1
  6
Continuous
100
AcDbLine
 10
28.743471337908
 20
129.4193992662796
 30
0.0
 11
28.277004985676
 21
129.4193992662796
 31
0.0
  0
LINE
  5
B12
330
18
100
AcDbEntity
  8
1
  6
Continuous
100
AcDbLine
 10
28.277004985676
 20
129.4193992662796
 30
0.0
 11
28.277004985676
 21
129.0193992662786
 31
0.0
  0
LINE
  5
B13
330
18
100
AcDbEntity
  8
1
  6
Continuous
100
AcDbLine
 10
33.54347133792035
 20
129.0193992662785
 30
0.0
 11
33.54347133792038
 21
125.019399266279
 31
0.0
  0
LINE
  5
B14
330
18
100
AcDbEntity
  8
1
  6
Continuous
100
AcDbLine
 10
33.54347133792038
 20
125.019399266279
 30
0.0
 11
30.53475918538671
 21
125.0193992662794
 31
0.0
  0
LINE
  5
B15
330
18
100
AcDbEntity
  8
1
  6
Continuous
100
AcDbLine
 10
33.54347133792035
 20
129.0193992662785
 30
0.0
 11
33.02965216428509
 21
129.0193992662785
 31
0.0
  0
LINE
  5
B16
330
18
100
AcDbEntity
  8
1
  6
Continuous
100
AcDbLine
 10
33.02965216428507
 20
129.4193992662796
 30
0.0
 11
30.74347133790812
 21
129.4193992662796
 31
0.0
  0
LINE
  5
B17
330
18
100
AcDbEntity
  8
1
  6
Continuous
100
AcDbLine
 10
33.02965216428507
 20
129.4193992662796
 30
0.0
 11
33.02965216428509
 21
129.0193992662785
 31
0.0
  0
LINE
  5
B3C
330
18
100
AcDbEntity
  8
4
  6
CENTER
 48
0.25
100
AcDbLine
 10
254.0426738138475
 20
78.51939926627953
 30
0.0
 11
254.0426738138475
 21
135.5193992662794
 31
0.0
  0
LINE
  5
B3F
330
18
100
AcDbEntity
  8
1
  6
Continuous
100
AcDbLine
 10
258.5426738138475
 20
107.0193992662795
 30
0.0
 11
258.5426738138475
 21
82.51939926627953
 31
0.0
  0
LINE
  5
B40
330
18
100
AcDbEntity
  8
1
  6
Continuous
100
AcDbLine
 10
259.5426738138475
 20
107.0193992662795
 30
0.0
 11
259.5426738138475
 21
83.51939926627961
 31
0.0
  0
LINE
  5
B41
330
18
100
AcDbEntity
  8
1
  6
Continuous
100
AcDbLine
 10
234.0426738138475
 20
130.5193992662795
 30
0.0
 11
234.0426738138475
 21
84.51939926627952
 31
0.0
  0
LINE
  5
B42
330
18
100
AcDbEntity
  8
1
  6
Continuous
100
AcDbLine
 10
274.0426738138475
 20
130.5193992662795
 30
0.0
 11
274.0426738138475
 21
84.51939926627952
 31
0.0
  0
LINE
  5
B44
330
18
100
AcDbEntity
  8
1
  6
Continuous
100
AcDbLine
 10
256.5426738138476
 20
129.669399266279
 30
0.0
 11
256.5426738138476
 21
129.41939926628
 31
0.0
  0
LINE
  5
B45
330
18
100
AcDbEntity
  8
1
  6
Continuous
100
AcDbLine
 10
236.0426738138475
 20
82.51939926627953
 30
0.0
 11
258.5426738138475
 21
82.51939926627953
 31
0.0
  0
LINE
  5
B46
330
18
100
AcDbEntity
  8
4
  6
CENTER
 48
0.2
100
AcDbLine
 10
246.7926738138475
 20
94.5193992662795
 30
0.0
 11
236.2926738138475
 21
94.5193992662795
 31
0.0
  0
LINE
  5
B4A
330
18
100
AcDbEntity
  8
4
  6
CENTER
 48
0.2
100
AcDbLine
 10
241.5426738138475
 20
99.76939926627951
 30
0.0
 11
241.5426738138475
 21
89.2693992662795
 31
0.0
  0
ARC
  5
B4B
330
18
100
AcDbEntity
  8
1
  6
Continuous
100
AcDbCircle
 10
236.0426738138475
 20
84.51939926627952
 30
0.0
 40
2.0
100
AcDbArc
 50
180.0
 51
270.0
  0
CIRCLE
  5
B4C
330
18
100
AcDbEntity
  8
1
  6
Continuous
100
AcDbCircle
 10
241.5426738138475
 20
94.5193992662795
 30
0.0
 40
1.6
  0
LINE
  5
B4D
330
18
100
AcDbEntity
  8
4
  6
CENTER
 48
0.2
100
AcDbLine
 10
271.7926738138475
 20
94.5193992662795
 30
0.0
 11
261.2926738138475
 21
94.5193992662795
 31
0.0
  0
LINE
  5
B4E
330
18
100
AcDbEntity
  8
1
  6
Continuous
100
AcDbLine
 10
260.5426738138475
 20
82.51939926627953
 30
0.0
 11
272.0426738138475
 21
82.51939926627953
 31
0.0
  0
LINE
  5
B4F
330
18
100
AcDbEntity
  8
1
  6
Continuous
100
AcDbLine
 10
256.8926738138475
 20
81.51939926627951
 30
0.0
 11
251.1926738138475
 21
81.51939926627951
 31
0.0
  0
ARC
  5
B50
330
18
100
AcDbEntity
  8
1
  6
Continuous
100
AcDbCircle
 10
252.7962452424182
 20
81.51939926627958
 30
0.0
 40
1.60357142857066
100
AcDbArc
 50
141.4199075616043
 51
180.0
  0
ARC
  5
B51
330
18
100
AcDbEntity
  8
1
  6
Continuous
100
AcDbCircle
 10
255.2891023852769
 20
81.51939926627958
 30
0.0
 40
1.60357142857066
100
AcDbArc
 50
0.000000000000007
 51
38.58009243839566
  0
ARC
  5
B52
330
18
100
AcDbEntity
  8
1
  6
Continuous
100
AcDbCircle
 10
260.5426738138475
 20
83.51939926627961
 30
0.0
 40
1.0
100
AcDbArc
 50
180.0
 51
270.0
  0
LINE
  5
B54
330
18
100
AcDbEntity
  8
4
  6
CENTER
 48
0.2
100
AcDbLine
 10
266.5426738138476
 20
99.76939926627951
 30
0.0
 11
266.5426738138476
 21
89.2693992662795
 31
0.0
  0
ARC
  5
B55
330
18
100
AcDbEntity
  8
1
  6
Continuous
100
AcDbCircle
 10
272.0426738138475
 20
84.51939926627952
 30
0.0
 40
2.0
100
AcDbArc
 50
270.0
 51
0.000000000000007
  0
CIRCLE
  5
B57
330
18
100
AcDbEntity
  8
1
  6
Continuous
100
AcDbCircle
 10
266.5426738138476
 20
94.5193992662795
 30
0.0
 40
1.6
  0
LINE
  5
B5A
330
18
100
AcDbEntity
  8
1
  6
Continuous
100
AcDbLine
 10
236.0426738138475
 20
132.5193992662795
 30
0.0
 11
247.5426738138475
 21
132.5193992662795
 31
0.0
  0
LINE
  5
B5C
330
18
100
AcDbEntity
  8
4
  6
CENTER
 48
0.2
100
AcDbLine
 10
246.7926738138474
 20
120.5193992662795
 30
0.0
 11
236.2926738138474
 21
120.5193992662795
 31
0.0
  0
LINE
  5
B5F
330
18
100
AcDbEntity
  8
4
  6
CENTER
 48
0.2
100
AcDbLine
 10
241.5426738138474
 20
125.7693992662795
 30
0.0
 11
241.5426738138474
 21
115.2693992662795
 31
0.0
  0
CIRCLE
  5
B61
330
18
100
AcDbEntity
  8
1
  6
Continuous
100
AcDbCircle
 10
241.5426738138474
 20
120.5193992662795
 30
0.0
 40
1.6
  0
ARC
  5
B62
330
18
100
AcDbEntity
  8
1
  6
Continuous
100
AcDbCircle
 10
236.0426738138475
 20
130.5193992662795
 30
0.0
 40
2.0
100
AcDbArc
 50
90.0
 51
180.0
  0
LINE
  5
B63
330
18
100
AcDbEntity
  8
4
  6
CENTER
 48
0.2
100
AcDbLine
 10
266.5426738138476
 20
125.7693992662795
 30
0.0
 11
266.5426738138476
 21
115.2693992662795
 31
0.0
  0
LINE
  5
B64
330
18
100
AcDbEntity
  8
1
  6
Continuous
100
AcDbLine
 10
248.5426738138475
 20
131.5193992662796
 30
0.0
 11
248.5426738138475
 21
108.0193992662795
 31
0.0
  0
LINE
  5
B65
330
18
100
AcDbEntity
  8
1
  6
Continuous
100
AcDbLine
 10
249.5426738138475
 20
132.5193992662795
 30
0.0
 11
249.5426738138475
 21
108.0193992662795
 31
0.0
  0
LINE
  5
B68
330
18
100
AcDbEntity
  8
4
  6
CENTER
 48
0.2
100
AcDbLine
 10
271.7926738138475
 20
120.5193992662795
 30
0.0
 11
261.2926738138475
 21
120.5193992662795
 31
0.0
  0
LINE
  5
B69
330
18
100
AcDbEntity
  8
1
  6
Continuous
100
AcDbLine
 10
249.5426738138475
 20
108.0193992662795
 30
0.0
 11
258.5426738138475
 21
108.0193992662795
 31
0.0
  0
LINE
  5
B6A
330
18
100
AcDbEntity
  8
1
  6
Continuous
100
AcDbLine
 10
249.5426738138475
 20
107.0193992662795
 30
0.0
 11
258.5426738138475
 21
107.0193992662795
 31
0.0
  0
ARC
  5
B6B
330
18
100
AcDbEntity
  8
1
  6
Continuous
100
AcDbCircle
 10
250.0426738138475
 20
107.5193992662795
 30
0.0
 40
0.4999999999999716
100
AcDbArc
 50
90.0
 51
270.0
  0
ARC
  5
B6C
330
18
100
AcDbEntity
  8
1
  6
Continuous
100
AcDbCircle
 10
249.5426738138475
 20
108.0193992662795
 30
0.0
 40
1.0
100
AcDbArc
 50
180.0
 51
270.0
  0
ARC
  5
B6D
330
18
100
AcDbEntity
  8
1
  6
Continuous
100
AcDbCircle
 10
258.0426738138475
 20
107.5193992662796
 30
0.0
 40
0.4999999999999716
100
AcDbArc
 50
270.0
 51
90.0
  0
ARC
  5
B6E
330
18
100
AcDbEntity
  8
1
  6
Continuous
100
AcDbCircle
 10
258.5426738138475
 20
107.0193992662795
 30
0.0
 40
1.0
100
AcDbArc
 50
0.000000000000007
 51
90.0
  0
CIRCLE
  5
BB1
330
18
100
AcDbEntity
  8
1
  6
Continuous
100
AcDbCircle
 10
266.5426738138476
 20
120.5193992662795
 30
0.0
 40
1.6
  0
LINE
  5
BB5
330
18
100
AcDbEntity
  8
1
  6
Continuous
100
AcDbLine
 10
260.8266484099526
 20
129.7363865643866
 30
0.0
 11
262.3266484099527
 21
130.6024119681712
 31
0.0
  0
LINE
  5
BB6
330
18
100
AcDbEntity
  8
1
  6
Continuous
100
AcDbLine
 10
259.6819915206572
 20
129.4193992662796
 30
0.0
 11
266.3735159229249
 21
129.4193992662796
 31
0.0
  0
LINE
  5
BB7
330
18
100
AcDbEntity
  8
1
  6
Continuous
100
AcDbLine
 10
249.5426738138475
 20
132.5193992662795
 30
0.0
 11
272.0426738138475
 21
132.5193992662795
 31
0.0
  0
LINE
  5
BB8
330
18
100
AcDbEntity
  8
1
  6
Continuous
100
AcDbLine
 10
254.5426738138476
 20
125.019399266278
 30
0.0
 11
261.042673813919
 21
125.0193992662787
 31
0.0
  0
LINE
  5
BBB
330
18
100
AcDbEntity
  8
1
  6
Continuous
100
AcDbLine
 10
254.109661111956
 20
129.4193992662801
 30
0.0
 11
256.5426738138476
 21
129.41939926628
 31
0.0
  0
ARC
  5
BBE
330
18
100
AcDbEntity
  8
1
  6
Continuous
100
AcDbCircle
 10
247.5426738138475
 20
131.5193992662796
 30
0.0
 40
1.0
100
AcDbArc
 50
0.000000000000007
 51
90.0
  0
LINE
  5
BC0
330
18
100
AcDbEntity
  8
1
  6
Continuous
100
AcDbLine
 10
259.4426738138473
 20
125.0193992662785
 30
0.0
 11
259.4426738138474
 21
129.0193992662785
 31
0.0
  0
LINE
  5
BC1
330
18
100
AcDbEntity
  8
1
  6
Continuous
100
AcDbLine
 10
254.7426738138476
 20
125.0193992662786
 30
0.0
 11
254.7426738138476
 21
129.0193992662786
 31
0.0
  0
LINE
  5
BC4
330
18
100
AcDbEntity
  8
1
  6
Continuous
100
AcDbLine
 10
255.2926738138477
 20
129.41939926628
 30
0.0
 11
255.2926738138477
 21
129.0193992662786
 31
0.0
  0
LINE
  5
BC5
330
18
100
AcDbEntity
  8
1
  6
Continuous
100
AcDbLine
 10
254.0426738138476
 20
129.1693992662791
 30
0.0
 11
254.0426738138476
 21
125.5193992662791
 31
0.0
  0
ARC
  5
BC6
330
18
100
AcDbEntity
  8
1
  6
Continuous
100
AcDbCircle
 10
254.5426738138476
 20
125.5193992662791
 30
0.0
 40
0.5
100
AcDbArc
 50
180.0
 51
270.0
  0
ARC
  5
BCA
330
18
100
AcDbEntity
  8
1
  6
Continuous
100
AcDbCircle
 10
260.5766484099526
 20
130.1693992662788
 30
0.0
 40
0.5
100
AcDbArc
 50
270.0
 51
300.0000000000037
  0
LINE
  5
BCB
330
18
100
AcDbEntity
  8
1
  6
Continuous
100
AcDbLine
 10
254.5426738138476
 20
129.6693992662792
 30
0.0
 11
260.5766484099525
 21
129.6693992662788
 31
0.0
  0
LINE
  5
BCD
330
18
100
AcDbEntity
  8
1
  6
Continuous
100
AcDbLine
 10
259.6819915206572
 20
129.4193992662796
 30
0.0
 11
259.6819915206573
 21
129.0193992662798
 31
0.0
  0
LINE
  5
BCE
330
18
100
AcDbEntity
  8
1
  6
Continuous
100
AcDbLine
 10
254.7426738138476
 20
129.0193992662786
 30
0.0
 11
266.3735159229247
 21
129.0193992662786
 31
0.0
  0
ARC
  5
BCF
330
18
100
AcDbEntity
  8
1
  6
Continuous
100
AcDbCircle
 10
254.5426738138476
 20
129.1693992662791
 30
0.0
 40
0.5
100
AcDbArc
 50
90.0
 51
180.0
  0
LINE
  5
BD7
330
18
100
AcDbEntity
  8
1
  6
Continuous
100
AcDbLine
 10
268.5426738138477
 20
125.0193992662784
 30
0.0
 11
268.5426738138478
 21
129.0193992662786
 31
0.0
  0
LINE
  5
BD8
330
18
100
AcDbEntity
  8
1
  6
Continuous
100
AcDbLine
 10
269.042673813736
 20
129.0193992662786
 30
0.0
 11
269.0426738137362
 21
130.1693992662791
 31
0.0
  0
ARC
  5
BDB
330
18
100
AcDbEntity
  8
1
  6
Continuous
100
AcDbCircle
 10
262.5766484099528
 20
130.1693992662791
 30
0.0
 40
0.5
100
AcDbArc
 50
90.0
 51
120.0000000000048
  0
ARC
  5
BDC
330
18
100
AcDbEntity
  8
1
  6
Continuous
100
AcDbCircle
 10
268.5426738137362
 20
130.1693992662791
 30
0.0
 40
0.5
100
AcDbArc
 50
0.000000000000007
 51
90.0
  0
LINE
  5
BDD
330
18
100
AcDbEntity
  8
1
  6
Continuous
100
AcDbLine
 10
262.5766484099528
 20
130.6693992662791
 30
0.0
 11
268.5426738137362
 21
130.6693992662791
 31
0.0
  0
LINE
  5
BDE
330
18
100
AcDbEntity
  8
1
  6
Continuous
100
AcDbLine
 10
266.3735159229248
 20
129.4193992662796
 30
0.0
 11
266.3735159229247
 21
129.0193992662798
 31
0.0
  0
LINE
  5
BDF
330
18
100
AcDbEntity
  8
1
  6
Continuous
100
AcDbLine
 10
266.3735159229249
 20
129.0193992662786
 30
0.0
 11
273.0426738138476
 21
129.0193992662786
 31
0.0
  0
ARC
  5
BE1
330
18
100
AcDbEntity
  8
1
  6
Continuous
100
AcDbCircle
 10
272.0426738138475
 20
130.5193992662795
 30
0.0
 40
2.0
100
AcDbArc
 50
0.000000000000007
 51
90.0
  0
ARC
  5
EE4
330
18
100
AcDbEntity
  8
1
  6
Continuous
100
AcDbCircle
 10
264.0426738136991
 20
126.0193992662795
 30
0.0
 40
0.5
100
AcDbArc
 50
0.000000000000007
 51
90.0
  0
ARC
  5
EE5
330
18
100
AcDbEntity
  8
1
  6
Continuous
100
AcDbCircle
 10
262.042673813919
 20
126.0193992662795
 30
0.0
 40
0.5
100
AcDbArc
 50
90.0
 51
180.0
  0
LINE
  5
EE6
330
18
100
AcDbEntity
  8
1
  6
Continuous
100
AcDbLine
 10
262.042673813919
 20
126.5193992662795
 30
0.0
 11
264.0426738136991
 21
126.5193992662795
 31
0.0
  0
ARC
  5
F04
330
18
100
AcDbEntity
  8
1
  6
Continuous
100
AcDbCircle
 10
261.0426738139189
 20
125.5193992662786
 30
0.0
 40
0.5
100
AcDbArc
 50
270.0
 51
0.000000000000007
  0
ARC
  5
F05
330
18
100
AcDbEntity
  8
1
  6
Continuous
100
AcDbCircle
 10
265.042673813699
 20
125.5193992662795
 30
0.0
 40
0.5
100
AcDbArc
 50
180.0
 51
270.0
  0
LINE
  5
F06
330
18
100
AcDbEntity
  8
1
  6
Continuous
100
AcDbLine
 10
261.542673813919
 20
125.5193992662786
 30
0.0
 11
261.542673813919
 21
126.0193992662795
 31
0.0
  0
LINE
  5
F07
330
18
100
AcDbEntity
  8
1
  6
Continuous
100
AcDbLine
 10
264.5426738136992
 20
125.5193992662795
 30
0.0
 11
264.5426738136992
 21
126.0193992662795
 31
0.0
  0
ARC
  5
F0D
330
18
100
AcDbEntity
  8
1
  6
Continuous
100
AcDbCircle
 10
273.0426738138476
 20
126.0193992662786
 30
0.0
 40
1.0
100
AcDbArc
 50
270.0
 51
0.000000000000007
  0
ARC
  5
F0E
330
18
100
AcDbEntity
  8
1
  6
Continuous
100
AcDbCircle
 10
273.0426738138476
 20
128.0193992662786
 30
0.0
 40
1.0
100
AcDbArc
 50
0.000000000000007
 51
90.0
  0
LINE
  5
F1A
330
18
100
AcDbEntity
  8
1
  6
Continuous
100
AcDbLine
 10
274.0426738138475
 20
130.5193992662794
 30
0.0
 11
268.899745235163
 21
130.5193992662794
 31
0.0
  0
LINE
  5
F1B
330
18
100
AcDbEntity
  8
1
  6
Continuous
100
AcDbLine
 10
265.0426738136991
 20
125.0193992662792
 30
0.0
 11
274.0426738138475
 21
125.01939926628
 31
0.0
  0
LINE
  5
F1C
330
18
100
AcDbEntity
  8
1
  6
Continuous
100
AcDbLine
 10
258.5426738138475
 20
129.6693992662789
 30
0.0
 11
258.5426738138475
 21
129.0193992662785
 31
0.0
  0
LINE
  5
F1D
330
18
100
AcDbEntity
  8
1
  6
Continuous
100
AcDbLine
 10
256.2821898550452
 20
129.4193992662801
 30
0.0
 11
256.2821898550452
 21
129.0193992662786
 31
0.0
  0
LINE
  5
F1E
330
18
100
AcDbEntity
  8
1
  6
Continuous
100
AcDbLine
 10
258.0738026880033
 20
129.669399266279
 30
0.0
 11
258.0738026880033
 21
129.0193992662785
 31
0.0
  0
ENDSEC
  0
SECTION
  2
OBJECTS
  0
DICTIONARY
  5
C
330
0
100
AcDbDictionary
281
     1
  3
ACAD_CIP_PREVIOUS_PRODUCT_INFO
350
1313
  3
ACAD_COLOR
350
12F6
  3
ACAD_DETAILVIEWSTYLE
350
130F
  3
ACAD_GROUP
350
D
  3
ACAD_LAYOUT
350
94
  3
ACAD_MATERIAL
350
12C4
  3
ACAD_MLEADERSTYLE
350
130B
  3
ACAD_MLINESTYLE
350
1B
  3
ACAD_PLOTSETTINGS
350
95
  3
ACAD_PLOTSTYLENAME
350
12C2
  3
ACAD_SCALELIST
350
12F9
  3
ACAD_SECTIONVIEWSTYLE
350
130D
  3
ACAD_TABLESTYLE
350
12F7
  3
ACAD_VISUALSTYLE
350
12DD
  3
ACDB_RECOMPOSE_DATA
350
1331
  3
AcDbVariableDictionary
350
1324
  3
CONTENTDICTIONARY
350
3D
  3
DWGPROPS
350
1332
  0
DICTIONARY
  5
1314
330
E
100
AcDbDictionary
280
     1
281
     1
  3
ADSK_XREC_LAYER_RECONCILED
360
1315
  0
DICTIONARY
  5
1316
330
4E
100
AcDbDictionary
280
     1
281
     1
  3
ADSK_XREC_LAYER_RECONCILED
360
1317
  0
DICTIONARY
  5
1318
330
4F
100
AcDbDictionary
280
     1
281
     1
  3
ADSK_XREC_LAYER_RECONCILED
360
1319
  0
DICTIONARY
  5
131A
330
50
100
AcDbDictionary
280
     1
281
     1
  3
ADSK_XREC_LAYER_RECONCILED
360
131B
  0
DICTIONARY
  5
131C
330
51
100
AcDbDictionary
280
     1
281
     1
  3
ADSK_XREC_LAYER_RECONCILED
360
131D
  0
DICTIONARY
  5
131E
330
52
100
AcDbDictionary
280
     1
281
     1
  3
ADSK_XREC_LAYER_RECONCILED
360
131F
  0
DICTIONARY
  5
1320
330
53
100
AcDbDictionary
280
     1
281
     1
  3
ADSK_XREC_LAYER_RECONCILED
360
1321
  0
DICTIONARY
  5
1322
330
54
100
AcDbDictionary
280
     1
281
     1
  3
ADSK_XREC_LAYER_RECONCILED
360
1323
  0
DICTIONARY
  5
12BD
330
18
100
AcDbDictionary
281
     1
  3
ACAD_LAYOUTSELFREF
350
12BE
  0
DICTIONARY
  5
12BB
330
15
100
AcDbDictionary
281
     1
  3
ACAD_LAYOUTSELFREF
350
12BC
  0
XRECORD
  5
1313
102
{ACAD_REACTORS
330
C
102
}
330
C
100
AcDbXrecord
280
     1
300
ACDLT
300
2014
300
ACDLT_F_S
  0
DICTIONARY
  5
12F6
102
{ACAD_REACTORS
330
C
102
}
330
C
100
AcDbDictionary
281
     1
  0
DICTIONARY
  5
130F
102
{ACAD_REACTORS
330
C
102
}
330
C
100
AcDbDictionary
281
     1
  3
Imperial24
350
1310
  0
DICTIONARY
  5
D
102
{ACAD_REACTORS
330
C
102
}
330
C
100
AcDbDictionary
281
     1
  0
DICTIONARY
  5
94
102
{ACAD_REACTORS
330
C
102
}
330
C
100
AcDbDictionary
281
     1
  3
Model
350
1311
  3
レイアウト1
350
1312
  0
DICTIONARY
  5
12C4
102
{ACAD_REACTORS
330
C
102
}
330
C
100
AcDbDictionary
281
     1
  3
ByBlock
350
12CD
  3
ByLayer
350
12C5
  3
Global
350
12D5
  0
DICTIONARY
  5
130B
102
{ACAD_REACTORS
330
C
102
}
330
C
100
AcDbDictionary
281
     1
  3
Standard
350
130C
  0
DICTIONARY
  5
1B
102
{ACAD_REACTORS
330
C
102
}
330
C
100
AcDbDictionary
281
     1
  3
STANDARD
350
1C
  0
DICTIONARY
  5
95
102
{ACAD_REACTORS
330
C
102
}
330
C
100
AcDbDictionary
281
     1
  0
ACDBDICTIONARYWDFLT
  5
12C2
102
{ACAD_REACTORS
330
C
102
}
330
C
100
AcDbDictionary
281
     1
  3
Normal
350
12C3
100
AcDbDictionaryWithDefault
340
12C3
  0
DICTIONARY
  5
12F9
102
{ACAD_REACTORS
330
C
102
}
330
C
100
AcDbDictionary
281
     1
  3
A0
350
12FA
  3
A1
350
12FB
  3
A2
350
12FC
  3
A3
350
12FD
  3
A4
350
12FE
  3
A5
350
12FF
  3
A6
350
1300
  3
A7
350
1301
  3
A8
350
1302
  3
A9
350
1303
  3
B0
350
1304
  3
B1
350
1305
  3
B2
350
1306
  3
B3
350
1307
  3
B4
350
1308
  3
B5
350
1309
  3
B6
350
130A
  0
DICTIONARY
  5
130D
102
{ACAD_REACTORS
330
C
102
}
330
C
100
AcDbDictionary
281
     1
  3
Imperial24
350
130E
  0
DICTIONARY
  5
12F7
102
{ACAD_REACTORS
330
C
102
}
330
C
100
AcDbDictionary
281
     1
  3
Standard
350
12F8
  0
DICTIONARY
  5
12DD
102
{ACAD_REACTORS
330
C
102
}
330
C
100
AcDbDictionary
281
     1
  3
2dWireframe
350
12E3
  3
Basic
350
12E2
  3
Brighten
350
12E9
  3
ColorChange
350
12ED
  3
Conceptual
350
12E6
  3
Dim
350
12E8
  3
EdgeColorOff
350
12F5
  3
Facepattern
350
12EC
  3
Flat
350
12DE
  3
FlatWithEdges
350
12DF
  3
Gouraud
350
12E0
  3
GouraudWithEdges
350
12E1
  3
Hidden
350
12E5
  3
JitterOff
350
12F3
  3
Linepattern
350
12EB
  3
OverhangOff
350
12F4
  3
Realistic
350
12E7
  3
Shaded
350
12F2
  3
Shaded with edges
350
12F1
  3
Shades of Gray
350
12EE
  3
Sketchy
350
12EF
  3
Thicken
350
12EA
  3
Wireframe
350
12E4
  3
X-Ray
350
12F0
  0
XRECORD
  5
1331
102
{ACAD_REACTORS
330
C
102
}
330
C
100
AcDbXrecord
280
     1
 90
        1
330
12F8
  0
DICTIONARY
  5
1324
102
{ACAD_REACTORS
330
C
102
}
330
C
100
AcDbDictionary
281
     1
  3
CANNOSCALE
350
1329
  3
CMLEADERSTYLE
350
1326
  3
CTABLESTYLE
350
1325
  3
CVIEWDETAILSTYLE
350
1327
  3
CVIEWSECTIONSTYLE
350
1328
  3
DIMASSOC
350
132C
  3
INDEXCTL
350
132B
  3
SORTENTS
350
132A
  3
XCLIPFRAME
350
132D
  0
DICTIONARY
  5
3D
102
{ACAD_REACTORS
330
C
102
}
330
C
100
AcDbDictionary
281
     1
  0
XRECORD
  5
1332
102
{ACAD_REACTORS
330
C
102
}
330
C
100
AcDbXrecord
280
     1
  1
DWGPROPS COOKIE
  2

  3

  4

  6

  7

  8
Yoshitsune
  9

300
=
301
=
302
=
303
=
304
=
305
=
306
=
307
=
308
=
309
=
 40
0.1813426967592593
 41
2456442.426355023
 42
2457192.616850614
  1

 90
        0
  0
XRECORD
  5
1315
102
{ACAD_REACTORS
330
1314
102
}
330
1314
100
AcDbXrecord
280
     1
290
     1
  0
XRECORD
  5
1317
102
{ACAD_REACTORS
330
1316
102
}
330
1316
100
AcDbXrecord
280
     1
290
     1
  0
XRECORD
  5
1319
102
{ACAD_REACTORS
330
1318
102
}
330
1318
100
AcDbXrecord
280
     1
290
     1
  0
XRECORD
  5
131B
102
{ACAD_REACTORS
330
131A
102
}
330
131A
100
AcDbXrecord
280
     1
290
     1
  0
XRECORD
  5
131D
102
{ACAD_REACTORS
330
131C
102
}
330
131C
100
AcDbXrecord
280
     1
290
     1
  0
XRECORD
  5
131F
102
{ACAD_REACTORS
330
131E
102
}
330
131E
100
AcDbXrecord
280
     1
290
     1
  0
XRECORD
  5
1321
102
{ACAD_REACTORS
330
1320
102
}
330
1320
100
AcDbXrecord
280
     1
290
     1
  0
XRECORD
  5
1323
102
{ACAD_REACTORS
330
1322
102
}
330
1322
100
AcDbXrecord
280
     1
290
     1
  0
XRECORD
  5
12BE
102
{ACAD_REACTORS
330
12BD
102
}
330
12BD
100
AcDbXrecord
280
     1
340
18
  0
XRECORD
  5
12BC
102
{ACAD_REACTORS
330
12BB
102
}
330
12BB
100
AcDbXrecord
280
     1
340
15
  0
ACDBDETAILVIEWSTYLE
  5
1310
102
{ACAD_XDICTIONARY
360
136A
102
}
102
{ACAD_REACTORS
330
130F
102
}
330
130F
100
AcDbModelDocViewStyle
 70
     0
  3
Imperial24
290
     0
100
AcDbDetailViewStyle
 70
     0
 71
     0
 90
        3
 71
     1
340
F
 40
0.24
340
0
 40
0.24
300

 40
0.36
280
     3
 71
     2
340
14
 90
       25
 71
     3
340
F
 40
0.24
 90
        1
 40
0.75
 90
        1
300
%<\AcVar ViewType \f "%tc1">% %<\AcVar ViewDetailId>%\PSCALE %<\AcVar ViewScale \f "%sn">%
 71
     4
340
14
 90
       25
340
14
 90
       25
280
     0
  0
LAYOUT
  5
1311
102
{ACAD_XDICTIONARY
360
136C
102
}
102
{ACAD_REACTORS
330
94
102
}
330
94
100
AcDbPlotSettings
  1

  2
Canon LBP9100C
  4

  6

 40
0.0
 41
0.0
 42
0.0
 43
0.0
 44
0.0
 45
0.0
 46
0.0
 47
0.0
 48
0.0
 49
0.0
140
0.0
141
0.0
142
1.0
143
1.0
 70
  1712
 72
     0
 73
     0
 74
     0
  7

 75
     0
147
1.0
148
0.0
149
0.0
100
AcDbLayout
  1
Model
 70
     1
 71
     0
 10
0.0
 20
0.0
 11
12.0
 21
9.0
 12
0.0
 22
0.0
 32
0.0
 14
0.0
 24
0.0
 34
0.0
 15
0.0
 25
0.0
 35
0.0
146
0.0
 13
0.0
 23
0.0
 33
0.0
 16
1.0
 26
0.0
 36
0.0
 17
0.0
 27
1.0
 37
0.0
 76
     0
330
18
331
12BA
  0
LAYOUT
  5
1312
102
{ACAD_XDICTIONARY
360
136E
102
}
102
{ACAD_REACTORS
330
94
102
}
330
94
100
AcDbPlotSettings
  1

  2
Canon LBP9100C
  4

  6

 40
0.0
 41
0.0
 42
0.0
 43
0.0
 44
0.0
 45
0.0
 46
0.0
 47
0.0
 48
0.0
 49
0.0
140
0.0
141
0.0
142
1.0
143
1.0
 70
   688
 72
     0
 73
     0
 74
     5
  7

 75
    16
147
1.0
148
0.0
149
0.0
100
AcDbLayout
  1
レイアウト1
 70
     1
 71
     1
 10
0.0
 20
0.0
 11
420.0
 21
297.0
 12
0.0
 22
0.0
 32
0.0
 14
1.000000000000000E+20
 24
1.000000000000000E+20
 34
1.000000000000000E+20
 15
-1.000000000000000E+20
 25
-1.000000000000000E+20
 35
-1.000000000000000E+20
146
0.0
 13
0.0
 23
0.0
 33
0.0
 16
1.0
 26
0.0
 36
0.0
 17
0.0
 27
1.0
 37
0.0
 76
     0
330
15
  0
MATERIAL
  5
12CD
102
{ACAD_XDICTIONARY
360
12CE
102
}
102
{ACAD_REACTORS
330
12C4
102
}
330
12C4
100
AcDbMaterial
  1
ByBlock
 72
     0
 43
0.0208333333333333
 43
0.0
 43
0.0
 43
0.0
 43
0.0
 43
0.0208333333333333
 43
0.0
 43
0.0
 43
0.0
 43
0.0
 43
1.0
 43
0.0
 43
0.0
 43
0.0
 43
0.0
 43
1.0
 77
     0
 47
0.0208333333333333
 47
0.0
 47
0.0
 47
0.0
 47
0.0
 47
0.0208333333333333
 47
0.0
 47
0.0
 47
0.0
 47
0.0
 47
1.0
 47
0.0
 47
0.0
 47
0.0
 47
0.0
 47
1.0
171
     0
 49
0.0208333333333333
 49
0.0
 49
0.0
 49
0.0
 49
0.0
 49
0.0208333333333333
 49
0.0
 49
0.0
 49
0.0
 49
0.0
 49
1.0
 49
0.0
 49
0.0
 49
0.0
 49
0.0
 49
1.0
175
     0
142
0.0208333333333333
142
0.0
142
0.0
142
0.0
142
0.0
142
0.0208333333333333
142
0.0
142
0.0
142
0.0
142
0.0
142
1.0
142
0.0
142
0.0
142
0.0
142
0.0
142
1.0
179
     0
144
0.0208333333333333
144
0.0
144
0.0
144
0.0
144
0.0
144
0.0208333333333333
144
0.0
144
0.0
144
0.0
144
0.0
144
1.0
144
0.0
144
0.0
144
0.0
144
0.0
144
1.0
147
0.0208333333333333
147
0.0
147
0.0
147
0.0
147
0.0
147
0.0208333333333333
147
0.0
147
0.0
147
0.0
147
0.0
147
1.0
147
0.0
147
0.0
147
0.0
147
0.0
147
1.0
  0
MATERIAL
  5
12C5
102
{ACAD_XDICTIONARY
360
12C6
102
}
102
{ACAD_REACTORS
330
12C4
102
}
330
12C4
100
AcDbMaterial
  1
ByLayer
 72
     0
 43
0.0208333333333333
 43
0.0
 43
0.0
 43
0.0
 43
0.0
 43
0.0208333333333333
 43
0.0
 43
0.0
 43
0.0
 43
0.0
 43
1.0
 43
0.0
 43
0.0
 43
0.0
 43
0.0
 43
1.0
 77
     0
 47
0.0208333333333333
 47
0.0
 47
0.0
 47
0.0
 47
0.0
 47
0.0208333333333333
 47
0.0
 47
0.0
 47
0.0
 47
0.0
 47
1.0
 47
0.0
 47
0.0
 47
0.0
 47
0.0
 47
1.0
171
     0
 49
0.0208333333333333
 49
0.0
 49
0.0
 49
0.0
 49
0.0
 49
0.0208333333333333
 49
0.0
 49
0.0
 49
0.0
 49
0.0
 49
1.0
 49
0.0
 49
0.0
 49
0.0
 49
0.0
 49
1.0
175
     0
142
0.0208333333333333
142
0.0
142
0.0
142
0.0
142
0.0
142
0.0208333333333333
142
0.0
142
0.0
142
0.0
142
0.0
142
1.0
142
0.0
142
0.0
142
0.0
142
0.0
142
1.0
179
     0
144
0.0208333333333333
144
0.0
144
0.0
144
0.0
144
0.0
144
0.0208333333333333
144
0.0
144
0.0
144
0.0
144
0.0
144
1.0
144
0.0
144
0.0
144
0.0
144
0.0
144
1.0
147
0.0208333333333333
147
0.0
147
0.0
147
0.0
147
0.0
147
0.0208333333333333
147
0.0
147
0.0
147
0.0
147
0.0
147
1.0
147
0.0
147
0.0
147
0.0
147
0.0
147
1.0
  0
MATERIAL
  5
12D5
102
{ACAD_XDICTIONARY
360
12D6
102
}
102
{ACAD_REACTORS
330
12C4
102
}
330
12C4
100
AcDbMaterial
  1
Global
 72
     0
 43
0.0208333333333333
 43
0.0
 43
0.0
 43
0.0
 43
0.0
 43
0.0208333333333333
 43
0.0
 43
0.0
 43
0.0
 43
0.0
 43
1.0
 43
0.0
 43
0.0
 43
0.0
 43
0.0
 43
1.0
 77
     0
 47
0.0208333333333333
 47
0.0
 47
0.0
 47
0.0
 47
0.0
 47
0.0208333333333333
 47
0.0
 47
0.0
 47
0.0
 47
0.0
 47
1.0
 47
0.0
 47
0.0
 47
0.0
 47
0.0
 47
1.0
171
     0
 49
0.0208333333333333
 49
0.0
 49
0.0
 49
0.0
 49
0.0
 49
0.0208333333333333
 49
0.0
 49
0.0
 49
0.0
 49
0.0
 49
1.0
 49
0.0
 49
0.0
 49
0.0
 49
0.0
 49
1.0
175
     0
142
0.0208333333333333
142
0.0
142
0.0
142
0.0
142
0.0
142
0.0208333333333333
142
0.0
142
0.0
142
0.0
142
0.0
142
1.0
142
0.0
142
0.0
142
0.0
142
0.0
142
1.0
179
     0
144
0.0208333333333333
144
0.0
144
0.0
144
0.0
144
0.0
144
0.0208333333333333
144
0.0
144
0.0
144
0.0
144
0.0
144
1.0
144
0.0
144
0.0
144
0.0
144
0.0
144
1.0
147
0.0208333333333333
147
0.0
147
0.0
147
0.0
147
0.0
147
0.0208333333333333
147
0.0
147
0.0
147
0.0
147
0.0
147
1.0
147
0.0
147
0.0
147
0.0
147
0.0
147
1.0
  0
MLEADERSTYLE
  5
130C
102
{ACAD_REACTORS
330
130B
102
}
330
130B
100
AcDbMLeaderStyle
170
     2
171
     1
172
     0
 90
        2
 40
0.0
 41
0.0
173
     1
 91
-1056964608
340
12
 92
       -2
290
     1
 42
0.09
291
     1
 43
0.36
  3
Standard
 44
0.18
300

342
F
174
     1
178
     6
175
     1
176
     0
 93
-1056964608
 45
0.18
292
     0
297
     0
 46
0.18
 94
-1056964608
 47
1.0
 49
1.0
140
1.0
293
     1
141
0.0
294
     1
177
     0
142
1.0
295
     0
296
     0
143
0.125
1001
ACAD_MLEADERVER
1070
     2
  0
MLINESTYLE
  5
1C
102
{ACAD_REACTORS
330
1B
102
}
330
1B
100
AcDbMlineStyle
  2
STANDARD
 70
     0
  3

 62
   256
 51
90.0
 52
90.0
 71
     2
 49
0.5
 62
   256
  6
BYLAYER
 49
-0.5
 62
   256
  6
BYLAYER
  0
ACDBPLACEHOLDER
  5
12C3
102
{ACAD_REACTORS
330
12C2
102
}
330
12C2
  0
SCALE
  5
12FA
102
{ACAD_REACTORS
330
12F9
102
}
330
12F9
100
AcDbScale
 70
     0
300
1:1
140
1.0
141
1.0
290
     1
  0
SCALE
  5
12FB
102
{ACAD_REACTORS
330
12F9
102
}
330
12F9
100
AcDbScale
 70
     0
300
1/128" = 1'-0"
140
0.0078125
141
12.0
290
     0
  0
SCALE
  5
12FC
102
{ACAD_REACTORS
330
12F9
102
}
330
12F9
100
AcDbScale
 70
     0
300
1/64" = 1'-0"
140
0.015625
141
12.0
290
     0
  0
SCALE
  5
12FD
102
{ACAD_REACTORS
330
12F9
102
}
330
12F9
100
AcDbScale
 70
     0
300
1/32" = 1'-0"
140
0.03125
141
12.0
290
     0
  0
SCALE
  5
12FE
102
{ACAD_REACTORS
330
12F9
102
}
330
12F9
100
AcDbScale
 70
     0
300
1/16" = 1'-0"
140
0.0625
141
12.0
290
     0
  0
SCALE
  5
12FF
102
{ACAD_REACTORS
330
12F9
102
}
330
12F9
100
AcDbScale
 70
     0
300
3/32" = 1'-0"
140
0.09375
141
12.0
290
     0
  0
SCALE
  5
1300
102
{ACAD_REACTORS
330
12F9
102
}
330
12F9
100
AcDbScale
 70
     0
300
1/8" = 1'-0"
140
0.125
141
12.0
290
     0
  0
SCALE
  5
1301
102
{ACAD_REACTORS
330
12F9
102
}
330
12F9
100
AcDbScale
 70
     0
300
3/16" = 1'-0"
140
0.1875
141
12.0
290
     0
  0
SCALE
  5
1302
102
{ACAD_REACTORS
330
12F9
102
}
330
12F9
100
AcDbScale
 70
     0
300
1/4" = 1'-0"
140
0.25
141
12.0
290
     0
  0
SCALE
  5
1303
102
{ACAD_REACTORS
330
12F9
102
}
330
12F9
100
AcDbScale
 70
     0
300
3/8" = 1'-0"
140
0.375
141
12.0
290
     0
  0
SCALE
  5
1304
102
{ACAD_REACTORS
330
12F9
102
}
330
12F9
100
AcDbScale
 70
     0
300
1/2" = 1'-0"
140
0.5
141
12.0
290
     0
  0
SCALE
  5
1305
102
{ACAD_REACTORS
330
12F9
102
}
330
12F9
100
AcDbScale
 70
     0
300
3/4" = 1'-0"
140
0.75
141
12.0
290
     0
  0
SCALE
  5
1306
102
{ACAD_REACTORS
330
12F9
102
}
330
12F9
100
AcDbScale
 70
     0
300
1" = 1'-0"
140
1.0
141
12.0
290
     0
  0
SCALE
  5
1307
102
{ACAD_REACTORS
330
12F9
102
}
330
12F9
100
AcDbScale
 70
     0
300
1-1/2" = 1'-0"
140
1.5
141
12.0
290
     0
  0
SCALE
  5
1308
102
{ACAD_REACTORS
330
12F9
102
}
330
12F9
100
AcDbScale
 70
     0
300
3" = 1'-0"
140
3.0
141
12.0
290
     0
  0
SCALE
  5
1309
102
{ACAD_REACTORS
330
12F9
102
}
330
12F9
100
AcDbScale
 70
     0
300
6" = 1'-0"
140
6.0
141
12.0
290
     0
  0
SCALE
  5
130A
102
{ACAD_REACTORS
330
12F9
102
}
330
12F9
100
AcDbScale
 70
     0
300
1'-0" = 1'-0"
140
12.0
141
12.0
290
     0
  0
ACDBSECTIONVIEWSTYLE
  5
130E
102
{ACAD_XDICTIONARY
360
1368
102
}
102
{ACAD_REACTORS
330
130D
102
}
330
130D
100
AcDbModelDocViewStyle
 70
     0
  3
Imperial24
290
     0
100
AcDbSectionViewStyle
 70
     0
 71
     0
 90
       78
 71
     1
340
F
 40
0.24
340
0
340
0
 40
0.24
300
I, O, Q, S, X, Z
 40
0.48
 90
        3
 40
0.18
 90
        1
 71
     2
340
14
 90
       25
340
14
 90
       50
 40
0.24
 40
0.0
 40
0.24
 71
     3
340
F
 40
0.24
 90
        1
 40
0.75
 90
        1
300
%<\AcVar ViewType \f "%tc1">% %<\AcVar ViewSectionStartId>%-%<\AcVar ViewSectionEndId>%\PSCALE %<\AcVar ViewScale \f "%sn">%
 71
     4
300
ANSI31
 40
1.0
 90
        0
290
     0
290
     0
 90
        6
 40
0.0
 40
1.570796326794896
 40
0.2617993877991494
 40
1.308996938995747
 40
-0.2617993877991494
 40
1.832595714594046
  0
TABLESTYLE
  5
12F8
102
{ACAD_XDICTIONARY
360
132F
102
}
102
{ACAD_REACTORS
330
12F7
102
}
330
12F7
100
AcDbTableStyle
  3
Standard
 70
     0
 71
     0
 40
0.06
 41
0.06
280
     0
281
     0
  7
STANDARD
140
0.18
170
     2
 62
     0
 63
     7
283
     0
274
    -2
284
     1
 64
     0
275
    -2
285
     1
 65
     0
276
    -2
286
     1
 66
     0
277
    -2
287
     1
 67
     0
278
    -2
288
     1
 68
     0
279
    -2
289
     1
 69
     0
  7
STANDARD
140
0.25
170
     5
 62
     0
 63
     7
283
     0
274
    -2
284
     1
 64
     0
275
    -2
285
     1
 65
     0
276
    -2
286
     1
 66
     0
277
    -2
287
     1
 67
     0
278
    -2
288
     1
 68
     0
279
    -2
289
     1
 69
     0
  7
STANDARD
140
0.18
170
     5
 62
     0
 63
     7
283
     0
274
    -2
284
     1
 64
     0
275
    -2
285
     1
 65
     0
276
    -2
286
     1
 66
     0
277
    -2
287
     1
 67
     0
278
    -2
288
     1
 68
     0
279
    -2
289
     1
 69
     0
  0
VISUALSTYLE
  5
12E3
102
{ACAD_XDICTIONARY
360
1340
102
}
102
{ACAD_REACTORS
330
12DD
102
}
330
12DD
100
AcDbVisualStyle
  2
2dWireframe
 70
     4
 71
     0
 72
     2
 73
     0
 90
        0
 40
-0.6
 41
-30.0
 62
     5
 63
     7
 74
     1
 91
        4
 64
     7
 65
   257
 75
     1
175
     1
 42
1.0
 92
        0
 66
   257
 43
1.0
 76
     1
 77
     6
 78
     2
 67
     7
 79
     5
170
     0
171
     0
290
     0
174
     0
 93
        1
 44
0.0
173
     0
291
     0
 45
0.0
1001
ACAD
1000
AcDbSavedByObjectVersion
1070
     0
  0
VISUALSTYLE
  5
12E2
102
{ACAD_XDICTIONARY
360
133E
102
}
102
{ACAD_REACTORS
330
12DD
102
}
330
12DD
100
AcDbVisualStyle
  2
Basic
 70
     7
 71
     1
 72
     0
 73
     1
 90
        0
 40
-0.6
 41
-30.0
 62
     5
 63
     7
 74
     0
 91
        4
 64
     7
 65
   257
 75
     1
175
     1
 42
1.0
 92
        8
 66
     7
 43
1.0
 76
     1
 77
     6
 78
     2
 67
     7
 79
     5
170
     0
171
     0
290
     0
174
     0
 93
        1
 44
0.0
173
     0
291
     1
 45
0.0
1001
ACAD
1000
AcDbSavedByObjectVersion
1070
     0
  0
VISUALSTYLE
  5
12E9
102
{ACAD_XDICTIONARY
360
134C
102
}
102
{ACAD_REACTORS
330
12DD
102
}
330
12DD
100
AcDbVisualStyle
  2
Brighten
 70
    12
 71
     2
 72
     2
 73
     0
 90
        0
 40
-0.6
 41
-30.0
 62
     5
 63
     7
 74
     1
 91
        4
 64
     7
 65
   257
 75
     1
175
     1
 42
1.0
 92
        8
 66
     7
 43
1.0
 76
     1
 77
     6
 78
     2
 67
     7
 79
     5
170
     0
171
     0
290
     0
174
     0
 93
        1
 44
50.0
173
     0
291
     1
 45
0.0
1001
ACAD
1000
AcDbSavedByObjectVersion
1070
     0
  0
VISUALSTYLE
  5
12ED
102
{ACAD_XDICTIONARY
360
1354
102
}
102
{ACAD_REACTORS
330
12DD
102
}
330
12DD
100
AcDbVisualStyle
  2
ColorChange
 70
    16
 71
     2
 72
     2
 73
     3
 90
        0
 40
-0.6
 41
-30.0
 62
     5
 63
     8
 74
     1
 91
        4
 64
     7
 65
   257
 75
     1
175
     1
 42
1.0
 92
        8
 66
     8
 43
1.0
 76
     1
 77
     6
 78
     2
 67
     7
 79
     5
170
     0
171
     0
290
     0
174
     0
 93
        1
 44
0.0
173
     0
291
     1
 45
0.0
1001
ACAD
1000
AcDbSavedByObjectVersion
1070
     0
  0
VISUALSTYLE
  5
12E6
102
{ACAD_XDICTIONARY
360
1346
102
}
102
{ACAD_REACTORS
330
12DD
102
}
330
12DD
100
AcDbVisualStyle
  2
Conceptual
 70
     9
 71
     3
 72
     2
 73
     0
 90
        0
 40
-0.6
 41
-30.0
 62
     5
 63
     7
 74
     2
 91
        2
 64
     7
 65
   257
 75
     1
175
     1
 42
179.0
 92
        8
 66
     7
 43
1.0
 76
     1
 77
     6
 78
     2
 67
     7
 79
     3
170
     0
171
     0
290
     0
174
     0
 93
        1
 44
0.0
173
     0
291
     0
 45
0.0
1001
ACAD
1000
AcDbSavedByObjectVersion
1070
     0
  0
VISUALSTYLE
  5
12E8
102
{ACAD_XDICTIONARY
360
134A
102
}
102
{ACAD_REACTORS
330
12DD
102
}
330
12DD
100
AcDbVisualStyle
  2
Dim
 70
    11
 71
     2
 72
     2
 73
     0
 90
        0
 40
-0.6
 41
-30.0
 62
     5
 63
     7
 74
     1
 91
        4
 64
     7
 65
   257
 75
     1
175
     1
 42
1.0
 92
        8
 66
     7
 43
1.0
 76
     1
 77
     6
 78
     2
 67
     7
 79
     5
170
     0
171
     0
290
     0
174
     0
 93
        1
 44
-50.0
173
     0
291
     1
 45
0.0
1001
ACAD
1000
AcDbSavedByObjectVersion
1070
     0
  0
VISUALSTYLE
  5
12F5
102
{ACAD_XDICTIONARY
360
1364
102
}
102
{ACAD_REACTORS
330
12DD
102
}
330
12DD
100
AcDbVisualStyle
  2
EdgeColorOff
 70
    22
 71
     2
 72
     2
 73
     0
 90
        0
 40
-0.6
 41
-30.0
 62
     5
 63
     7
 74
     1
 91
        4
 64
     7
 65
   257
 75
     1
175
     1
 42
1.0
 92
        8
 66
     7
 43
1.0
 76
     1
 77
     6
 78
     2
 67
     7
 79
     5
170
     0
171
     0
290
     0
174
     0
 93
        1
 44
0.0
173
     0
291
     1
 45
0.0
1001
ACAD
1000
AcDbSavedByObjectVersion
1070
     0
  0
VISUALSTYLE
  5
12EC
102
{ACAD_XDICTIONARY
360
1352
102
}
102
{ACAD_REACTORS
330
12DD
102
}
330
12DD
100
AcDbVisualStyle
  2
Facepattern
 70
    15
 71
     2
 72
     2
 73
     0
 90
        0
 40
-0.6
 41
-30.0
 62
     5
 63
     7
 74
     1
 91
        4
 64
     7
 65
   257
 75
     1
175
     1
 42
1.0
 92
        8
 66
     7
 43
1.0
 76
     1
 77
     6
 78
     2
 67
     7
 79
     5
170
     0
171
     0
290
     0
174
     0
 93
        1
 44
0.0
173
     0
291
     1
 45
0.0
1001
ACAD
1000
AcDbSavedByObjectVersion
1070
     0
  0
VISUALSTYLE
  5
12DE
102
{ACAD_XDICTIONARY
360
1336
102
}
102
{ACAD_REACTORS
330
12DD
102
}
330
12DD
100
AcDbVisualStyle
  2
Flat
 70
     0
 71
     2
 72
     1
 73
     1
 90
        2
 40
-0.6
 41
30.0
 62
     5
 63
     7
 74
     0
 91
        0
 64
     7
 65
   257
 75
     1
175
     1
 42
1.0
 92
        8
 66
     7
 43
1.0
 76
     1
 77
     6
 78
     2
 67
     7
 79
     5
170
     0
171
     0
290
     0
174
     0
 93
       13
 44
0.0
173
     0
291
     1
 45
0.0
1001
ACAD
1000
AcDbSavedByObjectVersion
1070
     0
  0
VISUALSTYLE
  5
12DF
102
{ACAD_XDICTIONARY
360
1338
102
}
102
{ACAD_REACTORS
330
12DD
102
}
330
12DD
100
AcDbVisualStyle
  2
FlatWithEdges
 70
     1
 71
     2
 72
     1
 73
     1
 90
        2
 40
-0.6
 41
30.0
 62
     5
 63
     7
 74
     1
 91
        0
 64
     7
 65
   257
 75
     1
175
     1
 42
1.0
 92
        0
 66
   257
 43
1.0
 76
     1
 77
     6
 78
     2
 67
     7
 79
     5
170
     0
171
     0
290
     0
174
     0
 93
       13
 44
0.0
173
     0
291
     1
 45
0.0
1001
ACAD
1000
AcDbSavedByObjectVersion
1070
     0
  0
VISUALSTYLE
  5
12E0
102
{ACAD_XDICTIONARY
360
133A
102
}
102
{ACAD_REACTORS
330
12DD
102
}
330
12DD
100
AcDbVisualStyle
  2
Gouraud
 70
     2
 71
     2
 72
     2
 73
     1
 90
        2
 40
-0.6
 41
30.0
 62
     5
 63
     7
 74
     0
 91
        0
 64
     7
 65
   257
 75
     1
175
     1
 42
1.0
 92
        0
 66
     7
 43
1.0
 76
     1
 77
     6
 78
     2
 67
     7
 79
     5
170
     0
171
     0
290
     0
174
     0
 93
       13
 44
0.0
173
     0
291
     1
 45
0.0
1001
ACAD
1000
AcDbSavedByObjectVersion
1070
     0
  0
VISUALSTYLE
  5
12E1
102
{ACAD_XDICTIONARY
360
133C
102
}
102
{ACAD_REACTORS
330
12DD
102
}
330
12DD
100
AcDbVisualStyle
  2
GouraudWithEdges
 70
     3
 71
     2
 72
     2
 73
     1
 90
        2
 40
-0.6
 41
30.0
 62
     5
 63
     7
 74
     1
 91
        0
 64
     7
 65
   257
 75
     1
175
     1
 42
1.0
 92
        0
 66
   257
 43
1.0
 76
     1
 77
     6
 78
     2
 67
     7
 79
     5
170
     0
171
     0
290
     0
174
     0
 93
       13
 44
0.0
173
     0
291
     1
 45
0.0
1001
ACAD
1000
AcDbSavedByObjectVersion
1070
     0
  0
VISUALSTYLE
  5
12E5
102
{ACAD_XDICTIONARY
360
1344
102
}
102
{ACAD_REACTORS
330
12DD
102
}
330
12DD
100
AcDbVisualStyle
  2
Hidden
 70
     6
 71
     1
 72
     2
 73
     2
 90
        0
 40
-0.6
 41
-30.0
 62
     5
 63
     7
 74
     2
 91
        2
 64
     7
 65
   257
 75
     2
175
     1
 42
40.0
 92
        0
 66
   257
 43
1.0
 76
     1
 77
     6
 78
     2
 67
     7
 79
     3
170
     0
171
     0
290
     0
174
     0
 93
        1
 44
0.0
173
     0
291
     0
 45
0.0
1001
ACAD
1000
AcDbSavedByObjectVersion
1070
     0
  0
VISUALSTYLE
  5
12F3
102
{ACAD_XDICTIONARY
360
1360
102
}
102
{ACAD_REACTORS
330
12DD
102
}
330
12DD
100
AcDbVisualStyle
  2
JitterOff
 70
    20
 71
     2
 72
     2
 73
     0
 90
        0
 40
-0.6
 41
-30.0
 62
     5
 63
     7
 74
     1
 91
        4
 64
     7
 65
   257
 75
     1
175
     1
 42
1.0
 92
       10
 66
     7
 43
1.0
 76
     1
 77
     6
 78
     2
 67
     7
 79
     5
170
     0
171
     0
290
     0
174
     0
 93
        1
 44
0.0
173
     0
291
     1
 45
0.0
1001
ACAD
1000
AcDbSavedByObjectVersion
1070
     0
  0
VISUALSTYLE
  5
12EB
102
{ACAD_XDICTIONARY
360
1350
102
}
102
{ACAD_REACTORS
330
12DD
102
}
330
12DD
100
AcDbVisualStyle
  2
Linepattern
 70
    14
 71
     2
 72
     2
 73
     0
 90
        0
 40
-0.6
 41
-30.0
 62
     5
 63
     7
 74
     1
 91
        4
 64
     7
 65
   257
 75
     7
175
     7
 42
1.0
 92
        8
 66
     7
 43
1.0
 76
     1
 77
     6
 78
     2
 67
     7
 79
     5
170
     0
171
     0
290
     0
174
     0
 93
        1
 44
0.0
173
     0
291
     1
 45
0.0
1001
ACAD
1000
AcDbSavedByObjectVersion
1070
     0
  0
VISUALSTYLE
  5
12F4
102
{ACAD_XDICTIONARY
360
1362
102
}
102
{ACAD_REACTORS
330
12DD
102
}
330
12DD
100
AcDbVisualStyle
  2
OverhangOff
 70
    21
 71
     2
 72
     2
 73
     0
 90
        0
 40
-0.6
 41
-30.0
 62
     5
 63
     7
 74
     1
 91
        4
 64
     7
 65
   257
 75
     1
175
     1
 42
1.0
 92
        9
 66
     7
 43
1.0
 76
     1
 77
     6
 78
     2
 67
     7
 79
     5
170
     0
171
     0
290
     0
174
     0
 93
        1
 44
0.0
173
     0
291
     1
 45
0.0
1001
ACAD
1000
AcDbSavedByObjectVersion
1070
     0
  0
VISUALSTYLE
  5
12E7
102
{ACAD_XDICTIONARY
360
1348
102
}
102
{ACAD_REACTORS
330
12DD
102
}
330
12DD
100
AcDbVisualStyle
  2
Realistic
 70
     8
 71
     2
 72
     3
 73
     0
 90
        2
 40
-0.6
 41
30.0
 62
     5
 63
     7
 74
     0
 91
        0
 64
     7
 65
   257
 75
     1
175
     1
 42
1.0
 92
        8
 66
   257
 43
1.0
 76
     1
 77
     6
 78
     2
 67
     7
 79
     3
170
     0
171
     0
290
     0
174
     0
 93
       13
 44
0.0
173
     0
291
     0
 45
0.0
1001
ACAD
1000
AcDbSavedByObjectVersion
1070
     0
  0
VISUALSTYLE
  5
12F2
102
{ACAD_XDICTIONARY
360
135E
102
}
102
{ACAD_REACTORS
330
12DD
102
}
330
12DD
100
AcDbVisualStyle
  2
Shaded
 70
    27
 71
     2
 72
     2
 73
     1
 90
        2
 40
-0.6
 41
30.0
 62
     5
 63
     7
 74
     0
 91
        4
 64
     7
 65
   257
 75
     1
175
     1
 42
1.0
 92
        8
 66
   257
 43
1.0
 76
     1
 77
     6
 78
     2
 67
     8
 79
     3
170
     0
171
     0
290
     0
174
     0
 93
        5
 44
0.0
173
     0
291
     0
 45
0.0
1001
ACAD
1000
AcDbSavedByObjectVersion
1070
     0
  0
VISUALSTYLE
  5
12F1
102
{ACAD_XDICTIONARY
360
135C
102
}
102
{ACAD_REACTORS
330
12DD
102
}
330
12DD
100
AcDbVisualStyle
  2
Shaded with edges
 70
    26
 71
     2
 72
     2
 73
     1
 90
        2
 40
-0.6
 41
30.0
 62
     5
 63
     7
 74
     1
 91
       10
 64
     7
 65
   257
 75
     2
175
     1
 42
1.0
 92
        8
 66
   257
 43
1.0
 76
     1
 77
     6
 78
     2
 67
     7
 79
     3
170
     0
171
     0
290
     0
174
     0
 93
        5
 44
0.0
173
     0
291
     0
 45
0.0
1001
ACAD
1000
AcDbSavedByObjectVersion
1070
     0
  0
VISUALSTYLE
  5
12EE
102
{ACAD_XDICTIONARY
360
1356
102
}
102
{ACAD_REACTORS
330
12DD
102
}
330
12DD
100
AcDbVisualStyle
  2
Shades of Gray
 70
    23
 71
     2
 72
     2
 73
     3
 90
        0
 40
-0.6
 41
-30.0
 62
     5
 63
     7
 74
     2
 91
        2
 64
     7
 65
     7
 75
     1
175
     1
 42
40.0
 92
        8
 66
     7
 43
1.0
 76
     1
 77
     6
 78
     2
 67
     7
 79
     3
170
     0
171
     0
290
     0
174
     0
 93
        1
 44
0.0
173
     0
291
     0
 45
0.0
1001
ACAD
1000
AcDbSavedByObjectVersion
1070
     0
  0
VISUALSTYLE
  5
12EF
102
{ACAD_XDICTIONARY
360
1358
102
}
102
{ACAD_REACTORS
330
12DD
102
}
330
12DD
100
AcDbVisualStyle
  2
Sketchy
 70
    24
 71
     1
 72
     2
 73
     2
 90
        0
 40
-0.6
 41
-30.0
 62
     5
 63
     7
 74
     2
 91
        2
 64
     7
 65
     7
 75
     1
175
     1
 42
40.0
 92
       11
 66
     7
 43
1.0
 76
     1
 77
     6
 78
     2
 67
     7
 79
     6
170
     0
171
     0
290
     0
174
     0
 93
        1
 44
0.0
173
     0
291
     0
 45
0.0
1001
ACAD
1000
AcDbSavedByObjectVersion
1070
     0
  0
VISUALSTYLE
  5
12EA
102
{ACAD_XDICTIONARY
360
134E
102
}
102
{ACAD_REACTORS
330
12DD
102
}
330
12DD
100
AcDbVisualStyle
  2
Thicken
 70
    13
 71
     2
 72
     2
 73
     0
 90
        0
 40
-0.6
 41
-30.0
 62
     5
 63
     7
 74
     1
 91
        4
 64
     7
 65
   257
 75
     1
175
     1
 42
1.0
 92
       12
 66
     7
 43
1.0
 76
     1
 77
     6
 78
     2
 67
     7
 79
     5
170
     0
171
     0
290
     0
174
     0
 93
        1
 44
0.0
173
     0
291
     1
 45
0.0
1001
ACAD
1000
AcDbSavedByObjectVersion
1070
     0
  0
VISUALSTYLE
  5
12E4
102
{ACAD_XDICTIONARY
360
1342
102
}
102
{ACAD_REACTORS
330
12DD
102
}
330
12DD
100
AcDbVisualStyle
  2
Wireframe
 70
     5
 71
     0
 72
     2
 73
     0
 90
        0
 40
-0.6
 41
-30.0
 62
     5
 63
     7
 74
     1
 91
        4
 64
     7
 65
   257
 75
     1
175
     1
 42
1.0
 92
        0
 66
   257
 43
1.0
 76
     1
 77
     6
 78
     2
 67
     7
 79
     3
170
     0
171
     0
290
     0
174
     0
 93
        1
 44
0.0
173
     0
291
     0
 45
0.0
1001
ACAD
1000
AcDbSavedByObjectVersion
1070
     0
  0
VISUALSTYLE
  5
12F0
102
{ACAD_XDICTIONARY
360
135A
102
}
102
{ACAD_REACTORS
330
12DD
102
}
330
12DD
100
AcDbVisualStyle
  2
X-Ray
 70
    25
 71
     2
 72
     2
 73
     1
 90
        1
 40
0.5
 41
-30.0
 62
     5
 63
     7
 74
     1
 91
        0
 64
     7
 65
   257
 75
     1
175
     1
 42
1.0
 92
        8
 66
     7
 43
1.0
 76
     1
 77
     6
 78
     2
 67
     7
 79
     3
170
     0
171
     0
290
     0
174
     0
 93
       13
 44
0.0
173
     0
291
     0
 45
0.0
1001
ACAD
1000
AcDbSavedByObjectVersion
1070
     0
  0
DICTIONARYVAR
  5
1329
102
{ACAD_REACTORS
330
1324
102
}
330
1324
100
DictionaryVariables
280
     0
  1
1:1
  0
DICTIONARYVAR
  5
1326
102
{ACAD_REACTORS
330
1324
102
}
330
1324
100
DictionaryVariables
280
     0
  1
STANDARD
  0
DICTIONARYVAR
  5
1325
102
{ACAD_REACTORS
330
1324
102
}
330
1324
100
DictionaryVariables
280
     0
  1
STANDARD
  0
DICTIONARYVAR
  5
1327
102
{ACAD_REACTORS
330
1324
102
}
330
1324
100
DictionaryVariables
280
     0
  1
Imperial24
  0
DICTIONARYVAR
  5
1328
102
{ACAD_REACTORS
330
1324
102
}
330
1324
100
DictionaryVariables
280
     0
  1
Imperial24
  0
DICTIONARYVAR
  5
132C
102
{ACAD_REACTORS
330
1324
102
}
330
1324
100
DictionaryVariables
280
     0
  1
1
  0
DICTIONARYVAR
  5
132B
102
{ACAD_REACTORS
330
1324
102
}
330
1324
100
DictionaryVariables
280
     0
  1
0
  0
DICTIONARYVAR
  5
132A
102
{ACAD_REACTORS
330
1324
102
}
330
1324
100
DictionaryVariables
280
     0
  1
127
  0
DICTIONARYVAR
  5
132D
102
{ACAD_REACTORS
330
1324
102
}
330
1324
100
DictionaryVariables
280
     0
  1
2
  0
DICTIONARY
  5
136A
330
1310
100
AcDbDictionary
280
     1
281
     1
  3
ACAD_XREC_ROUNDTRIP
360
136B
  0
DICTIONARY
  5
136C
330
1311
100
AcDbDictionary
280
     1
281
     1
  3
ACAD_XREC_ROUNDTRIP
360
136D
  0
DICTIONARY
  5
136E
330
1312
100
AcDbDictionary
280
     1
281
     1
  3
ACAD_XREC_ROUNDTRIP
360
136F
  0
DICTIONARY
  5
12CE
330
12CD
100
AcDbDictionary
280
     1
281
     1
  3
ACAD_XREC_ROUNDTRIP
360
1334
  3
BUMPTILE
360
12D0
  3
DIFFUSETILE
360
12CF
  3
OPACITYTILE
360
12D3
  3
REFLECTIONTILE
360
12D2
  3
REFRACTIONTILE
360
12D4
  3
SPECULARTILE
360
12D1
  0
DICTIONARY
  5
12C6
330
12C5
100
AcDbDictionary
280
     1
281
     1
  3
ACAD_XREC_ROUNDTRIP
360
1333
  3
BUMPTILE
360
12C8
  3
DIFFUSETILE
360
12C7
  3
OPACITYTILE
360
12CB
  3
REFLECTIONTILE
360
12CA
  3
REFRACTIONTILE
360
12CC
  3
SPECULARTILE
360
12C9
  0
DICTIONARY
  5
12D6
330
12D5
100
AcDbDictionary
280
     1
281
     1
  3
ACAD_XREC_ROUNDTRIP
360
1335
  3
BUMPTILE
360
12D8
  3
DIFFUSETILE
360
12D7
  3
OPACITYTILE
360
12DB
  3
REFLECTIONTILE
360
12DA
  3
REFRACTIONTILE
360
12DC
  3
SPECULARTILE
360
12D9
  0
DICTIONARY
  5
1368
330
130E
100
AcDbDictionary
280
     1
281
     1
  3
ACAD_XREC_ROUNDTRIP
360
1369
  0
DICTIONARY
  5
132F
330
12F8
100
AcDbDictionary
280
     1
281
     1
  3
ACAD_ROUNDTRIP_2008_TABLESTYLE_CELLSTYLEMAP
360
1330
  3
ACAD_XREC_ROUNDTRIP
360
1366
  0
DICTIONARY
  5
1340
330
12E3
100
AcDbDictionary
280
     1
281
     1
  3
ACAD_XREC_ROUNDTRIP
360
1341
  0
DICTIONARY
  5
133E
330
12E2
100
AcDbDictionary
280
     1
281
     1
  3
ACAD_XREC_ROUNDTRIP
360
133F
  0
DICTIONARY
  5
134C
330
12E9
100
AcDbDictionary
280
     1
281
     1
  3
ACAD_XREC_ROUNDTRIP
360
134D
  0
DICTIONARY
  5
1354
330
12ED
100
AcDbDictionary
280
     1
281
     1
  3
ACAD_XREC_ROUNDTRIP
360
1355
  0
DICTIONARY
  5
1346
330
12E6
100
AcDbDictionary
280
     1
281
     1
  3
ACAD_XREC_ROUNDTRIP
360
1347
  0
DICTIONARY
  5
134A
330
12E8
100
AcDbDictionary
280
     1
281
     1
  3
ACAD_XREC_ROUNDTRIP
360
134B
  0
DICTIONARY
  5
1364
330
12F5
100
AcDbDictionary
280
     1
281
     1
  3
ACAD_XREC_ROUNDTRIP
360
1365
  0
DICTIONARY
  5
1352
330
12EC
100
AcDbDictionary
280
     1
281
     1
  3
ACAD_XREC_ROUNDTRIP
360
1353
  0
DICTIONARY
  5
1336
330
12DE
100
AcDbDictionary
280
     1
281
     1
  3
ACAD_XREC_ROUNDTRIP
360
1337
  0
DICTIONARY
  5
1338
330
12DF
100
AcDbDictionary
280
     1
281
     1
  3
ACAD_XREC_ROUNDTRIP
360
1339
  0
DICTIONARY
  5
133A
330
12E0
100
AcDbDictionary
280
     1
281
     1
  3
ACAD_XREC_ROUNDTRIP
360
133B
  0
DICTIONARY
  5
133C
330
12E1
100
AcDbDictionary
280
     1
281
     1
  3
ACAD_XREC_ROUNDTRIP
360
133D
  0
DICTIONARY
  5
1344
330
12E5
100
AcDbDictionary
280
     1
281
     1
  3
ACAD_XREC_ROUNDTRIP
360
1345
  0
DICTIONARY
  5
1360
330
12F3
100
AcDbDictionary
280
     1
281
     1
  3
ACAD_XREC_ROUNDTRIP
360
1361
  0
DICTIONARY
  5
1350
330
12EB
100
AcDbDictionary
280
     1
281
     1
  3
ACAD_XREC_ROUNDTRIP
360
1351
  0
DICTIONARY
  5
1362
330
12F4
100
AcDbDictionary
280
     1
281
     1
  3
ACAD_XREC_ROUNDTRIP
360
1363
  0
DICTIONARY
  5
1348
330
12E7
100
AcDbDictionary
280
     1
281
     1
  3
ACAD_XREC_ROUNDTRIP
360
1349
  0
DICTIONARY
  5
135E
330
12F2
100
AcDbDictionary
280
     1
281
     1
  3
ACAD_XREC_ROUNDTRIP
360
135F
  0
DICTIONARY
  5
135C
330
12F1
100
AcDbDictionary
280
     1
281
     1
  3
ACAD_XREC_ROUNDTRIP
360
135D
  0
DICTIONARY
  5
1356
330
12EE
100
AcDbDictionary
280
     1
281
     1
  3
ACAD_XREC_ROUNDTRIP
360
1357
  0
DICTIONARY
  5
1358
330
12EF
100
AcDbDictionary
280
     1
281
     1
  3
ACAD_XREC_ROUNDTRIP
360
1359
  0
DICTIONARY
  5
134E
330
12EA
100
AcDbDictionary
280
     1
281
     1
  3
ACAD_XREC_ROUNDTRIP
360
134F
  0
DICTIONARY
  5
1342
330
12E4
100
AcDbDictionary
280
     1
281
     1
  3
ACAD_XREC_ROUNDTRIP
360
1343
  0
DICTIONARY
  5
135A
330
12F0
100
AcDbDictionary
280
     1
281
     1
  3
ACAD_XREC_ROUNDTRIP
360
135B
  0
XRECORD
  5
136B
102
{ACAD_REACTORS
330
136A
102
}
330
136A
100
AcDbXrecord
280
     1
102
DISPLAYNAME
  1
Imperial24
102
FLAGS
 90
        0
  0
XRECORD
  5
136D
102
{ACAD_REACTORS
330
136C
102
}
330
136C
100
AcDbXrecord
280
     1
102
SHADEPLOT
 70
     0
102
SHADEPLOTRESLEVEL
 70
     2
102
SHADEPLOTCUSTOMDPI
 70
   300
  0
XRECORD
  5
136F
102
{ACAD_REACTORS
330
136E
102
}
330
136E
100
AcDbXrecord
280
     1
102
SHADEPLOT
 70
     0
102
SHADEPLOTRESLEVEL
 70
     2
102
SHADEPLOTCUSTOMDPI
 70
   300
  0
XRECORD
  5
1334
102
{ACAD_REACTORS
330
12CE
102
}
330
12CE
100
AcDbXrecord
280
     1
102
MATERIAL
148
0.0
149
0.0
149
0.0
 93
        0
 94
      127
282
     0
 72
     0
 77
     0
171
     0
175
     0
179
     0
273
     0
  0
XRECORD
  5
12D0
102
{ACAD_REACTORS
330
12CE
102
}
330
12CE
100
AcDbXrecord
280
     1
270
     1
271
     1
  0
XRECORD
  5
12CF
102
{ACAD_REACTORS
330
12CE
102
}
330
12CE
100
AcDbXrecord
280
     1
270
     1
271
     1
  0
XRECORD
  5
12D3
102
{ACAD_REACTORS
330
12CE
102
}
330
12CE
100
AcDbXrecord
280
     1
270
     1
271
     1
  0
XRECORD
  5
12D2
102
{ACAD_REACTORS
330
12CE
102
}
330
12CE
100
AcDbXrecord
280
     1
270
     1
271
     1
  0
XRECORD
  5
12D4
102
{ACAD_REACTORS
330
12CE
102
}
330
12CE
100
AcDbXrecord
280
     1
270
     1
271
     1
  0
XRECORD
  5
12D1
102
{ACAD_REACTORS
330
12CE
102
}
330
12CE
100
AcDbXrecord
280
     1
270
     1
271
     1
  0
XRECORD
  5
1333
102
{ACAD_REACTORS
330
12C6
102
}
330
12C6
100
AcDbXrecord
280
     1
102
MATERIAL
148
0.0
149
0.0
149
0.0
 93
        0
 94
      127
282
     0
 72
     0
 77
     0
171
     0
175
     0
179
     0
273
     0
  0
XRECORD
  5
12C8
102
{ACAD_REACTORS
330
12C6
102
}
330
12C6
100
AcDbXrecord
280
     1
270
     1
271
     1
  0
XRECORD
  5
12C7
102
{ACAD_REACTORS
330
12C6
102
}
330
12C6
100
AcDbXrecord
280
     1
270
     1
271
     1
  0
XRECORD
  5
12CB
102
{ACAD_REACTORS
330
12C6
102
}
330
12C6
100
AcDbXrecord
280
     1
270
     1
271
     1
  0
XRECORD
  5
12CA
102
{ACAD_REACTORS
330
12C6
102
}
330
12C6
100
AcDbXrecord
280
     1
270
     1
271
     1
  0
XRECORD
  5
12CC
102
{ACAD_REACTORS
330
12C6
102
}
330
12C6
100
AcDbXrecord
280
     1
270
     1
271
     1
  0
XRECORD
  5
12C9
102
{ACAD_REACTORS
330
12C6
102
}
330
12C6
100
AcDbXrecord
280
     1
270
     1
271
     1
  0
XRECORD
  5
1335
102
{ACAD_REACTORS
330
12D6
102
}
330
12D6
100
AcDbXrecord
280
     1
102
MATERIAL
148
0.0
149
0.0
149
0.0
 93
        0
 94
      127
282
     0
 72
     0
 77
     0
171
     0
175
     0
179
     0
273
     0
  0
XRECORD
  5
12D8
102
{ACAD_REACTORS
330
12D6
102
}
330
12D6
100
AcDbXrecord
280
     1
270
     1
271
     1
  0
XRECORD
  5
12D7
102
{ACAD_REACTORS
330
12D6
102
}
330
12D6
100
AcDbXrecord
280
     1
270
     1
271
     1
  0
XRECORD
  5
12DB
102
{ACAD_REACTORS
330
12D6
102
}
330
12D6
100
AcDbXrecord
280
     1
270
     1
271
     1
  0
XRECORD
  5
12DA
102
{ACAD_REACTORS
330
12D6
102
}
330
12D6
100
AcDbXrecord
280
     1
270
     1
271
     1
  0
XRECORD
  5
12DC
102
{ACAD_REACTORS
330
12D6
102
}
330
12D6
100
AcDbXrecord
280
     1
270
     1
271
     1
  0
XRECORD
  5
12D9
102
{ACAD_REACTORS
330
12D6
102
}
330
12D6
100
AcDbXrecord
280
     1
270
     1
271
     1
  0
XRECORD
  5
1369
102
{ACAD_REACTORS
330
1368
102
}
330
1368
100
AcDbXrecord
280
     1
102
DISPLAYNAME
  1
Imperial24
102
FLAGS
 90
        0
  0
CELLSTYLEMAP
  5
1330
102
{ACAD_REACTORS
330
132F
102
}
330
132F
100
AcDbCellStyleMap
 90
        3
300
CELLSTYLE
  1
TABLEFORMAT_BEGIN
 90
        5
170
     1
 91
        0
 92
    32768
 62
   257
 93
        1
300
CONTENTFORMAT
  1
CONTENTFORMAT_BEGIN
 90
        0
 91
        0
 92
      512
 93
        0
300

 40
0.0
140
1.0
 94
        5
 62
     0
340
F
144
0.25
309
CONTENTFORMAT_END
171
     0
 94
        0
309
TABLEFORMAT_END
  1
CELLSTYLE_BEGIN
 90
        1
 91
        1
300
_TITLE
309
CELLSTYLE_END
300
CELLSTYLE
  1
TABLEFORMAT_BEGIN
 90
        5
170
     1
 91
        0
 92
        0
 62
   257
 93
        1
300
CONTENTFORMAT
  1
CONTENTFORMAT_BEGIN
 90
        0
 91
        0
 92
      512
 93
        0
300

 40
0.0
140
1.0
 94
        5
 62
     0
340
F
144
0.18
309
CONTENTFORMAT_END
171
     0
 94
        0
309
TABLEFORMAT_END
  1
CELLSTYLE_BEGIN
 90
        2
 91
        1
300
_HEADER
309
CELLSTYLE_END
300
CELLSTYLE
  1
TABLEFORMAT_BEGIN
 90
        5
170
     1
 91
        0
 92
        0
 62
   257
 93
        1
300
CONTENTFORMAT
  1
CONTENTFORMAT_BEGIN
 90
        0
 91
        0
 92
      512
 93
        0
300

 40
0.0
140
1.0
 94
        2
 62
     0
340
F
144
0.18
309
CONTENTFORMAT_END
171
     0
 94
        0
309
TABLEFORMAT_END
  1
CELLSTYLE_BEGIN
 90
        3
 91
        2
300
_DATA
309
CELLSTYLE_END
  0
XRECORD
  5
1366
102
{ACAD_REACTORS
330
132F
102
}
330
132F
100
AcDbXrecord
280
     1
102
ACAD_ROUNDTRIP_PRE2007_TABLESTYLE
 90
      512
 91
        0
  1

 92
      512
 93
        0
  2

 94
      512
 95
        0
  3

  0
XRECORD
  5
1341
102
{ACAD_REACTORS
330
1340
102
}
330
1340
100
AcDbXrecord
280
     1
102
RTVSPost2010Prop28
280
     1
102
RTVSPost2010PropOp28
 70
     1
102
RTVSPost2010Prop29
280
     1
102
RTVSPost2010PropOp29
 70
     1
102
RTVSPost2010Prop30
280
     0
102
RTVSPost2010PropOp30
 70
     1
102
RTVSPost2010Prop31
280
     0
102
RTVSPost2010PropOp31
 70
     1
102
RTVSPost2010Prop32
280
     0
102
RTVSPost2010PropOp32
 70
     1
102
RTVSPost2010Prop33
280
     0
102
RTVSPost2010PropOp33
 70
     1
102
RTVSPost2010Prop34
280
     0
102
RTVSPost2010PropOp34
 70
     1
102
RTVSPost2010Prop35
280
     0
102
RTVSPost2010PropOp35
 70
     1
102
RTVSPost2010Prop36
280
     0
102
RTVSPost2010PropOp36
 70
     1
102
RTVSPost2010Prop37
 90
       50
102
RTVSPost2010PropOp37
 70
     1
102
RTVSPost2010Prop38
140
0.0
102
RTVSPost2010PropOp38
 70
     1
102
RTVSPost2010Prop39
140
1.0
102
RTVSPost2010PropOp39
 70
     1
102
RTVSPost2010Prop40
 90
        0
102
RTVSPost2010PropOp40
 70
     1
102
RTVSPost2010Prop41ColorIndex
 90
       18
102
RTVSPost2010Prop41ColorRGB
 90
        0
102
RTVSPost2010PropOp41
 70
     1
102
RTVSPost2010Prop42
 90
       50
102
RTVSPost2010PropOp42
 70
     1
102
RTVSPost2010Prop43
 90
        3
102
RTVSPost2010PropOp43
 70
     1
102
RTVSPost2010Prop44ColorIndex
 90
        5
102
RTVSPost2010Prop44ColorRGB
 90
      255
102
RTVSPost2010PropOp44
 70
     1
102
RTVSPost2010Prop45
280
     0
102
RTVSPost2010PropOp45
 70
     1
102
RTVSPost2010Prop46
 90
       50
102
RTVSPost2010PropOp46
 70
     1
102
RTVSPost2010Prop47
 90
       50
102
RTVSPost2010PropOp47
 70
     1
102
RTVSPost2010Prop48
 90
       50
102
RTVSPost2010PropOp48
 70
     1
102
RTVSPost2010Prop49
280
     0
102
RTVSPost2010PropOp49
 70
     1
102
RTVSPost2010Prop50
 90
       50
102
RTVSPost2010PropOp50
 70
     1
102
RTVSPost2010Prop51ColorIndex
 90
      256
102
RTVSPost2010Prop51ColorRGB
 90
-16777216
102
RTVSPost2010PropOp51
 70
     0
102
RTVSPost2010Prop52
140
1.0
102
RTVSPost2010PropOp52
 70
     0
102
RTVSPost2010Prop53
 90
        2
102
RTVSPost2010PropOp53
 70
     1
102
RTVSPost2010Prop54
  1
strokes_ogs.tif
102
RTVSPost2010PropOp54
 70
     1
102
RTVSPost2010Prop55
280
     0
102
RTVSPost2010PropOp55
 70
     1
102
RTVSPost2010Prop56
140
1.0
102
RTVSPost2010PropOp56
 70
     1
102
RTVSPost2010Prop57
140
1.0
102
RTVSPost2010PropOp57
 70
     1
102
RTVSPropertyOp0
 70
     1
102
RTVSPropertyOp1
 70
     1
102
RTVSPropertyOp2
 70
     1
102
RTVSPropertyOp3
 70
     1
102
RTVSPropertyOp4
 70
     1
102
RTVSPropertyOp5
 70
     1
102
RTVSPropertyOp6
 70
     1
102
RTVSPropertyOp7
 70
     1
102
RTVSPropertyOp8
 70
     1
102
RTVSPropertyOp9
 70
     1
102
RTVSPropertyOp10
 70
     1
102
RTVSPropertyOp11
 70
     1
102
RTVSPropertyOp12
 70
     1
102
RTVSPropertyOp13
 70
     1
102
RTVSPropertyOp14
 70
     1
102
RTVSPropertyOp15
 70
     1
102
RTVSPropertyOp16
 70
     1
102
RTVSPropertyOp17
 70
     1
102
RTVSPropertyOp18
 70
     1
102
RTVSPropertyOp19
 70
     1
102
RTVSPropertyOp20
 70
     1
102
RTVSPropertyOp21
 70
     1
102
RTVSPropertyOp22
 70
     1
102
RTVSPropertyOp23
 70
     1
102
RTVSPropertyOp24
 70
     1
102
RTVSPropertyOp25
 70
     1
102
RTVSPropertyOp26
 70
     1
102
RTVSPropertyOp27
 70
     1
102
RTVSPropertyOp28
 70
     1
102
RTVSPropertyOp29
 70
     1
102
RTVSPropertyOp30
 70
     1
102
RTVSPropertyOp31
 70
     1
102
RTVSPropertyOp32
 70
     1
102
RTVSPropertyOp33
 70
     1
102
RTVSPropertyOp34
 70
     1
102
RTVSPropertyOp35
 70
     1
102
RTVSPropertyOp36
 70
     1
102
RTVSPropertyOp37
 70
     1
102
RTVSPropertyOp38
 70
     1
102
RTVSPropertyOp39
 70
     1
102
RTVSPropertyOp40
 70
     1
102
RTVSPropertyOp41
 70
     1
102
RTVSPropertyOp42
 70
     1
102
RTVSPropertyOp43
 70
     1
102
RTVSPropertyOp44
 70
     1
102
RTVSPropertyOp45
 70
     1
102
RTVSPropertyOp46
 70
     1
102
RTVSPropertyOp47
 70
     1
102
RTVSPropertyOp48
 70
     1
102
RTVSPropertyOp49
 70
     1
102
RTVSPropertyOp50
 70
     1
102
RTVSPropertyOp51
 70
     0
102
RTVSPropertyOp52
 70
     0
102
RTVSPropertyOp53
 70
     1
102
RTVSPropertyOp54
 70
     1
102
RTVSPropertyOp55
 70
     1
102
RTVSPropertyOp56
 70
     1
102
RTVSPropertyOp57
 70
     1
102
RTVSPropertyOp58
 70
     1
102
RTVSPropertyOp59
 70
     1
102
RTVSPropertyOp60
 70
     1
102
RTVSPropertyOp61
 70
     1
102
RTVSPropertyOp62
 70
     1
  0
XRECORD
  5
133F
102
{ACAD_REACTORS
330
133E
102
}
330
133E
100
AcDbXrecord
280
     1
102
RTVSPost2010Prop28
280
     0
102
RTVSPost2010PropOp28
 70
     1
102
RTVSPost2010Prop29
280
     1
102
RTVSPost2010PropOp29
 70
     1
102
RTVSPost2010Prop30
280
     1
102
RTVSPost2010PropOp30
 70
     1
102
RTVSPost2010Prop31
280
     0
102
RTVSPost2010PropOp31
 70
     1
102
RTVSPost2010Prop32
280
     0
102
RTVSPost2010PropOp32
 70
     1
102
RTVSPost2010Prop33
280
     0
102
RTVSPost2010PropOp33
 70
     1
102
RTVSPost2010Prop34
280
     0
102
RTVSPost2010PropOp34
 70
     1
102
RTVSPost2010Prop35
280
     0
102
RTVSPost2010PropOp35
 70
     1
102
RTVSPost2010Prop36
280
     0
102
RTVSPost2010PropOp36
 70
     1
102
RTVSPost2010Prop37
 90
       50
102
RTVSPost2010PropOp37
 70
     1
102
RTVSPost2010Prop38
140
0.0
102
RTVSPost2010PropOp38
 70
     1
102
RTVSPost2010Prop39
140
1.0
102
RTVSPost2010PropOp39
 70
     1
102
RTVSPost2010Prop40
 90
        0
102
RTVSPost2010PropOp40
 70
     1
102
RTVSPost2010Prop41ColorIndex
 90
       18
102
RTVSPost2010Prop41ColorRGB
 90
        0
102
RTVSPost2010PropOp41
 70
     1
102
RTVSPost2010Prop42
 90
       50
102
RTVSPost2010PropOp42
 70
     1
102
RTVSPost2010Prop43
 90
        3
102
RTVSPost2010PropOp43
 70
     1
102
RTVSPost2010Prop44ColorIndex
 90
        5
102
RTVSPost2010Prop44ColorRGB
 90
      255
102
RTVSPost2010PropOp44
 70
     1
102
RTVSPost2010Prop45
280
     0
102
RTVSPost2010PropOp45
 70
     1
102
RTVSPost2010Prop46
 90
       50
102
RTVSPost2010PropOp46
 70
     1
102
RTVSPost2010Prop47
 90
       50
102
RTVSPost2010PropOp47
 70
     1
102
RTVSPost2010Prop48
 90
       50
102
RTVSPost2010PropOp48
 70
     1
102
RTVSPost2010Prop49
280
     0
102
RTVSPost2010PropOp49
 70
     1
102
RTVSPost2010Prop50
 90
       50
102
RTVSPost2010PropOp50
 70
     1
102
RTVSPost2010Prop51ColorIndex
 90
      256
102
RTVSPost2010Prop51ColorRGB
 90
-16777216
102
RTVSPost2010PropOp51
 70
     0
102
RTVSPost2010Prop52
140
1.0
102
RTVSPost2010PropOp52
 70
     0
102
RTVSPost2010Prop53
 90
        2
102
RTVSPost2010PropOp53
 70
     1
102
RTVSPost2010Prop54
  1
strokes_ogs.tif
102
RTVSPost2010PropOp54
 70
     1
102
RTVSPost2010Prop55
280
     0
102
RTVSPost2010PropOp55
 70
     1
102
RTVSPost2010Prop56
140
1.0
102
RTVSPost2010PropOp56
 70
     1
102
RTVSPost2010Prop57
140
1.0
102
RTVSPost2010PropOp57
 70
     1
102
RTVSPropertyOp0
 70
     1
102
RTVSPropertyOp1
 70
     1
102
RTVSPropertyOp2
 70
     1
102
RTVSPropertyOp3
 70
     1
102
RTVSPropertyOp4
 70
     1
102
RTVSPropertyOp5
 70
     1
102
RTVSPropertyOp6
 70
     1
102
RTVSPropertyOp7
 70
     1
102
RTVSPropertyOp8
 70
     1
102
RTVSPropertyOp9
 70
     1
102
RTVSPropertyOp10
 70
     1
102
RTVSPropertyOp11
 70
     1
102
RTVSPropertyOp12
 70
     1
102
RTVSPropertyOp13
 70
     1
102
RTVSPropertyOp14
 70
     1
102
RTVSPropertyOp15
 70
     1
102
RTVSPropertyOp16
 70
     1
102
RTVSPropertyOp17
 70
     1
102
RTVSPropertyOp18
 70
     1
102
RTVSPropertyOp19
 70
     1
102
RTVSPropertyOp20
 70
     1
102
RTVSPropertyOp21
 70
     1
102
RTVSPropertyOp22
 70
     1
102
RTVSPropertyOp23
 70
     1
102
RTVSPropertyOp24
 70
     1
102
RTVSPropertyOp25
 70
     1
102
RTVSPropertyOp26
 70
     1
102
RTVSPropertyOp27
 70
     1
102
RTVSPropertyOp28
 70
     1
102
RTVSPropertyOp29
 70
     1
102
RTVSPropertyOp30
 70
     1
102
RTVSPropertyOp31
 70
     1
102
RTVSPropertyOp32
 70
     1
102
RTVSPropertyOp33
 70
     1
102
RTVSPropertyOp34
 70
     1
102
RTVSPropertyOp35
 70
     1
102
RTVSPropertyOp36
 70
     1
102
RTVSPropertyOp37
 70
     1
102
RTVSPropertyOp38
 70
     1
102
RTVSPropertyOp39
 70
     1
102
RTVSPropertyOp40
 70
     1
102
RTVSPropertyOp41
 70
     1
102
RTVSPropertyOp42
 70
     1
102
RTVSPropertyOp43
 70
     1
102
RTVSPropertyOp44
 70
     1
102
RTVSPropertyOp45
 70
     1
102
RTVSPropertyOp46
 70
     1
102
RTVSPropertyOp47
 70
     1
102
RTVSPropertyOp48
 70
     1
102
RTVSPropertyOp49
 70
     1
102
RTVSPropertyOp50
 70
     1
102
RTVSPropertyOp51
 70
     0
102
RTVSPropertyOp52
 70
     0
102
RTVSPropertyOp53
 70
     1
102
RTVSPropertyOp54
 70
     1
102
RTVSPropertyOp55
 70
     1
102
RTVSPropertyOp56
 70
     1
102
RTVSPropertyOp57
 70
     1
102
RTVSPropertyOp58
 70
     1
102
RTVSPropertyOp59
 70
     1
102
RTVSPropertyOp60
 70
     1
102
RTVSPropertyOp61
 70
     1
102
RTVSPropertyOp62
 70
     1
  0
XRECORD
  5
134D
102
{ACAD_REACTORS
330
134C
102
}
330
134C
100
AcDbXrecord
280
     1
102
RTVSPost2010Prop28
280
     0
102
RTVSPost2010PropOp28
 70
     1
102
RTVSPost2010Prop29
280
     1
102
RTVSPost2010PropOp29
 70
     1
102
RTVSPost2010Prop30
280
     1
102
RTVSPost2010PropOp30
 70
     1
102
RTVSPost2010Prop31
280
     0
102
RTVSPost2010PropOp31
 70
     1
102
RTVSPost2010Prop32
280
     0
102
RTVSPost2010PropOp32
 70
     1
102
RTVSPost2010Prop33
280
     0
102
RTVSPost2010PropOp33
 70
     1
102
RTVSPost2010Prop34
280
     0
102
RTVSPost2010PropOp34
 70
     1
102
RTVSPost2010Prop35
280
     0
102
RTVSPost2010PropOp35
 70
     1
102
RTVSPost2010Prop36
280
     0
102
RTVSPost2010PropOp36
 70
     1
102
RTVSPost2010Prop37
 90
       50
102
RTVSPost2010PropOp37
 70
     1
102
RTVSPost2010Prop38
140
0.0
102
RTVSPost2010PropOp38
 70
     1
102
RTVSPost2010Prop39
140
1.0
102
RTVSPost2010PropOp39
 70
     1
102
RTVSPost2010Prop40
 90
        0
102
RTVSPost2010PropOp40
 70
     1
102
RTVSPost2010Prop41ColorIndex
 90
       18
102
RTVSPost2010Prop41ColorRGB
 90
        0
102
RTVSPost2010PropOp41
 70
     1
102
RTVSPost2010Prop42
 90
       50
102
RTVSPost2010PropOp42
 70
     1
102
RTVSPost2010Prop43
 90
        3
102
RTVSPost2010PropOp43
 70
     1
102
RTVSPost2010Prop44ColorIndex
 90
        5
102
RTVSPost2010Prop44ColorRGB
 90
      255
102
RTVSPost2010PropOp44
 70
     1
102
RTVSPost2010Prop45
280
     0
102
RTVSPost2010PropOp45
 70
     1
102
RTVSPost2010Prop46
 90
       50
102
RTVSPost2010PropOp46
 70
     1
102
RTVSPost2010Prop47
 90
       50
102
RTVSPost2010PropOp47
 70
     1
102
RTVSPost2010Prop48
 90
       50
102
RTVSPost2010PropOp48
 70
     1
102
RTVSPost2010Prop49
280
     0
102
RTVSPost2010PropOp49
 70
     1
102
RTVSPost2010Prop50
 90
       50
102
RTVSPost2010PropOp50
 70
     1
102
RTVSPost2010Prop51ColorIndex
 90
      256
102
RTVSPost2010Prop51ColorRGB
 90
-16777216
102
RTVSPost2010PropOp51
 70
     0
102
RTVSPost2010Prop52
140
1.0
102
RTVSPost2010PropOp52
 70
     0
102
RTVSPost2010Prop53
 90
        2
102
RTVSPost2010PropOp53
 70
     1
102
RTVSPost2010Prop54
  1
strokes_ogs.tif
102
RTVSPost2010PropOp54
 70
     1
102
RTVSPost2010Prop55
280
     0
102
RTVSPost2010PropOp55
 70
     1
102
RTVSPost2010Prop56
140
1.0
102
RTVSPost2010PropOp56
 70
     1
102
RTVSPost2010Prop57
140
1.0
102
RTVSPost2010PropOp57
 70
     1
102
RTVSPropertyOp0
 70
     1
102
RTVSPropertyOp1
 70
     1
102
RTVSPropertyOp2
 70
     1
102
RTVSPropertyOp3
 70
     1
102
RTVSPropertyOp4
 70
     1
102
RTVSPropertyOp5
 70
     1
102
RTVSPropertyOp6
 70
     1
102
RTVSPropertyOp7
 70
     1
102
RTVSPropertyOp8
 70
     1
102
RTVSPropertyOp9
 70
     1
102
RTVSPropertyOp10
 70
     1
102
RTVSPropertyOp11
 70
     1
102
RTVSPropertyOp12
 70
     1
102
RTVSPropertyOp13
 70
     1
102
RTVSPropertyOp14
 70
     1
102
RTVSPropertyOp15
 70
     1
102
RTVSPropertyOp16
 70
     1
102
RTVSPropertyOp17
 70
     1
102
RTVSPropertyOp18
 70
     1
102
RTVSPropertyOp19
 70
     1
102
RTVSPropertyOp20
 70
     1
102
RTVSPropertyOp21
 70
     1
102
RTVSPropertyOp22
 70
     1
102
RTVSPropertyOp23
 70
     1
102
RTVSPropertyOp24
 70
     1
102
RTVSPropertyOp25
 70
     1
102
RTVSPropertyOp26
 70
     1
102
RTVSPropertyOp27
 70
     1
102
RTVSPropertyOp28
 70
     1
102
RTVSPropertyOp29
 70
     1
102
RTVSPropertyOp30
 70
     1
102
RTVSPropertyOp31
 70
     1
102
RTVSPropertyOp32
 70
     1
102
RTVSPropertyOp33
 70
     1
102
RTVSPropertyOp34
 70
     1
102
RTVSPropertyOp35
 70
     1
102
RTVSPropertyOp36
 70
     1
102
RTVSPropertyOp37
 70
     1
102
RTVSPropertyOp38
 70
     1
102
RTVSPropertyOp39
 70
     1
102
RTVSPropertyOp40
 70
     1
102
RTVSPropertyOp41
 70
     1
102
RTVSPropertyOp42
 70
     1
102
RTVSPropertyOp43
 70
     1
102
RTVSPropertyOp44
 70
     1
102
RTVSPropertyOp45
 70
     1
102
RTVSPropertyOp46
 70
     1
102
RTVSPropertyOp47
 70
     1
102
RTVSPropertyOp48
 70
     1
102
RTVSPropertyOp49
 70
     1
102
RTVSPropertyOp50
 70
     1
102
RTVSPropertyOp51
 70
     0
102
RTVSPropertyOp52
 70
     0
102
RTVSPropertyOp53
 70
     1
102
RTVSPropertyOp54
 70
     1
102
RTVSPropertyOp55
 70
     1
102
RTVSPropertyOp56
 70
     1
102
RTVSPropertyOp57
 70
     1
102
RTVSPropertyOp58
 70
     1
102
RTVSPropertyOp59
 70
     1
102
RTVSPropertyOp60
 70
     1
102
RTVSPropertyOp61
 70
     1
102
RTVSPropertyOp62
 70
     1
  0
XRECORD
  5
1355
102
{ACAD_REACTORS
330
1354
102
}
330
1354
100
AcDbXrecord
280
     1
102
RTVSPost2010Prop28
280
     0
102
RTVSPost2010PropOp28
 70
     1
102
RTVSPost2010Prop29
280
     1
102
RTVSPost2010PropOp29
 70
     1
102
RTVSPost2010Prop30
280
     1
102
RTVSPost2010PropOp30
 70
     1
102
RTVSPost2010Prop31
280
     0
102
RTVSPost2010PropOp31
 70
     1
102
RTVSPost2010Prop32
280
     0
102
RTVSPost2010PropOp32
 70
     1
102
RTVSPost2010Prop33
280
     0
102
RTVSPost2010PropOp33
 70
     1
102
RTVSPost2010Prop34
280
     0
102
RTVSPost2010PropOp34
 70
     1
102
RTVSPost2010Prop35
280
     0
102
RTVSPost2010PropOp35
 70
     1
102
RTVSPost2010Prop36
280
     0
102
RTVSPost2010PropOp36
 70
     1
102
RTVSPost2010Prop37
 90
       50
102
RTVSPost2010PropOp37
 70
     1
102
RTVSPost2010Prop38
140
0.0
102
RTVSPost2010PropOp38
 70
     1
102
RTVSPost2010Prop39
140
1.0
102
RTVSPost2010PropOp39
 70
     1
102
RTVSPost2010Prop40
 90
        0
102
RTVSPost2010PropOp40
 70
     1
102
RTVSPost2010Prop41ColorIndex
 90
       18
102
RTVSPost2010Prop41ColorRGB
 90
        0
102
RTVSPost2010PropOp41
 70
     1
102
RTVSPost2010Prop42
 90
       50
102
RTVSPost2010PropOp42
 70
     1
102
RTVSPost2010Prop43
 90
        3
102
RTVSPost2010PropOp43
 70
     1
102
RTVSPost2010Prop44ColorIndex
 90
        5
102
RTVSPost2010Prop44ColorRGB
 90
      255
102
RTVSPost2010PropOp44
 70
     1
102
RTVSPost2010Prop45
280
     0
102
RTVSPost2010PropOp45
 70
     1
102
RTVSPost2010Prop46
 90
       50
102
RTVSPost2010PropOp46
 70
     1
102
RTVSPost2010Prop47
 90
       50
102
RTVSPost2010PropOp47
 70
     1
102
RTVSPost2010Prop48
 90
       50
102
RTVSPost2010PropOp48
 70
     1
102
RTVSPost2010Prop49
280
     0
102
RTVSPost2010PropOp49
 70
     1
102
RTVSPost2010Prop50
 90
       50
102
RTVSPost2010PropOp50
 70
     1
102
RTVSPost2010Prop51ColorIndex
 90
      256
102
RTVSPost2010Prop51ColorRGB
 90
-16777216
102
RTVSPost2010PropOp51
 70
     0
102
RTVSPost2010Prop52
140
1.0
102
RTVSPost2010PropOp52
 70
     0
102
RTVSPost2010Prop53
 90
        2
102
RTVSPost2010PropOp53
 70
     1
102
RTVSPost2010Prop54
  1
strokes_ogs.tif
102
RTVSPost2010PropOp54
 70
     1
102
RTVSPost2010Prop55
280
     0
102
RTVSPost2010PropOp55
 70
     1
102
RTVSPost2010Prop56
140
1.0
102
RTVSPost2010PropOp56
 70
     1
102
RTVSPost2010Prop57
140
1.0
102
RTVSPost2010PropOp57
 70
     1
102
RTVSPropertyOp0
 70
     1
102
RTVSPropertyOp1
 70
     1
102
RTVSPropertyOp2
 70
     1
102
RTVSPropertyOp3
 70
     1
102
RTVSPropertyOp4
 70
     1
102
RTVSPropertyOp5
 70
     1
102
RTVSPropertyOp6
 70
     1
102
RTVSPropertyOp7
 70
     1
102
RTVSPropertyOp8
 70
     1
102
RTVSPropertyOp9
 70
     1
102
RTVSPropertyOp10
 70
     1
102
RTVSPropertyOp11
 70
     1
102
RTVSPropertyOp12
 70
     1
102
RTVSPropertyOp13
 70
     1
102
RTVSPropertyOp14
 70
     1
102
RTVSPropertyOp15
 70
     1
102
RTVSPropertyOp16
 70
     1
102
RTVSPropertyOp17
 70
     1
102
RTVSPropertyOp18
 70
     1
102
RTVSPropertyOp19
 70
     1
102
RTVSPropertyOp20
 70
     1
102
RTVSPropertyOp21
 70
     1
102
RTVSPropertyOp22
 70
     1
102
RTVSPropertyOp23
 70
     1
102
RTVSPropertyOp24
 70
     1
102
RTVSPropertyOp25
 70
     1
102
RTVSPropertyOp26
 70
     1
102
RTVSPropertyOp27
 70
     1
102
RTVSPropertyOp28
 70
     1
102
RTVSPropertyOp29
 70
     1
102
RTVSPropertyOp30
 70
     1
102
RTVSPropertyOp31
 70
     1
102
RTVSPropertyOp32
 70
     1
102
RTVSPropertyOp33
 70
     1
102
RTVSPropertyOp34
 70
     1
102
RTVSPropertyOp35
 70
     1
102
RTVSPropertyOp36
 70
     1
102
RTVSPropertyOp37
 70
     1
102
RTVSPropertyOp38
 70
     1
102
RTVSPropertyOp39
 70
     1
102
RTVSPropertyOp40
 70
     1
102
RTVSPropertyOp41
 70
     1
102
RTVSPropertyOp42
 70
     1
102
RTVSPropertyOp43
 70
     1
102
RTVSPropertyOp44
 70
     1
102
RTVSPropertyOp45
 70
     1
102
RTVSPropertyOp46
 70
     1
102
RTVSPropertyOp47
 70
     1
102
RTVSPropertyOp48
 70
     1
102
RTVSPropertyOp49
 70
     1
102
RTVSPropertyOp50
 70
     1
102
RTVSPropertyOp51
 70
     0
102
RTVSPropertyOp52
 70
     0
102
RTVSPropertyOp53
 70
     1
102
RTVSPropertyOp54
 70
     1
102
RTVSPropertyOp55
 70
     1
102
RTVSPropertyOp56
 70
     1
102
RTVSPropertyOp57
 70
     1
102
RTVSPropertyOp58
 70
     1
102
RTVSPropertyOp59
 70
     1
102
RTVSPropertyOp60
 70
     1
102
RTVSPropertyOp61
 70
     1
102
RTVSPropertyOp62
 70
     1
  0
XRECORD
  5
1347
102
{ACAD_REACTORS
330
1346
102
}
330
1346
100
AcDbXrecord
280
     1
102
RTVSPost2010Prop28
280
     0
102
RTVSPost2010PropOp28
 70
     1
102
RTVSPost2010Prop29
280
     1
102
RTVSPost2010PropOp29
 70
     1
102
RTVSPost2010Prop30
280
     1
102
RTVSPost2010PropOp30
 70
     1
102
RTVSPost2010Prop31
280
     0
102
RTVSPost2010PropOp31
 70
     1
102
RTVSPost2010Prop32
280
     0
102
RTVSPost2010PropOp32
 70
     1
102
RTVSPost2010Prop33
280
     0
102
RTVSPost2010PropOp33
 70
     1
102
RTVSPost2010Prop34
280
     0
102
RTVSPost2010PropOp34
 70
     1
102
RTVSPost2010Prop35
280
     0
102
RTVSPost2010PropOp35
 70
     1
102
RTVSPost2010Prop36
280
     0
102
RTVSPost2010PropOp36
 70
     1
102
RTVSPost2010Prop37
 90
       50
102
RTVSPost2010PropOp37
 70
     1
102
RTVSPost2010Prop38
140
0.0
102
RTVSPost2010PropOp38
 70
     1
102
RTVSPost2010Prop39
140
1.0
102
RTVSPost2010PropOp39
 70
     1
102
RTVSPost2010Prop40
 90
        0
102
RTVSPost2010PropOp40
 70
     1
102
RTVSPost2010Prop41ColorIndex
 90
       18
102
RTVSPost2010Prop41ColorRGB
 90
        0
102
RTVSPost2010PropOp41
 70
     1
102
RTVSPost2010Prop42
 90
       50
102
RTVSPost2010PropOp42
 70
     1
102
RTVSPost2010Prop43
 90
        3
102
RTVSPost2010PropOp43
 70
     1
102
RTVSPost2010Prop44ColorIndex
 90
        5
102
RTVSPost2010Prop44ColorRGB
 90
      255
102
RTVSPost2010PropOp44
 70
     1
102
RTVSPost2010Prop45
280
     0
102
RTVSPost2010PropOp45
 70
     1
102
RTVSPost2010Prop46
 90
       50
102
RTVSPost2010PropOp46
 70
     1
102
RTVSPost2010Prop47
 90
       50
102
RTVSPost2010PropOp47
 70
     1
102
RTVSPost2010Prop48
 90
       50
102
RTVSPost2010PropOp48
 70
     1
102
RTVSPost2010Prop49
280
     0
102
RTVSPost2010PropOp49
 70
     1
102
RTVSPost2010Prop50
 90
       50
102
RTVSPost2010PropOp50
 70
     1
102
RTVSPost2010Prop51ColorIndex
 90
      256
102
RTVSPost2010Prop51ColorRGB
 90
-16777216
102
RTVSPost2010PropOp51
 70
     0
102
RTVSPost2010Prop52
140
1.0
102
RTVSPost2010PropOp52
 70
     0
102
RTVSPost2010Prop53
 90
        2
102
RTVSPost2010PropOp53
 70
     1
102
RTVSPost2010Prop54
  1
strokes_ogs.tif
102
RTVSPost2010PropOp54
 70
     1
102
RTVSPost2010Prop55
280
     0
102
RTVSPost2010PropOp55
 70
     1
102
RTVSPost2010Prop56
140
1.0
102
RTVSPost2010PropOp56
 70
     1
102
RTVSPost2010Prop57
140
1.0
102
RTVSPost2010PropOp57
 70
     1
102
RTVSPropertyOp0
 70
     1
102
RTVSPropertyOp1
 70
     1
102
RTVSPropertyOp2
 70
     1
102
RTVSPropertyOp3
 70
     1
102
RTVSPropertyOp4
 70
     1
102
RTVSPropertyOp5
 70
     1
102
RTVSPropertyOp6
 70
     1
102
RTVSPropertyOp7
 70
     1
102
RTVSPropertyOp8
 70
     1
102
RTVSPropertyOp9
 70
     1
102
RTVSPropertyOp10
 70
     1
102
RTVSPropertyOp11
 70
     1
102
RTVSPropertyOp12
 70
     1
102
RTVSPropertyOp13
 70
     1
102
RTVSPropertyOp14
 70
     1
102
RTVSPropertyOp15
 70
     1
102
RTVSPropertyOp16
 70
     1
102
RTVSPropertyOp17
 70
     1
102
RTVSPropertyOp18
 70
     1
102
RTVSPropertyOp19
 70
     1
102
RTVSPropertyOp20
 70
     1
102
RTVSPropertyOp21
 70
     1
102
RTVSPropertyOp22
 70
     1
102
RTVSPropertyOp23
 70
     1
102
RTVSPropertyOp24
 70
     1
102
RTVSPropertyOp25
 70
     1
102
RTVSPropertyOp26
 70
     1
102
RTVSPropertyOp27
 70
     1
102
RTVSPropertyOp28
 70
     1
102
RTVSPropertyOp29
 70
     1
102
RTVSPropertyOp30
 70
     1
102
RTVSPropertyOp31
 70
     1
102
RTVSPropertyOp32
 70
     1
102
RTVSPropertyOp33
 70
     1
102
RTVSPropertyOp34
 70
     1
102
RTVSPropertyOp35
 70
     1
102
RTVSPropertyOp36
 70
     1
102
RTVSPropertyOp37
 70
     1
102
RTVSPropertyOp38
 70
     1
102
RTVSPropertyOp39
 70
     1
102
RTVSPropertyOp40
 70
     1
102
RTVSPropertyOp41
 70
     1
102
RTVSPropertyOp42
 70
     1
102
RTVSPropertyOp43
 70
     1
102
RTVSPropertyOp44
 70
     1
102
RTVSPropertyOp45
 70
     1
102
RTVSPropertyOp46
 70
     1
102
RTVSPropertyOp47
 70
     1
102
RTVSPropertyOp48
 70
     1
102
RTVSPropertyOp49
 70
     1
102
RTVSPropertyOp50
 70
     1
102
RTVSPropertyOp51
 70
     0
102
RTVSPropertyOp52
 70
     0
102
RTVSPropertyOp53
 70
     1
102
RTVSPropertyOp54
 70
     1
102
RTVSPropertyOp55
 70
     1
102
RTVSPropertyOp56
 70
     1
102
RTVSPropertyOp57
 70
     1
102
RTVSPropertyOp58
 70
     1
102
RTVSPropertyOp59
 70
     1
102
RTVSPropertyOp60
 70
     1
102
RTVSPropertyOp61
 70
     1
102
RTVSPropertyOp62
 70
     1
  0
XRECORD
  5
134B
102
{ACAD_REACTORS
330
134A
102
}
330
134A
100
AcDbXrecord
280
     1
102
RTVSPost2010Prop28
280
     0
102
RTVSPost2010PropOp28
 70
     1
102
RTVSPost2010Prop29
280
     1
102
RTVSPost2010PropOp29
 70
     1
102
RTVSPost2010Prop30
280
     1
102
RTVSPost2010PropOp30
 70
     1
102
RTVSPost2010Prop31
280
     0
102
RTVSPost2010PropOp31
 70
     1
102
RTVSPost2010Prop32
280
     0
102
RTVSPost2010PropOp32
 70
     1
102
RTVSPost2010Prop33
280
     0
102
RTVSPost2010PropOp33
 70
     1
102
RTVSPost2010Prop34
280
     0
102
RTVSPost2010PropOp34
 70
     1
102
RTVSPost2010Prop35
280
     0
102
RTVSPost2010PropOp35
 70
     1
102
RTVSPost2010Prop36
280
     0
102
RTVSPost2010PropOp36
 70
     1
102
RTVSPost2010Prop37
 90
       50
102
RTVSPost2010PropOp37
 70
     1
102
RTVSPost2010Prop38
140
0.0
102
RTVSPost2010PropOp38
 70
     1
102
RTVSPost2010Prop39
140
1.0
102
RTVSPost2010PropOp39
 70
     1
102
RTVSPost2010Prop40
 90
        0
102
RTVSPost2010PropOp40
 70
     1
102
RTVSPost2010Prop41ColorIndex
 90
       18
102
RTVSPost2010Prop41ColorRGB
 90
        0
102
RTVSPost2010PropOp41
 70
     1
102
RTVSPost2010Prop42
 90
       50
102
RTVSPost2010PropOp42
 70
     1
102
RTVSPost2010Prop43
 90
        3
102
RTVSPost2010PropOp43
 70
     1
102
RTVSPost2010Prop44ColorIndex
 90
        5
102
RTVSPost2010Prop44ColorRGB
 90
      255
102
RTVSPost2010PropOp44
 70
     1
102
RTVSPost2010Prop45
280
     0
102
RTVSPost2010PropOp45
 70
     1
102
RTVSPost2010Prop46
 90
       50
102
RTVSPost2010PropOp46
 70
     1
102
RTVSPost2010Prop47
 90
       50
102
RTVSPost2010PropOp47
 70
     1
102
RTVSPost2010Prop48
 90
       50
102
RTVSPost2010PropOp48
 70
     1
102
RTVSPost2010Prop49
280
     0
102
RTVSPost2010PropOp49
 70
     1
102
RTVSPost2010Prop50
 90
       50
102
RTVSPost2010PropOp50
 70
     1
102
RTVSPost2010Prop51ColorIndex
 90
      256
102
RTVSPost2010Prop51ColorRGB
 90
-16777216
102
RTVSPost2010PropOp51
 70
     0
102
RTVSPost2010Prop52
140
1.0
102
RTVSPost2010PropOp52
 70
     0
102
RTVSPost2010Prop53
 90
        2
102
RTVSPost2010PropOp53
 70
     1
102
RTVSPost2010Prop54
  1
strokes_ogs.tif
102
RTVSPost2010PropOp54
 70
     1
102
RTVSPost2010Prop55
280
     0
102
RTVSPost2010PropOp55
 70
     1
102
RTVSPost2010Prop56
140
1.0
102
RTVSPost2010PropOp56
 70
     1
102
RTVSPost2010Prop57
140
1.0
102
RTVSPost2010PropOp57
 70
     1
102
RTVSPropertyOp0
 70
     1
102
RTVSPropertyOp1
 70
     1
102
RTVSPropertyOp2
 70
     1
102
RTVSPropertyOp3
 70
     1
102
RTVSPropertyOp4
 70
     1
102
RTVSPropertyOp5
 70
     1
102
RTVSPropertyOp6
 70
     1
102
RTVSPropertyOp7
 70
     1
102
RTVSPropertyOp8
 70
     1
102
RTVSPropertyOp9
 70
     1
102
RTVSPropertyOp10
 70
     1
102
RTVSPropertyOp11
 70
     1
102
RTVSPropertyOp12
 70
     1
102
RTVSPropertyOp13
 70
     1
102
RTVSPropertyOp14
 70
     1
102
RTVSPropertyOp15
 70
     1
102
RTVSPropertyOp16
 70
     1
102
RTVSPropertyOp17
 70
     1
102
RTVSPropertyOp18
 70
     1
102
RTVSPropertyOp19
 70
     1
102
RTVSPropertyOp20
 70
     1
102
RTVSPropertyOp21
 70
     1
102
RTVSPropertyOp22
 70
     1
102
RTVSPropertyOp23
 70
     1
102
RTVSPropertyOp24
 70
     1
102
RTVSPropertyOp25
 70
     1
102
RTVSPropertyOp26
 70
     1
102
RTVSPropertyOp27
 70
     1
102
RTVSPropertyOp28
 70
     1
102
RTVSPropertyOp29
 70
     1
102
RTVSPropertyOp30
 70
     1
102
RTVSPropertyOp31
 70
     1
102
RTVSPropertyOp32
 70
     1
102
RTVSPropertyOp33
 70
     1
102
RTVSPropertyOp34
 70
     1
102
RTVSPropertyOp35
 70
     1
102
RTVSPropertyOp36
 70
     1
102
RTVSPropertyOp37
 70
     1
102
RTVSPropertyOp38
 70
     1
102
RTVSPropertyOp39
 70
     1
102
RTVSPropertyOp40
 70
     1
102
RTVSPropertyOp41
 70
     1
102
RTVSPropertyOp42
 70
     1
102
RTVSPropertyOp43
 70
     1
102
RTVSPropertyOp44
 70
     1
102
RTVSPropertyOp45
 70
     1
102
RTVSPropertyOp46
 70
     1
102
RTVSPropertyOp47
 70
     1
102
RTVSPropertyOp48
 70
     1
102
RTVSPropertyOp49
 70
     1
102
RTVSPropertyOp50
 70
     1
102
RTVSPropertyOp51
 70
     0
102
RTVSPropertyOp52
 70
     0
102
RTVSPropertyOp53
 70
     1
102
RTVSPropertyOp54
 70
     1
102
RTVSPropertyOp55
 70
     1
102
RTVSPropertyOp56
 70
     1
102
RTVSPropertyOp57
 70
     1
102
RTVSPropertyOp58
 70
     1
102
RTVSPropertyOp59
 70
     1
102
RTVSPropertyOp60
 70
     1
102
RTVSPropertyOp61
 70
     1
102
RTVSPropertyOp62
 70
     1
  0
XRECORD
  5
1365
102
{ACAD_REACTORS
330
1364
102
}
330
1364
100
AcDbXrecord
280
     1
102
RTVSPost2010Prop28
280
     0
102
RTVSPost2010PropOp28
 70
     1
102
RTVSPost2010Prop29
280
     1
102
RTVSPost2010PropOp29
 70
     1
102
RTVSPost2010Prop30
280
     1
102
RTVSPost2010PropOp30
 70
     1
102
RTVSPost2010Prop31
280
     0
102
RTVSPost2010PropOp31
 70
     1
102
RTVSPost2010Prop32
280
     0
102
RTVSPost2010PropOp32
 70
     1
102
RTVSPost2010Prop33
280
     0
102
RTVSPost2010PropOp33
 70
     1
102
RTVSPost2010Prop34
280
     0
102
RTVSPost2010PropOp34
 70
     1
102
RTVSPost2010Prop35
280
     0
102
RTVSPost2010PropOp35
 70
     1
102
RTVSPost2010Prop36
280
     0
102
RTVSPost2010PropOp36
 70
     1
102
RTVSPost2010Prop37
 90
       50
102
RTVSPost2010PropOp37
 70
     0
102
RTVSPost2010Prop38
140
0.0
102
RTVSPost2010PropOp38
 70
     0
102
RTVSPost2010Prop39
140
1.0
102
RTVSPost2010PropOp39
 70
     0
102
RTVSPost2010Prop40
 90
        0
102
RTVSPost2010PropOp40
 70
     0
102
RTVSPost2010Prop41ColorIndex
 90
       18
102
RTVSPost2010Prop41ColorRGB
 90
        0
102
RTVSPost2010PropOp41
 70
     0
102
RTVSPost2010Prop42
 90
       50
102
RTVSPost2010PropOp42
 70
     0
102
RTVSPost2010Prop43
 90
        3
102
RTVSPost2010PropOp43
 70
     0
102
RTVSPost2010Prop44ColorIndex
 90
        5
102
RTVSPost2010Prop44ColorRGB
 90
      255
102
RTVSPost2010PropOp44
 70
     0
102
RTVSPost2010Prop45
280
     0
102
RTVSPost2010PropOp45
 70
     1
102
RTVSPost2010Prop46
 90
       50
102
RTVSPost2010PropOp46
 70
     0
102
RTVSPost2010Prop47
 90
       50
102
RTVSPost2010PropOp47
 70
     0
102
RTVSPost2010Prop48
 90
       50
102
RTVSPost2010PropOp48
 70
     0
102
RTVSPost2010Prop49
280
     0
102
RTVSPost2010PropOp49
 70
     1
102
RTVSPost2010Prop50
 90
       50
102
RTVSPost2010PropOp50
 70
     0
102
RTVSPost2010Prop51ColorIndex
 90
      256
102
RTVSPost2010Prop51ColorRGB
 90
-16777216
102
RTVSPost2010PropOp51
 70
     0
102
RTVSPost2010Prop52
140
1.0
102
RTVSPost2010PropOp52
 70
     0
102
RTVSPost2010Prop53
 90
        2
102
RTVSPost2010PropOp53
 70
     0
102
RTVSPost2010Prop54
  1
strokes_ogs.tif
102
RTVSPost2010PropOp54
 70
     0
102
RTVSPost2010Prop55
280
     0
102
RTVSPost2010PropOp55
 70
     1
102
RTVSPost2010Prop56
140
1.0
102
RTVSPost2010PropOp56
 70
     0
102
RTVSPost2010Prop57
140
1.0
102
RTVSPost2010PropOp57
 70
     0
102
RTVSPropertyOp0
 70
     0
102
RTVSPropertyOp1
 70
     0
102
RTVSPropertyOp2
 70
     0
102
RTVSPropertyOp3
 70
     0
102
RTVSPropertyOp4
 70
     0
102
RTVSPropertyOp5
 70
     0
102
RTVSPropertyOp6
 70
     0
102
RTVSPropertyOp7
 70
     0
102
RTVSPropertyOp8
 70
     0
102
RTVSPropertyOp9
 70
     0
102
RTVSPropertyOp10
 70
     0
102
RTVSPropertyOp11
 70
     0
102
RTVSPropertyOp12
 70
     0
102
RTVSPropertyOp13
 70
     0
102
RTVSPropertyOp14
 70
     2
102
RTVSPropertyOp15
 70
     0
102
RTVSPropertyOp16
 70
     0
102
RTVSPropertyOp17
 70
     0
102
RTVSPropertyOp18
 70
     0
102
RTVSPropertyOp19
 70
     0
102
RTVSPropertyOp20
 70
     0
102
RTVSPropertyOp21
 70
     0
102
RTVSPropertyOp22
 70
     0
102
RTVSPropertyOp23
 70
     0
102
RTVSPropertyOp24
 70
     0
102
RTVSPropertyOp25
 70
     0
102
RTVSPropertyOp26
 70
     0
102
RTVSPropertyOp27
 70
     0
102
RTVSPropertyOp28
 70
     1
102
RTVSPropertyOp29
 70
     1
102
RTVSPropertyOp30
 70
     1
102
RTVSPropertyOp31
 70
     1
102
RTVSPropertyOp32
 70
     1
102
RTVSPropertyOp33
 70
     1
102
RTVSPropertyOp34
 70
     1
102
RTVSPropertyOp35
 70
     1
102
RTVSPropertyOp36
 70
     1
102
RTVSPropertyOp37
 70
     0
102
RTVSPropertyOp38
 70
     0
102
RTVSPropertyOp39
 70
     0
102
RTVSPropertyOp40
 70
     0
102
RTVSPropertyOp41
 70
     0
102
RTVSPropertyOp42
 70
     0
102
RTVSPropertyOp43
 70
     0
102
RTVSPropertyOp44
 70
     0
102
RTVSPropertyOp45
 70
     1
102
RTVSPropertyOp46
 70
     0
102
RTVSPropertyOp47
 70
     0
102
RTVSPropertyOp48
 70
     0
102
RTVSPropertyOp49
 70
     1
102
RTVSPropertyOp50
 70
     0
102
RTVSPropertyOp51
 70
     0
102
RTVSPropertyOp52
 70
     0
102
RTVSPropertyOp53
 70
     0
102
RTVSPropertyOp54
 70
     0
102
RTVSPropertyOp55
 70
     1
102
RTVSPropertyOp56
 70
     0
102
RTVSPropertyOp57
 70
     0
102
RTVSPropertyOp58
 70
     0
102
RTVSPropertyOp59
 70
     0
102
RTVSPropertyOp60
 70
     0
102
RTVSPropertyOp61
 70
     0
102
RTVSPropertyOp62
 70
     0
  0
XRECORD
  5
1353
102
{ACAD_REACTORS
330
1352
102
}
330
1352
100
AcDbXrecord
280
     1
102
RTVSPost2010Prop28
280
     0
102
RTVSPost2010PropOp28
 70
     1
102
RTVSPost2010Prop29
280
     1
102
RTVSPost2010PropOp29
 70
     1
102
RTVSPost2010Prop30
280
     1
102
RTVSPost2010PropOp30
 70
     1
102
RTVSPost2010Prop31
280
     0
102
RTVSPost2010PropOp31
 70
     1
102
RTVSPost2010Prop32
280
     0
102
RTVSPost2010PropOp32
 70
     1
102
RTVSPost2010Prop33
280
     0
102
RTVSPost2010PropOp33
 70
     1
102
RTVSPost2010Prop34
280
     0
102
RTVSPost2010PropOp34
 70
     1
102
RTVSPost2010Prop35
280
     0
102
RTVSPost2010PropOp35
 70
     1
102
RTVSPost2010Prop36
280
     0
102
RTVSPost2010PropOp36
 70
     1
102
RTVSPost2010Prop37
 90
       50
102
RTVSPost2010PropOp37
 70
     1
102
RTVSPost2010Prop38
140
0.0
102
RTVSPost2010PropOp38
 70
     1
102
RTVSPost2010Prop39
140
1.0
102
RTVSPost2010PropOp39
 70
     1
102
RTVSPost2010Prop40
 90
        0
102
RTVSPost2010PropOp40
 70
     1
102
RTVSPost2010Prop41ColorIndex
 90
       18
102
RTVSPost2010Prop41ColorRGB
 90
        0
102
RTVSPost2010PropOp41
 70
     1
102
RTVSPost2010Prop42
 90
       50
102
RTVSPost2010PropOp42
 70
     1
102
RTVSPost2010Prop43
 90
        3
102
RTVSPost2010PropOp43
 70
     1
102
RTVSPost2010Prop44ColorIndex
 90
        5
102
RTVSPost2010Prop44ColorRGB
 90
      255
102
RTVSPost2010PropOp44
 70
     1
102
RTVSPost2010Prop45
280
     0
102
RTVSPost2010PropOp45
 70
     1
102
RTVSPost2010Prop46
 90
       50
102
RTVSPost2010PropOp46
 70
     1
102
RTVSPost2010Prop47
 90
       50
102
RTVSPost2010PropOp47
 70
     1
102
RTVSPost2010Prop48
 90
       50
102
RTVSPost2010PropOp48
 70
     1
102
RTVSPost2010Prop49
280
     0
102
RTVSPost2010PropOp49
 70
     1
102
RTVSPost2010Prop50
 90
       50
102
RTVSPost2010PropOp50
 70
     1
102
RTVSPost2010Prop51ColorIndex
 90
      256
102
RTVSPost2010Prop51ColorRGB
 90
-16777216
102
RTVSPost2010PropOp51
 70
     0
102
RTVSPost2010Prop52
140
1.0
102
RTVSPost2010PropOp52
 70
     0
102
RTVSPost2010Prop53
 90
        2
102
RTVSPost2010PropOp53
 70
     1
102
RTVSPost2010Prop54
  1
strokes_ogs.tif
102
RTVSPost2010PropOp54
 70
     1
102
RTVSPost2010Prop55
280
     0
102
RTVSPost2010PropOp55
 70
     1
102
RTVSPost2010Prop56
140
1.0
102
RTVSPost2010PropOp56
 70
     1
102
RTVSPost2010Prop57
140
1.0
102
RTVSPost2010PropOp57
 70
     1
102
RTVSPropertyOp0
 70
     1
102
RTVSPropertyOp1
 70
     1
102
RTVSPropertyOp2
 70
     1
102
RTVSPropertyOp3
 70
     1
102
RTVSPropertyOp4
 70
     1
102
RTVSPropertyOp5
 70
     1
102
RTVSPropertyOp6
 70
     1
102
RTVSPropertyOp7
 70
     1
102
RTVSPropertyOp8
 70
     1
102
RTVSPropertyOp9
 70
     1
102
RTVSPropertyOp10
 70
     1
102
RTVSPropertyOp11
 70
     1
102
RTVSPropertyOp12
 70
     1
102
RTVSPropertyOp13
 70
     1
102
RTVSPropertyOp14
 70
     1
102
RTVSPropertyOp15
 70
     1
102
RTVSPropertyOp16
 70
     1
102
RTVSPropertyOp17
 70
     1
102
RTVSPropertyOp18
 70
     1
102
RTVSPropertyOp19
 70
     1
102
RTVSPropertyOp20
 70
     1
102
RTVSPropertyOp21
 70
     1
102
RTVSPropertyOp22
 70
     1
102
RTVSPropertyOp23
 70
     1
102
RTVSPropertyOp24
 70
     1
102
RTVSPropertyOp25
 70
     1
102
RTVSPropertyOp26
 70
     1
102
RTVSPropertyOp27
 70
     1
102
RTVSPropertyOp28
 70
     1
102
RTVSPropertyOp29
 70
     1
102
RTVSPropertyOp30
 70
     1
102
RTVSPropertyOp31
 70
     1
102
RTVSPropertyOp32
 70
     1
102
RTVSPropertyOp33
 70
     1
102
RTVSPropertyOp34
 70
     1
102
RTVSPropertyOp35
 70
     1
102
RTVSPropertyOp36
 70
     1
102
RTVSPropertyOp37
 70
     1
102
RTVSPropertyOp38
 70
     1
102
RTVSPropertyOp39
 70
     1
102
RTVSPropertyOp40
 70
     1
102
RTVSPropertyOp41
 70
     1
102
RTVSPropertyOp42
 70
     1
102
RTVSPropertyOp43
 70
     1
102
RTVSPropertyOp44
 70
     1
102
RTVSPropertyOp45
 70
     1
102
RTVSPropertyOp46
 70
     1
102
RTVSPropertyOp47
 70
     1
102
RTVSPropertyOp48
 70
     1
102
RTVSPropertyOp49
 70
     1
102
RTVSPropertyOp50
 70
     1
102
RTVSPropertyOp51
 70
     0
102
RTVSPropertyOp52
 70
     0
102
RTVSPropertyOp53
 70
     1
102
RTVSPropertyOp54
 70
     1
102
RTVSPropertyOp55
 70
     1
102
RTVSPropertyOp56
 70
     1
102
RTVSPropertyOp57
 70
     1
102
RTVSPropertyOp58
 70
     1
102
RTVSPropertyOp59
 70
     1
102
RTVSPropertyOp60
 70
     1
102
RTVSPropertyOp61
 70
     1
102
RTVSPropertyOp62
 70
     1
  0
XRECORD
  5
1337
102
{ACAD_REACTORS
330
1336
102
}
330
1336
100
AcDbXrecord
280
     1
102
RTVSPost2010Prop28
280
     0
102
RTVSPost2010PropOp28
 70
     1
102
RTVSPost2010Prop29
280
     1
102
RTVSPost2010PropOp29
 70
     1
102
RTVSPost2010Prop30
280
     1
102
RTVSPost2010PropOp30
 70
     1
102
RTVSPost2010Prop31
280
     0
102
RTVSPost2010PropOp31
 70
     1
102
RTVSPost2010Prop32
280
     0
102
RTVSPost2010PropOp32
 70
     1
102
RTVSPost2010Prop33
280
     0
102
RTVSPost2010PropOp33
 70
     1
102
RTVSPost2010Prop34
280
     0
102
RTVSPost2010PropOp34
 70
     1
102
RTVSPost2010Prop35
280
     0
102
RTVSPost2010PropOp35
 70
     1
102
RTVSPost2010Prop36
280
     0
102
RTVSPost2010PropOp36
 70
     1
102
RTVSPost2010Prop37
 90
       50
102
RTVSPost2010PropOp37
 70
     1
102
RTVSPost2010Prop38
140
0.0
102
RTVSPost2010PropOp38
 70
     1
102
RTVSPost2010Prop39
140
1.0
102
RTVSPost2010PropOp39
 70
     1
102
RTVSPost2010Prop40
 90
        0
102
RTVSPost2010PropOp40
 70
     1
102
RTVSPost2010Prop41ColorIndex
 90
       18
102
RTVSPost2010Prop41ColorRGB
 90
        0
102
RTVSPost2010PropOp41
 70
     1
102
RTVSPost2010Prop42
 90
       50
102
RTVSPost2010PropOp42
 70
     1
102
RTVSPost2010Prop43
 90
        3
102
RTVSPost2010PropOp43
 70
     1
102
RTVSPost2010Prop44ColorIndex
 90
        5
102
RTVSPost2010Prop44ColorRGB
 90
      255
102
RTVSPost2010PropOp44
 70
     1
102
RTVSPost2010Prop45
280
     0
102
RTVSPost2010PropOp45
 70
     1
102
RTVSPost2010Prop46
 90
       50
102
RTVSPost2010PropOp46
 70
     1
102
RTVSPost2010Prop47
 90
       50
102
RTVSPost2010PropOp47
 70
     1
102
RTVSPost2010Prop48
 90
       50
102
RTVSPost2010PropOp48
 70
     1
102
RTVSPost2010Prop49
280
     0
102
RTVSPost2010PropOp49
 70
     1
102
RTVSPost2010Prop50
 90
       50
102
RTVSPost2010PropOp50
 70
     1
102
RTVSPost2010Prop51ColorIndex
 90
      256
102
RTVSPost2010Prop51ColorRGB
 90
-16777216
102
RTVSPost2010PropOp51
 70
     0
102
RTVSPost2010Prop52
140
1.0
102
RTVSPost2010PropOp52
 70
     0
102
RTVSPost2010Prop53
 90
        2
102
RTVSPost2010PropOp53
 70
     1
102
RTVSPost2010Prop54
  1
strokes_ogs.tif
102
RTVSPost2010PropOp54
 70
     1
102
RTVSPost2010Prop55
280
     0
102
RTVSPost2010PropOp55
 70
     1
102
RTVSPost2010Prop56
140
1.0
102
RTVSPost2010PropOp56
 70
     1
102
RTVSPost2010Prop57
140
1.0
102
RTVSPost2010PropOp57
 70
     1
102
RTVSPropertyOp0
 70
     1
102
RTVSPropertyOp1
 70
     1
102
RTVSPropertyOp2
 70
     1
102
RTVSPropertyOp3
 70
     1
102
RTVSPropertyOp4
 70
     1
102
RTVSPropertyOp5
 70
     1
102
RTVSPropertyOp6
 70
     1
102
RTVSPropertyOp7
 70
     1
102
RTVSPropertyOp8
 70
     1
102
RTVSPropertyOp9
 70
     1
102
RTVSPropertyOp10
 70
     1
102
RTVSPropertyOp11
 70
     1
102
RTVSPropertyOp12
 70
     1
102
RTVSPropertyOp13
 70
     1
102
RTVSPropertyOp14
 70
     1
102
RTVSPropertyOp15
 70
     1
102
RTVSPropertyOp16
 70
     1
102
RTVSPropertyOp17
 70
     1
102
RTVSPropertyOp18
 70
     1
102
RTVSPropertyOp19
 70
     1
102
RTVSPropertyOp20
 70
     1
102
RTVSPropertyOp21
 70
     1
102
RTVSPropertyOp22
 70
     1
102
RTVSPropertyOp23
 70
     1
102
RTVSPropertyOp24
 70
     1
102
RTVSPropertyOp25
 70
     1
102
RTVSPropertyOp26
 70
     1
102
RTVSPropertyOp27
 70
     1
102
RTVSPropertyOp28
 70
     1
102
RTVSPropertyOp29
 70
     1
102
RTVSPropertyOp30
 70
     1
102
RTVSPropertyOp31
 70
     1
102
RTVSPropertyOp32
 70
     1
102
RTVSPropertyOp33
 70
     1
102
RTVSPropertyOp34
 70
     1
102
RTVSPropertyOp35
 70
     1
102
RTVSPropertyOp36
 70
     1
102
RTVSPropertyOp37
 70
     1
102
RTVSPropertyOp38
 70
     1
102
RTVSPropertyOp39
 70
     1
102
RTVSPropertyOp40
 70
     1
102
RTVSPropertyOp41
 70
     1
102
RTVSPropertyOp42
 70
     1
102
RTVSPropertyOp43
 70
     1
102
RTVSPropertyOp44
 70
     1
102
RTVSPropertyOp45
 70
     1
102
RTVSPropertyOp46
 70
     1
102
RTVSPropertyOp47
 70
     1
102
RTVSPropertyOp48
 70
     1
102
RTVSPropertyOp49
 70
     1
102
RTVSPropertyOp50
 70
     1
102
RTVSPropertyOp51
 70
     0
102
RTVSPropertyOp52
 70
     0
102
RTVSPropertyOp53
 70
     1
102
RTVSPropertyOp54
 70
     1
102
RTVSPropertyOp55
 70
     1
102
RTVSPropertyOp56
 70
     1
102
RTVSPropertyOp57
 70
     1
102
RTVSPropertyOp58
 70
     1
102
RTVSPropertyOp59
 70
     1
102
RTVSPropertyOp60
 70
     1
102
RTVSPropertyOp61
 70
     1
102
RTVSPropertyOp62
 70
     1
  0
XRECORD
  5
1339
102
{ACAD_REACTORS
330
1338
102
}
330
1338
100
AcDbXrecord
280
     1
102
RTVSPost2010Prop28
280
     0
102
RTVSPost2010PropOp28
 70
     1
102
RTVSPost2010Prop29
280
     1
102
RTVSPost2010PropOp29
 70
     1
102
RTVSPost2010Prop30
280
     1
102
RTVSPost2010PropOp30
 70
     1
102
RTVSPost2010Prop31
280
     0
102
RTVSPost2010PropOp31
 70
     1
102
RTVSPost2010Prop32
280
     0
102
RTVSPost2010PropOp32
 70
     1
102
RTVSPost2010Prop33
280
     0
102
RTVSPost2010PropOp33
 70
     1
102
RTVSPost2010Prop34
280
     0
102
RTVSPost2010PropOp34
 70
     1
102
RTVSPost2010Prop35
280
     0
102
RTVSPost2010PropOp35
 70
     1
102
RTVSPost2010Prop36
280
     0
102
RTVSPost2010PropOp36
 70
     1
102
RTVSPost2010Prop37
 90
       50
102
RTVSPost2010PropOp37
 70
     1
102
RTVSPost2010Prop38
140
0.0
102
RTVSPost2010PropOp38
 70
     1
102
RTVSPost2010Prop39
140
1.0
102
RTVSPost2010PropOp39
 70
     1
102
RTVSPost2010Prop40
 90
        0
102
RTVSPost2010PropOp40
 70
     1
102
RTVSPost2010Prop41ColorIndex
 90
       18
102
RTVSPost2010Prop41ColorRGB
 90
        0
102
RTVSPost2010PropOp41
 70
     1
102
RTVSPost2010Prop42
 90
       50
102
RTVSPost2010PropOp42
 70
     1
102
RTVSPost2010Prop43
 90
        3
102
RTVSPost2010PropOp43
 70
     1
102
RTVSPost2010Prop44ColorIndex
 90
        5
102
RTVSPost2010Prop44ColorRGB
 90
      255
102
RTVSPost2010PropOp44
 70
     1
102
RTVSPost2010Prop45
280
     0
102
RTVSPost2010PropOp45
 70
     1
102
RTVSPost2010Prop46
 90
       50
102
RTVSPost2010PropOp46
 70
     1
102
RTVSPost2010Prop47
 90
       50
102
RTVSPost2010PropOp47
 70
     1
102
RTVSPost2010Prop48
 90
       50
102
RTVSPost2010PropOp48
 70
     1
102
RTVSPost2010Prop49
280
     0
102
RTVSPost2010PropOp49
 70
     1
102
RTVSPost2010Prop50
 90
       50
102
RTVSPost2010PropOp50
 70
     1
102
RTVSPost2010Prop51ColorIndex
 90
      256
102
RTVSPost2010Prop51ColorRGB
 90
-16777216
102
RTVSPost2010PropOp51
 70
     0
102
RTVSPost2010Prop52
140
1.0
102
RTVSPost2010PropOp52
 70
     0
102
RTVSPost2010Prop53
 90
        2
102
RTVSPost2010PropOp53
 70
     1
102
RTVSPost2010Prop54
  1
strokes_ogs.tif
102
RTVSPost2010PropOp54
 70
     1
102
RTVSPost2010Prop55
280
     0
102
RTVSPost2010PropOp55
 70
     1
102
RTVSPost2010Prop56
140
1.0
102
RTVSPost2010PropOp56
 70
     1
102
RTVSPost2010Prop57
140
1.0
102
RTVSPost2010PropOp57
 70
     1
102
RTVSPropertyOp0
 70
     1
102
RTVSPropertyOp1
 70
     1
102
RTVSPropertyOp2
 70
     1
102
RTVSPropertyOp3
 70
     1
102
RTVSPropertyOp4
 70
     1
102
RTVSPropertyOp5
 70
     1
102
RTVSPropertyOp6
 70
     1
102
RTVSPropertyOp7
 70
     1
102
RTVSPropertyOp8
 70
     1
102
RTVSPropertyOp9
 70
     1
102
RTVSPropertyOp10
 70
     1
102
RTVSPropertyOp11
 70
     1
102
RTVSPropertyOp12
 70
     1
102
RTVSPropertyOp13
 70
     1
102
RTVSPropertyOp14
 70
     1
102
RTVSPropertyOp15
 70
     1
102
RTVSPropertyOp16
 70
     1
102
RTVSPropertyOp17
 70
     1
102
RTVSPropertyOp18
 70
     1
102
RTVSPropertyOp19
 70
     1
102
RTVSPropertyOp20
 70
     1
102
RTVSPropertyOp21
 70
     1
102
RTVSPropertyOp22
 70
     1
102
RTVSPropertyOp23
 70
     1
102
RTVSPropertyOp24
 70
     1
102
RTVSPropertyOp25
 70
     1
102
RTVSPropertyOp26
 70
     1
102
RTVSPropertyOp27
 70
     1
102
RTVSPropertyOp28
 70
     1
102
RTVSPropertyOp29
 70
     1
102
RTVSPropertyOp30
 70
     1
102
RTVSPropertyOp31
 70
     1
102
RTVSPropertyOp32
 70
     1
102
RTVSPropertyOp33
 70
     1
102
RTVSPropertyOp34
 70
     1
102
RTVSPropertyOp35
 70
     1
102
RTVSPropertyOp36
 70
     1
102
RTVSPropertyOp37
 70
     1
102
RTVSPropertyOp38
 70
     1
102
RTVSPropertyOp39
 70
     1
102
RTVSPropertyOp40
 70
     1
102
RTVSPropertyOp41
 70
     1
102
RTVSPropertyOp42
 70
     1
102
RTVSPropertyOp43
 70
     1
102
RTVSPropertyOp44
 70
     1
102
RTVSPropertyOp45
 70
     1
102
RTVSPropertyOp46
 70
     1
102
RTVSPropertyOp47
 70
     1
102
RTVSPropertyOp48
 70
     1
102
RTVSPropertyOp49
 70
     1
102
RTVSPropertyOp50
 70
     1
102
RTVSPropertyOp51
 70
     0
102
RTVSPropertyOp52
 70
     0
102
RTVSPropertyOp53
 70
     1
102
RTVSPropertyOp54
 70
     1
102
RTVSPropertyOp55
 70
     1
102
RTVSPropertyOp56
 70
     1
102
RTVSPropertyOp57
 70
     1
102
RTVSPropertyOp58
 70
     1
102
RTVSPropertyOp59
 70
     1
102
RTVSPropertyOp60
 70
     1
102
RTVSPropertyOp61
 70
     1
102
RTVSPropertyOp62
 70
     1
  0
XRECORD
  5
133B
102
{ACAD_REACTORS
330
133A
102
}
330
133A
100
AcDbXrecord
280
     1
102
RTVSPost2010Prop28
280
     0
102
RTVSPost2010PropOp28
 70
     1
102
RTVSPost2010Prop29
280
     1
102
RTVSPost2010PropOp29
 70
     1
102
RTVSPost2010Prop30
280
     1
102
RTVSPost2010PropOp30
 70
     1
102
RTVSPost2010Prop31
280
     0
102
RTVSPost2010PropOp31
 70
     1
102
RTVSPost2010Prop32
280
     0
102
RTVSPost2010PropOp32
 70
     1
102
RTVSPost2010Prop33
280
     0
102
RTVSPost2010PropOp33
 70
     1
102
RTVSPost2010Prop34
280
     0
102
RTVSPost2010PropOp34
 70
     1
102
RTVSPost2010Prop35
280
     0
102
RTVSPost2010PropOp35
 70
     1
102
RTVSPost2010Prop36
280
     0
102
RTVSPost2010PropOp36
 70
     1
102
RTVSPost2010Prop37
 90
       50
102
RTVSPost2010PropOp37
 70
     1
102
RTVSPost2010Prop38
140
0.0
102
RTVSPost2010PropOp38
 70
     1
102
RTVSPost2010Prop39
140
1.0
102
RTVSPost2010PropOp39
 70
     1
102
RTVSPost2010Prop40
 90
        0
102
RTVSPost2010PropOp40
 70
     1
102
RTVSPost2010Prop41ColorIndex
 90
       18
102
RTVSPost2010Prop41ColorRGB
 90
        0
102
RTVSPost2010PropOp41
 70
     1
102
RTVSPost2010Prop42
 90
       50
102
RTVSPost2010PropOp42
 70
     1
102
RTVSPost2010Prop43
 90
        3
102
RTVSPost2010PropOp43
 70
     1
102
RTVSPost2010Prop44ColorIndex
 90
        5
102
RTVSPost2010Prop44ColorRGB
 90
      255
102
RTVSPost2010PropOp44
 70
     1
102
RTVSPost2010Prop45
280
     0
102
RTVSPost2010PropOp45
 70
     1
102
RTVSPost2010Prop46
 90
       50
102
RTVSPost2010PropOp46
 70
     1
102
RTVSPost2010Prop47
 90
       50
102
RTVSPost2010PropOp47
 70
     1
102
RTVSPost2010Prop48
 90
       50
102
RTVSPost2010PropOp48
 70
     1
102
RTVSPost2010Prop49
280
     0
102
RTVSPost2010PropOp49
 70
     1
102
RTVSPost2010Prop50
 90
       50
102
RTVSPost2010PropOp50
 70
     1
102
RTVSPost2010Prop51ColorIndex
 90
      256
102
RTVSPost2010Prop51ColorRGB
 90
-16777216
102
RTVSPost2010PropOp51
 70
     0
102
RTVSPost2010Prop52
140
1.0
102
RTVSPost2010PropOp52
 70
     0
102
RTVSPost2010Prop53
 90
        2
102
RTVSPost2010PropOp53
 70
     1
102
RTVSPost2010Prop54
  1
strokes_ogs.tif
102
RTVSPost2010PropOp54
 70
     1
102
RTVSPost2010Prop55
280
     0
102
RTVSPost2010PropOp55
 70
     1
102
RTVSPost2010Prop56
140
1.0
102
RTVSPost2010PropOp56
 70
     1
102
RTVSPost2010Prop57
140
1.0
102
RTVSPost2010PropOp57
 70
     1
102
RTVSPropertyOp0
 70
     1
102
RTVSPropertyOp1
 70
     1
102
RTVSPropertyOp2
 70
     1
102
RTVSPropertyOp3
 70
     1
102
RTVSPropertyOp4
 70
     1
102
RTVSPropertyOp5
 70
     1
102
RTVSPropertyOp6
 70
     1
102
RTVSPropertyOp7
 70
     1
102
RTVSPropertyOp8
 70
     1
102
RTVSPropertyOp9
 70
     1
102
RTVSPropertyOp10
 70
     1
102
RTVSPropertyOp11
 70
     1
102
RTVSPropertyOp12
 70
     1
102
RTVSPropertyOp13
 70
     1
102
RTVSPropertyOp14
 70
     1
102
RTVSPropertyOp15
 70
     1
102
RTVSPropertyOp16
 70
     1
102
RTVSPropertyOp17
 70
     1
102
RTVSPropertyOp18
 70
     1
102
RTVSPropertyOp19
 70
     1
102
RTVSPropertyOp20
 70
     1
102
RTVSPropertyOp21
 70
     1
102
RTVSPropertyOp22
 70
     1
102
RTVSPropertyOp23
 70
     1
102
RTVSPropertyOp24
 70
     1
102
RTVSPropertyOp25
 70
     1
102
RTVSPropertyOp26
 70
     1
102
RTVSPropertyOp27
 70
     1
102
RTVSPropertyOp28
 70
     1
102
RTVSPropertyOp29
 70
     1
102
RTVSPropertyOp30
 70
     1
102
RTVSPropertyOp31
 70
     1
102
RTVSPropertyOp32
 70
     1
102
RTVSPropertyOp33
 70
     1
102
RTVSPropertyOp34
 70
     1
102
RTVSPropertyOp35
 70
     1
102
RTVSPropertyOp36
 70
     1
102
RTVSPropertyOp37
 70
     1
102
RTVSPropertyOp38
 70
     1
102
RTVSPropertyOp39
 70
     1
102
RTVSPropertyOp40
 70
     1
102
RTVSPropertyOp41
 70
     1
102
RTVSPropertyOp42
 70
     1
102
RTVSPropertyOp43
 70
     1
102
RTVSPropertyOp44
 70
     1
102
RTVSPropertyOp45
 70
     1
102
RTVSPropertyOp46
 70
     1
102
RTVSPropertyOp47
 70
     1
102
RTVSPropertyOp48
 70
     1
102
RTVSPropertyOp49
 70
     1
102
RTVSPropertyOp50
 70
     1
102
RTVSPropertyOp51
 70
     0
102
RTVSPropertyOp52
 70
     0
102
RTVSPropertyOp53
 70
     1
102
RTVSPropertyOp54
 70
     1
102
RTVSPropertyOp55
 70
     1
102
RTVSPropertyOp56
 70
     1
102
RTVSPropertyOp57
 70
     1
102
RTVSPropertyOp58
 70
     1
102
RTVSPropertyOp59
 70
     1
102
RTVSPropertyOp60
 70
     1
102
RTVSPropertyOp61
 70
     1
102
RTVSPropertyOp62
 70
     1
  0
XRECORD
  5
133D
102
{ACAD_REACTORS
330
133C
102
}
330
133C
100
AcDbXrecord
280
     1
102
RTVSPost2010Prop28
280
     0
102
RTVSPost2010PropOp28
 70
     1
102
RTVSPost2010Prop29
280
     1
102
RTVSPost2010PropOp29
 70
     1
102
RTVSPost2010Prop30
280
     1
102
RTVSPost2010PropOp30
 70
     1
102
RTVSPost2010Prop31
280
     0
102
RTVSPost2010PropOp31
 70
     1
102
RTVSPost2010Prop32
280
     0
102
RTVSPost2010PropOp32
 70
     1
102
RTVSPost2010Prop33
280
     0
102
RTVSPost2010PropOp33
 70
     1
102
RTVSPost2010Prop34
280
     0
102
RTVSPost2010PropOp34
 70
     1
102
RTVSPost2010Prop35
280
     0
102
RTVSPost2010PropOp35
 70
     1
102
RTVSPost2010Prop36
280
     0
102
RTVSPost2010PropOp36
 70
     1
102
RTVSPost2010Prop37
 90
       50
102
RTVSPost2010PropOp37
 70
     1
102
RTVSPost2010Prop38
140
0.0
102
RTVSPost2010PropOp38
 70
     1
102
RTVSPost2010Prop39
140
1.0
102
RTVSPost2010PropOp39
 70
     1
102
RTVSPost2010Prop40
 90
        0
102
RTVSPost2010PropOp40
 70
     1
102
RTVSPost2010Prop41ColorIndex
 90
       18
102
RTVSPost2010Prop41ColorRGB
 90
        0
102
RTVSPost2010PropOp41
 70
     1
102
RTVSPost2010Prop42
 90
       50
102
RTVSPost2010PropOp42
 70
     1
102
RTVSPost2010Prop43
 90
        3
102
RTVSPost2010PropOp43
 70
     1
102
RTVSPost2010Prop44ColorIndex
 90
        5
102
RTVSPost2010Prop44ColorRGB
 90
      255
102
RTVSPost2010PropOp44
 70
     1
102
RTVSPost2010Prop45
280
     0
102
RTVSPost2010PropOp45
 70
     1
102
RTVSPost2010Prop46
 90
       50
102
RTVSPost2010PropOp46
 70
     1
102
RTVSPost2010Prop47
 90
       50
102
RTVSPost2010PropOp47
 70
     1
102
RTVSPost2010Prop48
 90
       50
102
RTVSPost2010PropOp48
 70
     1
102
RTVSPost2010Prop49
280
     0
102
RTVSPost2010PropOp49
 70
     1
102
RTVSPost2010Prop50
 90
       50
102
RTVSPost2010PropOp50
 70
     1
102
RTVSPost2010Prop51ColorIndex
 90
      256
102
RTVSPost2010Prop51ColorRGB
 90
-16777216
102
RTVSPost2010PropOp51
 70
     0
102
RTVSPost2010Prop52
140
1.0
102
RTVSPost2010PropOp52
 70
     0
102
RTVSPost2010Prop53
 90
        2
102
RTVSPost2010PropOp53
 70
     1
102
RTVSPost2010Prop54
  1
strokes_ogs.tif
102
RTVSPost2010PropOp54
 70
     1
102
RTVSPost2010Prop55
280
     0
102
RTVSPost2010PropOp55
 70
     1
102
RTVSPost2010Prop56
140
1.0
102
RTVSPost2010PropOp56
 70
     1
102
RTVSPost2010Prop57
140
1.0
102
RTVSPost2010PropOp57
 70
     1
102
RTVSPropertyOp0
 70
     1
102
RTVSPropertyOp1
 70
     1
102
RTVSPropertyOp2
 70
     1
102
RTVSPropertyOp3
 70
     1
102
RTVSPropertyOp4
 70
     1
102
RTVSPropertyOp5
 70
     1
102
RTVSPropertyOp6
 70
     1
102
RTVSPropertyOp7
 70
     1
102
RTVSPropertyOp8
 70
     1
102
RTVSPropertyOp9
 70
     1
102
RTVSPropertyOp10
 70
     1
102
RTVSPropertyOp11
 70
     1
102
RTVSPropertyOp12
 70
     1
102
RTVSPropertyOp13
 70
     1
102
RTVSPropertyOp14
 70
     1
102
RTVSPropertyOp15
 70
     1
102
RTVSPropertyOp16
 70
     1
102
RTVSPropertyOp17
 70
     1
102
RTVSPropertyOp18
 70
     1
102
RTVSPropertyOp19
 70
     1
102
RTVSPropertyOp20
 70
     1
102
RTVSPropertyOp21
 70
     1
102
RTVSPropertyOp22
 70
     1
102
RTVSPropertyOp23
 70
     1
102
RTVSPropertyOp24
 70
     1
102
RTVSPropertyOp25
 70
     1
102
RTVSPropertyOp26
 70
     1
102
RTVSPropertyOp27
 70
     1
102
RTVSPropertyOp28
 70
     1
102
RTVSPropertyOp29
 70
     1
102
RTVSPropertyOp30
 70
     1
102
RTVSPropertyOp31
 70
     1
102
RTVSPropertyOp32
 70
     1
102
RTVSPropertyOp33
 70
     1
102
RTVSPropertyOp34
 70
     1
102
RTVSPropertyOp35
 70
     1
102
RTVSPropertyOp36
 70
     1
102
RTVSPropertyOp37
 70
     1
102
RTVSPropertyOp38
 70
     1
102
RTVSPropertyOp39
 70
     1
102
RTVSPropertyOp40
 70
     1
102
RTVSPropertyOp41
 70
     1
102
RTVSPropertyOp42
 70
     1
102
RTVSPropertyOp43
 70
     1
102
RTVSPropertyOp44
 70
     1
102
RTVSPropertyOp45
 70
     1
102
RTVSPropertyOp46
 70
     1
102
RTVSPropertyOp47
 70
     1
102
RTVSPropertyOp48
 70
     1
102
RTVSPropertyOp49
 70
     1
102
RTVSPropertyOp50
 70
     1
102
RTVSPropertyOp51
 70
     0
102
RTVSPropertyOp52
 70
     0
102
RTVSPropertyOp53
 70
     1
102
RTVSPropertyOp54
 70
     1
102
RTVSPropertyOp55
 70
     1
102
RTVSPropertyOp56
 70
     1
102
RTVSPropertyOp57
 70
     1
102
RTVSPropertyOp58
 70
     1
102
RTVSPropertyOp59
 70
     1
102
RTVSPropertyOp60
 70
     1
102
RTVSPropertyOp61
 70
     1
102
RTVSPropertyOp62
 70
     1
  0
XRECORD
  5
1345
102
{ACAD_REACTORS
330
1344
102
}
330
1344
100
AcDbXrecord
280
     1
102
RTVSPost2010Prop28
280
     0
102
RTVSPost2010PropOp28
 70
     1
102
RTVSPost2010Prop29
280
     1
102
RTVSPost2010PropOp29
 70
     1
102
RTVSPost2010Prop30
280
     1
102
RTVSPost2010PropOp30
 70
     1
102
RTVSPost2010Prop31
280
     0
102
RTVSPost2010PropOp31
 70
     1
102
RTVSPost2010Prop32
280
     0
102
RTVSPost2010PropOp32
 70
     1
102
RTVSPost2010Prop33
280
     0
102
RTVSPost2010PropOp33
 70
     1
102
RTVSPost2010Prop34
280
     0
102
RTVSPost2010PropOp34
 70
     1
102
RTVSPost2010Prop35
280
     0
102
RTVSPost2010PropOp35
 70
     1
102
RTVSPost2010Prop36
280
     0
102
RTVSPost2010PropOp36
 70
     1
102
RTVSPost2010Prop37
 90
       50
102
RTVSPost2010PropOp37
 70
     1
102
RTVSPost2010Prop38
140
0.0
102
RTVSPost2010PropOp38
 70
     1
102
RTVSPost2010Prop39
140
1.0
102
RTVSPost2010PropOp39
 70
     1
102
RTVSPost2010Prop40
 90
        0
102
RTVSPost2010PropOp40
 70
     1
102
RTVSPost2010Prop41ColorIndex
 90
       18
102
RTVSPost2010Prop41ColorRGB
 90
        0
102
RTVSPost2010PropOp41
 70
     1
102
RTVSPost2010Prop42
 90
       50
102
RTVSPost2010PropOp42
 70
     1
102
RTVSPost2010Prop43
 90
        3
102
RTVSPost2010PropOp43
 70
     1
102
RTVSPost2010Prop44ColorIndex
 90
        5
102
RTVSPost2010Prop44ColorRGB
 90
      255
102
RTVSPost2010PropOp44
 70
     1
102
RTVSPost2010Prop45
280
     0
102
RTVSPost2010PropOp45
 70
     1
102
RTVSPost2010Prop46
 90
       50
102
RTVSPost2010PropOp46
 70
     1
102
RTVSPost2010Prop47
 90
       50
102
RTVSPost2010PropOp47
 70
     1
102
RTVSPost2010Prop48
 90
       50
102
RTVSPost2010PropOp48
 70
     1
102
RTVSPost2010Prop49
280
     0
102
RTVSPost2010PropOp49
 70
     1
102
RTVSPost2010Prop50
 90
       50
102
RTVSPost2010PropOp50
 70
     1
102
RTVSPost2010Prop51ColorIndex
 90
      256
102
RTVSPost2010Prop51ColorRGB
 90
-16777216
102
RTVSPost2010PropOp51
 70
     0
102
RTVSPost2010Prop52
140
1.0
102
RTVSPost2010PropOp52
 70
     0
102
RTVSPost2010Prop53
 90
        2
102
RTVSPost2010PropOp53
 70
     1
102
RTVSPost2010Prop54
  1
strokes_ogs.tif
102
RTVSPost2010PropOp54
 70
     1
102
RTVSPost2010Prop55
280
     0
102
RTVSPost2010PropOp55
 70
     1
102
RTVSPost2010Prop56
140
1.0
102
RTVSPost2010PropOp56
 70
     1
102
RTVSPost2010Prop57
140
1.0
102
RTVSPost2010PropOp57
 70
     1
102
RTVSPropertyOp0
 70
     1
102
RTVSPropertyOp1
 70
     1
102
RTVSPropertyOp2
 70
     1
102
RTVSPropertyOp3
 70
     1
102
RTVSPropertyOp4
 70
     1
102
RTVSPropertyOp5
 70
     1
102
RTVSPropertyOp6
 70
     1
102
RTVSPropertyOp7
 70
     1
102
RTVSPropertyOp8
 70
     1
102
RTVSPropertyOp9
 70
     1
102
RTVSPropertyOp10
 70
     1
102
RTVSPropertyOp11
 70
     1
102
RTVSPropertyOp12
 70
     1
102
RTVSPropertyOp13
 70
     1
102
RTVSPropertyOp14
 70
     1
102
RTVSPropertyOp15
 70
     1
102
RTVSPropertyOp16
 70
     1
102
RTVSPropertyOp17
 70
     1
102
RTVSPropertyOp18
 70
     1
102
RTVSPropertyOp19
 70
     1
102
RTVSPropertyOp20
 70
     1
102
RTVSPropertyOp21
 70
     1
102
RTVSPropertyOp22
 70
     1
102
RTVSPropertyOp23
 70
     1
102
RTVSPropertyOp24
 70
     1
102
RTVSPropertyOp25
 70
     1
102
RTVSPropertyOp26
 70
     1
102
RTVSPropertyOp27
 70
     1
102
RTVSPropertyOp28
 70
     1
102
RTVSPropertyOp29
 70
     1
102
RTVSPropertyOp30
 70
     1
102
RTVSPropertyOp31
 70
     1
102
RTVSPropertyOp32
 70
     1
102
RTVSPropertyOp33
 70
     1
102
RTVSPropertyOp34
 70
     1
102
RTVSPropertyOp35
 70
     1
102
RTVSPropertyOp36
 70
     1
102
RTVSPropertyOp37
 70
     1
102
RTVSPropertyOp38
 70
     1
102
RTVSPropertyOp39
 70
     1
102
RTVSPropertyOp40
 70
     1
102
RTVSPropertyOp41
 70
     1
102
RTVSPropertyOp42
 70
     1
102
RTVSPropertyOp43
 70
     1
102
RTVSPropertyOp44
 70
     1
102
RTVSPropertyOp45
 70
     1
102
RTVSPropertyOp46
 70
     1
102
RTVSPropertyOp47
 70
     1
102
RTVSPropertyOp48
 70
     1
102
RTVSPropertyOp49
 70
     1
102
RTVSPropertyOp50
 70
     1
102
RTVSPropertyOp51
 70
     0
102
RTVSPropertyOp52
 70
     0
102
RTVSPropertyOp53
 70
     1
102
RTVSPropertyOp54
 70
     1
102
RTVSPropertyOp55
 70
     1
102
RTVSPropertyOp56
 70
     1
102
RTVSPropertyOp57
 70
     1
102
RTVSPropertyOp58
 70
     1
102
RTVSPropertyOp59
 70
     1
102
RTVSPropertyOp60
 70
     1
102
RTVSPropertyOp61
 70
     1
102
RTVSPropertyOp62
 70
     1
  0
XRECORD
  5
1361
102
{ACAD_REACTORS
330
1360
102
}
330
1360
100
AcDbXrecord
280
     1
102
RTVSPost2010Prop28
280
     0
102
RTVSPost2010PropOp28
 70
     1
102
RTVSPost2010Prop29
280
     1
102
RTVSPost2010PropOp29
 70
     1
102
RTVSPost2010Prop30
280
     1
102
RTVSPost2010PropOp30
 70
     1
102
RTVSPost2010Prop31
280
     0
102
RTVSPost2010PropOp31
 70
     1
102
RTVSPost2010Prop32
280
     0
102
RTVSPost2010PropOp32
 70
     1
102
RTVSPost2010Prop33
280
     0
102
RTVSPost2010PropOp33
 70
     1
102
RTVSPost2010Prop34
280
     0
102
RTVSPost2010PropOp34
 70
     1
102
RTVSPost2010Prop35
280
     0
102
RTVSPost2010PropOp35
 70
     1
102
RTVSPost2010Prop36
280
     0
102
RTVSPost2010PropOp36
 70
     1
102
RTVSPost2010Prop37
 90
       50
102
RTVSPost2010PropOp37
 70
     0
102
RTVSPost2010Prop38
140
0.0
102
RTVSPost2010PropOp38
 70
     0
102
RTVSPost2010Prop39
140
1.0
102
RTVSPost2010PropOp39
 70
     0
102
RTVSPost2010Prop40
 90
        0
102
RTVSPost2010PropOp40
 70
     0
102
RTVSPost2010Prop41ColorIndex
 90
       18
102
RTVSPost2010Prop41ColorRGB
 90
        0
102
RTVSPost2010PropOp41
 70
     0
102
RTVSPost2010Prop42
 90
       50
102
RTVSPost2010PropOp42
 70
     0
102
RTVSPost2010Prop43
 90
        3
102
RTVSPost2010PropOp43
 70
     0
102
RTVSPost2010Prop44ColorIndex
 90
        5
102
RTVSPost2010Prop44ColorRGB
 90
      255
102
RTVSPost2010PropOp44
 70
     0
102
RTVSPost2010Prop45
280
     0
102
RTVSPost2010PropOp45
 70
     1
102
RTVSPost2010Prop46
 90
       50
102
RTVSPost2010PropOp46
 70
     0
102
RTVSPost2010Prop47
 90
       50
102
RTVSPost2010PropOp47
 70
     0
102
RTVSPost2010Prop48
 90
       50
102
RTVSPost2010PropOp48
 70
     0
102
RTVSPost2010Prop49
280
     0
102
RTVSPost2010PropOp49
 70
     1
102
RTVSPost2010Prop50
 90
       50
102
RTVSPost2010PropOp50
 70
     0
102
RTVSPost2010Prop51ColorIndex
 90
      256
102
RTVSPost2010Prop51ColorRGB
 90
-16777216
102
RTVSPost2010PropOp51
 70
     0
102
RTVSPost2010Prop52
140
1.0
102
RTVSPost2010PropOp52
 70
     0
102
RTVSPost2010Prop53
 90
        2
102
RTVSPost2010PropOp53
 70
     0
102
RTVSPost2010Prop54
  1
strokes_ogs.tif
102
RTVSPost2010PropOp54
 70
     0
102
RTVSPost2010Prop55
280
     0
102
RTVSPost2010PropOp55
 70
     1
102
RTVSPost2010Prop56
140
1.0
102
RTVSPost2010PropOp56
 70
     0
102
RTVSPost2010Prop57
140
1.0
102
RTVSPost2010PropOp57
 70
     0
102
RTVSPropertyOp0
 70
     0
102
RTVSPropertyOp1
 70
     0
102
RTVSPropertyOp2
 70
     0
102
RTVSPropertyOp3
 70
     0
102
RTVSPropertyOp4
 70
     0
102
RTVSPropertyOp5
 70
     0
102
RTVSPropertyOp6
 70
     0
102
RTVSPropertyOp7
 70
     0
102
RTVSPropertyOp8
 70
     0
102
RTVSPropertyOp9
 70
     0
102
RTVSPropertyOp10
 70
     0
102
RTVSPropertyOp11
 70
     0
102
RTVSPropertyOp12
 70
     0
102
RTVSPropertyOp13
 70
     0
102
RTVSPropertyOp14
 70
     2
102
RTVSPropertyOp15
 70
     0
102
RTVSPropertyOp16
 70
     0
102
RTVSPropertyOp17
 70
     0
102
RTVSPropertyOp18
 70
     0
102
RTVSPropertyOp19
 70
     0
102
RTVSPropertyOp20
 70
     0
102
RTVSPropertyOp21
 70
     0
102
RTVSPropertyOp22
 70
     0
102
RTVSPropertyOp23
 70
     0
102
RTVSPropertyOp24
 70
     0
102
RTVSPropertyOp25
 70
     0
102
RTVSPropertyOp26
 70
     0
102
RTVSPropertyOp27
 70
     0
102
RTVSPropertyOp28
 70
     1
102
RTVSPropertyOp29
 70
     1
102
RTVSPropertyOp30
 70
     1
102
RTVSPropertyOp31
 70
     1
102
RTVSPropertyOp32
 70
     1
102
RTVSPropertyOp33
 70
     1
102
RTVSPropertyOp34
 70
     1
102
RTVSPropertyOp35
 70
     1
102
RTVSPropertyOp36
 70
     1
102
RTVSPropertyOp37
 70
     0
102
RTVSPropertyOp38
 70
     0
102
RTVSPropertyOp39
 70
     0
102
RTVSPropertyOp40
 70
     0
102
RTVSPropertyOp41
 70
     0
102
RTVSPropertyOp42
 70
     0
102
RTVSPropertyOp43
 70
     0
102
RTVSPropertyOp44
 70
     0
102
RTVSPropertyOp45
 70
     1
102
RTVSPropertyOp46
 70
     0
102
RTVSPropertyOp47
 70
     0
102
RTVSPropertyOp48
 70
     0
102
RTVSPropertyOp49
 70
     1
102
RTVSPropertyOp50
 70
     0
102
RTVSPropertyOp51
 70
     0
102
RTVSPropertyOp52
 70
     0
102
RTVSPropertyOp53
 70
     0
102
RTVSPropertyOp54
 70
     0
102
RTVSPropertyOp55
 70
     1
102
RTVSPropertyOp56
 70
     0
102
RTVSPropertyOp57
 70
     0
102
RTVSPropertyOp58
 70
     0
102
RTVSPropertyOp59
 70
     0
102
RTVSPropertyOp60
 70
     0
102
RTVSPropertyOp61
 70
     0
102
RTVSPropertyOp62
 70
     0
  0
XRECORD
  5
1351
102
{ACAD_REACTORS
330
1350
102
}
330
1350
100
AcDbXrecord
280
     1
102
RTVSPost2010Prop28
280
     0
102
RTVSPost2010PropOp28
 70
     1
102
RTVSPost2010Prop29
280
     1
102
RTVSPost2010PropOp29
 70
     1
102
RTVSPost2010Prop30
280
     1
102
RTVSPost2010PropOp30
 70
     1
102
RTVSPost2010Prop31
280
     0
102
RTVSPost2010PropOp31
 70
     1
102
RTVSPost2010Prop32
280
     0
102
RTVSPost2010PropOp32
 70
     1
102
RTVSPost2010Prop33
280
     0
102
RTVSPost2010PropOp33
 70
     1
102
RTVSPost2010Prop34
280
     0
102
RTVSPost2010PropOp34
 70
     1
102
RTVSPost2010Prop35
280
     0
102
RTVSPost2010PropOp35
 70
     1
102
RTVSPost2010Prop36
280
     0
102
RTVSPost2010PropOp36
 70
     1
102
RTVSPost2010Prop37
 90
       50
102
RTVSPost2010PropOp37
 70
     1
102
RTVSPost2010Prop38
140
0.0
102
RTVSPost2010PropOp38
 70
     1
102
RTVSPost2010Prop39
140
1.0
102
RTVSPost2010PropOp39
 70
     1
102
RTVSPost2010Prop40
 90
        0
102
RTVSPost2010PropOp40
 70
     1
102
RTVSPost2010Prop41ColorIndex
 90
       18
102
RTVSPost2010Prop41ColorRGB
 90
        0
102
RTVSPost2010PropOp41
 70
     1
102
RTVSPost2010Prop42
 90
       50
102
RTVSPost2010PropOp42
 70
     1
102
RTVSPost2010Prop43
 90
        3
102
RTVSPost2010PropOp43
 70
     1
102
RTVSPost2010Prop44ColorIndex
 90
        5
102
RTVSPost2010Prop44ColorRGB
 90
      255
102
RTVSPost2010PropOp44
 70
     1
102
RTVSPost2010Prop45
280
     0
102
RTVSPost2010PropOp45
 70
     1
102
RTVSPost2010Prop46
 90
       50
102
RTVSPost2010PropOp46
 70
     1
102
RTVSPost2010Prop47
 90
       50
102
RTVSPost2010PropOp47
 70
     1
102
RTVSPost2010Prop48
 90
       50
102
RTVSPost2010PropOp48
 70
     1
102
RTVSPost2010Prop49
280
     0
102
RTVSPost2010PropOp49
 70
     1
102
RTVSPost2010Prop50
 90
       50
102
RTVSPost2010PropOp50
 70
     1
102
RTVSPost2010Prop51ColorIndex
 90
      256
102
RTVSPost2010Prop51ColorRGB
 90
-16777216
102
RTVSPost2010PropOp51
 70
     0
102
RTVSPost2010Prop52
140
1.0
102
RTVSPost2010PropOp52
 70
     0
102
RTVSPost2010Prop53
 90
        2
102
RTVSPost2010PropOp53
 70
     1
102
RTVSPost2010Prop54
  1
strokes_ogs.tif
102
RTVSPost2010PropOp54
 70
     1
102
RTVSPost2010Prop55
280
     0
102
RTVSPost2010PropOp55
 70
     1
102
RTVSPost2010Prop56
140
1.0
102
RTVSPost2010PropOp56
 70
     1
102
RTVSPost2010Prop57
140
1.0
102
RTVSPost2010PropOp57
 70
     1
102
RTVSPropertyOp0
 70
     1
102
RTVSPropertyOp1
 70
     1
102
RTVSPropertyOp2
 70
     1
102
RTVSPropertyOp3
 70
     1
102
RTVSPropertyOp4
 70
     1
102
RTVSPropertyOp5
 70
     1
102
RTVSPropertyOp6
 70
     1
102
RTVSPropertyOp7
 70
     1
102
RTVSPropertyOp8
 70
     1
102
RTVSPropertyOp9
 70
     1
102
RTVSPropertyOp10
 70
     1
102
RTVSPropertyOp11
 70
     1
102
RTVSPropertyOp12
 70
     1
102
RTVSPropertyOp13
 70
     1
102
RTVSPropertyOp14
 70
     1
102
RTVSPropertyOp15
 70
     1
102
RTVSPropertyOp16
 70
     1
102
RTVSPropertyOp17
 70
     1
102
RTVSPropertyOp18
 70
     1
102
RTVSPropertyOp19
 70
     1
102
RTVSPropertyOp20
 70
     1
102
RTVSPropertyOp21
 70
     1
102
RTVSPropertyOp22
 70
     1
102
RTVSPropertyOp23
 70
     1
102
RTVSPropertyOp24
 70
     1
102
RTVSPropertyOp25
 70
     1
102
RTVSPropertyOp26
 70
     1
102
RTVSPropertyOp27
 70
     1
102
RTVSPropertyOp28
 70
     1
102
RTVSPropertyOp29
 70
     1
102
RTVSPropertyOp30
 70
     1
102
RTVSPropertyOp31
 70
     1
102
RTVSPropertyOp32
 70
     1
102
RTVSPropertyOp33
 70
     1
102
RTVSPropertyOp34
 70
     1
102
RTVSPropertyOp35
 70
     1
102
RTVSPropertyOp36
 70
     1
102
RTVSPropertyOp37
 70
     1
102
RTVSPropertyOp38
 70
     1
102
RTVSPropertyOp39
 70
     1
102
RTVSPropertyOp40
 70
     1
102
RTVSPropertyOp41
 70
     1
102
RTVSPropertyOp42
 70
     1
102
RTVSPropertyOp43
 70
     1
102
RTVSPropertyOp44
 70
     1
102
RTVSPropertyOp45
 70
     1
102
RTVSPropertyOp46
 70
     1
102
RTVSPropertyOp47
 70
     1
102
RTVSPropertyOp48
 70
     1
102
RTVSPropertyOp49
 70
     1
102
RTVSPropertyOp50
 70
     1
102
RTVSPropertyOp51
 70
     0
102
RTVSPropertyOp52
 70
     0
102
RTVSPropertyOp53
 70
     1
102
RTVSPropertyOp54
 70
     1
102
RTVSPropertyOp55
 70
     1
102
RTVSPropertyOp56
 70
     1
102
RTVSPropertyOp57
 70
     1
102
RTVSPropertyOp58
 70
     1
102
RTVSPropertyOp59
 70
     1
102
RTVSPropertyOp60
 70
     1
102
RTVSPropertyOp61
 70
     1
102
RTVSPropertyOp62
 70
     1
  0
XRECORD
  5
1363
102
{ACAD_REACTORS
330
1362
102
}
330
1362
100
AcDbXrecord
280
     1
102
RTVSPost2010Prop28
280
     0
102
RTVSPost2010PropOp28
 70
     1
102
RTVSPost2010Prop29
280
     1
102
RTVSPost2010PropOp29
 70
     1
102
RTVSPost2010Prop30
280
     1
102
RTVSPost2010PropOp30
 70
     1
102
RTVSPost2010Prop31
280
     0
102
RTVSPost2010PropOp31
 70
     1
102
RTVSPost2010Prop32
280
     0
102
RTVSPost2010PropOp32
 70
     1
102
RTVSPost2010Prop33
280
     0
102
RTVSPost2010PropOp33
 70
     1
102
RTVSPost2010Prop34
280
     0
102
RTVSPost2010PropOp34
 70
     1
102
RTVSPost2010Prop35
280
     0
102
RTVSPost2010PropOp35
 70
     1
102
RTVSPost2010Prop36
280
     0
102
RTVSPost2010PropOp36
 70
     1
102
RTVSPost2010Prop37
 90
       50
102
RTVSPost2010PropOp37
 70
     0
102
RTVSPost2010Prop38
140
0.0
102
RTVSPost2010PropOp38
 70
     0
102
RTVSPost2010Prop39
140
1.0
102
RTVSPost2010PropOp39
 70
     0
102
RTVSPost2010Prop40
 90
        0
102
RTVSPost2010PropOp40
 70
     0
102
RTVSPost2010Prop41ColorIndex
 90
       18
102
RTVSPost2010Prop41ColorRGB
 90
        0
102
RTVSPost2010PropOp41
 70
     0
102
RTVSPost2010Prop42
 90
       50
102
RTVSPost2010PropOp42
 70
     0
102
RTVSPost2010Prop43
 90
        3
102
RTVSPost2010PropOp43
 70
     0
102
RTVSPost2010Prop44ColorIndex
 90
        5
102
RTVSPost2010Prop44ColorRGB
 90
      255
102
RTVSPost2010PropOp44
 70
     0
102
RTVSPost2010Prop45
280
     0
102
RTVSPost2010PropOp45
 70
     1
102
RTVSPost2010Prop46
 90
       50
102
RTVSPost2010PropOp46
 70
     0
102
RTVSPost2010Prop47
 90
       50
102
RTVSPost2010PropOp47
 70
     0
102
RTVSPost2010Prop48
 90
       50
102
RTVSPost2010PropOp48
 70
     0
102
RTVSPost2010Prop49
280
     0
102
RTVSPost2010PropOp49
 70
     1
102
RTVSPost2010Prop50
 90
       50
102
RTVSPost2010PropOp50
 70
     0
102
RTVSPost2010Prop51ColorIndex
 90
      256
102
RTVSPost2010Prop51ColorRGB
 90
-16777216
102
RTVSPost2010PropOp51
 70
     0
102
RTVSPost2010Prop52
140
1.0
102
RTVSPost2010PropOp52
 70
     0
102
RTVSPost2010Prop53
 90
        2
102
RTVSPost2010PropOp53
 70
     0
102
RTVSPost2010Prop54
  1
strokes_ogs.tif
102
RTVSPost2010PropOp54
 70
     0
102
RTVSPost2010Prop55
280
     0
102
RTVSPost2010PropOp55
 70
     1
102
RTVSPost2010Prop56
140
1.0
102
RTVSPost2010PropOp56
 70
     0
102
RTVSPost2010Prop57
140
1.0
102
RTVSPost2010PropOp57
 70
     0
102
RTVSPropertyOp0
 70
     0
102
RTVSPropertyOp1
 70
     0
102
RTVSPropertyOp2
 70
     0
102
RTVSPropertyOp3
 70
     0
102
RTVSPropertyOp4
 70
     0
102
RTVSPropertyOp5
 70
     0
102
RTVSPropertyOp6
 70
     0
102
RTVSPropertyOp7
 70
     0
102
RTVSPropertyOp8
 70
     0
102
RTVSPropertyOp9
 70
     0
102
RTVSPropertyOp10
 70
     0
102
RTVSPropertyOp11
 70
     0
102
RTVSPropertyOp12
 70
     0
102
RTVSPropertyOp13
 70
     0
102
RTVSPropertyOp14
 70
     2
102
RTVSPropertyOp15
 70
     0
102
RTVSPropertyOp16
 70
     0
102
RTVSPropertyOp17
 70
     0
102
RTVSPropertyOp18
 70
     0
102
RTVSPropertyOp19
 70
     0
102
RTVSPropertyOp20
 70
     0
102
RTVSPropertyOp21
 70
     0
102
RTVSPropertyOp22
 70
     0
102
RTVSPropertyOp23
 70
     0
102
RTVSPropertyOp24
 70
     0
102
RTVSPropertyOp25
 70
     0
102
RTVSPropertyOp26
 70
     0
102
RTVSPropertyOp27
 70
     0
102
RTVSPropertyOp28
 70
     1
102
RTVSPropertyOp29
 70
     1
102
RTVSPropertyOp30
 70
     1
102
RTVSPropertyOp31
 70
     1
102
RTVSPropertyOp32
 70
     1
102
RTVSPropertyOp33
 70
     1
102
RTVSPropertyOp34
 70
     1
102
RTVSPropertyOp35
 70
     1
102
RTVSPropertyOp36
 70
     1
102
RTVSPropertyOp37
 70
     0
102
RTVSPropertyOp38
 70
     0
102
RTVSPropertyOp39
 70
     0
102
RTVSPropertyOp40
 70
     0
102
RTVSPropertyOp41
 70
     0
102
RTVSPropertyOp42
 70
     0
102
RTVSPropertyOp43
 70
     0
102
RTVSPropertyOp44
 70
     0
102
RTVSPropertyOp45
 70
     1
102
RTVSPropertyOp46
 70
     0
102
RTVSPropertyOp47
 70
     0
102
RTVSPropertyOp48
 70
     0
102
RTVSPropertyOp49
 70
     1
102
RTVSPropertyOp50
 70
     0
102
RTVSPropertyOp51
 70
     0
102
RTVSPropertyOp52
 70
     0
102
RTVSPropertyOp53
 70
     0
102
RTVSPropertyOp54
 70
     0
102
RTVSPropertyOp55
 70
     1
102
RTVSPropertyOp56
 70
     0
102
RTVSPropertyOp57
 70
     0
102
RTVSPropertyOp58
 70
     0
102
RTVSPropertyOp59
 70
     0
102
RTVSPropertyOp60
 70
     0
102
RTVSPropertyOp61
 70
     0
102
RTVSPropertyOp62
 70
     0
  0
XRECORD
  5
1349
102
{ACAD_REACTORS
330
1348
102
}
330
1348
100
AcDbXrecord
280
     1
102
RTVSPost2010Prop28
280
     0
102
RTVSPost2010PropOp28
 70
     1
102
RTVSPost2010Prop29
280
     1
102
RTVSPost2010PropOp29
 70
     1
102
RTVSPost2010Prop30
280
     1
102
RTVSPost2010PropOp30
 70
     1
102
RTVSPost2010Prop31
280
     0
102
RTVSPost2010PropOp31
 70
     1
102
RTVSPost2010Prop32
280
     0
102
RTVSPost2010PropOp32
 70
     1
102
RTVSPost2010Prop33
280
     0
102
RTVSPost2010PropOp33
 70
     1
102
RTVSPost2010Prop34
280
     0
102
RTVSPost2010PropOp34
 70
     1
102
RTVSPost2010Prop35
280
     0
102
RTVSPost2010PropOp35
 70
     1
102
RTVSPost2010Prop36
280
     0
102
RTVSPost2010PropOp36
 70
     1
102
RTVSPost2010Prop37
 90
       50
102
RTVSPost2010PropOp37
 70
     1
102
RTVSPost2010Prop38
140
0.0
102
RTVSPost2010PropOp38
 70
     1
102
RTVSPost2010Prop39
140
1.0
102
RTVSPost2010PropOp39
 70
     1
102
RTVSPost2010Prop40
 90
        0
102
RTVSPost2010PropOp40
 70
     1
102
RTVSPost2010Prop41ColorIndex
 90
       18
102
RTVSPost2010Prop41ColorRGB
 90
        0
102
RTVSPost2010PropOp41
 70
     1
102
RTVSPost2010Prop42
 90
       50
102
RTVSPost2010PropOp42
 70
     1
102
RTVSPost2010Prop43
 90
        3
102
RTVSPost2010PropOp43
 70
     1
102
RTVSPost2010Prop44ColorIndex
 90
        5
102
RTVSPost2010Prop44ColorRGB
 90
      255
102
RTVSPost2010PropOp44
 70
     1
102
RTVSPost2010Prop45
280
     0
102
RTVSPost2010PropOp45
 70
     1
102
RTVSPost2010Prop46
 90
       50
102
RTVSPost2010PropOp46
 70
     1
102
RTVSPost2010Prop47
 90
       50
102
RTVSPost2010PropOp47
 70
     1
102
RTVSPost2010Prop48
 90
       50
102
RTVSPost2010PropOp48
 70
     1
102
RTVSPost2010Prop49
280
     0
102
RTVSPost2010PropOp49
 70
     1
102
RTVSPost2010Prop50
 90
       50
102
RTVSPost2010PropOp50
 70
     1
102
RTVSPost2010Prop51ColorIndex
 90
      256
102
RTVSPost2010Prop51ColorRGB
 90
-16777216
102
RTVSPost2010PropOp51
 70
     0
102
RTVSPost2010Prop52
140
1.0
102
RTVSPost2010PropOp52
 70
     0
102
RTVSPost2010Prop53
 90
        2
102
RTVSPost2010PropOp53
 70
     1
102
RTVSPost2010Prop54
  1
strokes_ogs.tif
102
RTVSPost2010PropOp54
 70
     1
102
RTVSPost2010Prop55
280
     0
102
RTVSPost2010PropOp55
 70
     1
102
RTVSPost2010Prop56
140
1.0
102
RTVSPost2010PropOp56
 70
     1
102
RTVSPost2010Prop57
140
1.0
102
RTVSPost2010PropOp57
 70
     1
102
RTVSPropertyOp0
 70
     1
102
RTVSPropertyOp1
 70
     1
102
RTVSPropertyOp2
 70
     1
102
RTVSPropertyOp3
 70
     1
102
RTVSPropertyOp4
 70
     1
102
RTVSPropertyOp5
 70
     1
102
RTVSPropertyOp6
 70
     1
102
RTVSPropertyOp7
 70
     1
102
RTVSPropertyOp8
 70
     1
102
RTVSPropertyOp9
 70
     1
102
RTVSPropertyOp10
 70
     1
102
RTVSPropertyOp11
 70
     1
102
RTVSPropertyOp12
 70
     1
102
RTVSPropertyOp13
 70
     1
102
RTVSPropertyOp14
 70
     1
102
RTVSPropertyOp15
 70
     1
102
RTVSPropertyOp16
 70
     1
102
RTVSPropertyOp17
 70
     1
102
RTVSPropertyOp18
 70
     1
102
RTVSPropertyOp19
 70
     1
102
RTVSPropertyOp20
 70
     1
102
RTVSPropertyOp21
 70
     1
102
RTVSPropertyOp22
 70
     1
102
RTVSPropertyOp23
 70
     1
102
RTVSPropertyOp24
 70
     1
102
RTVSPropertyOp25
 70
     1
102
RTVSPropertyOp26
 70
     1
102
RTVSPropertyOp27
 70
     1
102
RTVSPropertyOp28
 70
     1
102
RTVSPropertyOp29
 70
     1
102
RTVSPropertyOp30
 70
     1
102
RTVSPropertyOp31
 70
     1
102
RTVSPropertyOp32
 70
     1
102
RTVSPropertyOp33
 70
     1
102
RTVSPropertyOp34
 70
     1
102
RTVSPropertyOp35
 70
     1
102
RTVSPropertyOp36
 70
     1
102
RTVSPropertyOp37
 70
     1
102
RTVSPropertyOp38
 70
     1
102
RTVSPropertyOp39
 70
     1
102
RTVSPropertyOp40
 70
     1
102
RTVSPropertyOp41
 70
     1
102
RTVSPropertyOp42
 70
     1
102
RTVSPropertyOp43
 70
     1
102
RTVSPropertyOp44
 70
     1
102
RTVSPropertyOp45
 70
     1
102
RTVSPropertyOp46
 70
     1
102
RTVSPropertyOp47
 70
     1
102
RTVSPropertyOp48
 70
     1
102
RTVSPropertyOp49
 70
     1
102
RTVSPropertyOp50
 70
     1
102
RTVSPropertyOp51
 70
     0
102
RTVSPropertyOp52
 70
     0
102
RTVSPropertyOp53
 70
     1
102
RTVSPropertyOp54
 70
     1
102
RTVSPropertyOp55
 70
     1
102
RTVSPropertyOp56
 70
     1
102
RTVSPropertyOp57
 70
     1
102
RTVSPropertyOp58
 70
     1
102
RTVSPropertyOp59
 70
     1
102
RTVSPropertyOp60
 70
     1
102
RTVSPropertyOp61
 70
     1
102
RTVSPropertyOp62
 70
     1
  0
XRECORD
  5
135F
102
{ACAD_REACTORS
330
135E
102
}
330
135E
100
AcDbXrecord
280
     1
102
RTVSPost2010Prop28
280
     0
102
RTVSPost2010PropOp28
 70
     1
102
RTVSPost2010Prop29
280
     1
102
RTVSPost2010PropOp29
 70
     1
102
RTVSPost2010Prop30
280
     1
102
RTVSPost2010PropOp30
 70
     1
102
RTVSPost2010Prop31
280
     0
102
RTVSPost2010PropOp31
 70
     1
102
RTVSPost2010Prop32
280
     0
102
RTVSPost2010PropOp32
 70
     1
102
RTVSPost2010Prop33
280
     0
102
RTVSPost2010PropOp33
 70
     1
102
RTVSPost2010Prop34
280
     0
102
RTVSPost2010PropOp34
 70
     1
102
RTVSPost2010Prop35
280
     0
102
RTVSPost2010PropOp35
 70
     1
102
RTVSPost2010Prop36
280
     0
102
RTVSPost2010PropOp36
 70
     1
102
RTVSPost2010Prop37
 90
       50
102
RTVSPost2010PropOp37
 70
     1
102
RTVSPost2010Prop38
140
0.0
102
RTVSPost2010PropOp38
 70
     1
102
RTVSPost2010Prop39
140
1.0
102
RTVSPost2010PropOp39
 70
     1
102
RTVSPost2010Prop40
 90
        0
102
RTVSPost2010PropOp40
 70
     1
102
RTVSPost2010Prop41ColorIndex
 90
       18
102
RTVSPost2010Prop41ColorRGB
 90
        0
102
RTVSPost2010PropOp41
 70
     1
102
RTVSPost2010Prop42
 90
       50
102
RTVSPost2010PropOp42
 70
     1
102
RTVSPost2010Prop43
 90
        3
102
RTVSPost2010PropOp43
 70
     1
102
RTVSPost2010Prop44ColorIndex
 90
        5
102
RTVSPost2010Prop44ColorRGB
 90
      255
102
RTVSPost2010PropOp44
 70
     1
102
RTVSPost2010Prop45
280
     0
102
RTVSPost2010PropOp45
 70
     1
102
RTVSPost2010Prop46
 90
       50
102
RTVSPost2010PropOp46
 70
     1
102
RTVSPost2010Prop47
 90
       50
102
RTVSPost2010PropOp47
 70
     1
102
RTVSPost2010Prop48
 90
       50
102
RTVSPost2010PropOp48
 70
     1
102
RTVSPost2010Prop49
280
     0
102
RTVSPost2010PropOp49
 70
     1
102
RTVSPost2010Prop50
 90
       50
102
RTVSPost2010PropOp50
 70
     1
102
RTVSPost2010Prop51ColorIndex
 90
      256
102
RTVSPost2010Prop51ColorRGB
 90
-16777216
102
RTVSPost2010PropOp51
 70
     0
102
RTVSPost2010Prop52
140
1.0
102
RTVSPost2010PropOp52
 70
     0
102
RTVSPost2010Prop53
 90
        2
102
RTVSPost2010PropOp53
 70
     1
102
RTVSPost2010Prop54
  1
strokes_ogs.tif
102
RTVSPost2010PropOp54
 70
     1
102
RTVSPost2010Prop55
280
     0
102
RTVSPost2010PropOp55
 70
     1
102
RTVSPost2010Prop56
140
1.0
102
RTVSPost2010PropOp56
 70
     1
102
RTVSPost2010Prop57
140
1.0
102
RTVSPost2010PropOp57
 70
     1
102
RTVSPropertyOp0
 70
     1
102
RTVSPropertyOp1
 70
     1
102
RTVSPropertyOp2
 70
     1
102
RTVSPropertyOp3
 70
     1
102
RTVSPropertyOp4
 70
     1
102
RTVSPropertyOp5
 70
     1
102
RTVSPropertyOp6
 70
     1
102
RTVSPropertyOp7
 70
     1
102
RTVSPropertyOp8
 70
     1
102
RTVSPropertyOp9
 70
     1
102
RTVSPropertyOp10
 70
     1
102
RTVSPropertyOp11
 70
     1
102
RTVSPropertyOp12
 70
     1
102
RTVSPropertyOp13
 70
     1
102
RTVSPropertyOp14
 70
     1
102
RTVSPropertyOp15
 70
     1
102
RTVSPropertyOp16
 70
     1
102
RTVSPropertyOp17
 70
     1
102
RTVSPropertyOp18
 70
     1
102
RTVSPropertyOp19
 70
     1
102
RTVSPropertyOp20
 70
     1
102
RTVSPropertyOp21
 70
     1
102
RTVSPropertyOp22
 70
     1
102
RTVSPropertyOp23
 70
     1
102
RTVSPropertyOp24
 70
     1
102
RTVSPropertyOp25
 70
     1
102
RTVSPropertyOp26
 70
     1
102
RTVSPropertyOp27
 70
     1
102
RTVSPropertyOp28
 70
     1
102
RTVSPropertyOp29
 70
     1
102
RTVSPropertyOp30
 70
     1
102
RTVSPropertyOp31
 70
     1
102
RTVSPropertyOp32
 70
     1
102
RTVSPropertyOp33
 70
     1
102
RTVSPropertyOp34
 70
     1
102
RTVSPropertyOp35
 70
     1
102
RTVSPropertyOp36
 70
     1
102
RTVSPropertyOp37
 70
     1
102
RTVSPropertyOp38
 70
     1
102
RTVSPropertyOp39
 70
     1
102
RTVSPropertyOp40
 70
     1
102
RTVSPropertyOp41
 70
     1
102
RTVSPropertyOp42
 70
     1
102
RTVSPropertyOp43
 70
     1
102
RTVSPropertyOp44
 70
     1
102
RTVSPropertyOp45
 70
     1
102
RTVSPropertyOp46
 70
     1
102
RTVSPropertyOp47
 70
     1
102
RTVSPropertyOp48
 70
     1
102
RTVSPropertyOp49
 70
     1
102
RTVSPropertyOp50
 70
     1
102
RTVSPropertyOp51
 70
     0
102
RTVSPropertyOp52
 70
     0
102
RTVSPropertyOp53
 70
     1
102
RTVSPropertyOp54
 70
     1
102
RTVSPropertyOp55
 70
     1
102
RTVSPropertyOp56
 70
     1
102
RTVSPropertyOp57
 70
     1
102
RTVSPropertyOp58
 70
     1
102
RTVSPropertyOp59
 70
     1
102
RTVSPropertyOp60
 70
     1
102
RTVSPropertyOp61
 70
     1
102
RTVSPropertyOp62
 70
     1
  0
XRECORD
  5
135D
102
{ACAD_REACTORS
330
135C
102
}
330
135C
100
AcDbXrecord
280
     1
102
RTVSPost2010Prop28
280
     0
102
RTVSPost2010PropOp28
 70
     1
102
RTVSPost2010Prop29
280
     1
102
RTVSPost2010PropOp29
 70
     1
102
RTVSPost2010Prop30
280
     1
102
RTVSPost2010PropOp30
 70
     1
102
RTVSPost2010Prop31
280
     0
102
RTVSPost2010PropOp31
 70
     1
102
RTVSPost2010Prop32
280
     0
102
RTVSPost2010PropOp32
 70
     1
102
RTVSPost2010Prop33
280
     0
102
RTVSPost2010PropOp33
 70
     1
102
RTVSPost2010Prop34
280
     0
102
RTVSPost2010PropOp34
 70
     1
102
RTVSPost2010Prop35
280
     0
102
RTVSPost2010PropOp35
 70
     1
102
RTVSPost2010Prop36
280
     0
102
RTVSPost2010PropOp36
 70
     1
102
RTVSPost2010Prop37
 90
       50
102
RTVSPost2010PropOp37
 70
     1
102
RTVSPost2010Prop38
140
0.0
102
RTVSPost2010PropOp38
 70
     1
102
RTVSPost2010Prop39
140
1.0
102
RTVSPost2010PropOp39
 70
     1
102
RTVSPost2010Prop40
 90
        0
102
RTVSPost2010PropOp40
 70
     1
102
RTVSPost2010Prop41ColorIndex
 90
       18
102
RTVSPost2010Prop41ColorRGB
 90
        0
102
RTVSPost2010PropOp41
 70
     1
102
RTVSPost2010Prop42
 90
       50
102
RTVSPost2010PropOp42
 70
     1
102
RTVSPost2010Prop43
 90
        3
102
RTVSPost2010PropOp43
 70
     1
102
RTVSPost2010Prop44ColorIndex
 90
        5
102
RTVSPost2010Prop44ColorRGB
 90
      255
102
RTVSPost2010PropOp44
 70
     1
102
RTVSPost2010Prop45
280
     0
102
RTVSPost2010PropOp45
 70
     1
102
RTVSPost2010Prop46
 90
       50
102
RTVSPost2010PropOp46
 70
     1
102
RTVSPost2010Prop47
 90
       50
102
RTVSPost2010PropOp47
 70
     1
102
RTVSPost2010Prop48
 90
       50
102
RTVSPost2010PropOp48
 70
     1
102
RTVSPost2010Prop49
280
     0
102
RTVSPost2010PropOp49
 70
     1
102
RTVSPost2010Prop50
 90
       50
102
RTVSPost2010PropOp50
 70
     1
102
RTVSPost2010Prop51ColorIndex
 90
      256
102
RTVSPost2010Prop51ColorRGB
 90
-16777216
102
RTVSPost2010PropOp51
 70
     0
102
RTVSPost2010Prop52
140
1.0
102
RTVSPost2010PropOp52
 70
     0
102
RTVSPost2010Prop53
 90
        2
102
RTVSPost2010PropOp53
 70
     1
102
RTVSPost2010Prop54
  1
strokes_ogs.tif
102
RTVSPost2010PropOp54
 70
     1
102
RTVSPost2010Prop55
280
     0
102
RTVSPost2010PropOp55
 70
     1
102
RTVSPost2010Prop56
140
1.0
102
RTVSPost2010PropOp56
 70
     1
102
RTVSPost2010Prop57
140
1.0
102
RTVSPost2010PropOp57
 70
     1
102
RTVSPropertyOp0
 70
     1
102
RTVSPropertyOp1
 70
     1
102
RTVSPropertyOp2
 70
     1
102
RTVSPropertyOp3
 70
     1
102
RTVSPropertyOp4
 70
     1
102
RTVSPropertyOp5
 70
     1
102
RTVSPropertyOp6
 70
     1
102
RTVSPropertyOp7
 70
     1
102
RTVSPropertyOp8
 70
     1
102
RTVSPropertyOp9
 70
     1
102
RTVSPropertyOp10
 70
     1
102
RTVSPropertyOp11
 70
     1
102
RTVSPropertyOp12
 70
     1
102
RTVSPropertyOp13
 70
     1
102
RTVSPropertyOp14
 70
     1
102
RTVSPropertyOp15
 70
     1
102
RTVSPropertyOp16
 70
     1
102
RTVSPropertyOp17
 70
     1
102
RTVSPropertyOp18
 70
     1
102
RTVSPropertyOp19
 70
     1
102
RTVSPropertyOp20
 70
     1
102
RTVSPropertyOp21
 70
     1
102
RTVSPropertyOp22
 70
     1
102
RTVSPropertyOp23
 70
     1
102
RTVSPropertyOp24
 70
     1
102
RTVSPropertyOp25
 70
     1
102
RTVSPropertyOp26
 70
     1
102
RTVSPropertyOp27
 70
     1
102
RTVSPropertyOp28
 70
     1
102
RTVSPropertyOp29
 70
     1
102
RTVSPropertyOp30
 70
     1
102
RTVSPropertyOp31
 70
     1
102
RTVSPropertyOp32
 70
     1
102
RTVSPropertyOp33
 70
     1
102
RTVSPropertyOp34
 70
     1
102
RTVSPropertyOp35
 70
     1
102
RTVSPropertyOp36
 70
     1
102
RTVSPropertyOp37
 70
     1
102
RTVSPropertyOp38
 70
     1
102
RTVSPropertyOp39
 70
     1
102
RTVSPropertyOp40
 70
     1
102
RTVSPropertyOp41
 70
     1
102
RTVSPropertyOp42
 70
     1
102
RTVSPropertyOp43
 70
     1
102
RTVSPropertyOp44
 70
     1
102
RTVSPropertyOp45
 70
     1
102
RTVSPropertyOp46
 70
     1
102
RTVSPropertyOp47
 70
     1
102
RTVSPropertyOp48
 70
     1
102
RTVSPropertyOp49
 70
     1
102
RTVSPropertyOp50
 70
     1
102
RTVSPropertyOp51
 70
     0
102
RTVSPropertyOp52
 70
     0
102
RTVSPropertyOp53
 70
     1
102
RTVSPropertyOp54
 70
     1
102
RTVSPropertyOp55
 70
     1
102
RTVSPropertyOp56
 70
     1
102
RTVSPropertyOp57
 70
     1
102
RTVSPropertyOp58
 70
     1
102
RTVSPropertyOp59
 70
     1
102
RTVSPropertyOp60
 70
     1
102
RTVSPropertyOp61
 70
     1
102
RTVSPropertyOp62
 70
     1
  0
XRECORD
  5
1357
102
{ACAD_REACTORS
330
1356
102
}
330
1356
100
AcDbXrecord
280
     1
102
RTVSPost2010Prop28
280
     0
102
RTVSPost2010PropOp28
 70
     1
102
RTVSPost2010Prop29
280
     1
102
RTVSPost2010PropOp29
 70
     1
102
RTVSPost2010Prop30
280
     1
102
RTVSPost2010PropOp30
 70
     1
102
RTVSPost2010Prop31
280
     0
102
RTVSPost2010PropOp31
 70
     1
102
RTVSPost2010Prop32
280
     0
102
RTVSPost2010PropOp32
 70
     1
102
RTVSPost2010Prop33
280
     0
102
RTVSPost2010PropOp33
 70
     1
102
RTVSPost2010Prop34
280
     0
102
RTVSPost2010PropOp34
 70
     1
102
RTVSPost2010Prop35
280
     0
102
RTVSPost2010PropOp35
 70
     1
102
RTVSPost2010Prop36
280
     0
102
RTVSPost2010PropOp36
 70
     1
102
RTVSPost2010Prop37
 90
       50
102
RTVSPost2010PropOp37
 70
     1
102
RTVSPost2010Prop38
140
0.0
102
RTVSPost2010PropOp38
 70
     1
102
RTVSPost2010Prop39
140
1.0
102
RTVSPost2010PropOp39
 70
     1
102
RTVSPost2010Prop40
 90
        0
102
RTVSPost2010PropOp40
 70
     1
102
RTVSPost2010Prop41ColorIndex
 90
       18
102
RTVSPost2010Prop41ColorRGB
 90
        0
102
RTVSPost2010PropOp41
 70
     1
102
RTVSPost2010Prop42
 90
       50
102
RTVSPost2010PropOp42
 70
     1
102
RTVSPost2010Prop43
 90
        3
102
RTVSPost2010PropOp43
 70
     1
102
RTVSPost2010Prop44ColorIndex
 90
        5
102
RTVSPost2010Prop44ColorRGB
 90
      255
102
RTVSPost2010PropOp44
 70
     1
102
RTVSPost2010Prop45
280
     0
102
RTVSPost2010PropOp45
 70
     1
102
RTVSPost2010Prop46
 90
       50
102
RTVSPost2010PropOp46
 70
     1
102
RTVSPost2010Prop47
 90
       50
102
RTVSPost2010PropOp47
 70
     1
102
RTVSPost2010Prop48
 90
       50
102
RTVSPost2010PropOp48
 70
     1
102
RTVSPost2010Prop49
280
     0
102
RTVSPost2010PropOp49
 70
     1
102
RTVSPost2010Prop50
 90
       50
102
RTVSPost2010PropOp50
 70
     1
102
RTVSPost2010Prop51ColorIndex
 90
      256
102
RTVSPost2010Prop51ColorRGB
 90
-16777216
102
RTVSPost2010PropOp51
 70
     0
102
RTVSPost2010Prop52
140
1.0
102
RTVSPost2010PropOp52
 70
     0
102
RTVSPost2010Prop53
 90
        2
102
RTVSPost2010PropOp53
 70
     1
102
RTVSPost2010Prop54
  1
strokes_ogs.tif
102
RTVSPost2010PropOp54
 70
     1
102
RTVSPost2010Prop55
280
     0
102
RTVSPost2010PropOp55
 70
     1
102
RTVSPost2010Prop56
140
1.0
102
RTVSPost2010PropOp56
 70
     1
102
RTVSPost2010Prop57
140
1.0
102
RTVSPost2010PropOp57
 70
     1
102
RTVSPropertyOp0
 70
     1
102
RTVSPropertyOp1
 70
     1
102
RTVSPropertyOp2
 70
     1
102
RTVSPropertyOp3
 70
     1
102
RTVSPropertyOp4
 70
     1
102
RTVSPropertyOp5
 70
     1
102
RTVSPropertyOp6
 70
     1
102
RTVSPropertyOp7
 70
     1
102
RTVSPropertyOp8
 70
     1
102
RTVSPropertyOp9
 70
     1
102
RTVSPropertyOp10
 70
     1
102
RTVSPropertyOp11
 70
     1
102
RTVSPropertyOp12
 70
     1
102
RTVSPropertyOp13
 70
     1
102
RTVSPropertyOp14
 70
     1
102
RTVSPropertyOp15
 70
     1
102
RTVSPropertyOp16
 70
     1
102
RTVSPropertyOp17
 70
     1
102
RTVSPropertyOp18
 70
     1
102
RTVSPropertyOp19
 70
     1
102
RTVSPropertyOp20
 70
     1
102
RTVSPropertyOp21
 70
     1
102
RTVSPropertyOp22
 70
     1
102
RTVSPropertyOp23
 70
     1
102
RTVSPropertyOp24
 70
     1
102
RTVSPropertyOp25
 70
     1
102
RTVSPropertyOp26
 70
     1
102
RTVSPropertyOp27
 70
     1
102
RTVSPropertyOp28
 70
     1
102
RTVSPropertyOp29
 70
     1
102
RTVSPropertyOp30
 70
     1
102
RTVSPropertyOp31
 70
     1
102
RTVSPropertyOp32
 70
     1
102
RTVSPropertyOp33
 70
     1
102
RTVSPropertyOp34
 70
     1
102
RTVSPropertyOp35
 70
     1
102
RTVSPropertyOp36
 70
     1
102
RTVSPropertyOp37
 70
     1
102
RTVSPropertyOp38
 70
     1
102
RTVSPropertyOp39
 70
     1
102
RTVSPropertyOp40
 70
     1
102
RTVSPropertyOp41
 70
     1
102
RTVSPropertyOp42
 70
     1
102
RTVSPropertyOp43
 70
     1
102
RTVSPropertyOp44
 70
     1
102
RTVSPropertyOp45
 70
     1
102
RTVSPropertyOp46
 70
     1
102
RTVSPropertyOp47
 70
     1
102
RTVSPropertyOp48
 70
     1
102
RTVSPropertyOp49
 70
     1
102
RTVSPropertyOp50
 70
     1
102
RTVSPropertyOp51
 70
     0
102
RTVSPropertyOp52
 70
     0
102
RTVSPropertyOp53
 70
     1
102
RTVSPropertyOp54
 70
     1
102
RTVSPropertyOp55
 70
     1
102
RTVSPropertyOp56
 70
     1
102
RTVSPropertyOp57
 70
     1
102
RTVSPropertyOp58
 70
     1
102
RTVSPropertyOp59
 70
     1
102
RTVSPropertyOp60
 70
     1
102
RTVSPropertyOp61
 70
     1
102
RTVSPropertyOp62
 70
     1
  0
XRECORD
  5
1359
102
{ACAD_REACTORS
330
1358
102
}
330
1358
100
AcDbXrecord
280
     1
102
RTVSPost2010Prop28
280
     0
102
RTVSPost2010PropOp28
 70
     1
102
RTVSPost2010Prop29
280
     1
102
RTVSPost2010PropOp29
 70
     1
102
RTVSPost2010Prop30
280
     1
102
RTVSPost2010PropOp30
 70
     1
102
RTVSPost2010Prop31
280
     0
102
RTVSPost2010PropOp31
 70
     1
102
RTVSPost2010Prop32
280
     0
102
RTVSPost2010PropOp32
 70
     1
102
RTVSPost2010Prop33
280
     0
102
RTVSPost2010PropOp33
 70
     1
102
RTVSPost2010Prop34
280
     0
102
RTVSPost2010PropOp34
 70
     1
102
RTVSPost2010Prop35
280
     0
102
RTVSPost2010PropOp35
 70
     1
102
RTVSPost2010Prop36
280
     0
102
RTVSPost2010PropOp36
 70
     1
102
RTVSPost2010Prop37
 90
       50
102
RTVSPost2010PropOp37
 70
     1
102
RTVSPost2010Prop38
140
0.0
102
RTVSPost2010PropOp38
 70
     1
102
RTVSPost2010Prop39
140
1.0
102
RTVSPost2010PropOp39
 70
     1
102
RTVSPost2010Prop40
 90
        0
102
RTVSPost2010PropOp40
 70
     1
102
RTVSPost2010Prop41ColorIndex
 90
       18
102
RTVSPost2010Prop41ColorRGB
 90
        0
102
RTVSPost2010PropOp41
 70
     1
102
RTVSPost2010Prop42
 90
       50
102
RTVSPost2010PropOp42
 70
     1
102
RTVSPost2010Prop43
 90
        3
102
RTVSPost2010PropOp43
 70
     1
102
RTVSPost2010Prop44ColorIndex
 90
        5
102
RTVSPost2010Prop44ColorRGB
 90
      255
102
RTVSPost2010PropOp44
 70
     1
102
RTVSPost2010Prop45
280
     0
102
RTVSPost2010PropOp45
 70
     1
102
RTVSPost2010Prop46
 90
       50
102
RTVSPost2010PropOp46
 70
     1
102
RTVSPost2010Prop47
 90
       50
102
RTVSPost2010PropOp47
 70
     1
102
RTVSPost2010Prop48
 90
       50
102
RTVSPost2010PropOp48
 70
     1
102
RTVSPost2010Prop49
280
     0
102
RTVSPost2010PropOp49
 70
     1
102
RTVSPost2010Prop50
 90
       50
102
RTVSPost2010PropOp50
 70
     1
102
RTVSPost2010Prop51ColorIndex
 90
      256
102
RTVSPost2010Prop51ColorRGB
 90
-16777216
102
RTVSPost2010PropOp51
 70
     0
102
RTVSPost2010Prop52
140
1.0
102
RTVSPost2010PropOp52
 70
     0
102
RTVSPost2010Prop53
 90
        2
102
RTVSPost2010PropOp53
 70
     1
102
RTVSPost2010Prop54
  1
strokes_ogs.tif
102
RTVSPost2010PropOp54
 70
     1
102
RTVSPost2010Prop55
280
     0
102
RTVSPost2010PropOp55
 70
     1
102
RTVSPost2010Prop56
140
1.0
102
RTVSPost2010PropOp56
 70
     1
102
RTVSPost2010Prop57
140
1.0
102
RTVSPost2010PropOp57
 70
     1
102
RTVSPropertyOp0
 70
     1
102
RTVSPropertyOp1
 70
     1
102
RTVSPropertyOp2
 70
     1
102
RTVSPropertyOp3
 70
     1
102
RTVSPropertyOp4
 70
     1
102
RTVSPropertyOp5
 70
     1
102
RTVSPropertyOp6
 70
     1
102
RTVSPropertyOp7
 70
     1
102
RTVSPropertyOp8
 70
     1
102
RTVSPropertyOp9
 70
     1
102
RTVSPropertyOp10
 70
     1
102
RTVSPropertyOp11
 70
     1
102
RTVSPropertyOp12
 70
     1
102
RTVSPropertyOp13
 70
     1
102
RTVSPropertyOp14
 70
     1
102
RTVSPropertyOp15
 70
     1
102
RTVSPropertyOp16
 70
     1
102
RTVSPropertyOp17
 70
     1
102
RTVSPropertyOp18
 70
     1
102
RTVSPropertyOp19
 70
     1
102
RTVSPropertyOp20
 70
     1
102
RTVSPropertyOp21
 70
     1
102
RTVSPropertyOp22
 70
     1
102
RTVSPropertyOp23
 70
     1
102
RTVSPropertyOp24
 70
     1
102
RTVSPropertyOp25
 70
     1
102
RTVSPropertyOp26
 70
     1
102
RTVSPropertyOp27
 70
     1
102
RTVSPropertyOp28
 70
     1
102
RTVSPropertyOp29
 70
     1
102
RTVSPropertyOp30
 70
     1
102
RTVSPropertyOp31
 70
     1
102
RTVSPropertyOp32
 70
     1
102
RTVSPropertyOp33
 70
     1
102
RTVSPropertyOp34
 70
     1
102
RTVSPropertyOp35
 70
     1
102
RTVSPropertyOp36
 70
     1
102
RTVSPropertyOp37
 70
     1
102
RTVSPropertyOp38
 70
     1
102
RTVSPropertyOp39
 70
     1
102
RTVSPropertyOp40
 70
     1
102
RTVSPropertyOp41
 70
     1
102
RTVSPropertyOp42
 70
     1
102
RTVSPropertyOp43
 70
     1
102
RTVSPropertyOp44
 70
     1
102
RTVSPropertyOp45
 70
     1
102
RTVSPropertyOp46
 70
     1
102
RTVSPropertyOp47
 70
     1
102
RTVSPropertyOp48
 70
     1
102
RTVSPropertyOp49
 70
     1
102
RTVSPropertyOp50
 70
     1
102
RTVSPropertyOp51
 70
     0
102
RTVSPropertyOp52
 70
     0
102
RTVSPropertyOp53
 70
     1
102
RTVSPropertyOp54
 70
     1
102
RTVSPropertyOp55
 70
     1
102
RTVSPropertyOp56
 70
     1
102
RTVSPropertyOp57
 70
     1
102
RTVSPropertyOp58
 70
     1
102
RTVSPropertyOp59
 70
     1
102
RTVSPropertyOp60
 70
     1
102
RTVSPropertyOp61
 70
     1
102
RTVSPropertyOp62
 70
     1
  0
XRECORD
  5
134F
102
{ACAD_REACTORS
330
134E
102
}
330
134E
100
AcDbXrecord
280
     1
102
RTVSPost2010Prop28
280
     0
102
RTVSPost2010PropOp28
 70
     1
102
RTVSPost2010Prop29
280
     1
102
RTVSPost2010PropOp29
 70
     1
102
RTVSPost2010Prop30
280
     1
102
RTVSPost2010PropOp30
 70
     1
102
RTVSPost2010Prop31
280
     0
102
RTVSPost2010PropOp31
 70
     1
102
RTVSPost2010Prop32
280
     0
102
RTVSPost2010PropOp32
 70
     1
102
RTVSPost2010Prop33
280
     0
102
RTVSPost2010PropOp33
 70
     1
102
RTVSPost2010Prop34
280
     0
102
RTVSPost2010PropOp34
 70
     1
102
RTVSPost2010Prop35
280
     0
102
RTVSPost2010PropOp35
 70
     1
102
RTVSPost2010Prop36
280
     0
102
RTVSPost2010PropOp36
 70
     1
102
RTVSPost2010Prop37
 90
       50
102
RTVSPost2010PropOp37
 70
     1
102
RTVSPost2010Prop38
140
0.0
102
RTVSPost2010PropOp38
 70
     1
102
RTVSPost2010Prop39
140
1.0
102
RTVSPost2010PropOp39
 70
     1
102
RTVSPost2010Prop40
 90
        0
102
RTVSPost2010PropOp40
 70
     1
102
RTVSPost2010Prop41ColorIndex
 90
       18
102
RTVSPost2010Prop41ColorRGB
 90
        0
102
RTVSPost2010PropOp41
 70
     1
102
RTVSPost2010Prop42
 90
       50
102
RTVSPost2010PropOp42
 70
     1
102
RTVSPost2010Prop43
 90
        3
102
RTVSPost2010PropOp43
 70
     1
102
RTVSPost2010Prop44ColorIndex
 90
        5
102
RTVSPost2010Prop44ColorRGB
 90
      255
102
RTVSPost2010PropOp44
 70
     1
102
RTVSPost2010Prop45
280
     0
102
RTVSPost2010PropOp45
 70
     1
102
RTVSPost2010Prop46
 90
       50
102
RTVSPost2010PropOp46
 70
     1
102
RTVSPost2010Prop47
 90
       50
102
RTVSPost2010PropOp47
 70
     1
102
RTVSPost2010Prop48
 90
       50
102
RTVSPost2010PropOp48
 70
     1
102
RTVSPost2010Prop49
280
     0
102
RTVSPost2010PropOp49
 70
     1
102
RTVSPost2010Prop50
 90
       50
102
RTVSPost2010PropOp50
 70
     1
102
RTVSPost2010Prop51ColorIndex
 90
      256
102
RTVSPost2010Prop51ColorRGB
 90
-16777216
102
RTVSPost2010PropOp51
 70
     0
102
RTVSPost2010Prop52
140
1.0
102
RTVSPost2010PropOp52
 70
     0
102
RTVSPost2010Prop53
 90
        2
102
RTVSPost2010PropOp53
 70
     1
102
RTVSPost2010Prop54
  1
strokes_ogs.tif
102
RTVSPost2010PropOp54
 70
     1
102
RTVSPost2010Prop55
280
     0
102
RTVSPost2010PropOp55
 70
     1
102
RTVSPost2010Prop56
140
1.0
102
RTVSPost2010PropOp56
 70
     1
102
RTVSPost2010Prop57
140
1.0
102
RTVSPost2010PropOp57
 70
     1
102
RTVSPropertyOp0
 70
     1
102
RTVSPropertyOp1
 70
     1
102
RTVSPropertyOp2
 70
     1
102
RTVSPropertyOp3
 70
     1
102
RTVSPropertyOp4
 70
     1
102
RTVSPropertyOp5
 70
     1
102
RTVSPropertyOp6
 70
     1
102
RTVSPropertyOp7
 70
     1
102
RTVSPropertyOp8
 70
     1
102
RTVSPropertyOp9
 70
     1
102
RTVSPropertyOp10
 70
     1
102
RTVSPropertyOp11
 70
     1
102
RTVSPropertyOp12
 70
     1
102
RTVSPropertyOp13
 70
     1
102
RTVSPropertyOp14
 70
     1
102
RTVSPropertyOp15
 70
     1
102
RTVSPropertyOp16
 70
     1
102
RTVSPropertyOp17
 70
     1
102
RTVSPropertyOp18
 70
     1
102
RTVSPropertyOp19
 70
     1
102
RTVSPropertyOp20
 70
     1
102
RTVSPropertyOp21
 70
     1
102
RTVSPropertyOp22
 70
     1
102
RTVSPropertyOp23
 70
     1
102
RTVSPropertyOp24
 70
     1
102
RTVSPropertyOp25
 70
     1
102
RTVSPropertyOp26
 70
     1
102
RTVSPropertyOp27
 70
     1
102
RTVSPropertyOp28
 70
     1
102
RTVSPropertyOp29
 70
     1
102
RTVSPropertyOp30
 70
     1
102
RTVSPropertyOp31
 70
     1
102
RTVSPropertyOp32
 70
     1
102
RTVSPropertyOp33
 70
     1
102
RTVSPropertyOp34
 70
     1
102
RTVSPropertyOp35
 70
     1
102
RTVSPropertyOp36
 70
     1
102
RTVSPropertyOp37
 70
     1
102
RTVSPropertyOp38
 70
     1
102
RTVSPropertyOp39
 70
     1
102
RTVSPropertyOp40
 70
     1
102
RTVSPropertyOp41
 70
     1
102
RTVSPropertyOp42
 70
     1
102
RTVSPropertyOp43
 70
     1
102
RTVSPropertyOp44
 70
     1
102
RTVSPropertyOp45
 70
     1
102
RTVSPropertyOp46
 70
     1
102
RTVSPropertyOp47
 70
     1
102
RTVSPropertyOp48
 70
     1
102
RTVSPropertyOp49
 70
     1
102
RTVSPropertyOp50
 70
     1
102
RTVSPropertyOp51
 70
     0
102
RTVSPropertyOp52
 70
     0
102
RTVSPropertyOp53
 70
     1
102
RTVSPropertyOp54
 70
     1
102
RTVSPropertyOp55
 70
     1
102
RTVSPropertyOp56
 70
     1
102
RTVSPropertyOp57
 70
     1
102
RTVSPropertyOp58
 70
     1
102
RTVSPropertyOp59
 70
     1
102
RTVSPropertyOp60
 70
     1
102
RTVSPropertyOp61
 70
     1
102
RTVSPropertyOp62
 70
     1
  0
XRECORD
  5
1343
102
{ACAD_REACTORS
330
1342
102
}
330
1342
100
AcDbXrecord
280
     1
102
RTVSPost2010Prop28
280
     0
102
RTVSPost2010PropOp28
 70
     1
102
RTVSPost2010Prop29
280
     1
102
RTVSPost2010PropOp29
 70
     1
102
RTVSPost2010Prop30
280
     1
102
RTVSPost2010PropOp30
 70
     1
102
RTVSPost2010Prop31
280
     0
102
RTVSPost2010PropOp31
 70
     1
102
RTVSPost2010Prop32
280
     0
102
RTVSPost2010PropOp32
 70
     1
102
RTVSPost2010Prop33
280
     0
102
RTVSPost2010PropOp33
 70
     1
102
RTVSPost2010Prop34
280
     0
102
RTVSPost2010PropOp34
 70
     1
102
RTVSPost2010Prop35
280
     0
102
RTVSPost2010PropOp35
 70
     1
102
RTVSPost2010Prop36
280
     0
102
RTVSPost2010PropOp36
 70
     1
102
RTVSPost2010Prop37
 90
       50
102
RTVSPost2010PropOp37
 70
     1
102
RTVSPost2010Prop38
140
0.0
102
RTVSPost2010PropOp38
 70
     1
102
RTVSPost2010Prop39
140
1.0
102
RTVSPost2010PropOp39
 70
     1
102
RTVSPost2010Prop40
 90
        0
102
RTVSPost2010PropOp40
 70
     1
102
RTVSPost2010Prop41ColorIndex
 90
       18
102
RTVSPost2010Prop41ColorRGB
 90
        0
102
RTVSPost2010PropOp41
 70
     1
102
RTVSPost2010Prop42
 90
       50
102
RTVSPost2010PropOp42
 70
     1
102
RTVSPost2010Prop43
 90
        3
102
RTVSPost2010PropOp43
 70
     1
102
RTVSPost2010Prop44ColorIndex
 90
        5
102
RTVSPost2010Prop44ColorRGB
 90
      255
102
RTVSPost2010PropOp44
 70
     1
102
RTVSPost2010Prop45
280
     0
102
RTVSPost2010PropOp45
 70
     1
102
RTVSPost2010Prop46
 90
       50
102
RTVSPost2010PropOp46
 70
     1
102
RTVSPost2010Prop47
 90
       50
102
RTVSPost2010PropOp47
 70
     1
102
RTVSPost2010Prop48
 90
       50
102
RTVSPost2010PropOp48
 70
     1
102
RTVSPost2010Prop49
280
     0
102
RTVSPost2010PropOp49
 70
     1
102
RTVSPost2010Prop50
 90
       50
102
RTVSPost2010PropOp50
 70
     1
102
RTVSPost2010Prop51ColorIndex
 90
      256
102
RTVSPost2010Prop51ColorRGB
 90
-16777216
102
RTVSPost2010PropOp51
 70
     0
102
RTVSPost2010Prop52
140
1.0
102
RTVSPost2010PropOp52
 70
     0
102
RTVSPost2010Prop53
 90
        2
102
RTVSPost2010PropOp53
 70
     1
102
RTVSPost2010Prop54
  1
strokes_ogs.tif
102
RTVSPost2010PropOp54
 70
     1
102
RTVSPost2010Prop55
280
     0
102
RTVSPost2010PropOp55
 70
     1
102
RTVSPost2010Prop56
140
1.0
102
RTVSPost2010PropOp56
 70
     1
102
RTVSPost2010Prop57
140
1.0
102
RTVSPost2010PropOp57
 70
     1
102
RTVSPropertyOp0
 70
     1
102
RTVSPropertyOp1
 70
     1
102
RTVSPropertyOp2
 70
     1
102
RTVSPropertyOp3
 70
     1
102
RTVSPropertyOp4
 70
     1
102
RTVSPropertyOp5
 70
     1
102
RTVSPropertyOp6
 70
     1
102
RTVSPropertyOp7
 70
     1
102
RTVSPropertyOp8
 70
     1
102
RTVSPropertyOp9
 70
     1
102
RTVSPropertyOp10
 70
     1
102
RTVSPropertyOp11
 70
     1
102
RTVSPropertyOp12
 70
     1
102
RTVSPropertyOp13
 70
     1
102
RTVSPropertyOp14
 70
     1
102
RTVSPropertyOp15
 70
     1
102
RTVSPropertyOp16
 70
     1
102
RTVSPropertyOp17
 70
     1
102
RTVSPropertyOp18
 70
     1
102
RTVSPropertyOp19
 70
     1
102
RTVSPropertyOp20
 70
     1
102
RTVSPropertyOp21
 70
     1
102
RTVSPropertyOp22
 70
     1
102
RTVSPropertyOp23
 70
     1
102
RTVSPropertyOp24
 70
     1
102
RTVSPropertyOp25
 70
     1
102
RTVSPropertyOp26
 70
     1
102
RTVSPropertyOp27
 70
     1
102
RTVSPropertyOp28
 70
     1
102
RTVSPropertyOp29
 70
     1
102
RTVSPropertyOp30
 70
     1
102
RTVSPropertyOp31
 70
     1
102
RTVSPropertyOp32
 70
     1
102
RTVSPropertyOp33
 70
     1
102
RTVSPropertyOp34
 70
     1
102
RTVSPropertyOp35
 70
     1
102
RTVSPropertyOp36
 70
     1
102
RTVSPropertyOp37
 70
     1
102
RTVSPropertyOp38
 70
     1
102
RTVSPropertyOp39
 70
     1
102
RTVSPropertyOp40
 70
     1
102
RTVSPropertyOp41
 70
     1
102
RTVSPropertyOp42
 70
     1
102
RTVSPropertyOp43
 70
     1
102
RTVSPropertyOp44
 70
     1
102
RTVSPropertyOp45
 70
     1
102
RTVSPropertyOp46
 70
     1
102
RTVSPropertyOp47
 70
     1
102
RTVSPropertyOp48
 70
     1
102
RTVSPropertyOp49
 70
     1
102
RTVSPropertyOp50
 70
     1
102
RTVSPropertyOp51
 70
     0
102
RTVSPropertyOp52
 70
     0
102
RTVSPropertyOp53
 70
     1
102
RTVSPropertyOp54
 70
     1
102
RTVSPropertyOp55
 70
     1
102
RTVSPropertyOp56
 70
     1
102
RTVSPropertyOp57
 70
     1
102
RTVSPropertyOp58
 70
     1
102
RTVSPropertyOp59
 70
     1
102
RTVSPropertyOp60
 70
     1
102
RTVSPropertyOp61
 70
     1
102
RTVSPropertyOp62
 70
     1
  0
XRECORD
  5
135B
102
{ACAD_REACTORS
330
135A
102
}
330
135A
100
AcDbXrecord
280
     1
102
RTVSPost2010Prop28
280
     0
102
RTVSPost2010PropOp28
 70
     1
102
RTVSPost2010Prop29
280
     1
102
RTVSPost2010PropOp29
 70
     1
102
RTVSPost2010Prop30
280
     1
102
RTVSPost2010PropOp30
 70
     1
102
RTVSPost2010Prop31
280
     0
102
RTVSPost2010PropOp31
 70
     1
102
RTVSPost2010Prop32
280
     0
102
RTVSPost2010PropOp32
 70
     1
102
RTVSPost2010Prop33
280
     0
102
RTVSPost2010PropOp33
 70
     1
102
RTVSPost2010Prop34
280
     0
102
RTVSPost2010PropOp34
 70
     1
102
RTVSPost2010Prop35
280
     0
102
RTVSPost2010PropOp35
 70
     1
102
RTVSPost2010Prop36
280
     0
102
RTVSPost2010PropOp36
 70
     1
102
RTVSPost2010Prop37
 90
       50
102
RTVSPost2010PropOp37
 70
     1
102
RTVSPost2010Prop38
140
0.0
102
RTVSPost2010PropOp38
 70
     1
102
RTVSPost2010Prop39
140
1.0
102
RTVSPost2010PropOp39
 70
     1
102
RTVSPost2010Prop40
 90
        0
102
RTVSPost2010PropOp40
 70
     1
102
RTVSPost2010Prop41ColorIndex
 90
       18
102
RTVSPost2010Prop41ColorRGB
 90
        0
102
RTVSPost2010PropOp41
 70
     1
102
RTVSPost2010Prop42
 90
       50
102
RTVSPost2010PropOp42
 70
     1
102
RTVSPost2010Prop43
 90
        3
102
RTVSPost2010PropOp43
 70
     1
102
RTVSPost2010Prop44ColorIndex
 90
        5
102
RTVSPost2010Prop44ColorRGB
 90
      255
102
RTVSPost2010PropOp44
 70
     1
102
RTVSPost2010Prop45
280
     0
102
RTVSPost2010PropOp45
 70
     1
102
RTVSPost2010Prop46
 90
       50
102
RTVSPost2010PropOp46
 70
     1
102
RTVSPost2010Prop47
 90
       50
102
RTVSPost2010PropOp47
 70
     1
102
RTVSPost2010Prop48
 90
       50
102
RTVSPost2010PropOp48
 70
     1
102
RTVSPost2010Prop49
280
     0
102
RTVSPost2010PropOp49
 70
     1
102
RTVSPost2010Prop50
 90
       50
102
RTVSPost2010PropOp50
 70
     1
102
RTVSPost2010Prop51ColorIndex
 90
      256
102
RTVSPost2010Prop51ColorRGB
 90
-16777216
102
RTVSPost2010PropOp51
 70
     0
102
RTVSPost2010Prop52
140
1.0
102
RTVSPost2010PropOp52
 70
     0
102
RTVSPost2010Prop53
 90
        2
102
RTVSPost2010PropOp53
 70
     1
102
RTVSPost2010Prop54
  1
strokes_ogs.tif
102
RTVSPost2010PropOp54
 70
     1
102
RTVSPost2010Prop55
280
     0
102
RTVSPost2010PropOp55
 70
     1
102
RTVSPost2010Prop56
140
1.0
102
RTVSPost2010PropOp56
 70
     1
102
RTVSPost2010Prop57
140
1.0
102
RTVSPost2010PropOp57
 70
     1
102
RTVSPropertyOp0
 70
     1
102
RTVSPropertyOp1
 70
     1
102
RTVSPropertyOp2
 70
     1
102
RTVSPropertyOp3
 70
     1
102
RTVSPropertyOp4
 70
     1
102
RTVSPropertyOp5
 70
     1
102
RTVSPropertyOp6
 70
     1
102
RTVSPropertyOp7
 70
     1
102
RTVSPropertyOp8
 70
     1
102
RTVSPropertyOp9
 70
     1
102
RTVSPropertyOp10
 70
     1
102
RTVSPropertyOp11
 70
     1
102
RTVSPropertyOp12
 70
     1
102
RTVSPropertyOp13
 70
     1
102
RTVSPropertyOp14
 70
     1
102
RTVSPropertyOp15
 70
     1
102
RTVSPropertyOp16
 70
     1
102
RTVSPropertyOp17
 70
     1
102
RTVSPropertyOp18
 70
     1
102
RTVSPropertyOp19
 70
     1
102
RTVSPropertyOp20
 70
     1
102
RTVSPropertyOp21
 70
     1
102
RTVSPropertyOp22
 70
     1
102
RTVSPropertyOp23
 70
     1
102
RTVSPropertyOp24
 70
     1
102
RTVSPropertyOp25
 70
     1
102
RTVSPropertyOp26
 70
     1
102
RTVSPropertyOp27
 70
     1
102
RTVSPropertyOp28
 70
     1
102
RTVSPropertyOp29
 70
     1
102
RTVSPropertyOp30
 70
     1
102
RTVSPropertyOp31
 70
     1
102
RTVSPropertyOp32
 70
     1
102
RTVSPropertyOp33
 70
     1
102
RTVSPropertyOp34
 70
     1
102
RTVSPropertyOp35
 70
     1
102
RTVSPropertyOp36
 70
     1
102
RTVSPropertyOp37
 70
     1
102
RTVSPropertyOp38
 70
     1
102
RTVSPropertyOp39
 70
     1
102
RTVSPropertyOp40
 70
     1
102
RTVSPropertyOp41
 70
     1
102
RTVSPropertyOp42
 70
     1
102
RTVSPropertyOp43
 70
     1
102
RTVSPropertyOp44
 70
     1
102
RTVSPropertyOp45
 70
     1
102
RTVSPropertyOp46
 70
     1
102
RTVSPropertyOp47
 70
     1
102
RTVSPropertyOp48
 70
     1
102
RTVSPropertyOp49
 70
     1
102
RTVSPropertyOp50
 70
     1
102
RTVSPropertyOp51
 70
     0
102
RTVSPropertyOp52
 70
     0
102
RTVSPropertyOp53
 70
     1
102
RTVSPropertyOp54
 70
     1
102
RTVSPropertyOp55
 70
     1
102
RTVSPropertyOp56
 70
     1
102
RTVSPropertyOp57
 70
     1
102
RTVSPropertyOp58
 70
     1
102
RTVSPropertyOp59
 70
     1
102
RTVSPropertyOp60
 70
     1
102
RTVSPropertyOp61
 70
     1
102
RTVSPropertyOp62
 70
     1
  0
ENDSEC
  0
EOF
